  0
SECTION
  2
HEADER
  9
$ACADVER
  1
AC1024
  9
$ACADMAINTVER
 70
     6
  9
$DWGCODEPAGE
  3
ANSI_1252
  9
$LASTSAVEDBY
  1
martinG
  9
$INSBASE
 10
0.0
 20
0.0
 30
0.0
  9
$EXTMIN
 10
4189.694976079145
 20
-21207.81615563116
 30
0.0
  9
$EXTMAX
 10
5185.66950663244
 20
-19852.81615563113
 30
2500.0
  9
$LIMMIN
 10
0.0
 20
0.0
  9
$LIMMAX
 10
420.0
 20
297.0
  9
$ORTHOMODE
 70
     0
  9
$REGENMODE
 70
     1
  9
$FILLMODE
 70
     1
  9
$QTEXTMODE
 70
     0
  9
$MIRRTEXT
 70
     1
  9
$LTSCALE
 40
5.0
  9
$ATTMODE
 70
     1
  9
$TEXTSIZE
 40
2.5
  9
$TRACEWID
 40
1.0
  9
$TEXTSTYLE
  7
Standard
  9
$CLAYER
  8
0
  9
$CELTYPE
  6
Continuous
  9
$CECOLOR
 62
   256
  9
$CELTSCALE
 40
1.0
  9
$DISPSILH
 70
     0
  9
$DIMSCALE
 40
1.0
  9
$DIMASZ
 40
2.5
  9
$DIMEXO
 40
0.625
  9
$DIMDLI
 40
3.75
  9
$DIMRND
 40
0.0
  9
$DIMDLE
 40
0.0
  9
$DIMEXE
 40
1.25
  9
$DIMTP
 40
0.0
  9
$DIMTM
 40
0.0
  9
$DIMTXT
 40
2.5
  9
$DIMCEN
 40
2.5
  9
$DIMTSZ
 40
0.0
  9
$DIMTOL
 70
     0
  9
$DIMLIM
 70
     0
  9
$DIMTIH
 70
     0
  9
$DIMTOH
 70
     0
  9
$DIMSE1
 70
     0
  9
$DIMSE2
 70
     0
  9
$DIMTAD
 70
     1
  9
$DIMZIN
 70
     8
  9
$DIMBLK
  1

  9
$DIMASO
 70
     1
  9
$DIMSHO
 70
     1
  9
$DIMPOST
  1

  9
$DIMAPOST
  1

  9
$DIMALT
 70
     0
  9
$DIMALTD
 70
     3
  9
$DIMALTF
 40
0.03937007874016
  9
$DIMLFAC
 40
1.0
  9
$DIMTOFL
 70
     1
  9
$DIMTVP
 40
0.0
  9
$DIMTIX
 70
     0
  9
$DIMSOXD
 70
     1
  9
$DIMSAH
 70
     0
  9
$DIMBLK1
  1

  9
$DIMBLK2
  1

  9
$DIMSTYLE
  2
ISO-25
  9
$DIMCLRD
 70
     0
  9
$DIMCLRE
 70
     0
  9
$DIMCLRT
 70
     0
  9
$DIMTFAC
 40
1.0
  9
$DIMGAP
 40
0.625
  9
$DIMJUST
 70
     0
  9
$DIMSD1
 70
     0
  9
$DIMSD2
 70
     0
  9
$DIMTOLJ
 70
     0
  9
$DIMTZIN
 70
     8
  9
$DIMALTZ
 70
     0
  9
$DIMALTTZ
 70
     0
  9
$DIMUPT
 70
     0
  9
$DIMDEC
 70
     2
  9
$DIMTDEC
 70
     2
  9
$DIMALTU
 70
     2
  9
$DIMALTTD
 70
     3
  9
$DIMTXSTY
  7
Standard
  9
$DIMAUNIT
 70
     0
  9
$DIMADEC
 70
     0
  9
$DIMALTRND
 40
0.0
  9
$DIMAZIN
 70
     0
  9
$DIMDSEP
 70
    44
  9
$DIMATFIT
 70
     3
  9
$DIMFRAC
 70
     0
  9
$DIMLDRBLK
  1

  9
$DIMLUNIT
 70
     2
  9
$DIMLWD
 70
    -2
  9
$DIMLWE
 70
    -2
  9
$DIMTMOVE
 70
     2
  9
$DIMFXL
 40
1.0
  9
$DIMFXLON
 70
     0
  9
$DIMJOGANG
 40
0.7853981633974483
  9
$DIMTFILL
 70
     0
  9
$DIMTFILLCLR
 70
     0
  9
$DIMARCSYM
 70
     0
  9
$DIMLTYPE
  6

  9
$DIMLTEX1
  6

  9
$DIMLTEX2
  6

  9
$DIMTXTDIRECTION
 70
     0
  9
$LUNITS
 70
     2
  9
$LUPREC
 70
     4
  9
$SKETCHINC
 40
1.0
  9
$FILLETRAD
 40
0.0
  9
$AUNITS
 70
     0
  9
$AUPREC
 70
     0
  9
$MENU
  1
.
  9
$ELEVATION
 40
0.0
  9
$PELEVATION
 40
0.0
  9
$THICKNESS
 40
0.0
  9
$LIMCHECK
 70
     0
  9
$CHAMFERA
 40
0.0
  9
$CHAMFERB
 40
0.0
  9
$CHAMFERC
 40
0.0
  9
$CHAMFERD
 40
0.0
  9
$SKPOLY
 70
     0
  9
$TDCREATE
 40
2460423.611868785
  9
$TDUCREATE
 40
2460423.528535451
  9
$TDUPDATE
 40
2460423.61187243
  9
$TDUUPDATE
 40
2460423.528539097
  9
$TDINDWG
 40
0.0000000116
  9
$TDUSRTIMER
 40
0.0000000116
  9
$USRTIMER
 70
     1
  9
$ANGBASE
 50
0.0
  9
$ANGDIR
 70
     0
  9
$PDMODE
 70
     0
  9
$PDSIZE
 40
0.0
  9
$PLINEWID
 40
0.0
  9
$SPLFRAME
 70
     0
  9
$SPLINETYPE
 70
     6
  9
$SPLINESEGS
 70
     8
  9
$HANDSEED
  5
301
  9
$SURFTAB1
 70
     6
  9
$SURFTAB2
 70
     6
  9
$SURFTYPE
 70
     6
  9
$SURFU
 70
     6
  9
$SURFV
 70
     6
  9
$UCSBASE
  2

  9
$UCSNAME
  2

  9
$UCSORG
 10
0.0
 20
0.0
 30
0.0
  9
$UCSXDIR
 10
1.0
 20
0.0
 30
0.0
  9
$UCSYDIR
 10
0.0
 20
1.0
 30
0.0
  9
$UCSORTHOREF
  2

  9
$UCSORTHOVIEW
 70
     0
  9
$UCSORGTOP
 10
0.0
 20
0.0
 30
0.0
  9
$UCSORGBOTTOM
 10
0.0
 20
0.0
 30
0.0
  9
$UCSORGLEFT
 10
0.0
 20
0.0
 30
0.0
  9
$UCSORGRIGHT
 10
0.0
 20
0.0
 30
0.0
  9
$UCSORGFRONT
 10
0.0
 20
0.0
 30
0.0
  9
$UCSORGBACK
 10
0.0
 20
0.0
 30
0.0
  9
$PUCSBASE
  2

  9
$PUCSNAME
  2

  9
$PUCSORG
 10
0.0
 20
0.0
 30
0.0
  9
$PUCSXDIR
 10
1.0
 20
0.0
 30
0.0
  9
$PUCSYDIR
 10
0.0
 20
1.0
 30
0.0
  9
$PUCSORTHOREF
  2

  9
$PUCSORTHOVIEW
 70
     0
  9
$PUCSORGTOP
 10
0.0
 20
0.0
 30
0.0
  9
$PUCSORGBOTTOM
 10
0.0
 20
0.0
 30
0.0
  9
$PUCSORGLEFT
 10
0.0
 20
0.0
 30
0.0
  9
$PUCSORGRIGHT
 10
0.0
 20
0.0
 30
0.0
  9
$PUCSORGFRONT
 10
0.0
 20
0.0
 30
0.0
  9
$PUCSORGBACK
 10
0.0
 20
0.0
 30
0.0
  9
$USERI1
 70
     0
  9
$USERI2
 70
     0
  9
$USERI3
 70
     0
  9
$USERI4
 70
     0
  9
$USERI5
 70
     0
  9
$USERR1
 40
0.0
  9
$USERR2
 40
0.0
  9
$USERR3
 40
0.0
  9
$USERR4
 40
0.0
  9
$USERR5
 40
0.0
  9
$WORLDVIEW
 70
     1
  9
$SHADEDGE
 70
     3
  9
$SHADEDIF
 70
    70
  9
$TILEMODE
 70
     1
  9
$MAXACTVP
 70
    64
  9
$PINSBASE
 10
0.0
 20
0.0
 30
0.0
  9
$PLIMCHECK
 70
     0
  9
$PEXTMIN
 10
-5.730400000000003
 20
-7.876400000000018
 30
0.0
  9
$PEXTMAX
 10
203.3304
 20
279.4764
 30
0.0
  9
$PLIMMIN
 10
-20.0
 20
-7.5
  9
$PLIMMAX
 10
277.0
 20
202.5
  9
$UNITMODE
 70
     0
  9
$VISRETAIN
 70
     1
  9
$PLINEGEN
 70
     0
  9
$PSLTSCALE
 70
     0
  9
$TREEDEPTH
 70
  3020
  9
$CMLSTYLE
  2
Standard
  9
$CMLJUST
 70
     0
  9
$CMLSCALE
 40
20.0
  9
$PROXYGRAPHICS
 70
     1
  9
$MEASUREMENT
 70
     1
  9
$CELWEIGHT
370
    -1
  9
$ENDCAPS
280
     0
  9
$JOINSTYLE
280
     0
  9
$LWDISPLAY
290
     0
  9
$INSUNITS
 70
     4
  9
$HYPERLINKBASE
  1

  9
$STYLESHEET
  1

  9
$XEDIT
290
     1
  9
$CEPSNTYPE
380
     3
  9
$CEPSNID
390
5F
  9
$PSTYLEMODE
290
     0
  9
$FINGERPRINTGUID
  2
{5301bda5-f9c3-45ea-87bc-ab61767eb2e4}
  9
$VERSIONGUID
  2
{FAEB1C32-E019-11D5-929B-00C0DF256EC4}
  9
$EXTNAMES
290
     1
  9
$PSVPSCALE
 40
0.0
  9
$OLESTARTUP
290
     0
  9
$SORTENTS
280
   127
  9
$INDEXCTL
280
     0
  9
$HIDETEXT
280
     1
  9
$XCLIPFRAME
280
     2
  9
$HALOGAP
280
     0
  9
$OBSCOLOR
 70
   257
  9
$OBSLTYPE
280
     0
  9
$INTERSECTIONDISPLAY
280
     0
  9
$INTERSECTIONCOLOR
 70
   257
  9
$DIMASSOC
280
     2
  9
$PROJECTNAME
  1

  9
$CAMERADISPLAY
290
     0
  9
$LENSLENGTH
 40
50.0
  9
$CAMERAHEIGHT
 40
0.0
  9
$STEPSPERSEC
 40
2.0
  9
$STEPSIZE
 40
6.0
  9
$3DDWFPREC
 40
2.0
  9
$PSOLWIDTH
 40
5.0
  9
$PSOLHEIGHT
 40
80.0
  9
$LOFTANG1
 40
1.570796326794897
  9
$LOFTANG2
 40
1.570796326794897
  9
$LOFTMAG1
 40
0.0
  9
$LOFTMAG2
 40
0.0
  9
$LOFTPARAM
 70
     7
  9
$LOFTNORMALS
280
     1
  9
$LATITUDE
 40
37.795
  9
$LONGITUDE
 40
-122.394
  9
$NORTHDIRECTION
 40
0.0
  9
$TIMEZONE
 70
 -8000
  9
$LIGHTGLYPHDISPLAY
280
     1
  9
$TILEMODELIGHTSYNCH
280
     1
  9
$CMATERIAL
347
44
  9
$SOLIDHIST
280
     0
  9
$SHOWHIST
280
     1
  9
$DWFFRAME
280
     2
  9
$DGNFRAME
280
     2
  9
$REALWORLDSCALE
290
     1
  9
$INTERFERECOLOR
 62
   256
  9
$CSHADOW
280
     0
  9
$SHADOWPLANELOCATION
 40
0.0
  0
ENDSEC
  0
SECTION
  2
CLASSES
  0
CLASS
  1
ACDBDICTIONARYWDFLT
  2
AcDbDictionaryWithDefault
  3
ObjectDBX Classes
 90
        0
 91
        3
280
     0
281
     0
  0
CLASS
  1
VISUALSTYLE
  2
AcDbVisualStyle
  3
ObjectDBX Classes
 90
     4095
 91
        3
280
     0
281
     0
  0
CLASS
  1
MATERIAL
  2
AcDbMaterial
  3
ObjectDBX Classes
 90
     1153
 91
        3
280
     0
281
     0
  0
CLASS
  1
SCALE
  2
AcDbScale
  3
ObjectDBX Classes
 90
     1153
 91
        3
280
     0
281
     0
  0
CLASS
  1
TABLESTYLE
  2
AcDbTableStyle
  3
ObjectDBX Classes
 90
     4095
 91
        3
280
     0
281
     0
  0
CLASS
  1
MLEADERSTYLE
  2
AcDbMLeaderStyle
  3
ACDB_MLEADERSTYLE_CLASS
 90
     4095
 91
        3
280
     0
281
     0
  0
CLASS
  1
SUN
  2
AcDbSun
  3
SCENEOE
 90
     1153
 91
        3
280
     0
281
     0
  0
CLASS
  1
RASTERVARIABLES
  2
AcDbRasterVariables
  3
ISM
 90
        0
 91
        3
280
     0
281
     0
  0
CLASS
  1
WIPEOUTVARIABLES
  2
AcDbWipeoutVariables
  3
WipeOut|AutoCAD Express Tool|expresstools@autodesk.com
 90
        0
 91
        3
280
     0
281
     0
  0
CLASS
  1
PLOTSETTINGS
  2
AcDbPlotSettings
  3
ObjectDBX Classes
 90
        0
 91
        3
280
     0
281
     0
  0
CLASS
  1
DICTIONARYVAR
  2
AcDbDictionaryVar
  3
ObjectDBX Classes
 90
        0
 91
        3
280
     0
281
     0
  0
CLASS
  1
CELLSTYLEMAP
  2
AcDbCellStyleMap
  3
ObjectDBX Classes
 90
     1152
 91
        3
280
     0
281
     0
  0
ENDSEC
  0
SECTION
  2
TABLES
  0
TABLE
  2
VPORT
  5
8
330
0
100
AcDbSymbolTable
 70
     1
  0
VPORT
  5
29
330
8
100
AcDbSymbolTableRecord
100
AcDbViewportTableRecord
  2
*Active
 70
     0
 10
0.0
 20
0.0
 11
1.0
 21
1.0
 12
4682.194976079145
 22
-20530.31615563115
 13
0.0
 23
0.0
 14
10.0
 24
10.0
 15
10.0
 25
10.0
 16
0.0
 26
0.0
 36
1.0
 17
0.0
 27
0.0
 37
0.0
 40
1382.10000000003
 41
0.7269372693726781
 42
50.0
 43
0.0
 44
0.0
 50
0.0
 51
0.0
 71
     0
 72
   100
 73
     1
 74
     3
 75
     0
 76
     0
 77
     0
 78
     0
281
     0
 65
     1
110
0.0
120
0.0
130
0.0
111
1.0
121
0.0
131
0.0
112
0.0
122
1.0
132
0.0
 79
     0
146
0.0
348
2F
 60
     3
 61
     5
292
     1
282
     1
141
0.0
142
0.0
 63
   250
361
5D
  0
ENDTAB
  0
TABLE
  2
LTYPE
  5
5
330
0
100
AcDbSymbolTable
 70
     4
  0
LTYPE
  5
14
330
5
100
AcDbSymbolTableRecord
100
AcDbLinetypeTableRecord
  2
ByBlock
 70
     0
  3

 72
    65
 73
     0
 40
0.0
  0
LTYPE
  5
15
330
5
100
AcDbSymbolTableRecord
100
AcDbLinetypeTableRecord
  2
ByLayer
 70
     0
  3

 72
    65
 73
     0
 40
0.0
  0
LTYPE
  5
16
330
5
100
AcDbSymbolTableRecord
100
AcDbLinetypeTableRecord
  2
Continuous
 70
     0
  3
Solid line
 72
    65
 73
     0
 40
0.0
  0
LTYPE
  5
184
330
5
100
AcDbSymbolTableRecord
100
AcDbLinetypeTableRecord
  2
CADWORK_3
 70
     0
  3

 72
    65
 73
     2
 40
4.0
 49
2.0
 74
     0
 49
-2.0
 74
     0
  0
LTYPE
  5
2A1
330
5
100
AcDbSymbolTableRecord
100
AcDbLinetypeTableRecord
  2
CADWORK_22
 70
     0
  3

 72
    65
 73
     0
 40
0.0
  0
LTYPE
  5
2A3
330
5
100
AcDbSymbolTableRecord
100
AcDbLinetypeTableRecord
  2
CADWORK_6
 70
     0
  3

 72
    65
 73
     4
 40
14.0
 49
8.75
 74
     0
 49
-1.75
 74
     0
 49
1.75
 74
     0
 49
-1.75
 74
     0
  0
ENDTAB
  0
TABLE
  2
LAYER
  5
2
330
0
100
AcDbSymbolTable
 70
    34
  0
LAYER
  5
10
330
2
100
AcDbSymbolTableRecord
100
AcDbLayerTableRecord
  2
0
 70
     0
 62
     7
  6
Continuous
370
    -3
390
F
347
46
  0
LAYER
  5
67
330
2
100
AcDbSymbolTableRecord
100
AcDbLayerTableRecord
  2
Standard
 70
     0
 62
     7
  6
Continuous
370
    -3
390
F
347
46
  0
LAYER
  5
68
330
2
100
AcDbSymbolTableRecord
100
AcDbLayerTableRecord
  2
Ech.1_1
 70
     0
 62
     7
  6
Continuous
370
    -3
390
F
347
46
  0
LAYER
  5
69
330
2
100
AcDbSymbolTableRecord
100
AcDbLayerTableRecord
  2
Ech.1_2
 70
     0
 62
     7
  6
Continuous
370
    -3
390
F
347
46
  0
LAYER
  5
6A
330
2
100
AcDbSymbolTableRecord
100
AcDbLayerTableRecord
  2
Ech.1_5
 70
     0
 62
     7
  6
Continuous
370
    -3
390
F
347
46
  0
LAYER
  5
6B
330
2
100
AcDbSymbolTableRecord
100
AcDbLayerTableRecord
  2
Ech.1_10
 70
     0
 62
     7
  6
Continuous
370
    -3
390
F
347
46
  0
LAYER
  5
6C
330
2
100
AcDbSymbolTableRecord
100
AcDbLayerTableRecord
  2
Ech.1_20
 70
     0
 62
     7
  6
Continuous
370
    -3
390
F
347
46
  0
LAYER
  5
6D
330
2
100
AcDbSymbolTableRecord
100
AcDbLayerTableRecord
  2
Ech.1_25
 70
     0
 62
     7
  6
Continuous
370
    -3
390
F
347
46
  0
LAYER
  5
6E
330
2
100
AcDbSymbolTableRecord
100
AcDbLayerTableRecord
  2
Ech.1_33
 70
     0
 62
     7
  6
Continuous
370
    -3
390
F
347
46
  0
LAYER
  5
6F
330
2
100
AcDbSymbolTableRecord
100
AcDbLayerTableRecord
  2
Ech.1_50
 70
     0
 62
     7
  6
Continuous
370
    -3
390
F
347
46
  0
LAYER
  5
70
330
2
100
AcDbSymbolTableRecord
100
AcDbLayerTableRecord
  2
Ech.1_75
 70
     0
 62
     7
  6
Continuous
370
    -3
390
F
347
46
  0
LAYER
  5
71
330
2
100
AcDbSymbolTableRecord
100
AcDbLayerTableRecord
  2
Ech.1_100
 70
     0
 62
     7
  6
Continuous
370
    -3
390
F
347
46
  0
LAYER
  5
72
330
2
100
AcDbSymbolTableRecord
100
AcDbLayerTableRecord
  2
Ech.1_200
 70
     0
 62
     7
  6
Continuous
370
    -3
390
F
347
46
  0
LAYER
  5
73
330
2
100
AcDbSymbolTableRecord
100
AcDbLayerTableRecord
  2
Ech.1_500
 70
     0
 62
     7
  6
Continuous
370
    -3
390
F
347
46
  0
LAYER
  5
74
330
2
100
AcDbSymbolTableRecord
100
AcDbLayerTableRecord
  2
Ech.1_1000
 70
     0
 62
     7
  6
Continuous
370
    -3
390
F
347
46
  0
LAYER
  5
75
330
2
100
AcDbSymbolTableRecord
100
AcDbLayerTableRecord
  2
ECH_1_5
 70
     0
 62
     7
  6
Continuous
370
    -3
390
F
347
46
  0
LAYER
  5
76
330
2
100
AcDbSymbolTableRecord
100
AcDbLayerTableRecord
  2
Cadres traceur
 70
     0
 62
     7
  6
Continuous
370
    -3
390
F
347
46
  0
LAYER
  5
77
330
2
100
AcDbSymbolTableRecord
100
AcDbLayerTableRecord
  2
Cadres laser
 70
     0
 62
     7
  6
Continuous
370
    -3
390
F
347
46
  0
LAYER
  5
78
330
2
100
AcDbSymbolTableRecord
100
AcDbLayerTableRecord
  2
Légende d_aide
 70
     0
 62
     7
  6
Continuous
370
    -3
390
F
347
46
  0
LAYER
  5
79
330
2
100
AcDbSymbolTableRecord
100
AcDbLayerTableRecord
  2
hachures ok
 70
     0
 62
     7
  6
Continuous
370
    -3
390
F
347
46
  0
LAYER
  5
7A
330
2
100
AcDbSymbolTableRecord
100
AcDbLayerTableRecord
  2
ossature bois
 70
     0
 62
     7
  6
Continuous
370
    -3
390
F
347
46
  0
LAYER
  5
7B
330
2
100
AcDbSymbolTableRecord
100
AcDbLayerTableRecord
  2
VR
 70
     0
 62
     7
  6
Continuous
370
    -3
390
F
347
46
  0
LAYER
  5
7C
330
2
100
AcDbSymbolTableRecord
100
AcDbLayerTableRecord
  2
Calque1
 70
     0
 62
     7
  6
Continuous
370
    -3
390
F
347
46
  0
LAYER
  5
7D
330
2
100
AcDbSymbolTableRecord
100
AcDbLayerTableRecord
  2
0_
 70
     0
 62
     7
  6
Continuous
370
    -3
390
F
347
46
  0
LAYER
  5
7E
330
2
100
AcDbSymbolTableRecord
100
AcDbLayerTableRecord
  2
menuiserie
 70
     0
 62
     7
  6
Continuous
370
    -3
390
F
347
46
  0
LAYER
  5
7F
330
2
100
AcDbSymbolTableRecord
100
AcDbLayerTableRecord
  2
cotation
 70
     0
 62
   250
  6
Continuous
370
    -3
390
F
347
46
  0
LAYER
  5
80
330
2
100
AcDbSymbolTableRecord
100
AcDbLayerTableRecord
  2
Defpoints_
 70
     0
 62
    10
  6
Continuous
370
    -3
390
F
347
46
  0
LAYER
  5
81
330
2
100
AcDbSymbolTableRecord
100
AcDbLayerTableRecord
  2
HACHURE
 70
     0
 62
   254
  6
Continuous
370
    -3
390
F
347
46
  0
LAYER
  5
82
330
2
100
AcDbSymbolTableRecord
100
AcDbLayerTableRecord
  2
mat1
 70
     0
 62
     7
  6
Continuous
370
    -3
390
F
347
46
  0
LAYER
  5
83
330
2
100
AcDbSymbolTableRecord
100
AcDbLayerTableRecord
  2
mat2
 70
     0
 62
     7
  6
Continuous
370
    -3
390
F
347
46
  0
LAYER
  5
84
330
2
100
AcDbSymbolTableRecord
100
AcDbLayerTableRecord
  2
hach
 70
     0
 62
     8
  6
Continuous
370
    -3
390
F
347
46
  0
LAYER
  5
85
330
2
100
AcDbSymbolTableRecord
100
AcDbLayerTableRecord
  2
menuiseries
 70
     0
 62
     7
  6
Continuous
370
    -3
390
F
347
46
  0
LAYER
  5
86
330
2
100
AcDbSymbolTableRecord
100
AcDbLayerTableRecord
  2
BétonMétal
 70
     0
 62
     7
  6
Continuous
370
    -3
390
F
347
46
  0
LAYER
  5
87
330
2
100
AcDbSymbolTableRecord
100
AcDbLayerTableRecord
  2
bois
 70
     0
 62
     7
  6
Continuous
370
    -3
390
F
347
46
  0
ENDTAB
  0
TABLE
  2
STYLE
  5
3
330
0
100
AcDbSymbolTable
 70
     9
  0
STYLE
  5
11
330
3
100
AcDbSymbolTableRecord
100
AcDbTextStyleTableRecord
  2
Standard
 70
     0
 40
0.0
 41
1.0
 50
0.0
 71
     0
 42
2.5
  3
txt
  4

  0
STYLE
  5
62
330
3
100
AcDbSymbolTableRecord
100
AcDbTextStyleTableRecord
  2
CwStyleShx
 70
     0
 40
1.0
 41
1.0
 50
0.0
 71
     0
 42
2.5
  3

  4

  0
STYLE
  5
63
330
3
100
AcDbSymbolTableRecord
100
AcDbTextStyleTableRecord
  2
CwStyleShx16
 70
     0
 40
1.0
 41
1.0
 50
0.0
 71
     0
 42
2.5
  3

  4

  0
STYLE
  5
64
330
3
100
AcDbSymbolTableRecord
100
AcDbTextStyleTableRecord
  2
MONOTXT
 70
     0
 40
0.0
 41
1.0
 50
0.0
 71
     0
 42
2.5
  3
MONOTXT
  4

  0
STYLE
  5
65
330
3
100
AcDbSymbolTableRecord
100
AcDbTextStyleTableRecord
  2
SYMAP
 70
     0
 40
1.0
 41
1.0
 50
0.0
 71
     0
 42
2.5
  3
SYMAP
  4

  0
STYLE
  5
66
330
3
100
AcDbSymbolTableRecord
100
AcDbTextStyleTableRecord
  2
CwStyleTtf
 70
     0
 40
1.0
 41
1.0
 50
0.0
 71
     0
 42
2.5
  3
arial.ttf
  4

  0
STYLE
  5
2AA
330
3
100
AcDbSymbolTableRecord
100
AcDbTextStyleTableRecord
  2
arial-b
 70
     0
 40
1.0
 41
1.0
 50
0.0
 71
     0
 42
2.5
  3
arialbd.ttf
  4

1001
ACAD
1000
Arial
1071
 33554432
  0
STYLE
  5
2AC
330
3
100
AcDbSymbolTableRecord
100
AcDbTextStyleTableRecord
  2
arial-
 70
     0
 40
1.0
 41
1.0
 50
0.0
 71
     0
 42
2.5
  3
arial.ttf
  4

1001
ACAD
1000
Arial
1071
        0
  0
STYLE
  5
2AE
330
3
100
AcDbSymbolTableRecord
100
AcDbTextStyleTableRecord
  2
arial-i
 70
     0
 40
1.0
 41
1.0
 50
0.0
 71
     0
 42
2.5
  3
ariali.ttf
  4

1001
ACAD
1000
Arial
1071
 16777216
  0
ENDTAB
  0
TABLE
  2
VIEW
  5
6
330
0
100
AcDbSymbolTable
 70
     0
  0
ENDTAB
  0
TABLE
  2
UCS
  5
7
330
0
100
AcDbSymbolTable
 70
     0
  0
ENDTAB
  0
TABLE
  2
APPID
  5
9
330
0
100
AcDbSymbolTable
 70
     3
  0
APPID
  5
12
330
9
100
AcDbSymbolTableRecord
100
AcDbRegAppTableRecord
  2
ACAD
 70
     0
  0
APPID
  5
5E
330
9
100
AcDbSymbolTableRecord
100
AcDbRegAppTableRecord
  2
Cadwork
 70
     0
  0
APPID
  5
234
330
9
100
AcDbSymbolTableRecord
100
AcDbRegAppTableRecord
  2
PLOTTRANSPARENCY
 70
     0
  0
ENDTAB
  0
TABLE
  2
DIMSTYLE
  5
A
330
0
100
AcDbSymbolTable
 70
     1
100
AcDbDimStyleTable
  0
DIMSTYLE
105
27
330
A
100
AcDbSymbolTableRecord
100
AcDbDimStyleTableRecord
  2
ISO-25
 70
     0
 41
2.5
 42
0.625
 43
3.75
 44
1.25
 73
     0
 74
     0
 77
     1
 78
     8
140
2.5
141
2.5
143
0.03937007874016
147
0.625
171
     3
172
     1
178
     0
271
     2
272
     2
274
     3
278
    44
283
     0
284
     8
340
11
  0
ENDTAB
  0
TABLE
  2
BLOCK_RECORD
  5
1
330
0
100
AcDbSymbolTable
 70
    69
  0
BLOCK_RECORD
  5
1F
330
1
100
AcDbSymbolTableRecord
100
AcDbBlockTableRecord
  2
*Model_Space
340
22
 70
     0
280
     1
281
     0
  0
BLOCK_RECORD
  5
22F
330
1
100
AcDbSymbolTableRecord
100
AcDbBlockTableRecord
  2
*Paper_Space
340
230
 70
     0
280
     1
281
     0
  0
BLOCK_RECORD
  5
88
330
1
100
AcDbSymbolTableRecord
100
AcDbBlockTableRecord
  2
CDWK_PTTYP1
340
0
 70
     0
280
     1
281
     1
  0
BLOCK_RECORD
  5
8F
330
1
100
AcDbSymbolTableRecord
100
AcDbBlockTableRecord
  2
CDWK_PTTYP2
340
0
 70
     0
280
     1
281
     1
  0
BLOCK_RECORD
  5
94
330
1
100
AcDbSymbolTableRecord
100
AcDbBlockTableRecord
  2
CDWK_PTTYP4
340
0
 70
     0
280
     1
281
     1
  0
BLOCK_RECORD
  5
98
330
1
100
AcDbSymbolTableRecord
100
AcDbBlockTableRecord
  2
CDWK_PTTYP5
340
0
 70
     0
280
     1
281
     1
  0
BLOCK_RECORD
  5
A1
330
1
100
AcDbSymbolTableRecord
100
AcDbBlockTableRecord
  2
CDWK_PTTYP6
340
0
 70
     0
280
     1
281
     1
  0
BLOCK_RECORD
  5
A9
330
1
100
AcDbSymbolTableRecord
100
AcDbBlockTableRecord
  2
CDWK_PTTYP7
340
0
 70
     0
280
     1
281
     1
  0
BLOCK_RECORD
  5
B2
330
1
100
AcDbSymbolTableRecord
100
AcDbBlockTableRecord
  2
CDWK_PTTYP8
340
0
 70
     0
280
     1
281
     1
  0
BLOCK_RECORD
  5
B6
330
1
100
AcDbSymbolTableRecord
100
AcDbBlockTableRecord
  2
CDWK_PTTYP9
340
0
 70
     0
280
     1
281
     1
  0
BLOCK_RECORD
  5
BB
330
1
100
AcDbSymbolTableRecord
100
AcDbBlockTableRecord
  2
CDWK_PTTYP10
340
0
 70
     0
280
     1
281
     1
  0
BLOCK_RECORD
  5
BF
330
1
100
AcDbSymbolTableRecord
100
AcDbBlockTableRecord
  2
CDWK_PTTYP11
340
0
 70
     0
280
     1
281
     1
  0
BLOCK_RECORD
  5
C4
330
1
100
AcDbSymbolTableRecord
100
AcDbBlockTableRecord
  2
CDWK_PTTYP12
340
0
 70
     0
280
     1
281
     1
  0
BLOCK_RECORD
  5
C9
330
1
100
AcDbSymbolTableRecord
100
AcDbBlockTableRecord
  2
CDWK_PTTYP13
340
0
 70
     0
280
     1
281
     1
  0
BLOCK_RECORD
  5
CF
330
1
100
AcDbSymbolTableRecord
100
AcDbBlockTableRecord
  2
CDWK_PTTYP16
340
0
 70
     0
280
     1
281
     1
  0
BLOCK_RECORD
  5
D6
330
1
100
AcDbSymbolTableRecord
100
AcDbBlockTableRecord
  2
CDWK_PTTYP17
340
0
 70
     0
280
     1
281
     1
  0
BLOCK_RECORD
  5
DB
330
1
100
AcDbSymbolTableRecord
100
AcDbBlockTableRecord
  2
CDWK_PTTYP18
340
0
 70
     0
280
     1
281
     1
  0
BLOCK_RECORD
  5
E0
330
1
100
AcDbSymbolTableRecord
100
AcDbBlockTableRecord
  2
CDWK_PTTYP19
340
0
 70
     0
280
     1
281
     1
  0
BLOCK_RECORD
  5
E6
330
1
100
AcDbSymbolTableRecord
100
AcDbBlockTableRecord
  2
CDWK_PTTYP20
340
0
 70
     0
280
     1
281
     1
  0
BLOCK_RECORD
  5
EB
330
1
100
AcDbSymbolTableRecord
100
AcDbBlockTableRecord
  2
CDWK_PTTYP21
340
0
 70
     0
280
     1
281
     1
  0
BLOCK_RECORD
  5
F0
330
1
100
AcDbSymbolTableRecord
100
AcDbBlockTableRecord
  2
CDWK_PTTYP25
340
0
 70
     0
280
     1
281
     1
  0
BLOCK_RECORD
  5
F7
330
1
100
AcDbSymbolTableRecord
100
AcDbBlockTableRecord
  2
CDWK_PTTYP26
340
0
 70
     0
280
     1
281
     1
  0
BLOCK_RECORD
  5
FE
330
1
100
AcDbSymbolTableRecord
100
AcDbBlockTableRecord
  2
CDWK_PTTYP27
340
0
 70
     0
280
     1
281
     1
  0
BLOCK_RECORD
  5
106
330
1
100
AcDbSymbolTableRecord
100
AcDbBlockTableRecord
  2
CDWK_PTTYP28
340
0
 70
     0
280
     1
281
     1
  0
BLOCK_RECORD
  5
10D
330
1
100
AcDbSymbolTableRecord
100
AcDbBlockTableRecord
  2
CDWK_PTTYP29
340
0
 70
     0
280
     1
281
     1
  0
BLOCK_RECORD
  5
113
330
1
100
AcDbSymbolTableRecord
100
AcDbBlockTableRecord
  2
CDWK_PTTYP30
340
0
 70
     0
280
     1
281
     1
  0
BLOCK_RECORD
  5
11A
330
1
100
AcDbSymbolTableRecord
100
AcDbBlockTableRecord
  2
CDWK_PTTYP31
340
0
 70
     0
280
     1
281
     1
  0
BLOCK_RECORD
  5
122
330
1
100
AcDbSymbolTableRecord
100
AcDbBlockTableRecord
  2
CDWK_PTTYP32
340
0
 70
     0
280
     1
281
     1
  0
BLOCK_RECORD
  5
12B
330
1
100
AcDbSymbolTableRecord
100
AcDbBlockTableRecord
  2
CDWK_PTTYP33
340
0
 70
     0
280
     1
281
     1
  0
BLOCK_RECORD
  5
131
330
1
100
AcDbSymbolTableRecord
100
AcDbBlockTableRecord
  2
CDWK_PTTYP34
340
0
 70
     0
280
     1
281
     1
  0
BLOCK_RECORD
  5
137
330
1
100
AcDbSymbolTableRecord
100
AcDbBlockTableRecord
  2
CDWK_PTTYP35
340
0
 70
     0
280
     1
281
     1
  0
BLOCK_RECORD
  5
13D
330
1
100
AcDbSymbolTableRecord
100
AcDbBlockTableRecord
  2
CDWK_PTTYP36
340
0
 70
     0
280
     1
281
     1
  0
BLOCK_RECORD
  5
145
330
1
100
AcDbSymbolTableRecord
100
AcDbBlockTableRecord
  2
CDWK_PTTYP37
340
0
 70
     0
280
     1
281
     1
  0
BLOCK_RECORD
  5
14A
330
1
100
AcDbSymbolTableRecord
100
AcDbBlockTableRecord
  2
CDWK_PTTYP38
340
0
 70
     0
280
     1
281
     1
  0
BLOCK_RECORD
  5
150
330
1
100
AcDbSymbolTableRecord
100
AcDbBlockTableRecord
  2
CDWK_PTTYP41
340
0
 70
     0
280
     1
281
     1
  0
BLOCK_RECORD
  5
15A
330
1
100
AcDbSymbolTableRecord
100
AcDbBlockTableRecord
  2
CDWK_PTTYP42
340
0
 70
     0
280
     1
281
     1
  0
BLOCK_RECORD
  5
163
330
1
100
AcDbSymbolTableRecord
100
AcDbBlockTableRecord
  2
CDWK_PTTYP43
340
0
 70
     0
280
     1
281
     1
  0
BLOCK_RECORD
  5
169
330
1
100
AcDbSymbolTableRecord
100
AcDbBlockTableRecord
  2
CDWK_PTTYP44
340
0
 70
     0
280
     1
281
     1
  0
BLOCK_RECORD
  5
172
330
1
100
AcDbSymbolTableRecord
100
AcDbBlockTableRecord
  2
CDWK_PTTYP45
340
0
 70
     0
280
     1
281
     1
  0
BLOCK_RECORD
  5
177
330
1
100
AcDbSymbolTableRecord
100
AcDbBlockTableRecord
  2
CDWK_PTTYP46
340
0
 70
     0
280
     1
281
     1
  0
BLOCK_RECORD
  5
17C
330
1
100
AcDbSymbolTableRecord
100
AcDbBlockTableRecord
  2
CDWK_PTTYP47
340
0
 70
     0
280
     1
281
     1
  0
BLOCK_RECORD
  5
185
330
1
100
AcDbSymbolTableRecord
100
AcDbBlockTableRecord
  2
CDWK_PTTYP48
340
0
 70
     0
280
     1
281
     1
  0
BLOCK_RECORD
  5
18A
330
1
100
AcDbSymbolTableRecord
100
AcDbBlockTableRecord
  2
CDWK_PTTYP49
340
0
 70
     0
280
     1
281
     1
  0
BLOCK_RECORD
  5
191
330
1
100
AcDbSymbolTableRecord
100
AcDbBlockTableRecord
  2
CDWK_PTTYP50
340
0
 70
     0
280
     1
281
     1
  0
BLOCK_RECORD
  5
19B
330
1
100
AcDbSymbolTableRecord
100
AcDbBlockTableRecord
  2
CDWK_PTTYP51
340
0
 70
     0
280
     1
281
     1
  0
BLOCK_RECORD
  5
1A0
330
1
100
AcDbSymbolTableRecord
100
AcDbBlockTableRecord
  2
CDWK_PTTYP52
340
0
 70
     0
280
     1
281
     1
  0
BLOCK_RECORD
  5
1A6
330
1
100
AcDbSymbolTableRecord
100
AcDbBlockTableRecord
  2
cw-dimension-symbol1
340
0
 70
     0
280
     1
281
     0
  0
BLOCK_RECORD
  5
1AD
330
1
100
AcDbSymbolTableRecord
100
AcDbBlockTableRecord
  2
cw-dimension-symbol2
340
0
 70
     0
280
     1
281
     0
  0
BLOCK_RECORD
  5
1B2
330
1
100
AcDbSymbolTableRecord
100
AcDbBlockTableRecord
  2
cw-dimension-symbol3
340
0
 70
     0
280
     1
281
     0
  0
BLOCK_RECORD
  5
1B7
330
1
100
AcDbSymbolTableRecord
100
AcDbBlockTableRecord
  2
cw-dimension-symbol5
340
0
 70
     0
280
     1
281
     0
  0
BLOCK_RECORD
  5
1BE
330
1
100
AcDbSymbolTableRecord
100
AcDbBlockTableRecord
  2
cw-dimension-symbol6
340
0
 70
     0
280
     1
281
     0
  0
BLOCK_RECORD
  5
1C4
330
1
100
AcDbSymbolTableRecord
100
AcDbBlockTableRecord
  2
cw-dimension-symbol11
340
0
 70
     0
280
     1
281
     0
  0
BLOCK_RECORD
  5
1CA
330
1
100
AcDbSymbolTableRecord
100
AcDbBlockTableRecord
  2
cw-dimension-symbol13
340
0
 70
     0
280
     1
281
     0
  0
BLOCK_RECORD
  5
1D0
330
1
100
AcDbSymbolTableRecord
100
AcDbBlockTableRecord
  2
cw-dimension-symbol15
340
0
 70
     0
280
     1
281
     0
  0
BLOCK_RECORD
  5
1D7
330
1
100
AcDbSymbolTableRecord
100
AcDbBlockTableRecord
  2
cw-dimension-symbol16
340
0
 70
     0
280
     1
281
     0
  0
BLOCK_RECORD
  5
1DE
330
1
100
AcDbSymbolTableRecord
100
AcDbBlockTableRecord
  2
cw-dimension-symbol17
340
0
 70
     0
280
     1
281
     0
  0
BLOCK_RECORD
  5
1E5
330
1
100
AcDbSymbolTableRecord
100
AcDbBlockTableRecord
  2
cw-dimension-symbol18
340
0
 70
     0
280
     1
281
     0
  0
BLOCK_RECORD
  5
1EC
330
1
100
AcDbSymbolTableRecord
100
AcDbBlockTableRecord
  2
cw-dimension-symbol19
340
0
 70
     0
280
     1
281
     0
  0
BLOCK_RECORD
  5
1EF
330
1
100
AcDbSymbolTableRecord
100
AcDbBlockTableRecord
  2
cw-dimension-symbol20
340
0
 70
     0
280
     1
281
     0
  0
BLOCK_RECORD
  5
1F6
330
1
100
AcDbSymbolTableRecord
100
AcDbBlockTableRecord
  2
cw-dimension-symbol21
340
0
 70
     0
280
     1
281
     0
  0
BLOCK_RECORD
  5
1FD
330
1
100
AcDbSymbolTableRecord
100
AcDbBlockTableRecord
  2
cw-line-extremity0
340
0
 70
     0
280
     1
281
     0
  0
BLOCK_RECORD
  5
201
330
1
100
AcDbSymbolTableRecord
100
AcDbBlockTableRecord
  2
cw-line-extremity2
340
0
 70
     0
280
     1
281
     0
  0
BLOCK_RECORD
  5
206
330
1
100
AcDbSymbolTableRecord
100
AcDbBlockTableRecord
  2
cw-line-extremity3
340
0
 70
     0
280
     1
281
     0
  0
BLOCK_RECORD
  5
20B
330
1
100
AcDbSymbolTableRecord
100
AcDbBlockTableRecord
  2
cw-line-extremity301
340
0
 70
     0
280
     1
281
     0
  0
BLOCK_RECORD
  5
20D
330
1
100
AcDbSymbolTableRecord
100
AcDbBlockTableRecord
  2
cw-line-extremity4
340
0
102
{BLKREFS
331
251
331
253
331
255
331
257
331
263
331
26B
331
2A9
102
}
 70
     0
280
     1
281
     0
  0
BLOCK_RECORD
  5
20F
330
1
100
AcDbSymbolTableRecord
100
AcDbBlockTableRecord
  2
cw-line-extremity5
340
0
 70
     0
280
     1
281
     0
  0
BLOCK_RECORD
  5
211
330
1
100
AcDbSymbolTableRecord
100
AcDbBlockTableRecord
  2
cw-line-extremity6
340
0
 70
     0
280
     1
281
     0
  0
BLOCK_RECORD
  5
213
330
1
100
AcDbSymbolTableRecord
100
AcDbBlockTableRecord
  2
cw-line-extremity9
340
0
 70
     0
280
     1
281
     0
  0
BLOCK_RECORD
  5
215
330
1
100
AcDbSymbolTableRecord
100
AcDbBlockTableRecord
  2
cw-line-extremity10
340
0
 70
     0
280
     1
281
     0
  0
BLOCK_RECORD
  5
217
330
1
100
AcDbSymbolTableRecord
100
AcDbBlockTableRecord
  2
cw-line-extremity1
340
0
 70
     0
280
     1
281
     0
  0
BLOCK_RECORD
  5
1B
330
1
100
AcDbSymbolTableRecord
100
AcDbBlockTableRecord
  2
*Paper_Space69
340
1E
 70
     0
280
     1
281
     0
  0
ENDTAB
  0
ENDSEC
  0
SECTION
  2
BLOCKS
  0
BLOCK
  5
20
330
1F
100
AcDbEntity
  8
0
100
AcDbBlockBegin
  2
*Model_Space
 70
     0
 10
0.0
 20
0.0
 30
0.0
  3
*Model_Space
  1

  0
ENDBLK
  5
21
330
1F
100
AcDbEntity
  8
0
100
AcDbBlockEnd
  0
BLOCK
  5
231
330
22F
100
AcDbEntity
 67
     1
  8
0
100
AcDbBlockBegin
  2
*Paper_Space
 70
     0
 10
0.0
 20
0.0
 30
0.0
  3
*Paper_Space
  1

  0
ENDBLK
  5
232
330
22F
100
AcDbEntity
 67
     1
  8
0
100
AcDbBlockEnd
  0
BLOCK
  5
8D
330
88
100
AcDbEntity
  8
0
100
AcDbBlockBegin
  2
CDWK_PTTYP1
 70
     0
 10
0.0
 20
0.0
 30
0.0
  3
CDWK_PTTYP1
  1

  0
LINE
  5
89
330
88
100
AcDbEntity
  8
0
  6
Continuous
 62
     0
370
    -2
390
5F
100
AcDbLine
 10
-0.5
 20
0.5
 30
0.0
 11
0.5
 21
0.5
 31
0.0
  0
LINE
  5
8A
330
88
100
AcDbEntity
  8
0
  6
Continuous
 62
     0
370
    -2
390
5F
100
AcDbLine
 10
0.5
 20
0.5
 30
0.0
 11
0.5
 21
-0.5
 31
0.0
  0
LINE
  5
8B
330
88
100
AcDbEntity
  8
0
  6
Continuous
 62
     0
370
    -2
390
5F
100
AcDbLine
 10
0.5
 20
-0.5
 30
0.0
 11
-0.5
 21
-0.5
 31
0.0
  0
LINE
  5
8C
330
88
100
AcDbEntity
  8
0
  6
Continuous
 62
     0
370
    -2
390
5F
100
AcDbLine
 10
-0.5
 20
-0.5
 30
0.0
 11
-0.5
 21
0.5
 31
0.0
  0
ENDBLK
  5
8E
330
88
100
AcDbEntity
  8
0
100
AcDbBlockEnd
  0
BLOCK
  5
92
330
8F
100
AcDbEntity
  8
0
100
AcDbBlockBegin
  2
CDWK_PTTYP2
 70
     0
 10
0.0
 20
0.0
 30
0.0
  3
CDWK_PTTYP2
  1

  0
LINE
  5
90
330
8F
100
AcDbEntity
  8
0
  6
Continuous
 62
     0
370
    -2
390
5F
100
AcDbLine
 10
0.0
 20
0.5
 30
0.0
 11
0.0
 21
-0.5
 31
0.0
  0
LINE
  5
91
330
8F
100
AcDbEntity
  8
0
  6
Continuous
 62
     0
370
    -2
390
5F
100
AcDbLine
 10
0.5
 20
0.0
 30
0.0
 11
-0.5
 21
0.0
 31
0.0
  0
ENDBLK
  5
93
330
8F
100
AcDbEntity
  8
0
100
AcDbBlockEnd
  0
BLOCK
  5
96
330
94
100
AcDbEntity
  8
0
100
AcDbBlockBegin
  2
CDWK_PTTYP4
 70
     0
 10
0.0
 20
0.0
 30
0.0
  3
CDWK_PTTYP4
  1

  0
HATCH
  5
95
330
94
100
AcDbEntity
  8
0
  6
Continuous
 62
     0
370
    -2
390
5F
100
AcDbHatch
 10
0.0
 20
0.0
 30
0.0
210
0.0
220
0.0
230
1.0
  2
SOLID
 70
     1
 71
     0
 91
        1
 92
        1
 93
        1
 72
     2
 10
0.0
 20
0.0
 40
0.5
 50
0.0
 51
360.0
 73
     1
 97
        0
 75
     0
 76
     1
 98
        0
  0
ENDBLK
  5
97
330
94
100
AcDbEntity
  8
0
100
AcDbBlockEnd
  0
BLOCK
  5
9F
330
98
100
AcDbEntity
  8
0
100
AcDbBlockBegin
  2
CDWK_PTTYP5
 70
     0
 10
0.0
 20
0.0
 30
0.0
  3
CDWK_PTTYP5
  1

  0
LINE
  5
99
330
98
100
AcDbEntity
  8
0
  6
Continuous
 62
     0
370
    -2
390
5F
100
AcDbLine
 10
-0.5
 20
0.5
 30
0.0
 11
0.5
 21
0.5
 31
0.0
  0
LINE
  5
9A
330
98
100
AcDbEntity
  8
0
  6
Continuous
 62
     0
370
    -2
390
5F
100
AcDbLine
 10
0.5
 20
0.5
 30
0.0
 11
0.5
 21
-0.5
 31
0.0
  0
LINE
  5
9B
330
98
100
AcDbEntity
  8
0
  6
Continuous
 62
     0
370
    -2
390
5F
100
AcDbLine
 10
0.5
 20
-0.5
 30
0.0
 11
-0.5
 21
-0.5
 31
0.0
  0
LINE
  5
9C
330
98
100
AcDbEntity
  8
0
  6
Continuous
 62
     0
370
    -2
390
5F
100
AcDbLine
 10
-0.5
 20
-0.5
 30
0.0
 11
-0.5
 21
0.5
 31
0.0
  0
HATCH
  5
9D
330
98
100
AcDbEntity
  8
0
  6
Continuous
 62
     0
370
    -2
390
5F
100
AcDbHatch
 10
0.0
 20
0.0
 30
0.0
210
0.0
220
0.0
230
1.0
  2
SOLID
 70
     1
 71
     0
 91
        1
 92
        3
 72
     0
 73
     1
 93
        4
 10
-0.5
 20
0.0
 10
0.0
 20
0.0
 10
0.0
 20
-0.5
 10
-0.5
 20
-0.5
 97
        0
 75
     0
 76
     1
 98
        0
  0
HATCH
  5
9E
330
98
100
AcDbEntity
  8
0
  6
Continuous
 62
     0
370
    -2
390
5F
100
AcDbHatch
 10
0.0
 20
0.0
 30
0.0
210
0.0
220
0.0
230
1.0
  2
SOLID
 70
     1
 71
     0
 91
        1
 92
        3
 72
     0
 73
     1
 93
        4
 10
0.0
 20
0.0
 10
0.5
 20
0.0
 10
0.5
 20
0.5
 10
0.0
 20
0.5
 97
        0
 75
     0
 76
     1
 98
        0
  0
ENDBLK
  5
A0
330
98
100
AcDbEntity
  8
0
100
AcDbBlockEnd
  0
BLOCK
  5
A7
330
A1
100
AcDbEntity
  8
0
100
AcDbBlockBegin
  2
CDWK_PTTYP6
 70
     0
 10
0.0
 20
0.0
 30
0.0
  3
CDWK_PTTYP6
  1

  0
LINE
  5
A2
330
A1
100
AcDbEntity
  8
0
  6
Continuous
 62
     0
370
    -2
390
5F
100
AcDbLine
 10
-0.5
 20
0.5
 30
0.0
 11
0.5
 21
0.5
 31
0.0
  0
LINE
  5
A3
330
A1
100
AcDbEntity
  8
0
  6
Continuous
 62
     0
370
    -2
390
5F
100
AcDbLine
 10
0.5
 20
0.5
 30
0.0
 11
0.5
 21
-0.5
 31
0.0
  0
LINE
  5
A4
330
A1
100
AcDbEntity
  8
0
  6
Continuous
 62
     0
370
    -2
390
5F
100
AcDbLine
 10
0.5
 20
-0.5
 30
0.0
 11
-0.5
 21
-0.5
 31
0.0
  0
LINE
  5
A5
330
A1
100
AcDbEntity
  8
0
  6
Continuous
 62
     0
370
    -2
390
5F
100
AcDbLine
 10
-0.5
 20
-0.5
 30
0.0
 11
-0.5
 21
0.5
 31
0.0
  0
HATCH
  5
A6
330
A1
100
AcDbEntity
  8
0
  6
Continuous
 62
     0
370
    -2
390
5F
100
AcDbHatch
 10
0.0
 20
0.0
 30
0.0
210
0.0
220
0.0
230
1.0
  2
SOLID
 70
     1
 71
     0
 91
        1
 92
        3
 72
     0
 73
     1
 93
        3
 10
-0.5
 20
-0.5
 10
-0.5
 20
0.5
 10
0.5
 20
0.5
 97
        0
 75
     0
 76
     1
 98
        0
  0
ENDBLK
  5
A8
330
A1
100
AcDbEntity
  8
0
100
AcDbBlockEnd
  0
BLOCK
  5
B0
330
A9
100
AcDbEntity
  8
0
100
AcDbBlockBegin
  2
CDWK_PTTYP7
 70
     0
 10
0.0
 20
0.0
 30
0.0
  3
CDWK_PTTYP7
  1

  0
LINE
  5
AA
330
A9
100
AcDbEntity
  8
0
  6
Continuous
 62
     0
370
    -2
390
5F
100
AcDbLine
 10
-0.5
 20
0.5
 30
0.0
 11
0.5
 21
0.5
 31
0.0
  0
LINE
  5
AB
330
A9
100
AcDbEntity
  8
0
  6
Continuous
 62
     0
370
    -2
390
5F
100
AcDbLine
 10
0.5
 20
0.5
 30
0.0
 11
0.5
 21
-0.5
 31
0.0
  0
LINE
  5
AC
330
A9
100
AcDbEntity
  8
0
  6
Continuous
 62
     0
370
    -2
390
5F
100
AcDbLine
 10
0.5
 20
-0.5
 30
0.0
 11
-0.5
 21
-0.5
 31
0.0
  0
LINE
  5
AD
330
A9
100
AcDbEntity
  8
0
  6
Continuous
 62
     0
370
    -2
390
5F
100
AcDbLine
 10
-0.5
 20
-0.5
 30
0.0
 11
-0.5
 21
0.5
 31
0.0
  0
LINE
  5
AE
330
A9
100
AcDbEntity
  8
0
  6
Continuous
 62
     0
370
    -2
390
5F
100
AcDbLine
 10
0.0
 20
0.5
 30
0.0
 11
0.0
 21
-0.5
 31
0.0
  0
LINE
  5
AF
330
A9
100
AcDbEntity
  8
0
  6
Continuous
 62
     0
370
    -2
390
5F
100
AcDbLine
 10
0.5
 20
0.0
 30
0.0
 11
-0.5
 21
0.0
 31
0.0
  0
ENDBLK
  5
B1
330
A9
100
AcDbEntity
  8
0
100
AcDbBlockEnd
  0
BLOCK
  5
B4
330
B2
100
AcDbEntity
  8
0
100
AcDbBlockBegin
  2
CDWK_PTTYP8
 70
     0
 10
0.0
 20
0.0
 30
0.0
  3
CDWK_PTTYP8
  1

  0
HATCH
  5
B3
330
B2
100
AcDbEntity
  8
0
  6
Continuous
 62
     0
370
    -2
390
5F
100
AcDbHatch
 10
0.0
 20
0.0
 30
0.0
210
0.0
220
0.0
230
1.0
  2
SOLID
 70
     1
 71
     0
 91
        1
 92
        3
 72
     0
 73
     1
 93
        4
 10
0.5
 20
0.5
 10
0.5
 20
-0.5
 10
-0.5
 20
-0.5
 10
-0.5
 20
0.5
 97
        0
 75
     0
 76
     1
 98
        0
  0
ENDBLK
  5
B5
330
B2
100
AcDbEntity
  8
0
100
AcDbBlockEnd
  0
BLOCK
  5
B9
330
B6
100
AcDbEntity
  8
0
100
AcDbBlockBegin
  2
CDWK_PTTYP9
 70
     0
 10
0.0
 20
0.0
 30
0.0
  3
CDWK_PTTYP9
  1

  0
CIRCLE
  5
B7
330
B6
100
AcDbEntity
  8
0
  6
Continuous
 62
     0
370
    -2
390
5F
100
AcDbCircle
 10
0.0
 20
0.0
 30
0.0
 40
0.1666666666666667
  0
CIRCLE
  5
B8
330
B6
100
AcDbEntity
  8
0
  6
Continuous
 62
     0
370
    -2
390
5F
100
AcDbCircle
 10
0.0
 20
0.0
 30
0.0
 40
0.5
  0
ENDBLK
  5
BA
330
B6
100
AcDbEntity
  8
0
100
AcDbBlockEnd
  0
BLOCK
  5
BD
330
BB
100
AcDbEntity
  8
0
100
AcDbBlockBegin
  2
CDWK_PTTYP10
 70
     0
 10
0.0
 20
0.0
 30
0.0
  3
CDWK_PTTYP10
  1

  0
CIRCLE
  5
BC
330
BB
100
AcDbEntity
  8
0
  6
Continuous
 62
     0
370
    -2
390
5F
100
AcDbCircle
 10
0.0
 20
0.0
 30
0.0
 40
0.5
  0
ENDBLK
  5
BE
330
BB
100
AcDbEntity
  8
0
100
AcDbBlockEnd
  0
BLOCK
  5
C2
330
BF
100
AcDbEntity
  8
0
100
AcDbBlockBegin
  2
CDWK_PTTYP11
 70
     0
 10
0.0
 20
0.0
 30
0.0
  3
CDWK_PTTYP11
  1

  0
CIRCLE
  5
C0
330
BF
100
AcDbEntity
  8
0
  6
Continuous
 62
     0
370
    -2
390
5F
100
AcDbCircle
 10
0.0
 20
0.0
 30
0.0
 40
0.25
  0
CIRCLE
  5
C1
330
BF
100
AcDbEntity
  8
0
  6
Continuous
 62
     0
370
    -2
390
5F
100
AcDbCircle
 10
0.0
 20
0.0
 30
0.0
 40
0.5
  0
ENDBLK
  5
C3
330
BF
100
AcDbEntity
  8
0
100
AcDbBlockEnd
  0
BLOCK
  5
C7
330
C4
100
AcDbEntity
  8
0
100
AcDbBlockBegin
  2
CDWK_PTTYP12
 70
     0
 10
0.0
 20
0.0
 30
0.0
  3
CDWK_PTTYP12
  1

  0
CIRCLE
  5
C5
330
C4
100
AcDbEntity
  8
0
  6
Continuous
 62
     0
370
    -2
390
5F
100
AcDbCircle
 10
0.25
 20
0.0
 30
0.0
 40
0.25
  0
CIRCLE
  5
C6
330
C4
100
AcDbEntity
  8
0
  6
Continuous
 62
     0
370
    -2
390
5F
100
AcDbCircle
 10
0.0
 20
0.0
 30
0.0
 40
0.5
  0
ENDBLK
  5
C8
330
C4
100
AcDbEntity
  8
0
100
AcDbBlockEnd
  0
BLOCK
  5
CD
330
C9
100
AcDbEntity
  8
0
100
AcDbBlockBegin
  2
CDWK_PTTYP13
 70
     0
 10
0.0
 20
0.0
 30
0.0
  3
CDWK_PTTYP13
  1

  0
CIRCLE
  5
CA
330
C9
100
AcDbEntity
  8
0
  6
Continuous
 62
     0
370
    -2
390
5F
100
AcDbCircle
 10
-0.25
 20
0.0
 30
0.0
 40
0.25
  0
CIRCLE
  5
CB
330
C9
100
AcDbEntity
  8
0
  6
Continuous
 62
     0
370
    -2
390
5F
100
AcDbCircle
 10
0.25
 20
0.0
 30
0.0
 40
0.25
  0
CIRCLE
  5
CC
330
C9
100
AcDbEntity
  8
0
  6
Continuous
 62
     0
370
    -2
390
5F
100
AcDbCircle
 10
0.0
 20
0.0
 30
0.0
 40
0.5
  0
ENDBLK
  5
CE
330
C9
100
AcDbEntity
  8
0
100
AcDbBlockEnd
  0
BLOCK
  5
D4
330
CF
100
AcDbEntity
  8
0
100
AcDbBlockBegin
  2
CDWK_PTTYP16
 70
     0
 10
0.0
 20
0.0
 30
0.0
  3
CDWK_PTTYP16
  1

  0
LINE
  5
D0
330
CF
100
AcDbEntity
  8
0
  6
Continuous
 62
     0
370
    -2
390
5F
100
AcDbLine
 10
-0.5
 20
-0.289
 30
0.0
 11
0.5
 21
-0.289
 31
0.0
  0
LINE
  5
D1
330
CF
100
AcDbEntity
  8
0
  6
Continuous
 62
     0
370
    -2
390
5F
100
AcDbLine
 10
0.5
 20
-0.289
 30
0.0
 11
0.0
 21
0.577
 31
0.0
  0
LINE
  5
D2
330
CF
100
AcDbEntity
  8
0
  6
Continuous
 62
     0
370
    -2
390
5F
100
AcDbLine
 10
0.0
 20
0.577
 30
0.0
 11
-0.5
 21
-0.289
 31
0.0
  0
CIRCLE
  5
D3
330
CF
100
AcDbEntity
  8
0
  6
Continuous
 62
     0
370
    -2
390
5F
100
AcDbCircle
 10
0.0
 20
0.0
 30
0.0
 40
0.289
  0
ENDBLK
  5
D5
330
CF
100
AcDbEntity
  8
0
100
AcDbBlockEnd
  0
BLOCK
  5
D9
330
D6
100
AcDbEntity
  8
0
100
AcDbBlockBegin
  2
CDWK_PTTYP17
 70
     0
 10
0.0
 20
0.0
 30
0.0
  3
CDWK_PTTYP17
  1

  0
CIRCLE
  5
D7
330
D6
100
AcDbEntity
  8
0
  6
Continuous
 62
     0
370
    -2
390
5F
100
AcDbCircle
 10
0.0
 20
0.0
 30
0.0
 40
0.5
  0
HATCH
  5
D8
330
D6
100
AcDbEntity
  8
0
  6
Continuous
 62
     0
370
    -2
390
5F
100
AcDbHatch
 10
0.0
 20
0.0
 30
0.0
210
0.0
220
0.0
230
1.0
  2
SOLID
 70
     1
 71
     0
 91
        1
 92
        1
 93
        1
 72
     2
 10
0.0
 20
0.0
 40
0.25
 50
0.0
 51
360.0
 73
     1
 97
        0
 75
     0
 76
     1
 98
        0
  0
ENDBLK
  5
DA
330
D6
100
AcDbEntity
  8
0
100
AcDbBlockEnd
  0
BLOCK
  5
DE
330
DB
100
AcDbEntity
  8
0
100
AcDbBlockBegin
  2
CDWK_PTTYP18
 70
     0
 10
0.0
 20
0.0
 30
0.0
  3
CDWK_PTTYP18
  1

  0
CIRCLE
  5
DC
330
DB
100
AcDbEntity
  8
0
  6
Continuous
 62
     0
370
    -2
390
5F
100
AcDbCircle
 10
0.0
 20
0.0
 30
0.0
 40
0.5
  0
CIRCLE
  5
DD
330
DB
100
AcDbEntity
  8
0
  6
Continuous
 62
     0
370
    -2
390
5F
100
AcDbCircle
 10
0.0
 20
0.0
 30
0.0
 40
0.208
  0
ENDBLK
  5
DF
330
DB
100
AcDbEntity
  8
0
100
AcDbBlockEnd
  0
BLOCK
  5
E4
330
E0
100
AcDbEntity
  8
0
100
AcDbBlockBegin
  2
CDWK_PTTYP19
 70
     0
 10
0.0
 20
0.0
 30
0.0
  3
CDWK_PTTYP19
  1

  0
CIRCLE
  5
E1
330
E0
100
AcDbEntity
  8
0
  6
Continuous
 62
     0
370
    -2
390
5F
100
AcDbCircle
 10
0.0
 20
0.0
 30
0.0
 40
0.25
  0
CIRCLE
  5
E2
330
E0
100
AcDbEntity
  8
0
  6
Continuous
 62
     0
370
    -2
390
5F
100
AcDbCircle
 10
0.0
 20
0.0
 30
0.0
 40
0.35
  0
LINE
  5
E3
330
E0
100
AcDbEntity
  8
0
  6
Continuous
 62
     0
370
    -2
390
5F
100
AcDbLine
 10
-0.25
 20
0.0
 30
0.0
 11
0.25
 21
0.0
 31
0.0
  0
ENDBLK
  5
E5
330
E0
100
AcDbEntity
  8
0
100
AcDbBlockEnd
  0
BLOCK
  5
E9
330
E6
100
AcDbEntity
  8
0
100
AcDbBlockBegin
  2
CDWK_PTTYP20
 70
     0
 10
0.0
 20
0.0
 30
0.0
  3
CDWK_PTTYP20
  1

  0
CIRCLE
  5
E7
330
E6
100
AcDbEntity
  8
0
  6
Continuous
 62
     0
370
    -2
390
5F
100
AcDbCircle
 10
0.0
 20
0.0
 30
0.0
 40
0.3333333333333333
  0
CIRCLE
  5
E8
330
E6
100
AcDbEntity
  8
0
  6
Continuous
 62
     0
370
    -2
390
5F
100
AcDbCircle
 10
0.0
 20
0.0
 30
0.0
 40
0.5
  0
ENDBLK
  5
EA
330
E6
100
AcDbEntity
  8
0
100
AcDbBlockEnd
  0
BLOCK
  5
EE
330
EB
100
AcDbEntity
  8
0
100
AcDbBlockBegin
  2
CDWK_PTTYP21
 70
     0
 10
0.0
 20
0.0
 30
0.0
  3
CDWK_PTTYP21
  1

  0
CIRCLE
  5
EC
330
EB
100
AcDbEntity
  8
0
  6
Continuous
 62
     0
370
    -2
390
5F
100
AcDbCircle
 10
0.0
 20
0.0
 30
0.0
 40
0.5
  0
LINE
  5
ED
330
EB
100
AcDbEntity
  8
0
  6
Continuous
 62
     0
370
    -2
390
5F
100
AcDbLine
 10
-0.5
 20
0.0
 30
0.0
 11
0.5
 21
0.0
 31
0.0
  0
ENDBLK
  5
EF
330
EB
100
AcDbEntity
  8
0
100
AcDbBlockEnd
  0
BLOCK
  5
F5
330
F0
100
AcDbEntity
  8
0
100
AcDbBlockBegin
  2
CDWK_PTTYP25
 70
     0
 10
0.0
 20
0.0
 30
0.0
  3
CDWK_PTTYP25
  1

  0
LINE
  5
F1
330
F0
100
AcDbEntity
  8
0
  6
Continuous
 62
     0
370
    -2
390
5F
100
AcDbLine
 10
0.0
 20
0.5
 30
0.0
 11
-0.4330127018922193
 21
-0.25
 31
0.0
  0
LINE
  5
F2
330
F0
100
AcDbEntity
  8
0
  6
Continuous
 62
     0
370
    -2
390
5F
100
AcDbLine
 10
-0.4330127018922193
 20
-0.25
 30
0.0
 11
0.4330127018922193
 21
-0.25
 31
0.0
  0
LINE
  5
F3
330
F0
100
AcDbEntity
  8
0
  6
Continuous
 62
     0
370
    -2
390
5F
100
AcDbLine
 10
0.4330127018922193
 20
-0.25
 30
0.0
 11
0.0
 21
0.5
 31
0.0
  0
CIRCLE
  5
F4
330
F0
100
AcDbEntity
  8
0
  6
Continuous
 62
     0
370
    -2
390
5F
100
AcDbCircle
 10
0.0
 20
0.0
 30
0.0
 40
0.5
  0
ENDBLK
  5
F6
330
F0
100
AcDbEntity
  8
0
100
AcDbBlockEnd
  0
BLOCK
  5
FC
330
F7
100
AcDbEntity
  8
0
100
AcDbBlockBegin
  2
CDWK_PTTYP26
 70
     0
 10
0.0
 20
0.0
 30
0.0
  3
CDWK_PTTYP26
  1

  0
LINE
  5
F8
330
F7
100
AcDbEntity
  8
0
  6
Continuous
 62
     0
370
    -2
390
5F
100
AcDbLine
 10
-0.5
 20
-0.289
 30
0.0
 11
0.5
 21
-0.289
 31
0.0
  0
LINE
  5
F9
330
F7
100
AcDbEntity
  8
0
  6
Continuous
 62
     0
370
    -2
390
5F
100
AcDbLine
 10
0.5
 20
-0.289
 30
0.0
 11
0.0
 21
0.577
 31
0.0
  0
LINE
  5
FA
330
F7
100
AcDbEntity
  8
0
  6
Continuous
 62
     0
370
    -2
390
5F
100
AcDbLine
 10
0.0
 20
0.577
 30
0.0
 11
-0.5
 21
-0.289
 31
0.0
  0
CIRCLE
  5
FB
330
F7
100
AcDbEntity
  8
0
  6
Continuous
 62
     0
370
    -2
390
5F
100
AcDbCircle
 10
0.0
 20
0.0
 30
0.0
 40
0.125
  0
ENDBLK
  5
FD
330
F7
100
AcDbEntity
  8
0
100
AcDbBlockEnd
  0
BLOCK
  5
104
330
FE
100
AcDbEntity
  8
0
100
AcDbBlockBegin
  2
CDWK_PTTYP27
 70
     0
 10
0.0
 20
0.0
 30
0.0
  3
CDWK_PTTYP27
  1

  0
LINE
  5
FF
330
FE
100
AcDbEntity
  8
0
  6
Continuous
 62
     0
370
    -2
390
5F
100
AcDbLine
 10
0.0
 20
0.5
 30
0.0
 11
-0.4330127018922193
 21
-0.25
 31
0.0
  0
LINE
  5
100
330
FE
100
AcDbEntity
  8
0
  6
Continuous
 62
     0
370
    -2
390
5F
100
AcDbLine
 10
-0.4330127018922193
 20
-0.25
 30
0.0
 11
0.4330127018922193
 21
-0.25
 31
0.0
  0
LINE
  5
101
330
FE
100
AcDbEntity
  8
0
  6
Continuous
 62
     0
370
    -2
390
5F
100
AcDbLine
 10
0.4330127018922193
 20
-0.25
 30
0.0
 11
0.0
 21
0.5
 31
0.0
  0
CIRCLE
  5
102
330
FE
100
AcDbEntity
  8
0
  6
Continuous
 62
     0
370
    -2
390
5F
100
AcDbCircle
 10
0.0
 20
0.0
 30
0.0
 40
0.125
  0
CIRCLE
  5
103
330
FE
100
AcDbEntity
  8
0
  6
Continuous
 62
     0
370
    -2
390
5F
100
AcDbCircle
 10
0.0
 20
0.0
 30
0.0
 40
0.5
  0
ENDBLK
  5
105
330
FE
100
AcDbEntity
  8
0
100
AcDbBlockEnd
  0
BLOCK
  5
10B
330
106
100
AcDbEntity
  8
0
100
AcDbBlockBegin
  2
CDWK_PTTYP28
 70
     0
 10
0.0
 20
0.0
 30
0.0
  3
CDWK_PTTYP28
  1

  0
LINE
  5
107
330
106
100
AcDbEntity
  8
0
  6
Continuous
 62
     0
370
    -2
390
5F
100
AcDbLine
 10
-0.5
 20
0.5
 30
0.0
 11
0.5
 21
0.5
 31
0.0
  0
LINE
  5
108
330
106
100
AcDbEntity
  8
0
  6
Continuous
 62
     0
370
    -2
390
5F
100
AcDbLine
 10
0.5
 20
0.5
 30
0.0
 11
-0.5
 21
-0.5
 31
0.0
  0
LINE
  5
109
330
106
100
AcDbEntity
  8
0
  6
Continuous
 62
     0
370
    -2
390
5F
100
AcDbLine
 10
0.5
 20
-0.5
 30
0.0
 11
-0.5
 21
-0.5
 31
0.0
  0
LINE
  5
10A
330
106
100
AcDbEntity
  8
0
  6
Continuous
 62
     0
370
    -2
390
5F
100
AcDbLine
 10
-0.5
 20
0.5
 30
0.0
 11
0.5
 21
-0.5
 31
0.0
  0
ENDBLK
  5
10C
330
106
100
AcDbEntity
  8
0
100
AcDbBlockEnd
  0
BLOCK
  5
111
330
10D
100
AcDbEntity
  8
0
100
AcDbBlockBegin
  2
CDWK_PTTYP29
 70
     0
 10
0.0
 20
0.0
 30
0.0
  3
CDWK_PTTYP29
  1

  0
CIRCLE
  5
10E
330
10D
100
AcDbEntity
  8
0
  6
Continuous
 62
     0
370
    -2
390
5F
100
AcDbCircle
 10
0.0
 20
0.0
 30
0.0
 40
0.2
  0
CIRCLE
  5
10F
330
10D
100
AcDbEntity
  8
0
  6
Continuous
 62
     0
370
    -2
390
5F
100
AcDbCircle
 10
0.0
 20
0.0
 30
0.0
 40
0.35
  0
CIRCLE
  5
110
330
10D
100
AcDbEntity
  8
0
  6
Continuous
 62
     0
370
    -2
390
5F
100
AcDbCircle
 10
0.0
 20
0.0
 30
0.0
 40
0.5
  0
ENDBLK
  5
112
330
10D
100
AcDbEntity
  8
0
100
AcDbBlockEnd
  0
BLOCK
  5
118
330
113
100
AcDbEntity
  8
0
100
AcDbBlockBegin
  2
CDWK_PTTYP30
 70
     0
 10
0.0
 20
0.0
 30
0.0
  3
CDWK_PTTYP30
  1

  0
LINE
  5
114
330
113
100
AcDbEntity
  8
0
  6
Continuous
 62
     0
370
    -2
390
5F
100
AcDbLine
 10
-0.5
 20
0.5
 30
0.0
 11
-0.1
 21
0.1
 31
0.0
  0
LINE
  5
115
330
113
100
AcDbEntity
  8
0
  6
Continuous
 62
     0
370
    -2
390
5F
100
AcDbLine
 10
0.5
 20
0.5
 30
0.0
 11
0.1
 21
0.1
 31
0.0
  0
LINE
  5
116
330
113
100
AcDbEntity
  8
0
  6
Continuous
 62
     0
370
    -2
390
5F
100
AcDbLine
 10
0.5
 20
-0.5
 30
0.0
 11
0.1
 21
-0.1
 31
0.0
  0
LINE
  5
117
330
113
100
AcDbEntity
  8
0
  6
Continuous
 62
     0
370
    -2
390
5F
100
AcDbLine
 10
-0.5
 20
-0.5
 30
0.0
 11
-0.1
 21
-0.1
 31
0.0
  0
ENDBLK
  5
119
330
113
100
AcDbEntity
  8
0
100
AcDbBlockEnd
  0
BLOCK
  5
120
330
11A
100
AcDbEntity
  8
0
100
AcDbBlockBegin
  2
CDWK_PTTYP31
 70
     0
 10
0.0
 20
0.0
 30
0.0
  3
CDWK_PTTYP31
  1

  0
LINE
  5
11B
330
11A
100
AcDbEntity
  8
0
  6
Continuous
 62
     0
370
    -2
390
5F
100
AcDbLine
 10
-0.5
 20
0.0
 30
0.0
 11
-0.1
 21
0.0
 31
0.0
  0
LINE
  5
11C
330
11A
100
AcDbEntity
  8
0
  6
Continuous
 62
     0
370
    -2
390
5F
100
AcDbLine
 10
0.1
 20
0.0
 30
0.0
 11
0.5
 21
0.0
 31
0.0
  0
LINE
  5
11D
330
11A
100
AcDbEntity
  8
0
  6
Continuous
 62
     0
370
    -2
390
5F
100
AcDbLine
 10
0.0
 20
0.5
 30
0.0
 11
0.0
 21
0.1
 31
0.0
  0
LINE
  5
11E
330
11A
100
AcDbEntity
  8
0
  6
Continuous
 62
     0
370
    -2
390
5F
100
AcDbLine
 10
0.0
 20
-0.1
 30
0.0
 11
0.0
 21
-0.5
 31
0.0
  0
CIRCLE
  5
11F
330
11A
100
AcDbEntity
  8
0
  6
Continuous
 62
     0
370
    -2
390
5F
100
AcDbCircle
 10
0.0
 20
0.0
 30
0.0
 40
0.1
  0
ENDBLK
  5
121
330
11A
100
AcDbEntity
  8
0
100
AcDbBlockEnd
  0
BLOCK
  5
129
330
122
100
AcDbEntity
  8
0
100
AcDbBlockBegin
  2
CDWK_PTTYP32
 70
     0
 10
0.0
 20
0.0
 30
0.0
  3
CDWK_PTTYP32
  1

  0
CIRCLE
  5
123
330
122
100
AcDbEntity
  8
0
  6
Continuous
 62
     0
370
    -2
390
5F
100
AcDbCircle
 10
0.0
 20
0.0
 30
0.0
 40
0.2
  0
CIRCLE
  5
124
330
122
100
AcDbEntity
  8
0
  6
Continuous
 62
     0
370
    -2
390
5F
100
AcDbCircle
 10
0.0
 20
0.0
 30
0.0
 40
0.5
  0
LINE
  5
125
330
122
100
AcDbEntity
  8
0
  6
Continuous
 62
     0
370
    -2
390
5F
100
AcDbLine
 10
0.1414213562373095
 20
0.1414213562373095
 30
0.0
 11
0.3535533905932738
 21
0.3535533905932738
 31
0.0
  0
LINE
  5
126
330
122
100
AcDbEntity
  8
0
  6
Continuous
 62
     0
370
    -2
390
5F
100
AcDbLine
 10
-0.1414213562373095
 20
0.1414213562373095
 30
0.0
 11
-0.3535533905932738
 21
0.3535533905932738
 31
0.0
  0
LINE
  5
127
330
122
100
AcDbEntity
  8
0
  6
Continuous
 62
     0
370
    -2
390
5F
100
AcDbLine
 10
0.1414213562373095
 20
-0.1414213562373095
 30
0.0
 11
0.3535533905932738
 21
-0.3535533905932738
 31
0.0
  0
LINE
  5
128
330
122
100
AcDbEntity
  8
0
  6
Continuous
 62
     0
370
    -2
390
5F
100
AcDbLine
 10
-0.1414213562373095
 20
-0.1414213562373095
 30
0.0
 11
-0.3535533905932738
 21
-0.3535533905932738
 31
0.0
  0
ENDBLK
  5
12A
330
122
100
AcDbEntity
  8
0
100
AcDbBlockEnd
  0
BLOCK
  5
12F
330
12B
100
AcDbEntity
  8
0
100
AcDbBlockBegin
  2
CDWK_PTTYP33
 70
     0
 10
0.0
 20
0.0
 30
0.0
  3
CDWK_PTTYP33
  1

  0
LINE
  5
12C
330
12B
100
AcDbEntity
  8
0
  6
Continuous
 62
     0
370
    -2
390
5F
100
AcDbLine
 10
0.0
 20
-0.5
 30
0.0
 11
0.0
 21
0.5
 31
0.0
  0
LINE
  5
12D
330
12B
100
AcDbEntity
  8
0
  6
Continuous
 62
     0
370
    -2
390
5F
100
AcDbLine
 10
0.5
 20
0.0
 30
0.0
 11
-0.5
 21
0.0
 31
0.0
  0
CIRCLE
  5
12E
330
12B
100
AcDbEntity
  8
0
  6
Continuous
 62
     0
370
    -2
390
5F
100
AcDbCircle
 10
0.0
 20
0.0
 30
0.0
 40
0.5
  0
ENDBLK
  5
130
330
12B
100
AcDbEntity
  8
0
100
AcDbBlockEnd
  0
BLOCK
  5
135
330
131
100
AcDbEntity
  8
0
100
AcDbBlockBegin
  2
CDWK_PTTYP34
 70
     0
 10
0.0
 20
0.0
 30
0.0
  3
CDWK_PTTYP34
  1

  0
CIRCLE
  5
132
330
131
100
AcDbEntity
  8
0
  6
Continuous
 62
     0
370
    -2
390
5F
100
AcDbCircle
 10
0.0
 20
0.0
 30
0.0
 40
0.5
  0
LINE
  5
133
330
131
100
AcDbEntity
  8
0
  6
Continuous
 62
     0
370
    -2
390
5F
100
AcDbLine
 10
-0.4
 20
-0.3
 30
0.0
 11
0.3
 21
0.4
 31
0.0
  0
LINE
  5
134
330
131
100
AcDbEntity
  8
0
  6
Continuous
 62
     0
370
    -2
390
5F
100
AcDbLine
 10
-0.3
 20
-0.4
 30
0.0
 11
0.4
 21
0.3
 31
0.0
  0
ENDBLK
  5
136
330
131
100
AcDbEntity
  8
0
100
AcDbBlockEnd
  0
BLOCK
  5
13B
330
137
100
AcDbEntity
  8
0
100
AcDbBlockBegin
  2
CDWK_PTTYP35
 70
     0
 10
0.0
 20
0.0
 30
0.0
  3
CDWK_PTTYP35
  1

  0
LINE
  5
138
330
137
100
AcDbEntity
  8
0
  6
Continuous
 62
     0
370
    -2
390
5F
100
AcDbLine
 10
0.0
 20
0.2
 30
0.0
 11
0.0
 21
0.5
 31
0.0
  0
LINE
  5
139
330
137
100
AcDbEntity
  8
0
  6
Continuous
 62
     0
370
    -2
390
5F
100
AcDbLine
 10
0.0
 20
-0.2
 30
0.0
 11
0.0
 21
-0.5
 31
0.0
  0
CIRCLE
  5
13A
330
137
100
AcDbEntity
  8
0
  6
Continuous
 62
     0
370
    -2
390
5F
100
AcDbCircle
 10
0.0
 20
0.0
 30
0.0
 40
0.2
  0
ENDBLK
  5
13C
330
137
100
AcDbEntity
  8
0
100
AcDbBlockEnd
  0
BLOCK
  5
143
330
13D
100
AcDbEntity
  8
0
100
AcDbBlockBegin
  2
CDWK_PTTYP36
 70
     0
 10
0.0
 20
0.0
 30
0.0
  3
CDWK_PTTYP36
  1

  0
LINE
  5
13E
330
13D
100
AcDbEntity
  8
0
  6
Continuous
 62
     0
370
    -2
390
5F
100
AcDbLine
 10
-0.5
 20
0.2
 30
0.0
 11
0.5
 21
0.2
 31
0.0
  0
LINE
  5
13F
330
13D
100
AcDbEntity
  8
0
  6
Continuous
 62
     0
370
    -2
390
5F
100
AcDbLine
 10
0.5
 20
0.2
 30
0.0
 11
0.5
 21
-0.2
 31
0.0
  0
LINE
  5
140
330
13D
100
AcDbEntity
  8
0
  6
Continuous
 62
     0
370
    -2
390
5F
100
AcDbLine
 10
0.5
 20
-0.2
 30
0.0
 11
-0.5
 21
-0.2
 31
0.0
  0
LINE
  5
141
330
13D
100
AcDbEntity
  8
0
  6
Continuous
 62
     0
370
    -2
390
5F
100
AcDbLine
 10
-0.5
 20
-0.2
 30
0.0
 11
-0.5
 21
0.2
 31
0.0
  0
HATCH
  5
142
330
13D
100
AcDbEntity
  8
0
  6
Continuous
 62
     0
370
    -2
390
5F
100
AcDbHatch
 10
0.0
 20
0.0
 30
0.0
210
0.0
220
0.0
230
1.0
  2
SOLID
 70
     1
 71
     0
 91
        1
 92
        3
 72
     0
 73
     1
 93
        3
 10
-0.5
 20
-0.2
 10
0.5
 20
-0.2
 10
0.5
 20
0.2
 97
        0
 75
     0
 76
     1
 98
        0
  0
ENDBLK
  5
144
330
13D
100
AcDbEntity
  8
0
100
AcDbBlockEnd
  0
BLOCK
  5
148
330
145
100
AcDbEntity
  8
0
100
AcDbBlockBegin
  2
CDWK_PTTYP37
 70
     0
 10
0.0
 20
0.0
 30
0.0
  3
CDWK_PTTYP37
  1

  0
HATCH
  5
146
330
145
100
AcDbEntity
  8
0
  6
Continuous
 62
     0
370
    -2
390
5F
100
AcDbHatch
 10
0.0
 20
0.0
 30
0.0
210
0.0
220
0.0
230
1.0
  2
SOLID
 70
     1
 71
     0
 91
        1
 92
        3
 72
     0
 73
     1
 93
      202
 10
-0.3535533905932738
 20
-0.3535533905932738
 10
-0.3485533905932738
 20
-0.3535533905932737
 10
-0.3435533905932738
 20
-0.3584836591895546
 10
-0.3385533905932738
 20
-0.3632782236961988
 10
-0.3335533905932738
 20
-0.367942389128785
 10
-0.3285533905932738
 20
-0.372481054046687
 10
-0.3235533905932738
 20
-0.3768987523588579
 10
-0.3185533905932738
 20
-0.3811996897107819
 10
-0.3135533905932738
 20
-0.3853877752881235
 10
-0.3085533905932737
 20
-0.3894666497242888
 10
-0.3035533905932737
 20
-0.3934397096803965
 10
-0.2985533905932737
 20
-0.3973101295704999
 10
-0.2935533905932737
 20
-0.4010808808273714
 10
-0.2885533905932737
 20
-0.4047547490409382
 10
-0.2835533905932737
 20
-0.4083343492496384
 10
-0.2785533905932737
 20
-0.4118221396222626
 10
-0.2735533905932737
 20
-0.4152204337324827
 10
-0.2685533905932737
 20
-0.4185314115988474
 10
-0.2635533905932737
 20
-0.4217571296384408
 10
-0.2585533905932737
 20
-0.4248995296617653
 10
-0.2535533905932737
 20
-0.4279604470190231
 10
-0.2485533905932737
 20
-0.4309416179932669
 10
-0.2435533905932737
 20
-0.4338446865234004
 10
-0.2385533905932737
 20
-0.4366712103293738
 10
-0.2335533905932737
 20
-0.439422666502825
 10
-0.2285533905932737
 20
-0.4421004566186126
 10
-0.2235533905932737
 20
-0.4447059114159811
 10
-0.2185533905932737
 20
-0.4472402950923041
 10
-0.2135533905932737
 20
-0.4497048092473372
 10
-0.2085533905932737
 20
-0.4521005965115692
 10
-0.2035533905932737
 20
-0.4544287438884664
 10
-0.1985533905932736
 20
-0.456690285837111
 10
-0.1935533905932736
 20
-0.45888620711884
 10
-0.1885533905932736
 20
-0.4610174454289638
 10
-0.1835533905932736
 20
-0.4630848938324164
 10
-0.1785533905932736
 20
-0.4650894030202291
 10
-0.1735533905932736
 20
-0.4670317834019928
 10
-0.1685533905932736
 20
-0.46891280704794
 10
-0.1635533905932736
 20
-0.4707332094929264
 10
-0.1585533905932736
 20
-0.4724936914133818
 10
-0.1535533905932736
 20
-0.4741949201872336
 10
-0.1485533905932736
 20
-0.4758375313458466
 10
-0.1435533905932736
 20
-0.4774221299261716
 10
-0.1385533905932736
 20
-0.4789492917305286
 10
-0.1335533905932736
 20
-0.4804195645007682
 10
-0.1285533905932736
 20
-0.4818334690129366
 10
-0.1235533905932736
 20
-0.4831915000980183
 10
-0.1185533905932736
 20
-0.4844941275938295
 10
-0.1135533905932736
 20
-0.4857417972326848
 10
-0.1085533905932736
 20
-0.4869349314690531
 10
-0.1035533905932736
 20
-0.4880739302510473
 10
-0.0985533905932736
 20
-0.489159171739258
 10
-0.0935533905932736
 20
-0.4901910129761353
 10
-0.0885533905932736
 20
-0.4911697905088447
 10
-0.0835533905932735
 20
-0.4920958209682695
 10
-0.0785533905932735
 20
-0.4929694016065986
 10
-0.0735533905932735
 20
-0.4937908107957261
 10
-0.0685533905932735
 20
-0.494560308488493
 10
-0.0635533905932735
 20
-0.4952781366446192
 10
-0.0585533905932735
 20
-0.4959445196230107
 10
-0.0535533905932735
 20
-0.4965596645419678
 10
-0.0485533905932735
 20
-0.4971237616086806
 10
-0.0435533905932735
 20
-0.4976369844192622
 10
-0.0385533905932735
 20
-0.4980994902304456
 10
-0.0335533905932735
 20
-0.4985114202039533
 10
-0.0285533905932735
 20
-0.4988728996244386
 10
-0.0235533905932735
 20
-0.4991840380917923
 10
-0.0185533905932735
 20
-0.49944492968851
 10
-0.0135533905932735
 20
-0.4996556531227215
 10
-0.0085533905932735
 20
-0.4998162718473921
 10
-0.0035533905932735
 20
-0.4999268341561182
 10
0.0014466094067265
 20
-0.499987373255857
 10
0.0064466094067265
 20
-0.4999979073168451
 10
0.0114466094067265
 20
-0.4999584394998819
 10
0.0164466094067265
 20
-0.4998689579610739
 10
0.0214466094067265
 20
-0.4997294358340547
 10
0.0264466094067265
 20
-0.4995398311896213
 10
0.0314466094067265
 20
-0.4993000869726422
 10
0.0364466094067265
 20
-0.4990101309160174
 10
0.0414466094067265
 20
-0.4986698754313855
 10
0.0464466094067265
 20
-0.498279217476192
 10
0.0514466094067265
 20
-0.4978380383966446
 10
0.0564466094067265
 20
-0.497346203745994
 10
0.0614466094067265
 20
-0.4968035630774849
 10
0.0664466094067264
 20
-0.4962099497112257
 10
0.0714466094067265
 20
-0.4955651804741228
 10
0.0764466094067265
 20
-0.4948690554119167
 10
0.0814466094067265
 20
-0.4941213574722463
 10
0.0864466094067265
 20
-0.4933218521575424
 10
0.0914466094067265
 20
-0.4924702871464235
 10
0.0964466094067265
 20
-0.4915663918821278
 10
0.1014466094067265
 20
-0.4906098771263643
 10
0.1064466094067265
 20
-0.4896004344768079
 10
0.1114466094067265
 20
-0.4885377358462822
 10
0.1164466094067265
 20
-0.4874214329014929
 10
0.1214466094067265
 20
-0.4862511564589613
 10
0.1264466094067265
 20
-0.4850265158355881
 10
0.1314466094067265
 20
-0.4837470981510305
 10
0.1364466094067265
 20
-0.482412467578809
 10
0.1414466094067265
 20
-0.4810221645427664
 10
0.1464466094067265
 20
-0.4795757048551781
 10
0.1514466094067265
 20
-0.4780725787924608
 10
0.1564466094067265
 20
-0.4765122501040308
 10
0.1614466094067265
 20
-0.4748941549494363
 10
0.1664466094067265
 20
-0.4732177007584056
 10
0.1714466094067265
 20
-0.4714822650079264
 10
0.1764466094067265
 20
-0.4696871939098801
 10
0.1814466094067266
 20
-0.4678318010021017
 10
0.1864466094067266
 20
-0.4659153656350076
 10
0.1914466094067266
 20
-0.4639371313451162
 10
0.1964466094067266
 20
-0.4618963041058764
 10
0.2014466094067266
 20
-0.4597920504451997
 10
0.2064466094067266
 20
-0.4576234954179405
 10
0.2114466094067266
 20
-0.4553897204202862
 10
0.2164466094067266
 20
-0.4530897608315588
 10
0.2214466094067266
 20
-0.45072260346729
 10
0.2264466094067266
 20
-0.4482871838255748
 10
0.2314466094067266
 20
-0.4457823831065977
 10
0.2364466094067266
 20
-0.4432070249828292
 10
0.2414466094067266
 20
-0.4405598720946596
 10
0.2464466094067266
 20
-0.4378396222431172
 10
0.2514466094067266
 20
-0.4350449042477435
 10
0.2564466094067266
 20
-0.4321742734336012
 10
0.2614466094067266
 20
-0.4292262067066663
 10
0.2664466094067266
 20
-0.4261990971714118
 10
0.2714466094067266
 20
-0.4230912482380831
 10
0.2764466094067266
 20
-0.4199008671598476
 10
0.2814466094067266
 20
-0.4166260579314797
 10
0.2864466094067266
 20
-0.4132648134712868
 10
0.2914466094067266
 20
-0.4098150069963156
 10
0.2964466094067266
 20
-0.4062743824871597
 10
0.3014466094067266
 20
-0.4026405441224911
 10
0.3064466094067266
 20
-0.3989109445442534
 10
0.3114466094067266
 20
-0.3950828717916294
 10
0.3164466094067266
 20
-0.391153434714632
 10
0.3214466094067266
 20
-0.3871195466454601
 10
0.3264466094067267
 20
-0.3829779070663467
 10
0.3314466094067267
 20
-0.3787249809648844
 10
0.3364466094067267
 20
-0.3743569755097196
 10
0.3414466094067267
 20
-0.3698698136084067
 10
0.3464466094067267
 20
-0.3652591038217257
 10
0.3514466094067267
 20
-0.3605201060004601
 10
0.3564466094067267
 20
-0.3556476918757041
 10
0.3614466094067267
 20
-0.3506362996645505
 10
0.3664466094067267
 20
-0.34547988153926
 10
0.3714466094067267
 20
-0.3401718425359658
 10
0.3764466094067267
 20
-0.334704969129899
 10
0.3814466094067267
 20
-0.3290713452523318
 10
0.3864466094067267
 20
-0.3232622529342269
 10
0.3914466094067267
 20
-0.3172680539828188
 10
0.3964466094067267
 20
-0.3110780480586465
 10
0.4014466094067267
 20
-0.304680301118911
 10
0.4064466094067267
 20
-0.2980614362775617
 10
0.4114466094067267
 20
-0.291206376478565
 10
0.4164466094067267
 20
-0.2840980246459106
 10
0.4214466094067267
 20
-0.276716861635935
 10
0.4264466094067267
 20
-0.2690404345439063
 10
0.4314466094067267
 20
-0.2610426963649944
 10
0.4364466094067267
 20
-0.2526931404518915
 10
0.4414466094067268
 20
-0.2439556458403291
 10
0.4464466094067268
 20
-0.2347869056044327
 10
0.4514466094067268
 20
-0.2251342376211081
 10
0.4564466094067268
 20
-0.2149324518428296
 10
0.4614466094067268
 20
-0.2040992228331676
 10
0.4664466094067268
 20
-0.1925279893081412
 10
0.4714466094067268
 20
-0.1800765408735088
 10
0.4764466094067268
 20
-0.1665475742210051
 10
0.4814466094067268
 20
-0.1516529867323223
 10
0.4864466094067268
 20
-0.1349413290684758
 10
0.4914466094067268
 20
-0.1156274024472547
 10
0.4964466094067268
 20
-0.0920881648347501
 10
0.5
 20
0.0
 10
0.495
 20
0.0
 10
0.49
 20
0.0705336798983295
 10
0.485
 20
0.0994987437106621
 10
0.48
 20
0.1215524578114322
 10
0.475
 20
0.14
 10
0.47
 20
0.15612494995996
 10
0.465
 20
0.1705872210923199
 10
0.46
 20
0.1837797594948911
 10
0.455
 20
0.1959591794226544
 10
0.45
 20
0.2073041244162789
 10
0.445
 20
0.2179449471770338
 10
0.4399999999999999
 20
0.2279802623035601
 10
0.4349999999999999
 20
0.2374868417407584
 10
0.4299999999999999
 20
0.2465258607124211
 10
0.4249999999999999
 20
0.2551470164434615
 10
0.4199999999999999
 20
0.2633913438213186
 10
0.4149999999999999
 20
0.2712931993250108
 10
0.4099999999999999
 20
0.2788816953476869
 10
0.4049999999999999
 20
0.2861817604250838
 10
0.3999999999999999
 20
0.2932149382279151
 10
0.3949999999999999
 20
0.3000000000000002
 10
0.3899999999999999
 20
0.3065534211193868
 10
0.3849999999999999
 20
0.3128897569432404
 10
0.3799999999999999
 20
0.3190219428189855
 10
0.3749999999999999
 20
0.3249615361854385
 10
0.3699999999999999
 20
0.330718913883074
 10
0.3649999999999999
 20
0.3363034344160049
 10
0.3599999999999999
 20
0.3417235724968357
 10
0.3549999999999999
 20
0.3469870314579496
 10
0.3535533905932738
 20
0.3535533905932738
 97
        0
 75
     0
 76
     1
 98
        0
  0
CIRCLE
  5
147
330
145
100
AcDbEntity
  8
0
  6
Continuous
 62
     0
370
    -2
390
5F
100
AcDbCircle
 10
0.0
 20
0.0
 30
0.0
 40
0.5
  0
ENDBLK
  5
149
330
145
100
AcDbEntity
  8
0
100
AcDbBlockEnd
  0
BLOCK
  5
14E
330
14A
100
AcDbEntity
  8
0
100
AcDbBlockBegin
  2
CDWK_PTTYP38
 70
     0
 10
0.0
 20
0.0
 30
0.0
  3
CDWK_PTTYP38
  1

  0
HATCH
  5
14B
330
14A
100
AcDbEntity
  8
0
  6
Continuous
 62
     0
370
    -2
390
5F
100
AcDbHatch
 10
0.0
 20
0.0
 30
0.0
210
0.0
220
0.0
230
1.0
  2
SOLID
 70
     1
 71
     0
 91
        1
 92
        3
 72
     0
 73
     1
 93
      102
 10
0.0
 20
0.0
 10
0.0
 20
0.5
 10
0.005
 20
0.5
 10
0.01
 20
0.4999749993749688
 10
0.015
 20
0.4998999899979995
 10
0.02
 20
0.4997749493522059
 10
0.025
 20
0.4995998398718718
 10
0.03
 20
0.4993746088859545
 10
0.035
 20
0.4990991885387112
 10
0.04
 20
0.4987734956871706
 10
0.045
 20
0.4983974317750845
 10
0.05
 20
0.4979708826829135
 10
0.055
 20
0.49749371855331
 10
0.06
 20
0.4969657935914704
 10
0.065
 20
0.4963869458396343
 10
0.07
 20
0.4957569969249047
 10
0.075
 20
0.4950757517794626
 10
0.08
 20
0.4943429983321297
 10
0.085
 20
0.4935585071701227
 10
0.09
 20
0.4927220311697053
 10
0.095
 20
0.4918333050943175
 10
0.1
 20
0.4908920451586071
 10
0.105
 20
0.4898979485566356
 10
0.11
 20
0.4888506929523574
 10
0.115
 20
0.4877499359302879
 10
0.12
 20
0.4865953144040744
 10
0.125
 20
0.4853864439804639
 10
0.13
 20
0.4841229182759271
 10
0.135
 20
0.4828043081829325
 10
0.14
 20
0.4814301610825811
 10
0.145
 20
0.48
 10
0.15
 20
0.478513322698543
 10
0.1550000000000001
 20
0.4769696007084728
 10
0.1600000000000001
 20
0.4753682782853731
 10
0.1650000000000001
 20
0.4737087712930804
 10
0.1700000000000001
 20
0.4719904660054056
 10
0.1750000000000001
 20
0.4702127178203498
 10
0.1800000000000001
 20
0.4683748498798799
 10
0.1850000000000001
 20
0.466476151587624
 10
0.1900000000000001
 20
0.4645158770160606
 10
0.1950000000000001
 20
0.4624932431938871
 10
0.2000000000000001
 20
0.460407428263272
 10
0.2050000000000001
 20
0.4582575694955839
 10
0.2100000000000001
 20
0.4560427611529427
 10
0.2150000000000001
 20
0.4537620521815371
 10
0.2200000000000001
 20
0.4514144437210665
 10
0.2250000000000001
 20
0.4489988864128729
 10
0.2300000000000001
 20
0.4465142774872937
 10
0.2350000000000001
 20
0.4439594576084622
 10
0.2400000000000001
 20
0.4413332074521472
 10
0.2450000000000001
 20
0.4386342439892261
 10
0.2500000000000001
 20
0.4358612164439502
 10
0.2550000000000001
 20
0.4330127018922192
 10
0.2600000000000001
 20
0.4300872004605577
 10
0.2650000000000001
 20
0.4270831300812524
 10
0.2700000000000001
 20
0.423998820753077
 10
0.2750000000000001
 20
0.4208325082500162
 10
0.2800000000000001
 20
0.4175823272122516
 10
0.2850000000000001
 20
0.4142463035441595
 10
0.2900000000000001
 20
0.4108223460329293
 10
0.2950000000000002
 20
0.4073082370883259
 10
0.3000000000000002
 20
0.403701622488689
 10
0.3050000000000002
 20
0.3999999999999999
 10
0.3100000000000002
 20
0.3962007067131506
 10
0.3150000000000002
 20
0.3923009049186605
 10
0.3200000000000002
 20
0.3882975663070783
 10
0.3250000000000002
 20
0.3841874542459708
 10
0.3300000000000002
 20
0.3799671038392664
 10
0.3350000000000002
 20
0.3756327994198588
 10
0.3400000000000002
 20
0.3711805490593491
 10
0.3450000000000002
 20
0.366606055596467
 10
0.3500000000000002
 20
0.3619046835839512
 10
0.3550000000000002
 20
0.3570714214271423
 10
0.3600000000000002
 20
0.3521008378291649
 10
0.3650000000000002
 20
0.3469870314579492
 10
0.3700000000000002
 20
0.3417235724968353
 10
0.3750000000000002
 20
0.3363034344160045
 10
0.3800000000000002
 20
0.3307189138830736
 10
0.3850000000000002
 20
0.3249615361854382
 10
0.3900000000000002
 20
0.3190219428189851
 10
0.3950000000000002
 20
0.31288975694324
 10
0.4000000000000002
 20
0.3065534211193863
 10
0.4050000000000002
 20
0.2999999999999997
 10
0.4100000000000003
 20
0.2932149382279147
 10
0.4150000000000003
 20
0.2861817604250834
 10
0.4200000000000003
 20
0.2788816953476864
 10
0.4250000000000003
 20
0.2712931993250103
 10
0.4300000000000003
 20
0.263391343821318
 10
0.4350000000000003
 20
0.255147016443461
 10
0.4400000000000003
 20
0.2465258607124206
 10
0.4450000000000003
 20
0.2374868417407578
 10
0.4500000000000003
 20
0.2279802623035594
 10
0.4550000000000003
 20
0.2179449471770331
 10
0.4600000000000003
 20
0.2073041244162782
 10
0.4650000000000003
 20
0.1959591794226536
 10
0.4700000000000003
 20
0.1837797594948903
 10
0.4750000000000003
 20
0.170587221092319
 10
0.4800000000000003
 20
0.156124949959959
 10
0.4850000000000003
 20
0.1399999999999989
 10
0.4900000000000003
 20
0.1215524578114309
 10
0.4950000000000003
 20
0.0994987437106604
 10
0.5
 20
0.0
 97
        0
 75
     0
 76
     1
 98
        0
  0
HATCH
  5
14C
330
14A
100
AcDbEntity
  8
0
  6
Continuous
 62
     0
370
    -2
390
5F
100
AcDbHatch
 10
0.0
 20
0.0
 30
0.0
210
0.0
220
0.0
230
1.0
  2
SOLID
 70
     1
 71
     0
 91
        1
 92
        3
 72
     0
 73
     1
 93
      102
 10
0.0
 20
0.0
 10
-0.5
 20
0.0
 10
-0.495
 20
0.0
 10
-0.49
 20
-0.0705336798983295
 10
-0.485
 20
-0.0994987437106621
 10
-0.48
 20
-0.1215524578114322
 10
-0.475
 20
-0.14
 10
-0.47
 20
-0.15612494995996
 10
-0.465
 20
-0.1705872210923199
 10
-0.46
 20
-0.1837797594948911
 10
-0.455
 20
-0.1959591794226544
 10
-0.45
 20
-0.2073041244162789
 10
-0.445
 20
-0.2179449471770338
 10
-0.4399999999999999
 20
-0.2279802623035601
 10
-0.4349999999999999
 20
-0.2374868417407584
 10
-0.4299999999999999
 20
-0.2465258607124211
 10
-0.4249999999999999
 20
-0.2551470164434615
 10
-0.4199999999999999
 20
-0.2633913438213186
 10
-0.4149999999999999
 20
-0.2712931993250108
 10
-0.4099999999999999
 20
-0.2788816953476869
 10
-0.4049999999999999
 20
-0.2861817604250838
 10
-0.3999999999999999
 20
-0.2932149382279151
 10
-0.3949999999999999
 20
-0.3000000000000002
 10
-0.3899999999999999
 20
-0.3065534211193868
 10
-0.3849999999999999
 20
-0.3128897569432404
 10
-0.3799999999999999
 20
-0.3190219428189855
 10
-0.3749999999999999
 20
-0.3249615361854385
 10
-0.3699999999999999
 20
-0.330718913883074
 10
-0.3649999999999999
 20
-0.3363034344160049
 10
-0.3599999999999999
 20
-0.3417235724968357
 10
-0.3549999999999999
 20
-0.3469870314579496
 10
-0.3499999999999999
 20
-0.3521008378291652
 10
-0.3449999999999999
 20
-0.3570714214271427
 10
-0.3399999999999999
 20
-0.3619046835839516
 10
-0.3349999999999999
 20
-0.3666060555964674
 10
-0.3299999999999998
 20
-0.3711805490593494
 10
-0.3249999999999998
 20
-0.3756327994198591
 10
-0.3199999999999998
 20
-0.3799671038392667
 10
-0.3149999999999998
 20
-0.3841874542459711
 10
-0.3099999999999998
 20
-0.3882975663070786
 10
-0.3049999999999998
 20
-0.3923009049186608
 10
-0.2999999999999998
 20
-0.3962007067131507
 10
-0.2949999999999998
 20
-0.4000000000000001
 10
-0.2899999999999998
 20
-0.4037016224886891
 10
-0.2849999999999998
 20
-0.4073082370883261
 10
-0.2799999999999998
 20
-0.4108223460329296
 10
-0.2749999999999998
 20
-0.4142463035441597
 10
-0.2699999999999998
 20
-0.4175823272122518
 10
-0.2649999999999998
 20
-0.4208325082500164
 10
-0.2599999999999998
 20
-0.4239988207530773
 10
-0.2549999999999998
 20
-0.4270831300812526
 10
-0.2499999999999998
 20
-0.4300872004605579
 10
-0.2449999999999998
 20
-0.4330127018922195
 10
-0.2399999999999998
 20
-0.4358612164439503
 10
-0.2349999999999998
 20
-0.4386342439892263
 10
-0.2299999999999998
 20
-0.4413332074521473
 10
-0.2249999999999998
 20
-0.4439594576084624
 10
-0.2199999999999998
 20
-0.4465142774872939
 10
-0.2149999999999997
 20
-0.4489988864128731
 10
-0.2099999999999997
 20
-0.4514144437210667
 10
-0.2049999999999997
 20
-0.4537620521815372
 10
-0.1999999999999997
 20
-0.4560427611529429
 10
-0.1949999999999997
 20
-0.4582575694955841
 10
-0.1899999999999997
 20
-0.4604074282632722
 10
-0.1849999999999997
 20
-0.4624932431938872
 10
-0.1799999999999997
 20
-0.4645158770160608
 10
-0.1749999999999997
 20
-0.4664761515876241
 10
-0.1699999999999997
 20
-0.46837484987988
 10
-0.1649999999999997
 20
-0.47021271782035
 10
-0.1599999999999997
 20
-0.4719904660054058
 10
-0.1549999999999997
 20
-0.4737087712930805
 10
-0.1499999999999997
 20
-0.4753682782853733
 10
-0.1449999999999997
 20
-0.4769696007084729
 10
-0.1399999999999997
 20
-0.4785133226985431
 10
-0.1349999999999997
 20
-0.4800000000000001
 10
-0.1299999999999997
 20
-0.4814301610825812
 10
-0.1249999999999997
 20
-0.4828043081829325
 10
-0.1199999999999997
 20
-0.4841229182759272
 10
-0.1149999999999997
 20
-0.485386443980464
 10
-0.1099999999999997
 20
-0.4865953144040744
 10
-0.1049999999999996
 20
-0.487749935930288
 10
-0.0999999999999996
 20
-0.4888506929523574
 10
-0.0949999999999996
 20
-0.4898979485566357
 10
-0.0899999999999996
 20
-0.4908920451586072
 10
-0.0849999999999996
 20
-0.4918333050943176
 10
-0.0799999999999996
 20
-0.4927220311697053
 10
-0.0749999999999996
 20
-0.4935585071701227
 10
-0.0699999999999996
 20
-0.4943429983321298
 10
-0.0649999999999996
 20
-0.4950757517794626
 10
-0.0599999999999996
 20
-0.4957569969249048
 10
-0.0549999999999996
 20
-0.4963869458396343
 10
-0.0499999999999996
 20
-0.4969657935914705
 10
-0.0449999999999996
 20
-0.49749371855331
 10
-0.0399999999999996
 20
-0.4979708826829135
 10
-0.0349999999999996
 20
-0.4983974317750846
 10
-0.0299999999999996
 20
-0.4987734956871706
 10
-0.0249999999999996
 20
-0.4990991885387112
 10
-0.0199999999999996
 20
-0.4993746088859545
 10
-0.0149999999999996
 20
-0.4995998398718719
 10
-0.0099999999999996
 20
-0.499774949352206
 10
-0.0049999999999996
 20
-0.4998999899979995
 10
0.0
 20
-0.5
 97
        0
 75
     0
 76
     1
 98
        0
  0
CIRCLE
  5
14D
330
14A
100
AcDbEntity
  8
0
  6
Continuous
 62
     0
370
    -2
390
5F
100
AcDbCircle
 10
0.0
 20
0.0
 30
0.0
 40
0.5
  0
ENDBLK
  5
14F
330
14A
100
AcDbEntity
  8
0
100
AcDbBlockEnd
  0
BLOCK
  5
158
330
150
100
AcDbEntity
  8
0
100
AcDbBlockBegin
  2
CDWK_PTTYP41
 70
     0
 10
0.0
 20
0.0
 30
0.0
  3
CDWK_PTTYP41
  1

  0
LINE
  5
151
330
150
100
AcDbEntity
  8
0
  6
Continuous
 62
     0
370
    -2
390
5F
100
AcDbLine
 10
-0.5
 20
0.5
 30
0.0
 11
0.5
 21
0.5
 31
0.0
  0
LINE
  5
152
330
150
100
AcDbEntity
  8
0
  6
Continuous
 62
     0
370
    -2
390
5F
100
AcDbLine
 10
0.5
 20
0.5
 30
0.0
 11
0.5
 21
-0.5
 31
0.0
  0
LINE
  5
153
330
150
100
AcDbEntity
  8
0
  6
Continuous
 62
     0
370
    -2
390
5F
100
AcDbLine
 10
0.5
 20
-0.5
 30
0.0
 11
-0.5
 21
-0.5
 31
0.0
  0
LINE
  5
154
330
150
100
AcDbEntity
  8
0
  6
Continuous
 62
     0
370
    -2
390
5F
100
AcDbLine
 10
-0.5
 20
-0.5
 30
0.0
 11
-0.5
 21
0.5
 31
0.0
  0
LINE
  5
155
330
150
100
AcDbEntity
  8
0
  6
Continuous
 62
     0
370
    -2
390
5F
100
AcDbLine
 10
-0.375
 20
0.25
 30
0.0
 11
0.375
 21
0.25
 31
0.0
  0
LINE
  5
156
330
150
100
AcDbEntity
  8
0
  6
Continuous
 62
     0
370
    -2
390
5F
100
AcDbLine
 10
-0.375
 20
0.0
 30
0.0
 11
0.375
 21
0.0
 31
0.0
  0
LINE
  5
157
330
150
100
AcDbEntity
  8
0
  6
Continuous
 62
     0
370
    -2
390
5F
100
AcDbLine
 10
-0.375
 20
-0.25
 30
0.0
 11
0.375
 21
-0.25
 31
0.0
  0
ENDBLK
  5
159
330
150
100
AcDbEntity
  8
0
100
AcDbBlockEnd
  0
BLOCK
  5
161
330
15A
100
AcDbEntity
  8
0
100
AcDbBlockBegin
  2
CDWK_PTTYP42
 70
     0
 10
0.0
 20
0.0
 30
0.0
  3
CDWK_PTTYP42
  1

  0
LINE
  5
15B
330
15A
100
AcDbEntity
  8
0
  6
Continuous
 62
     0
370
    -2
390
5F
100
AcDbLine
 10
-0.5
 20
0.5
 30
0.0
 11
0.5
 21
0.5
 31
0.0
  0
LINE
  5
15C
330
15A
100
AcDbEntity
  8
0
  6
Continuous
 62
     0
370
    -2
390
5F
100
AcDbLine
 10
0.5
 20
0.5
 30
0.0
 11
0.5
 21
-0.5
 31
0.0
  0
LINE
  5
15D
330
15A
100
AcDbEntity
  8
0
  6
Continuous
 62
     0
370
    -2
390
5F
100
AcDbLine
 10
0.5
 20
-0.5
 30
0.0
 11
-0.5
 21
-0.5
 31
0.0
  0
LINE
  5
15E
330
15A
100
AcDbEntity
  8
0
  6
Continuous
 62
     0
370
    -2
390
5F
100
AcDbLine
 10
-0.5
 20
-0.5
 30
0.0
 11
-0.5
 21
0.5
 31
0.0
  0
LINE
  5
15F
330
15A
100
AcDbEntity
  8
0
  6
Continuous
 62
     0
370
    -2
390
5F
100
AcDbLine
 10
-0.375
 20
0.125
 30
0.0
 11
0.375
 21
0.125
 31
0.0
  0
LINE
  5
160
330
15A
100
AcDbEntity
  8
0
  6
Continuous
 62
     0
370
    -2
390
5F
100
AcDbLine
 10
-0.375
 20
-0.125
 30
0.0
 11
0.375
 21
-0.125
 31
0.0
  0
ENDBLK
  5
162
330
15A
100
AcDbEntity
  8
0
100
AcDbBlockEnd
  0
BLOCK
  5
167
330
163
100
AcDbEntity
  8
0
100
AcDbBlockBegin
  2
CDWK_PTTYP43
 70
     0
 10
0.0
 20
0.0
 30
0.0
  3
CDWK_PTTYP43
  1

  0
CIRCLE
  5
164
330
163
100
AcDbEntity
  8
0
  6
Continuous
 62
     0
370
    -2
390
5F
100
AcDbCircle
 10
0.0
 20
0.0
 30
0.0
 40
0.5
  0
LINE
  5
165
330
163
100
AcDbEntity
  8
0
  6
Continuous
 62
     0
370
    -2
390
5F
100
AcDbLine
 10
-0.375
 20
0.166
 30
0.0
 11
0.375
 21
0.166
 31
0.0
  0
LINE
  5
166
330
163
100
AcDbEntity
  8
0
  6
Continuous
 62
     0
370
    -2
390
5F
100
AcDbLine
 10
-0.375
 20
-0.166
 30
0.0
 11
0.375
 21
-0.166
 31
0.0
  0
ENDBLK
  5
168
330
163
100
AcDbEntity
  8
0
100
AcDbBlockEnd
  0
BLOCK
  5
170
330
169
100
AcDbEntity
  8
0
100
AcDbBlockBegin
  2
CDWK_PTTYP44
 70
     0
 10
0.0
 20
0.0
 30
0.0
  3
CDWK_PTTYP44
  1

  0
CIRCLE
  5
16A
330
169
100
AcDbEntity
  8
0
  6
Continuous
 62
     0
370
    -2
390
5F
100
AcDbCircle
 10
0.0
 20
0.0
 30
0.0
 40
0.5
  0
LINE
  5
16B
330
169
100
AcDbEntity
  8
0
  6
Continuous
 62
     0
370
    -2
390
5F
100
AcDbLine
 10
-0.375
 20
0.333
 30
0.0
 11
0.375
 21
0.333
 31
0.0
  0
LINE
  5
16C
330
169
100
AcDbEntity
  8
0
  6
Continuous
 62
     0
370
    -2
390
5F
100
AcDbLine
 10
-0.375
 20
0.166
 30
0.0
 11
0.375
 21
0.166
 31
0.0
  0
LINE
  5
16D
330
169
100
AcDbEntity
  8
0
  6
Continuous
 62
     0
370
    -2
390
5F
100
AcDbLine
 10
-0.375
 20
0.0
 30
0.0
 11
0.375
 21
0.0
 31
0.0
  0
LINE
  5
16E
330
169
100
AcDbEntity
  8
0
  6
Continuous
 62
     0
370
    -2
390
5F
100
AcDbLine
 10
-0.375
 20
-0.166
 30
0.0
 11
0.375
 21
-0.166
 31
0.0
  0
LINE
  5
16F
330
169
100
AcDbEntity
  8
0
  6
Continuous
 62
     0
370
    -2
390
5F
100
AcDbLine
 10
-0.375
 20
-0.333
 30
0.0
 11
0.375
 21
-0.333
 31
0.0
  0
ENDBLK
  5
171
330
169
100
AcDbEntity
  8
0
100
AcDbBlockEnd
  0
BLOCK
  5
175
330
172
100
AcDbEntity
  8
0
100
AcDbBlockBegin
  2
CDWK_PTTYP45
 70
     0
 10
0.0
 20
0.0
 30
0.0
  3
CDWK_PTTYP45
  1

  0
ELLIPSE
  5
173
330
172
100
AcDbEntity
  8
0
  6
Continuous
 62
     0
370
    -2
390
5F
100
AcDbEllipse
 10
0.0
 20
0.0
 30
0.0
 11
0.5
 21
0.0
 31
0.0
210
0.0
220
0.0
230
1.0
 40
0.82
 41
0.0
 42
6.283185307179586
  0
CIRCLE
  5
174
330
172
100
AcDbEntity
  8
0
  6
Continuous
 62
     0
370
    -2
390
5F
100
AcDbCircle
 10
-0.235
 20
0.0
 30
0.0
 40
0.26
  0
ENDBLK
  5
176
330
172
100
AcDbEntity
  8
0
100
AcDbBlockEnd
  0
BLOCK
  5
17A
330
177
100
AcDbEntity
  8
0
100
AcDbBlockBegin
  2
CDWK_PTTYP46
 70
     0
 10
0.0
 20
0.0
 30
0.0
  3
CDWK_PTTYP46
  1

  0
ELLIPSE
  5
178
330
177
100
AcDbEntity
  8
0
  6
Continuous
 62
     0
370
    -2
390
5F
100
AcDbEllipse
 10
0.0
 20
0.0
 30
0.0
 11
0.5
 21
0.0
 31
0.0
210
0.0
220
0.0
230
1.0
 40
0.82
 41
0.0
 42
6.283185307179586
  0
CIRCLE
  5
179
330
177
100
AcDbEntity
  8
0
  6
Continuous
 62
     0
370
    -2
390
5F
100
AcDbCircle
 10
0.0
 20
0.15
 30
0.0
 40
0.26
  0
ENDBLK
  5
17B
330
177
100
AcDbEntity
  8
0
100
AcDbBlockEnd
  0
BLOCK
  5
182
330
17C
100
AcDbEntity
  8
0
100
AcDbBlockBegin
  2
CDWK_PTTYP47
 70
     0
 10
0.0
 20
0.0
 30
0.0
  3
CDWK_PTTYP47
  1

  0
LINE
  5
17D
330
17C
100
AcDbEntity
  8
0
  6
Continuous
 62
     0
370
    -2
390
5F
100
AcDbLine
 10
-0.5
 20
0.166
 30
0.0
 11
0.5
 21
0.166
 31
0.0
  0
LINE
  5
17E
330
17C
100
AcDbEntity
  8
0
  6
Continuous
 62
     0
370
    -2
390
5F
100
AcDbLine
 10
0.5
 20
0.166
 30
0.0
 11
0.5
 21
-0.166
 31
0.0
  0
LINE
  5
17F
330
17C
100
AcDbEntity
  8
0
  6
Continuous
 62
     0
370
    -2
390
5F
100
AcDbLine
 10
0.5
 20
-0.166
 30
0.0
 11
-0.5
 21
-0.166
 31
0.0
  0
LINE
  5
180
330
17C
100
AcDbEntity
  8
0
  6
Continuous
 62
     0
370
    -2
390
5F
100
AcDbLine
 10
-0.5
 20
-0.166
 30
0.0
 11
-0.5
 21
0.166
 31
0.0
  0
CIRCLE
  5
181
330
17C
100
AcDbEntity
  8
0
  6
Continuous
 62
     0
370
    -2
390
5F
100
AcDbCircle
 10
0.0
 20
-0.313
 30
0.0
 40
0.4
  0
ENDBLK
  5
183
330
17C
100
AcDbEntity
  8
0
100
AcDbBlockEnd
  0
BLOCK
  5
188
330
185
100
AcDbEntity
  8
0
100
AcDbBlockBegin
  2
CDWK_PTTYP48
 70
     0
 10
0.0
 20
0.0
 30
0.0
  3
CDWK_PTTYP48
  1

  0
CIRCLE
  5
186
330
185
100
AcDbEntity
  8
0
  6
CADWORK_3
 62
     0
 48
0.1
370
    -2
390
5F
100
AcDbCircle
 10
0.0
 20
0.0
 30
0.0
 40
0.5
  0
CIRCLE
  5
187
330
185
100
AcDbEntity
  8
0
  6
Continuous
 62
     0
370
    -2
390
5F
100
AcDbCircle
 10
0.0
 20
0.0
 30
0.0
 40
0.25
  0
ENDBLK
  5
189
330
185
100
AcDbEntity
  8
0
100
AcDbBlockEnd
  0
BLOCK
  5
18F
330
18A
100
AcDbEntity
  8
0
100
AcDbBlockBegin
  2
CDWK_PTTYP49
 70
     0
 10
0.0
 20
0.0
 30
0.0
  3
CDWK_PTTYP49
  1

  0
LINE
  5
18B
330
18A
100
AcDbEntity
  8
0
  6
Continuous
 62
     0
370
    -2
390
5F
100
AcDbLine
 10
-0.5
 20
0.166
 30
0.0
 11
0.5
 21
0.166
 31
0.0
  0
LINE
  5
18C
330
18A
100
AcDbEntity
  8
0
  6
Continuous
 62
     0
370
    -2
390
5F
100
AcDbLine
 10
0.5
 20
0.166
 30
0.0
 11
0.5
 21
-0.166
 31
0.0
  0
LINE
  5
18D
330
18A
100
AcDbEntity
  8
0
  6
Continuous
 62
     0
370
    -2
390
5F
100
AcDbLine
 10
0.5
 20
-0.166
 30
0.0
 11
-0.5
 21
-0.166
 31
0.0
  0
LINE
  5
18E
330
18A
100
AcDbEntity
  8
0
  6
Continuous
 62
     0
370
    -2
390
5F
100
AcDbLine
 10
-0.5
 20
-0.166
 30
0.0
 11
-0.5
 21
0.166
 31
0.0
  0
ENDBLK
  5
190
330
18A
100
AcDbEntity
  8
0
100
AcDbBlockEnd
  0
BLOCK
  5
199
330
191
100
AcDbEntity
  8
0
100
AcDbBlockBegin
  2
CDWK_PTTYP50
 70
     0
 10
0.0
 20
0.0
 30
0.0
  3
CDWK_PTTYP50
  1

  0
LINE
  5
192
330
191
100
AcDbEntity
  8
0
  6
Continuous
 62
     0
370
    -2
390
5F
100
AcDbLine
 10
-0.5
 20
0.166
 30
0.0
 11
0.5
 21
0.166
 31
0.0
  0
LINE
  5
193
330
191
100
AcDbEntity
  8
0
  6
Continuous
 62
     0
370
    -2
390
5F
100
AcDbLine
 10
0.5
 20
0.166
 30
0.0
 11
0.5
 21
-0.166
 31
0.0
  0
LINE
  5
194
330
191
100
AcDbEntity
  8
0
  6
Continuous
 62
     0
370
    -2
390
5F
100
AcDbLine
 10
0.5
 20
-0.166
 30
0.0
 11
-0.5
 21
-0.166
 31
0.0
  0
LINE
  5
195
330
191
100
AcDbEntity
  8
0
  6
Continuous
 62
     0
370
    -2
390
5F
100
AcDbLine
 10
-0.5
 20
-0.166
 30
0.0
 11
-0.5
 21
0.166
 31
0.0
  0
LINE
  5
196
330
191
100
AcDbEntity
  8
0
  6
Continuous
 62
     0
370
    -2
390
5F
100
AcDbLine
 10
-0.25
 20
-0.166
 30
0.0
 11
-0.25
 21
0.166
 31
0.0
  0
LINE
  5
197
330
191
100
AcDbEntity
  8
0
  6
Continuous
 62
     0
370
    -2
390
5F
100
AcDbLine
 10
0.0
 20
-0.166
 30
0.0
 11
0.0
 21
0.166
 31
0.0
  0
LINE
  5
198
330
191
100
AcDbEntity
  8
0
  6
Continuous
 62
     0
370
    -2
390
5F
100
AcDbLine
 10
0.25
 20
-0.166
 30
0.0
 11
0.25
 21
0.166
 31
0.0
  0
ENDBLK
  5
19A
330
191
100
AcDbEntity
  8
0
100
AcDbBlockEnd
  0
BLOCK
  5
19E
330
19B
100
AcDbEntity
  8
0
100
AcDbBlockBegin
  2
CDWK_PTTYP51
 70
     0
 10
0.0
 20
0.0
 30
0.0
  3
CDWK_PTTYP51
  1

  0
SPLINE
  5
19C
330
19B
100
AcDbEntity
  8
0
  6
Continuous
 62
     0
370
    -2
390
5F
100
AcDbSpline
210
0.0
220
0.0
230
1.0
 70
  1064
 71
     3
 72
    12
 73
     8
 74
     6
 42
0.0000000001
 43
0.0000000001
 44
0.0000000001
 40
0.0
 40
0.0
 40
0.0
 40
0.0
 40
0.1690118339052032
 40
0.5175774661755118
 40
0.8011704844252565
 40
0.9154070810132151
 40
0.975822310881188
 40
0.975822310881188
 40
0.975822310881188
 40
0.975822310881188
 10
-0.5
 20
-0.077
 30
0.0
 10
-0.443824324006723
 20
-0.0900581618560981
 30
0.0
 10
-0.2717933876546281
 20
-0.1300471387828842
 30
0.0
 10
-0.0276699186086479
 20
-0.0006977790990417
 30
0.0
 10
0.2303349729129116
 20
0.0817803270207037
 30
0.0
 10
0.3686157174766292
 20
0.0066250198607167
 30
0.0
 10
0.4216533294581816
 20
-0.0168719667726145
 30
0.0
 10
0.44
 20
-0.025
 30
0.0
 11
-0.5
 21
-0.077
 31
0.0
 11
-0.333
 21
-0.103
 31
0.0
 11
0.0
 21
0.0
 31
0.0
 11
0.28
 21
0.045
 31
0.0
 11
0.385
 21
0.0
 31
0.0
 11
0.44
 21
-0.025
 31
0.0
  0
HATCH
  5
19D
330
19B
100
AcDbEntity
  8
0
  6
Continuous
 62
     0
370
    -2
390
5F
100
AcDbHatch
 10
0.0
 20
0.0
 30
0.0
210
0.0
220
0.0
230
1.0
  2
SOLID
 70
     1
 71
     0
 91
        1
 92
        3
 72
     0
 73
     1
 93
        3
 10
0.365
 20
-0.05
 10
0.5
 20
-0.042
 10
0.395
 20
0.045
 97
        0
 75
     0
 76
     1
 98
        0
  0
ENDBLK
  5
19F
330
19B
100
AcDbEntity
  8
0
100
AcDbBlockEnd
  0
BLOCK
  5
1A4
330
1A0
100
AcDbEntity
  8
0
100
AcDbBlockBegin
  2
CDWK_PTTYP52
 70
     0
 10
0.0
 20
0.0
 30
0.0
  3
CDWK_PTTYP52
  1

  0
LINE
  5
1A1
330
1A0
100
AcDbEntity
  8
0
  6
Continuous
 62
     0
370
    -2
390
5F
100
AcDbLine
 10
-0.5
 20
-0.289
 30
0.0
 11
0.5
 21
-0.289
 31
0.0
  0
LINE
  5
1A2
330
1A0
100
AcDbEntity
  8
0
  6
Continuous
 62
     0
370
    -2
390
5F
100
AcDbLine
 10
0.5
 20
-0.289
 30
0.0
 11
0.0
 21
0.577
 31
0.0
  0
LINE
  5
1A3
330
1A0
100
AcDbEntity
  8
0
  6
Continuous
 62
     0
370
    -2
390
5F
100
AcDbLine
 10
0.0
 20
0.577
 30
0.0
 11
-0.5
 21
-0.289
 31
0.0
  0
ENDBLK
  5
1A5
330
1A0
100
AcDbEntity
  8
0
100
AcDbBlockEnd
  0
BLOCK
  5
1AB
330
1A6
100
AcDbEntity
  8
0
100
AcDbBlockBegin
  2
cw-dimension-symbol1
 70
     0
 10
0.0
 20
0.0
 30
0.0
  3
cw-dimension-symbol1
  1

  0
LINE
  5
1A7
330
1A6
100
AcDbEntity
  8
0
  6
Continuous
 62
     0
370
    -2
390
5F
100
AcDbLine
 10
0.0
 20
0.0
 30
0.0
 11
-1.0
 21
0.25
 31
0.0
  0
LINE
  5
1A8
330
1A6
100
AcDbEntity
  8
0
  6
Continuous
 62
     0
370
    -2
390
5F
100
AcDbLine
 10
0.0
 20
0.0
 30
0.0
 11
-1.0
 21
-0.25
 31
0.0
  0
LINE
  5
1A9
330
1A6
100
AcDbEntity
  8
0
  6
Continuous
 62
     0
370
    -2
390
5F
100
AcDbLine
 10
-1.0
 20
0.25
 30
0.0
 11
-1.0
 21
-0.25
 31
0.0
  0
LINE
  5
1AA
330
1A6
100
AcDbEntity
  8
0
  6
Continuous
 62
     0
370
    -2
390
5F
100
AcDbLine
 10
0.0
 20
0.0
 30
0.0
 11
-1.0
 21
0.0
 31
0.0
  0
ENDBLK
  5
1AC
330
1A6
100
AcDbEntity
  8
0
100
AcDbBlockEnd
  0
BLOCK
  5
1B0
330
1AD
100
AcDbEntity
  8
0
100
AcDbBlockBegin
  2
cw-dimension-symbol2
 70
     0
 10
0.0
 20
0.0
 30
0.0
  3
cw-dimension-symbol2
  1

  0
LINE
  5
1AE
330
1AD
100
AcDbEntity
  8
0
  6
Continuous
 62
     0
370
    -2
390
5F
100
AcDbLine
 10
-1.0
 20
0.0
 30
0.0
 11
1.0
 21
0.0
 31
0.0
  0
LINE
  5
1AF
330
1AD
100
AcDbEntity
  8
0
  6
Continuous
 62
     0
370
    -2
390
5F
100
AcDbLine
 10
-0.5
 20
-0.5
 30
0.0
 11
0.5
 21
0.5
 31
0.0
  0
ENDBLK
  5
1B1
330
1AD
100
AcDbEntity
  8
0
100
AcDbBlockEnd
  0
BLOCK
  5
1B5
330
1B2
100
AcDbEntity
  8
0
100
AcDbBlockBegin
  2
cw-dimension-symbol3
 70
     0
 10
0.0
 20
0.0
 30
0.0
  3
cw-dimension-symbol3
  1

  0
LINE
  5
1B3
330
1B2
100
AcDbEntity
  8
0
  6
Continuous
 62
     0
370
    -2
390
5F
100
AcDbLine
 10
-1.0
 20
0.0
 30
0.0
 11
1.0
 21
0.0
 31
0.0
  0
CIRCLE
  5
1B4
330
1B2
100
AcDbEntity
  8
0
  6
Continuous
 62
     0
370
    -2
390
5F
100
AcDbCircle
 10
0.0
 20
0.0
 30
0.0
 40
0.25
  0
ENDBLK
  5
1B6
330
1B2
100
AcDbEntity
  8
0
100
AcDbBlockEnd
  0
BLOCK
  5
1BC
330
1B7
100
AcDbEntity
  8
0
100
AcDbBlockBegin
  2
cw-dimension-symbol5
 70
     0
 10
0.0
 20
0.0
 30
0.0
  3
cw-dimension-symbol5
  1

  0
HATCH
  5
1B8
330
1B7
100
AcDbEntity
  8
0
  6
Continuous
 62
     0
370
    -2
390
5F
100
AcDbHatch
 10
0.0
 20
0.0
 30
0.0
210
0.0
220
0.0
230
1.0
  2
SOLID
 70
     1
 71
     0
 91
        1
 92
        3
 72
     0
 73
     1
 93
        3
 10
0.0
 20
0.0
 10
-1.0
 20
0.25
 10
-1.0
 20
-0.25
 97
        0
 75
     0
 76
     1
 98
        0
  0
LINE
  5
1B9
330
1B7
100
AcDbEntity
  8
0
  6
Continuous
 62
     0
370
    -2
390
5F
100
AcDbLine
 10
0.0
 20
0.0
 30
0.0
 11
-1.0
 21
0.25
 31
0.0
  0
LINE
  5
1BA
330
1B7
100
AcDbEntity
  8
0
  6
Continuous
 62
     0
370
    -2
390
5F
100
AcDbLine
 10
-1.0
 20
0.25
 30
0.0
 11
-1.0
 21
-0.25
 31
0.0
  0
LINE
  5
1BB
330
1B7
100
AcDbEntity
  8
0
  6
Continuous
 62
     0
370
    -2
390
5F
100
AcDbLine
 10
-1.0
 20
-0.25
 30
0.0
 11
0.0
 21
0.0
 31
0.0
  0
ENDBLK
  5
1BD
330
1B7
100
AcDbEntity
  8
0
100
AcDbBlockEnd
  0
BLOCK
  5
1C2
330
1BE
100
AcDbEntity
  8
0
100
AcDbBlockBegin
  2
cw-dimension-symbol6
 70
     0
 10
0.0
 20
0.0
 30
0.0
  3
cw-dimension-symbol6
  1

  0
LINE
  5
1BF
330
1BE
100
AcDbEntity
  8
0
  6
Continuous
 62
     0
370
    -2
390
5F
100
AcDbLine
 10
0.0
 20
0.0
 30
0.0
 11
-1.0
 21
0.25
 31
0.0
  0
LINE
  5
1C0
330
1BE
100
AcDbEntity
  8
0
  6
Continuous
 62
     0
370
    -2
390
5F
100
AcDbLine
 10
0.0
 20
0.0
 30
0.0
 11
-1.0
 21
-0.25
 31
0.0
  0
LINE
  5
1C1
330
1BE
100
AcDbEntity
  8
0
  6
Continuous
 62
     0
370
    -2
390
5F
100
AcDbLine
 10
0.0
 20
0.0
 30
0.0
 11
-1.0
 21
0.0
 31
0.0
  0
ENDBLK
  5
1C3
330
1BE
100
AcDbEntity
  8
0
100
AcDbBlockEnd
  0
BLOCK
  5
1C8
330
1C4
100
AcDbEntity
  8
0
100
AcDbBlockBegin
  2
cw-dimension-symbol11
 70
     0
 10
0.0
 20
0.0
 30
0.0
  3
cw-dimension-symbol11
  1

  0
LINE
  5
1C5
330
1C4
100
AcDbEntity
  8
0
  6
Continuous
 62
     0
370
    -2
390
5F
100
AcDbLine
 10
-1.0
 20
1.0
 30
0.0
 11
1.0
 21
1.0
 31
0.0
  0
LINE
  5
1C6
330
1C4
100
AcDbEntity
  8
0
  6
Continuous
 62
     0
370
    -2
390
5F
100
AcDbLine
 10
0.0
 20
0.0
 30
0.0
 11
-1.0
 21
1.0
 31
0.0
  0
LINE
  5
1C7
330
1C4
100
AcDbEntity
  8
0
  6
Continuous
 62
     0
370
    -2
390
5F
100
AcDbLine
 10
0.0
 20
0.0
 30
0.0
 11
1.0
 21
1.0
 31
0.0
  0
ENDBLK
  5
1C9
330
1C4
100
AcDbEntity
  8
0
100
AcDbBlockEnd
  0
BLOCK
  5
1CE
330
1CA
100
AcDbEntity
  8
0
100
AcDbBlockBegin
  2
cw-dimension-symbol13
 70
     0
 10
0.0
 20
0.0
 30
0.0
  3
cw-dimension-symbol13
  1

  0
LINE
  5
1CB
330
1CA
100
AcDbEntity
  8
0
  6
Continuous
 62
     0
370
    -2
390
5F
100
AcDbLine
 10
-1.0
 20
-1.0
 30
0.0
 11
1.0
 21
-1.0
 31
0.0
  0
LINE
  5
1CC
330
1CA
100
AcDbEntity
  8
0
  6
Continuous
 62
     0
370
    -2
390
5F
100
AcDbLine
 10
0.0
 20
0.0
 30
0.0
 11
-1.0
 21
-1.0
 31
0.0
  0
LINE
  5
1CD
330
1CA
100
AcDbEntity
  8
0
  6
Continuous
 62
     0
370
    -2
390
5F
100
AcDbLine
 10
0.0
 20
0.0
 30
0.0
 11
1.0
 21
-1.0
 31
0.0
  0
ENDBLK
  5
1CF
330
1CA
100
AcDbEntity
  8
0
100
AcDbBlockEnd
  0
BLOCK
  5
1D5
330
1D0
100
AcDbEntity
  8
0
100
AcDbBlockBegin
  2
cw-dimension-symbol15
 70
     0
 10
0.0
 20
0.0
 30
0.0
  3
cw-dimension-symbol15
  1

  0
HATCH
  5
1D1
330
1D0
100
AcDbEntity
  8
0
  6
Continuous
 62
     0
370
    -2
390
5F
100
AcDbHatch
 10
0.0
 20
0.0
 30
0.0
210
0.0
220
0.0
230
1.0
  2
SOLID
 70
     1
 71
     0
 91
        1
 92
        3
 72
     0
 73
     1
 93
        3
 10
0.0
 20
0.0
 10
-1.0
 20
1.0
 10
1.0
 20
1.0
 97
        0
 75
     0
 76
     1
 98
        0
  0
LINE
  5
1D2
330
1D0
100
AcDbEntity
  8
0
  6
Continuous
 62
     0
370
    -2
390
5F
100
AcDbLine
 10
0.0
 20
0.0
 30
0.0
 11
-1.0
 21
1.0
 31
0.0
  0
LINE
  5
1D3
330
1D0
100
AcDbEntity
  8
0
  6
Continuous
 62
     0
370
    -2
390
5F
100
AcDbLine
 10
-1.0
 20
1.0
 30
0.0
 11
1.0
 21
1.0
 31
0.0
  0
LINE
  5
1D4
330
1D0
100
AcDbEntity
  8
0
  6
Continuous
 62
     0
370
    -2
390
5F
100
AcDbLine
 10
1.0
 20
1.0
 30
0.0
 11
0.0
 21
0.0
 31
0.0
  0
ENDBLK
  5
1D6
330
1D0
100
AcDbEntity
  8
0
100
AcDbBlockEnd
  0
BLOCK
  5
1DC
330
1D7
100
AcDbEntity
  8
0
100
AcDbBlockBegin
  2
cw-dimension-symbol16
 70
     0
 10
0.0
 20
0.0
 30
0.0
  3
cw-dimension-symbol16
  1

  0
HATCH
  5
1D8
330
1D7
100
AcDbEntity
  8
0
  6
Continuous
 62
     0
370
    -2
390
5F
100
AcDbHatch
 10
0.0
 20
0.0
 30
0.0
210
0.0
220
0.0
230
1.0
  2
SOLID
 70
     1
 71
     0
 91
        1
 92
        3
 72
     0
 73
     1
 93
        3
 10
0.0
 20
0.0
 10
-1.0
 20
-1.0
 10
1.0
 20
-1.0
 97
        0
 75
     0
 76
     1
 98
        0
  0
LINE
  5
1D9
330
1D7
100
AcDbEntity
  8
0
  6
Continuous
 62
     0
370
    -2
390
5F
100
AcDbLine
 10
0.0
 20
0.0
 30
0.0
 11
-1.0
 21
-1.0
 31
0.0
  0
LINE
  5
1DA
330
1D7
100
AcDbEntity
  8
0
  6
Continuous
 62
     0
370
    -2
390
5F
100
AcDbLine
 10
-1.0
 20
-1.0
 30
0.0
 11
1.0
 21
-1.0
 31
0.0
  0
LINE
  5
1DB
330
1D7
100
AcDbEntity
  8
0
  6
Continuous
 62
     0
370
    -2
390
5F
100
AcDbLine
 10
1.0
 20
-1.0
 30
0.0
 11
0.0
 21
0.0
 31
0.0
  0
ENDBLK
  5
1DD
330
1D7
100
AcDbEntity
  8
0
100
AcDbBlockEnd
  0
BLOCK
  5
1E3
330
1DE
100
AcDbEntity
  8
0
100
AcDbBlockBegin
  2
cw-dimension-symbol17
 70
     0
 10
0.0
 20
0.0
 30
0.0
  3
cw-dimension-symbol17
  1

  0
LINE
  5
1DF
330
1DE
100
AcDbEntity
  8
0
  6
Continuous
 62
     0
370
    -2
390
5F
100
AcDbLine
 10
0.0
 20
0.0
 30
0.0
 11
1.0
 21
1.0
 31
0.0
  0
LINE
  5
1E0
330
1DE
100
AcDbEntity
  8
0
  6
Continuous
 62
     0
370
    -2
390
5F
100
AcDbLine
 10
1.0
 20
1.0
 30
0.0
 11
-1.0
 21
1.0
 31
0.0
  0
LINE
  5
1E1
330
1DE
100
AcDbEntity
  8
0
  6
Continuous
 62
     0
370
    -2
390
5F
100
AcDbLine
 10
-1.0
 20
1.0
 30
0.0
 11
0.0
 21
0.0
 31
0.0
  0
HATCH
  5
1E2
330
1DE
100
AcDbEntity
  8
0
  6
Continuous
 62
     0
370
    -2
390
5F
100
AcDbHatch
 10
0.0
 20
0.0
 30
0.0
210
0.0
220
0.0
230
1.0
  2
SOLID
 70
     1
 71
     0
 91
        1
 92
        3
 72
     0
 73
     1
 93
        3
 10
0.0
 20
0.0
 10
-1.0
 20
1.0
 10
0.0
 20
1.0
 97
        0
 75
     0
 76
     1
 98
        0
  0
ENDBLK
  5
1E4
330
1DE
100
AcDbEntity
  8
0
100
AcDbBlockEnd
  0
BLOCK
  5
1EA
330
1E5
100
AcDbEntity
  8
0
100
AcDbBlockBegin
  2
cw-dimension-symbol18
 70
     0
 10
0.0
 20
0.0
 30
0.0
  3
cw-dimension-symbol18
  1

  0
LINE
  5
1E6
330
1E5
100
AcDbEntity
  8
0
  6
Continuous
 62
     0
370
    -2
390
5F
100
AcDbLine
 10
0.0
 20
0.0
 30
0.0
 11
1.0
 21
-1.0
 31
0.0
  0
LINE
  5
1E7
330
1E5
100
AcDbEntity
  8
0
  6
Continuous
 62
     0
370
    -2
390
5F
100
AcDbLine
 10
1.0
 20
-1.0
 30
0.0
 11
-1.0
 21
-1.0
 31
0.0
  0
LINE
  5
1E8
330
1E5
100
AcDbEntity
  8
0
  6
Continuous
 62
     0
370
    -2
390
5F
100
AcDbLine
 10
-1.0
 20
-1.0
 30
0.0
 11
0.0
 21
0.0
 31
0.0
  0
HATCH
  5
1E9
330
1E5
100
AcDbEntity
  8
0
  6
Continuous
 62
     0
370
    -2
390
5F
100
AcDbHatch
 10
0.0
 20
0.0
 30
0.0
210
0.0
220
0.0
230
1.0
  2
SOLID
 70
     1
 71
     0
 91
        1
 92
        3
 72
     0
 73
     1
 93
        3
 10
0.0
 20
0.0
 10
-1.0
 20
-1.0
 10
0.0
 20
-1.0
 97
        0
 75
     0
 76
     1
 98
        0
  0
ENDBLK
  5
1EB
330
1E5
100
AcDbEntity
  8
0
100
AcDbBlockEnd
  0
BLOCK
  5
1ED
330
1EC
100
AcDbEntity
  8
0
100
AcDbBlockBegin
  2
cw-dimension-symbol19
 70
     0
 10
0.0
 20
0.0
 30
0.0
  3
cw-dimension-symbol19
  1

  0
ENDBLK
  5
1EE
330
1EC
100
AcDbEntity
  8
0
100
AcDbBlockEnd
  0
BLOCK
  5
1F4
330
1EF
100
AcDbEntity
  8
0
100
AcDbBlockBegin
  2
cw-dimension-symbol20
 70
     0
 10
0.0
 20
0.0
 30
0.0
  3
cw-dimension-symbol20
  1

  0
LINE
  5
1F0
330
1EF
100
AcDbEntity
  8
0
  6
Continuous
 62
     0
370
    -2
390
5F
100
AcDbLine
 10
0.0
 20
0.0
 30
0.0
 11
0.0
 21
2.0
 31
0.0
  0
LINE
  5
1F1
330
1EF
100
AcDbEntity
  8
0
  6
Continuous
 62
     0
370
    -2
390
5F
100
AcDbLine
 10
0.0
 20
0.0
 30
0.0
 11
-1.0
 21
0.33
 31
0.0
  0
LINE
  5
1F2
330
1EF
100
AcDbEntity
  8
0
  6
Continuous
 62
     0
370
    -2
390
5F
100
AcDbLine
 10
0.0
 20
0.0
 30
0.0
 11
1.0
 21
0.33
 31
0.0
  0
LINE
  5
1F3
330
1EF
100
AcDbEntity
  8
0
  6
Continuous
 62
     0
370
    -2
390
5F
100
AcDbLine
 10
0.0
 20
2.0
 30
0.0
 11
4.15
 21
2.0
 31
0.0
  0
ENDBLK
  5
1F5
330
1EF
100
AcDbEntity
  8
0
100
AcDbBlockEnd
  0
BLOCK
  5
1FB
330
1F6
100
AcDbEntity
  8
0
100
AcDbBlockBegin
  2
cw-dimension-symbol21
 70
     0
 10
0.0
 20
0.0
 30
0.0
  3
cw-dimension-symbol21
  1

  0
LINE
  5
1F7
330
1F6
100
AcDbEntity
  8
0
  6
Continuous
 62
     0
370
    -2
390
5F
100
AcDbLine
 10
0.0
 20
0.0
 30
0.0
 11
0.0
 21
-2.0
 31
0.0
  0
LINE
  5
1F8
330
1F6
100
AcDbEntity
  8
0
  6
Continuous
 62
     0
370
    -2
390
5F
100
AcDbLine
 10
0.0
 20
0.0
 30
0.0
 11
-1.0
 21
-0.33
 31
0.0
  0
LINE
  5
1F9
330
1F6
100
AcDbEntity
  8
0
  6
Continuous
 62
     0
370
    -2
390
5F
100
AcDbLine
 10
0.0
 20
0.0
 30
0.0
 11
1.0
 21
-0.33
 31
0.0
  0
LINE
  5
1FA
330
1F6
100
AcDbEntity
  8
0
  6
Continuous
 62
     0
370
    -2
390
5F
100
AcDbLine
 10
0.0
 20
-2.0
 30
0.0
 11
4.15
 21
-2.0
 31
0.0
  0
ENDBLK
  5
1FC
330
1F6
100
AcDbEntity
  8
0
100
AcDbBlockEnd
  0
BLOCK
  5
22D
330
1FD
100
AcDbEntity
  8
0
100
AcDbBlockBegin
  2
cw-line-extremity0
 70
     0
 10
0.0
 20
0.0
 30
0.0
  3
cw-line-extremity0
  1

  0
LINE
  5
1FE
330
1FD
100
AcDbEntity
  8
0
  6
Continuous
 62
     0
370
    -2
390
5F
100
AcDbLine
 10
0.0
 20
0.0
 30
0.0
 11
10.0
 21
2.5
 31
0.0
  0
LINE
  5
1FF
330
1FD
100
AcDbEntity
  8
0
  6
Continuous
 62
     0
370
    -2
390
5F
100
AcDbLine
 10
0.0
 20
0.0
 30
0.0
 11
10.0
 21
-2.5
 31
0.0
  0
LINE
  5
200
330
1FD
100
AcDbEntity
  8
0
  6
Continuous
 62
     0
370
    -2
390
5F
100
AcDbLine
 10
10.0
 20
2.5
 30
0.0
 11
10.0
 21
-2.5
 31
0.0
  0
ENDBLK
  5
22E
330
1FD
100
AcDbEntity
  8
0
100
AcDbBlockEnd
  0
BLOCK
  5
22B
330
201
100
AcDbEntity
  8
0
100
AcDbBlockBegin
  2
cw-line-extremity2
 70
     0
 10
0.0
 20
0.0
 30
0.0
  3
cw-line-extremity2
  1

  0
HATCH
  5
202
330
201
100
AcDbEntity
  8
0
  6
Continuous
 62
     0
370
     0
390
5F
100
AcDbHatch
 10
0.0
 20
0.0
 30
0.0
210
0.0
220
0.0
230
1.0
  2
SOLID
 70
     1
 71
     0
 91
        1
 92
        3
 72
     0
 73
     1
 93
        3
 10
0.0
 20
0.0
 10
10.0
 20
2.5
 10
10.0
 20
-2.5
 97
        0
 75
     0
 76
     1
 98
        0
  0
LINE
  5
203
330
201
100
AcDbEntity
  8
0
  6
Continuous
 62
     0
370
    -2
390
5F
100
AcDbLine
 10
0.0
 20
0.0
 30
0.0
 11
10.0
 21
2.5
 31
0.0
  0
LINE
  5
204
330
201
100
AcDbEntity
  8
0
  6
Continuous
 62
     0
370
    -2
390
5F
100
AcDbLine
 10
10.0
 20
2.5
 30
0.0
 11
10.0
 21
-2.5
 31
0.0
  0
LINE
  5
205
330
201
100
AcDbEntity
  8
0
  6
Continuous
 62
     0
370
    -2
390
5F
100
AcDbLine
 10
10.0
 20
-2.5
 30
0.0
 11
0.0
 21
0.0
 31
0.0
  0
ENDBLK
  5
22C
330
201
100
AcDbEntity
  8
0
100
AcDbBlockEnd
  0
BLOCK
  5
229
330
206
100
AcDbEntity
  8
0
100
AcDbBlockBegin
  2
cw-line-extremity3
 70
     0
 10
0.0
 20
0.0
 30
0.0
  3
cw-line-extremity3
  1

  0
HATCH
  5
207
330
206
100
AcDbEntity
  8
0
  6
Continuous
 62
     0
370
     0
390
5F
100
AcDbHatch
 10
0.0
 20
0.0
 30
0.0
210
0.0
220
0.0
230
1.0
  2
SOLID
 70
     1
 71
     0
 91
        1
 92
        3
 72
     0
 73
     1
 93
        3
 10
0.0
 20
0.0
 10
10.0
 20
2.5
 10
10.0
 20
-2.5
 97
        0
 75
     0
 76
     1
 98
        0
  0
LINE
  5
208
330
206
100
AcDbEntity
  8
0
  6
Continuous
 62
     0
370
    -2
390
5F
100
AcDbLine
 10
0.0
 20
0.0
 30
0.0
 11
10.0
 21
2.5
 31
0.0
  0
LINE
  5
209
330
206
100
AcDbEntity
  8
0
  6
Continuous
 62
     0
370
    -2
390
5F
100
AcDbLine
 10
10.0
 20
2.5
 30
0.0
 11
10.0
 21
-2.5
 31
0.0
  0
LINE
  5
20A
330
206
100
AcDbEntity
  8
0
  6
Continuous
 62
     0
370
    -2
390
5F
100
AcDbLine
 10
10.0
 20
-2.5
 30
0.0
 11
0.0
 21
0.0
 31
0.0
  0
ENDBLK
  5
22A
330
206
100
AcDbEntity
  8
0
100
AcDbBlockEnd
  0
BLOCK
  5
227
330
20B
100
AcDbEntity
  8
0
100
AcDbBlockBegin
  2
cw-line-extremity301
 70
     0
 10
0.0
 20
0.0
 30
0.0
  3
cw-line-extremity301
  1

  0
LINE
  5
20C
330
20B
100
AcDbEntity
  8
0
  6
Continuous
 62
     0
370
    -2
390
5F
100
AcDbLine
 10
0.0
 20
6.66665
 30
0.0
 11
0.0
 21
-6.66665
 31
0.0
  0
ENDBLK
  5
228
330
20B
100
AcDbEntity
  8
0
100
AcDbBlockEnd
  0
BLOCK
  5
225
330
20D
100
AcDbEntity
  8
0
100
AcDbBlockBegin
  2
cw-line-extremity4
 70
     0
 10
0.0
 20
0.0
 30
0.0
  3
cw-line-extremity4
  1

  0
HATCH
  5
20E
330
20D
100
AcDbEntity
  8
0
  6
Continuous
 62
     0
370
     5
390
5F
100
AcDbHatch
 10
0.0
 20
0.0
 30
0.0
210
0.0
220
0.0
230
1.0
  2
SOLID
 70
     1
 71
     0
 91
        1
 92
        1
 93
        1
 72
     2
 10
0.0
 20
0.0
 40
2.5
 50
0.0
 51
360.0
 73
     1
 97
        0
 75
     0
 76
     1
 98
        0
  0
ENDBLK
  5
226
330
20D
100
AcDbEntity
  8
0
100
AcDbBlockEnd
  0
BLOCK
  5
223
330
20F
100
AcDbEntity
  8
0
100
AcDbBlockBegin
  2
cw-line-extremity5
 70
     0
 10
0.0
 20
0.0
 30
0.0
  3
cw-line-extremity5
  1

  0
LINE
  5
210
330
20F
100
AcDbEntity
  8
0
  6
Continuous
 62
     0
370
    -2
390
5F
100
AcDbLine
 10
0.0
 20
0.0
 30
0.0
 11
-2.5
 21
0.0
 31
0.0
  0
ENDBLK
  5
224
330
20F
100
AcDbEntity
  8
0
100
AcDbBlockEnd
  0
BLOCK
  5
221
330
211
100
AcDbEntity
  8
0
100
AcDbBlockBegin
  2
cw-line-extremity6
 70
     0
 10
0.0
 20
0.0
 30
0.0
  3
cw-line-extremity6
  1

  0
LINE
  5
212
330
211
100
AcDbEntity
  8
0
  6
Continuous
 62
     0
370
    18
390
5F
100
AcDbLine
 10
0.0
 20
2.5
 30
0.0
 11
0.0
 21
-2.5
 31
0.0
  0
ENDBLK
  5
222
330
211
100
AcDbEntity
  8
0
100
AcDbBlockEnd
  0
BLOCK
  5
21F
330
213
100
AcDbEntity
  8
0
100
AcDbBlockBegin
  2
cw-line-extremity9
 70
     0
 10
0.0
 20
0.0
 30
0.0
  3
cw-line-extremity9
  1

  0
LINE
  5
214
330
213
100
AcDbEntity
  8
0
  6
Continuous
 62
     0
370
    18
390
5F
100
AcDbLine
 10
-2.5
 20
-2.5
 30
0.0
 11
2.5
 21
2.5
 31
0.0
  0
ENDBLK
  5
220
330
213
100
AcDbEntity
  8
0
100
AcDbBlockEnd
  0
BLOCK
  5
21D
330
215
100
AcDbEntity
  8
0
100
AcDbBlockBegin
  2
cw-line-extremity10
 70
     0
 10
0.0
 20
0.0
 30
0.0
  3
cw-line-extremity10
  1

  0
CIRCLE
  5
216
330
215
100
AcDbEntity
  8
0
  6
Continuous
 62
     0
370
    -2
390
5F
100
AcDbCircle
 10
0.0
 20
0.0
 30
0.0
 40
2.5
  0
ENDBLK
  5
21E
330
215
100
AcDbEntity
  8
0
100
AcDbBlockEnd
  0
BLOCK
  5
21B
330
217
100
AcDbEntity
  8
0
100
AcDbBlockBegin
  2
cw-line-extremity1
 70
     0
 10
0.0
 20
0.0
 30
0.0
  3
cw-line-extremity1
  1

  0
LINE
  5
218
330
217
100
AcDbEntity
  8
0
  6
Continuous
 62
     0
370
    -2
390
5F
100
AcDbLine
 10
0.0
 20
0.0
 30
0.0
 11
0.0
 21
2.5
 31
0.0
  0
LINE
  5
219
330
217
100
AcDbEntity
  8
0
  6
Continuous
 62
     0
370
    -2
390
5F
100
AcDbLine
 10
0.0
 20
2.5
 30
0.0
 11
1.25
 21
3.75
 31
0.0
  0
LINE
  5
21A
330
217
100
AcDbEntity
  8
0
  6
Continuous
 62
     0
370
    -2
390
5F
100
AcDbLine
 10
1.25
 20
3.75
 30
0.0
 11
3.75
 21
3.75
 31
0.0
  0
ENDBLK
  5
21C
330
217
100
AcDbEntity
  8
0
100
AcDbBlockEnd
  0
BLOCK
  5
1C
330
1B
100
AcDbEntity
  8
0
100
AcDbBlockBegin
  2
*Paper_Space69
 70
     0
 10
0.0
 20
0.0
 30
0.0
  3
*Paper_Space69
  1

  0
ENDBLK
  5
1D
330
1B
100
AcDbEntity
  8
0
100
AcDbBlockEnd
  0
ENDSEC
  0
SECTION
  2
ENTITIES
  0
HATCH
  5
239
330
1F
100
AcDbEntity
  8
Ech.1_5
  6
Continuous
 62
   254
420
 14407639
440
 33554687
370
     5
390
5F
100
AcDbHatch
 10
0.0
 20
0.0
 30
0.0
210
0.0
220
0.0
230
1.0
  2
SOLID
 70
     1
 71
     0
 91
        1
 92
        3
 72
     0
 73
     1
 93
        4
 10
4856.194976079143
 20
-19999.71034806757
 10
4869.194976079143
 20
-19999.71034806757
 10
4869.194976079143
 20
-20750.34524292096
 10
4856.194976079143
 20
-20750.34524292096
 97
        0
 75
     0
 76
     1
 98
        0
  0
HATCH
  5
23A
330
1F
100
AcDbEntity
  8
Ech.1_5
  6
Continuous
 62
   190
440
 33554687
370
    15
390
238
100
AcDbHatch
 10
0.0
 20
0.0
 30
0.0
210
0.0
220
0.0
230
1.0
  2
CwHatchPattern_84
 70
     0
 71
     0
 91
        1
 92
        3
 72
     0
 73
     1
 93
        4
 10
4856.194976079143
 20
-19999.71034806757
 10
4869.194976079143
 20
-19999.71034806757
 10
4869.194976079143
 20
-20750.34524292096
 10
4856.194976079143
 20
-20750.34524292096
 97
        0
 75
     0
 76
     2
 52
0.0
 41
1.0
 77
     0
 78
     2
 53
0.0
 43
0.0
 44
0.0
 45
0.0
 46
70.0
 79
     2
 49
0.0
 49
-70.0
 53
0.0
 43
35.0
 44
35.0
 45
0.0
 46
70.0
 79
     2
 49
0.0
 49
-70.0
 98
        0
1001
ACAD
1010
0.0
1020
0.0
1030
0.0
  0
LWPOLYLINE
  5
23B
330
1F
100
AcDbEntity
  8
Ech.1_5
  6
Continuous
 62
   190
370
    15
390
5F
100
AcDbPolyline
 90
        5
 70
     0
 43
0.0
 10
4856.194976079143
 20
-19999.71034806757
 10
4869.194976079143
 20
-19999.71034806757
 10
4869.194976079143
 20
-20750.34524292096
 10
4856.194976079143
 20
-20750.34524292096
 10
4856.194976079143
 20
-19999.71034806757
  0
HATCH
  5
23C
330
1F
100
AcDbEntity
  8
Ech.1_5
  6
Continuous
 62
   254
420
 14407639
440
 33554687
370
     5
390
5F
100
AcDbHatch
 10
0.0
 20
0.0
 30
0.0
210
0.0
220
0.0
230
1.0
  2
SOLID
 70
     1
 71
     0
 91
        1
 92
        3
 72
     0
 73
     1
 93
        4
 10
4508.194976079143
 20
-19999.71034806757
 10
4495.194976079143
 20
-19999.71034806757
 10
4495.194976079143
 20
-20750.34524292096
 10
4508.194976079143
 20
-20750.34524292096
 97
        0
 75
     0
 76
     1
 98
        0
  0
HATCH
  5
23D
330
1F
100
AcDbEntity
  8
Ech.1_5
  6
Continuous
 62
   190
440
 33554687
370
    15
390
238
100
AcDbHatch
 10
0.0
 20
0.0
 30
0.0
210
0.0
220
0.0
230
1.0
  2
CwHatchPattern_84
 70
     0
 71
     0
 91
        1
 92
        3
 72
     0
 73
     1
 93
        4
 10
4508.194976079143
 20
-19999.71034806757
 10
4495.194976079143
 20
-19999.71034806757
 10
4495.194976079143
 20
-20750.34524292096
 10
4508.194976079143
 20
-20750.34524292096
 97
        0
 75
     0
 76
     2
 52
0.0
 41
1.0
 77
     0
 78
     2
 53
0.0
 43
0.0
 44
0.0
 45
0.0
 46
70.0
 79
     2
 49
0.0
 49
-70.0
 53
0.0
 43
35.0
 44
35.0
 45
0.0
 46
70.0
 79
     2
 49
0.0
 49
-70.0
 98
        0
1001
ACAD
1010
0.0
1020
0.0
1030
0.0
  0
LWPOLYLINE
  5
23E
330
1F
100
AcDbEntity
  8
Ech.1_5
  6
Continuous
 62
   190
370
    15
390
5F
100
AcDbPolyline
 90
        5
 70
     0
 43
0.0
 10
4508.194976079143
 20
-19999.71034806757
 10
4495.194976079143
 20
-19999.71034806757
 10
4495.194976079143
 20
-20750.34524292096
 10
4508.194976079143
 20
-20750.34524292096
 10
4508.194976079143
 20
-19999.71034806757
  0
LINE
  5
23F
330
1F
100
AcDbEntity
  8
Ech.1_5
  6
Continuous
 62
   190
370
    15
390
5F
100
AcDbLine
 10
5174.694976079145
 20
-19882.81615563113
 30
0.0
 11
4189.694976079145
 21
-19882.81615563113
 31
0.0
  0
LWPOLYLINE
  5
240
330
1F
100
AcDbEntity
  8
Ech.1_5
 62
   190
370
    15
390
5F
100
AcDbPolyline
 90
        5
 70
     0
 43
0.0
 10
5096.117006649276
 20
-19996.62992211062
 10
5146.117006649276
 20
-19996.62992211062
 10
5146.117006649276
 20
-19989.21479149539
 10
5096.117006649276
 20
-19989.21479149539
 10
5096.117006649276
 20
-19996.62992211062
  0
LWPOLYLINE
  5
241
330
1F
100
AcDbEntity
  8
Ech.1_5
 62
   190
370
    15
390
5F
100
AcDbPolyline
 90
        5
 70
     0
 43
0.0
 10
5027.83696086396
 20
-19962.97310753543
 10
5162.265739849912
 20
-19962.97310753543
 10
5162.265739849912
 20
-20019.69606896121
 10
5027.83696086396
 20
-20019.69606896121
 10
5027.83696086396
 20
-19962.97310753543
  0
LWPOLYLINE
  5
242
330
1F
100
AcDbEntity
  8
Ech.1_5
 62
   190
370
    15
390
5F
100
AcDbPolyline
 90
        5
 70
     0
 43
0.0
 10
5046.117006649276
 20
-19996.62992211062
 10
5096.117006649276
 20
-19996.62992211062
 10
5096.117006649276
 20
-19989.21479149539
 10
5046.117006649276
 20
-19989.21479149539
 10
5046.117006649276
 20
-19996.62992211062
  0
LWPOLYLINE
  5
243
102
{ACAD_REACTORS
330
244
102
}
330
1F
100
AcDbEntity
  8
Ech.1_5
  6
Continuous
 62
   190
370
    15
390
5F
100
AcDbPolyline
 90
        5
 70
     0
 43
0.0
 10
5174.694976079145
 20
-21149.2742287964
 10
4189.694976079145
 20
-21149.2742287964
 10
4189.694976079145
 20
-21125.54720048566
 10
5174.694976079145
 20
-21125.54720048566
 10
5174.694976079145
 20
-21149.2742287964
  0
LINE
  5
245
102
{ACAD_REACTORS
330
244
102
}
330
1F
100
AcDbEntity
  8
Ech.1_5
  6
Continuous
 62
   190
370
    15
390
5F
100
AcDbLine
 10
4377.899538042102
 20
-21070.40308356606
 30
0.0
 11
4377.899538042102
 21
-21092.40308356606
 31
0.0
  0
LINE
  5
246
102
{ACAD_REACTORS
330
244
102
}
330
1F
100
AcDbEntity
  8
Ech.1_5
  6
Continuous
 62
   190
370
    15
390
5F
100
AcDbLine
 10
5034.897640672645
 20
-21070.40308356606
 30
0.0
 11
5034.897640672645
 21
-21092.40308356606
 31
0.0
  0
LINE
  5
247
102
{ACAD_REACTORS
330
244
102
}
330
1F
100
AcDbEntity
  8
Ech.1_5
  6
Continuous
 62
   190
370
    15
390
5F
100
AcDbLine
 10
4534.054756037453
 20
-21070.40308356606
 30
0.0
 11
4534.054756037453
 21
-21092.40308356606
 31
0.0
  0
LWPOLYLINE
  5
248
330
1F
100
AcDbEntity
  8
Ech.1_5
  6
Continuous
 62
   190
370
    15
390
5F
100
AcDbPolyline
 90
        5
 70
     0
 43
0.0
 10
5174.694976079145
 20
-19852.81615563113
 10
4189.694976079145
 20
-19852.81615563113
 10
4189.694976079145
 20
-21207.81615563116
 10
5174.694976079145
 20
-21207.81615563116
 10
5174.694976079145
 20
-19852.81615563113
  0
HATCH
  5
249
330
1F
100
AcDbEntity
  8
Ech.1_5
  6
Continuous
 62
   190
440
 33554687
370
    15
390
5F
100
AcDbHatch
 10
0.0
 20
0.0
 30
0.0
210
0.0
220
0.0
230
1.0
  2
SOLID
 70
     1
 71
     0
 91
        1
 92
        3
 72
     0
 73
     1
 93
        4
 10
5046.117006649276
 20
-19996.62992211062
 10
5096.117006649276
 20
-19996.62992211062
 10
5096.117006649276
 20
-19989.21479149539
 10
5046.117006649276
 20
-19989.21479149539
 97
        0
 75
     0
 76
     1
 98
        0
  0
LWPOLYLINE
  5
24A
102
{ACAD_REACTORS
330
244
102
}
330
1F
100
AcDbEntity
  8
Ech.1_5
  6
Continuous
 62
   190
370
    15
390
5F
100
AcDbPolyline
 90
        5
 70
     0
 43
0.0
 10
5174.694976079145
 20
-21092.40308356606
 10
4189.694976079145
 20
-21092.40308356606
 10
4189.694976079145
 20
-21070.40308356606
 10
5174.694976079145
 20
-21070.40308356606
 10
5174.694976079145
 20
-21092.40308356606
  0
LWPOLYLINE
  5
24B
330
1F
100
AcDbEntity
  8
Ech.1_5
  6
Continuous
 62
   190
370
    15
390
5F
100
AcDbPolyline
 90
        5
 70
     0
 43
0.0
 10
5174.694976079145
 20
-19948.33312340457
 10
4189.694976079145
 20
-19948.33312340457
 10
4189.694976079145
 20
-19852.81615563113
 10
5174.694976079145
 20
-19852.81615563113
 10
5174.694976079145
 20
-19948.33312340457
  0
HATCH
  5
24C
330
1F
100
AcDbEntity
  8
Ech.1_5
  6
Continuous
 62
     9
440
 33554687
370
    15
390
5F
100
AcDbHatch
 10
0.0
 20
0.0
 30
0.0
210
0.0
220
0.0
230
1.0
  2
AR-CONC
 70
     0
 71
     0
 91
        1
 92
        3
 72
     0
 73
     1
 93
        8
 10
4582.194976079145
 20
-20890.34524292096
 10
4582.194976079145
 20
-21040.34524292096
 10
4672.76379933649
 20
-21040.34524292096
 10
4689.250142720279
 20
-21022.36689132794
 10
4675.139809438011
 20
-21058.32359451398
 10
4691.6261528218
 20
-21040.34524292096
 10
4782.194976079145
 20
-21040.34524292096
 10
4782.194976079145
 20
-20890.34524292096
 97
        0
 75
     0
 76
     1
 52
5.00000000000033
 41
1.5
 77
     0
 78
    13
 53
55.00000000000033
 43
4582.194976079145
 44
-20890.34524292096
 45
274.3208762494205
 46
0.000011455946975
 79
     2
 49
28.575
 49
-314.325
 53
0.0000000000003422
 43
4582.194976079145
 44
-20890.34524292096
 45
-77.64151623000168
 46
280.8872245349995
 79
     2
 49
22.86
 49
-251.460876255
 53
105.4514447000003
 43
4605.054975779357
 44
-20890.34524291786
 45
196.6793603192858
 46
280.8872242906531
 79
     2
 49
24.2850132
 49
-267.1353669
 53
51.18420000000034
 43
4575.553708481773
 44
-20814.43520692637
 45
410.5676004275293
 46
-27.38437354460901
 79
     2
 49
42.8625
 49
-471.4875
 53
101.6355576100003
 43
4609.767641614481
 44
-20816.71719984387
 45
322.4041979740182
 46
400.7635906923936
 79
     2
 49
36.42753471
 49
-400.70341224
 53
356.1841511700003
 43
4575.553708481773
 44
-20814.43520692637
 45
322.404197995746
 46
400.7635906759411
 79
     2
 49
34.28995060499999
 49
-377.18959788
 53
26.00000000000033
 43
4615.169043378412
 44
-20830.09208212633
 45
239.9256780629247
 46
-132.992975026473
 79
     2
 49
28.575
 49
-314.325
 53
331.0000000000003
 43
4615.169043378412
 44
-20830.09208212633
 45
68.27072096800435
 46
283.3102154809616
 79
     2
 49
22.86
 49
-251.46
 53
76.45144500000032
 43
4635.162849881724
 44
-20841.17483012228
 45
308.1963984014785
 46
150.3172418308764
 79
     2
 49
24.2850132
 49
-267.1349064
 53
42.50000000000034
 43
4582.194976079145
 44
-20890.34524292096
 45
-6.438910549948158
 46
126.7537063991021
 79
     6
 49
0.0
 49
-248.412
 49
0.0
 49
-255.27
 49
0.0
 49
-252.4125
 53
12.50000000000033
 43
4582.194976079145
 44
-20890.34524292096
 45
86.75112167082781
 46
158.434612202742
 79
     6
 49
0.0
 49
-145.542
 49
0.0
 49
-242.697
 49
0.0
 49
-96.20250000000001
 53
332.5000000000003
 43
4497.555285945176
 44
-20897.75025629203
 45
203.3608874310512
 46
9.165831958710381
 79
     6
 49
0.0
 49
-95.25
 49
0.0
 49
-297.18
 49
0.0
 49
-394.335
 53
322.5000000000003
 43
4459.600267947881
 44
-20901.07089009071
 45
218.024160626917
 46
57.36006657717824
 79
     6
 49
0.0
 49
-123.825
 49
0.0
 49
-197.358
 49
0.0
 49
-280.035
 98
        0
1001
ACAD
1010
4582.194976079145
1020
-20890.34524292096
1030
0.0
  0
LWPOLYLINE
  5
24D
330
1F
100
AcDbEntity
  8
Ech.1_5
  6
Continuous
 62
     9
370
    15
390
5F
100
AcDbPolyline
 90
        9
 70
     0
 43
0.0
 38
2500.0
 39
-2500.0
 10
4582.194976079145
 20
-20890.34524292096
 10
4582.194976079145
 20
-21040.34524292096
 10
4672.76379933649
 20
-21040.34524292096
 10
4689.250142720279
 20
-21022.36689132794
 10
4675.139809438011
 20
-21058.32359451398
 10
4691.6261528218
 20
-21040.34524292096
 10
4782.194976079145
 20
-21040.34524292096
 10
4782.194976079145
 20
-20890.34524292096
 10
4582.194976079145
 20
-20890.34524292096
  0
LWPOLYLINE
  5
24E
330
1F
100
AcDbEntity
  8
Ech.1_5
370
    20
390
5F
100
AcDbPolyline
 90
        6
 70
     0
 43
0.0
 10
4495.193560891388
 20
-20530.68040068743
 10
4492.194976094423
 20
-20530.68046961089
 42
0.4142135623682406
 10
4482.194976094423
 20
-20540.68046961089
 10
4482.194976094423
 20
-20596.34524292096
 10
4495.194976079143
 20
-20596.34524525578
 10
4495.194976079143
 20
-20530.68047194571
  0
LWPOLYLINE
  5
24F
330
1F
100
AcDbEntity
  8
Ech.1_5
370
    20
390
5F
100
AcDbPolyline
 90
        6
 70
     0
 43
0.0
 10
4869.194976079143
 20
-20530.68040068743
 10
4872.193560876109
 20
-20530.68046961089
 42
-0.4142135623682406
 10
4882.193560876109
 20
-20540.68046961089
 10
4882.193560876109
 20
-20596.34524292096
 10
4869.193560891388
 20
-20596.34524525578
 10
4869.193560891388
 20
-20530.68047194571
  0
LWPOLYLINE
  5
250
330
1F
100
AcDbEntity
  8
Ech.1_5
  6
Continuous
 62
     9
370
    15
390
5F
100
AcDbPolyline
 90
        3
 70
     0
 43
0.0
 10
4924.215468945893
 20
-20596.34524058613
 10
4924.215468945893
 20
-20446.34524292096
 10
5005.04450663244
 20
-20446.34524292096
  0
INSERT
  5
251
330
1F
100
AcDbEntity
  8
Ech.1_5
 62
     9
370
    15
100
AcDbBlockReference
  2
cw-line-extremity4
 10
4924.215468945893
 20
-20596.34524058613
 30
0.0
 50
90.0
  0
LWPOLYLINE
  5
252
330
1F
100
AcDbEntity
  8
Ech.1_5
  6
Continuous
 62
     9
370
    15
390
5F
100
AcDbPolyline
 90
        3
 70
     0
 43
0.0
 10
4981.950495864856
 20
-20710.34524292096
 10
4981.950495864856
 20
-20546.34524292096
 10
5005.04450663244
 20
-20546.34524292096
  0
INSERT
  5
253
330
1F
100
AcDbEntity
  8
Ech.1_5
 62
     9
370
    15
100
AcDbBlockReference
  2
cw-line-extremity4
 10
4981.950495864856
 20
-20710.34524292096
 30
0.0
 50
90.0
  0
LWPOLYLINE
  5
254
330
1F
100
AcDbEntity
  8
Ech.1_5
  6
Continuous
 62
     9
370
    15
390
5F
100
AcDbPolyline
 90
        3
 70
     0
 43
0.0
 10
4953.082982405374
 20
-20635.34524292096
 10
4953.082982405374
 20
-20496.34524292096
 10
5005.04450663244
 20
-20496.34524292096
  0
INSERT
  5
255
330
1F
100
AcDbEntity
  8
Ech.1_5
 62
     9
370
    15
100
AcDbBlockReference
  2
cw-line-extremity4
 10
4953.082982405374
 20
-20635.34524292096
 30
0.0
 50
90.0
  0
LWPOLYLINE
  5
256
330
1F
100
AcDbEntity
  8
Ech.1_5
  6
Continuous
 62
     9
370
    15
390
5F
100
AcDbPolyline
 90
        3
 70
     0
 43
0.0
 10
4891.883853871273
 20
-20858.32872133685
 10
4981.950495864856
 20
-21014.32872133685
 10
5005.04450663244
 20
-21014.32872133685
  0
INSERT
  5
257
330
1F
100
AcDbEntity
  8
Ech.1_5
 62
     9
370
    15
100
AcDbBlockReference
  2
cw-line-extremity4
 10
4891.883853871273
 20
-20858.32872133685
 30
0.0
 50
300.0000000000002
  0
HATCH
  5
258
330
1F
100
AcDbEntity
  8
Ech.1_5
  6
Continuous
 62
     9
440
 33554687
370
    15
390
5F
100
AcDbHatch
 10
0.0
 20
0.0
 30
0.0
210
0.0
220
0.0
230
1.0
  2
AR-CONC
 70
     0
 71
     0
 91
        1
 92
        3
 72
     0
 73
     1
 93
        4
 10
4239.694976079145
 20
-20890.34524292096
 10
5124.694976079145
 20
-20890.34524292096
 10
5124.694976079145
 20
-20760.34524292096
 10
4239.694976079145
 20
-20760.34524292096
 97
        0
 75
     0
 76
     1
 52
45.00000000000297
 41
1.5
 77
     0
 78
    13
 53
95.00000000000298
 43
4239.694976079145
 44
-20890.34524292096
 45
210.1419755186485
 46
176.3300691072561
 79
     2
 49
28.575
 49
-314.325
 53
40.00000000000295
 43
4239.694976079145
 44
-20890.34524292096
 45
-240.0276797136709
 46
165.2650928682168
 79
     2
 49
22.86
 49
-251.460876255
 53
145.451444700003
 43
4257.206751817203
 44
-20875.65111835385
 45
-29.88569644450725
 46
341.5951532052787
 79
     2
 49
24.2850132
 49
-267.1353669
 53
91.18420000000296
 43
4185.813439352727
 44
-20836.46370619455
 45
332.1153648456931
 46
242.930119311423
 79
     2
 49
42.8625
 49
-471.4875
 53
141.635557610003
 43
4213.489669479046
 44
-20816.21952189189
 45
-10.62992621435451
 46
514.2401454229412
 79
     2
 49
36.42753471
 49
-400.70341224
 53
36.18415117000291
 43
4185.813439352727
 44
-20836.46370619455
 45
-10.62992618713426
 46
514.2401454243043
 79
     2
 49
34.289950605
 49
-377.18959788
 53
66.00000000000297
 43
4226.224591897538
 44
-20822.99332201294
 45
269.2799689640221
 46
52.34272361161125
 79
     2
 49
28.575
 49
-314.325
 53
11.00000000000292
 43
4226.224591897538
 44
-20822.99332201294
 45
-129.8098897835315
 46
260.9117897906252
 79
     2
 49
22.86
 49
-251.46
 53
116.451445000003
 43
4248.66458935927
 44
-20818.63142843892
 45
139.4700778135783
 46
313.2545140520076
 79
     2
 49
24.2850132
 49
-267.1349064
 53
82.50000000000297
 43
4239.694976079145
 44
-20890.34524292096
 45
-86.40820360172042
 46
92.96012051037602
 79
     6
 49
0.0
 49
-248.412
 49
0.0
 49
-255.27
 49
0.0
 49
-252.4125
 53
52.50000000000296
 43
4239.694976079145
 44
-20890.34524292096
 45
-35.38459097914645
 46
177.1305004120366
 79
     6
 49
0.0
 49
-145.542
 49
0.0
 49
-242.697
 49
0.0
 49
-96.20250000000001
 53
12.50000000000296
 43
4179.617062629195
 44
-20950.42315637091
 45
149.8917945487665
 46
137.7392933740781
 79
     6
 49
0.0
 49
-95.24999999999999
 49
0.0
 49
-297.1799999999999
 49
0.0
 49
-394.3349999999999
 53
2.500000000002962
 43
4152.676294265989
 44
-20977.36392473412
 45
130.1458566273156
 46
184.083589321678
 79
     6
 49
0.0
 49
-123.825
 49
0.0
 49
-197.358
 49
0.0
 49
-280.035
 98
        0
1001
ACAD
1010
4239.694976079145
1020
-20890.34524292096
1030
0.0
  0
3DFACE
  5
259
330
1F
100
AcDbEntity
  8
Ech.1_5
  6
Continuous
 62
     9
370
    15
390
5F
100
AcDbFace
 10
4239.694976079145
 20
-20890.34524292096
 30
2500.0
 11
5124.694976079145
 21
-20890.34524292096
 31
2500.0
 12
5124.694976079145
 22
-20760.34524292096
 32
2500.0
 13
4239.694976079145
 23
-20760.34524292096
 33
2500.0
  0
HATCH
  5
25A
330
1F
100
AcDbEntity
  8
Ech.1_5
  6
Continuous
 62
     9
440
 33554687
370
    15
390
5F
100
AcDbHatch
 10
0.0
 20
0.0
 30
0.0
210
0.0
220
0.0
230
1.0
  2
CwHatchPattern_201
 70
     0
 71
     0
 91
        1
 92
        3
 72
     0
 73
     1
 93
        8
 10
4239.694976079145
 20
-20760.34524292096
 10
4487.194976079143
 20
-20760.34524292096
 10
4487.194976079143
 20
-20660.34524292096
 10
4239.694976079145
 20
-20660.34524292096
 10
4239.694976079145
 20
-20733.9140661783
 10
4257.673327672164
 20
-20750.40040956209
 10
4221.716624486122
 20
-20736.29007627982
 10
4239.694976079145
 20
-20752.77641966361
 97
        0
 75
     0
 76
     2
 52
0.0
 41
2.0
 77
     0
 78
    29
 53
0.0
 43
4237.463006096759
 44
-20760.34524292096
 45
0.0
 46
100.0
 79
     2
 49
4.463939964771271
 49
-12.20273017883301
 53
90.00000000000594
 43
4223.028315770307
 44
-20746.38320297345
 45
-33.33333015441895
 46
-0.0000000000034471
 79
     2
 49
2.704629898071289
 49
-97.29537010192871
 53
90.00000000000594
 43
4239.694976079145
 44
-20677.01191276654
 45
-33.33333015441895
 46
-0.0000000000034471
 79
     2
 49
2.704629898071289
 49
-97.29537010192871
 53
104.9324645996163
 43
4255.964396464506
 44
-20740.1033934985
 45
-33.33515852016907
 46
99.99952050724798
 79
     2
 49
61.5963888168335
 49
-455.8760833740234
 53
75.06753540039557
 43
4256.758885848203
 44
-20740.1033934985
 45
-33.33515852014839
 46
-99.99952050725486
 79
     2
 49
61.5963888168335
 49
-455.8760833740234
 53
15.25511932373147
 43
4241.926946061531
 44
-20760.34524292096
 45
-33.33332910801413
 46
0.000000893548286
 79
     2
 49
4.530409872531891
 49
-375.5280685424805
 53
164.7448883056749
 43
4237.463006096759
 44
-20760.34524292096
 45
-33.33332910801371
 46
-0.0000053321564355
 79
     2
 49
4.530409872531891
 49
-375.5280685424805
 53
15.25511932373147
 43
4249.758896100202
 44
-20661.53726905926
 45
-33.33332910801413
 46
0.000000893548286
 79
     2
 49
4.530409872531891
 49
-375.5280685424805
 53
344.7448806762685
 43
4258.593606221357
 44
-20660.34524292096
 45
33.33332910801413
 46
0.000000893548286
 79
     2
 49
4.530409872531891
 49
-375.5280685424805
 53
30.96375656128134
 43
4246.297716366926
 44
-20759.15321290835
 45
-33.33333591427053
 46
-0.0000002214346662
 79
     2
 49
4.352369904518127
 49
-190.0126838684082
 53
149.0362396240333
 43
4233.067576157728
 44
-20759.15321290835
 45
-33.33333591427045
 46
0.0000024407288475
 79
     2
 49
4.352369904518127
 49
-190.0126838684082
 53
30.96375656128134
 43
4246.026776301542
 44
-20663.77655357464
 45
-33.33333591427053
 46
-0.0000002214346662
 79
     2
 49
4.352369904518127
 49
-190.0126838684082
 53
329.0362434387187
 43
4262.964386212507
 44
-20661.53726905926
 45
33.33333591427053
 46
-0.0000002214346662
 79
     2
 49
4.352369904518127
 49
-190.0126838684082
 53
45.00000000000297
 43
4250.029836165586
 44
-20756.91393286332
 45
-33.33333894439541
 46
-0.0000000000017266
 79
     2
 49
3.701289892196655
 49
-137.7200698852539
 53
135.0000000000089
 43
4229.360115992704
 44
-20756.91393286332
 45
-33.33333894439541
 46
-0.0000000000051799
 79
     2
 49
3.701289892196655
 49
-137.7200698852539
 53
45.00000000000297
 43
4243.409575986543
 44
-20666.39375061139
 45
-33.33333894439541
 46
-0.0000000000017266
 79
     2
 49
3.701289892196655
 49
-137.7200698852539
 53
314.999999999997
 43
4266.69650720326
 44
-20663.77655357464
 45
33.33333894439541
 46
-0.0000000000017266
 79
     2
 49
3.701289892196655
 49
-137.7200698852539
 53
56.30993270874394
 43
4252.647046315351
 44
-20754.29673284634
 45
-33.33333501537939
 46
-0.0000037734546368
 79
     2
 49
3.882290124893188
 49
-116.3027477264404
 53
123.6900634765706
 43
4226.742905842939
 44
-20754.29673284634
 45
-33.33333501537906
 46
0.0000059927487648
 79
     2
 49
3.882290124893188
 49
-116.3027477264404
 53
56.30993270874394
 43
4241.256066131273
 44
-20669.62401718243
 45
-33.33333501537939
 46
-0.0000037734546368
 79
     2
 49
3.882290124893188
 49
-116.3027477264404
 53
303.6900672912561
 43
4269.313716160932
 44
-20666.39375061139
 45
33.33333501537939
 46
-0.0000037734546368
 79
     2
 49
3.882290124893188
 49
-116.3027477264404
 53
71.56504821777816
 43
4254.800556170621
 44
-20751.06647283181
 45
-33.3333373816329
 46
-0.0000016711047905
 79
     2
 49
4.936600029468536
 49
-100.4726600646973
 53
108.4349517822337
 43
4224.589395987668
 44
-20751.06647283181
 45
-33.3333373816329
 46
0.0000016710979054
 79
     2
 49
4.936600029468536
 49
-100.4726600646973
 53
71.56504821777816
 43
4239.694976079145
 44
-20674.30728286847
 45
-33.3333373816329
 46
-0.0000016711047905
 79
     2
 49
4.936600029468536
 49
-100.4726600646973
 53
288.4349517822218
 43
4271.467215287366
 44
-20669.62401718243
 45
33.3333373816329
 46
-0.0000016711047905
 79
     2
 49
4.936600029468536
 49
-100.4726600646973
 53
83.65980529785706
 43
4223.028315770307
 44
-20743.67858261212
 45
-33.33334276925949
 46
-200.0000100942898
 79
     2
 49
3.597190082073212
 49
-298.2489776611328
 53
96.34019470215476
 43
4256.361636387983
 44
-20743.67858261212
 45
-33.33334276930081
 46
200.000010094283
 79
     2
 49
3.597190082073212
 49
-298.2489776611328
 53
263.659820556658
 43
4239.694976079145
 44
-20677.01191276654
 45
33.3332895059925
 46
200.0000189714958
 79
     2
 49
3.597190082073212
 49
-298.2489776611328
 53
276.3401947021429
 43
4239.694976079145
 44
-20677.01191276654
 45
33.33334276925949
 46
-200.0000100942898
 79
     2
 49
3.597190082073212
 49
-298.2489776611328
 98
        0
1001
ACAD
1010
4239.694976079145
1020
-20760.34524292096
1030
0.0
  0
LWPOLYLINE
  5
25B
330
1F
100
AcDbEntity
  8
Ech.1_5
  6
Continuous
 62
     9
370
    15
390
5F
100
AcDbPolyline
 90
        9
 70
     0
 43
0.0
 10
4239.694976079145
 20
-20760.34524292096
 10
4487.194976079143
 20
-20760.34524292096
 10
4487.194976079143
 20
-20660.34524292096
 10
4239.694976079145
 20
-20660.34524292096
 10
4239.694976079145
 20
-20733.9140661783
 10
4257.673327672164
 20
-20750.40040956209
 10
4221.716624486122
 20
-20736.29007627982
 10
4239.694976079145
 20
-20752.77641966361
 10
4239.694976079145
 20
-20760.34524292096
  0
HATCH
  5
25C
330
1F
100
AcDbEntity
  8
Ech.1_5
  6
Continuous
 62
     9
440
 33554687
370
    15
390
5F
100
AcDbHatch
 10
0.0
 20
0.0
 30
0.0
210
0.0
220
0.0
230
1.0
  2
AR-CONC
 70
     0
 71
     0
 91
        1
 92
        3
 72
     0
 73
     1
 93
        4
 10
5124.694976079145
 20
-20660.34524292096
 10
5124.694976079145
 20
-20610.34524292096
 10
4877.193560891388
 20
-20610.34524292096
 10
4877.193560891388
 20
-20660.34524292096
 97
        0
 75
     0
 76
     1
 52
45.00000000000297
 41
0.800000011920929
 77
     0
 78
    13
 53
95.00000000000298
 43
5124.694976079145
 44
-20660.34524292096
 45
112.0757219466709
 46
94.04270492521542
 79
     2
 49
15.2400002270937
 49
-167.6400024980306
 53
40.00000000000295
 43
5124.694976079145
 44
-20660.34524292096
 45
-128.0147644215264
 46
88.14138417645789
 79
     2
 49
12.19200018167496
 49
-134.1124693344315
 53
145.451444700003
 43
5134.03458994528
 44
-20652.50837636839
 45
-15.93903834124737
 46
182.1840844242364
 79
     2
 49
12.95200723299994
 49
-142.4721978030012
 53
91.18420000000296
 43
5095.95815606351
 44
-20631.60842290533
 45
177.1281972237854
 46
129.5627322300607
 79
     2
 49
22.86000034064054
 49
-251.460003747046
 53
141.635557610003
 43
5110.718812350831
 44
-20620.81152444969
 45
-5.669294065468137
 46
274.2614149790488
 79
     2
 49
19.42801880150003
 49
-213.7084897125046
 53
36.18415117000291
 43
5095.95815606351
 44
-20631.60842290533
 45
-5.669294050950668
 46
274.2614149797757
 79
     2
 49
18.28797392851204
 49
-201.1677885336336
 53
66.00000000000297
 43
5117.510771075235
 44
-20624.42421790141
 45
143.6159855875234
 46
27.91611967550859
 79
     2
 49
15.2400002270937
 49
-167.6400024980307
 53
11.00000000000292
 43
5117.510771075235
 44
-20624.42421790141
 45
-69.23194224951979
 46
139.1529566285407
 79
     2
 49
12.19200018167496
 49
-134.1120019984245
 53
116.451445000003
 43
5129.478769899829
 44
-20622.09787462727
 45
74.38404260898368
 46
167.0690766505939
 79
     2
 49
12.95200723299994
 49
-142.4719522029975
 53
82.50000000000297
 43
5124.694976079145
 44
-20660.34524292096
 45
-46.08437594096159
 46
49.57873167764787
 79
     6
 49
0.0
 49
-132.4864019742012
 49
0.0
 49
-136.1440020287037
 49
0.0
 49
-134.6200020059943
 53
52.50000000000296
 43
5124.694976079145
 44
-20660.34524292096
 45
-18.87178213675623
 46
94.46960162745961
 79
     6
 49
0.0
 49
-77.6224011566639
 49
0.0
 49
-129.4384019287825
 49
0.0
 49
-51.30800076454878
 53
12.50000000000296
 43
5092.653421761715
 44
-20692.38679723839
 45
79.94229161724176
 46
73.46095756082856
 79
     6
 49
0.0
 49
-50.80000075697898
 49
0.0
 49
-158.4960023617744
 49
0.0
 49
-210.312003133893
 53
2.500000000002962
 43
5078.285011753899
 44
-20706.75520724621
 45
69.41112456887465
 46
98.17791576785987
 79
     6
 49
0.0
 49
-66.04000098407268
 49
0.0
 49
-105.2576015684605
 49
0.0
 49
-149.3520022255182
 98
        0
1001
ACAD
1010
5124.694976079145
1020
-20660.34524292096
1030
0.0
  0
3DFACE
  5
25D
330
1F
100
AcDbEntity
  8
Ech.1_5
  6
Continuous
 62
     9
370
    15
390
5F
100
AcDbFace
 10
5124.694976079145
 20
-20660.34524292096
 30
2500.0
 11
5124.694976079145
 21
-20610.34524292096
 31
2500.0
 12
4877.193560891388
 22
-20610.34524292096
 32
2500.0
 13
4877.193560891388
 23
-20660.34524292096
 33
2500.0
  0
HATCH
  5
25E
330
1F
100
AcDbEntity
  8
Ech.1_5
  6
Continuous
 62
     9
440
 33554687
370
    15
390
5F
100
AcDbHatch
 10
0.0
 20
0.0
 30
0.0
210
0.0
220
0.0
230
1.0
  2
CwHatchPattern_22
 70
     0
 71
     0
 91
        1
 92
        3
 72
     0
 73
     1
 93
        4
 10
4239.694976079145
 20
-20596.34524292096
 10
4239.694976079145
 20
-20610.34524292096
 10
4487.194976079143
 20
-20610.34524292096
 10
4487.194976079143
 20
-20596.34524292096
 97
        0
 75
     0
 76
     2
 52
0.0
 41
1.0
 77
     0
 78
     1
 53
135.0000000000089
 43
0.0
 44
0.0
 45
-7.071067811864377
 46
-7.071067811866573
 79
     0
 98
        0
1001
ACAD
1010
0.0
1020
0.0
1030
0.0
  0
LWPOLYLINE
  5
25F
330
1F
100
AcDbEntity
  8
Ech.1_5
  6
Continuous
 62
     9
370
    15
390
5F
100
AcDbPolyline
 90
        5
 70
     0
 43
0.0
 10
4239.694976079145
 20
-20596.34524292096
 10
4239.694976079145
 20
-20610.34524292096
 10
4487.194976079143
 20
-20610.34524292096
 10
4487.194976079143
 20
-20596.34524292096
 10
4239.694976079145
 20
-20596.34524292096
  0
HATCH
  5
260
330
1F
100
AcDbEntity
  8
Ech.1_5
  6
Continuous
 62
     9
440
 33554687
370
    15
390
5F
100
AcDbHatch
 10
0.0
 20
0.0
 30
0.0
210
0.0
220
0.0
230
1.0
  2
CwHatchPattern_22
 70
     0
 71
     0
 91
        1
 92
        3
 72
     0
 73
     1
 93
        4
 10
5124.694976079145
 20
-20610.34524292096
 10
5124.694976079145
 20
-20596.34524292096
 10
4877.193560891388
 20
-20596.34524292096
 10
4877.193560891388
 20
-20610.34524292096
 97
        0
 75
     0
 76
     2
 52
0.0
 41
1.0
 77
     0
 78
     1
 53
135.0000000000089
 43
0.0
 44
0.0
 45
-7.071067811864377
 46
-7.071067811866573
 79
     0
 98
        0
1001
ACAD
1010
0.0
1020
0.0
1030
0.0
  0
LWPOLYLINE
  5
261
330
1F
100
AcDbEntity
  8
Ech.1_5
  6
Continuous
 62
     9
370
    15
390
5F
100
AcDbPolyline
 90
        5
 70
     0
 43
0.0
 10
5124.694976079145
 20
-20610.34524292096
 10
5124.694976079145
 20
-20596.34524292096
 10
4877.193560891388
 20
-20596.34524292096
 10
4877.193560891388
 20
-20610.34524292096
 10
5124.694976079145
 20
-20610.34524292096
  0
LWPOLYLINE
  5
262
330
1F
100
AcDbEntity
  8
Ech.1_5
  6
Continuous
 62
     9
370
    15
390
5F
100
AcDbPolyline
 90
        3
 70
     0
 43
0.0
 10
4495.194976079144
 20
-20558.56788274354
 10
4459.270718227886
 20
-20496.34524292096
 10
4436.176707460301
 20
-20496.34524292096
  0
INSERT
  5
263
330
1F
100
AcDbEntity
  8
Ech.1_5
 62
     9
370
    15
100
AcDbBlockReference
  2
cw-line-extremity4
 10
4495.194976079144
 20
-20558.56788274354
 30
0.0
 50
120.0000000000001
  0
HATCH
  5
264
330
1F
100
AcDbEntity
  8
Ech.1_5
  6
Continuous
 62
     9
440
 33554687
370
    15
390
5F
100
AcDbHatch
 10
0.0
 20
0.0
 30
0.0
210
0.0
220
0.0
230
1.0
  2
CwHatchPattern_201
 70
     0
 71
     0
 91
        1
 92
        3
 72
     0
 73
     1
 93
        4
 10
4877.193560891388
 20
-20760.34524292096
 10
4877.193560891388
 20
-20596.34524292096
 10
4869.193560891388
 20
-20596.34524292096
 10
4869.193560891388
 20
-20760.34524292096
 97
        0
 75
     0
 76
     2
 52
90.0
 41
0.1599999964237213
 77
     0
 78
    29
 53
90.0
 43
4877.193560891388
 44
-20760.52380051556
 45
-7.999999821186066
 46
0.0000000000000005
 79
     2
 49
0.357115189199555
 49
-0.9762183924864587
 53
180.0000000000059
 43
4876.076597720554
 44
-20761.67857571586
 45
0.0000000000002756
 46
-2.666666352748877
 79
     2
 49
0.216370387009448
 49
-7.783629434176618
 53
180.0000000000059
 43
4870.526894628047
 44
-20760.34524292096
 45
0.0000000000002756
 46
-2.666666352748877
 79
     2
 49
0.216370387009448
 49
-7.783629434176618
 53
194.9324645996163
 43
4875.574212973787
 44
-20759.04368931922
 45
-7.999961461766761
 46
-2.666812622005619
 79
     2
 49
4.927710995203753
 49
-36.47008585475191
 53
165.0675354003956
 43
4875.574212973787
 44
-20758.98013016994
 45
7.99996146176731
 46
-2.666812622003965
 79
     2
 49
4.927710995203753
 49
-36.47008585475191
 53
105.2551193237315
 43
4877.193560891388
 44
-20760.16668532636
 45
-0.0000000714838613
 46
-2.666666269036493
 79
     2
 49
0.3624327817015471
 49
-30.04224481190192
 53
254.7448883056749
 43
4877.193560891388
 44
-20760.52380051556
 45
0.0000004265725062
 46
-2.66666626903646
 79
     2
 49
0.3624327817015471
 49
-30.04224481190192
 53
105.2551193237315
 43
4869.288923159135
 44
-20759.54012933727
 45
-0.0000000714838613
 46
-2.666666269036493
 79
     2
 49
0.3624327817015471
 49
-30.04224481190192
 53
74.74488067626852
 43
4869.193561070202
 44
-20758.83335254337
 45
-0.000000071483861
 46
2.666666269036493
 79
     2
 49
0.3624327817015471
 49
-30.04224481190192
 53
120.9637565612813
 43
4877.098198492511
 44
-20759.81702370974
 45
0.0000000177147725
 46
-2.666666813536994
 79
     2
 49
0.3481895845788063
 49
-15.2010143697035
 53
239.0362396240333
 43
4877.098198492511
 44
-20760.87543490282
 45
-0.0000001952583024
 46
-2.666666813536986
 79
     2
 49
0.3481895845788063
 49
-15.2010143697035
 53
120.9637565612813
 43
4869.468065916361
 44
-20759.83869891449
 45
0.0000000177147725
 46
-2.666666813536994
 79
     2
 49
0.3481895845788063
 49
-15.2010143697035
 53
59.03624343871866
 43
4869.288923159135
 44
-20758.4836901519
 45
0.0000000177147729
 46
2.666666813536994
 79
     2
 49
0.3481895845788063
 49
-15.2010143697035
 53
135.000000000003
 43
4876.919056092913
 44
-20759.51845413252
 45
0.000000000000137
 46
-2.666667055946979
 79
     2
 49
0.2961031847573103
 49
-11.01760534455764
 53
225.0000000000089
 43
4876.919056092913
 44
-20761.17203170939
 45
0.0000000000004141
 46
-2.666667055946979
 79
     2
 49
0.2961031847573103
 49
-11.01760534455764
 53
135.000000000003
 43
4869.677441674621
 44
-20760.04807493501
 45
0.000000000000137
 46
-2.666667055946979
 79
     2
 49
0.2961031847573103
 49
-11.01760534455764
 53
44.99999999999704
 43
4869.468065916361
 44
-20758.18512047931
 45
0.0000000000001381
 46
2.666667055946979
 79
     2
 49
0.2961031847573103
 49
-11.01760534455764
 53
146.309932708744
 43
4876.709680096234
 44
-20759.30907732522
 45
0.0000003018763646
 46
-2.666666741625703
 79
     2
 49
0.3105832030493794
 49
-9.304219610149715
 53
213.6900634765706
 43
4876.709680096234
 44
-20761.38140851669
 45
-0.0000004794198909
 46
-2.666666741625677
 79
     2
 49
0.3105832030493794
 49
-9.304219610149715
 53
146.309932708744
 43
4869.935862994528
 44
-20760.22035571958
 45
0.0000003018763646
 46
-2.666666741625703
 79
     2
 49
0.3105832030493794
 49
-9.304219610149715
 53
33.69006729125606
 43
4869.677441674621
 44
-20757.97574376738
 45
0.0000003018763642
 46
2.666666741625703
 79
     2
 49
0.3105832030493794
 49
-9.304219610149715
 53
161.5650482177782
 43
4876.451259300848
 44
-20759.13679654065
 45
0.0000001336883805
 46
-2.66666693092598
 79
     2
 49
0.3949279935301542
 49
-8.037812625516665
 53
198.4349517822336
 43
4876.451259300848
 44
-20761.55368930126
 45
-0.0000001336878296
 46
-2.66666693092598
 79
     2
 49
0.3949279935301542
 49
-8.037812625516665
 53
161.5650482177782
 43
4870.310524241037
 44
-20760.34524292096
 45
0.0000001336883805
 46
-2.66666693092598
 79
     2
 49
0.3949279935301542
 49
-8.037812625516665
 53
18.43495178222185
 43
4869.935862994528
 44
-20757.80346384111
 45
0.0000001336883804
 46
2.66666693092598
 79
     2
 49
0.3949279935301542
 49
-8.037812625516665
 53
173.6598052978571
 43
4875.860228096483
 44
-20761.67857571586
 45
16.0000004499153
 46
-2.666667361936098
 79
     2
 49
0.2877752001335798
 49
-23.85991767957989
 53
186.3401947021548
 43
4875.860228096483
 44
-20759.01191012605
 45
-16.00000044991475
 46
-2.666667361939406
 79
     2
 49
0.2877752001335798
 49
-23.85991767957989
 53
353.659820556658
 43
4870.526894628047
 44
-20760.34524292096
 45
-16.00000116009176
 46
2.666663100874835
 79
     2
 49
0.2877752001335798
 49
-23.85991767957989
 53
6.340194702142933
 43
4870.526894628047
 44
-20760.34524292096
 45
16.0000004499153
 46
2.666667361936096
 79
     2
 49
0.2877752001335798
 49
-23.85991767957989
 98
        0
1001
ACAD
1010
4877.193560891388
1020
-20760.34524292096
1030
0.0
  0
LWPOLYLINE
  5
265
330
1F
100
AcDbEntity
  8
Ech.1_5
  6
Continuous
 62
     9
370
    15
390
5F
100
AcDbPolyline
 90
        5
 70
     0
 43
0.0
 10
4877.193560891388
 20
-20760.34524292096
 10
4877.193560891388
 20
-20596.34524292096
 10
4869.193560891388
 20
-20596.34524292096
 10
4869.193560891388
 20
-20760.34524292096
 10
4877.193560891388
 20
-20760.34524292096
  0
LWPOLYLINE
  5
266
330
1F
100
AcDbEntity
  8
Ech.1_5
  6
Continuous
 62
     9
370
    70
390
5F
100
AcDbPolyline
 90
        3
 70
     0
 43
0.0
 38
2500.0
 10
4808.193560891388
 20
-20760.34524292096
 10
4869.193560891388
 20
-20760.34524292096
 10
4869.193560891388
 20
-20555.34524292096
  0
HATCH
  5
267
330
1F
100
AcDbEntity
  8
Ech.1_5
  6
Continuous
 62
     9
440
 33554687
370
    15
390
5F
100
AcDbHatch
 10
0.0
 20
0.0
 30
0.0
210
0.0
220
0.0
230
1.0
  2
CwHatchPattern_201
 70
     0
 71
     0
 91
        1
 92
        3
 72
     0
 73
     1
 93
        4
 10
4487.194976079143
 20
-20760.34524292096
 10
4487.194976079143
 20
-20596.34524292096
 10
4495.194976079143
 20
-20596.34524292096
 10
4495.194976079143
 20
-20760.34524292096
 97
        0
 75
     0
 76
     2
 52
90.0
 41
0.1599999964237213
 77
     0
 78
    29
 53
90.0
 43
4487.194976079143
 44
-20760.52380051556
 45
-7.999999821186066
 46
0.0000000000000005
 79
     2
 49
0.357115189199555
 49
-0.9762183924864587
 53
180.0000000000059
 43
4486.078012908309
 44
-20761.67857571586
 45
0.0000000000002756
 46
-2.666666352748877
 79
     2
 49
0.216370387009448
 49
-7.783629434176618
 53
180.0000000000059
 43
4480.528309815802
 44
-20760.34524292096
 45
0.0000000000002756
 46
-2.666666352748877
 79
     2
 49
0.216370387009448
 49
-7.783629434176618
 53
194.9324645996163
 43
4485.575628161542
 44
-20759.04368931922
 45
-7.999961461766761
 46
-2.666812622005619
 79
     2
 49
4.927710995203753
 49
-36.47008585475191
 53
165.0675354003956
 43
4485.575628161542
 44
-20758.98013016994
 45
7.99996146176731
 46
-2.666812622003965
 79
     2
 49
4.927710995203753
 49
-36.47008585475191
 53
105.2551193237315
 43
4487.194976079143
 44
-20760.16668532636
 45
-0.0000000714838613
 46
-2.666666269036493
 79
     2
 49
0.3624327817015471
 49
-30.04224481190192
 53
254.7448883056749
 43
4487.194976079143
 44
-20760.52380051556
 45
0.0000004265725062
 46
-2.66666626903646
 79
     2
 49
0.3624327817015471
 49
-30.04224481190192
 53
105.2551193237315
 43
4479.29033834689
 44
-20759.54012933727
 45
-0.0000000714838613
 46
-2.666666269036493
 79
     2
 49
0.3624327817015471
 49
-30.04224481190192
 53
74.74488067626852
 43
4479.194976257957
 44
-20758.83335254337
 45
-0.000000071483861
 46
2.666666269036493
 79
     2
 49
0.3624327817015471
 49
-30.04224481190192
 53
120.9637565612813
 43
4487.099613680266
 44
-20759.81702370974
 45
0.0000000177147725
 46
-2.666666813536994
 79
     2
 49
0.3481895845788063
 49
-15.2010143697035
 53
239.0362396240333
 43
4487.099613680266
 44
-20760.87543490282
 45
-0.0000001952583024
 46
-2.666666813536986
 79
     2
 49
0.3481895845788063
 49
-15.2010143697035
 53
120.9637565612813
 43
4479.469481104116
 44
-20759.83869891449
 45
0.0000000177147725
 46
-2.666666813536994
 79
     2
 49
0.3481895845788063
 49
-15.2010143697035
 53
59.03624343871866
 43
4479.29033834689
 44
-20758.4836901519
 45
0.0000000177147729
 46
2.666666813536994
 79
     2
 49
0.3481895845788063
 49
-15.2010143697035
 53
135.000000000003
 43
4486.920471280668
 44
-20759.51845413252
 45
0.000000000000137
 46
-2.666667055946979
 79
     2
 49
0.2961031847573103
 49
-11.01760534455764
 53
225.0000000000089
 43
4486.920471280668
 44
-20761.17203170939
 45
0.0000000000004141
 46
-2.666667055946979
 79
     2
 49
0.2961031847573103
 49
-11.01760534455764
 53
135.000000000003
 43
4479.678856862376
 44
-20760.04807493501
 45
0.000000000000137
 46
-2.666667055946979
 79
     2
 49
0.2961031847573103
 49
-11.01760534455764
 53
44.99999999999704
 43
4479.469481104116
 44
-20758.18512047931
 45
0.0000000000001381
 46
2.666667055946979
 79
     2
 49
0.2961031847573103
 49
-11.01760534455764
 53
146.309932708744
 43
4486.711095283989
 44
-20759.30907732522
 45
0.0000003018763646
 46
-2.666666741625703
 79
     2
 49
0.3105832030493794
 49
-9.304219610149715
 53
213.6900634765706
 43
4486.711095283989
 44
-20761.38140851669
 45
-0.0000004794198909
 46
-2.666666741625677
 79
     2
 49
0.3105832030493794
 49
-9.304219610149715
 53
146.309932708744
 43
4479.937278182283
 44
-20760.22035571958
 45
0.0000003018763646
 46
-2.666666741625703
 79
     2
 49
0.3105832030493794
 49
-9.304219610149715
 53
33.69006729125606
 43
4479.678856862376
 44
-20757.97574376738
 45
0.0000003018763642
 46
2.666666741625703
 79
     2
 49
0.3105832030493794
 49
-9.304219610149715
 53
161.5650482177782
 43
4486.452674488602
 44
-20759.13679654065
 45
0.0000001336883805
 46
-2.66666693092598
 79
     2
 49
0.3949279935301542
 49
-8.037812625516665
 53
198.4349517822336
 43
4486.452674488602
 44
-20761.55368930126
 45
-0.0000001336878296
 46
-2.66666693092598
 79
     2
 49
0.3949279935301542
 49
-8.037812625516665
 53
161.5650482177782
 43
4480.311939428791
 44
-20760.34524292096
 45
0.0000001336883805
 46
-2.66666693092598
 79
     2
 49
0.3949279935301542
 49
-8.037812625516665
 53
18.43495178222185
 43
4479.937278182283
 44
-20757.80346384111
 45
0.0000001336883804
 46
2.66666693092598
 79
     2
 49
0.3949279935301542
 49
-8.037812625516665
 53
173.6598052978571
 43
4485.861643284238
 44
-20761.67857571586
 45
16.0000004499153
 46
-2.666667361936098
 79
     2
 49
0.2877752001335798
 49
-23.85991767957989
 53
186.3401947021548
 43
4485.861643284238
 44
-20759.01191012605
 45
-16.00000044991475
 46
-2.666667361939406
 79
     2
 49
0.2877752001335798
 49
-23.85991767957989
 53
353.659820556658
 43
4480.528309815802
 44
-20760.34524292096
 45
-16.00000116009176
 46
2.666663100874835
 79
     2
 49
0.2877752001335798
 49
-23.85991767957989
 53
6.340194702142933
 43
4480.528309815802
 44
-20760.34524292096
 45
16.0000004499153
 46
2.666667361936096
 79
     2
 49
0.2877752001335798
 49
-23.85991767957989
 98
        0
1001
ACAD
1010
4487.194976079143
1020
-20760.34524292096
1030
0.0
  0
LWPOLYLINE
  5
268
330
1F
100
AcDbEntity
  8
Ech.1_5
  6
Continuous
 62
     9
370
    15
390
5F
100
AcDbPolyline
 90
        5
 70
     0
 43
0.0
 10
4487.194976079143
 20
-20760.34524292096
 10
4487.194976079143
 20
-20596.34524292096
 10
4495.194976079143
 20
-20596.34524292096
 10
4495.194976079143
 20
-20760.34524292096
 10
4487.194976079143
 20
-20760.34524292096
  0
LWPOLYLINE
  5
269
330
1F
100
AcDbEntity
  8
Ech.1_5
  6
Continuous
 62
     9
370
    70
390
5F
100
AcDbPolyline
 90
        3
 70
     0
 43
0.0
 38
2500.0
 10
4556.194976079143
 20
-20760.34524292096
 10
4495.194976079143
 20
-20760.34524292096
 10
4495.194976079143
 20
-20555.34524292096
  0
LWPOLYLINE
  5
26A
330
1F
100
AcDbEntity
  8
Ech.1_5
  6
Continuous
 62
     9
370
    15
390
5F
100
AcDbPolyline
 90
        3
 70
     0
 43
0.0
 10
4492.694976079142
 20
-20604.23775572461
 10
4459.270718227886
 20
-20546.34524292096
 10
4436.176707460301
 20
-20546.34524292096
  0
INSERT
  5
26B
330
1F
100
AcDbEntity
  8
Ech.1_5
 62
     9
370
    15
100
AcDbBlockReference
  2
cw-line-extremity4
 10
4492.694976079142
 20
-20604.23775572461
 30
0.0
 50
120.0000000000004
  0
LWPOLYLINE
  5
26C
330
1F
100
AcDbEntity
  8
Ech.1_5
  6
Continuous
 62
     9
370
    15
390
5F
100
AcDbPolyline
 90
        7
 70
     0
 43
0.0
 10
5124.694976079139
 20
-20910.34524292096
 10
5124.694976079139
 20
-20752.77641966361
 10
5106.716624486122
 20
-20736.29007627982
 10
5124.694976079139
 20
-20743.34524292096
 10
5142.673327672164
 20
-20750.40040956209
 10
5124.694976079147
 20
-20733.9140661783
 10
5124.694976079147
 20
-20576.34524292096
  0
LWPOLYLINE
  5
26D
330
1F
100
AcDbEntity
  8
Ech.1_5
  6
Continuous
 62
     9
370
    15
390
5F
100
AcDbPolyline
 90
        7
 70
     0
 43
0.0
 10
4239.694976079139
 20
-20910.34524292096
 10
4239.694976079139
 20
-20752.77641966361
 10
4221.716624486122
 20
-20736.29007627982
 10
4239.694976079139
 20
-20743.34524292096
 10
4257.673327672164
 20
-20750.40040956209
 10
4239.694976079147
 20
-20733.9140661783
 10
4239.694976079147
 20
-20576.34524292096
  0
LINE
  5
26E
102
{ACAD_REACTORS
330
26F
102
}
330
1F
100
AcDbEntity
  8
Ech.1_5
  6
Continuous
 62
   190
370
    15
390
5F
100
AcDbLine
 10
4808.19909595219
 20
-20730.34524267046
 30
0.0
 11
4808.19909595219
 21
-19999.71034806757
 31
0.0
  0
LINE
  5
270
102
{ACAD_REACTORS
330
26F
102
}
330
1F
100
AcDbEntity
  8
Ech.1_5
  6
Continuous
 62
   190
370
    15
390
5F
100
AcDbLine
 10
4810.19909595219
 20
-20730.34524267046
 30
0.0
 11
4810.19909595219
 21
-19999.71034806757
 31
0.0
  0
LINE
  5
271
102
{ACAD_REACTORS
330
26F
102
}
330
1F
100
AcDbEntity
  8
Ech.1_5
  6
Continuous
 62
   190
370
    15
390
5F
100
AcDbLine
 10
4854.19909595219
 20
-20730.34524267046
 30
0.0
 11
4854.19909595219
 21
-19999.71034806757
 31
0.0
  0
LINE
  5
272
102
{ACAD_REACTORS
330
26F
102
}
330
1F
100
AcDbEntity
  8
Ech.1_5
  6
Continuous
 62
   190
370
    15
390
5F
100
AcDbLine
 10
4856.194976079143
 20
-20730.34524267046
 30
0.0
 11
4856.194976079143
 21
-19999.71034806757
 31
0.0
  0
LWPOLYLINE
  5
273
330
1F
100
AcDbEntity
  8
Ech.1_5
  6
Continuous
 62
   190
370
    15
390
5F
100
AcDbPolyline
 90
        7
 70
     0
 43
0.0
 10
4475.194976079143
 20
-19999.71034806756
 10
4610.763799336489
 20
-19999.71034806756
 10
4627.250142720278
 20
-19981.73199647454
 10
4620.194976079143
 20
-19999.71034806756
 10
4613.139809438008
 20
-20017.68869966058
 10
4629.626152821797
 20
-19999.71034806757
 10
4889.190856206096
 20
-19999.71034806757
  0
LINE
  5
274
102
{ACAD_REACTORS
330
275
102
}
330
1F
100
AcDbEntity
  8
Ech.1_5
  6
Continuous
 62
   190
370
    15
390
5F
100
AcDbLine
 10
4554.190856206096
 20
-20730.34524267046
 30
0.0
 11
4554.190856206096
 21
-19999.71034806757
 31
0.0
  0
LINE
  5
276
102
{ACAD_REACTORS
330
275
102
}
330
1F
100
AcDbEntity
  8
Ech.1_5
  6
Continuous
 62
   190
370
    15
390
5F
100
AcDbLine
 10
4510.190856206096
 20
-20730.34524267046
 30
0.0
 11
4510.190856206096
 21
-19999.71034806757
 31
0.0
  0
LINE
  5
277
102
{ACAD_REACTORS
330
275
102
}
330
1F
100
AcDbEntity
  8
Ech.1_5
  6
Continuous
 62
   190
370
    15
390
5F
100
AcDbLine
 10
4508.194976079143
 20
-20730.34524267046
 30
0.0
 11
4508.194976079143
 21
-19999.71034806757
 31
0.0
  0
HATCH
  5
278
330
1F
100
AcDbEntity
  8
Ech.1_5
  6
Continuous
 62
   254
420
 16643007
440
 33554687
370
     5
390
5F
100
AcDbHatch
 10
0.0
 20
0.0
 30
0.0
210
0.0
220
0.0
230
1.0
  2
SOLID
 70
     1
 71
     0
 91
        1
 92
        3
 72
     0
 73
     1
 93
        8
 10
4672.194976079143
 20
-19999.71034806757
 10
4672.194976079143
 20
-20670.34524292096
 10
4577.194976079143
 20
-20670.34524292096
 10
4577.194976079143
 20
-19999.71034806757
 10
4610.763799336489
 20
-19999.71034806757
 10
4627.250142720278
 20
-19981.73199647454
 10
4613.139809438008
 20
-20017.68869966058
 10
4629.626152821797
 20
-19999.71034806757
 97
        0
 75
     0
 76
     1
 98
        0
  0
HATCH
  5
279
330
1F
100
AcDbEntity
  8
Ech.1_5
  6
Continuous
 62
   190
440
 33554687
370
    15
390
5F
100
AcDbHatch
 10
0.0
 20
0.0
 30
0.0
210
0.0
220
0.0
230
1.0
  2
CwHatchPattern_201
 70
     0
 71
     0
 91
        1
 92
        3
 72
     0
 73
     1
 93
        8
 10
4672.194976079143
 20
-19999.71034806757
 10
4672.194976079143
 20
-20670.34524292096
 10
4577.194976079143
 20
-20670.34524292096
 10
4577.194976079143
 20
-19999.71034806757
 10
4610.763799336489
 20
-19999.71034806757
 10
4627.250142720278
 20
-19981.73199647454
 10
4613.139809438008
 20
-20017.68869966058
 10
4629.626152821797
 20
-19999.71034806757
 97
        0
 75
     0
 76
     2
 52
270.0
 41
1.899999976158142
 77
     0
 78
    29
 53
270.0
 43
4672.194976079143
 44
-19997.58997661091
 45
94.9999988079071
 46
0.0000000000000058
 79
     2
 49
4.240742913318396
 49
-11.59259352442348
 53
0.0000000000059286
 43
4685.458913862837
 44
-19983.87702097285
 45
-0.0000000000032766
 46
31.66666324933374
 79
     2
 49
2.569398370926024
 49
-92.43060043698108
 53
0.0000000000059286
 43
4751.36163873243
 44
-19999.71034806757
 45
-0.0000000000032766
 46
31.66666324933374
 79
     2
 49
2.569398370926024
 49
-92.43060043698108
 53
14.93246459961628
 43
4691.424732789174
 44
-20015.16629723971
 45
94.99954328979838
 46
31.66840019677457
 79
     2
 49
58.51656864170564
 49
-433.0822737708558
 53
345.0675354003956
 43
4691.424732789174
 44
-20015.92106214475
 45
-94.99954328980493
 46
31.66840019675491
 79
     2
 49
58.51656864170565
 49
-433.0822737708559
 53
285.2551193237315
 43
4672.194976079143
 44
-20001.83071952422
 45
0.0000008488708577
 46
31.66666225524917
 79
     2
 49
4.303889324898602
 49
-356.751660638713
 53
74.74488830567492
 43
4672.194976079143
 44
-19997.58997661091
 45
-0.0000050655485518
 46
31.66666225524878
 79
     2
 49
4.303889324898602
 49
-356.751660638713
 53
285.2551193237315
 43
4766.06255006987
 44
-20009.2710719676
 45
0.0000008488708577
 46
31.66666225524917
 79
     2
 49
4.303889324898602
 49
-356.751660638713
 53
254.7448806762685
 43
4767.19497488705
 44
-20017.66404647738
 45
0.0000008488708611
 46
-31.66666225524917
 79
     2
 49
4.303889324898602
 49
-356.751660638713
 53
300.9637565612813
 43
4673.32740457691
 44
-20005.98295126225
 45
-0.0000002103629302
 46
31.66666872119268
 79
     2
 49
4.134751357407929
 49
-180.5120474098601
 53
59.03623962403325
 43
4673.32740457691
 44
-19993.41431822122
 45
0.000002318692376
 46
31.6666687211926
 79
     2
 49
4.134751357407929
 49
-180.5120474098601
 53
300.9637565612813
 43
4763.935229806953
 44
-20005.72555820336
 45
-0.0000002103629302
 46
31.66666872119268
 79
     2
 49
4.134751357407929
 49
-180.5120474098601
 53
239.0362434387187
 43
4766.06255006987
 44
-20021.81628741687
 45
-0.0000002103629251
 46
-31.66666872119268
 79
     2
 49
4.134751357407929
 49
-180.5120474098601
 53
315.000000000003
 43
4675.454720592997
 44
-20009.52846502648
 45
-0.0000000000016403
 46
31.66667159981128
 79
     2
 49
3.516225353464009
 49
-130.83406474924
 53
45.0000000000089
 43
4675.454720592997
 44
-19989.89223110865
 45
-0.0000000000049209
 46
31.66667159981128
 79
     2
 49
3.516225353464009
 49
-130.83406474924
 53
315.000000000003
 43
4761.448892653246
 44
-20003.23921793531
 45
-0.0000000000016403
 46
31.66667159981128
 79
     2
 49
3.516225353464009
 49
-130.83406474924
 53
224.999999999997
 43
4763.935229806953
 44
-20025.36180231359
 45
-0.0000000000016268
 46
-31.66667159981128
 79
     2
 49
3.516225353464009
 49
-130.83406474924
 53
326.3099327087439
 43
4677.941060577924
 44
-20012.01481463756
 45
-0.0000035847818599
 46
31.6666678672461
 79
     2
 49
3.688175572368024
 49
-110.4876089536816
 53
33.69006347657064
 43
4677.941060577924
 44
-19987.40588149757
 45
0.0000056931112551
 46
31.66666786724579
 79
     2
 49
3.688175572368024
 49
-110.4876089536816
 53
326.3099327087439
 43
4758.380139449261
 44
-20001.19338359848
 45
-0.0000035847818599
 46
31.6666678672461
 79
     2
 49
3.688175572368024
 49
-110.4876089536816
 53
213.690067291256
 43
4761.448892653246
 44
-20027.84815079218
 45
-0.000003584781865
 46
-31.6666678672461
 79
     2
 49
3.688175572368024
 49
-110.4876089536816
 53
341.5650482177782
 43
4681.009807553223
 44
-20014.0606489744
 45
-0.0000015875495328
 46
31.66667011518691
 79
     2
 49
4.689769969146251
 49
-95.44902586373496
 53
18.43495178223369
 43
4681.009807553223
 44
-19985.36004716074
 45
0.0000015875429868
 46
31.66667011518691
 79
     2
 49
4.68976996914625
 49
-95.44902586373495
 53
341.5650482177782
 43
4753.931037103356
 44
-19999.71034806757
 45
-0.0000015875495328
 46
31.66667011518691
 79
     2
 49
4.689769969146251
 49
-95.44902586373496
 53
198.4349517822218
 43
4758.380139449261
 44
-20029.89397493662
 45
-0.0000015875495345
 46
-31.66667011518691
 79
     2
 49
4.689769969146251
 49
-95.44902586373496
 53
353.6598052978571
 43
4688.028303173857
 44
-19983.87702097285
 45
-190.0000072053894
 46
31.66667523343209
 79
     2
 49
3.417330535087704
 49
-283.3365252226713
 53
6.340194702154776
 43
4688.028303173857
 44
-20015.54367516228
 45
190.0000072053829
 46
31.66667523347136
 79
     2
 49
3.417330535087703
 49
-283.3365252226712
 53
173.659820556658
 43
4751.36163873243
 44
-19999.71034806757
 45
190.000015638735
 46
-31.6666246333291
 79
     2
 49
3.417330535087704
 49
-283.3365252226713
 53
186.3401947021429
 43
4751.36163873243
 44
-19999.71034806757
 45
-190.0000072053894
 46
-31.66667523343211
 79
     2
 49
3.417330535087704
 49
-283.3365252226713
 98
        0
1001
ACAD
1010
4672.194976079143
1020
-19999.71034806757
1030
0.0
  0
LWPOLYLINE
  5
27A
330
1F
100
AcDbEntity
  8
Ech.1_5
  6
Continuous
 62
   190
370
    15
390
5F
100
AcDbPolyline
 90
        9
 70
     0
 43
0.0
 10
4672.194976079143
 20
-19999.71034806757
 10
4672.194976079143
 20
-20670.34524292096
 10
4577.194976079143
 20
-20670.34524292096
 10
4577.194976079143
 20
-19999.71034806757
 10
4610.763799336489
 20
-19999.71034806757
 10
4627.250142720278
 20
-19981.73199647454
 10
4613.139809438008
 20
-20017.68869966058
 10
4629.626152821797
 20
-19999.71034806757
 10
4672.194976079143
 20
-19999.71034806757
  0
LINE
  5
27B
102
{ACAD_REACTORS
330
275
102
}
330
1F
100
AcDbEntity
  8
Ech.1_5
  6
Continuous
 62
   190
370
    15
390
5F
100
AcDbLine
 10
4556.190856206096
 20
-20730.34524267046
 30
0.0
 11
4556.190856206096
 21
-19999.71034806757
 31
0.0
  0
HATCH
  5
27C
330
1F
100
AcDbEntity
  8
Ech.1_5
  6
Continuous
 62
    33
420
 12426105
440
 33554687
370
     5
390
5F
100
AcDbHatch
 10
0.0
 20
0.0
 30
0.0
210
0.0
220
0.0
230
1.0
  2
SOLID
 70
     1
 71
     0
 91
        1
 92
        3
 72
     0
 73
     1
 93
        4
 10
4577.194976079143
 20
-20715.34524292096
 10
4577.194976079143
 20
-20670.34524292096
 10
4672.194976079143
 20
-20670.34524292096
 10
4672.194976079143
 20
-20715.34524292096
 97
        0
 75
     0
 76
     1
 98
        0
  0
LINE
  5
27D
330
1F
100
AcDbEntity
  8
Ech.1_5
  6
Continuous
 62
   190
370
    15
390
5F
100
AcDbLine
 10
4577.194976079143
 20
-20670.34524292096
 30
0.0
 11
4672.194976079143
 21
-20715.34524292096
 31
0.0
  0
LINE
  5
27E
330
1F
100
AcDbEntity
  8
Ech.1_5
  6
Continuous
 62
   190
370
    15
390
5F
100
AcDbLine
 10
4672.194976079143
 20
-20670.34524292096
 30
0.0
 11
4577.194976079143
 21
-20715.34524292096
 31
0.0
  0
LWPOLYLINE
  5
27F
330
1F
100
AcDbEntity
  8
Ech.1_5
  6
Continuous
 62
     5
370
    40
390
5F
100
AcDbPolyline
 90
        5
 70
     0
 43
0.0
 10
4577.194976079143
 20
-20715.34524292096
 10
4577.194976079143
 20
-20670.34524292096
 10
4672.194976079143
 20
-20670.34524292096
 10
4672.194976079143
 20
-20715.34524292096
 10
4577.194976079143
 20
-20715.34524292096
  0
HATCH
  5
280
330
1F
100
AcDbEntity
  8
Ech.1_5
  6
Continuous
 62
     9
440
 33554687
370
    15
390
5F
100
AcDbHatch
 10
0.0
 20
0.0
 30
0.0
210
0.0
220
0.0
230
1.0
  2
SOLID
 70
     1
 71
     0
 91
        1
 92
        3
 72
     0
 73
     1
 93
        8
 10
4810.194976079143
 20
-20730.34524267046
 10
4808.19909595219
 20
-20730.34524267046
 10
4808.194976079143
 20
-20760.34524292096
 10
4856.194976079143
 20
-20760.34524292096
 10
4856.194976079143
 20
-20730.34524267046
 10
4854.194976079143
 20
-20730.34524267046
 10
4854.194976079143
 20
-20758.34524267046
 10
4810.194976079143
 20
-20758.34524267046
 97
        0
 75
     0
 76
     1
 98
        0
  0
LWPOLYLINE
  5
281
330
1F
100
AcDbEntity
  8
Ech.1_5
  6
Continuous
 62
     7
370
    20
390
5F
100
AcDbPolyline
 90
        9
 70
     0
 43
0.0
 10
4810.194976079143
 20
-20730.34524267046
 10
4808.19909595219
 20
-20730.34524267046
 10
4808.194976079143
 20
-20760.34524292096
 10
4856.194976079143
 20
-20760.34524292096
 10
4856.194976079143
 20
-20730.34524267046
 10
4854.194976079143
 20
-20730.34524267046
 10
4854.194976079143
 20
-20758.34524267046
 10
4810.194976079143
 20
-20758.34524267046
 10
4810.194976079143
 20
-20730.34524267046
  0
HATCH
  5
282
330
1F
100
AcDbEntity
  8
Ech.1_5
  6
Continuous
 62
     9
440
 33554687
370
    15
390
5F
100
AcDbHatch
 10
0.0
 20
0.0
 30
0.0
210
0.0
220
0.0
230
1.0
  2
SOLID
 70
     1
 71
     0
 91
        1
 92
        3
 72
     0
 73
     1
 93
        8
 10
4510.194976079143
 20
-20730.34524267046
 10
4508.19909595219
 20
-20730.34524267046
 10
4508.194976079143
 20
-20760.34524292096
 10
4556.194976079143
 20
-20760.34524292096
 10
4556.194976079143
 20
-20730.34524267046
 10
4554.194976079143
 20
-20730.34524267046
 10
4554.194976079143
 20
-20758.34524267046
 10
4510.194976079143
 20
-20758.34524267046
 97
        0
 75
     0
 76
     1
 98
        0
  0
LWPOLYLINE
  5
283
330
1F
100
AcDbEntity
  8
Ech.1_5
  6
Continuous
 62
     7
370
    20
390
5F
100
AcDbPolyline
 90
        9
 70
     0
 43
0.0
 10
4510.194976079143
 20
-20730.34524267046
 10
4508.19909595219
 20
-20730.34524267046
 10
4508.194976079143
 20
-20760.34524292096
 10
4556.194976079143
 20
-20760.34524292096
 10
4556.194976079143
 20
-20730.34524267046
 10
4554.194976079143
 20
-20730.34524267046
 10
4554.194976079143
 20
-20758.34524267046
 10
4510.194976079143
 20
-20758.34524267046
 10
4510.194976079143
 20
-20730.34524267046
  0
HATCH
  5
284
330
1F
100
AcDbEntity
  8
Ech.1_5
  6
Continuous
 62
   254
420
 16643007
440
 33554687
370
     5
390
5F
100
AcDbHatch
 10
0.0
 20
0.0
 30
0.0
210
0.0
220
0.0
230
1.0
  2
SOLID
 70
     1
 71
     0
 91
        1
 92
        3
 72
     0
 73
     1
 93
        4
 10
4692.194976079143
 20
-19999.71034806757
 10
4692.194976079143
 20
-20670.34524292096
 10
4787.194976079143
 20
-20670.34524292096
 10
4787.194976079143
 20
-19999.71034806757
 97
        0
 75
     0
 76
     1
 98
        0
  0
HATCH
  5
285
330
1F
100
AcDbEntity
  8
Ech.1_5
  6
Continuous
 62
   190
440
 33554687
370
    15
390
5F
100
AcDbHatch
 10
0.0
 20
0.0
 30
0.0
210
0.0
220
0.0
230
1.0
  2
CwHatchPattern_201
 70
     0
 71
     0
 91
        1
 92
        3
 72
     0
 73
     1
 93
        4
 10
4692.194976079143
 20
-19999.71034806757
 10
4692.194976079143
 20
-20670.34524292096
 10
4787.194976079143
 20
-20670.34524292096
 10
4787.194976079143
 20
-19999.71034806757
 97
        0
 75
     0
 76
     2
 52
270.0
 41
1.899999976158142
 77
     0
 78
    29
 53
270.0
 43
4692.194976079143
 44
-19997.58997661091
 45
94.9999988079071
 46
0.0000000000000058
 79
     2
 49
4.240742913318396
 49
-11.59259352442348
 53
0.0000000000059286
 43
4705.458913862837
 44
-19983.87702097285
 45
-0.0000000000032766
 46
31.66666324933374
 79
     2
 49
2.569398370926024
 49
-92.43060043698108
 53
0.0000000000059286
 43
4771.36163873243
 44
-19999.71034806757
 45
-0.0000000000032766
 46
31.66666324933374
 79
     2
 49
2.569398370926024
 49
-92.43060043698108
 53
14.93246459961628
 43
4711.424732789174
 44
-20015.16629723971
 45
94.99954328979838
 46
31.66840019677457
 79
     2
 49
58.51656864170564
 49
-433.0822737708558
 53
345.0675354003956
 43
4711.424732789174
 44
-20015.92106214475
 45
-94.99954328980493
 46
31.66840019675491
 79
     2
 49
58.51656864170565
 49
-433.0822737708559
 53
285.2551193237315
 43
4692.194976079143
 44
-20001.83071952422
 45
0.0000008488708577
 46
31.66666225524917
 79
     2
 49
4.303889324898602
 49
-356.751660638713
 53
74.74488830567492
 43
4692.194976079143
 44
-19997.58997661091
 45
-0.0000050655485518
 46
31.66666225524878
 79
     2
 49
4.303889324898602
 49
-356.751660638713
 53
285.2551193237315
 43
4786.06255006987
 44
-20009.2710719676
 45
0.0000008488708577
 46
31.66666225524917
 79
     2
 49
4.303889324898602
 49
-356.751660638713
 53
254.7448806762685
 43
4787.19497488705
 44
-20017.66404647738
 45
0.0000008488708611
 46
-31.66666225524917
 79
     2
 49
4.303889324898602
 49
-356.751660638713
 53
300.9637565612813
 43
4693.32740457691
 44
-20005.98295126225
 45
-0.0000002103629302
 46
31.66666872119268
 79
     2
 49
4.134751357407929
 49
-180.5120474098601
 53
59.03623962403325
 43
4693.32740457691
 44
-19993.41431822122
 45
0.000002318692376
 46
31.6666687211926
 79
     2
 49
4.134751357407929
 49
-180.5120474098601
 53
300.9637565612813
 43
4783.935229806953
 44
-20005.72555820336
 45
-0.0000002103629302
 46
31.66666872119268
 79
     2
 49
4.134751357407929
 49
-180.5120474098601
 53
239.0362434387187
 43
4786.06255006987
 44
-20021.81628741687
 45
-0.0000002103629251
 46
-31.66666872119268
 79
     2
 49
4.134751357407929
 49
-180.5120474098601
 53
315.000000000003
 43
4695.454720592997
 44
-20009.52846502648
 45
-0.0000000000016403
 46
31.66667159981128
 79
     2
 49
3.516225353464009
 49
-130.83406474924
 53
45.0000000000089
 43
4695.454720592997
 44
-19989.89223110865
 45
-0.0000000000049209
 46
31.66667159981128
 79
     2
 49
3.516225353464009
 49
-130.83406474924
 53
315.000000000003
 43
4781.448892653246
 44
-20003.23921793531
 45
-0.0000000000016403
 46
31.66667159981128
 79
     2
 49
3.516225353464009
 49
-130.83406474924
 53
224.999999999997
 43
4783.935229806953
 44
-20025.36180231359
 45
-0.0000000000016268
 46
-31.66667159981128
 79
     2
 49
3.516225353464009
 49
-130.83406474924
 53
326.3099327087439
 43
4697.941060577924
 44
-20012.01481463756
 45
-0.0000035847818599
 46
31.6666678672461
 79
     2
 49
3.688175572368024
 49
-110.4876089536816
 53
33.69006347657064
 43
4697.941060577924
 44
-19987.40588149757
 45
0.0000056931112551
 46
31.66666786724579
 79
     2
 49
3.688175572368024
 49
-110.4876089536816
 53
326.3099327087439
 43
4778.380139449261
 44
-20001.19338359848
 45
-0.0000035847818599
 46
31.6666678672461
 79
     2
 49
3.688175572368024
 49
-110.4876089536816
 53
213.690067291256
 43
4781.448892653246
 44
-20027.84815079218
 45
-0.000003584781865
 46
-31.6666678672461
 79
     2
 49
3.688175572368024
 49
-110.4876089536816
 53
341.5650482177782
 43
4701.009807553223
 44
-20014.0606489744
 45
-0.0000015875495328
 46
31.66667011518691
 79
     2
 49
4.689769969146251
 49
-95.44902586373496
 53
18.43495178223369
 43
4701.009807553223
 44
-19985.36004716074
 45
0.0000015875429868
 46
31.66667011518691
 79
     2
 49
4.68976996914625
 49
-95.44902586373495
 53
341.5650482177782
 43
4773.931037103356
 44
-19999.71034806757
 45
-0.0000015875495328
 46
31.66667011518691
 79
     2
 49
4.689769969146251
 49
-95.44902586373496
 53
198.4349517822218
 43
4778.380139449261
 44
-20029.89397493662
 45
-0.0000015875495345
 46
-31.66667011518691
 79
     2
 49
4.689769969146251
 49
-95.44902586373496
 53
353.6598052978571
 43
4708.028303173857
 44
-19983.87702097285
 45
-190.0000072053894
 46
31.66667523343209
 79
     2
 49
3.417330535087704
 49
-283.3365252226713
 53
6.340194702154776
 43
4708.028303173857
 44
-20015.54367516228
 45
190.0000072053829
 46
31.66667523347136
 79
     2
 49
3.417330535087703
 49
-283.3365252226712
 53
173.659820556658
 43
4771.36163873243
 44
-19999.71034806757
 45
190.000015638735
 46
-31.6666246333291
 79
     2
 49
3.417330535087704
 49
-283.3365252226713
 53
186.3401947021429
 43
4771.36163873243
 44
-19999.71034806757
 45
-190.0000072053894
 46
-31.66667523343211
 79
     2
 49
3.417330535087704
 49
-283.3365252226713
 98
        0
1001
ACAD
1010
4692.194976079143
1020
-19999.71034806757
1030
0.0
  0
LWPOLYLINE
  5
286
330
1F
100
AcDbEntity
  8
Ech.1_5
  6
Continuous
 62
   190
370
    15
390
5F
100
AcDbPolyline
 90
        5
 70
     0
 43
0.0
 10
4692.194976079143
 20
-19999.71034806757
 10
4692.194976079143
 20
-20670.34524292096
 10
4787.194976079143
 20
-20670.34524292096
 10
4787.194976079143
 20
-19999.71034806757
 10
4692.194976079143
 20
-19999.71034806757
  0
HATCH
  5
287
330
1F
100
AcDbEntity
  8
Ech.1_5
  6
Continuous
 62
    33
420
 12426105
440
 33554687
370
     5
390
5F
100
AcDbHatch
 10
0.0
 20
0.0
 30
0.0
210
0.0
220
0.0
230
1.0
  2
SOLID
 70
     1
 71
     0
 91
        1
 92
        3
 72
     0
 73
     1
 93
        4
 10
4787.194976079143
 20
-20715.34524292096
 10
4787.194976079143
 20
-20670.34524292096
 10
4692.194976079143
 20
-20670.34524292096
 10
4692.194976079143
 20
-20715.34524292096
 97
        0
 75
     0
 76
     1
 98
        0
  0
LINE
  5
288
330
1F
100
AcDbEntity
  8
Ech.1_5
  6
Continuous
 62
   190
370
    15
390
5F
100
AcDbLine
 10
4787.194976079143
 20
-20670.34524292096
 30
0.0
 11
4692.194976079143
 21
-20715.34524292096
 31
0.0
  0
LINE
  5
289
330
1F
100
AcDbEntity
  8
Ech.1_5
  6
Continuous
 62
   190
370
    15
390
5F
100
AcDbLine
 10
4692.194976079143
 20
-20670.34524292096
 30
0.0
 11
4787.194976079143
 21
-20715.34524292096
 31
0.0
  0
LWPOLYLINE
  5
28A
330
1F
100
AcDbEntity
  8
Ech.1_5
  6
Continuous
 62
     5
370
    40
390
5F
100
AcDbPolyline
 90
        5
 70
     0
 43
0.0
 10
4787.194976079143
 20
-20715.34524292096
 10
4787.194976079143
 20
-20670.34524292096
 10
4692.194976079143
 20
-20670.34524292096
 10
4692.194976079143
 20
-20715.34524292096
 10
4787.194976079143
 20
-20715.34524292096
  0
HATCH
  5
28B
330
1F
100
AcDbEntity
  8
Ech.1_5
  6
Continuous
 62
    33
420
 12426105
440
 33554687
370
     5
390
5F
100
AcDbHatch
 10
0.0
 20
0.0
 30
0.0
210
0.0
220
0.0
230
1.0
  2
SOLID
 70
     1
 71
     0
 91
        1
 92
        3
 72
     0
 73
     1
 93
        4
 10
4787.194976079143
 20
-20760.34524292096
 10
4787.194976079143
 20
-20715.34524292096
 10
4692.194976079143
 20
-20715.34524292096
 10
4692.194976079143
 20
-20760.34524292096
 97
        0
 75
     0
 76
     1
 98
        0
  0
LINE
  5
28C
330
1F
100
AcDbEntity
  8
Ech.1_5
  6
Continuous
 62
   190
370
    15
390
5F
100
AcDbLine
 10
4787.194976079143
 20
-20715.34524292096
 30
0.0
 11
4692.194976079143
 21
-20760.34524292096
 31
0.0
  0
LINE
  5
28D
330
1F
100
AcDbEntity
  8
Ech.1_5
  6
Continuous
 62
   190
370
    15
390
5F
100
AcDbLine
 10
4692.194976079143
 20
-20715.34524292096
 30
0.0
 11
4787.194976079143
 21
-20760.34524292096
 31
0.0
  0
LWPOLYLINE
  5
28E
330
1F
100
AcDbEntity
  8
Ech.1_5
  6
Continuous
 62
     5
370
    40
390
5F
100
AcDbPolyline
 90
        5
 70
     0
 43
0.0
 10
4787.194976079143
 20
-20760.34524292096
 10
4787.194976079143
 20
-20715.34524292096
 10
4692.194976079143
 20
-20715.34524292096
 10
4692.194976079143
 20
-20760.34524292096
 10
4787.194976079143
 20
-20760.34524292096
  0
HATCH
  5
28F
330
1F
100
AcDbEntity
  8
Ech.1_5
  6
Continuous
 62
     9
440
 33554687
370
    15
390
5F
100
AcDbHatch
 10
0.0
 20
0.0
 30
0.0
210
0.0
220
0.0
230
1.0
  2
CwHatchPattern_201
 70
     0
 71
     0
 91
        1
 92
        3
 72
     0
 73
     1
 93
        8
 10
5124.694976079145
 20
-20660.34524292096
 10
4877.193560891388
 20
-20660.34524292096
 10
4877.193560891388
 20
-20760.34524292096
 10
5124.694976079145
 20
-20760.34524292096
 10
5124.694976079145
 20
-20752.77641966361
 10
5106.716624486122
 20
-20736.29007627982
 10
5142.673327672164
 20
-20750.40040956209
 10
5124.694976079145
 20
-20733.9140661783
 97
        0
 75
     0
 76
     2
 52
180.0
 41
2.0
 77
     0
 78
    29
 53
180.0
 43
5126.926946061531
 44
-20660.34524292096
 45
-0.0000000000000122
 46
-100.0
 79
     2
 49
4.463939964771271
 49
-12.20273017883301
 53
270.0000000000059
 43
5141.361636387983
 44
-20674.30728286847
 45
33.33333015441895
 46
0.0000000000034282
 79
     2
 49
2.704629898071289
 49
-97.29537010192871
 53
270.0000000000059
 43
5124.694976079145
 44
-20743.67857307538
 45
33.33333015441895
 46
0.0000000000034282
 79
     2
 49
2.704629898071289
 49
-97.29537010192871
 53
284.9324645996163
 43
5108.425555693784
 44
-20680.58709234341
 45
33.33515852016909
 46
-99.99952050724796
 79
     2
 49
61.59638881683349
 49
-455.8760833740234
 53
255.0675354003955
 43
5107.631066310087
 44
-20680.58709234341
 45
33.33515852014843
 46
99.99952050725484
 79
     2
 49
61.5963888168335
 49
-455.8760833740234
 53
195.2551193237314
 43
5122.463006096759
 44
-20660.34524292096
 45
33.33332910801413
 46
-0.0000008935482967
 79
     2
 49
4.530409872531891
 49
-375.5280685424805
 53
344.744888305675
 43
5126.926946061531
 44
-20660.34524292096
 45
33.33332910801371
 46
0.0000053321564444
 79
     2
 49
4.530409872531891
 49
-375.5280685424805
 53
195.2551193237314
 43
5114.631056058088
 44
-20759.15321678265
 45
33.33332910801413
 46
-0.0000008935482967
 79
     2
 49
4.530409872531891
 49
-375.5280685424805
 53
164.7448806762685
 43
5105.796345936933
 44
-20760.34524292096
 45
-33.33332910801413
 46
-0.0000008935482878
 79
     2
 49
4.530409872531891
 49
-375.5280685424805
 53
210.9637565612813
 43
5118.092235791364
 44
-20661.53727293356
 45
33.33333591427053
 46
0.0000002214346608
 79
     2
 49
4.352369904518127
 49
-190.0126838684082
 53
329.0362396240333
 43
5131.322376000562
 44
-20661.53727293356
 45
33.33333591427045
 46
-0.0000024407288386
 79
     2
 49
4.352369904518127
 49
-190.0126838684082
 53
210.9637565612813
 43
5118.363175856748
 44
-20756.91393226727
 45
33.33333591427053
 46
0.0000002214346608
 79
     2
 49
4.352369904518127
 49
-190.0126838684082
 53
149.0362434387187
 43
5101.425565945783
 44
-20759.15321678265
 45
-33.33333591427053
 46
0.0000002214346679
 79
     2
 49
4.352369904518127
 49
-190.0126838684082
 53
225.0000000000029
 43
5114.360115992704
 44
-20663.7765529786
 45
33.33333894439541
 46
0.0000000000017124
 79
     2
 49
3.701289892196655
 49
-137.7200698852539
 53
315.0000000000089
 43
5135.029836165586
 44
-20663.7765529786
 45
33.33333894439541
 46
0.0000000000051728
 79
     2
 49
3.701289892196655
 49
-137.7200698852539
 53
225.0000000000029
 43
5120.980376171747
 44
-20754.29673523053
 45
33.33333894439541
 46
0.0000000000017124
 79
     2
 49
3.701289892196655
 49
-137.7200698852539
 53
134.999999999997
 43
5097.69344495503
 44
-20756.91393226727
 45
-33.33333894439541
 46
0.0000000000017195
 79
     2
 49
3.701289892196655
 49
-137.7200698852539
 53
236.309932708744
 43
5111.742905842939
 44
-20666.39375299557
 45
33.33333501537939
 46
0.0000037734546403
 79
     2
 49
3.882290124893188
 49
-116.3027477264404
 53
303.6900634765706
 43
5137.647046315351
 44
-20666.39375299557
 45
33.33333501537906
 46
-0.0000059927487843
 79
     2
 49
3.882290124893188
 49
-116.3027477264404
 53
236.309932708744
 43
5123.133886027017
 44
-20751.06646865948
 45
33.33333501537939
 46
0.0000037734546403
 79
     2
 49
3.882290124893188
 49
-116.3027477264404
 53
123.690067291256
 43
5095.076235997358
 44
-20754.29673523053
 45
-33.33333501537939
 46
0.0000037734546474
 79
     2
 49
3.882290124893188
 49
-116.3027477264404
 53
251.5650482177782
 43
5109.589395987668
 44
-20669.62401301011
 45
33.3333373816329
 46
0.0000016711047923
 79
     2
 49
4.936600029468536
 49
-100.4726600646973
 53
288.4349517822337
 43
5139.800556170621
 44
-20669.62401301011
 45
33.3333373816329
 46
-0.0000016710979089
 79
     2
 49
4.936600029468536
 49
-100.4726600646973
 53
251.5650482177782
 43
5124.694976079145
 44
-20746.38320297345
 45
33.3333373816329
 46
0.0000016711047923
 79
     2
 49
4.936600029468536
 49
-100.4726600646973
 53
108.4349517822219
 43
5092.922736870923
 44
-20751.06646865948
 45
-33.3333373816329
 46
0.0000016711047941
 79
     2
 49
4.936600029468536
 49
-100.4726600646973
 53
263.6598052978571
 43
5141.361636387983
 44
-20677.0119032298
 45
33.33334276925951
 46
200.0000100942898
 79
     2
 49
3.597190082073212
 49
-298.2489776611328
 53
276.3401947021548
 43
5108.028315770307
 44
-20677.0119032298
 45
33.33334276930083
 46
-200.0000100942829
 79
     2
 49
3.597190082073211
 49
-298.2489776611328
 53
83.65982055665796
 43
5124.694976079145
 44
-20743.67857307538
 45
-33.33328950599253
 46
-200.0000189714958
 79
     2
 49
3.597190082073212
 49
-298.2489776611328
 53
96.34019470214294
 43
5124.694976079145
 44
-20743.67857307538
 45
-33.33334276925946
 46
200.0000100942898
 79
     2
 49
3.597190082073212
 49
-298.2489776611328
 98
        0
1001
ACAD
1010
5124.694976079145
1020
-20660.34524292096
1030
0.0
  0
LWPOLYLINE
  5
290
330
1F
100
AcDbEntity
  8
Ech.1_5
  6
Continuous
 62
     9
370
    15
390
5F
100
AcDbPolyline
 90
        9
 70
     0
 43
0.0
 10
5124.694976079145
 20
-20660.34524292096
 10
4877.193560891388
 20
-20660.34524292096
 10
4877.193560891388
 20
-20760.34524292096
 10
5124.694976079145
 20
-20760.34524292096
 10
5124.694976079145
 20
-20752.77641966361
 10
5106.716624486122
 20
-20736.29007627982
 10
5142.673327672164
 20
-20750.40040956209
 10
5124.694976079145
 20
-20733.9140661783
 10
5124.694976079145
 20
-20660.34524292096
  0
HATCH
  5
291
330
1F
100
AcDbEntity
  8
Ech.1_5
  6
Continuous
 62
     9
440
 33554687
370
    15
390
5F
100
AcDbHatch
 10
0.0
 20
0.0
 30
0.0
210
0.0
220
0.0
230
1.0
  2
AR-CONC
 70
     0
 71
     0
 91
        1
 92
        3
 72
     0
 73
     1
 93
        4
 10
4239.694976079145
 20
-20610.34524292096
 10
4239.694976079145
 20
-20660.34524292096
 10
4487.194976079143
 20
-20660.34524292096
 10
4487.194976079143
 20
-20610.34524292096
 97
        0
 75
     0
 76
     1
 52
45.00000000000297
 41
0.800000011920929
 77
     0
 78
    13
 53
95.00000000000298
 43
4239.694976079145
 44
-20610.34524292096
 45
112.0757219466709
 46
94.04270492521542
 79
     2
 49
15.2400002270937
 49
-167.6400024980306
 53
40.00000000000295
 43
4239.694976079145
 44
-20610.34524292096
 45
-128.0147644215264
 46
88.14138417645789
 79
     2
 49
12.19200018167496
 49
-134.1124693344315
 53
145.451444700003
 43
4249.03458994528
 44
-20602.50837636839
 45
-15.93903834124737
 46
182.1840844242364
 79
     2
 49
12.95200723299994
 49
-142.4721978030012
 53
91.18420000000296
 43
4210.95815606351
 44
-20581.60842290533
 45
177.1281972237854
 46
129.5627322300607
 79
     2
 49
22.86000034064054
 49
-251.460003747046
 53
141.635557610003
 43
4225.718812350831
 44
-20570.81152444969
 45
-5.669294065468137
 46
274.2614149790488
 79
     2
 49
19.42801880150003
 49
-213.7084897125046
 53
36.18415117000291
 43
4210.95815606351
 44
-20581.60842290533
 45
-5.669294050950668
 46
274.2614149797757
 79
     2
 49
18.28797392851204
 49
-201.1677885336336
 53
66.00000000000297
 43
4232.510771075235
 44
-20574.42421790141
 45
143.6159855875234
 46
27.91611967550859
 79
     2
 49
15.2400002270937
 49
-167.6400024980307
 53
11.00000000000292
 43
4232.510771075235
 44
-20574.42421790141
 45
-69.23194224951979
 46
139.1529566285407
 79
     2
 49
12.19200018167496
 49
-134.1120019984245
 53
116.451445000003
 43
4244.478769899829
 44
-20572.09787462727
 45
74.38404260898368
 46
167.0690766505939
 79
     2
 49
12.95200723299994
 49
-142.4719522029975
 53
82.50000000000297
 43
4239.694976079145
 44
-20610.34524292096
 45
-46.08437594096159
 46
49.57873167764787
 79
     6
 49
0.0
 49
-132.4864019742012
 49
0.0
 49
-136.1440020287037
 49
0.0
 49
-134.6200020059943
 53
52.50000000000296
 43
4239.694976079145
 44
-20610.34524292096
 45
-18.87178213675623
 46
94.46960162745961
 79
     6
 49
0.0
 49
-77.6224011566639
 49
0.0
 49
-129.4384019287825
 49
0.0
 49
-51.30800076454878
 53
12.50000000000296
 43
4207.653421761715
 44
-20642.38679723839
 45
79.94229161724176
 46
73.46095756082856
 79
     6
 49
0.0
 49
-50.80000075697898
 49
0.0
 49
-158.4960023617744
 49
0.0
 49
-210.312003133893
 53
2.500000000002962
 43
4193.285011753899
 44
-20656.75520724621
 45
69.41112456887465
 46
98.17791576785987
 79
     6
 49
0.0
 49
-66.04000098407268
 49
0.0
 49
-105.2576015684605
 49
0.0
 49
-149.3520022255182
 98
        0
1001
ACAD
1010
4239.694976079145
1020
-20610.34524292096
1030
0.0
  0
3DFACE
  5
292
330
1F
100
AcDbEntity
  8
Ech.1_5
  6
Continuous
 62
     9
370
    15
390
5F
100
AcDbFace
 10
4239.694976079145
 20
-20610.34524292096
 30
2500.0
 11
4239.694976079145
 21
-20660.34524292096
 31
2500.0
 12
4487.194976079143
 22
-20660.34524292096
 32
2500.0
 13
4487.194976079143
 23
-20610.34524292096
 33
2500.0
  0
HATCH
  5
293
330
1F
100
AcDbEntity
  8
Ech.1_5
  6
Continuous
 62
    40
420
 16297258
440
 33554687
370
     5
390
5F
100
AcDbHatch
 10
0.0
 20
0.0
 30
0.0
210
0.0
220
0.0
230
1.0
  2
SOLID
 70
     1
 71
     0
 91
        1
 92
        3
 72
     0
 73
     1
 93
        4
 10
4577.194976079143
 20
-19999.71034806757
 10
4568.194976079143
 20
-19999.71034806757
 10
4568.194976079143
 20
-20760.34524292096
 10
4577.194976079143
 20
-20760.34524292096
 97
        0
 75
     0
 76
     1
 98
        0
  0
HATCH
  5
294
330
1F
100
AcDbEntity
  8
Ech.1_5
  6
Continuous
 62
   190
440
 33554687
370
    15
390
5F
100
AcDbHatch
 10
0.0
 20
0.0
 30
0.0
210
0.0
220
0.0
230
1.0
  2
CwHatchPattern_74
 70
     0
 71
     0
 91
        1
 92
        3
 72
     0
 73
     1
 93
        4
 10
4577.194976079143
 20
-19999.71034806757
 10
4568.194976079143
 20
-19999.71034806757
 10
4568.194976079143
 20
-20760.34524292096
 10
4577.194976079143
 20
-20760.34524292096
 97
        0
 75
     0
 76
     2
 52
0.0
 41
0.6000000238418579
 77
     0
 78
     3
 53
45.00000000000297
 43
0.0
 44
0.0
 45
-0.0000000000043443
 46
42.00000166893005
 79
     0
 53
45.00000000000297
 43
0.0
 44
10.80000042915344
 45
-0.0000000000043443
 46
42.00000166893005
 79
     0
 53
45.00000000000297
 43
0.0
 44
21.60000085830688
 45
-0.0000000000043443
 46
42.00000166893005
 79
     0
 98
        0
1001
ACAD
1010
0.0
1020
0.0
1030
0.0
  0
3DFACE
  5
295
330
1F
100
AcDbEntity
  8
Ech.1_5
  6
Continuous
 62
   190
370
    15
390
5F
100
AcDbFace
 10
4577.194976079143
 20
-19999.71034806757
 30
2500.0
 11
4568.194976079143
 21
-19999.71034806757
 31
2500.0
 12
4568.194976079143
 22
-20760.34524292096
 32
2500.0
 13
4577.194976079143
 23
-20760.34524292096
 33
2500.0
  0
HATCH
  5
296
330
1F
100
AcDbEntity
  8
Ech.1_5
  6
Continuous
 62
    40
420
 16297258
440
 33554687
370
     5
390
5F
100
AcDbHatch
 10
0.0
 20
0.0
 30
0.0
210
0.0
220
0.0
230
1.0
  2
SOLID
 70
     1
 71
     0
 91
        1
 92
        3
 72
     0
 73
     1
 93
        4
 10
4787.194976079143
 20
-19999.71034806757
 10
4796.194976079143
 20
-19999.71034806757
 10
4796.194976079143
 20
-20760.34524292096
 10
4787.194976079143
 20
-20760.34524292096
 97
        0
 75
     0
 76
     1
 98
        0
  0
HATCH
  5
297
330
1F
100
AcDbEntity
  8
Ech.1_5
  6
Continuous
 62
   190
440
 33554687
370
    15
390
5F
100
AcDbHatch
 10
0.0
 20
0.0
 30
0.0
210
0.0
220
0.0
230
1.0
  2
CwHatchPattern_74
 70
     0
 71
     0
 91
        1
 92
        3
 72
     0
 73
     1
 93
        4
 10
4787.194976079143
 20
-19999.71034806757
 10
4796.194976079143
 20
-19999.71034806757
 10
4796.194976079143
 20
-20760.34524292096
 10
4787.194976079143
 20
-20760.34524292096
 97
        0
 75
     0
 76
     2
 52
0.0
 41
0.6000000238418579
 77
     0
 78
     3
 53
45.00000000000297
 43
0.0
 44
0.0
 45
-0.0000000000043443
 46
42.00000166893005
 79
     0
 53
45.00000000000297
 43
0.0
 44
10.80000042915344
 45
-0.0000000000043443
 46
42.00000166893005
 79
     0
 53
45.00000000000297
 43
0.0
 44
21.60000085830688
 45
-0.0000000000043443
 46
42.00000166893005
 79
     0
 98
        0
1001
ACAD
1010
0.0
1020
0.0
1030
0.0
  0
3DFACE
  5
298
330
1F
100
AcDbEntity
  8
Ech.1_5
  6
Continuous
 62
   190
370
    15
390
5F
100
AcDbFace
 10
4787.194976079143
 20
-19999.71034806757
 30
2500.0
 11
4796.194976079143
 21
-19999.71034806757
 31
2500.0
 12
4796.194976079143
 22
-20760.34524292096
 32
2500.0
 13
4787.194976079143
 23
-20760.34524292096
 33
2500.0
  0
HATCH
  5
299
330
1F
100
AcDbEntity
  8
Ech.1_5
  6
Continuous
 62
    33
420
 12426105
440
 33554687
370
     5
390
5F
100
AcDbHatch
 10
0.0
 20
0.0
 30
0.0
210
0.0
220
0.0
230
1.0
  2
SOLID
 70
     1
 71
     0
 91
        1
 92
        3
 72
     0
 73
     1
 93
        4
 10
4577.194976079143
 20
-20760.34524292096
 10
4577.194976079143
 20
-20715.34524292096
 10
4672.194976079143
 20
-20715.34524292096
 10
4672.194976079143
 20
-20760.34524292096
 97
        0
 75
     0
 76
     1
 98
        0
  0
LINE
  5
29A
330
1F
100
AcDbEntity
  8
Ech.1_5
  6
Continuous
 62
   190
370
    15
390
5F
100
AcDbLine
 10
4577.194976079143
 20
-20715.34524292096
 30
0.0
 11
4672.194976079143
 21
-20760.34524292096
 31
0.0
  0
LINE
  5
29B
330
1F
100
AcDbEntity
  8
Ech.1_5
  6
Continuous
 62
   190
370
    15
390
5F
100
AcDbLine
 10
4672.194976079143
 20
-20715.34524292096
 30
0.0
 11
4577.194976079143
 21
-20760.34524292096
 31
0.0
  0
LWPOLYLINE
  5
29C
330
1F
100
AcDbEntity
  8
Ech.1_5
  6
Continuous
 62
     5
370
    40
390
5F
100
AcDbPolyline
 90
        5
 70
     0
 43
0.0
 10
4577.194976079143
 20
-20760.34524292096
 10
4577.194976079143
 20
-20715.34524292096
 10
4672.194976079143
 20
-20715.34524292096
 10
4672.194976079143
 20
-20760.34524292096
 10
4577.194976079143
 20
-20760.34524292096
  0
HATCH
  5
29D
330
1F
100
AcDbEntity
  8
Ech.1_5
  6
Continuous
 62
     2
440
 33554687
370
     5
390
5F
100
AcDbHatch
 10
0.0
 20
0.0
 30
0.0
210
0.0
220
0.0
230
1.0
  2
SOLID
 70
     1
 71
     0
 91
        1
 92
        1
 93
        2
 72
     2
 10
4819.628275031282
 20
-20760.34524292093
 40
6.164441208558856
 50
359.9999999997295
 51
540.0000000002705
 73
     1
 72
     2
 10
4819.628275031282
 20
-20760.34524292093
 40
6.164441208558856
 50
180.0000000002705
 51
359.9999999997295
 73
     1
 97
        0
 75
     0
 76
     1
 98
        0
  0
HATCH
  5
29E
330
1F
100
AcDbEntity
  8
Ech.1_5
  6
Continuous
 62
     7
440
 33554687
370
    20
390
5F
100
AcDbHatch
 10
0.0
 20
0.0
 30
0.0
210
0.0
220
0.0
230
1.0
  2
CwHatchPattern_31
 70
     0
 71
     0
 91
        1
 92
        1
 93
        2
 72
     2
 10
4819.628275031282
 20
-20760.34524292093
 40
6.164441208558856
 50
359.9999999997295
 51
540.0000000002705
 73
     1
 72
     2
 10
4819.628275031282
 20
-20760.34524292093
 40
6.164441208558856
 50
180.0000000002705
 51
359.9999999997295
 73
     1
 97
        0
 75
     0
 76
     2
 52
0.0
 41
0.1500000059604645
 77
     0
 78
     1
 53
45.00000000000297
 43
0.0
 44
0.0
 45
-2.121320427853449
 46
2.12132042785323
 79
     0
 98
        0
1001
ACAD
1010
0.0
1020
0.0
1030
0.0
  0
HATCH
  5
29F
330
1F
100
AcDbEntity
  8
Ech.1_5
  6
Continuous
 62
     2
440
 33554687
370
     5
390
5F
100
AcDbHatch
 10
0.0
 20
0.0
 30
0.0
210
0.0
220
0.0
230
1.0
  2
SOLID
 70
     1
 71
     0
 91
        1
 92
        1
 93
        2
 72
     2
 10
4544.761677127004
 20
-20760.34524292093
 40
6.164441208558856
 50
179.9999999997295
 51
360.0000000002705
 73
     0
 72
     2
 10
4544.761677127004
 20
-20760.34524292093
 40
6.164441208558856
 50
0.0000000002705253
 51
179.9999999997295
 73
     0
 97
        0
 75
     0
 76
     1
 98
        0
  0
HATCH
  5
2A0
330
1F
100
AcDbEntity
  8
Ech.1_5
  6
Continuous
 62
     7
440
 33554687
370
    20
390
5F
100
AcDbHatch
 10
0.0
 20
0.0
 30
0.0
210
0.0
220
0.0
230
1.0
  2
CwHatchPattern_31
 70
     0
 71
     0
 91
        1
 92
        1
 93
        2
 72
     2
 10
4544.761677127004
 20
-20760.34524292093
 40
6.164441208558856
 50
179.9999999997295
 51
360.0000000002705
 73
     0
 72
     2
 10
4544.761677127004
 20
-20760.34524292093
 40
6.164441208558856
 50
0.0000000002705253
 51
179.9999999997295
 73
     0
 97
        0
 75
     0
 76
     2
 52
0.0
 41
0.1500000059604645
 77
     0
 78
     1
 53
45.00000000000297
 43
0.0
 44
0.0
 45
-2.121320427853449
 46
2.12132042785323
 79
     0
 98
        0
1001
ACAD
1010
0.0
1020
0.0
1030
0.0
  0
LWPOLYLINE
  5
2A2
330
1F
100
AcDbEntity
  8
Ech.1_5
  6
CADWORK_22
 62
     1
 48
0.6
370
    35
390
5F
100
AcDbPolyline
 90
        6
 70
   128
 43
0.0
 10
4568.194976079143
 20
-19999.71034806757
 10
4568.194976079143
 20
-20760.34524292096
 10
4550.926118335563
 20
-20760.34524292096
 10
4544.761677127004
 20
-20754.18080171237
 10
4538.597235918445
 20
-20760.34524292096
 10
4528.597235918445
 20
-20760.34524292096
  0
LWPOLYLINE
  5
2A4
330
1F
100
AcDbEntity
  8
Ech.1_5
  6
CADWORK_6
 62
   204
 48
0.5
370
    70
390
5F
100
AcDbPolyline
 90
        2
 70
     0
 43
0.0
 10
4577.194976079143
 20
-20760.34524292096
 10
4787.194976079143
 20
-20760.34524292096
  0
HATCH
  5
2A5
330
1F
100
AcDbEntity
  8
Ech.1_5
  6
Continuous
 62
     2
440
 33554687
370
     5
390
5F
100
AcDbHatch
 10
0.0
 20
0.0
 30
0.0
210
0.0
220
0.0
230
1.0
  2
SOLID
 70
     1
 71
     0
 91
        1
 92
        1
 93
        2
 72
     2
 10
4921.317397970612
 20
-20093.47134564768
 40
6.164441208558856
 50
359.9999999997295
 51
540.0000000002705
 73
     1
 72
     2
 10
4921.317397970612
 20
-20093.47134564768
 40
6.164441208558856
 50
180.0000000002705
 51
359.9999999997295
 73
     1
 97
        0
 75
     0
 76
     1
 98
        0
  0
HATCH
  5
2A6
330
1F
100
AcDbEntity
  8
Ech.1_5
  6
Continuous
 62
     7
440
 33554687
370
    20
390
5F
100
AcDbHatch
 10
0.0
 20
0.0
 30
0.0
210
0.0
220
0.0
230
1.0
  2
CwHatchPattern_31
 70
     0
 71
     0
 91
        1
 92
        1
 93
        2
 72
     2
 10
4921.317397970612
 20
-20093.47134564768
 40
6.164441208558856
 50
359.9999999997295
 51
540.0000000002705
 73
     1
 72
     2
 10
4921.317397970612
 20
-20093.47134564768
 40
6.164441208558856
 50
180.0000000002705
 51
359.9999999997295
 73
     1
 97
        0
 75
     0
 76
     2
 52
0.0
 41
0.1500000059604645
 77
     0
 78
     1
 53
45.00000000000297
 43
0.0
 44
0.0
 45
-2.121320427853449
 46
2.12132042785323
 79
     0
 98
        0
1001
ACAD
1010
0.0
1020
0.0
1030
0.0
  0
LWPOLYLINE
  5
2A7
330
1F
100
AcDbEntity
  8
Ech.1_5
  6
CADWORK_22
 62
     1
 48
0.6
370
    35
390
5F
100
AcDbPolyline
 90
        6
 70
   128
 43
0.0
 10
4796.194976079143
 20
-19999.71034806757
 10
4796.194976079143
 20
-20760.34524292096
 10
4813.463833822723
 20
-20760.34524292096
 10
4819.628275031282
 20
-20754.18080171237
 10
4825.792716239841
 20
-20760.34524292096
 10
4835.792716239841
 20
-20760.34524292096
  0
LWPOLYLINE
  5
2A8
330
1F
100
AcDbEntity
  8
Ech.1_5
  6
Continuous
 62
   190
370
    15
390
5F
100
AcDbPolyline
 90
        3
 70
     0
 43
0.0
 10
4682.194976079145
 20
-20760.34524292096
 10
4559.739588336486
 20
-20972.44419615179
 10
4532.699095952194
 20
-20972.44419615179
  0
INSERT
  5
2A9
330
1F
100
AcDbEntity
  8
Ech.1_5
 62
   190
370
    15
100
AcDbBlockReference
  2
cw-line-extremity4
 10
4682.194976079145
 20
-20760.34524292096
 30
0.0
 50
240.0000000000002
  0
MTEXT
  5
2AB
330
1F
100
AcDbEntity
  8
Ech.1_5
  6
Continuous
 62
     4
420
    65535
390
5F
100
AcDbMText
 10
4682.194976079145
 20
-19861.06838029412
 30
0.0
 40
13.75
 41
971.25
 46
0.0
 71
     2
 72
     1
  1
{\fArial|b1|i0;\W1.000000;\H13.750000;\c16711848;MUR PORTEUR INTERIEUR TYPE 10}
  7
arial-b
 73
     1
 44
1.07999975538982
  0
MTEXT
  5
2AD
330
1F
100
AcDbEntity
  8
Ech.1_5
  6
Continuous
 62
     4
420
    65535
390
5F
100
AcDbMText
 10
4682.194976079145
 20
-19923.95812340457
 30
0.0
 40
16.25
 41
968.75
 46
0.0
 71
     2
 72
     1
  1
{\fArial|b0|i0;\W1.000000;\H16.250000;\c16711848;Détail pied de mur sur dalle béton avec chape sur isolant thermique}
  7
arial-
 73
     1
 44
1.07999975538982
  0
MTEXT
  5
2AF
330
1F
100
AcDbEntity
  8
Ech.1_5
  6
Continuous
 62
   200
420
 11010303
390
5F
100
AcDbMText
 10
4682.194976079145
 20
-21095.52808356606
 30
0.0
 40
6.25
 41
762.8659533727914
 46
0.0
 71
     2
 72
     1
  3
{\fArial|b0|i1;\W1.000000;\H6.250000;\c16711848; Il est rappelé à l'utilisateur qui consulte le site et utilise les informations qu'il contient, qu'il doit les utiliser sous sa seule responsabilité en vérifiant leur pertinence, leur cohérence et leur
  1
 non obsolescence.}
  7
arial-i
 73
     1
 44
1.07999975538982
  0
MTEXT
  5
2B0
102
{ACAD_REACTORS
330
244
102
}
330
1F
100
AcDbEntity
  8
Ech.1_5
  6
Continuous
 62
     4
420
    65535
390
5F
100
AcDbMText
 10
5104.796308375895
 20
-21075.23602038571
 30
0.0
 40
12.5
 41
127.2973354064998
 46
0.0
 71
     2
 72
     1
  1
{\fArial|b0|i0;\W1.000000;\H12.500000;\c16711848;Ech 1/5 }
  7
arial-
 73
     1
 44
1.07999975538982
  0
MTEXT
  5
2B1
102
{ACAD_REACTORS
330
244
102
}
330
1F
100
AcDbEntity
  8
Ech.1_5
  6
Continuous
 62
     4
420
    65535
390
5F
100
AcDbMText
 10
4784.476198355049
 20
-21075.29292392197
 30
0.0
 40
12.5
 41
488.3428846351926
 46
0.0
 71
     2
 72
     1
  1
{\fArial|b0|i0;\W1.000000;\H12.500000;\c16711848;Vue en coupe verticale}
  7
arial-
 73
     1
 44
1.07999975538982
  0
MTEXT
  5
2B2
330
1F
100
AcDbEntity
  8
Ech.1_5
  6
Continuous
 62
   253
420
 10066329
390
5F
100
AcDbMText
 10
5011.91950663244
 20
-20539.43227147275
 30
0.0
 40
13.75
 41
160.6567358296234
 46
0.0
 71
     1
 72
     1
  1
{\fArial|b0|i0;\W1.000000;\H13.750000;\c10066329;Isolant sous chape}
  7
arial-
 73
     1
 44
1.07999975538982
  0
MTEXT
  5
2B3
330
1F
100
AcDbEntity
  8
Ech.1_5
  6
Continuous
 62
   253
420
 10066329
390
5F
100
AcDbMText
 10
5011.91950663244
 20
-20489.49203833468
 30
0.0
 40
13.75
 41
144.7589654211415
 46
0.0
 71
     1
 72
     1
  1
{\fArial|b0|i0;\W1.000000;\H13.750000;\c10066329;Chape}
  7
arial-
 73
     1
 44
1.07999975538982
 90
        3
 63
     9
421
 13158600
 45
1.5
441
 33554687
  0
MTEXT
  5
2B4
330
1F
100
AcDbEntity
  8
Ech.1_5
  6
Continuous
 62
   253
420
 10066329
390
5F
100
AcDbMText
 10
5011.91950663244
 20
-20439.43227147275
 30
0.0
 40
13.75
 41
173.75
 46
0.0
 71
     1
 72
     1
  1
{\fArial|b0|i0;\W1.000000;\H13.750000;\c10066329;Revêtement de sol}
  7
arial-
 73
     1
 44
1.07999975538982
  0
MTEXT
  5
2B5
330
1F
100
AcDbEntity
  8
Ech.1_5
  6
Continuous
 62
   253
420
 10066329
390
5F
100
AcDbMText
 10
5011.91950663244
 20
-21007.62334433915
 30
0.0
 40
13.75
 41
115.8165551921711
 46
0.0
 71
     1
 72
     1
  1
{\fArial|b0|i0;\W1.000000;\H13.750000;\c10066329;Dalle béton}
  7
arial-
 73
     1
 44
1.07999975538982
 90
        3
 63
     9
421
 13158600
 45
1.5
441
 33554687
  0
MTEXT
  5
2B6
330
1F
100
AcDbEntity
  8
Ech.1_5
  6
Continuous
 62
   253
420
 10066329
390
5F
100
AcDbMText
 10
4429.301707460301
 20
-20539.43227147275
 30
0.0
 40
13.75
 41
173.75
 46
0.0
 71
     3
 72
     1
  1
{\fArial|b0|i0;\W1.000000;\H13.750000;\c10066329;Bande périphérique}
  7
arial-
 73
     1
 44
1.07999975538982
 90
        3
 63
     9
421
 13158600
 45
1.5
441
 33554687
  0
MTEXT
  5
2B7
330
1F
100
AcDbEntity
  8
Ech.1_5
  6
Continuous
 62
   253
420
 10066329
390
5F
100
AcDbMText
 10
4429.301707460301
 20
-20477.09524324878
 30
0.0
 40
13.75
 41
213.4394536317914
 46
0.0
 71
     3
 72
     1
  1
{\fArial|b0|i0;\W1.000000;\H13.750000;\c10066329;Système de protection de plaque de plâtre}
  7
arial-
 73
     1
 44
1.07999975538982
 90
        3
 63
     9
421
 13158600
 45
1.5
441
 33554687
  0
MTEXT
  5
2B8
330
1F
100
AcDbEntity
  8
Ech.1_5
  6
Continuous
 62
     7
390
5F
100
AcDbMText
 10
4525.824095952194
 20
-20953.19419647962
 30
0.0
 40
13.75
 41
325.0314016425746
 46
0.0
 71
     3
 72
     1
  1
{\fArial|b0|i0;\W1.000000;\H13.750000;\c16711848;Barrière d'étanchéité et anti-capillarité}\P{\fArial|b0|i0;\W1.000000;\H13.750000;\c16711848;de type rigide bitume modifié ou SBS}
  7
arial-
 73
     1
 44
1.07999975538982
  0
MTEXT
  5
2B9
102
{ACAD_REACTORS
330
244
102
}
330
1F
100
AcDbEntity
  8
Ech.1_5
  6
Continuous
 62
     4
420
    65535
390
5F
100
AcDbMText
 10
4455.977147039777
 20
-21075.43962701211
 30
0.0
 40
12.5
 41
143.6552179953505
 46
0.0
 71
     2
 72
     1
  1
{\fArial|b0|i0;\W1.000000;\H12.500000;\c16711848;MI10-05}
  7
arial-
 73
     1
 44
1.07999975538982
  0
MTEXT
  5
2BA
330
1F
100
AcDbEntity
  8
Ech.1_5
  6
Continuous
 62
     4
420
    65535
390
5F
100
AcDbMText
 10
4903.419933900048
 20
-20053.52965160299
 30
0.0
 40
13.75
 41
247.6854307039612
 46
0.0
 71
     1
 72
     1
  1
{\fArial|b1|i0;\W1.000000;\H13.750000;\c16711848;COMPLEMENT LEGENDE}
  7
arial-b
 73
     1
 44
1.07999975538982
 90
        3
 63
     9
421
 13158600
 45
1.5
441
 33554687
  0
MTEXT
  5
2BB
330
1F
100
AcDbEntity
  8
Ech.1_5
  6
Continuous
 62
     4
420
    65535
390
5F
100
AcDbMText
 10
4946.423339498077
 20
-20085.68309389646
 30
0.0
 40
13.75
 41
193.8487666624569
 46
0.0
 71
     1
 72
     1
  1
{\fArial|b0|i0;\W1.000000;\H13.750000;\c16711848;Collage mastic}
  7
arial-
 73
     1
 44
1.07999975538982
 90
        3
 63
     9
421
 13158600
 45
1.5
441
 33554687
  0
MTEXT
  5
2BC
330
1F
100
AcDbEntity
  8
Ech.1_5
  6
Continuous
 62
   200
420
 11010303
390
5F
100
AcDbMText
 10
4225.300405954737
 20
-19975.69829427986
 30
0.0
 40
13.75
 41
186.1453868724784
 46
0.0
 71
     1
 72
     1
  1
{\fArial|b0|i0;\W1.000000;\H13.750000;\c16711848;Tous les éléments hors lot ossature bois sont représentés de façon schématique, sans aucune précision de conception.}
  7
arial-
 73
     1
 44
1.07999975538982
 90
       16
1001
ACAD
1000
ACAD_MTEXT_TEXT_BORDERS_BEGIN
1070
    80
1070
    16
1070
    46
1040
1.5
1070
    81
1070
     1
1070
     5
1005
2C4
1000
ACAD_MTEXT_TEXT_BORDERS_END
  0
TEXT
  5
2BD
330
1F
100
AcDbEntity
  8
Ech.1_5
  6
Continuous
 62
   190
390
5F
100
AcDbText
 10
4240.989037150955
 20
-21087.36654012
 30
0.0
 40
12.5
  1
11/03/2024
  7
arial-
100
AcDbText
  0
TEXT
  5
2BE
330
1F
100
AcDbEntity
  8
Ech.1_5
  6
Continuous
 62
   190
390
5F
100
AcDbText
 10
4572.645880925336
 20
-21141.62173110341
 30
0.0
 40
12.0
  1
catalogue-bois-construction.fr
  7
arial-i
100
AcDbText
  0
TEXT
  5
2BF
330
1F
100
AcDbEntity
  8
Ech.1_5
  6
Continuous
 62
   190
390
5F
100
AcDbText
 10
5057.411299275
 20
-19979.62877770144
 30
0.0
 40
8.0
  1
Echelle en mm
  7
arial-
100
AcDbText
  0
TEXT
  5
2C0
330
1F
100
AcDbEntity
  8
Ech.1_5
  6
Continuous
 62
   190
390
5F
100
AcDbText
 10
5043.430714525572
 20
-20007.83861656863
 30
0.0
 40
8.0
  1
0
  7
arial-
100
AcDbText
  0
TEXT
  5
2C1
330
1F
100
AcDbEntity
  8
Ech.1_5
  6
Continuous
 62
   190
390
5F
100
AcDbText
 10
5130.027772418294
 20
-20007.83861656863
 30
0.0
 40
8.0
  1
100
  7
arial-
100
AcDbText
  0
TEXT
  5
2C2
330
1F
100
AcDbEntity
  8
Ech.1_5
  6
Continuous
 62
   190
390
5F
100
AcDbText
 10
5091.287340852416
 20
-20007.83861656863
 30
0.0
 40
8.0
  1
50
  7
arial-
100
AcDbText
  0
TEXT
  5
2C3
330
1F
100
AcDbEntity
  8
Ech.1_5
  6
Continuous
 62
   190
390
5F
100
AcDbText
 10
4380.386748540082
 20
-19907.42703799775
 30
0.0
 40
13.5
  1
Double ossature et contre-cloison avec rails et montants métalliques
  7
arial-b
100
AcDbText
  0
LWPOLYLINE
  5
2C4
330
1F
100
AcDbEntity
  8
Ech.1_5
  6
Continuous
 62
   200
420
 11010303
390
5F
100
AcDbPolyline
 90
        4
 70
     1
 43
0.0
 10
4218.425405954737
 20
-19968.82329427986
 10
4418.320792827215
 20
-19968.82329427986
 10
4418.320792827215
 20
-20149.10721053833
 10
4218.425405954737
 20
-20149.10721053833
  0
VIEWPORT
  5
235
330
22F
100
AcDbEntity
 67
     1
  8
0
  6
Continuous
390
5F
100
AcDbViewport
 10
98.8
 20
135.8
 30
0.0
 40
209.0608
 41
287.3528000000001
 68
     1
 69
     1
 12
128.5
 22
97.5
 13
0.0
 23
0.0
 14
10.0
 24
10.0
 15
10.0
 25
10.0
 16
0.0
 26
0.0
 36
1.0
 17
0.0
 27
0.0
 37
0.0
 42
50.0
 43
0.0
 44
0.0
 45
222.18
 50
0.0
 51
0.0
 72
   100
 90
   557152
  1

281
     0
 71
     1
 74
     0
110
0.0
120
0.0
130
0.0
111
1.0
121
0.0
131
0.0
112
0.0
122
1.0
132
0.0
 79
     0
146
0.0
170
     0
 61
     5
348
2F
292
     1
282
     1
141
0.0
142
0.0
 63
   256
361
236
  0
VIEWPORT
  5
237
330
22F
100
AcDbEntity
 67
     1
  8
0
  6
Continuous
 60
     1
390
5F
100
AcDbViewport
 10
98.8
 20
135.8
 30
0.0
 40
197.6
 41
271.6
 68
     2
 69
     2
 12
4682.194976079145
 22
-20530.31615563113
 13
0.0
 23
0.0
 14
10.0
 24
10.0
 15
10.0
 25
10.0
 16
0.0
 26
0.0
 36
1.0
 17
0.0
 27
0.0
 37
0.0
 42
50.0
 43
0.0
 44
0.0
 45
1358.0
 50
0.0
 51
0.0
 72
   100
 90
   557152
  1

281
     0
 71
     1
 74
     0
110
0.0
120
0.0
130
0.0
111
1.0
121
0.0
131
0.0
112
0.0
122
1.0
132
0.0
 79
     0
146
0.0
170
     0
 61
     5
348
2F
292
     1
282
     1
141
0.0
142
0.0
 63
   256
  0
ENDSEC
  0
SECTION
  2
OBJECTS
  0
DICTIONARY
  5
C
330
0
100
AcDbDictionary
281
     1
  3
ACAD_DETAILVIEWSTYLE
350
2FC
  3
ACAD_GROUP
350
D
  3
ACAD_IMAGE_VARS
350
60
  3
ACAD_LAYOUT
350
1A
  3
ACAD_MATERIAL
350
43
  3
ACAD_MLEADERSTYLE
350
5B
  3
ACAD_MLINESTYLE
350
17
  3
ACAD_PLOTSETTINGS
350
19
  3
ACAD_PLOTSTYLENAME
350
E
  3
ACAD_SCALELIST
350
47
  3
ACAD_SECTIONVIEWSTYLE
350
2FD
  3
ACAD_TABLESTYLE
350
59
  3
ACAD_VISUALSTYLE
350
2A
  3
ACAD_WIPEOUT_VARS
350
61
  3
ACDB_RECOMPOSE_DATA
350
2F9
  3
AcDbVariableDictionary
350
2C5
  0
SUN
  5
5D
330
29
100
AcDbSun
 90
        1
290
     0
 63
     7
421
 16777215
 40
1.0
291
     1
 91
  2455826
 92
 54000000
292
     0
 70
     2
 71
   256
280
     1
  0
SUN
  5
236
330
235
100
AcDbSun
 90
        1
290
     0
 63
     7
421
 16777215
 40
1.0
291
     1
 91
  2455826
 92
 54000000
292
     0
 70
     2
 71
   256
280
     1
  0
DICTIONARY
  5
2FC
102
{ACAD_REACTORS
330
C
102
}
330
C
100
AcDbDictionary
281
     1
  0
DICTIONARY
  5
D
102
{ACAD_REACTORS
330
C
102
}
330
C
100
AcDbDictionary
281
     1
  3
276
350
244
  3
277
350
26F
  3
278
350
275
  0
RASTERVARIABLES
  5
60
102
{ACAD_REACTORS
330
C
102
}
330
C
100
AcDbRasterVariables
 90
        0
 70
     0
 71
     1
 72
     1
  0
DICTIONARY
  5
1A
102
{ACAD_REACTORS
330
C
102
}
330
C
100
AcDbDictionary
281
     1
  3
CompleteLayout
350
1E
  3
Model
350
22
  3
PrintFrame_205
350
230
  0
DICTIONARY
  5
43
102
{ACAD_REACTORS
330
C
102
}
330
C
100
AcDbDictionary
281
     1
  3
ByBlock
350
45
  3
ByLayer
350
44
  3
Global
350
46
  0
DICTIONARY
  5
5B
102
{ACAD_REACTORS
330
C
102
}
330
C
100
AcDbDictionary
281
     1
  3
Standard
350
5C
  0
DICTIONARY
  5
17
102
{ACAD_REACTORS
330
C
102
}
330
C
100
AcDbDictionary
281
     1
  3
Standard
350
18
  0
DICTIONARY
  5
19
102
{ACAD_REACTORS
330
C
102
}
330
C
100
AcDbDictionary
281
     1
  3
PlotSettings_
350
233
  0
ACDBDICTIONARYWDFLT
  5
E
102
{ACAD_REACTORS
330
C
102
}
330
C
100
AcDbDictionary
281
     1
  3
flat
350
5F
  3
Normal
350
F
  3
round
350
238
100
AcDbDictionaryWithDefault
340
F
  0
DICTIONARY
  5
47
102
{ACAD_REACTORS
330
C
102
}
330
C
100
AcDbDictionary
281
     1
  3
A0
350
48
  3
A1
350
49
  3
A2
350
4A
  3
A3
350
4B
  3
A4
350
4C
  3
A5
350
4D
  3
A6
350
4E
  3
A7
350
4F
  3
A8
350
50
  3
A9
350
51
  3
B0
350
52
  3
B1
350
53
  3
B2
350
54
  3
B3
350
55
  3
B4
350
56
  3
B5
350
57
  3
B6
350
58
  0
DICTIONARY
  5
2FD
102
{ACAD_REACTORS
330
C
102
}
330
C
100
AcDbDictionary
281
     1
  0
DICTIONARY
  5
59
102
{ACAD_REACTORS
330
C
102
}
330
C
100
AcDbDictionary
281
     1
  3
Standard
350
5A
  0
DICTIONARY
  5
2A
102
{ACAD_REACTORS
330
C
102
}
330
C
100
AcDbDictionary
281
     1
  3
2dWireframe
350
2F
  3
Basic
350
32
  3
Brighten
350
36
  3
ColorChange
350
3A
  3
Conceptual
350
34
  3
Dim
350
35
  3
EdgeColorOff
350
3D
  3
Facepattern
350
39
  3
Flat
350
2B
  3
FlatWithEdges
350
2C
  3
Gouraud
350
2D
  3
GouraudWithEdges
350
2E
  3
Hidden
350
31
  3
JitterOff
350
3B
  3
Linepattern
350
38
  3
OverhangOff
350
3C
  3
Realistic
350
33
  3
Shaded
350
42
  3
Shaded with edges
350
41
  3
Shades of Gray
350
3E
  3
Sketchy
350
3F
  3
Thicken
350
37
  3
Wireframe
350
30
  3
X-Ray
350
40
  0
WIPEOUTVARIABLES
  5
61
102
{ACAD_REACTORS
330
C
102
}
330
C
100
AcDbWipeoutVariables
 70
     0
  0
XRECORD
  5
2F9
102
{ACAD_REACTORS
330
C
102
}
330
C
100
AcDbXrecord
280
     1
 90
        1
330
5A
  0
DICTIONARY
  5
2C5
102
{ACAD_REACTORS
330
C
102
}
330
C
100
AcDbDictionary
281
     1
  3
CANNOSCALE
350
2C6
  3
CENTEREXE
350
2FF
  3
CENTERLTYPEFILE
350
300
  3
CMLEADERSTYLE
350
2FB
  3
CTABLESTYLE
350
2FA
  3
WIPEOUTFRAME
350
2FE
  0
GROUP
  5
244
102
{ACAD_REACTORS
330
D
102
}
330
D
100
AcDbGroup
300

 70
     0
 71
     1
340
243
340
245
340
246
340
247
340
24A
340
2B0
340
2B1
340
2B9
  0
GROUP
  5
26F
102
{ACAD_REACTORS
330
D
102
}
330
D
100
AcDbGroup
300

 70
     0
 71
     1
340
26E
340
270
340
271
340
272
  0
GROUP
  5
275
102
{ACAD_REACTORS
330
D
102
}
330
D
100
AcDbGroup
300

 70
     0
 71
     1
340
274
340
276
340
277
340
27B
  0
LAYOUT
  5
1E
102
{ACAD_REACTORS
330
1A
102
}
330
1A
100
AcDbPlotSettings
  1

  2
none_device
  4

  6

 40
0.0
 41
0.0
 42
0.0
 43
0.0
 44
0.0
 45
0.0
 46
0.0
 47
0.0
 48
0.0
 49
0.0
140
0.0
141
0.0
142
1.0
143
1.0
 70
   688
 72
     1
 73
     0
 74
     5
  7

 75
    16
 76
     0
 77
     2
 78
   300
147
1.0
148
0.0
149
0.0
100
AcDbLayout
  1
CompleteLayout
 70
     1
 71
     1
 10
0.0
 20
0.0
 11
420.0
 21
297.0
 12
0.0
 22
0.0
 32
0.0
 14
1.000000000000000E+20
 24
1.000000000000000E+20
 34
1.000000000000000E+20
 15
-1.000000000000000E+20
 25
-1.000000000000000E+20
 35
-1.000000000000000E+20
146
0.0
 13
0.0
 23
0.0
 33
0.0
 16
1.0
 26
0.0
 36
0.0
 17
0.0
 27
1.0
 37
0.0
 76
     0
330
1B
  0
LAYOUT
  5
22
102
{ACAD_REACTORS
330
1A
102
}
330
1A
100
AcDbPlotSettings
  1

  2
none_device
  4
Letter_(8.50_x_11.00_Inches)
  6

 40
6.35
 41
6.35
 42
6.35000508
 43
6.35000508
 44
215.9
 45
279.4
 46
0.0
 47
0.0
 48
0.0
 49
0.0
140
0.0
141
0.0
142
1.0
143
1.0
 70
  1712
 72
     1
 73
     0
 74
     0
  7

 75
     0
 76
     0
 77
     2
 78
   300
147
1.0
148
0.0
149
0.0
100
AcDbLayout
  1
Model
 70
     1
 71
     0
 10
0.0
 20
0.0
 11
420.0
 21
297.0
 12
0.0
 22
0.0
 32
0.0
 14
4189.694976079145
 24
-21207.81615563116
 34
0.0
 15
5185.66950663244
 25
-19852.81615563113
 35
2500.0
146
0.0
 13
0.0
 23
0.0
 33
0.0
 16
1.0
 26
0.0
 36
0.0
 17
0.0
 27
1.0
 37
0.0
 76
     0
330
1F
331
29
  0
LAYOUT
  5
230
102
{ACAD_REACTORS
330
1A
102
}
330
1A
100
AcDbPlotSettings
  1
PlotSettings_
  2
Custom Device
  4
Custom_210.000000x297.000000_12.700000_12.700000_6.200000_6.200000
  6

 40
6.2
 41
12.7
 42
6.2
 43
12.7
 44
210.0
 45
297.0
 46
0.0000000000000142
 47
0.0
 48
0.0
 49
0.0
140
197.6
141
271.6
142
1.0
143
1.0
 70
   756
 72
     1
 73
     0
 74
     4
  7

 75
     0
 76
     0
 77
     2
 78
   300
147
1.0
148
0.0
149
0.0
100
AcDbLayout
  1
PrintFrame_205
 70
     0
 71
     2
 10
-20.0
 20
-7.5
 11
277.0
 21
202.5
 12
0.0
 22
0.0
 32
0.0
 14
-5.730400000000003
 24
-7.876400000000018
 34
0.0
 15
203.3304
 25
279.4764
 35
0.0
146
0.0
 13
0.0
 23
0.0
 33
0.0
 16
1.0
 26
0.0
 36
0.0
 17
0.0
 27
1.0
 37
0.0
 76
     0
330
22F
331
235
1001
PLOTTRANSPARENCY
1071
        1
1000
layout-user-created
1070
     1
1000
layout-line-weight-scale
1042
1.0
  0
MATERIAL
  5
45
102
{ACAD_REACTORS
330
43
102
}
330
43
100
AcDbMaterial
  1
ByBlock
 72
     1
 94
      127
  0
MATERIAL
  5
44
102
{ACAD_REACTORS
330
43
102
}
330
43
100
AcDbMaterial
  1
ByLayer
 72
     1
 94
      127
  0
MATERIAL
  5
46
102
{ACAD_REACTORS
330
43
102
}
330
43
100
AcDbMaterial
  1
Global
 72
     1
 94
      127
  0
MLEADERSTYLE
  5
5C
102
{ACAD_REACTORS
330
5B
102
}
330
5B
100
AcDbMLeaderStyle
179
     2
170
     2
171
     1
172
     0
 90
        2
 40
0.0
 41
0.0
173
     1
 91
-1056964608
340
14
 92
       -2
290
     1
 42
2.0
291
     1
 43
8.0
  3
Standard
341
0
 44
4.0
300

342
11
174
     1
178
     6
175
     1
176
     0
 93
-1056964608
 45
4.0
292
     0
297
     0
 46
4.0
343
0
 94
-1056964608
 47
1.0
 49
1.0
140
1.0
293
     1
141
0.0
294
     1
177
     0
142
1.0
295
     0
296
     0
143
3.75
271
     0
272
     9
273
     9
  0
MLINESTYLE
  5
18
102
{ACAD_REACTORS
330
17
102
}
330
17
100
AcDbMlineStyle
  2
Standard
 70
     0
  3

 62
   256
 51
90.0
 52
90.0
 71
     2
 49
0.5
 62
   256
  6
BYLAYER
 49
-0.5
 62
   256
  6
BYLAYER
  0
PLOTSETTINGS
  5
233
102
{ACAD_REACTORS
330
19
102
}
330
19
100
AcDbPlotSettings
  1
PlotSettings_
  2
Custom Device
  4
Custom_210.000000x297.000000_12.700000_12.700000_6.200000_6.200000
  6

 40
6.2
 41
12.7
 42
6.2
 43
12.7
 44
210.0
 45
297.0
 46
0.0000000000000142
 47
0.0
 48
0.0
 49
0.0
140
197.6
141
271.6
142
1.0
143
1.0
 70
   756
 72
     1
 73
     0
 74
     4
  7

 75
     0
 76
     0
 77
     2
 78
   300
147
1.0
148
0.0
149
0.0
1001
PLOTTRANSPARENCY
1071
        1
1000
layout-user-created
1070
     1
1000
layout-line-weight-scale
1042
1.0
  0
ACDBPLACEHOLDER
  5
5F
102
{ACAD_REACTORS
330
E
102
}
330
E
  0
ACDBPLACEHOLDER
  5
F
102
{ACAD_REACTORS
330
E
102
}
330
E
  0
ACDBPLACEHOLDER
  5
238
102
{ACAD_REACTORS
330
E
102
}
330
E
  0
SCALE
  5
48
102
{ACAD_REACTORS
330
47
102
}
330
47
100
AcDbScale
 70
     0
300
1:1
140
1.0
141
1.0
290
     1
  0
SCALE
  5
49
102
{ACAD_REACTORS
330
47
102
}
330
47
100
AcDbScale
 70
     0
300
1:2
140
1.0
141
2.0
290
     0
  0
SCALE
  5
4A
102
{ACAD_REACTORS
330
47
102
}
330
47
100
AcDbScale
 70
     0
300
1:4
140
1.0
141
4.0
290
     0
  0
SCALE
  5
4B
102
{ACAD_REACTORS
330
47
102
}
330
47
100
AcDbScale
 70
     0
300
1:5
140
1.0
141
5.0
290
     0
  0
SCALE
  5
4C
102
{ACAD_REACTORS
330
47
102
}
330
47
100
AcDbScale
 70
     0
300
1:8
140
1.0
141
8.0
290
     0
  0
SCALE
  5
4D
102
{ACAD_REACTORS
330
47
102
}
330
47
100
AcDbScale
 70
     0
300
1:10
140
1.0
141
10.0
290
     0
  0
SCALE
  5
4E
102
{ACAD_REACTORS
330
47
102
}
330
47
100
AcDbScale
 70
     0
300
1:16
140
1.0
141
16.0
290
     0
  0
SCALE
  5
4F
102
{ACAD_REACTORS
330
47
102
}
330
47
100
AcDbScale
 70
     0
300
1:20
140
1.0
141
20.0
290
     0
  0
SCALE
  5
50
102
{ACAD_REACTORS
330
47
102
}
330
47
100
AcDbScale
 70
     0
300
1:30
140
1.0
141
30.0
290
     0
  0
SCALE
  5
51
102
{ACAD_REACTORS
330
47
102
}
330
47
100
AcDbScale
 70
     0
300
1:40
140
1.0
141
40.0
290
     0
  0
SCALE
  5
52
102
{ACAD_REACTORS
330
47
102
}
330
47
100
AcDbScale
 70
     0
300
1:50
140
1.0
141
50.0
290
     0
  0
SCALE
  5
53
102
{ACAD_REACTORS
330
47
102
}
330
47
100
AcDbScale
 70
     0
300
1:100
140
1.0
141
100.0
290
     0
  0
SCALE
  5
54
102
{ACAD_REACTORS
330
47
102
}
330
47
100
AcDbScale
 70
     0
300
2:1
140
2.0
141
1.0
290
     0
  0
SCALE
  5
55
102
{ACAD_REACTORS
330
47
102
}
330
47
100
AcDbScale
 70
     0
300
4:1
140
4.0
141
1.0
290
     0
  0
SCALE
  5
56
102
{ACAD_REACTORS
330
47
102
}
330
47
100
AcDbScale
 70
     0
300
8:1
140
8.0
141
1.0
290
     0
  0
SCALE
  5
57
102
{ACAD_REACTORS
330
47
102
}
330
47
100
AcDbScale
 70
     0
300
10:1
140
10.0
141
1.0
290
     0
  0
SCALE
  5
58
102
{ACAD_REACTORS
330
47
102
}
330
47
100
AcDbScale
 70
     0
300
100:1
140
100.0
141
1.0
290
     0
  0
TABLESTYLE
  5
5A
102
{ACAD_REACTORS
330
59
102
}
102
{ACAD_XDICTIONARY
360
2F7
102
}
330
59
100
AcDbTableStyle
  3
Standard
 70
     0
 71
     0
 40
0.06
 41
0.06
280
     0
281
     0
  7
Standard
140
4.5
170
     2
 62
     0
 63
   257
283
     0
 90
        4
 91
        0
  1

274
    -2
284
     1
 64
     0
275
    -2
285
     1
 65
     0
276
    -2
286
     1
 66
     0
277
    -2
287
     1
 67
     0
278
    -2
288
     1
 68
     0
279
    -2
289
     1
 69
     0
  7
Standard
140
6.0
170
     5
 62
     0
 63
   257
283
     0
 90
        4
 91
        0
  1

274
    -2
284
     1
 64
     0
275
    -2
285
     1
 65
     0
276
    -2
286
     1
 66
     0
277
    -2
287
     1
 67
     0
278
    -2
288
     1
 68
     0
279
    -2
289
     1
 69
     0
  7
Standard
140
4.5
170
     5
 62
     0
 63
   257
283
     0
 90
        4
 91
        0
  1

274
    -2
284
     1
 64
     0
275
    -2
285
     1
 65
     0
276
    -2
286
     1
 66
     0
277
    -2
287
     1
 67
     0
278
    -2
288
     1
 68
     0
279
    -2
289
     1
 69
     0
  0
VISUALSTYLE
  5
2F
102
{ACAD_REACTORS
330
2A
102
}
102
{ACAD_XDICTIONARY
360
2CF
102
}
330
2A
100
AcDbVisualStyle
  2
2dWireframe
 70
     4
177
     2
291
     0
 71
     0
176
     1
 72
     2
176
     1
 73
     0
176
     1
 90
        0
176
     1
 40
0.6
176
     1
 41
30.0
176
     1
 62
     5
 63
     7
421
 16777215
176
     1
 74
     1
176
     1
 91
        4
176
     1
 64
     7
176
     1
 65
   257
176
     1
 75
     1
176
     1
175
     1
176
     1
 42
1.0
176
     1
 92
        0
176
     1
 66
   257
176
     1
 43
1.0
176
     1
 76
     1
176
     1
 77
     6
176
     1
 78
     2
176
     1
 67
     7
176
     1
 79
     5
176
     1
170
     0
176
     1
171
     0
176
     1
290
     0
176
     1
 93
        1
176
     1
 44
0.0
176
     1
173
     0
176
     1
  0
VISUALSTYLE
  5
32
102
{ACAD_REACTORS
330
2A
102
}
102
{ACAD_XDICTIONARY
360
2D5
102
}
330
2A
100
AcDbVisualStyle
  2
Basic
 70
     7
177
     2
291
     1
 71
     1
176
     1
 72
     0
176
     1
 73
     1
176
     1
 90
        0
176
     1
 40
0.6
176
     1
 41
30.0
176
     1
 62
     5
 63
     7
421
 16777215
176
     1
 74
     0
176
     1
 91
        4
176
     1
 64
     7
176
     1
 65
   257
176
     1
 75
     1
176
     1
175
     1
176
     1
 42
1.0
176
     1
 92
        8
176
     1
 66
     7
176
     1
 43
1.0
176
     1
 76
     1
176
     1
 77
     6
176
     1
 78
     2
176
     1
 67
     7
176
     1
 79
     5
176
     1
170
     0
176
     1
171
     0
176
     1
290
     0
176
     1
 93
        1
176
     1
 44
0.0
176
     1
173
     0
176
     1
  0
VISUALSTYLE
  5
36
102
{ACAD_REACTORS
330
2A
102
}
102
{ACAD_XDICTIONARY
360
2DD
102
}
330
2A
100
AcDbVisualStyle
  2
Brighten
 70
    12
177
     2
291
     1
 71
     2
176
     1
 72
     2
176
     1
 73
     0
176
     1
 90
        0
176
     1
 40
0.6
176
     1
 41
30.0
176
     1
 62
     5
 63
     7
421
 16777215
176
     1
 74
     1
176
     1
 91
        4
176
     1
 64
     7
176
     1
 65
   257
176
     1
 75
     1
176
     1
175
     1
176
     1
 42
1.0
176
     1
 92
        8
176
     1
 66
     7
176
     1
 43
1.0
176
     1
 76
     1
176
     1
 77
     6
176
     1
 78
     2
176
     1
 67
     7
176
     1
 79
     5
176
     1
170
     0
176
     1
171
     0
176
     1
290
     0
176
     1
 93
        1
176
     1
 44
50.0
176
     1
173
     0
176
     1
  0
VISUALSTYLE
  5
3A
102
{ACAD_REACTORS
330
2A
102
}
102
{ACAD_XDICTIONARY
360
2E5
102
}
330
2A
100
AcDbVisualStyle
  2
ColorChange
 70
    16
177
     2
291
     1
 71
     2
176
     1
 72
     2
176
     1
 73
     3
176
     1
 90
        0
176
     1
 40
0.6
176
     1
 41
30.0
176
     1
 62
     5
 63
     8
421
  8421504
176
     1
 74
     1
176
     1
 91
        4
176
     1
 64
     7
176
     1
 65
   257
176
     1
 75
     1
176
     1
175
     1
176
     1
 42
1.0
176
     1
 92
        8
176
     1
 66
     8
424
  8421504
176
     1
 43
1.0
176
     1
 76
     1
176
     1
 77
     6
176
     1
 78
     2
176
     1
 67
     7
176
     1
 79
     5
176
     1
170
     0
176
     1
171
     0
176
     1
290
     0
176
     1
 93
        1
176
     1
 44
0.0
176
     1
173
     0
176
     1
  0
VISUALSTYLE
  5
34
102
{ACAD_REACTORS
330
2A
102
}
102
{ACAD_XDICTIONARY
360
2D9
102
}
330
2A
100
AcDbVisualStyle
  2
Conceptual
 70
     9
177
     2
291
     0
 71
     3
176
     1
 72
     2
176
     1
 73
     0
176
     1
 90
        0
176
     1
 40
0.6
176
     1
 41
30.0
176
     1
 62
     5
 63
     7
421
 16777215
176
     1
 74
     2
176
     1
 91
        2
176
     1
 64
     7
176
     1
 65
   257
176
     1
 75
     1
176
     1
175
     1
176
     1
 42
179.0
176
     1
 92
        8
176
     1
 66
     7
176
     1
 43
1.0
176
     1
 76
     1
176
     1
 77
     6
176
     1
 78
     2
176
     1
 67
     7
176
     1
 79
     3
176
     1
170
     0
176
     1
171
     0
176
     1
290
     0
176
     1
 93
        1
176
     1
 44
0.0
176
     1
173
     0
176
     1
  0
VISUALSTYLE
  5
35
102
{ACAD_REACTORS
330
2A
102
}
102
{ACAD_XDICTIONARY
360
2DB
102
}
330
2A
100
AcDbVisualStyle
  2
Dim
 70
    11
177
     2
291
     1
 71
     2
176
     1
 72
     2
176
     1
 73
     0
176
     1
 90
        0
176
     1
 40
0.6
176
     1
 41
30.0
176
     1
 62
     5
 63
     7
421
 16777215
176
     1
 74
     1
176
     1
 91
        4
176
     1
 64
     7
176
     1
 65
   257
176
     1
 75
     1
176
     1
175
     1
176
     1
 42
1.0
176
     1
 92
        8
176
     1
 66
     7
176
     1
 43
1.0
176
     1
 76
     1
176
     1
 77
     6
176
     1
 78
     2
176
     1
 67
     7
176
     1
 79
     5
176
     1
170
     0
176
     1
171
     0
176
     1
290
     0
176
     1
 93
        1
176
     1
 44
-50.0
176
     1
173
     0
176
     1
  0
VISUALSTYLE
  5
3D
102
{ACAD_REACTORS
330
2A
102
}
102
{ACAD_XDICTIONARY
360
2EB
102
}
330
2A
100
AcDbVisualStyle
  2
EdgeColorOff
 70
    22
177
     2
291
     1
 71
     2
176
     0
 72
     2
176
     0
 73
     0
176
     0
 90
        0
176
     0
 40
0.6
176
     0
 41
30.0
176
     0
 62
     5
 63
     7
421
 16777215
176
     0
 74
     1
176
     0
 91
        4
176
     0
 64
     7
176
     0
 65
   257
176
     0
 75
     1
176
     0
175
     1
176
     0
 42
1.0
176
     0
 92
        8
176
     2
 66
     7
176
     0
 43
1.0
176
     0
 76
     1
176
     0
 77
     6
176
     0
 78
     2
176
     0
 67
     7
176
     0
 79
     5
176
     0
170
     0
176
     0
171
     0
176
     0
290
     0
176
     0
 93
        1
176
     0
 44
0.0
176
     0
173
     0
176
     0
  0
VISUALSTYLE
  5
39
102
{ACAD_REACTORS
330
2A
102
}
102
{ACAD_XDICTIONARY
360
2E3
102
}
330
2A
100
AcDbVisualStyle
  2
Facepattern
 70
    15
177
     2
291
     1
 71
     2
176
     1
 72
     2
176
     1
 73
     0
176
     1
 90
        0
176
     1
 40
0.6
176
     1
 41
30.0
176
     1
 62
     5
 63
     7
421
 16777215
176
     1
 74
     1
176
     1
 91
        4
176
     1
 64
     7
176
     1
 65
   257
176
     1
 75
     1
176
     1
175
     1
176
     1
 42
1.0
176
     1
 92
        8
176
     1
 66
     7
176
     1
 43
1.0
176
     1
 76
     1
176
     1
 77
     6
176
     1
 78
     2
176
     1
 67
     7
176
     1
 79
     5
176
     1
170
     0
176
     1
171
     0
176
     1
290
     0
176
     1
 93
        1
176
     1
 44
0.0
176
     1
173
     0
176
     1
  0
VISUALSTYLE
  5
2B
102
{ACAD_REACTORS
330
2A
102
}
102
{ACAD_XDICTIONARY
360
2C7
102
}
330
2A
100
AcDbVisualStyle
  2
Flat
 70
     0
177
     2
291
     1
 71
     2
176
     1
 72
     1
176
     1
 73
     1
176
     1
 90
        2
176
     1
 40
0.6
176
     1
 41
30.0
176
     1
 62
     5
 63
     7
421
 16777215
176
     1
 74
     0
176
     1
 91
        0
176
     1
 64
     7
176
     1
 65
   257
176
     1
 75
     1
176
     1
175
     1
176
     1
 42
1.0
176
     1
 92
        8
176
     1
 66
     7
176
     1
 43
1.0
176
     1
 76
     1
176
     1
 77
     6
176
     1
 78
     2
176
     1
 67
     7
176
     1
 79
     5
176
     1
170
     0
176
     1
171
     0
176
     1
290
     0
176
     1
 93
       13
176
     1
 44
0.0
176
     1
173
     0
176
     1
  0
VISUALSTYLE
  5
2C
102
{ACAD_REACTORS
330
2A
102
}
102
{ACAD_XDICTIONARY
360
2C9
102
}
330
2A
100
AcDbVisualStyle
  2
FlatWithEdges
 70
     1
177
     2
291
     1
 71
     2
176
     1
 72
     1
176
     1
 73
     1
176
     1
 90
        2
176
     1
 40
0.6
176
     1
 41
30.0
176
     1
 62
     5
 63
     7
421
 16777215
176
     1
 74
     1
176
     1
 91
        0
176
     1
 64
     7
176
     1
 65
   257
176
     1
 75
     1
176
     1
175
     1
176
     1
 42
1.0
176
     1
 92
        0
176
     1
 66
   257
176
     1
 43
1.0
176
     1
 76
     1
176
     1
 77
     6
176
     1
 78
     2
176
     1
 67
     7
176
     1
 79
     5
176
     1
170
     0
176
     1
171
     0
176
     1
290
     0
176
     1
 93
       13
176
     1
 44
0.0
176
     1
173
     0
176
     1
  0
VISUALSTYLE
  5
2D
102
{ACAD_REACTORS
330
2A
102
}
102
{ACAD_XDICTIONARY
360
2CB
102
}
330
2A
100
AcDbVisualStyle
  2
Gouraud
 70
     2
177
     2
291
     1
 71
     2
176
     1
 72
     2
176
     1
 73
     1
176
     1
 90
        2
176
     1
 40
0.6
176
     1
 41
30.0
176
     1
 62
     5
 63
     7
421
 16777215
176
     1
 74
     0
176
     1
 91
        0
176
     1
 64
     7
176
     1
 65
   257
176
     1
 75
     1
176
     1
175
     1
176
     1
 42
1.0
176
     1
 92
        0
176
     1
 66
     7
176
     1
 43
1.0
176
     1
 76
     1
176
     1
 77
     6
176
     1
 78
     2
176
     1
 67
     7
176
     1
 79
     5
176
     1
170
     0
176
     1
171
     0
176
     1
290
     0
176
     1
 93
       13
176
     1
 44
0.0
176
     1
173
     0
176
     1
  0
VISUALSTYLE
  5
2E
102
{ACAD_REACTORS
330
2A
102
}
102
{ACAD_XDICTIONARY
360
2CD
102
}
330
2A
100
AcDbVisualStyle
  2
GouraudWithEdges
 70
     3
177
     2
291
     1
 71
     2
176
     1
 72
     2
176
     1
 73
     1
176
     1
 90
        2
176
     1
 40
0.6
176
     1
 41
30.0
176
     1
 62
     5
 63
     7
421
 16777215
176
     1
 74
     1
176
     1
 91
        0
176
     1
 64
     7
176
     1
 65
   257
176
     1
 75
     1
176
     1
175
     1
176
     1
 42
1.0
176
     1
 92
        0
176
     1
 66
   257
176
     1
 43
1.0
176
     1
 76
     1
176
     1
 77
     6
176
     1
 78
     2
176
     1
 67
     7
176
     1
 79
     5
176
     1
170
     0
176
     1
171
     0
176
     1
290
     0
176
     1
 93
       13
176
     1
 44
0.0
176
     1
173
     0
176
     1
  0
VISUALSTYLE
  5
31
102
{ACAD_REACTORS
330
2A
102
}
102
{ACAD_XDICTIONARY
360
2D3
102
}
330
2A
100
AcDbVisualStyle
  2
Hidden
 70
     6
177
     2
291
     0
 71
     1
176
     1
 72
     2
176
     1
 73
     2
176
     1
 90
        0
176
     1
 40
0.6
176
     1
 41
30.0
176
     1
 62
     5
 63
     7
421
 16777215
176
     1
 74
     2
176
     1
 91
        2
176
     1
 64
     7
176
     1
 65
   257
176
     1
 75
     2
176
     1
175
     1
176
     1
 42
40.0
176
     1
 92
        0
176
     1
 66
   257
176
     1
 43
1.0
176
     1
 76
     1
176
     1
 77
     6
176
     1
 78
     2
176
     1
 67
     7
176
     1
 79
     3
176
     1
170
     0
176
     1
171
     0
176
     1
290
     0
176
     1
 93
        1
176
     1
 44
0.0
176
     1
173
     0
176
     1
  0
VISUALSTYLE
  5
3B
102
{ACAD_REACTORS
330
2A
102
}
102
{ACAD_XDICTIONARY
360
2E7
102
}
330
2A
100
AcDbVisualStyle
  2
JitterOff
 70
    20
177
     2
291
     1
 71
     2
176
     0
 72
     2
176
     0
 73
     0
176
     0
 90
        0
176
     0
 40
0.6
176
     0
 41
30.0
176
     0
 62
     5
 63
     7
421
 16777215
176
     0
 74
     1
176
     0
 91
        4
176
     0
 64
     7
176
     0
 65
   257
176
     0
 75
     1
176
     0
175
     1
176
     0
 42
1.0
176
     0
 92
       10
176
     2
 66
     7
176
     0
 43
1.0
176
     0
 76
     1
176
     0
 77
     6
176
     0
 78
     2
176
     0
 67
     7
176
     0
 79
     5
176
     0
170
     0
176
     0
171
     0
176
     0
290
     0
176
     0
 93
        1
176
     0
 44
0.0
176
     0
173
     0
176
     0
  0
VISUALSTYLE
  5
38
102
{ACAD_REACTORS
330
2A
102
}
102
{ACAD_XDICTIONARY
360
2E1
102
}
330
2A
100
AcDbVisualStyle
  2
Linepattern
 70
    14
177
     2
291
     1
 71
     2
176
     1
 72
     2
176
     1
 73
     0
176
     1
 90
        0
176
     1
 40
0.6
176
     1
 41
30.0
176
     1
 62
     5
 63
     7
421
 16777215
176
     1
 74
     1
176
     1
 91
        4
176
     1
 64
     7
176
     1
 65
   257
176
     1
 75
     7
176
     1
175
     7
176
     1
 42
1.0
176
     1
 92
        8
176
     1
 66
     7
176
     1
 43
1.0
176
     1
 76
     1
176
     1
 77
     6
176
     1
 78
     2
176
     1
 67
     7
176
     1
 79
     5
176
     1
170
     0
176
     1
171
     0
176
     1
290
     0
176
     1
 93
        1
176
     1
 44
0.0
176
     1
173
     0
176
     1
  0
VISUALSTYLE
  5
3C
102
{ACAD_REACTORS
330
2A
102
}
102
{ACAD_XDICTIONARY
360
2E9
102
}
330
2A
100
AcDbVisualStyle
  2
OverhangOff
 70
    21
177
     2
291
     1
 71
     2
176
     0
 72
     2
176
     0
 73
     0
176
     0
 90
        0
176
     0
 40
0.6
176
     0
 41
30.0
176
     0
 62
     5
 63
     7
421
 16777215
176
     0
 74
     1
176
     0
 91
        4
176
     0
 64
     7
176
     0
 65
   257
176
     0
 75
     1
176
     0
175
     1
176
     0
 42
1.0
176
     0
 92
        9
176
     2
 66
     7
176
     0
 43
1.0
176
     0
 76
     1
176
     0
 77
     6
176
     0
 78
     2
176
     0
 67
     7
176
     0
 79
     5
176
     0
170
     0
176
     0
171
     0
176
     0
290
     0
176
     0
 93
        1
176
     0
 44
0.0
176
     0
173
     0
176
     0
  0
VISUALSTYLE
  5
33
102
{ACAD_REACTORS
330
2A
102
}
102
{ACAD_XDICTIONARY
360
2D7
102
}
330
2A
100
AcDbVisualStyle
  2
Realistic
 70
     8
177
     2
291
     0
 71
     2
176
     1
 72
     3
176
     1
 73
     0
176
     1
 90
        2
176
     1
 40
0.6
176
     1
 41
30.0
176
     1
 62
     5
 63
     7
421
 16777215
176
     1
 74
     0
176
     1
 91
        0
176
     1
 64
     7
176
     1
 65
   257
176
     1
 75
     1
176
     1
175
     1
176
     1
 42
1.0
176
     1
 92
        8
176
     1
 66
   257
176
     1
 43
1.0
176
     1
 76
     1
176
     1
 77
     6
176
     1
 78
     2
176
     1
 67
     7
176
     1
 79
     3
176
     1
170
     0
176
     1
171
     0
176
     1
290
     0
176
     1
 93
       13
176
     1
 44
0.0
176
     1
173
     0
176
     1
  0
VISUALSTYLE
  5
42
102
{ACAD_REACTORS
330
2A
102
}
102
{ACAD_XDICTIONARY
360
2F5
102
}
330
2A
100
AcDbVisualStyle
  2
Shaded
 70
    27
177
     2
291
     0
 71
     2
176
     1
 72
     2
176
     1
 73
     1
176
     1
 90
        2
176
     1
 40
0.6
176
     1
 41
30.0
176
     1
 62
     5
 63
     7
421
 16777215
176
     1
 74
     0
176
     1
 91
        4
176
     1
 64
     7
176
     1
 65
   257
176
     1
 75
     1
176
     1
175
     1
176
     1
 42
1.0
176
     1
 92
        8
176
     1
 66
   257
176
     1
 43
1.0
176
     1
 76
     1
176
     1
 77
     6
176
     1
 78
     2
176
     1
 67
     8
425
  7895160
176
     1
 79
     3
176
     1
170
     0
176
     1
171
     0
176
     1
290
     0
176
     1
 93
        5
176
     1
 44
0.0
176
     1
173
     0
176
     1
  0
VISUALSTYLE
  5
41
102
{ACAD_REACTORS
330
2A
102
}
102
{ACAD_XDICTIONARY
360
2F3
102
}
330
2A
100
AcDbVisualStyle
  2
Shaded with edges
 70
    26
177
     2
291
     0
 71
     2
176
     1
 72
     2
176
     1
 73
     1
176
     1
 90
        2
176
     1
 40
0.6
176
     1
 41
30.0
176
     1
 62
     5
 63
     7
421
 16777215
176
     1
 74
     1
176
     1
 91
       10
176
     1
 64
     7
176
     1
 65
   257
176
     1
 75
     2
176
     1
175
     1
176
     1
 42
1.0
176
     1
 92
        8
176
     1
 66
   257
176
     1
 43
1.0
176
     1
 76
     1
176
     1
 77
     6
176
     1
 78
     2
176
     1
 67
     7
176
     1
 79
     3
176
     1
170
     0
176
     1
171
     0
176
     1
290
     0
176
     1
 93
        5
176
     1
 44
0.0
176
     1
173
     0
176
     1
  0
VISUALSTYLE
  5
3E
102
{ACAD_REACTORS
330
2A
102
}
102
{ACAD_XDICTIONARY
360
2ED
102
}
330
2A
100
AcDbVisualStyle
  2
Shades of Gray
 70
    23
177
     2
291
     0
 71
     2
176
     1
 72
     2
176
     1
 73
     3
176
     1
 90
        0
176
     1
 40
0.6
176
     1
 41
30.0
176
     1
 62
     5
 63
     7
421
 16777215
176
     1
 74
     2
176
     1
 91
        2
176
     1
 64
     7
176
     1
 65
     7
176
     1
 75
     1
176
     1
175
     1
176
     1
 42
40.0
176
     1
 92
        8
176
     1
 66
     7
176
     1
 43
1.0
176
     1
 76
     1
176
     1
 77
     6
176
     1
 78
     2
176
     1
 67
     7
176
     1
 79
     3
176
     1
170
     0
176
     1
171
     0
176
     1
290
     0
176
     1
 93
        1
176
     1
 44
0.0
176
     1
173
     0
176
     1
  0
VISUALSTYLE
  5
3F
102
{ACAD_REACTORS
330
2A
102
}
102
{ACAD_XDICTIONARY
360
2EF
102
}
330
2A
100
AcDbVisualStyle
  2
Sketchy
 70
    24
177
     2
291
     0
 71
     1
176
     1
 72
     2
176
     1
 73
     2
176
     1
 90
        0
176
     1
 40
0.6
176
     1
 41
30.0
176
     1
 62
     5
 63
     7
421
 16777215
176
     1
 74
     2
176
     1
 91
        2
176
     1
 64
     7
176
     1
 65
     7
176
     1
 75
     1
176
     1
175
     1
176
     1
 42
40.0
176
     1
 92
       11
176
     1
 66
     7
176
     1
 43
1.0
176
     1
 76
     1
176
     1
 77
     6
176
     1
 78
     2
176
     1
 67
     7
176
     1
 79
     6
176
     1
170
     0
176
     1
171
     0
176
     1
290
     0
176
     1
 93
        1
176
     1
 44
0.0
176
     1
173
     0
176
     1
  0
VISUALSTYLE
  5
37
102
{ACAD_REACTORS
330
2A
102
}
102
{ACAD_XDICTIONARY
360
2DF
102
}
330
2A
100
AcDbVisualStyle
  2
Thicken
 70
    13
177
     2
291
     1
 71
     2
176
     1
 72
     2
176
     1
 73
     0
176
     1
 90
        0
176
     1
 40
0.6
176
     1
 41
30.0
176
     1
 62
     5
 63
     7
421
 16777215
176
     1
 74
     1
176
     1
 91
        4
176
     1
 64
     7
176
     1
 65
   257
176
     1
 75
     1
176
     1
175
     1
176
     1
 42
1.0
176
     1
 92
       12
176
     1
 66
     7
176
     1
 43
1.0
176
     1
 76
     1
176
     1
 77
     6
176
     1
 78
     2
176
     1
 67
     7
176
     1
 79
     5
176
     1
170
     0
176
     1
171
     0
176
     1
290
     0
176
     1
 93
        1
176
     1
 44
0.0
176
     1
173
     0
176
     1
  0
VISUALSTYLE
  5
30
102
{ACAD_REACTORS
330
2A
102
}
102
{ACAD_XDICTIONARY
360
2D1
102
}
330
2A
100
AcDbVisualStyle
  2
Wireframe
 70
     5
177
     2
291
     0
 71
     0
176
     1
 72
     2
176
     1
 73
     0
176
     1
 90
        0
176
     1
 40
0.6
176
     1
 41
30.0
176
     1
 62
     5
 63
     7
421
 16777215
176
     1
 74
     1
176
     1
 91
        4
176
     1
 64
     7
176
     1
 65
   257
176
     1
 75
     1
176
     1
175
     1
176
     1
 42
1.0
176
     1
 92
        0
176
     1
 66
   257
176
     1
 43
1.0
176
     1
 76
     1
176
     1
 77
     6
176
     1
 78
     2
176
     1
 67
     7
176
     1
 79
     3
176
     1
170
     0
176
     1
171
     0
176
     1
290
     0
176
     1
 93
        1
176
     1
 44
0.0
176
     1
173
     0
176
     1
  0
VISUALSTYLE
  5
40
102
{ACAD_REACTORS
330
2A
102
}
102
{ACAD_XDICTIONARY
360
2F1
102
}
330
2A
100
AcDbVisualStyle
  2
X-Ray
 70
    25
177
     2
291
     0
 71
     2
176
     1
 72
     2
176
     1
 73
     1
176
     1
 90
        1
176
     1
 40
0.5
176
     1
 41
30.0
176
     1
 62
     5
 63
     7
421
 16777215
176
     1
 74
     1
176
     1
 91
        0
176
     1
 64
     7
176
     1
 65
   257
176
     1
 75
     1
176
     1
175
     1
176
     1
 42
1.0
176
     1
 92
        8
176
     1
 66
     7
176
     1
 43
1.0
176
     1
 76
     1
176
     1
 77
     6
176
     1
 78
     2
176
     1
 67
     7
176
     1
 79
     3
176
     1
170
     0
176
     1
171
     0
176
     1
290
     0
176
     1
 93
       13
176
     1
 44
0.0
176
     1
173
     0
176
     1
  0
DICTIONARYVAR
  5
2C6
102
{ACAD_REACTORS
330
2C5
102
}
330
2C5
100
DictionaryVariables
280
     0
  1
1:1
  0
DICTIONARYVAR
  5
2FF
102
{ACAD_REACTORS
330
2C5
102
}
330
2C5
100
DictionaryVariables
280
     0
  1
3.500000
  0
DICTIONARYVAR
  5
300
102
{ACAD_REACTORS
330
2C5
102
}
330
2C5
100
DictionaryVariables
280
     0
  1
acadiso.lin
  0
DICTIONARYVAR
  5
2FB
102
{ACAD_REACTORS
330
2C5
102
}
330
2C5
100
DictionaryVariables
280
     0
  1
Standard
  0
DICTIONARYVAR
  5
2FA
102
{ACAD_REACTORS
330
2C5
102
}
330
2C5
100
DictionaryVariables
280
     0
  1
Standard
  0
DICTIONARYVAR
  5
2FE
102
{ACAD_REACTORS
330
2C5
102
}
330
2C5
100
DictionaryVariables
280
     0
  1
0
  0
DICTIONARY
  5
2F7
330
5A
100
AcDbDictionary
280
     1
281
     1
  3
ACAD_ROUNDTRIP_2008_TABLESTYLE_CELLSTYLEMAP
360
2F8
  0
DICTIONARY
  5
2CF
330
2F
100
AcDbDictionary
280
     1
281
     1
  3
ACAD_XREC_ROUNDTRIP
360
2D0
  0
DICTIONARY
  5
2D5
330
32
100
AcDbDictionary
280
     1
281
     1
  3
ACAD_XREC_ROUNDTRIP
360
2D6
  0
DICTIONARY
  5
2DD
330
36
100
AcDbDictionary
280
     1
281
     1
  3
ACAD_XREC_ROUNDTRIP
360
2DE
  0
DICTIONARY
  5
2E5
330
3A
100
AcDbDictionary
280
     1
281
     1
  3
ACAD_XREC_ROUNDTRIP
360
2E6
  0
DICTIONARY
  5
2D9
330
34
100
AcDbDictionary
280
     1
281
     1
  3
ACAD_XREC_ROUNDTRIP
360
2DA
  0
DICTIONARY
  5
2DB
330
35
100
AcDbDictionary
280
     1
281
     1
  3
ACAD_XREC_ROUNDTRIP
360
2DC
  0
DICTIONARY
  5
2EB
330
3D
100
AcDbDictionary
280
     1
281
     1
  3
ACAD_XREC_ROUNDTRIP
360
2EC
  0
DICTIONARY
  5
2E3
330
39
100
AcDbDictionary
280
     1
281
     1
  3
ACAD_XREC_ROUNDTRIP
360
2E4
  0
DICTIONARY
  5
2C7
330
2B
100
AcDbDictionary
280
     1
281
     1
  3
ACAD_XREC_ROUNDTRIP
360
2C8
  0
DICTIONARY
  5
2C9
330
2C
100
AcDbDictionary
280
     1
281
     1
  3
ACAD_XREC_ROUNDTRIP
360
2CA
  0
DICTIONARY
  5
2CB
330
2D
100
AcDbDictionary
280
     1
281
     1
  3
ACAD_XREC_ROUNDTRIP
360
2CC
  0
DICTIONARY
  5
2CD
330
2E
100
AcDbDictionary
280
     1
281
     1
  3
ACAD_XREC_ROUNDTRIP
360
2CE
  0
DICTIONARY
  5
2D3
330
31
100
AcDbDictionary
280
     1
281
     1
  3
ACAD_XREC_ROUNDTRIP
360
2D4
  0
DICTIONARY
  5
2E7
330
3B
100
AcDbDictionary
280
     1
281
     1
  3
ACAD_XREC_ROUNDTRIP
360
2E8
  0
DICTIONARY
  5
2E1
330
38
100
AcDbDictionary
280
     1
281
     1
  3
ACAD_XREC_ROUNDTRIP
360
2E2
  0
DICTIONARY
  5
2E9
330
3C
100
AcDbDictionary
280
     1
281
     1
  3
ACAD_XREC_ROUNDTRIP
360
2EA
  0
DICTIONARY
  5
2D7
330
33
100
AcDbDictionary
280
     1
281
     1
  3
ACAD_XREC_ROUNDTRIP
360
2D8
  0
DICTIONARY
  5
2F5
330
42
100
AcDbDictionary
280
     1
281
     1
  3
ACAD_XREC_ROUNDTRIP
360
2F6
  0
DICTIONARY
  5
2F3
330
41
100
AcDbDictionary
280
     1
281
     1
  3
ACAD_XREC_ROUNDTRIP
360
2F4
  0
DICTIONARY
  5
2ED
330
3E
100
AcDbDictionary
280
     1
281
     1
  3
ACAD_XREC_ROUNDTRIP
360
2EE
  0
DICTIONARY
  5
2EF
330
3F
100
AcDbDictionary
280
     1
281
     1
  3
ACAD_XREC_ROUNDTRIP
360
2F0
  0
DICTIONARY
  5
2DF
330
37
100
AcDbDictionary
280
     1
281
     1
  3
ACAD_XREC_ROUNDTRIP
360
2E0
  0
DICTIONARY
  5
2D1
330
30
100
AcDbDictionary
280
     1
281
     1
  3
ACAD_XREC_ROUNDTRIP
360
2D2
  0
DICTIONARY
  5
2F1
330
40
100
AcDbDictionary
280
     1
281
     1
  3
ACAD_XREC_ROUNDTRIP
360
2F2
  0
CELLSTYLEMAP
  5
2F8
102
{ACAD_REACTORS
330
2F7
102
}
330
2F7
100
AcDbCellStyleMap
 90
        3
300
CELLSTYLE
  1
TABLEFORMAT_BEGIN
 90
        5
170
     1
 91
        0
 92
    32768
 62
   257
 93
        1
300
CONTENTFORMAT
  1
CONTENTFORMAT_BEGIN
 90
        0
 91
        0
 92
        4
 93
        0
300

 40
0.0
140
1.0
 94
        5
 62
     0
340
11
144
6.0
309
CONTENTFORMAT_END
171
     1
301
MARGIN
  1
CELLMARGIN_BEGIN
 40
1.5
 40
1.5
 40
1.5
 40
1.5
 40
1.5
 40
1.5
309
CELLMARGIN_END
 94
        6
 95
        1
302
GRIDFORMAT
  1
GRIDFORMAT_BEGIN
 90
        0
 91
        1
 62
     0
 92
       -2
340
14
 93
        0
 40
0.045
309
GRIDFORMAT_END
 95
        2
302
GRIDFORMAT
  1
GRIDFORMAT_BEGIN
 90
        0
 91
        1
 62
     0
 92
       -2
340
14
 93
        0
 40
0.045
309
GRIDFORMAT_END
 95
        4
302
GRIDFORMAT
  1
GRIDFORMAT_BEGIN
 90
        0
 91
        1
 62
     0
 92
       -2
340
14
 93
        0
 40
0.045
309
GRIDFORMAT_END
 95
        8
302
GRIDFORMAT
  1
GRIDFORMAT_BEGIN
 90
        0
 91
        1
 62
     0
 92
       -2
340
14
 93
        0
 40
0.045
309
GRIDFORMAT_END
 95
       16
302
GRIDFORMAT
  1
GRIDFORMAT_BEGIN
 90
        0
 91
        1
 62
     0
 92
       -2
340
14
 93
        0
 40
0.045
309
GRIDFORMAT_END
 95
       32
302
GRIDFORMAT
  1
GRIDFORMAT_BEGIN
 90
        0
 91
        1
 62
     0
 92
       -2
340
14
 93
        0
 40
0.045
309
GRIDFORMAT_END
309
TABLEFORMAT_END
  1
CELLSTYLE_BEGIN
 90
        1
 91
        1
300
_TITLE
309
CELLSTYLE_END
300
CELLSTYLE
  1
TABLEFORMAT_BEGIN
 90
        5
170
     1
 91
        0
 92
        0
 62
   257
 93
        1
300
CONTENTFORMAT
  1
CONTENTFORMAT_BEGIN
 90
        0
 91
        0
 92
        4
 93
        0
300

 40
0.0
140
1.0
 94
        5
 62
     0
340
11
144
4.5
309
CONTENTFORMAT_END
171
     1
301
MARGIN
  1
CELLMARGIN_BEGIN
 40
1.5
 40
1.5
 40
1.5
 40
1.5
 40
1.5
 40
1.5
309
CELLMARGIN_END
 94
        6
 95
        1
302
GRIDFORMAT
  1
GRIDFORMAT_BEGIN
 90
        0
 91
        1
 62
     0
 92
       -2
340
14
 93
        0
 40
0.045
309
GRIDFORMAT_END
 95
        2
302
GRIDFORMAT
  1
GRIDFORMAT_BEGIN
 90
        0
 91
        1
 62
     0
 92
       -2
340
14
 93
        0
 40
0.045
309
GRIDFORMAT_END
 95
        4
302
GRIDFORMAT
  1
GRIDFORMAT_BEGIN
 90
        0
 91
        1
 62
     0
 92
       -2
340
14
 93
        0
 40
0.045
309
GRIDFORMAT_END
 95
        8
302
GRIDFORMAT
  1
GRIDFORMAT_BEGIN
 90
        0
 91
        1
 62
     0
 92
       -2
340
14
 93
        0
 40
0.045
309
GRIDFORMAT_END
 95
       16
302
GRIDFORMAT
  1
GRIDFORMAT_BEGIN
 90
        0
 91
        1
 62
     0
 92
       -2
340
14
 93
        0
 40
0.045
309
GRIDFORMAT_END
 95
       32
302
GRIDFORMAT
  1
GRIDFORMAT_BEGIN
 90
        0
 91
        1
 62
     0
 92
       -2
340
14
 93
        0
 40
0.045
309
GRIDFORMAT_END
309
TABLEFORMAT_END
  1
CELLSTYLE_BEGIN
 90
        2
 91
        1
300
_HEADER
309
CELLSTYLE_END
300
CELLSTYLE
  1
TABLEFORMAT_BEGIN
 90
        5
170
     1
 91
        0
 92
        0
 62
   257
 93
        1
300
CONTENTFORMAT
  1
CONTENTFORMAT_BEGIN
 90
        0
 91
        0
 92
        4
 93
        0
300

 40
0.0
140
1.0
 94
        2
 62
     0
340
11
144
4.5
309
CONTENTFORMAT_END
171
     1
301
MARGIN
  1
CELLMARGIN_BEGIN
 40
1.5
 40
1.5
 40
1.5
 40
1.5
 40
1.5
 40
1.5
309
CELLMARGIN_END
 94
        6
 95
        1
302
GRIDFORMAT
  1
GRIDFORMAT_BEGIN
 90
        0
 91
        1
 62
     0
 92
       -2
340
14
 93
        0
 40
0.045
309
GRIDFORMAT_END
 95
        2
302
GRIDFORMAT
  1
GRIDFORMAT_BEGIN
 90
        0
 91
        1
 62
     0
 92
       -2
340
14
 93
        0
 40
0.045
309
GRIDFORMAT_END
 95
        4
302
GRIDFORMAT
  1
GRIDFORMAT_BEGIN
 90
        0
 91
        1
 62
     0
 92
       -2
340
14
 93
        0
 40
0.045
309
GRIDFORMAT_END
 95
        8
302
GRIDFORMAT
  1
GRIDFORMAT_BEGIN
 90
        0
 91
        1
 62
     0
 92
       -2
340
14
 93
        0
 40
0.045
309
GRIDFORMAT_END
 95
       16
302
GRIDFORMAT
  1
GRIDFORMAT_BEGIN
 90
        0
 91
        1
 62
     0
 92
       -2
340
14
 93
        0
 40
0.045
309
GRIDFORMAT_END
 95
       32
302
GRIDFORMAT
  1
GRIDFORMAT_BEGIN
 90
        0
 91
        1
 62
     0
 92
       -2
340
14
 93
        0
 40
0.045
309
GRIDFORMAT_END
309
TABLEFORMAT_END
  1
CELLSTYLE_BEGIN
 90
        3
 91
        2
300
_DATA
309
CELLSTYLE_END
  0
XRECORD
  5
2D0
102
{ACAD_REACTORS
330
2CF
102
}
330
2CF
100
AcDbXrecord
280
     1
102
RTVSPost2010Prop28
280
     1
102
RTVSPost2010PropOp28
 70
     1
102
RTVSPost2010Prop29
280
     1
102
RTVSPost2010PropOp29
 70
     1
102
RTVSPost2010Prop30
280
     0
102
RTVSPost2010PropOp30
 70
     1
102
RTVSPost2010Prop31
280
     0
102
RTVSPost2010PropOp31
 70
     1
102
RTVSPost2010Prop32
280
     0
102
RTVSPost2010PropOp32
 70
     1
102
RTVSPost2010Prop33
280
     0
102
RTVSPost2010PropOp33
 70
     1
102
RTVSPost2010Prop34
280
     0
102
RTVSPost2010PropOp34
 70
     1
102
RTVSPost2010Prop35
280
     0
102
RTVSPost2010PropOp35
 70
     1
102
RTVSPost2010Prop36
280
     0
102
RTVSPost2010PropOp36
 70
     1
102
RTVSPost2010Prop37
 90
       50
102
RTVSPost2010PropOp37
 70
     1
102
RTVSPost2010Prop38
140
0.0
102
RTVSPost2010PropOp38
 70
     1
102
RTVSPost2010Prop39
140
1.0
102
RTVSPost2010PropOp39
 70
     1
102
RTVSPost2010Prop40
 90
        0
102
RTVSPost2010PropOp40
 70
     1
102
RTVSPost2010Prop41ColorIndex
 90
       18
102
RTVSPost2010Prop41ColorRGB
 90
        0
102
RTVSPost2010PropOp41
 70
     1
102
RTVSPost2010Prop42
 90
       50
102
RTVSPost2010PropOp42
 70
     1
102
RTVSPost2010Prop43
 90
        3
102
RTVSPost2010PropOp43
 70
     1
102
RTVSPost2010Prop44ColorIndex
 90
        5
102
RTVSPost2010Prop44ColorRGB
 90
      255
102
RTVSPost2010PropOp44
 70
     1
102
RTVSPost2010Prop45
280
     0
102
RTVSPost2010PropOp45
 70
     1
102
RTVSPost2010Prop46
 90
       50
102
RTVSPost2010PropOp46
 70
     1
102
RTVSPost2010Prop47
 90
       50
102
RTVSPost2010PropOp47
 70
     1
102
RTVSPost2010Prop48
 90
       50
102
RTVSPost2010PropOp48
 70
     1
102
RTVSPost2010Prop49
280
     0
102
RTVSPost2010PropOp49
 70
     1
102
RTVSPost2010Prop50
 90
       50
102
RTVSPost2010PropOp50
 70
     1
102
RTVSPost2010Prop51ColorIndex
 90
      256
102
RTVSPost2010Prop51ColorRGB
 90
-16777216
102
RTVSPost2010PropOp51
 70
     0
102
RTVSPost2010Prop52
140
1.0
102
RTVSPost2010PropOp52
 70
     0
102
RTVSPost2010Prop53
 90
        2
102
RTVSPost2010PropOp53
 70
     1
102
RTVSPost2010Prop54
  1
strokes_ogs.tif
102
RTVSPost2010PropOp54
 70
     1
102
RTVSPost2010Prop55
280
     0
102
RTVSPost2010PropOp55
 70
     1
102
RTVSPost2010Prop56
140
1.0
102
RTVSPost2010PropOp56
 70
     1
102
RTVSPost2010Prop57
140
1.0
102
RTVSPost2010PropOp57
 70
     1
  0
XRECORD
  5
2D6
102
{ACAD_REACTORS
330
2D5
102
}
330
2D5
100
AcDbXrecord
280
     1
102
RTVSPost2010Prop28
280
     0
102
RTVSPost2010PropOp28
 70
     1
102
RTVSPost2010Prop29
280
     1
102
RTVSPost2010PropOp29
 70
     1
102
RTVSPost2010Prop30
280
     1
102
RTVSPost2010PropOp30
 70
     1
102
RTVSPost2010Prop31
280
     0
102
RTVSPost2010PropOp31
 70
     1
102
RTVSPost2010Prop32
280
     0
102
RTVSPost2010PropOp32
 70
     1
102
RTVSPost2010Prop33
280
     0
102
RTVSPost2010PropOp33
 70
     1
102
RTVSPost2010Prop34
280
     0
102
RTVSPost2010PropOp34
 70
     1
102
RTVSPost2010Prop35
280
     0
102
RTVSPost2010PropOp35
 70
     1
102
RTVSPost2010Prop36
280
     0
102
RTVSPost2010PropOp36
 70
     1
102
RTVSPost2010Prop37
 90
       50
102
RTVSPost2010PropOp37
 70
     1
102
RTVSPost2010Prop38
140
0.0
102
RTVSPost2010PropOp38
 70
     1
102
RTVSPost2010Prop39
140
1.0
102
RTVSPost2010PropOp39
 70
     1
102
RTVSPost2010Prop40
 90
        0
102
RTVSPost2010PropOp40
 70
     1
102
RTVSPost2010Prop41ColorIndex
 90
       18
102
RTVSPost2010Prop41ColorRGB
 90
        0
102
RTVSPost2010PropOp41
 70
     1
102
RTVSPost2010Prop42
 90
       50
102
RTVSPost2010PropOp42
 70
     1
102
RTVSPost2010Prop43
 90
        3
102
RTVSPost2010PropOp43
 70
     1
102
RTVSPost2010Prop44ColorIndex
 90
        5
102
RTVSPost2010Prop44ColorRGB
 90
      255
102
RTVSPost2010PropOp44
 70
     1
102
RTVSPost2010Prop45
280
     0
102
RTVSPost2010PropOp45
 70
     1
102
RTVSPost2010Prop46
 90
       50
102
RTVSPost2010PropOp46
 70
     1
102
RTVSPost2010Prop47
 90
       50
102
RTVSPost2010PropOp47
 70
     1
102
RTVSPost2010Prop48
 90
       50
102
RTVSPost2010PropOp48
 70
     1
102
RTVSPost2010Prop49
280
     0
102
RTVSPost2010PropOp49
 70
     1
102
RTVSPost2010Prop50
 90
       50
102
RTVSPost2010PropOp50
 70
     1
102
RTVSPost2010Prop51ColorIndex
 90
      256
102
RTVSPost2010Prop51ColorRGB
 90
-16777216
102
RTVSPost2010PropOp51
 70
     0
102
RTVSPost2010Prop52
140
1.0
102
RTVSPost2010PropOp52
 70
     0
102
RTVSPost2010Prop53
 90
        2
102
RTVSPost2010PropOp53
 70
     1
102
RTVSPost2010Prop54
  1
strokes_ogs.tif
102
RTVSPost2010PropOp54
 70
     1
102
RTVSPost2010Prop55
280
     0
102
RTVSPost2010PropOp55
 70
     1
102
RTVSPost2010Prop56
140
1.0
102
RTVSPost2010PropOp56
 70
     1
102
RTVSPost2010Prop57
140
1.0
102
RTVSPost2010PropOp57
 70
     1
  0
XRECORD
  5
2DE
102
{ACAD_REACTORS
330
2DD
102
}
330
2DD
100
AcDbXrecord
280
     1
102
RTVSPost2010Prop28
280
     0
102
RTVSPost2010PropOp28
 70
     1
102
RTVSPost2010Prop29
280
     1
102
RTVSPost2010PropOp29
 70
     1
102
RTVSPost2010Prop30
280
     1
102
RTVSPost2010PropOp30
 70
     1
102
RTVSPost2010Prop31
280
     0
102
RTVSPost2010PropOp31
 70
     1
102
RTVSPost2010Prop32
280
     0
102
RTVSPost2010PropOp32
 70
     1
102
RTVSPost2010Prop33
280
     0
102
RTVSPost2010PropOp33
 70
     1
102
RTVSPost2010Prop34
280
     0
102
RTVSPost2010PropOp34
 70
     1
102
RTVSPost2010Prop35
280
     0
102
RTVSPost2010PropOp35
 70
     1
102
RTVSPost2010Prop36
280
     0
102
RTVSPost2010PropOp36
 70
     1
102
RTVSPost2010Prop37
 90
       50
102
RTVSPost2010PropOp37
 70
     1
102
RTVSPost2010Prop38
140
0.0
102
RTVSPost2010PropOp38
 70
     1
102
RTVSPost2010Prop39
140
1.0
102
RTVSPost2010PropOp39
 70
     1
102
RTVSPost2010Prop40
 90
        0
102
RTVSPost2010PropOp40
 70
     1
102
RTVSPost2010Prop41ColorIndex
 90
       18
102
RTVSPost2010Prop41ColorRGB
 90
        0
102
RTVSPost2010PropOp41
 70
     1
102
RTVSPost2010Prop42
 90
       50
102
RTVSPost2010PropOp42
 70
     1
102
RTVSPost2010Prop43
 90
        3
102
RTVSPost2010PropOp43
 70
     1
102
RTVSPost2010Prop44ColorIndex
 90
        5
102
RTVSPost2010Prop44ColorRGB
 90
      255
102
RTVSPost2010PropOp44
 70
     1
102
RTVSPost2010Prop45
280
     0
102
RTVSPost2010PropOp45
 70
     1
102
RTVSPost2010Prop46
 90
       50
102
RTVSPost2010PropOp46
 70
     1
102
RTVSPost2010Prop47
 90
       50
102
RTVSPost2010PropOp47
 70
     1
102
RTVSPost2010Prop48
 90
       50
102
RTVSPost2010PropOp48
 70
     1
102
RTVSPost2010Prop49
280
     0
102
RTVSPost2010PropOp49
 70
     1
102
RTVSPost2010Prop50
 90
       50
102
RTVSPost2010PropOp50
 70
     1
102
RTVSPost2010Prop51ColorIndex
 90
      256
102
RTVSPost2010Prop51ColorRGB
 90
-16777216
102
RTVSPost2010PropOp51
 70
     0
102
RTVSPost2010Prop52
140
1.0
102
RTVSPost2010PropOp52
 70
     0
102
RTVSPost2010Prop53
 90
        2
102
RTVSPost2010PropOp53
 70
     1
102
RTVSPost2010Prop54
  1
strokes_ogs.tif
102
RTVSPost2010PropOp54
 70
     1
102
RTVSPost2010Prop55
280
     0
102
RTVSPost2010PropOp55
 70
     1
102
RTVSPost2010Prop56
140
1.0
102
RTVSPost2010PropOp56
 70
     1
102
RTVSPost2010Prop57
140
1.0
102
RTVSPost2010PropOp57
 70
     1
  0
XRECORD
  5
2E6
102
{ACAD_REACTORS
330
2E5
102
}
330
2E5
100
AcDbXrecord
280
     1
102
RTVSPost2010Prop28
280
     0
102
RTVSPost2010PropOp28
 70
     1
102
RTVSPost2010Prop29
280
     1
102
RTVSPost2010PropOp29
 70
     1
102
RTVSPost2010Prop30
280
     1
102
RTVSPost2010PropOp30
 70
     1
102
RTVSPost2010Prop31
280
     0
102
RTVSPost2010PropOp31
 70
     1
102
RTVSPost2010Prop32
280
     0
102
RTVSPost2010PropOp32
 70
     1
102
RTVSPost2010Prop33
280
     0
102
RTVSPost2010PropOp33
 70
     1
102
RTVSPost2010Prop34
280
     0
102
RTVSPost2010PropOp34
 70
     1
102
RTVSPost2010Prop35
280
     0
102
RTVSPost2010PropOp35
 70
     1
102
RTVSPost2010Prop36
280
     0
102
RTVSPost2010PropOp36
 70
     1
102
RTVSPost2010Prop37
 90
       50
102
RTVSPost2010PropOp37
 70
     1
102
RTVSPost2010Prop38
140
0.0
102
RTVSPost2010PropOp38
 70
     1
102
RTVSPost2010Prop39
140
1.0
102
RTVSPost2010PropOp39
 70
     1
102
RTVSPost2010Prop40
 90
        0
102
RTVSPost2010PropOp40
 70
     1
102
RTVSPost2010Prop41ColorIndex
 90
       18
102
RTVSPost2010Prop41ColorRGB
 90
        0
102
RTVSPost2010PropOp41
 70
     1
102
RTVSPost2010Prop42
 90
       50
102
RTVSPost2010PropOp42
 70
     1
102
RTVSPost2010Prop43
 90
        3
102
RTVSPost2010PropOp43
 70
     1
102
RTVSPost2010Prop44ColorIndex
 90
        5
102
RTVSPost2010Prop44ColorRGB
 90
      255
102
RTVSPost2010PropOp44
 70
     1
102
RTVSPost2010Prop45
280
     0
102
RTVSPost2010PropOp45
 70
     1
102
RTVSPost2010Prop46
 90
       50
102
RTVSPost2010PropOp46
 70
     1
102
RTVSPost2010Prop47
 90
       50
102
RTVSPost2010PropOp47
 70
     1
102
RTVSPost2010Prop48
 90
       50
102
RTVSPost2010PropOp48
 70
     1
102
RTVSPost2010Prop49
280
     0
102
RTVSPost2010PropOp49
 70
     1
102
RTVSPost2010Prop50
 90
       50
102
RTVSPost2010PropOp50
 70
     1
102
RTVSPost2010Prop51ColorIndex
 90
      256
102
RTVSPost2010Prop51ColorRGB
 90
-16777216
102
RTVSPost2010PropOp51
 70
     0
102
RTVSPost2010Prop52
140
1.0
102
RTVSPost2010PropOp52
 70
     0
102
RTVSPost2010Prop53
 90
        2
102
RTVSPost2010PropOp53
 70
     1
102
RTVSPost2010Prop54
  1
strokes_ogs.tif
102
RTVSPost2010PropOp54
 70
     1
102
RTVSPost2010Prop55
280
     0
102
RTVSPost2010PropOp55
 70
     1
102
RTVSPost2010Prop56
140
1.0
102
RTVSPost2010PropOp56
 70
     1
102
RTVSPost2010Prop57
140
1.0
102
RTVSPost2010PropOp57
 70
     1
  0
XRECORD
  5
2DA
102
{ACAD_REACTORS
330
2D9
102
}
330
2D9
100
AcDbXrecord
280
     1
102
RTVSPost2010Prop28
280
     0
102
RTVSPost2010PropOp28
 70
     1
102
RTVSPost2010Prop29
280
     1
102
RTVSPost2010PropOp29
 70
     1
102
RTVSPost2010Prop30
280
     1
102
RTVSPost2010PropOp30
 70
     1
102
RTVSPost2010Prop31
280
     0
102
RTVSPost2010PropOp31
 70
     1
102
RTVSPost2010Prop32
280
     0
102
RTVSPost2010PropOp32
 70
     1
102
RTVSPost2010Prop33
280
     0
102
RTVSPost2010PropOp33
 70
     1
102
RTVSPost2010Prop34
280
     0
102
RTVSPost2010PropOp34
 70
     1
102
RTVSPost2010Prop35
280
     0
102
RTVSPost2010PropOp35
 70
     1
102
RTVSPost2010Prop36
280
     0
102
RTVSPost2010PropOp36
 70
     1
102
RTVSPost2010Prop37
 90
       50
102
RTVSPost2010PropOp37
 70
     1
102
RTVSPost2010Prop38
140
0.0
102
RTVSPost2010PropOp38
 70
     1
102
RTVSPost2010Prop39
140
1.0
102
RTVSPost2010PropOp39
 70
     1
102
RTVSPost2010Prop40
 90
        0
102
RTVSPost2010PropOp40
 70
     1
102
RTVSPost2010Prop41ColorIndex
 90
       18
102
RTVSPost2010Prop41ColorRGB
 90
        0
102
RTVSPost2010PropOp41
 70
     1
102
RTVSPost2010Prop42
 90
       50
102
RTVSPost2010PropOp42
 70
     1
102
RTVSPost2010Prop43
 90
        3
102
RTVSPost2010PropOp43
 70
     1
102
RTVSPost2010Prop44ColorIndex
 90
        5
102
RTVSPost2010Prop44ColorRGB
 90
      255
102
RTVSPost2010PropOp44
 70
     1
102
RTVSPost2010Prop45
280
     0
102
RTVSPost2010PropOp45
 70
     1
102
RTVSPost2010Prop46
 90
       50
102
RTVSPost2010PropOp46
 70
     1
102
RTVSPost2010Prop47
 90
       50
102
RTVSPost2010PropOp47
 70
     1
102
RTVSPost2010Prop48
 90
       50
102
RTVSPost2010PropOp48
 70
     1
102
RTVSPost2010Prop49
280
     0
102
RTVSPost2010PropOp49
 70
     1
102
RTVSPost2010Prop50
 90
       50
102
RTVSPost2010PropOp50
 70
     1
102
RTVSPost2010Prop51ColorIndex
 90
      256
102
RTVSPost2010Prop51ColorRGB
 90
-16777216
102
RTVSPost2010PropOp51
 70
     0
102
RTVSPost2010Prop52
140
1.0
102
RTVSPost2010PropOp52
 70
     0
102
RTVSPost2010Prop53
 90
        2
102
RTVSPost2010PropOp53
 70
     1
102
RTVSPost2010Prop54
  1
strokes_ogs.tif
102
RTVSPost2010PropOp54
 70
     1
102
RTVSPost2010Prop55
280
     0
102
RTVSPost2010PropOp55
 70
     1
102
RTVSPost2010Prop56
140
1.0
102
RTVSPost2010PropOp56
 70
     1
102
RTVSPost2010Prop57
140
1.0
102
RTVSPost2010PropOp57
 70
     1
  0
XRECORD
  5
2DC
102
{ACAD_REACTORS
330
2DB
102
}
330
2DB
100
AcDbXrecord
280
     1
102
RTVSPost2010Prop28
280
     0
102
RTVSPost2010PropOp28
 70
     1
102
RTVSPost2010Prop29
280
     1
102
RTVSPost2010PropOp29
 70
     1
102
RTVSPost2010Prop30
280
     1
102
RTVSPost2010PropOp30
 70
     1
102
RTVSPost2010Prop31
280
     0
102
RTVSPost2010PropOp31
 70
     1
102
RTVSPost2010Prop32
280
     0
102
RTVSPost2010PropOp32
 70
     1
102
RTVSPost2010Prop33
280
     0
102
RTVSPost2010PropOp33
 70
     1
102
RTVSPost2010Prop34
280
     0
102
RTVSPost2010PropOp34
 70
     1
102
RTVSPost2010Prop35
280
     0
102
RTVSPost2010PropOp35
 70
     1
102
RTVSPost2010Prop36
280
     0
102
RTVSPost2010PropOp36
 70
     1
102
RTVSPost2010Prop37
 90
       50
102
RTVSPost2010PropOp37
 70
     1
102
RTVSPost2010Prop38
140
0.0
102
RTVSPost2010PropOp38
 70
     1
102
RTVSPost2010Prop39
140
1.0
102
RTVSPost2010PropOp39
 70
     1
102
RTVSPost2010Prop40
 90
        0
102
RTVSPost2010PropOp40
 70
     1
102
RTVSPost2010Prop41ColorIndex
 90
       18
102
RTVSPost2010Prop41ColorRGB
 90
        0
102
RTVSPost2010PropOp41
 70
     1
102
RTVSPost2010Prop42
 90
       50
102
RTVSPost2010PropOp42
 70
     1
102
RTVSPost2010Prop43
 90
        3
102
RTVSPost2010PropOp43
 70
     1
102
RTVSPost2010Prop44ColorIndex
 90
        5
102
RTVSPost2010Prop44ColorRGB
 90
      255
102
RTVSPost2010PropOp44
 70
     1
102
RTVSPost2010Prop45
280
     0
102
RTVSPost2010PropOp45
 70
     1
102
RTVSPost2010Prop46
 90
       50
102
RTVSPost2010PropOp46
 70
     1
102
RTVSPost2010Prop47
 90
       50
102
RTVSPost2010PropOp47
 70
     1
102
RTVSPost2010Prop48
 90
       50
102
RTVSPost2010PropOp48
 70
     1
102
RTVSPost2010Prop49
280
     0
102
RTVSPost2010PropOp49
 70
     1
102
RTVSPost2010Prop50
 90
       50
102
RTVSPost2010PropOp50
 70
     1
102
RTVSPost2010Prop51ColorIndex
 90
      256
102
RTVSPost2010Prop51ColorRGB
 90
-16777216
102
RTVSPost2010PropOp51
 70
     0
102
RTVSPost2010Prop52
140
1.0
102
RTVSPost2010PropOp52
 70
     0
102
RTVSPost2010Prop53
 90
        2
102
RTVSPost2010PropOp53
 70
     1
102
RTVSPost2010Prop54
  1
strokes_ogs.tif
102
RTVSPost2010PropOp54
 70
     1
102
RTVSPost2010Prop55
280
     0
102
RTVSPost2010PropOp55
 70
     1
102
RTVSPost2010Prop56
140
1.0
102
RTVSPost2010PropOp56
 70
     1
102
RTVSPost2010Prop57
140
1.0
102
RTVSPost2010PropOp57
 70
     1
  0
XRECORD
  5
2EC
102
{ACAD_REACTORS
330
2EB
102
}
330
2EB
100
AcDbXrecord
280
     1
102
RTVSPost2010Prop28
280
     0
102
RTVSPost2010PropOp28
 70
     0
102
RTVSPost2010Prop29
280
     1
102
RTVSPost2010PropOp29
 70
     0
102
RTVSPost2010Prop30
280
     1
102
RTVSPost2010PropOp30
 70
     0
102
RTVSPost2010Prop31
280
     0
102
RTVSPost2010PropOp31
 70
     0
102
RTVSPost2010Prop32
280
     0
102
RTVSPost2010PropOp32
 70
     0
102
RTVSPost2010Prop33
280
     0
102
RTVSPost2010PropOp33
 70
     0
102
RTVSPost2010Prop34
280
     0
102
RTVSPost2010PropOp34
 70
     0
102
RTVSPost2010Prop35
280
     0
102
RTVSPost2010PropOp35
 70
     0
102
RTVSPost2010Prop36
280
     0
102
RTVSPost2010PropOp36
 70
     0
102
RTVSPost2010Prop37
 90
       50
102
RTVSPost2010PropOp37
 70
     0
102
RTVSPost2010Prop38
140
0.0
102
RTVSPost2010PropOp38
 70
     0
102
RTVSPost2010Prop39
140
1.0
102
RTVSPost2010PropOp39
 70
     0
102
RTVSPost2010Prop40
 90
        0
102
RTVSPost2010PropOp40
 70
     0
102
RTVSPost2010Prop41ColorIndex
 90
       18
102
RTVSPost2010Prop41ColorRGB
 90
        0
102
RTVSPost2010PropOp41
 70
     0
102
RTVSPost2010Prop42
 90
       50
102
RTVSPost2010PropOp42
 70
     0
102
RTVSPost2010Prop43
 90
        3
102
RTVSPost2010PropOp43
 70
     0
102
RTVSPost2010Prop44ColorIndex
 90
        5
102
RTVSPost2010Prop44ColorRGB
 90
      255
102
RTVSPost2010PropOp44
 70
     0
102
RTVSPost2010Prop45
280
     0
102
RTVSPost2010PropOp45
 70
     0
102
RTVSPost2010Prop46
 90
       50
102
RTVSPost2010PropOp46
 70
     0
102
RTVSPost2010Prop47
 90
       50
102
RTVSPost2010PropOp47
 70
     0
102
RTVSPost2010Prop48
 90
       50
102
RTVSPost2010PropOp48
 70
     0
102
RTVSPost2010Prop49
280
     0
102
RTVSPost2010PropOp49
 70
     0
102
RTVSPost2010Prop50
 90
       50
102
RTVSPost2010PropOp50
 70
     0
102
RTVSPost2010Prop51ColorIndex
 90
      256
102
RTVSPost2010Prop51ColorRGB
 90
-16777216
102
RTVSPost2010PropOp51
 70
     0
102
RTVSPost2010Prop52
140
1.0
102
RTVSPost2010PropOp52
 70
     0
102
RTVSPost2010Prop53
 90
        2
102
RTVSPost2010PropOp53
 70
     0
102
RTVSPost2010Prop54
  1
strokes_ogs.tif
102
RTVSPost2010PropOp54
 70
     0
102
RTVSPost2010Prop55
280
     0
102
RTVSPost2010PropOp55
 70
     0
102
RTVSPost2010Prop56
140
1.0
102
RTVSPost2010PropOp56
 70
     0
102
RTVSPost2010Prop57
140
1.0
102
RTVSPost2010PropOp57
 70
     0
  0
XRECORD
  5
2E4
102
{ACAD_REACTORS
330
2E3
102
}
330
2E3
100
AcDbXrecord
280
     1
102
RTVSPost2010Prop28
280
     0
102
RTVSPost2010PropOp28
 70
     1
102
RTVSPost2010Prop29
280
     1
102
RTVSPost2010PropOp29
 70
     1
102
RTVSPost2010Prop30
280
     1
102
RTVSPost2010PropOp30
 70
     1
102
RTVSPost2010Prop31
280
     0
102
RTVSPost2010PropOp31
 70
     1
102
RTVSPost2010Prop32
280
     0
102
RTVSPost2010PropOp32
 70
     1
102
RTVSPost2010Prop33
280
     0
102
RTVSPost2010PropOp33
 70
     1
102
RTVSPost2010Prop34
280
     0
102
RTVSPost2010PropOp34
 70
     1
102
RTVSPost2010Prop35
280
     0
102
RTVSPost2010PropOp35
 70
     1
102
RTVSPost2010Prop36
280
     0
102
RTVSPost2010PropOp36
 70
     1
102
RTVSPost2010Prop37
 90
       50
102
RTVSPost2010PropOp37
 70
     1
102
RTVSPost2010Prop38
140
0.0
102
RTVSPost2010PropOp38
 70
     1
102
RTVSPost2010Prop39
140
1.0
102
RTVSPost2010PropOp39
 70
     1
102
RTVSPost2010Prop40
 90
        0
102
RTVSPost2010PropOp40
 70
     1
102
RTVSPost2010Prop41ColorIndex
 90
       18
102
RTVSPost2010Prop41ColorRGB
 90
        0
102
RTVSPost2010PropOp41
 70
     1
102
RTVSPost2010Prop42
 90
       50
102
RTVSPost2010PropOp42
 70
     1
102
RTVSPost2010Prop43
 90
        3
102
RTVSPost2010PropOp43
 70
     1
102
RTVSPost2010Prop44ColorIndex
 90
        5
102
RTVSPost2010Prop44ColorRGB
 90
      255
102
RTVSPost2010PropOp44
 70
     1
102
RTVSPost2010Prop45
280
     0
102
RTVSPost2010PropOp45
 70
     1
102
RTVSPost2010Prop46
 90
       50
102
RTVSPost2010PropOp46
 70
     1
102
RTVSPost2010Prop47
 90
       50
102
RTVSPost2010PropOp47
 70
     1
102
RTVSPost2010Prop48
 90
       50
102
RTVSPost2010PropOp48
 70
     1
102
RTVSPost2010Prop49
280
     0
102
RTVSPost2010PropOp49
 70
     1
102
RTVSPost2010Prop50
 90
       50
102
RTVSPost2010PropOp50
 70
     1
102
RTVSPost2010Prop51ColorIndex
 90
      256
102
RTVSPost2010Prop51ColorRGB
 90
-16777216
102
RTVSPost2010PropOp51
 70
     0
102
RTVSPost2010Prop52
140
1.0
102
RTVSPost2010PropOp52
 70
     0
102
RTVSPost2010Prop53
 90
        2
102
RTVSPost2010PropOp53
 70
     1
102
RTVSPost2010Prop54
  1
strokes_ogs.tif
102
RTVSPost2010PropOp54
 70
     1
102
RTVSPost2010Prop55
280
     0
102
RTVSPost2010PropOp55
 70
     1
102
RTVSPost2010Prop56
140
1.0
102
RTVSPost2010PropOp56
 70
     1
102
RTVSPost2010Prop57
140
1.0
102
RTVSPost2010PropOp57
 70
     1
  0
XRECORD
  5
2C8
102
{ACAD_REACTORS
330
2C7
102
}
330
2C7
100
AcDbXrecord
280
     1
102
RTVSPost2010Prop28
280
     0
102
RTVSPost2010PropOp28
 70
     1
102
RTVSPost2010Prop29
280
     1
102
RTVSPost2010PropOp29
 70
     1
102
RTVSPost2010Prop30
280
     1
102
RTVSPost2010PropOp30
 70
     1
102
RTVSPost2010Prop31
280
     0
102
RTVSPost2010PropOp31
 70
     1
102
RTVSPost2010Prop32
280
     0
102
RTVSPost2010PropOp32
 70
     1
102
RTVSPost2010Prop33
280
     0
102
RTVSPost2010PropOp33
 70
     1
102
RTVSPost2010Prop34
280
     0
102
RTVSPost2010PropOp34
 70
     1
102
RTVSPost2010Prop35
280
     0
102
RTVSPost2010PropOp35
 70
     1
102
RTVSPost2010Prop36
280
     0
102
RTVSPost2010PropOp36
 70
     1
102
RTVSPost2010Prop37
 90
       50
102
RTVSPost2010PropOp37
 70
     1
102
RTVSPost2010Prop38
140
0.0
102
RTVSPost2010PropOp38
 70
     1
102
RTVSPost2010Prop39
140
1.0
102
RTVSPost2010PropOp39
 70
     1
102
RTVSPost2010Prop40
 90
        0
102
RTVSPost2010PropOp40
 70
     1
102
RTVSPost2010Prop41ColorIndex
 90
       18
102
RTVSPost2010Prop41ColorRGB
 90
        0
102
RTVSPost2010PropOp41
 70
     1
102
RTVSPost2010Prop42
 90
       50
102
RTVSPost2010PropOp42
 70
     1
102
RTVSPost2010Prop43
 90
        3
102
RTVSPost2010PropOp43
 70
     1
102
RTVSPost2010Prop44ColorIndex
 90
        5
102
RTVSPost2010Prop44ColorRGB
 90
      255
102
RTVSPost2010PropOp44
 70
     1
102
RTVSPost2010Prop45
280
     0
102
RTVSPost2010PropOp45
 70
     1
102
RTVSPost2010Prop46
 90
       50
102
RTVSPost2010PropOp46
 70
     1
102
RTVSPost2010Prop47
 90
       50
102
RTVSPost2010PropOp47
 70
     1
102
RTVSPost2010Prop48
 90
       50
102
RTVSPost2010PropOp48
 70
     1
102
RTVSPost2010Prop49
280
     0
102
RTVSPost2010PropOp49
 70
     1
102
RTVSPost2010Prop50
 90
       50
102
RTVSPost2010PropOp50
 70
     1
102
RTVSPost2010Prop51ColorIndex
 90
      256
102
RTVSPost2010Prop51ColorRGB
 90
-16777216
102
RTVSPost2010PropOp51
 70
     0
102
RTVSPost2010Prop52
140
1.0
102
RTVSPost2010PropOp52
 70
     0
102
RTVSPost2010Prop53
 90
        2
102
RTVSPost2010PropOp53
 70
     1
102
RTVSPost2010Prop54
  1
strokes_ogs.tif
102
RTVSPost2010PropOp54
 70
     1
102
RTVSPost2010Prop55
280
     0
102
RTVSPost2010PropOp55
 70
     1
102
RTVSPost2010Prop56
140
1.0
102
RTVSPost2010PropOp56
 70
     1
102
RTVSPost2010Prop57
140
1.0
102
RTVSPost2010PropOp57
 70
     1
  0
XRECORD
  5
2CA
102
{ACAD_REACTORS
330
2C9
102
}
330
2C9
100
AcDbXrecord
280
     1
102
RTVSPost2010Prop28
280
     0
102
RTVSPost2010PropOp28
 70
     1
102
RTVSPost2010Prop29
280
     1
102
RTVSPost2010PropOp29
 70
     1
102
RTVSPost2010Prop30
280
     1
102
RTVSPost2010PropOp30
 70
     1
102
RTVSPost2010Prop31
280
     0
102
RTVSPost2010PropOp31
 70
     1
102
RTVSPost2010Prop32
280
     0
102
RTVSPost2010PropOp32
 70
     1
102
RTVSPost2010Prop33
280
     0
102
RTVSPost2010PropOp33
 70
     1
102
RTVSPost2010Prop34
280
     0
102
RTVSPost2010PropOp34
 70
     1
102
RTVSPost2010Prop35
280
     0
102
RTVSPost2010PropOp35
 70
     1
102
RTVSPost2010Prop36
280
     0
102
RTVSPost2010PropOp36
 70
     1
102
RTVSPost2010Prop37
 90
       50
102
RTVSPost2010PropOp37
 70
     1
102
RTVSPost2010Prop38
140
0.0
102
RTVSPost2010PropOp38
 70
     1
102
RTVSPost2010Prop39
140
1.0
102
RTVSPost2010PropOp39
 70
     1
102
RTVSPost2010Prop40
 90
        0
102
RTVSPost2010PropOp40
 70
     1
102
RTVSPost2010Prop41ColorIndex
 90
       18
102
RTVSPost2010Prop41ColorRGB
 90
        0
102
RTVSPost2010PropOp41
 70
     1
102
RTVSPost2010Prop42
 90
       50
102
RTVSPost2010PropOp42
 70
     1
102
RTVSPost2010Prop43
 90
        3
102
RTVSPost2010PropOp43
 70
     1
102
RTVSPost2010Prop44ColorIndex
 90
        5
102
RTVSPost2010Prop44ColorRGB
 90
      255
102
RTVSPost2010PropOp44
 70
     1
102
RTVSPost2010Prop45
280
     0
102
RTVSPost2010PropOp45
 70
     1
102
RTVSPost2010Prop46
 90
       50
102
RTVSPost2010PropOp46
 70
     1
102
RTVSPost2010Prop47
 90
       50
102
RTVSPost2010PropOp47
 70
     1
102
RTVSPost2010Prop48
 90
       50
102
RTVSPost2010PropOp48
 70
     1
102
RTVSPost2010Prop49
280
     0
102
RTVSPost2010PropOp49
 70
     1
102
RTVSPost2010Prop50
 90
       50
102
RTVSPost2010PropOp50
 70
     1
102
RTVSPost2010Prop51ColorIndex
 90
      256
102
RTVSPost2010Prop51ColorRGB
 90
-16777216
102
RTVSPost2010PropOp51
 70
     0
102
RTVSPost2010Prop52
140
1.0
102
RTVSPost2010PropOp52
 70
     0
102
RTVSPost2010Prop53
 90
        2
102
RTVSPost2010PropOp53
 70
     1
102
RTVSPost2010Prop54
  1
strokes_ogs.tif
102
RTVSPost2010PropOp54
 70
     1
102
RTVSPost2010Prop55
280
     0
102
RTVSPost2010PropOp55
 70
     1
102
RTVSPost2010Prop56
140
1.0
102
RTVSPost2010PropOp56
 70
     1
102
RTVSPost2010Prop57
140
1.0
102
RTVSPost2010PropOp57
 70
     1
  0
XRECORD
  5
2CC
102
{ACAD_REACTORS
330
2CB
102
}
330
2CB
100
AcDbXrecord
280
     1
102
RTVSPost2010Prop28
280
     0
102
RTVSPost2010PropOp28
 70
     1
102
RTVSPost2010Prop29
280
     1
102
RTVSPost2010PropOp29
 70
     1
102
RTVSPost2010Prop30
280
     1
102
RTVSPost2010PropOp30
 70
     1
102
RTVSPost2010Prop31
280
     0
102
RTVSPost2010PropOp31
 70
     1
102
RTVSPost2010Prop32
280
     0
102
RTVSPost2010PropOp32
 70
     1
102
RTVSPost2010Prop33
280
     0
102
RTVSPost2010PropOp33
 70
     1
102
RTVSPost2010Prop34
280
     0
102
RTVSPost2010PropOp34
 70
     1
102
RTVSPost2010Prop35
280
     0
102
RTVSPost2010PropOp35
 70
     1
102
RTVSPost2010Prop36
280
     0
102
RTVSPost2010PropOp36
 70
     1
102
RTVSPost2010Prop37
 90
       50
102
RTVSPost2010PropOp37
 70
     1
102
RTVSPost2010Prop38
140
0.0
102
RTVSPost2010PropOp38
 70
     1
102
RTVSPost2010Prop39
140
1.0
102
RTVSPost2010PropOp39
 70
     1
102
RTVSPost2010Prop40
 90
        0
102
RTVSPost2010PropOp40
 70
     1
102
RTVSPost2010Prop41ColorIndex
 90
       18
102
RTVSPost2010Prop41ColorRGB
 90
        0
102
RTVSPost2010PropOp41
 70
     1
102
RTVSPost2010Prop42
 90
       50
102
RTVSPost2010PropOp42
 70
     1
102
RTVSPost2010Prop43
 90
        3
102
RTVSPost2010PropOp43
 70
     1
102
RTVSPost2010Prop44ColorIndex
 90
        5
102
RTVSPost2010Prop44ColorRGB
 90
      255
102
RTVSPost2010PropOp44
 70
     1
102
RTVSPost2010Prop45
280
     0
102
RTVSPost2010PropOp45
 70
     1
102
RTVSPost2010Prop46
 90
       50
102
RTVSPost2010PropOp46
 70
     1
102
RTVSPost2010Prop47
 90
       50
102
RTVSPost2010PropOp47
 70
     1
102
RTVSPost2010Prop48
 90
       50
102
RTVSPost2010PropOp48
 70
     1
102
RTVSPost2010Prop49
280
     0
102
RTVSPost2010PropOp49
 70
     1
102
RTVSPost2010Prop50
 90
       50
102
RTVSPost2010PropOp50
 70
     1
102
RTVSPost2010Prop51ColorIndex
 90
      256
102
RTVSPost2010Prop51ColorRGB
 90
-16777216
102
RTVSPost2010PropOp51
 70
     0
102
RTVSPost2010Prop52
140
1.0
102
RTVSPost2010PropOp52
 70
     0
102
RTVSPost2010Prop53
 90
        2
102
RTVSPost2010PropOp53
 70
     1
102
RTVSPost2010Prop54
  1
strokes_ogs.tif
102
RTVSPost2010PropOp54
 70
     1
102
RTVSPost2010Prop55
280
     0
102
RTVSPost2010PropOp55
 70
     1
102
RTVSPost2010Prop56
140
1.0
102
RTVSPost2010PropOp56
 70
     1
102
RTVSPost2010Prop57
140
1.0
102
RTVSPost2010PropOp57
 70
     1
  0
XRECORD
  5
2CE
102
{ACAD_REACTORS
330
2CD
102
}
330
2CD
100
AcDbXrecord
280
     1
102
RTVSPost2010Prop28
280
     0
102
RTVSPost2010PropOp28
 70
     1
102
RTVSPost2010Prop29
280
     1
102
RTVSPost2010PropOp29
 70
     1
102
RTVSPost2010Prop30
280
     1
102
RTVSPost2010PropOp30
 70
     1
102
RTVSPost2010Prop31
280
     0
102
RTVSPost2010PropOp31
 70
     1
102
RTVSPost2010Prop32
280
     0
102
RTVSPost2010PropOp32
 70
     1
102
RTVSPost2010Prop33
280
     0
102
RTVSPost2010PropOp33
 70
     1
102
RTVSPost2010Prop34
280
     0
102
RTVSPost2010PropOp34
 70
     1
102
RTVSPost2010Prop35
280
     0
102
RTVSPost2010PropOp35
 70
     1
102
RTVSPost2010Prop36
280
     0
102
RTVSPost2010PropOp36
 70
     1
102
RTVSPost2010Prop37
 90
       50
102
RTVSPost2010PropOp37
 70
     1
102
RTVSPost2010Prop38
140
0.0
102
RTVSPost2010PropOp38
 70
     1
102
RTVSPost2010Prop39
140
1.0
102
RTVSPost2010PropOp39
 70
     1
102
RTVSPost2010Prop40
 90
        0
102
RTVSPost2010PropOp40
 70
     1
102
RTVSPost2010Prop41ColorIndex
 90
       18
102
RTVSPost2010Prop41ColorRGB
 90
        0
102
RTVSPost2010PropOp41
 70
     1
102
RTVSPost2010Prop42
 90
       50
102
RTVSPost2010PropOp42
 70
     1
102
RTVSPost2010Prop43
 90
        3
102
RTVSPost2010PropOp43
 70
     1
102
RTVSPost2010Prop44ColorIndex
 90
        5
102
RTVSPost2010Prop44ColorRGB
 90
      255
102
RTVSPost2010PropOp44
 70
     1
102
RTVSPost2010Prop45
280
     0
102
RTVSPost2010PropOp45
 70
     1
102
RTVSPost2010Prop46
 90
       50
102
RTVSPost2010PropOp46
 70
     1
102
RTVSPost2010Prop47
 90
       50
102
RTVSPost2010PropOp47
 70
     1
102
RTVSPost2010Prop48
 90
       50
102
RTVSPost2010PropOp48
 70
     1
102
RTVSPost2010Prop49
280
     0
102
RTVSPost2010PropOp49
 70
     1
102
RTVSPost2010Prop50
 90
       50
102
RTVSPost2010PropOp50
 70
     1
102
RTVSPost2010Prop51ColorIndex
 90
      256
102
RTVSPost2010Prop51ColorRGB
 90
-16777216
102
RTVSPost2010PropOp51
 70
     0
102
RTVSPost2010Prop52
140
1.0
102
RTVSPost2010PropOp52
 70
     0
102
RTVSPost2010Prop53
 90
        2
102
RTVSPost2010PropOp53
 70
     1
102
RTVSPost2010Prop54
  1
strokes_ogs.tif
102
RTVSPost2010PropOp54
 70
     1
102
RTVSPost2010Prop55
280
     0
102
RTVSPost2010PropOp55
 70
     1
102
RTVSPost2010Prop56
140
1.0
102
RTVSPost2010PropOp56
 70
     1
102
RTVSPost2010Prop57
140
1.0
102
RTVSPost2010PropOp57
 70
     1
  0
XRECORD
  5
2D4
102
{ACAD_REACTORS
330
2D3
102
}
330
2D3
100
AcDbXrecord
280
     1
102
RTVSPost2010Prop28
280
     0
102
RTVSPost2010PropOp28
 70
     1
102
RTVSPost2010Prop29
280
     1
102
RTVSPost2010PropOp29
 70
     1
102
RTVSPost2010Prop30
280
     1
102
RTVSPost2010PropOp30
 70
     1
102
RTVSPost2010Prop31
280
     0
102
RTVSPost2010PropOp31
 70
     1
102
RTVSPost2010Prop32
280
     0
102
RTVSPost2010PropOp32
 70
     1
102
RTVSPost2010Prop33
280
     0
102
RTVSPost2010PropOp33
 70
     1
102
RTVSPost2010Prop34
280
     0
102
RTVSPost2010PropOp34
 70
     1
102
RTVSPost2010Prop35
280
     0
102
RTVSPost2010PropOp35
 70
     1
102
RTVSPost2010Prop36
280
     0
102
RTVSPost2010PropOp36
 70
     1
102
RTVSPost2010Prop37
 90
       50
102
RTVSPost2010PropOp37
 70
     1
102
RTVSPost2010Prop38
140
0.0
102
RTVSPost2010PropOp38
 70
     1
102
RTVSPost2010Prop39
140
1.0
102
RTVSPost2010PropOp39
 70
     1
102
RTVSPost2010Prop40
 90
        0
102
RTVSPost2010PropOp40
 70
     1
102
RTVSPost2010Prop41ColorIndex
 90
       18
102
RTVSPost2010Prop41ColorRGB
 90
        0
102
RTVSPost2010PropOp41
 70
     1
102
RTVSPost2010Prop42
 90
       50
102
RTVSPost2010PropOp42
 70
     1
102
RTVSPost2010Prop43
 90
        3
102
RTVSPost2010PropOp43
 70
     1
102
RTVSPost2010Prop44ColorIndex
 90
        5
102
RTVSPost2010Prop44ColorRGB
 90
      255
102
RTVSPost2010PropOp44
 70
     1
102
RTVSPost2010Prop45
280
     0
102
RTVSPost2010PropOp45
 70
     1
102
RTVSPost2010Prop46
 90
       50
102
RTVSPost2010PropOp46
 70
     1
102
RTVSPost2010Prop47
 90
       50
102
RTVSPost2010PropOp47
 70
     1
102
RTVSPost2010Prop48
 90
       50
102
RTVSPost2010PropOp48
 70
     1
102
RTVSPost2010Prop49
280
     0
102
RTVSPost2010PropOp49
 70
     1
102
RTVSPost2010Prop50
 90
       50
102
RTVSPost2010PropOp50
 70
     1
102
RTVSPost2010Prop51ColorIndex
 90
      256
102
RTVSPost2010Prop51ColorRGB
 90
-16777216
102
RTVSPost2010PropOp51
 70
     0
102
RTVSPost2010Prop52
140
1.0
102
RTVSPost2010PropOp52
 70
     0
102
RTVSPost2010Prop53
 90
        2
102
RTVSPost2010PropOp53
 70
     1
102
RTVSPost2010Prop54
  1
strokes_ogs.tif
102
RTVSPost2010PropOp54
 70
     1
102
RTVSPost2010Prop55
280
     0
102
RTVSPost2010PropOp55
 70
     1
102
RTVSPost2010Prop56
140
1.0
102
RTVSPost2010PropOp56
 70
     1
102
RTVSPost2010Prop57
140
1.0
102
RTVSPost2010PropOp57
 70
     1
  0
XRECORD
  5
2E8
102
{ACAD_REACTORS
330
2E7
102
}
330
2E7
100
AcDbXrecord
280
     1
102
RTVSPost2010Prop28
280
     0
102
RTVSPost2010PropOp28
 70
     0
102
RTVSPost2010Prop29
280
     1
102
RTVSPost2010PropOp29
 70
     0
102
RTVSPost2010Prop30
280
     1
102
RTVSPost2010PropOp30
 70
     0
102
RTVSPost2010Prop31
280
     0
102
RTVSPost2010PropOp31
 70
     0
102
RTVSPost2010Prop32
280
     0
102
RTVSPost2010PropOp32
 70
     0
102
RTVSPost2010Prop33
280
     0
102
RTVSPost2010PropOp33
 70
     0
102
RTVSPost2010Prop34
280
     0
102
RTVSPost2010PropOp34
 70
     0
102
RTVSPost2010Prop35
280
     0
102
RTVSPost2010PropOp35
 70
     0
102
RTVSPost2010Prop36
280
     0
102
RTVSPost2010PropOp36
 70
     0
102
RTVSPost2010Prop37
 90
       50
102
RTVSPost2010PropOp37
 70
     0
102
RTVSPost2010Prop38
140
0.0
102
RTVSPost2010PropOp38
 70
     0
102
RTVSPost2010Prop39
140
1.0
102
RTVSPost2010PropOp39
 70
     0
102
RTVSPost2010Prop40
 90
        0
102
RTVSPost2010PropOp40
 70
     0
102
RTVSPost2010Prop41ColorIndex
 90
       18
102
RTVSPost2010Prop41ColorRGB
 90
        0
102
RTVSPost2010PropOp41
 70
     0
102
RTVSPost2010Prop42
 90
       50
102
RTVSPost2010PropOp42
 70
     0
102
RTVSPost2010Prop43
 90
        3
102
RTVSPost2010PropOp43
 70
     0
102
RTVSPost2010Prop44ColorIndex
 90
        5
102
RTVSPost2010Prop44ColorRGB
 90
      255
102
RTVSPost2010PropOp44
 70
     0
102
RTVSPost2010Prop45
280
     0
102
RTVSPost2010PropOp45
 70
     0
102
RTVSPost2010Prop46
 90
       50
102
RTVSPost2010PropOp46
 70
     0
102
RTVSPost2010Prop47
 90
       50
102
RTVSPost2010PropOp47
 70
     0
102
RTVSPost2010Prop48
 90
       50
102
RTVSPost2010PropOp48
 70
     0
102
RTVSPost2010Prop49
280
     0
102
RTVSPost2010PropOp49
 70
     0
102
RTVSPost2010Prop50
 90
       50
102
RTVSPost2010PropOp50
 70
     0
102
RTVSPost2010Prop51ColorIndex
 90
      256
102
RTVSPost2010Prop51ColorRGB
 90
-16777216
102
RTVSPost2010PropOp51
 70
     0
102
RTVSPost2010Prop52
140
1.0
102
RTVSPost2010PropOp52
 70
     0
102
RTVSPost2010Prop53
 90
        2
102
RTVSPost2010PropOp53
 70
     0
102
RTVSPost2010Prop54
  1
strokes_ogs.tif
102
RTVSPost2010PropOp54
 70
     0
102
RTVSPost2010Prop55
280
     0
102
RTVSPost2010PropOp55
 70
     0
102
RTVSPost2010Prop56
140
1.0
102
RTVSPost2010PropOp56
 70
     0
102
RTVSPost2010Prop57
140
1.0
102
RTVSPost2010PropOp57
 70
     0
  0
XRECORD
  5
2E2
102
{ACAD_REACTORS
330
2E1
102
}
330
2E1
100
AcDbXrecord
280
     1
102
RTVSPost2010Prop28
280
     0
102
RTVSPost2010PropOp28
 70
     1
102
RTVSPost2010Prop29
280
     1
102
RTVSPost2010PropOp29
 70
     1
102
RTVSPost2010Prop30
280
     1
102
RTVSPost2010PropOp30
 70
     1
102
RTVSPost2010Prop31
280
     0
102
RTVSPost2010PropOp31
 70
     1
102
RTVSPost2010Prop32
280
     0
102
RTVSPost2010PropOp32
 70
     1
102
RTVSPost2010Prop33
280
     0
102
RTVSPost2010PropOp33
 70
     1
102
RTVSPost2010Prop34
280
     0
102
RTVSPost2010PropOp34
 70
     1
102
RTVSPost2010Prop35
280
     0
102
RTVSPost2010PropOp35
 70
     1
102
RTVSPost2010Prop36
280
     0
102
RTVSPost2010PropOp36
 70
     1
102
RTVSPost2010Prop37
 90
       50
102
RTVSPost2010PropOp37
 70
     1
102
RTVSPost2010Prop38
140
0.0
102
RTVSPost2010PropOp38
 70
     1
102
RTVSPost2010Prop39
140
1.0
102
RTVSPost2010PropOp39
 70
     1
102
RTVSPost2010Prop40
 90
        0
102
RTVSPost2010PropOp40
 70
     1
102
RTVSPost2010Prop41ColorIndex
 90
       18
102
RTVSPost2010Prop41ColorRGB
 90
        0
102
RTVSPost2010PropOp41
 70
     1
102
RTVSPost2010Prop42
 90
       50
102
RTVSPost2010PropOp42
 70
     1
102
RTVSPost2010Prop43
 90
        3
102
RTVSPost2010PropOp43
 70
     1
102
RTVSPost2010Prop44ColorIndex
 90
        5
102
RTVSPost2010Prop44ColorRGB
 90
      255
102
RTVSPost2010PropOp44
 70
     1
102
RTVSPost2010Prop45
280
     0
102
RTVSPost2010PropOp45
 70
     1
102
RTVSPost2010Prop46
 90
       50
102
RTVSPost2010PropOp46
 70
     1
102
RTVSPost2010Prop47
 90
       50
102
RTVSPost2010PropOp47
 70
     1
102
RTVSPost2010Prop48
 90
       50
102
RTVSPost2010PropOp48
 70
     1
102
RTVSPost2010Prop49
280
     0
102
RTVSPost2010PropOp49
 70
     1
102
RTVSPost2010Prop50
 90
       50
102
RTVSPost2010PropOp50
 70
     1
102
RTVSPost2010Prop51ColorIndex
 90
      256
102
RTVSPost2010Prop51ColorRGB
 90
-16777216
102
RTVSPost2010PropOp51
 70
     0
102
RTVSPost2010Prop52
140
1.0
102
RTVSPost2010PropOp52
 70
     0
102
RTVSPost2010Prop53
 90
        2
102
RTVSPost2010PropOp53
 70
     1
102
RTVSPost2010Prop54
  1
strokes_ogs.tif
102
RTVSPost2010PropOp54
 70
     1
102
RTVSPost2010Prop55
280
     0
102
RTVSPost2010PropOp55
 70
     1
102
RTVSPost2010Prop56
140
1.0
102
RTVSPost2010PropOp56
 70
     1
102
RTVSPost2010Prop57
140
1.0
102
RTVSPost2010PropOp57
 70
     1
  0
XRECORD
  5
2EA
102
{ACAD_REACTORS
330
2E9
102
}
330
2E9
100
AcDbXrecord
280
     1
102
RTVSPost2010Prop28
280
     0
102
RTVSPost2010PropOp28
 70
     0
102
RTVSPost2010Prop29
280
     1
102
RTVSPost2010PropOp29
 70
     0
102
RTVSPost2010Prop30
280
     1
102
RTVSPost2010PropOp30
 70
     0
102
RTVSPost2010Prop31
280
     0
102
RTVSPost2010PropOp31
 70
     0
102
RTVSPost2010Prop32
280
     0
102
RTVSPost2010PropOp32
 70
     0
102
RTVSPost2010Prop33
280
     0
102
RTVSPost2010PropOp33
 70
     0
102
RTVSPost2010Prop34
280
     0
102
RTVSPost2010PropOp34
 70
     0
102
RTVSPost2010Prop35
280
     0
102
RTVSPost2010PropOp35
 70
     0
102
RTVSPost2010Prop36
280
     0
102
RTVSPost2010PropOp36
 70
     0
102
RTVSPost2010Prop37
 90
       50
102
RTVSPost2010PropOp37
 70
     0
102
RTVSPost2010Prop38
140
0.0
102
RTVSPost2010PropOp38
 70
     0
102
RTVSPost2010Prop39
140
1.0
102
RTVSPost2010PropOp39
 70
     0
102
RTVSPost2010Prop40
 90
        0
102
RTVSPost2010PropOp40
 70
     0
102
RTVSPost2010Prop41ColorIndex
 90
       18
102
RTVSPost2010Prop41ColorRGB
 90
        0
102
RTVSPost2010PropOp41
 70
     0
102
RTVSPost2010Prop42
 90
       50
102
RTVSPost2010PropOp42
 70
     0
102
RTVSPost2010Prop43
 90
        3
102
RTVSPost2010PropOp43
 70
     0
102
RTVSPost2010Prop44ColorIndex
 90
        5
102
RTVSPost2010Prop44ColorRGB
 90
      255
102
RTVSPost2010PropOp44
 70
     0
102
RTVSPost2010Prop45
280
     0
102
RTVSPost2010PropOp45
 70
     0
102
RTVSPost2010Prop46
 90
       50
102
RTVSPost2010PropOp46
 70
     0
102
RTVSPost2010Prop47
 90
       50
102
RTVSPost2010PropOp47
 70
     0
102
RTVSPost2010Prop48
 90
       50
102
RTVSPost2010PropOp48
 70
     0
102
RTVSPost2010Prop49
280
     0
102
RTVSPost2010PropOp49
 70
     0
102
RTVSPost2010Prop50
 90
       50
102
RTVSPost2010PropOp50
 70
     0
102
RTVSPost2010Prop51ColorIndex
 90
      256
102
RTVSPost2010Prop51ColorRGB
 90
-16777216
102
RTVSPost2010PropOp51
 70
     0
102
RTVSPost2010Prop52
140
1.0
102
RTVSPost2010PropOp52
 70
     0
102
RTVSPost2010Prop53
 90
        2
102
RTVSPost2010PropOp53
 70
     0
102
RTVSPost2010Prop54
  1
strokes_ogs.tif
102
RTVSPost2010PropOp54
 70
     0
102
RTVSPost2010Prop55
280
     0
102
RTVSPost2010PropOp55
 70
     0
102
RTVSPost2010Prop56
140
1.0
102
RTVSPost2010PropOp56
 70
     0
102
RTVSPost2010Prop57
140
1.0
102
RTVSPost2010PropOp57
 70
     0
  0
XRECORD
  5
2D8
102
{ACAD_REACTORS
330
2D7
102
}
330
2D7
100
AcDbXrecord
280
     1
102
RTVSPost2010Prop28
280
     0
102
RTVSPost2010PropOp28
 70
     1
102
RTVSPost2010Prop29
280
     1
102
RTVSPost2010PropOp29
 70
     1
102
RTVSPost2010Prop30
280
     1
102
RTVSPost2010PropOp30
 70
     1
102
RTVSPost2010Prop31
280
     0
102
RTVSPost2010PropOp31
 70
     1
102
RTVSPost2010Prop32
280
     0
102
RTVSPost2010PropOp32
 70
     1
102
RTVSPost2010Prop33
280
     0
102
RTVSPost2010PropOp33
 70
     1
102
RTVSPost2010Prop34
280
     0
102
RTVSPost2010PropOp34
 70
     1
102
RTVSPost2010Prop35
280
     0
102
RTVSPost2010PropOp35
 70
     1
102
RTVSPost2010Prop36
280
     0
102
RTVSPost2010PropOp36
 70
     1
102
RTVSPost2010Prop37
 90
       50
102
RTVSPost2010PropOp37
 70
     1
102
RTVSPost2010Prop38
140
0.0
102
RTVSPost2010PropOp38
 70
     1
102
RTVSPost2010Prop39
140
1.0
102
RTVSPost2010PropOp39
 70
     1
102
RTVSPost2010Prop40
 90
        0
102
RTVSPost2010PropOp40
 70
     1
102
RTVSPost2010Prop41ColorIndex
 90
       18
102
RTVSPost2010Prop41ColorRGB
 90
        0
102
RTVSPost2010PropOp41
 70
     1
102
RTVSPost2010Prop42
 90
       50
102
RTVSPost2010PropOp42
 70
     1
102
RTVSPost2010Prop43
 90
        3
102
RTVSPost2010PropOp43
 70
     1
102
RTVSPost2010Prop44ColorIndex
 90
        5
102
RTVSPost2010Prop44ColorRGB
 90
      255
102
RTVSPost2010PropOp44
 70
     1
102
RTVSPost2010Prop45
280
     0
102
RTVSPost2010PropOp45
 70
     1
102
RTVSPost2010Prop46
 90
       50
102
RTVSPost2010PropOp46
 70
     1
102
RTVSPost2010Prop47
 90
       50
102
RTVSPost2010PropOp47
 70
     1
102
RTVSPost2010Prop48
 90
       50
102
RTVSPost2010PropOp48
 70
     1
102
RTVSPost2010Prop49
280
     0
102
RTVSPost2010PropOp49
 70
     1
102
RTVSPost2010Prop50
 90
       50
102
RTVSPost2010PropOp50
 70
     1
102
RTVSPost2010Prop51ColorIndex
 90
      256
102
RTVSPost2010Prop51ColorRGB
 90
-16777216
102
RTVSPost2010PropOp51
 70
     0
102
RTVSPost2010Prop52
140
1.0
102
RTVSPost2010PropOp52
 70
     0
102
RTVSPost2010Prop53
 90
        2
102
RTVSPost2010PropOp53
 70
     1
102
RTVSPost2010Prop54
  1
strokes_ogs.tif
102
RTVSPost2010PropOp54
 70
     1
102
RTVSPost2010Prop55
280
     0
102
RTVSPost2010PropOp55
 70
     1
102
RTVSPost2010Prop56
140
1.0
102
RTVSPost2010PropOp56
 70
     1
102
RTVSPost2010Prop57
140
1.0
102
RTVSPost2010PropOp57
 70
     1
  0
XRECORD
  5
2F6
102
{ACAD_REACTORS
330
2F5
102
}
330
2F5
100
AcDbXrecord
280
     1
102
RTVSPost2010Prop28
280
     0
102
RTVSPost2010PropOp28
 70
     1
102
RTVSPost2010Prop29
280
     1
102
RTVSPost2010PropOp29
 70
     1
102
RTVSPost2010Prop30
280
     1
102
RTVSPost2010PropOp30
 70
     1
102
RTVSPost2010Prop31
280
     0
102
RTVSPost2010PropOp31
 70
     1
102
RTVSPost2010Prop32
280
     0
102
RTVSPost2010PropOp32
 70
     1
102
RTVSPost2010Prop33
280
     0
102
RTVSPost2010PropOp33
 70
     1
102
RTVSPost2010Prop34
280
     0
102
RTVSPost2010PropOp34
 70
     1
102
RTVSPost2010Prop35
280
     0
102
RTVSPost2010PropOp35
 70
     1
102
RTVSPost2010Prop36
280
     0
102
RTVSPost2010PropOp36
 70
     1
102
RTVSPost2010Prop37
 90
       50
102
RTVSPost2010PropOp37
 70
     1
102
RTVSPost2010Prop38
140
0.0
102
RTVSPost2010PropOp38
 70
     1
102
RTVSPost2010Prop39
140
1.0
102
RTVSPost2010PropOp39
 70
     1
102
RTVSPost2010Prop40
 90
        0
102
RTVSPost2010PropOp40
 70
     1
102
RTVSPost2010Prop41ColorIndex
 90
       18
102
RTVSPost2010Prop41ColorRGB
 90
        0
102
RTVSPost2010PropOp41
 70
     1
102
RTVSPost2010Prop42
 90
       50
102
RTVSPost2010PropOp42
 70
     1
102
RTVSPost2010Prop43
 90
        3
102
RTVSPost2010PropOp43
 70
     1
102
RTVSPost2010Prop44ColorIndex
 90
        5
102
RTVSPost2010Prop44ColorRGB
 90
      255
102
RTVSPost2010PropOp44
 70
     1
102
RTVSPost2010Prop45
280
     0
102
RTVSPost2010PropOp45
 70
     1
102
RTVSPost2010Prop46
 90
       50
102
RTVSPost2010PropOp46
 70
     1
102
RTVSPost2010Prop47
 90
       50
102
RTVSPost2010PropOp47
 70
     1
102
RTVSPost2010Prop48
 90
       50
102
RTVSPost2010PropOp48
 70
     1
102
RTVSPost2010Prop49
280
     0
102
RTVSPost2010PropOp49
 70
     1
102
RTVSPost2010Prop50
 90
       50
102
RTVSPost2010PropOp50
 70
     1
102
RTVSPost2010Prop51ColorIndex
 90
      256
102
RTVSPost2010Prop51ColorRGB
 90
-16777216
102
RTVSPost2010PropOp51
 70
     0
102
RTVSPost2010Prop52
140
1.0
102
RTVSPost2010PropOp52
 70
     0
102
RTVSPost2010Prop53
 90
        2
102
RTVSPost2010PropOp53
 70
     1
102
RTVSPost2010Prop54
  1
strokes_ogs.tif
102
RTVSPost2010PropOp54
 70
     1
102
RTVSPost2010Prop55
280
     0
102
RTVSPost2010PropOp55
 70
     1
102
RTVSPost2010Prop56
140
1.0
102
RTVSPost2010PropOp56
 70
     1
102
RTVSPost2010Prop57
140
1.0
102
RTVSPost2010PropOp57
 70
     1
  0
XRECORD
  5
2F4
102
{ACAD_REACTORS
330
2F3
102
}
330
2F3
100
AcDbXrecord
280
     1
102
RTVSPost2010Prop28
280
     0
102
RTVSPost2010PropOp28
 70
     1
102
RTVSPost2010Prop29
280
     1
102
RTVSPost2010PropOp29
 70
     1
102
RTVSPost2010Prop30
280
     1
102
RTVSPost2010PropOp30
 70
     1
102
RTVSPost2010Prop31
280
     0
102
RTVSPost2010PropOp31
 70
     1
102
RTVSPost2010Prop32
280
     0
102
RTVSPost2010PropOp32
 70
     1
102
RTVSPost2010Prop33
280
     0
102
RTVSPost2010PropOp33
 70
     1
102
RTVSPost2010Prop34
280
     0
102
RTVSPost2010PropOp34
 70
     1
102
RTVSPost2010Prop35
280
     0
102
RTVSPost2010PropOp35
 70
     1
102
RTVSPost2010Prop36
280
     0
102
RTVSPost2010PropOp36
 70
     1
102
RTVSPost2010Prop37
 90
       50
102
RTVSPost2010PropOp37
 70
     1
102
RTVSPost2010Prop38
140
0.0
102
RTVSPost2010PropOp38
 70
     1
102
RTVSPost2010Prop39
140
1.0
102
RTVSPost2010PropOp39
 70
     1
102
RTVSPost2010Prop40
 90
        0
102
RTVSPost2010PropOp40
 70
     1
102
RTVSPost2010Prop41ColorIndex
 90
       18
102
RTVSPost2010Prop41ColorRGB
 90
        0
102
RTVSPost2010PropOp41
 70
     1
102
RTVSPost2010Prop42
 90
       50
102
RTVSPost2010PropOp42
 70
     1
102
RTVSPost2010Prop43
 90
        3
102
RTVSPost2010PropOp43
 70
     1
102
RTVSPost2010Prop44ColorIndex
 90
        5
102
RTVSPost2010Prop44ColorRGB
 90
      255
102
RTVSPost2010PropOp44
 70
     1
102
RTVSPost2010Prop45
280
     0
102
RTVSPost2010PropOp45
 70
     1
102
RTVSPost2010Prop46
 90
       50
102
RTVSPost2010PropOp46
 70
     1
102
RTVSPost2010Prop47
 90
       50
102
RTVSPost2010PropOp47
 70
     1
102
RTVSPost2010Prop48
 90
       50
102
RTVSPost2010PropOp48
 70
     1
102
RTVSPost2010Prop49
280
     0
102
RTVSPost2010PropOp49
 70
     1
102
RTVSPost2010Prop50
 90
       50
102
RTVSPost2010PropOp50
 70
     1
102
RTVSPost2010Prop51ColorIndex
 90
      256
102
RTVSPost2010Prop51ColorRGB
 90
-16777216
102
RTVSPost2010PropOp51
 70
     0
102
RTVSPost2010Prop52
140
1.0
102
RTVSPost2010PropOp52
 70
     0
102
RTVSPost2010Prop53
 90
        2
102
RTVSPost2010PropOp53
 70
     1
102
RTVSPost2010Prop54
  1
strokes_ogs.tif
102
RTVSPost2010PropOp54
 70
     1
102
RTVSPost2010Prop55
280
     0
102
RTVSPost2010PropOp55
 70
     1
102
RTVSPost2010Prop56
140
1.0
102
RTVSPost2010PropOp56
 70
     1
102
RTVSPost2010Prop57
140
1.0
102
RTVSPost2010PropOp57
 70
     1
  0
XRECORD
  5
2EE
102
{ACAD_REACTORS
330
2ED
102
}
330
2ED
100
AcDbXrecord
280
     1
102
RTVSPost2010Prop28
280
     0
102
RTVSPost2010PropOp28
 70
     1
102
RTVSPost2010Prop29
280
     1
102
RTVSPost2010PropOp29
 70
     1
102
RTVSPost2010Prop30
280
     1
102
RTVSPost2010PropOp30
 70
     1
102
RTVSPost2010Prop31
280
     0
102
RTVSPost2010PropOp31
 70
     1
102
RTVSPost2010Prop32
280
     0
102
RTVSPost2010PropOp32
 70
     1
102
RTVSPost2010Prop33
280
     0
102
RTVSPost2010PropOp33
 70
     1
102
RTVSPost2010Prop34
280
     0
102
RTVSPost2010PropOp34
 70
     1
102
RTVSPost2010Prop35
280
     0
102
RTVSPost2010PropOp35
 70
     1
102
RTVSPost2010Prop36
280
     0
102
RTVSPost2010PropOp36
 70
     1
102
RTVSPost2010Prop37
 90
       50
102
RTVSPost2010PropOp37
 70
     1
102
RTVSPost2010Prop38
140
0.0
102
RTVSPost2010PropOp38
 70
     1
102
RTVSPost2010Prop39
140
1.0
102
RTVSPost2010PropOp39
 70
     1
102
RTVSPost2010Prop40
 90
        0
102
RTVSPost2010PropOp40
 70
     1
102
RTVSPost2010Prop41ColorIndex
 90
       18
102
RTVSPost2010Prop41ColorRGB
 90
        0
102
RTVSPost2010PropOp41
 70
     1
102
RTVSPost2010Prop42
 90
       50
102
RTVSPost2010PropOp42
 70
     1
102
RTVSPost2010Prop43
 90
        3
102
RTVSPost2010PropOp43
 70
     1
102
RTVSPost2010Prop44ColorIndex
 90
        5
102
RTVSPost2010Prop44ColorRGB
 90
      255
102
RTVSPost2010PropOp44
 70
     1
102
RTVSPost2010Prop45
280
     0
102
RTVSPost2010PropOp45
 70
     1
102
RTVSPost2010Prop46
 90
       50
102
RTVSPost2010PropOp46
 70
     1
102
RTVSPost2010Prop47
 90
       50
102
RTVSPost2010PropOp47
 70
     1
102
RTVSPost2010Prop48
 90
       50
102
RTVSPost2010PropOp48
 70
     1
102
RTVSPost2010Prop49
280
     0
102
RTVSPost2010PropOp49
 70
     1
102
RTVSPost2010Prop50
 90
       50
102
RTVSPost2010PropOp50
 70
     1
102
RTVSPost2010Prop51ColorIndex
 90
      256
102
RTVSPost2010Prop51ColorRGB
 90
-16777216
102
RTVSPost2010PropOp51
 70
     0
102
RTVSPost2010Prop52
140
1.0
102
RTVSPost2010PropOp52
 70
     0
102
RTVSPost2010Prop53
 90
        2
102
RTVSPost2010PropOp53
 70
     1
102
RTVSPost2010Prop54
  1
strokes_ogs.tif
102
RTVSPost2010PropOp54
 70
     1
102
RTVSPost2010Prop55
280
     0
102
RTVSPost2010PropOp55
 70
     1
102
RTVSPost2010Prop56
140
1.0
102
RTVSPost2010PropOp56
 70
     1
102
RTVSPost2010Prop57
140
1.0
102
RTVSPost2010PropOp57
 70
     1
  0
XRECORD
  5
2F0
102
{ACAD_REACTORS
330
2EF
102
}
330
2EF
100
AcDbXrecord
280
     1
102
RTVSPost2010Prop28
280
     0
102
RTVSPost2010PropOp28
 70
     1
102
RTVSPost2010Prop29
280
     1
102
RTVSPost2010PropOp29
 70
     1
102
RTVSPost2010Prop30
280
     1
102
RTVSPost2010PropOp30
 70
     1
102
RTVSPost2010Prop31
280
     0
102
RTVSPost2010PropOp31
 70
     1
102
RTVSPost2010Prop32
280
     0
102
RTVSPost2010PropOp32
 70
     1
102
RTVSPost2010Prop33
280
     0
102
RTVSPost2010PropOp33
 70
     1
102
RTVSPost2010Prop34
280
     0
102
RTVSPost2010PropOp34
 70
     1
102
RTVSPost2010Prop35
280
     0
102
RTVSPost2010PropOp35
 70
     1
102
RTVSPost2010Prop36
280
     0
102
RTVSPost2010PropOp36
 70
     1
102
RTVSPost2010Prop37
 90
       50
102
RTVSPost2010PropOp37
 70
     1
102
RTVSPost2010Prop38
140
0.0
102
RTVSPost2010PropOp38
 70
     1
102
RTVSPost2010Prop39
140
1.0
102
RTVSPost2010PropOp39
 70
     1
102
RTVSPost2010Prop40
 90
        0
102
RTVSPost2010PropOp40
 70
     1
102
RTVSPost2010Prop41ColorIndex
 90
       18
102
RTVSPost2010Prop41ColorRGB
 90
        0
102
RTVSPost2010PropOp41
 70
     1
102
RTVSPost2010Prop42
 90
       50
102
RTVSPost2010PropOp42
 70
     1
102
RTVSPost2010Prop43
 90
        3
102
RTVSPost2010PropOp43
 70
     1
102
RTVSPost2010Prop44ColorIndex
 90
        5
102
RTVSPost2010Prop44ColorRGB
 90
      255
102
RTVSPost2010PropOp44
 70
     1
102
RTVSPost2010Prop45
280
     0
102
RTVSPost2010PropOp45
 70
     1
102
RTVSPost2010Prop46
 90
       50
102
RTVSPost2010PropOp46
 70
     1
102
RTVSPost2010Prop47
 90
       50
102
RTVSPost2010PropOp47
 70
     1
102
RTVSPost2010Prop48
 90
       50
102
RTVSPost2010PropOp48
 70
     1
102
RTVSPost2010Prop49
280
     0
102
RTVSPost2010PropOp49
 70
     1
102
RTVSPost2010Prop50
 90
       50
102
RTVSPost2010PropOp50
 70
     1
102
RTVSPost2010Prop51ColorIndex
 90
      256
102
RTVSPost2010Prop51ColorRGB
 90
-16777216
102
RTVSPost2010PropOp51
 70
     0
102
RTVSPost2010Prop52
140
1.0
102
RTVSPost2010PropOp52
 70
     0
102
RTVSPost2010Prop53
 90
        2
102
RTVSPost2010PropOp53
 70
     1
102
RTVSPost2010Prop54
  1
strokes_ogs.tif
102
RTVSPost2010PropOp54
 70
     1
102
RTVSPost2010Prop55
280
     0
102
RTVSPost2010PropOp55
 70
     1
102
RTVSPost2010Prop56
140
1.0
102
RTVSPost2010PropOp56
 70
     1
102
RTVSPost2010Prop57
140
1.0
102
RTVSPost2010PropOp57
 70
     1
  0
XRECORD
  5
2E0
102
{ACAD_REACTORS
330
2DF
102
}
330
2DF
100
AcDbXrecord
280
     1
102
RTVSPost2010Prop28
280
     0
102
RTVSPost2010PropOp28
 70
     1
102
RTVSPost2010Prop29
280
     1
102
RTVSPost2010PropOp29
 70
     1
102
RTVSPost2010Prop30
280
     1
102
RTVSPost2010PropOp30
 70
     1
102
RTVSPost2010Prop31
280
     0
102
RTVSPost2010PropOp31
 70
     1
102
RTVSPost2010Prop32
280
     0
102
RTVSPost2010PropOp32
 70
     1
102
RTVSPost2010Prop33
280
     0
102
RTVSPost2010PropOp33
 70
     1
102
RTVSPost2010Prop34
280
     0
102
RTVSPost2010PropOp34
 70
     1
102
RTVSPost2010Prop35
280
     0
102
RTVSPost2010PropOp35
 70
     1
102
RTVSPost2010Prop36
280
     0
102
RTVSPost2010PropOp36
 70
     1
102
RTVSPost2010Prop37
 90
       50
102
RTVSPost2010PropOp37
 70
     1
102
RTVSPost2010Prop38
140
0.0
102
RTVSPost2010PropOp38
 70
     1
102
RTVSPost2010Prop39
140
1.0
102
RTVSPost2010PropOp39
 70
     1
102
RTVSPost2010Prop40
 90
        0
102
RTVSPost2010PropOp40
 70
     1
102
RTVSPost2010Prop41ColorIndex
 90
       18
102
RTVSPost2010Prop41ColorRGB
 90
        0
102
RTVSPost2010PropOp41
 70
     1
102
RTVSPost2010Prop42
 90
       50
102
RTVSPost2010PropOp42
 70
     1
102
RTVSPost2010Prop43
 90
        3
102
RTVSPost2010PropOp43
 70
     1
102
RTVSPost2010Prop44ColorIndex
 90
        5
102
RTVSPost2010Prop44ColorRGB
 90
      255
102
RTVSPost2010PropOp44
 70
     1
102
RTVSPost2010Prop45
280
     0
102
RTVSPost2010PropOp45
 70
     1
102
RTVSPost2010Prop46
 90
       50
102
RTVSPost2010PropOp46
 70
     1
102
RTVSPost2010Prop47
 90
       50
102
RTVSPost2010PropOp47
 70
     1
102
RTVSPost2010Prop48
 90
       50
102
RTVSPost2010PropOp48
 70
     1
102
RTVSPost2010Prop49
280
     0
102
RTVSPost2010PropOp49
 70
     1
102
RTVSPost2010Prop50
 90
       50
102
RTVSPost2010PropOp50
 70
     1
102
RTVSPost2010Prop51ColorIndex
 90
      256
102
RTVSPost2010Prop51ColorRGB
 90
-16777216
102
RTVSPost2010PropOp51
 70
     0
102
RTVSPost2010Prop52
140
1.0
102
RTVSPost2010PropOp52
 70
     0
102
RTVSPost2010Prop53
 90
        2
102
RTVSPost2010PropOp53
 70
     1
102
RTVSPost2010Prop54
  1
strokes_ogs.tif
102
RTVSPost2010PropOp54
 70
     1
102
RTVSPost2010Prop55
280
     0
102
RTVSPost2010PropOp55
 70
     1
102
RTVSPost2010Prop56
140
1.0
102
RTVSPost2010PropOp56
 70
     1
102
RTVSPost2010Prop57
140
1.0
102
RTVSPost2010PropOp57
 70
     1
  0
XRECORD
  5
2D2
102
{ACAD_REACTORS
330
2D1
102
}
330
2D1
100
AcDbXrecord
280
     1
102
RTVSPost2010Prop28
280
     0
102
RTVSPost2010PropOp28
 70
     1
102
RTVSPost2010Prop29
280
     1
102
RTVSPost2010PropOp29
 70
     1
102
RTVSPost2010Prop30
280
     1
102
RTVSPost2010PropOp30
 70
     1
102
RTVSPost2010Prop31
280
     0
102
RTVSPost2010PropOp31
 70
     1
102
RTVSPost2010Prop32
280
     0
102
RTVSPost2010PropOp32
 70
     1
102
RTVSPost2010Prop33
280
     0
102
RTVSPost2010PropOp33
 70
     1
102
RTVSPost2010Prop34
280
     0
102
RTVSPost2010PropOp34
 70
     1
102
RTVSPost2010Prop35
280
     0
102
RTVSPost2010PropOp35
 70
     1
102
RTVSPost2010Prop36
280
     0
102
RTVSPost2010PropOp36
 70
     1
102
RTVSPost2010Prop37
 90
       50
102
RTVSPost2010PropOp37
 70
     1
102
RTVSPost2010Prop38
140
0.0
102
RTVSPost2010PropOp38
 70
     1
102
RTVSPost2010Prop39
140
1.0
102
RTVSPost2010PropOp39
 70
     1
102
RTVSPost2010Prop40
 90
        0
102
RTVSPost2010PropOp40
 70
     1
102
RTVSPost2010Prop41ColorIndex
 90
       18
102
RTVSPost2010Prop41ColorRGB
 90
        0
102
RTVSPost2010PropOp41
 70
     1
102
RTVSPost2010Prop42
 90
       50
102
RTVSPost2010PropOp42
 70
     1
102
RTVSPost2010Prop43
 90
        3
102
RTVSPost2010PropOp43
 70
     1
102
RTVSPost2010Prop44ColorIndex
 90
        5
102
RTVSPost2010Prop44ColorRGB
 90
      255
102
RTVSPost2010PropOp44
 70
     1
102
RTVSPost2010Prop45
280
     0
102
RTVSPost2010PropOp45
 70
     1
102
RTVSPost2010Prop46
 90
       50
102
RTVSPost2010PropOp46
 70
     1
102
RTVSPost2010Prop47
 90
       50
102
RTVSPost2010PropOp47
 70
     1
102
RTVSPost2010Prop48
 90
       50
102
RTVSPost2010PropOp48
 70
     1
102
RTVSPost2010Prop49
280
     0
102
RTVSPost2010PropOp49
 70
     1
102
RTVSPost2010Prop50
 90
       50
102
RTVSPost2010PropOp50
 70
     1
102
RTVSPost2010Prop51ColorIndex
 90
      256
102
RTVSPost2010Prop51ColorRGB
 90
-16777216
102
RTVSPost2010PropOp51
 70
     0
102
RTVSPost2010Prop52
140
1.0
102
RTVSPost2010PropOp52
 70
     0
102
RTVSPost2010Prop53
 90
        2
102
RTVSPost2010PropOp53
 70
     1
102
RTVSPost2010Prop54
  1
strokes_ogs.tif
102
RTVSPost2010PropOp54
 70
     1
102
RTVSPost2010Prop55
280
     0
102
RTVSPost2010PropOp55
 70
     1
102
RTVSPost2010Prop56
140
1.0
102
RTVSPost2010PropOp56
 70
     1
102
RTVSPost2010Prop57
140
1.0
102
RTVSPost2010PropOp57
 70
     1
  0
XRECORD
  5
2F2
102
{ACAD_REACTORS
330
2F1
102
}
330
2F1
100
AcDbXrecord
280
     1
102
RTVSPost2010Prop28
280
     0
102
RTVSPost2010PropOp28
 70
     1
102
RTVSPost2010Prop29
280
     1
102
RTVSPost2010PropOp29
 70
     1
102
RTVSPost2010Prop30
280
     1
102
RTVSPost2010PropOp30
 70
     1
102
RTVSPost2010Prop31
280
     0
102
RTVSPost2010PropOp31
 70
     1
102
RTVSPost2010Prop32
280
     0
102
RTVSPost2010PropOp32
 70
     1
102
RTVSPost2010Prop33
280
     0
102
RTVSPost2010PropOp33
 70
     1
102
RTVSPost2010Prop34
280
     0
102
RTVSPost2010PropOp34
 70
     1
102
RTVSPost2010Prop35
280
     0
102
RTVSPost2010PropOp35
 70
     1
102
RTVSPost2010Prop36
280
     0
102
RTVSPost2010PropOp36
 70
     1
102
RTVSPost2010Prop37
 90
       50
102
RTVSPost2010PropOp37
 70
     1
102
RTVSPost2010Prop38
140
0.0
102
RTVSPost2010PropOp38
 70
     1
102
RTVSPost2010Prop39
140
1.0
102
RTVSPost2010PropOp39
 70
     1
102
RTVSPost2010Prop40
 90
        0
102
RTVSPost2010PropOp40
 70
     1
102
RTVSPost2010Prop41ColorIndex
 90
       18
102
RTVSPost2010Prop41ColorRGB
 90
        0
102
RTVSPost2010PropOp41
 70
     1
102
RTVSPost2010Prop42
 90
       50
102
RTVSPost2010PropOp42
 70
     1
102
RTVSPost2010Prop43
 90
        3
102
RTVSPost2010PropOp43
 70
     1
102
RTVSPost2010Prop44ColorIndex
 90
        5
102
RTVSPost2010Prop44ColorRGB
 90
      255
102
RTVSPost2010PropOp44
 70
     1
102
RTVSPost2010Prop45
280
     0
102
RTVSPost2010PropOp45
 70
     1
102
RTVSPost2010Prop46
 90
       50
102
RTVSPost2010PropOp46
 70
     1
102
RTVSPost2010Prop47
 90
       50
102
RTVSPost2010PropOp47
 70
     1
102
RTVSPost2010Prop48
 90
       50
102
RTVSPost2010PropOp48
 70
     1
102
RTVSPost2010Prop49
280
     0
102
RTVSPost2010PropOp49
 70
     1
102
RTVSPost2010Prop50
 90
       50
102
RTVSPost2010PropOp50
 70
     1
102
RTVSPost2010Prop51ColorIndex
 90
      256
102
RTVSPost2010Prop51ColorRGB
 90
-16777216
102
RTVSPost2010PropOp51
 70
     0
102
RTVSPost2010Prop52
140
1.0
102
RTVSPost2010PropOp52
 70
     0
102
RTVSPost2010Prop53
 90
        2
102
RTVSPost2010PropOp53
 70
     1
102
RTVSPost2010Prop54
  1
strokes_ogs.tif
102
RTVSPost2010PropOp54
 70
     1
102
RTVSPost2010Prop55
280
     0
102
RTVSPost2010PropOp55
 70
     1
102
RTVSPost2010Prop56
140
1.0
102
RTVSPost2010PropOp56
 70
     1
102
RTVSPost2010Prop57
140
1.0
102
RTVSPost2010PropOp57
 70
     1
  0
ENDSEC
  0
EOF
