  0
SECTION
  2
HEADER
  9
$ACADVER
  1
AC1027
  9
$ACADMAINTVER
 70
   105
  9
$DWGCODEPAGE
  3
ANSI_1252
  9
$LASTSAVEDBY
  1
mezergues
  9
$REQUIREDVERSIONS
160
                 0
  9
$INSBASE
 10
0.0
 20
0.0
 30
0.0
  9
$EXTMIN
 10
40816.40509298422
 20
-14187.2907041431
 30
0.0
  9
$EXTMAX
 10
58641.54782959308
 20
-10420.97855993556
 30
2500.0
  9
$LIMMIN
 10
0.0
 20
0.0
  9
$LIMMAX
 10
420.0
 20
297.0
  9
$ORTHOMODE
 70
     0
  9
$REGENMODE
 70
     1
  9
$FILLMODE
 70
     1
  9
$QTEXTMODE
 70
     0
  9
$MIRRTEXT
 70
     1
  9
$LTSCALE
 40
5.0
  9
$ATTMODE
 70
     1
  9
$TEXTSIZE
 40
2.5
  9
$TRACEWID
 40
1.0
  9
$TEXTSTYLE
  7
Standard
  9
$CLAYER
  8
0
  9
$CELTYPE
  6
Continuous
  9
$CECOLOR
 62
   256
  9
$CELTSCALE
 40
1.0
  9
$DISPSILH
 70
     0
  9
$DIMSCALE
 40
1.0
  9
$DIMASZ
 40
2.5
  9
$DIMEXO
 40
0.625
  9
$DIMDLI
 40
3.75
  9
$DIMRND
 40
0.0
  9
$DIMDLE
 40
0.0
  9
$DIMEXE
 40
1.25
  9
$DIMTP
 40
0.0
  9
$DIMTM
 40
0.0
  9
$DIMTXT
 40
2.5
  9
$DIMCEN
 40
2.5
  9
$DIMTSZ
 40
0.0
  9
$DIMTOL
 70
     0
  9
$DIMLIM
 70
     0
  9
$DIMTIH
 70
     0
  9
$DIMTOH
 70
     0
  9
$DIMSE1
 70
     0
  9
$DIMSE2
 70
     0
  9
$DIMTAD
 70
     1
  9
$DIMZIN
 70
     8
  9
$DIMBLK
  1

  9
$DIMASO
 70
     1
  9
$DIMSHO
 70
     1
  9
$DIMPOST
  1

  9
$DIMAPOST
  1

  9
$DIMALT
 70
     0
  9
$DIMALTD
 70
     3
  9
$DIMALTF
 40
0.03937007874016
  9
$DIMLFAC
 40
1.0
  9
$DIMTOFL
 70
     1
  9
$DIMTVP
 40
0.0
  9
$DIMTIX
 70
     0
  9
$DIMSOXD
 70
     1
  9
$DIMSAH
 70
     0
  9
$DIMBLK1
  1

  9
$DIMBLK2
  1

  9
$DIMSTYLE
  2
ISO-25
  9
$DIMCLRD
 70
     0
  9
$DIMCLRE
 70
     0
  9
$DIMCLRT
 70
     0
  9
$DIMTFAC
 40
1.0
  9
$DIMGAP
 40
0.625
  9
$DIMJUST
 70
     0
  9
$DIMSD1
 70
     0
  9
$DIMSD2
 70
     0
  9
$DIMTOLJ
 70
     0
  9
$DIMTZIN
 70
     8
  9
$DIMALTZ
 70
     0
  9
$DIMALTTZ
 70
     0
  9
$DIMUPT
 70
     0
  9
$DIMDEC
 70
     2
  9
$DIMTDEC
 70
     2
  9
$DIMALTU
 70
     2
  9
$DIMALTTD
 70
     3
  9
$DIMTXSTY
  7
Standard
  9
$DIMAUNIT
 70
     0
  9
$DIMADEC
 70
     0
  9
$DIMALTRND
 40
0.0
  9
$DIMAZIN
 70
     0
  9
$DIMDSEP
 70
    44
  9
$DIMATFIT
 70
     3
  9
$DIMFRAC
 70
     0
  9
$DIMLDRBLK
  1

  9
$DIMLUNIT
 70
     2
  9
$DIMLWD
 70
    -2
  9
$DIMLWE
 70
    -2
  9
$DIMTMOVE
 70
     2
  9
$DIMFXL
 40
1.0
  9
$DIMFXLON
 70
     0
  9
$DIMJOGANG
 40
0.7853981633974483
  9
$DIMTFILL
 70
     0
  9
$DIMTFILLCLR
 70
     0
  9
$DIMARCSYM
 70
     0
  9
$DIMLTYPE
  6

  9
$DIMLTEX1
  6

  9
$DIMLTEX2
  6

  9
$DIMTXTDIRECTION
 70
     0
  9
$LUNITS
 70
     2
  9
$LUPREC
 70
     4
  9
$SKETCHINC
 40
1.0
  9
$FILLETRAD
 40
0.0
  9
$AUNITS
 70
     0
  9
$AUPREC
 70
     0
  9
$MENU
  1
.
  9
$ELEVATION
 40
0.0
  9
$PELEVATION
 40
0.0
  9
$THICKNESS
 40
0.0
  9
$LIMCHECK
 70
     0
  9
$CHAMFERA
 40
0.0
  9
$CHAMFERB
 40
0.0
  9
$CHAMFERC
 40
0.0
  9
$CHAMFERD
 40
0.0
  9
$SKPOLY
 70
     0
  9
$TDCREATE
 40
2459986.486871643
  9
$TDUCREATE
 40
2459986.445204977
  9
$TDUPDATE
 40
2459986.486874687
  9
$TDUUPDATE
 40
2459986.445208021
  9
$TDINDWG
 40
0.0000000116
  9
$TDUSRTIMER
 40
0.0000000116
  9
$USRTIMER
 70
     1
  9
$ANGBASE
 50
0.0
  9
$ANGDIR
 70
     0
  9
$PDMODE
 70
     0
  9
$PDSIZE
 40
0.0
  9
$PLINEWID
 40
0.0
  9
$SPLFRAME
 70
     0
  9
$SPLINETYPE
 70
     6
  9
$SPLINESEGS
 70
     8
  9
$HANDSEED
  5
34C
  9
$SURFTAB1
 70
     6
  9
$SURFTAB2
 70
     6
  9
$SURFTYPE
 70
     6
  9
$SURFU
 70
     6
  9
$SURFV
 70
     6
  9
$UCSBASE
  2

  9
$UCSNAME
  2

  9
$UCSORG
 10
0.0
 20
0.0
 30
0.0
  9
$UCSXDIR
 10
1.0
 20
0.0
 30
0.0
  9
$UCSYDIR
 10
0.0
 20
1.0
 30
0.0
  9
$UCSORTHOREF
  2

  9
$UCSORTHOVIEW
 70
     0
  9
$UCSORGTOP
 10
0.0
 20
0.0
 30
0.0
  9
$UCSORGBOTTOM
 10
0.0
 20
0.0
 30
0.0
  9
$UCSORGLEFT
 10
0.0
 20
0.0
 30
0.0
  9
$UCSORGRIGHT
 10
0.0
 20
0.0
 30
0.0
  9
$UCSORGFRONT
 10
0.0
 20
0.0
 30
0.0
  9
$UCSORGBACK
 10
0.0
 20
0.0
 30
0.0
  9
$PUCSBASE
  2

  9
$PUCSNAME
  2

  9
$PUCSORG
 10
0.0
 20
0.0
 30
0.0
  9
$PUCSXDIR
 10
1.0
 20
0.0
 30
0.0
  9
$PUCSYDIR
 10
0.0
 20
1.0
 30
0.0
  9
$PUCSORTHOREF
  2

  9
$PUCSORTHOVIEW
 70
     0
  9
$PUCSORGTOP
 10
0.0
 20
0.0
 30
0.0
  9
$PUCSORGBOTTOM
 10
0.0
 20
0.0
 30
0.0
  9
$PUCSORGLEFT
 10
0.0
 20
0.0
 30
0.0
  9
$PUCSORGRIGHT
 10
0.0
 20
0.0
 30
0.0
  9
$PUCSORGFRONT
 10
0.0
 20
0.0
 30
0.0
  9
$PUCSORGBACK
 10
0.0
 20
0.0
 30
0.0
  9
$USERI1
 70
     0
  9
$USERI2
 70
     0
  9
$USERI3
 70
     0
  9
$USERI4
 70
     0
  9
$USERI5
 70
     0
  9
$USERR1
 40
0.0
  9
$USERR2
 40
0.0
  9
$USERR3
 40
0.0
  9
$USERR4
 40
0.0
  9
$USERR5
 40
0.0
  9
$WORLDVIEW
 70
     1
  9
$SHADEDGE
 70
     3
  9
$SHADEDIF
 70
    70
  9
$TILEMODE
 70
     1
  9
$MAXACTVP
 70
    64
  9
$PINSBASE
 10
0.0
 20
0.0
 30
0.0
  9
$PLIMCHECK
 70
     0
  9
$PEXTMIN
 10
-5.730400000000003
 20
-7.876400000000018
 30
0.0
  9
$PEXTMAX
 10
203.3304
 20
279.4764
 30
0.0
  9
$PLIMMIN
 10
-20.0
 20
-7.5
  9
$PLIMMAX
 10
277.0
 20
202.5
  9
$UNITMODE
 70
     0
  9
$VISRETAIN
 70
     1
  9
$PLINEGEN
 70
     0
  9
$PSLTSCALE
 70
     0
  9
$TREEDEPTH
 70
  3020
  9
$CMLSTYLE
  2
Standard
  9
$CMLJUST
 70
     0
  9
$CMLSCALE
 40
20.0
  9
$PROXYGRAPHICS
 70
     1
  9
$MEASUREMENT
 70
     1
  9
$CELWEIGHT
370
    -1
  9
$ENDCAPS
280
     0
  9
$JOINSTYLE
280
     0
  9
$LWDISPLAY
290
     0
  9
$INSUNITS
 70
     4
  9
$HYPERLINKBASE
  1

  9
$STYLESHEET
  1

  9
$XEDIT
290
     1
  9
$CEPSNTYPE
380
     3
  9
$CEPSNID
390
5F
  9
$PSTYLEMODE
290
     0
  9
$FINGERPRINTGUID
  2
{aa2b7080-f025-4897-bfc5-90093016bd6a}
  9
$VERSIONGUID
  2
{FAEB1C32-E019-11D5-929B-00C0DF256EC4}
  9
$EXTNAMES
290
     1
  9
$PSVPSCALE
 40
0.0
  9
$OLESTARTUP
290
     0
  9
$SORTENTS
280
   127
  9
$INDEXCTL
280
     0
  9
$HIDETEXT
280
     1
  9
$XCLIPFRAME
280
     2
  9
$HALOGAP
280
     0
  9
$OBSCOLOR
 70
   257
  9
$OBSLTYPE
280
     0
  9
$INTERSECTIONDISPLAY
280
     0
  9
$INTERSECTIONCOLOR
 70
   257
  9
$DIMASSOC
280
     2
  9
$PROJECTNAME
  1

  9
$CAMERADISPLAY
290
     0
  9
$LENSLENGTH
 40
50.0
  9
$CAMERAHEIGHT
 40
0.0
  9
$STEPSPERSEC
 40
2.0
  9
$STEPSIZE
 40
6.0
  9
$3DDWFPREC
 40
2.0
  9
$PSOLWIDTH
 40
5.0
  9
$PSOLHEIGHT
 40
80.0
  9
$LOFTANG1
 40
1.570796326794897
  9
$LOFTANG2
 40
1.570796326794897
  9
$LOFTMAG1
 40
0.0
  9
$LOFTMAG2
 40
0.0
  9
$LOFTPARAM
 70
     7
  9
$LOFTNORMALS
280
     1
  9
$LATITUDE
 40
37.795
  9
$LONGITUDE
 40
-122.394
  9
$NORTHDIRECTION
 40
0.0
  9
$TIMEZONE
 70
 -8000
  9
$LIGHTGLYPHDISPLAY
280
     1
  9
$TILEMODELIGHTSYNCH
280
     1
  9
$CMATERIAL
347
44
  9
$SOLIDHIST
280
     0
  9
$SHOWHIST
280
     1
  9
$DWFFRAME
280
     2
  9
$DGNFRAME
280
     2
  9
$REALWORLDSCALE
290
     1
  9
$INTERFERECOLOR
 62
   256
  9
$CSHADOW
280
     0
  9
$SHADOWPLANELOCATION
 40
0.0
  0
ENDSEC
  0
SECTION
  2
CLASSES
  0
CLASS
  1
ACDBDICTIONARYWDFLT
  2
AcDbDictionaryWithDefault
  3
ObjectDBX Classes
 90
        0
 91
        3
280
     0
281
     0
  0
CLASS
  1
VISUALSTYLE
  2
AcDbVisualStyle
  3
ObjectDBX Classes
 90
     4095
 91
        3
280
     0
281
     0
  0
CLASS
  1
MATERIAL
  2
AcDbMaterial
  3
ObjectDBX Classes
 90
     1153
 91
        3
280
     0
281
     0
  0
CLASS
  1
SCALE
  2
AcDbScale
  3
ObjectDBX Classes
 90
     1153
 91
        3
280
     0
281
     0
  0
CLASS
  1
TABLESTYLE
  2
AcDbTableStyle
  3
ObjectDBX Classes
 90
     4095
 91
        3
280
     0
281
     0
  0
CLASS
  1
MLEADERSTYLE
  2
AcDbMLeaderStyle
  3
ACDB_MLEADERSTYLE_CLASS
 90
     4095
 91
        3
280
     0
281
     0
  0
CLASS
  1
SUN
  2
AcDbSun
  3
SCENEOE
 90
     1153
 91
        3
280
     0
281
     0
  0
CLASS
  1
RASTERVARIABLES
  2
AcDbRasterVariables
  3
ISM
 90
        0
 91
        3
280
     0
281
     0
  0
CLASS
  1
WIPEOUTVARIABLES
  2
AcDbWipeoutVariables
  3
WipeOut|AutoCAD Express Tool|expresstools@autodesk.com
 90
        0
 91
        3
280
     0
281
     0
  0
CLASS
  1
PLOTSETTINGS
  2
AcDbPlotSettings
  3
ObjectDBX Classes
 90
        0
 91
        3
280
     0
281
     0
  0
CLASS
  1
DICTIONARYVAR
  2
AcDbDictionaryVar
  3
ObjectDBX Classes
 90
        0
 91
        3
280
     0
281
     0
  0
CLASS
  1
CELLSTYLEMAP
  2
AcDbCellStyleMap
  3
ObjectDBX Classes
 90
     1152
 91
        3
280
     0
281
     0
  0
ENDSEC
  0
SECTION
  2
TABLES
  0
TABLE
  2
VPORT
  5
8
330
0
100
AcDbSymbolTable
 70
     1
  0
VPORT
  5
29
330
8
100
AcDbSymbolTableRecord
100
AcDbViewportTableRecord
  2
*Active
 70
     0
 10
0.0
 20
0.0
 11
1.0
 21
1.0
 12
49728.97646128865
 22
-12304.13463203933
 13
0.0
 23
0.0
 14
10.0
 24
10.0
 15
10.0
 25
10.0
 16
0.0
 26
0.0
 36
1.0
 17
0.0
 27
0.0
 37
0.0
 40
3841.638387091686
 41
4.732784234047979
 42
50.0
 43
0.0
 44
0.0
 50
0.0
 51
0.0
 71
     0
 72
   100
 73
     1
 74
     3
 75
     0
 76
     0
 77
     0
 78
     0
281
     0
 65
     1
110
0.0
120
0.0
130
0.0
111
1.0
121
0.0
131
0.0
112
0.0
122
1.0
132
0.0
 79
     0
146
0.0
348
2F
 60
     3
 61
     5
292
     1
282
     1
141
0.0
142
0.0
 63
   250
361
5D
  0
ENDTAB
  0
TABLE
  2
LTYPE
  5
5
330
0
100
AcDbSymbolTable
 70
     3
  0
LTYPE
  5
14
330
5
100
AcDbSymbolTableRecord
100
AcDbLinetypeTableRecord
  2
ByBlock
 70
     0
  3

 72
    65
 73
     0
 40
0.0
  0
LTYPE
  5
15
330
5
100
AcDbSymbolTableRecord
100
AcDbLinetypeTableRecord
  2
ByLayer
 70
     0
  3

 72
    65
 73
     0
 40
0.0
  0
LTYPE
  5
16
330
5
100
AcDbSymbolTableRecord
100
AcDbLinetypeTableRecord
  2
Continuous
 70
     0
  3
Solid line
 72
    65
 73
     0
 40
0.0
  0
LTYPE
  5
174
330
5
100
AcDbSymbolTableRecord
100
AcDbLinetypeTableRecord
  2
CADWORK_3
 70
     0
  3

 72
    65
 73
     2
 40
4.0
 49
2.0
 74
     0
 49
-2.0
 74
     0
  0
LTYPE
  5
2B7
330
5
100
AcDbSymbolTableRecord
100
AcDbLinetypeTableRecord
  2
CADWORK_22
 70
     0
  3

 72
    65
 73
     0
 40
0.0
  0
ENDTAB
  0
TABLE
  2
LAYER
  5
2
330
0
100
AcDbSymbolTable
 70
    18
  0
LAYER
  5
10
330
2
100
AcDbSymbolTableRecord
100
AcDbLayerTableRecord
  2
0
 70
     0
 62
     7
  6
Continuous
370
    -3
390
F
347
46
348
0
  0
LAYER
  5
67
330
2
100
AcDbSymbolTableRecord
100
AcDbLayerTableRecord
  2
Standard
 70
     0
 62
     7
  6
Continuous
370
    -3
390
F
347
46
348
0
  0
LAYER
  5
68
330
2
100
AcDbSymbolTableRecord
100
AcDbLayerTableRecord
  2
Ech.1_1
 70
     0
 62
     7
  6
Continuous
370
    -3
390
F
347
46
348
0
  0
LAYER
  5
69
330
2
100
AcDbSymbolTableRecord
100
AcDbLayerTableRecord
  2
Ech.1_2
 70
     0
 62
     7
  6
Continuous
370
    -3
390
F
347
46
348
0
  0
LAYER
  5
6A
330
2
100
AcDbSymbolTableRecord
100
AcDbLayerTableRecord
  2
Ech.1_5
 70
     0
 62
     7
  6
Continuous
370
    -3
390
F
347
46
348
0
  0
LAYER
  5
6B
330
2
100
AcDbSymbolTableRecord
100
AcDbLayerTableRecord
  2
Ech.1_10
 70
     0
 62
     7
  6
Continuous
370
    -3
390
F
347
46
348
0
  0
LAYER
  5
6C
330
2
100
AcDbSymbolTableRecord
100
AcDbLayerTableRecord
  2
Ech.1_20
 70
     0
 62
     7
  6
Continuous
370
    -3
390
F
347
46
348
0
  0
LAYER
  5
6D
330
2
100
AcDbSymbolTableRecord
100
AcDbLayerTableRecord
  2
Ech.1_25
 70
     0
 62
     7
  6
Continuous
370
    -3
390
F
347
46
348
0
  0
LAYER
  5
6E
330
2
100
AcDbSymbolTableRecord
100
AcDbLayerTableRecord
  2
Ech.1_33
 70
     0
 62
     7
  6
Continuous
370
    -3
390
F
347
46
348
0
  0
LAYER
  5
6F
330
2
100
AcDbSymbolTableRecord
100
AcDbLayerTableRecord
  2
Ech.1_50
 70
     0
 62
     7
  6
Continuous
370
    -3
390
F
347
46
348
0
  0
LAYER
  5
70
330
2
100
AcDbSymbolTableRecord
100
AcDbLayerTableRecord
  2
Ech.1_75
 70
     0
 62
     7
  6
Continuous
370
    -3
390
F
347
46
348
0
  0
LAYER
  5
71
330
2
100
AcDbSymbolTableRecord
100
AcDbLayerTableRecord
  2
Ech.1_100
 70
     0
 62
     7
  6
Continuous
370
    -3
390
F
347
46
348
0
  0
LAYER
  5
72
330
2
100
AcDbSymbolTableRecord
100
AcDbLayerTableRecord
  2
Ech.1_200
 70
     0
 62
     7
  6
Continuous
370
    -3
390
F
347
46
348
0
  0
LAYER
  5
73
330
2
100
AcDbSymbolTableRecord
100
AcDbLayerTableRecord
  2
Ech.1_500
 70
     0
 62
     7
  6
Continuous
370
    -3
390
F
347
46
348
0
  0
LAYER
  5
74
330
2
100
AcDbSymbolTableRecord
100
AcDbLayerTableRecord
  2
Ech.1_1000
 70
     0
 62
     7
  6
Continuous
370
    -3
390
F
347
46
348
0
  0
LAYER
  5
75
330
2
100
AcDbSymbolTableRecord
100
AcDbLayerTableRecord
  2
Cadres traceur
 70
     0
 62
     7
  6
Continuous
370
    -3
390
F
347
46
348
0
  0
LAYER
  5
76
330
2
100
AcDbSymbolTableRecord
100
AcDbLayerTableRecord
  2
Cadres laser
 70
     0
 62
     7
  6
Continuous
370
    -3
390
F
347
46
348
0
  0
LAYER
  5
77
330
2
100
AcDbSymbolTableRecord
100
AcDbLayerTableRecord
  2
Légende d_aide
 70
     0
 62
     7
  6
Continuous
370
    -3
390
F
347
46
348
0
  0
ENDTAB
  0
TABLE
  2
STYLE
  5
3
330
0
100
AcDbSymbolTable
 70
     9
  0
STYLE
  5
11
330
3
100
AcDbSymbolTableRecord
100
AcDbTextStyleTableRecord
  2
Standard
 70
     0
 40
0.0
 41
1.0
 50
0.0
 71
     0
 42
2.5
  3
txt
  4

  0
STYLE
  5
62
330
3
100
AcDbSymbolTableRecord
100
AcDbTextStyleTableRecord
  2
CwStyleShx
 70
     0
 40
1.0
 41
1.0
 50
0.0
 71
     0
 42
2.5
  3

  4

  0
STYLE
  5
63
330
3
100
AcDbSymbolTableRecord
100
AcDbTextStyleTableRecord
  2
CwStyleShx16
 70
     0
 40
1.0
 41
1.0
 50
0.0
 71
     0
 42
2.5
  3

  4

  0
STYLE
  5
64
330
3
100
AcDbSymbolTableRecord
100
AcDbTextStyleTableRecord
  2
MONOTXT
 70
     0
 40
0.0
 41
1.0
 50
0.0
 71
     0
 42
2.5
  3
MONOTXT
  4

  0
STYLE
  5
65
330
3
100
AcDbSymbolTableRecord
100
AcDbTextStyleTableRecord
  2
SYMAP
 70
     0
 40
1.0
 41
1.0
 50
0.0
 71
     0
 42
2.5
  3
SYMAP
  4

  0
STYLE
  5
66
330
3
100
AcDbSymbolTableRecord
100
AcDbTextStyleTableRecord
  2
CwStyleTtf
 70
     0
 40
1.0
 41
1.0
 50
0.0
 71
     0
 42
2.5
  3
arial.ttf
  4

  0
STYLE
  5
32B
330
3
100
AcDbSymbolTableRecord
100
AcDbTextStyleTableRecord
  2
arial-b
 70
     0
 40
1.0
 41
1.0
 50
0.0
 71
     0
 42
2.5
  3
arialbd.ttf
  4

1001
ACAD
1000
Arial
1071
 33554432
  0
STYLE
  5
32D
330
3
100
AcDbSymbolTableRecord
100
AcDbTextStyleTableRecord
  2
arial-
 70
     0
 40
1.0
 41
1.0
 50
0.0
 71
     0
 42
2.5
  3
arial.ttf
  4

1001
ACAD
1000
Arial
1071
        0
  0
STYLE
  5
333
330
3
100
AcDbSymbolTableRecord
100
AcDbTextStyleTableRecord
  2
arial-i
 70
     0
 40
1.0
 41
1.0
 50
0.0
 71
     0
 42
2.5
  3
ariali.ttf
  4

1001
ACAD
1000
Arial
1071
 16777216
  0
ENDTAB
  0
TABLE
  2
VIEW
  5
6
330
0
100
AcDbSymbolTable
 70
     0
  0
ENDTAB
  0
TABLE
  2
UCS
  5
7
330
0
100
AcDbSymbolTable
 70
     0
  0
ENDTAB
  0
TABLE
  2
APPID
  5
9
330
0
100
AcDbSymbolTable
 70
     3
  0
APPID
  5
12
330
9
100
AcDbSymbolTableRecord
100
AcDbRegAppTableRecord
  2
ACAD
 70
     0
  0
APPID
  5
5E
330
9
100
AcDbSymbolTableRecord
100
AcDbRegAppTableRecord
  2
Cadwork
 70
     0
  0
APPID
  5
224
330
9
100
AcDbSymbolTableRecord
100
AcDbRegAppTableRecord
  2
PLOTTRANSPARENCY
 70
     0
  0
ENDTAB
  0
TABLE
  2
DIMSTYLE
  5
A
330
0
100
AcDbSymbolTable
 70
     1
100
AcDbDimStyleTable
  0
DIMSTYLE
105
27
330
A
100
AcDbSymbolTableRecord
100
AcDbDimStyleTableRecord
  2
ISO-25
 70
     0
 41
2.5
 42
0.625
 43
3.75
 44
1.25
 73
     0
 74
     0
 77
     1
 78
     8
140
2.5
141
2.5
143
0.03937007874016
147
0.625
171
     3
172
     1
178
     0
271
     2
272
     2
274
     3
278
    44
283
     0
284
     8
340
11
  0
ENDTAB
  0
TABLE
  2
BLOCK_RECORD
  5
1
330
0
100
AcDbSymbolTable
 70
    69
  0
BLOCK_RECORD
  5
1F
330
1
100
AcDbSymbolTableRecord
100
AcDbBlockTableRecord
  2
*Model_Space
340
22
 70
     0
280
     1
281
     0
  0
BLOCK_RECORD
  5
21F
330
1
100
AcDbSymbolTableRecord
100
AcDbBlockTableRecord
  2
*Paper_Space
340
220
 70
     0
280
     1
281
     0
  0
BLOCK_RECORD
  5
78
330
1
100
AcDbSymbolTableRecord
100
AcDbBlockTableRecord
  2
CDWK_PTTYP1
340
0
 70
     0
280
     1
281
     1
  0
BLOCK_RECORD
  5
7F
330
1
100
AcDbSymbolTableRecord
100
AcDbBlockTableRecord
  2
CDWK_PTTYP2
340
0
 70
     0
280
     1
281
     1
  0
BLOCK_RECORD
  5
84
330
1
100
AcDbSymbolTableRecord
100
AcDbBlockTableRecord
  2
CDWK_PTTYP4
340
0
 70
     0
280
     1
281
     1
  0
BLOCK_RECORD
  5
88
330
1
100
AcDbSymbolTableRecord
100
AcDbBlockTableRecord
  2
CDWK_PTTYP5
340
0
 70
     0
280
     1
281
     1
  0
BLOCK_RECORD
  5
91
330
1
100
AcDbSymbolTableRecord
100
AcDbBlockTableRecord
  2
CDWK_PTTYP6
340
0
 70
     0
280
     1
281
     1
  0
BLOCK_RECORD
  5
99
330
1
100
AcDbSymbolTableRecord
100
AcDbBlockTableRecord
  2
CDWK_PTTYP7
340
0
 70
     0
280
     1
281
     1
  0
BLOCK_RECORD
  5
A2
330
1
100
AcDbSymbolTableRecord
100
AcDbBlockTableRecord
  2
CDWK_PTTYP8
340
0
 70
     0
280
     1
281
     1
  0
BLOCK_RECORD
  5
A6
330
1
100
AcDbSymbolTableRecord
100
AcDbBlockTableRecord
  2
CDWK_PTTYP9
340
0
 70
     0
280
     1
281
     1
  0
BLOCK_RECORD
  5
AB
330
1
100
AcDbSymbolTableRecord
100
AcDbBlockTableRecord
  2
CDWK_PTTYP10
340
0
 70
     0
280
     1
281
     1
  0
BLOCK_RECORD
  5
AF
330
1
100
AcDbSymbolTableRecord
100
AcDbBlockTableRecord
  2
CDWK_PTTYP11
340
0
 70
     0
280
     1
281
     1
  0
BLOCK_RECORD
  5
B4
330
1
100
AcDbSymbolTableRecord
100
AcDbBlockTableRecord
  2
CDWK_PTTYP12
340
0
 70
     0
280
     1
281
     1
  0
BLOCK_RECORD
  5
B9
330
1
100
AcDbSymbolTableRecord
100
AcDbBlockTableRecord
  2
CDWK_PTTYP13
340
0
 70
     0
280
     1
281
     1
  0
BLOCK_RECORD
  5
BF
330
1
100
AcDbSymbolTableRecord
100
AcDbBlockTableRecord
  2
CDWK_PTTYP16
340
0
 70
     0
280
     1
281
     1
  0
BLOCK_RECORD
  5
C6
330
1
100
AcDbSymbolTableRecord
100
AcDbBlockTableRecord
  2
CDWK_PTTYP17
340
0
 70
     0
280
     1
281
     1
  0
BLOCK_RECORD
  5
CB
330
1
100
AcDbSymbolTableRecord
100
AcDbBlockTableRecord
  2
CDWK_PTTYP18
340
0
 70
     0
280
     1
281
     1
  0
BLOCK_RECORD
  5
D0
330
1
100
AcDbSymbolTableRecord
100
AcDbBlockTableRecord
  2
CDWK_PTTYP19
340
0
 70
     0
280
     1
281
     1
  0
BLOCK_RECORD
  5
D6
330
1
100
AcDbSymbolTableRecord
100
AcDbBlockTableRecord
  2
CDWK_PTTYP20
340
0
 70
     0
280
     1
281
     1
  0
BLOCK_RECORD
  5
DB
330
1
100
AcDbSymbolTableRecord
100
AcDbBlockTableRecord
  2
CDWK_PTTYP21
340
0
 70
     0
280
     1
281
     1
  0
BLOCK_RECORD
  5
E0
330
1
100
AcDbSymbolTableRecord
100
AcDbBlockTableRecord
  2
CDWK_PTTYP25
340
0
 70
     0
280
     1
281
     1
  0
BLOCK_RECORD
  5
E7
330
1
100
AcDbSymbolTableRecord
100
AcDbBlockTableRecord
  2
CDWK_PTTYP26
340
0
 70
     0
280
     1
281
     1
  0
BLOCK_RECORD
  5
EE
330
1
100
AcDbSymbolTableRecord
100
AcDbBlockTableRecord
  2
CDWK_PTTYP27
340
0
 70
     0
280
     1
281
     1
  0
BLOCK_RECORD
  5
F6
330
1
100
AcDbSymbolTableRecord
100
AcDbBlockTableRecord
  2
CDWK_PTTYP28
340
0
 70
     0
280
     1
281
     1
  0
BLOCK_RECORD
  5
FD
330
1
100
AcDbSymbolTableRecord
100
AcDbBlockTableRecord
  2
CDWK_PTTYP29
340
0
 70
     0
280
     1
281
     1
  0
BLOCK_RECORD
  5
103
330
1
100
AcDbSymbolTableRecord
100
AcDbBlockTableRecord
  2
CDWK_PTTYP30
340
0
 70
     0
280
     1
281
     1
  0
BLOCK_RECORD
  5
10A
330
1
100
AcDbSymbolTableRecord
100
AcDbBlockTableRecord
  2
CDWK_PTTYP31
340
0
 70
     0
280
     1
281
     1
  0
BLOCK_RECORD
  5
112
330
1
100
AcDbSymbolTableRecord
100
AcDbBlockTableRecord
  2
CDWK_PTTYP32
340
0
 70
     0
280
     1
281
     1
  0
BLOCK_RECORD
  5
11B
330
1
100
AcDbSymbolTableRecord
100
AcDbBlockTableRecord
  2
CDWK_PTTYP33
340
0
 70
     0
280
     1
281
     1
  0
BLOCK_RECORD
  5
121
330
1
100
AcDbSymbolTableRecord
100
AcDbBlockTableRecord
  2
CDWK_PTTYP34
340
0
 70
     0
280
     1
281
     1
  0
BLOCK_RECORD
  5
127
330
1
100
AcDbSymbolTableRecord
100
AcDbBlockTableRecord
  2
CDWK_PTTYP35
340
0
 70
     0
280
     1
281
     1
  0
BLOCK_RECORD
  5
12D
330
1
100
AcDbSymbolTableRecord
100
AcDbBlockTableRecord
  2
CDWK_PTTYP36
340
0
 70
     0
280
     1
281
     1
  0
BLOCK_RECORD
  5
135
330
1
100
AcDbSymbolTableRecord
100
AcDbBlockTableRecord
  2
CDWK_PTTYP37
340
0
 70
     0
280
     1
281
     1
  0
BLOCK_RECORD
  5
13A
330
1
100
AcDbSymbolTableRecord
100
AcDbBlockTableRecord
  2
CDWK_PTTYP38
340
0
 70
     0
280
     1
281
     1
  0
BLOCK_RECORD
  5
140
330
1
100
AcDbSymbolTableRecord
100
AcDbBlockTableRecord
  2
CDWK_PTTYP41
340
0
 70
     0
280
     1
281
     1
  0
BLOCK_RECORD
  5
14A
330
1
100
AcDbSymbolTableRecord
100
AcDbBlockTableRecord
  2
CDWK_PTTYP42
340
0
 70
     0
280
     1
281
     1
  0
BLOCK_RECORD
  5
153
330
1
100
AcDbSymbolTableRecord
100
AcDbBlockTableRecord
  2
CDWK_PTTYP43
340
0
 70
     0
280
     1
281
     1
  0
BLOCK_RECORD
  5
159
330
1
100
AcDbSymbolTableRecord
100
AcDbBlockTableRecord
  2
CDWK_PTTYP44
340
0
 70
     0
280
     1
281
     1
  0
BLOCK_RECORD
  5
162
330
1
100
AcDbSymbolTableRecord
100
AcDbBlockTableRecord
  2
CDWK_PTTYP45
340
0
 70
     0
280
     1
281
     1
  0
BLOCK_RECORD
  5
167
330
1
100
AcDbSymbolTableRecord
100
AcDbBlockTableRecord
  2
CDWK_PTTYP46
340
0
 70
     0
280
     1
281
     1
  0
BLOCK_RECORD
  5
16C
330
1
100
AcDbSymbolTableRecord
100
AcDbBlockTableRecord
  2
CDWK_PTTYP47
340
0
 70
     0
280
     1
281
     1
  0
BLOCK_RECORD
  5
175
330
1
100
AcDbSymbolTableRecord
100
AcDbBlockTableRecord
  2
CDWK_PTTYP48
340
0
 70
     0
280
     1
281
     1
  0
BLOCK_RECORD
  5
17A
330
1
100
AcDbSymbolTableRecord
100
AcDbBlockTableRecord
  2
CDWK_PTTYP49
340
0
 70
     0
280
     1
281
     1
  0
BLOCK_RECORD
  5
181
330
1
100
AcDbSymbolTableRecord
100
AcDbBlockTableRecord
  2
CDWK_PTTYP50
340
0
 70
     0
280
     1
281
     1
  0
BLOCK_RECORD
  5
18B
330
1
100
AcDbSymbolTableRecord
100
AcDbBlockTableRecord
  2
CDWK_PTTYP51
340
0
 70
     0
280
     1
281
     1
  0
BLOCK_RECORD
  5
190
330
1
100
AcDbSymbolTableRecord
100
AcDbBlockTableRecord
  2
CDWK_PTTYP52
340
0
 70
     0
280
     1
281
     1
  0
BLOCK_RECORD
  5
196
330
1
100
AcDbSymbolTableRecord
100
AcDbBlockTableRecord
  2
cw-dimension-symbol1
340
0
 70
     0
280
     1
281
     0
  0
BLOCK_RECORD
  5
19D
330
1
100
AcDbSymbolTableRecord
100
AcDbBlockTableRecord
  2
cw-dimension-symbol2
340
0
 70
     0
280
     1
281
     0
  0
BLOCK_RECORD
  5
1A2
330
1
100
AcDbSymbolTableRecord
100
AcDbBlockTableRecord
  2
cw-dimension-symbol3
340
0
 70
     0
280
     1
281
     0
  0
BLOCK_RECORD
  5
1A7
330
1
100
AcDbSymbolTableRecord
100
AcDbBlockTableRecord
  2
cw-dimension-symbol5
340
0
 70
     0
280
     1
281
     0
  0
BLOCK_RECORD
  5
1AE
330
1
100
AcDbSymbolTableRecord
100
AcDbBlockTableRecord
  2
cw-dimension-symbol6
340
0
 70
     0
280
     1
281
     0
  0
BLOCK_RECORD
  5
1B4
330
1
100
AcDbSymbolTableRecord
100
AcDbBlockTableRecord
  2
cw-dimension-symbol11
340
0
 70
     0
280
     1
281
     0
  0
BLOCK_RECORD
  5
1BA
330
1
100
AcDbSymbolTableRecord
100
AcDbBlockTableRecord
  2
cw-dimension-symbol13
340
0
 70
     0
280
     1
281
     0
  0
BLOCK_RECORD
  5
1C0
330
1
100
AcDbSymbolTableRecord
100
AcDbBlockTableRecord
  2
cw-dimension-symbol15
340
0
 70
     0
280
     1
281
     0
  0
BLOCK_RECORD
  5
1C7
330
1
100
AcDbSymbolTableRecord
100
AcDbBlockTableRecord
  2
cw-dimension-symbol16
340
0
 70
     0
280
     1
281
     0
  0
BLOCK_RECORD
  5
1CE
330
1
100
AcDbSymbolTableRecord
100
AcDbBlockTableRecord
  2
cw-dimension-symbol17
340
0
 70
     0
280
     1
281
     0
  0
BLOCK_RECORD
  5
1D5
330
1
100
AcDbSymbolTableRecord
100
AcDbBlockTableRecord
  2
cw-dimension-symbol18
340
0
 70
     0
280
     1
281
     0
  0
BLOCK_RECORD
  5
1DC
330
1
100
AcDbSymbolTableRecord
100
AcDbBlockTableRecord
  2
cw-dimension-symbol19
340
0
 70
     0
280
     1
281
     0
  0
BLOCK_RECORD
  5
1DF
330
1
100
AcDbSymbolTableRecord
100
AcDbBlockTableRecord
  2
cw-dimension-symbol20
340
0
 70
     0
280
     1
281
     0
  0
BLOCK_RECORD
  5
1E6
330
1
100
AcDbSymbolTableRecord
100
AcDbBlockTableRecord
  2
cw-dimension-symbol21
340
0
 70
     0
280
     1
281
     0
  0
BLOCK_RECORD
  5
1ED
330
1
100
AcDbSymbolTableRecord
100
AcDbBlockTableRecord
  2
cw-line-extremity0
340
0
 70
     0
280
     1
281
     0
  0
BLOCK_RECORD
  5
1F1
330
1
100
AcDbSymbolTableRecord
100
AcDbBlockTableRecord
  2
cw-line-extremity2
340
0
 70
     0
280
     1
281
     0
  0
BLOCK_RECORD
  5
1F6
330
1
100
AcDbSymbolTableRecord
100
AcDbBlockTableRecord
  2
cw-line-extremity3
340
0
 70
     0
280
     1
281
     0
  0
BLOCK_RECORD
  5
1FB
330
1
100
AcDbSymbolTableRecord
100
AcDbBlockTableRecord
  2
cw-line-extremity301
340
0
 70
     0
280
     1
281
     0
  0
BLOCK_RECORD
  5
1FD
330
1
100
AcDbSymbolTableRecord
100
AcDbBlockTableRecord
  2
cw-line-extremity4
340
0
102
{BLKREFS
331
2CB
331
32A
102
}
 70
     0
280
     1
281
     0
  0
BLOCK_RECORD
  5
1FF
330
1
100
AcDbSymbolTableRecord
100
AcDbBlockTableRecord
  2
cw-line-extremity5
340
0
 70
     0
280
     1
281
     0
  0
BLOCK_RECORD
  5
201
330
1
100
AcDbSymbolTableRecord
100
AcDbBlockTableRecord
  2
cw-line-extremity6
340
0
 70
     0
280
     1
281
     0
  0
BLOCK_RECORD
  5
203
330
1
100
AcDbSymbolTableRecord
100
AcDbBlockTableRecord
  2
cw-line-extremity9
340
0
 70
     0
280
     1
281
     0
  0
BLOCK_RECORD
  5
205
330
1
100
AcDbSymbolTableRecord
100
AcDbBlockTableRecord
  2
cw-line-extremity10
340
0
 70
     0
280
     1
281
     0
  0
BLOCK_RECORD
  5
207
330
1
100
AcDbSymbolTableRecord
100
AcDbBlockTableRecord
  2
cw-line-extremity1
340
0
 70
     0
280
     1
281
     0
  0
BLOCK_RECORD
  5
1B
330
1
100
AcDbSymbolTableRecord
100
AcDbBlockTableRecord
  2
*Paper_Space69
340
1E
 70
     0
280
     1
281
     0
  0
ENDTAB
  0
ENDSEC
  0
SECTION
  2
BLOCKS
  0
BLOCK
  5
20
330
1F
100
AcDbEntity
  8
0
100
AcDbBlockBegin
  2
*Model_Space
 70
     0
 10
0.0
 20
0.0
 30
0.0
  3
*Model_Space
  1

  0
ENDBLK
  5
21
330
1F
100
AcDbEntity
  8
0
100
AcDbBlockEnd
  0
BLOCK
  5
221
330
21F
100
AcDbEntity
 67
     1
  8
0
100
AcDbBlockBegin
  2
*Paper_Space
 70
     0
 10
0.0
 20
0.0
 30
0.0
  3
*Paper_Space
  1

  0
ENDBLK
  5
222
330
21F
100
AcDbEntity
 67
     1
  8
0
100
AcDbBlockEnd
  0
BLOCK
  5
7D
330
78
100
AcDbEntity
  8
0
100
AcDbBlockBegin
  2
CDWK_PTTYP1
 70
     0
 10
0.0
 20
0.0
 30
0.0
  3
CDWK_PTTYP1
  1

  0
LINE
  5
79
330
78
100
AcDbEntity
  8
0
  6
Continuous
 62
     0
370
    -2
390
5F
100
AcDbLine
 10
-0.5
 20
0.5
 30
0.0
 11
0.5
 21
0.5
 31
0.0
  0
LINE
  5
7A
330
78
100
AcDbEntity
  8
0
  6
Continuous
 62
     0
370
    -2
390
5F
100
AcDbLine
 10
0.5
 20
0.5
 30
0.0
 11
0.5
 21
-0.5
 31
0.0
  0
LINE
  5
7B
330
78
100
AcDbEntity
  8
0
  6
Continuous
 62
     0
370
    -2
390
5F
100
AcDbLine
 10
0.5
 20
-0.5
 30
0.0
 11
-0.5
 21
-0.5
 31
0.0
  0
LINE
  5
7C
330
78
100
AcDbEntity
  8
0
  6
Continuous
 62
     0
370
    -2
390
5F
100
AcDbLine
 10
-0.5
 20
-0.5
 30
0.0
 11
-0.5
 21
0.5
 31
0.0
  0
ENDBLK
  5
7E
330
78
100
AcDbEntity
  8
0
100
AcDbBlockEnd
  0
BLOCK
  5
82
330
7F
100
AcDbEntity
  8
0
100
AcDbBlockBegin
  2
CDWK_PTTYP2
 70
     0
 10
0.0
 20
0.0
 30
0.0
  3
CDWK_PTTYP2
  1

  0
LINE
  5
80
330
7F
100
AcDbEntity
  8
0
  6
Continuous
 62
     0
370
    -2
390
5F
100
AcDbLine
 10
0.0
 20
0.5
 30
0.0
 11
0.0
 21
-0.5
 31
0.0
  0
LINE
  5
81
330
7F
100
AcDbEntity
  8
0
  6
Continuous
 62
     0
370
    -2
390
5F
100
AcDbLine
 10
0.5
 20
0.0
 30
0.0
 11
-0.5
 21
0.0
 31
0.0
  0
ENDBLK
  5
83
330
7F
100
AcDbEntity
  8
0
100
AcDbBlockEnd
  0
BLOCK
  5
86
330
84
100
AcDbEntity
  8
0
100
AcDbBlockBegin
  2
CDWK_PTTYP4
 70
     0
 10
0.0
 20
0.0
 30
0.0
  3
CDWK_PTTYP4
  1

  0
HATCH
  5
85
330
84
100
AcDbEntity
  8
0
  6
Continuous
 62
     0
370
    -2
390
5F
100
AcDbHatch
 10
0.0
 20
0.0
 30
0.0
210
0.0
220
0.0
230
1.0
  2
SOLID
 70
     1
 71
     0
 91
        1
 92
        1
 93
        1
 72
     2
 10
0.0
 20
0.0
 40
0.5
 50
0.0
 51
360.0
 73
     1
 97
        0
 75
     0
 76
     1
 98
        0
  0
ENDBLK
  5
87
330
84
100
AcDbEntity
  8
0
100
AcDbBlockEnd
  0
BLOCK
  5
8F
330
88
100
AcDbEntity
  8
0
100
AcDbBlockBegin
  2
CDWK_PTTYP5
 70
     0
 10
0.0
 20
0.0
 30
0.0
  3
CDWK_PTTYP5
  1

  0
LINE
  5
89
330
88
100
AcDbEntity
  8
0
  6
Continuous
 62
     0
370
    -2
390
5F
100
AcDbLine
 10
-0.5
 20
0.5
 30
0.0
 11
0.5
 21
0.5
 31
0.0
  0
LINE
  5
8A
330
88
100
AcDbEntity
  8
0
  6
Continuous
 62
     0
370
    -2
390
5F
100
AcDbLine
 10
0.5
 20
0.5
 30
0.0
 11
0.5
 21
-0.5
 31
0.0
  0
LINE
  5
8B
330
88
100
AcDbEntity
  8
0
  6
Continuous
 62
     0
370
    -2
390
5F
100
AcDbLine
 10
0.5
 20
-0.5
 30
0.0
 11
-0.5
 21
-0.5
 31
0.0
  0
LINE
  5
8C
330
88
100
AcDbEntity
  8
0
  6
Continuous
 62
     0
370
    -2
390
5F
100
AcDbLine
 10
-0.5
 20
-0.5
 30
0.0
 11
-0.5
 21
0.5
 31
0.0
  0
HATCH
  5
8D
330
88
100
AcDbEntity
  8
0
  6
Continuous
 62
     0
370
    -2
390
5F
100
AcDbHatch
 10
0.0
 20
0.0
 30
0.0
210
0.0
220
0.0
230
1.0
  2
SOLID
 70
     1
 71
     0
 91
        1
 92
        3
 72
     0
 73
     1
 93
        4
 10
-0.5
 20
0.0
 10
0.0
 20
0.0
 10
0.0
 20
-0.5
 10
-0.5
 20
-0.5
 97
        0
 75
     0
 76
     1
 98
        0
  0
HATCH
  5
8E
330
88
100
AcDbEntity
  8
0
  6
Continuous
 62
     0
370
    -2
390
5F
100
AcDbHatch
 10
0.0
 20
0.0
 30
0.0
210
0.0
220
0.0
230
1.0
  2
SOLID
 70
     1
 71
     0
 91
        1
 92
        3
 72
     0
 73
     1
 93
        4
 10
0.0
 20
0.0
 10
0.5
 20
0.0
 10
0.5
 20
0.5
 10
0.0
 20
0.5
 97
        0
 75
     0
 76
     1
 98
        0
  0
ENDBLK
  5
90
330
88
100
AcDbEntity
  8
0
100
AcDbBlockEnd
  0
BLOCK
  5
97
330
91
100
AcDbEntity
  8
0
100
AcDbBlockBegin
  2
CDWK_PTTYP6
 70
     0
 10
0.0
 20
0.0
 30
0.0
  3
CDWK_PTTYP6
  1

  0
LINE
  5
92
330
91
100
AcDbEntity
  8
0
  6
Continuous
 62
     0
370
    -2
390
5F
100
AcDbLine
 10
-0.5
 20
0.5
 30
0.0
 11
0.5
 21
0.5
 31
0.0
  0
LINE
  5
93
330
91
100
AcDbEntity
  8
0
  6
Continuous
 62
     0
370
    -2
390
5F
100
AcDbLine
 10
0.5
 20
0.5
 30
0.0
 11
0.5
 21
-0.5
 31
0.0
  0
LINE
  5
94
330
91
100
AcDbEntity
  8
0
  6
Continuous
 62
     0
370
    -2
390
5F
100
AcDbLine
 10
0.5
 20
-0.5
 30
0.0
 11
-0.5
 21
-0.5
 31
0.0
  0
LINE
  5
95
330
91
100
AcDbEntity
  8
0
  6
Continuous
 62
     0
370
    -2
390
5F
100
AcDbLine
 10
-0.5
 20
-0.5
 30
0.0
 11
-0.5
 21
0.5
 31
0.0
  0
HATCH
  5
96
330
91
100
AcDbEntity
  8
0
  6
Continuous
 62
     0
370
    -2
390
5F
100
AcDbHatch
 10
0.0
 20
0.0
 30
0.0
210
0.0
220
0.0
230
1.0
  2
SOLID
 70
     1
 71
     0
 91
        1
 92
        3
 72
     0
 73
     1
 93
        3
 10
-0.5
 20
-0.5
 10
-0.5
 20
0.5
 10
0.5
 20
0.5
 97
        0
 75
     0
 76
     1
 98
        0
  0
ENDBLK
  5
98
330
91
100
AcDbEntity
  8
0
100
AcDbBlockEnd
  0
BLOCK
  5
A0
330
99
100
AcDbEntity
  8
0
100
AcDbBlockBegin
  2
CDWK_PTTYP7
 70
     0
 10
0.0
 20
0.0
 30
0.0
  3
CDWK_PTTYP7
  1

  0
LINE
  5
9A
330
99
100
AcDbEntity
  8
0
  6
Continuous
 62
     0
370
    -2
390
5F
100
AcDbLine
 10
-0.5
 20
0.5
 30
0.0
 11
0.5
 21
0.5
 31
0.0
  0
LINE
  5
9B
330
99
100
AcDbEntity
  8
0
  6
Continuous
 62
     0
370
    -2
390
5F
100
AcDbLine
 10
0.5
 20
0.5
 30
0.0
 11
0.5
 21
-0.5
 31
0.0
  0
LINE
  5
9C
330
99
100
AcDbEntity
  8
0
  6
Continuous
 62
     0
370
    -2
390
5F
100
AcDbLine
 10
0.5
 20
-0.5
 30
0.0
 11
-0.5
 21
-0.5
 31
0.0
  0
LINE
  5
9D
330
99
100
AcDbEntity
  8
0
  6
Continuous
 62
     0
370
    -2
390
5F
100
AcDbLine
 10
-0.5
 20
-0.5
 30
0.0
 11
-0.5
 21
0.5
 31
0.0
  0
LINE
  5
9E
330
99
100
AcDbEntity
  8
0
  6
Continuous
 62
     0
370
    -2
390
5F
100
AcDbLine
 10
0.0
 20
0.5
 30
0.0
 11
0.0
 21
-0.5
 31
0.0
  0
LINE
  5
9F
330
99
100
AcDbEntity
  8
0
  6
Continuous
 62
     0
370
    -2
390
5F
100
AcDbLine
 10
0.5
 20
0.0
 30
0.0
 11
-0.5
 21
0.0
 31
0.0
  0
ENDBLK
  5
A1
330
99
100
AcDbEntity
  8
0
100
AcDbBlockEnd
  0
BLOCK
  5
A4
330
A2
100
AcDbEntity
  8
0
100
AcDbBlockBegin
  2
CDWK_PTTYP8
 70
     0
 10
0.0
 20
0.0
 30
0.0
  3
CDWK_PTTYP8
  1

  0
HATCH
  5
A3
330
A2
100
AcDbEntity
  8
0
  6
Continuous
 62
     0
370
    -2
390
5F
100
AcDbHatch
 10
0.0
 20
0.0
 30
0.0
210
0.0
220
0.0
230
1.0
  2
SOLID
 70
     1
 71
     0
 91
        1
 92
        3
 72
     0
 73
     1
 93
        4
 10
0.5
 20
0.5
 10
0.5
 20
-0.5
 10
-0.5
 20
-0.5
 10
-0.5
 20
0.5
 97
        0
 75
     0
 76
     1
 98
        0
  0
ENDBLK
  5
A5
330
A2
100
AcDbEntity
  8
0
100
AcDbBlockEnd
  0
BLOCK
  5
A9
330
A6
100
AcDbEntity
  8
0
100
AcDbBlockBegin
  2
CDWK_PTTYP9
 70
     0
 10
0.0
 20
0.0
 30
0.0
  3
CDWK_PTTYP9
  1

  0
CIRCLE
  5
A7
330
A6
100
AcDbEntity
  8
0
  6
Continuous
 62
     0
370
    -2
390
5F
100
AcDbCircle
 10
0.0
 20
0.0
 30
0.0
 40
0.1666666666666667
  0
CIRCLE
  5
A8
330
A6
100
AcDbEntity
  8
0
  6
Continuous
 62
     0
370
    -2
390
5F
100
AcDbCircle
 10
0.0
 20
0.0
 30
0.0
 40
0.5
  0
ENDBLK
  5
AA
330
A6
100
AcDbEntity
  8
0
100
AcDbBlockEnd
  0
BLOCK
  5
AD
330
AB
100
AcDbEntity
  8
0
100
AcDbBlockBegin
  2
CDWK_PTTYP10
 70
     0
 10
0.0
 20
0.0
 30
0.0
  3
CDWK_PTTYP10
  1

  0
CIRCLE
  5
AC
330
AB
100
AcDbEntity
  8
0
  6
Continuous
 62
     0
370
    -2
390
5F
100
AcDbCircle
 10
0.0
 20
0.0
 30
0.0
 40
0.5
  0
ENDBLK
  5
AE
330
AB
100
AcDbEntity
  8
0
100
AcDbBlockEnd
  0
BLOCK
  5
B2
330
AF
100
AcDbEntity
  8
0
100
AcDbBlockBegin
  2
CDWK_PTTYP11
 70
     0
 10
0.0
 20
0.0
 30
0.0
  3
CDWK_PTTYP11
  1

  0
CIRCLE
  5
B0
330
AF
100
AcDbEntity
  8
0
  6
Continuous
 62
     0
370
    -2
390
5F
100
AcDbCircle
 10
0.0
 20
0.0
 30
0.0
 40
0.25
  0
CIRCLE
  5
B1
330
AF
100
AcDbEntity
  8
0
  6
Continuous
 62
     0
370
    -2
390
5F
100
AcDbCircle
 10
0.0
 20
0.0
 30
0.0
 40
0.5
  0
ENDBLK
  5
B3
330
AF
100
AcDbEntity
  8
0
100
AcDbBlockEnd
  0
BLOCK
  5
B7
330
B4
100
AcDbEntity
  8
0
100
AcDbBlockBegin
  2
CDWK_PTTYP12
 70
     0
 10
0.0
 20
0.0
 30
0.0
  3
CDWK_PTTYP12
  1

  0
CIRCLE
  5
B5
330
B4
100
AcDbEntity
  8
0
  6
Continuous
 62
     0
370
    -2
390
5F
100
AcDbCircle
 10
0.25
 20
0.0
 30
0.0
 40
0.25
  0
CIRCLE
  5
B6
330
B4
100
AcDbEntity
  8
0
  6
Continuous
 62
     0
370
    -2
390
5F
100
AcDbCircle
 10
0.0
 20
0.0
 30
0.0
 40
0.5
  0
ENDBLK
  5
B8
330
B4
100
AcDbEntity
  8
0
100
AcDbBlockEnd
  0
BLOCK
  5
BD
330
B9
100
AcDbEntity
  8
0
100
AcDbBlockBegin
  2
CDWK_PTTYP13
 70
     0
 10
0.0
 20
0.0
 30
0.0
  3
CDWK_PTTYP13
  1

  0
CIRCLE
  5
BA
330
B9
100
AcDbEntity
  8
0
  6
Continuous
 62
     0
370
    -2
390
5F
100
AcDbCircle
 10
-0.25
 20
0.0
 30
0.0
 40
0.25
  0
CIRCLE
  5
BB
330
B9
100
AcDbEntity
  8
0
  6
Continuous
 62
     0
370
    -2
390
5F
100
AcDbCircle
 10
0.25
 20
0.0
 30
0.0
 40
0.25
  0
CIRCLE
  5
BC
330
B9
100
AcDbEntity
  8
0
  6
Continuous
 62
     0
370
    -2
390
5F
100
AcDbCircle
 10
0.0
 20
0.0
 30
0.0
 40
0.5
  0
ENDBLK
  5
BE
330
B9
100
AcDbEntity
  8
0
100
AcDbBlockEnd
  0
BLOCK
  5
C4
330
BF
100
AcDbEntity
  8
0
100
AcDbBlockBegin
  2
CDWK_PTTYP16
 70
     0
 10
0.0
 20
0.0
 30
0.0
  3
CDWK_PTTYP16
  1

  0
LINE
  5
C0
330
BF
100
AcDbEntity
  8
0
  6
Continuous
 62
     0
370
    -2
390
5F
100
AcDbLine
 10
-0.5
 20
-0.289
 30
0.0
 11
0.5
 21
-0.289
 31
0.0
  0
LINE
  5
C1
330
BF
100
AcDbEntity
  8
0
  6
Continuous
 62
     0
370
    -2
390
5F
100
AcDbLine
 10
0.5
 20
-0.289
 30
0.0
 11
0.0
 21
0.577
 31
0.0
  0
LINE
  5
C2
330
BF
100
AcDbEntity
  8
0
  6
Continuous
 62
     0
370
    -2
390
5F
100
AcDbLine
 10
0.0
 20
0.577
 30
0.0
 11
-0.5
 21
-0.289
 31
0.0
  0
CIRCLE
  5
C3
330
BF
100
AcDbEntity
  8
0
  6
Continuous
 62
     0
370
    -2
390
5F
100
AcDbCircle
 10
0.0
 20
0.0
 30
0.0
 40
0.289
  0
ENDBLK
  5
C5
330
BF
100
AcDbEntity
  8
0
100
AcDbBlockEnd
  0
BLOCK
  5
C9
330
C6
100
AcDbEntity
  8
0
100
AcDbBlockBegin
  2
CDWK_PTTYP17
 70
     0
 10
0.0
 20
0.0
 30
0.0
  3
CDWK_PTTYP17
  1

  0
CIRCLE
  5
C7
330
C6
100
AcDbEntity
  8
0
  6
Continuous
 62
     0
370
    -2
390
5F
100
AcDbCircle
 10
0.0
 20
0.0
 30
0.0
 40
0.5
  0
HATCH
  5
C8
330
C6
100
AcDbEntity
  8
0
  6
Continuous
 62
     0
370
    -2
390
5F
100
AcDbHatch
 10
0.0
 20
0.0
 30
0.0
210
0.0
220
0.0
230
1.0
  2
SOLID
 70
     1
 71
     0
 91
        1
 92
        1
 93
        1
 72
     2
 10
0.0
 20
0.0
 40
0.25
 50
0.0
 51
360.0
 73
     1
 97
        0
 75
     0
 76
     1
 98
        0
  0
ENDBLK
  5
CA
330
C6
100
AcDbEntity
  8
0
100
AcDbBlockEnd
  0
BLOCK
  5
CE
330
CB
100
AcDbEntity
  8
0
100
AcDbBlockBegin
  2
CDWK_PTTYP18
 70
     0
 10
0.0
 20
0.0
 30
0.0
  3
CDWK_PTTYP18
  1

  0
CIRCLE
  5
CC
330
CB
100
AcDbEntity
  8
0
  6
Continuous
 62
     0
370
    -2
390
5F
100
AcDbCircle
 10
0.0
 20
0.0
 30
0.0
 40
0.5
  0
CIRCLE
  5
CD
330
CB
100
AcDbEntity
  8
0
  6
Continuous
 62
     0
370
    -2
390
5F
100
AcDbCircle
 10
0.0
 20
0.0
 30
0.0
 40
0.208
  0
ENDBLK
  5
CF
330
CB
100
AcDbEntity
  8
0
100
AcDbBlockEnd
  0
BLOCK
  5
D4
330
D0
100
AcDbEntity
  8
0
100
AcDbBlockBegin
  2
CDWK_PTTYP19
 70
     0
 10
0.0
 20
0.0
 30
0.0
  3
CDWK_PTTYP19
  1

  0
CIRCLE
  5
D1
330
D0
100
AcDbEntity
  8
0
  6
Continuous
 62
     0
370
    -2
390
5F
100
AcDbCircle
 10
0.0
 20
0.0
 30
0.0
 40
0.25
  0
CIRCLE
  5
D2
330
D0
100
AcDbEntity
  8
0
  6
Continuous
 62
     0
370
    -2
390
5F
100
AcDbCircle
 10
0.0
 20
0.0
 30
0.0
 40
0.35
  0
LINE
  5
D3
330
D0
100
AcDbEntity
  8
0
  6
Continuous
 62
     0
370
    -2
390
5F
100
AcDbLine
 10
-0.25
 20
0.0
 30
0.0
 11
0.25
 21
0.0
 31
0.0
  0
ENDBLK
  5
D5
330
D0
100
AcDbEntity
  8
0
100
AcDbBlockEnd
  0
BLOCK
  5
D9
330
D6
100
AcDbEntity
  8
0
100
AcDbBlockBegin
  2
CDWK_PTTYP20
 70
     0
 10
0.0
 20
0.0
 30
0.0
  3
CDWK_PTTYP20
  1

  0
CIRCLE
  5
D7
330
D6
100
AcDbEntity
  8
0
  6
Continuous
 62
     0
370
    -2
390
5F
100
AcDbCircle
 10
0.0
 20
0.0
 30
0.0
 40
0.3333333333333333
  0
CIRCLE
  5
D8
330
D6
100
AcDbEntity
  8
0
  6
Continuous
 62
     0
370
    -2
390
5F
100
AcDbCircle
 10
0.0
 20
0.0
 30
0.0
 40
0.5
  0
ENDBLK
  5
DA
330
D6
100
AcDbEntity
  8
0
100
AcDbBlockEnd
  0
BLOCK
  5
DE
330
DB
100
AcDbEntity
  8
0
100
AcDbBlockBegin
  2
CDWK_PTTYP21
 70
     0
 10
0.0
 20
0.0
 30
0.0
  3
CDWK_PTTYP21
  1

  0
CIRCLE
  5
DC
330
DB
100
AcDbEntity
  8
0
  6
Continuous
 62
     0
370
    -2
390
5F
100
AcDbCircle
 10
0.0
 20
0.0
 30
0.0
 40
0.5
  0
LINE
  5
DD
330
DB
100
AcDbEntity
  8
0
  6
Continuous
 62
     0
370
    -2
390
5F
100
AcDbLine
 10
-0.5
 20
0.0
 30
0.0
 11
0.5
 21
0.0
 31
0.0
  0
ENDBLK
  5
DF
330
DB
100
AcDbEntity
  8
0
100
AcDbBlockEnd
  0
BLOCK
  5
E5
330
E0
100
AcDbEntity
  8
0
100
AcDbBlockBegin
  2
CDWK_PTTYP25
 70
     0
 10
0.0
 20
0.0
 30
0.0
  3
CDWK_PTTYP25
  1

  0
LINE
  5
E1
330
E0
100
AcDbEntity
  8
0
  6
Continuous
 62
     0
370
    -2
390
5F
100
AcDbLine
 10
0.0
 20
0.5
 30
0.0
 11
-0.4330127018922193
 21
-0.25
 31
0.0
  0
LINE
  5
E2
330
E0
100
AcDbEntity
  8
0
  6
Continuous
 62
     0
370
    -2
390
5F
100
AcDbLine
 10
-0.4330127018922193
 20
-0.25
 30
0.0
 11
0.4330127018922193
 21
-0.25
 31
0.0
  0
LINE
  5
E3
330
E0
100
AcDbEntity
  8
0
  6
Continuous
 62
     0
370
    -2
390
5F
100
AcDbLine
 10
0.4330127018922193
 20
-0.25
 30
0.0
 11
0.0
 21
0.5
 31
0.0
  0
CIRCLE
  5
E4
330
E0
100
AcDbEntity
  8
0
  6
Continuous
 62
     0
370
    -2
390
5F
100
AcDbCircle
 10
0.0
 20
0.0
 30
0.0
 40
0.5
  0
ENDBLK
  5
E6
330
E0
100
AcDbEntity
  8
0
100
AcDbBlockEnd
  0
BLOCK
  5
EC
330
E7
100
AcDbEntity
  8
0
100
AcDbBlockBegin
  2
CDWK_PTTYP26
 70
     0
 10
0.0
 20
0.0
 30
0.0
  3
CDWK_PTTYP26
  1

  0
LINE
  5
E8
330
E7
100
AcDbEntity
  8
0
  6
Continuous
 62
     0
370
    -2
390
5F
100
AcDbLine
 10
-0.5
 20
-0.289
 30
0.0
 11
0.5
 21
-0.289
 31
0.0
  0
LINE
  5
E9
330
E7
100
AcDbEntity
  8
0
  6
Continuous
 62
     0
370
    -2
390
5F
100
AcDbLine
 10
0.5
 20
-0.289
 30
0.0
 11
0.0
 21
0.577
 31
0.0
  0
LINE
  5
EA
330
E7
100
AcDbEntity
  8
0
  6
Continuous
 62
     0
370
    -2
390
5F
100
AcDbLine
 10
0.0
 20
0.577
 30
0.0
 11
-0.5
 21
-0.289
 31
0.0
  0
CIRCLE
  5
EB
330
E7
100
AcDbEntity
  8
0
  6
Continuous
 62
     0
370
    -2
390
5F
100
AcDbCircle
 10
0.0
 20
0.0
 30
0.0
 40
0.125
  0
ENDBLK
  5
ED
330
E7
100
AcDbEntity
  8
0
100
AcDbBlockEnd
  0
BLOCK
  5
F4
330
EE
100
AcDbEntity
  8
0
100
AcDbBlockBegin
  2
CDWK_PTTYP27
 70
     0
 10
0.0
 20
0.0
 30
0.0
  3
CDWK_PTTYP27
  1

  0
LINE
  5
EF
330
EE
100
AcDbEntity
  8
0
  6
Continuous
 62
     0
370
    -2
390
5F
100
AcDbLine
 10
0.0
 20
0.5
 30
0.0
 11
-0.4330127018922193
 21
-0.25
 31
0.0
  0
LINE
  5
F0
330
EE
100
AcDbEntity
  8
0
  6
Continuous
 62
     0
370
    -2
390
5F
100
AcDbLine
 10
-0.4330127018922193
 20
-0.25
 30
0.0
 11
0.4330127018922193
 21
-0.25
 31
0.0
  0
LINE
  5
F1
330
EE
100
AcDbEntity
  8
0
  6
Continuous
 62
     0
370
    -2
390
5F
100
AcDbLine
 10
0.4330127018922193
 20
-0.25
 30
0.0
 11
0.0
 21
0.5
 31
0.0
  0
CIRCLE
  5
F2
330
EE
100
AcDbEntity
  8
0
  6
Continuous
 62
     0
370
    -2
390
5F
100
AcDbCircle
 10
0.0
 20
0.0
 30
0.0
 40
0.125
  0
CIRCLE
  5
F3
330
EE
100
AcDbEntity
  8
0
  6
Continuous
 62
     0
370
    -2
390
5F
100
AcDbCircle
 10
0.0
 20
0.0
 30
0.0
 40
0.5
  0
ENDBLK
  5
F5
330
EE
100
AcDbEntity
  8
0
100
AcDbBlockEnd
  0
BLOCK
  5
FB
330
F6
100
AcDbEntity
  8
0
100
AcDbBlockBegin
  2
CDWK_PTTYP28
 70
     0
 10
0.0
 20
0.0
 30
0.0
  3
CDWK_PTTYP28
  1

  0
LINE
  5
F7
330
F6
100
AcDbEntity
  8
0
  6
Continuous
 62
     0
370
    -2
390
5F
100
AcDbLine
 10
-0.5
 20
0.5
 30
0.0
 11
0.5
 21
0.5
 31
0.0
  0
LINE
  5
F8
330
F6
100
AcDbEntity
  8
0
  6
Continuous
 62
     0
370
    -2
390
5F
100
AcDbLine
 10
0.5
 20
0.5
 30
0.0
 11
-0.5
 21
-0.5
 31
0.0
  0
LINE
  5
F9
330
F6
100
AcDbEntity
  8
0
  6
Continuous
 62
     0
370
    -2
390
5F
100
AcDbLine
 10
0.5
 20
-0.5
 30
0.0
 11
-0.5
 21
-0.5
 31
0.0
  0
LINE
  5
FA
330
F6
100
AcDbEntity
  8
0
  6
Continuous
 62
     0
370
    -2
390
5F
100
AcDbLine
 10
-0.5
 20
0.5
 30
0.0
 11
0.5
 21
-0.5
 31
0.0
  0
ENDBLK
  5
FC
330
F6
100
AcDbEntity
  8
0
100
AcDbBlockEnd
  0
BLOCK
  5
101
330
FD
100
AcDbEntity
  8
0
100
AcDbBlockBegin
  2
CDWK_PTTYP29
 70
     0
 10
0.0
 20
0.0
 30
0.0
  3
CDWK_PTTYP29
  1

  0
CIRCLE
  5
FE
330
FD
100
AcDbEntity
  8
0
  6
Continuous
 62
     0
370
    -2
390
5F
100
AcDbCircle
 10
0.0
 20
0.0
 30
0.0
 40
0.2
  0
CIRCLE
  5
FF
330
FD
100
AcDbEntity
  8
0
  6
Continuous
 62
     0
370
    -2
390
5F
100
AcDbCircle
 10
0.0
 20
0.0
 30
0.0
 40
0.35
  0
CIRCLE
  5
100
330
FD
100
AcDbEntity
  8
0
  6
Continuous
 62
     0
370
    -2
390
5F
100
AcDbCircle
 10
0.0
 20
0.0
 30
0.0
 40
0.5
  0
ENDBLK
  5
102
330
FD
100
AcDbEntity
  8
0
100
AcDbBlockEnd
  0
BLOCK
  5
108
330
103
100
AcDbEntity
  8
0
100
AcDbBlockBegin
  2
CDWK_PTTYP30
 70
     0
 10
0.0
 20
0.0
 30
0.0
  3
CDWK_PTTYP30
  1

  0
LINE
  5
104
330
103
100
AcDbEntity
  8
0
  6
Continuous
 62
     0
370
    -2
390
5F
100
AcDbLine
 10
-0.5
 20
0.5
 30
0.0
 11
-0.1
 21
0.1
 31
0.0
  0
LINE
  5
105
330
103
100
AcDbEntity
  8
0
  6
Continuous
 62
     0
370
    -2
390
5F
100
AcDbLine
 10
0.5
 20
0.5
 30
0.0
 11
0.1
 21
0.1
 31
0.0
  0
LINE
  5
106
330
103
100
AcDbEntity
  8
0
  6
Continuous
 62
     0
370
    -2
390
5F
100
AcDbLine
 10
0.5
 20
-0.5
 30
0.0
 11
0.1
 21
-0.1
 31
0.0
  0
LINE
  5
107
330
103
100
AcDbEntity
  8
0
  6
Continuous
 62
     0
370
    -2
390
5F
100
AcDbLine
 10
-0.5
 20
-0.5
 30
0.0
 11
-0.1
 21
-0.1
 31
0.0
  0
ENDBLK
  5
109
330
103
100
AcDbEntity
  8
0
100
AcDbBlockEnd
  0
BLOCK
  5
110
330
10A
100
AcDbEntity
  8
0
100
AcDbBlockBegin
  2
CDWK_PTTYP31
 70
     0
 10
0.0
 20
0.0
 30
0.0
  3
CDWK_PTTYP31
  1

  0
LINE
  5
10B
330
10A
100
AcDbEntity
  8
0
  6
Continuous
 62
     0
370
    -2
390
5F
100
AcDbLine
 10
-0.5
 20
0.0
 30
0.0
 11
-0.1
 21
0.0
 31
0.0
  0
LINE
  5
10C
330
10A
100
AcDbEntity
  8
0
  6
Continuous
 62
     0
370
    -2
390
5F
100
AcDbLine
 10
0.1
 20
0.0
 30
0.0
 11
0.5
 21
0.0
 31
0.0
  0
LINE
  5
10D
330
10A
100
AcDbEntity
  8
0
  6
Continuous
 62
     0
370
    -2
390
5F
100
AcDbLine
 10
0.0
 20
0.5
 30
0.0
 11
0.0
 21
0.1
 31
0.0
  0
LINE
  5
10E
330
10A
100
AcDbEntity
  8
0
  6
Continuous
 62
     0
370
    -2
390
5F
100
AcDbLine
 10
0.0
 20
-0.1
 30
0.0
 11
0.0
 21
-0.5
 31
0.0
  0
CIRCLE
  5
10F
330
10A
100
AcDbEntity
  8
0
  6
Continuous
 62
     0
370
    -2
390
5F
100
AcDbCircle
 10
0.0
 20
0.0
 30
0.0
 40
0.1
  0
ENDBLK
  5
111
330
10A
100
AcDbEntity
  8
0
100
AcDbBlockEnd
  0
BLOCK
  5
119
330
112
100
AcDbEntity
  8
0
100
AcDbBlockBegin
  2
CDWK_PTTYP32
 70
     0
 10
0.0
 20
0.0
 30
0.0
  3
CDWK_PTTYP32
  1

  0
CIRCLE
  5
113
330
112
100
AcDbEntity
  8
0
  6
Continuous
 62
     0
370
    -2
390
5F
100
AcDbCircle
 10
0.0
 20
0.0
 30
0.0
 40
0.2
  0
CIRCLE
  5
114
330
112
100
AcDbEntity
  8
0
  6
Continuous
 62
     0
370
    -2
390
5F
100
AcDbCircle
 10
0.0
 20
0.0
 30
0.0
 40
0.5
  0
LINE
  5
115
330
112
100
AcDbEntity
  8
0
  6
Continuous
 62
     0
370
    -2
390
5F
100
AcDbLine
 10
0.1414213562373095
 20
0.1414213562373095
 30
0.0
 11
0.3535533905932738
 21
0.3535533905932738
 31
0.0
  0
LINE
  5
116
330
112
100
AcDbEntity
  8
0
  6
Continuous
 62
     0
370
    -2
390
5F
100
AcDbLine
 10
-0.1414213562373095
 20
0.1414213562373095
 30
0.0
 11
-0.3535533905932738
 21
0.3535533905932738
 31
0.0
  0
LINE
  5
117
330
112
100
AcDbEntity
  8
0
  6
Continuous
 62
     0
370
    -2
390
5F
100
AcDbLine
 10
0.1414213562373095
 20
-0.1414213562373095
 30
0.0
 11
0.3535533905932738
 21
-0.3535533905932738
 31
0.0
  0
LINE
  5
118
330
112
100
AcDbEntity
  8
0
  6
Continuous
 62
     0
370
    -2
390
5F
100
AcDbLine
 10
-0.1414213562373095
 20
-0.1414213562373095
 30
0.0
 11
-0.3535533905932738
 21
-0.3535533905932738
 31
0.0
  0
ENDBLK
  5
11A
330
112
100
AcDbEntity
  8
0
100
AcDbBlockEnd
  0
BLOCK
  5
11F
330
11B
100
AcDbEntity
  8
0
100
AcDbBlockBegin
  2
CDWK_PTTYP33
 70
     0
 10
0.0
 20
0.0
 30
0.0
  3
CDWK_PTTYP33
  1

  0
LINE
  5
11C
330
11B
100
AcDbEntity
  8
0
  6
Continuous
 62
     0
370
    -2
390
5F
100
AcDbLine
 10
0.0
 20
-0.5
 30
0.0
 11
0.0
 21
0.5
 31
0.0
  0
LINE
  5
11D
330
11B
100
AcDbEntity
  8
0
  6
Continuous
 62
     0
370
    -2
390
5F
100
AcDbLine
 10
0.5
 20
0.0
 30
0.0
 11
-0.5
 21
0.0
 31
0.0
  0
CIRCLE
  5
11E
330
11B
100
AcDbEntity
  8
0
  6
Continuous
 62
     0
370
    -2
390
5F
100
AcDbCircle
 10
0.0
 20
0.0
 30
0.0
 40
0.5
  0
ENDBLK
  5
120
330
11B
100
AcDbEntity
  8
0
100
AcDbBlockEnd
  0
BLOCK
  5
125
330
121
100
AcDbEntity
  8
0
100
AcDbBlockBegin
  2
CDWK_PTTYP34
 70
     0
 10
0.0
 20
0.0
 30
0.0
  3
CDWK_PTTYP34
  1

  0
CIRCLE
  5
122
330
121
100
AcDbEntity
  8
0
  6
Continuous
 62
     0
370
    -2
390
5F
100
AcDbCircle
 10
0.0
 20
0.0
 30
0.0
 40
0.5
  0
LINE
  5
123
330
121
100
AcDbEntity
  8
0
  6
Continuous
 62
     0
370
    -2
390
5F
100
AcDbLine
 10
-0.4
 20
-0.3
 30
0.0
 11
0.3
 21
0.4
 31
0.0
  0
LINE
  5
124
330
121
100
AcDbEntity
  8
0
  6
Continuous
 62
     0
370
    -2
390
5F
100
AcDbLine
 10
-0.3
 20
-0.4
 30
0.0
 11
0.4
 21
0.3
 31
0.0
  0
ENDBLK
  5
126
330
121
100
AcDbEntity
  8
0
100
AcDbBlockEnd
  0
BLOCK
  5
12B
330
127
100
AcDbEntity
  8
0
100
AcDbBlockBegin
  2
CDWK_PTTYP35
 70
     0
 10
0.0
 20
0.0
 30
0.0
  3
CDWK_PTTYP35
  1

  0
LINE
  5
128
330
127
100
AcDbEntity
  8
0
  6
Continuous
 62
     0
370
    -2
390
5F
100
AcDbLine
 10
0.0
 20
0.2
 30
0.0
 11
0.0
 21
0.5
 31
0.0
  0
LINE
  5
129
330
127
100
AcDbEntity
  8
0
  6
Continuous
 62
     0
370
    -2
390
5F
100
AcDbLine
 10
0.0
 20
-0.2
 30
0.0
 11
0.0
 21
-0.5
 31
0.0
  0
CIRCLE
  5
12A
330
127
100
AcDbEntity
  8
0
  6
Continuous
 62
     0
370
    -2
390
5F
100
AcDbCircle
 10
0.0
 20
0.0
 30
0.0
 40
0.2
  0
ENDBLK
  5
12C
330
127
100
AcDbEntity
  8
0
100
AcDbBlockEnd
  0
BLOCK
  5
133
330
12D
100
AcDbEntity
  8
0
100
AcDbBlockBegin
  2
CDWK_PTTYP36
 70
     0
 10
0.0
 20
0.0
 30
0.0
  3
CDWK_PTTYP36
  1

  0
LINE
  5
12E
330
12D
100
AcDbEntity
  8
0
  6
Continuous
 62
     0
370
    -2
390
5F
100
AcDbLine
 10
-0.5
 20
0.2
 30
0.0
 11
0.5
 21
0.2
 31
0.0
  0
LINE
  5
12F
330
12D
100
AcDbEntity
  8
0
  6
Continuous
 62
     0
370
    -2
390
5F
100
AcDbLine
 10
0.5
 20
0.2
 30
0.0
 11
0.5
 21
-0.2
 31
0.0
  0
LINE
  5
130
330
12D
100
AcDbEntity
  8
0
  6
Continuous
 62
     0
370
    -2
390
5F
100
AcDbLine
 10
0.5
 20
-0.2
 30
0.0
 11
-0.5
 21
-0.2
 31
0.0
  0
LINE
  5
131
330
12D
100
AcDbEntity
  8
0
  6
Continuous
 62
     0
370
    -2
390
5F
100
AcDbLine
 10
-0.5
 20
-0.2
 30
0.0
 11
-0.5
 21
0.2
 31
0.0
  0
HATCH
  5
132
330
12D
100
AcDbEntity
  8
0
  6
Continuous
 62
     0
370
    -2
390
5F
100
AcDbHatch
 10
0.0
 20
0.0
 30
0.0
210
0.0
220
0.0
230
1.0
  2
SOLID
 70
     1
 71
     0
 91
        1
 92
        3
 72
     0
 73
     1
 93
        3
 10
-0.5
 20
-0.2
 10
0.5
 20
-0.2
 10
0.5
 20
0.2
 97
        0
 75
     0
 76
     1
 98
        0
  0
ENDBLK
  5
134
330
12D
100
AcDbEntity
  8
0
100
AcDbBlockEnd
  0
BLOCK
  5
138
330
135
100
AcDbEntity
  8
0
100
AcDbBlockBegin
  2
CDWK_PTTYP37
 70
     0
 10
0.0
 20
0.0
 30
0.0
  3
CDWK_PTTYP37
  1

  0
HATCH
  5
136
330
135
100
AcDbEntity
  8
0
  6
Continuous
 62
     0
370
    -2
390
5F
100
AcDbHatch
 10
0.0
 20
0.0
 30
0.0
210
0.0
220
0.0
230
1.0
  2
SOLID
 70
     1
 71
     0
 91
        1
 92
        3
 72
     0
 73
     1
 93
      202
 10
-0.3535533905932738
 20
-0.3535533905932738
 10
-0.3485533905932738
 20
-0.3535533905932737
 10
-0.3435533905932738
 20
-0.3584836591895546
 10
-0.3385533905932738
 20
-0.3632782236961988
 10
-0.3335533905932738
 20
-0.367942389128785
 10
-0.3285533905932738
 20
-0.372481054046687
 10
-0.3235533905932738
 20
-0.3768987523588579
 10
-0.3185533905932738
 20
-0.3811996897107819
 10
-0.3135533905932738
 20
-0.3853877752881235
 10
-0.3085533905932737
 20
-0.3894666497242888
 10
-0.3035533905932737
 20
-0.3934397096803965
 10
-0.2985533905932737
 20
-0.3973101295704999
 10
-0.2935533905932737
 20
-0.4010808808273714
 10
-0.2885533905932737
 20
-0.4047547490409382
 10
-0.2835533905932737
 20
-0.4083343492496384
 10
-0.2785533905932737
 20
-0.4118221396222626
 10
-0.2735533905932737
 20
-0.4152204337324827
 10
-0.2685533905932737
 20
-0.4185314115988474
 10
-0.2635533905932737
 20
-0.4217571296384408
 10
-0.2585533905932737
 20
-0.4248995296617653
 10
-0.2535533905932737
 20
-0.4279604470190231
 10
-0.2485533905932737
 20
-0.4309416179932669
 10
-0.2435533905932737
 20
-0.4338446865234004
 10
-0.2385533905932737
 20
-0.4366712103293738
 10
-0.2335533905932737
 20
-0.439422666502825
 10
-0.2285533905932737
 20
-0.4421004566186126
 10
-0.2235533905932737
 20
-0.4447059114159811
 10
-0.2185533905932737
 20
-0.4472402950923041
 10
-0.2135533905932737
 20
-0.4497048092473372
 10
-0.2085533905932737
 20
-0.4521005965115692
 10
-0.2035533905932737
 20
-0.4544287438884664
 10
-0.1985533905932736
 20
-0.456690285837111
 10
-0.1935533905932736
 20
-0.45888620711884
 10
-0.1885533905932736
 20
-0.4610174454289638
 10
-0.1835533905932736
 20
-0.4630848938324164
 10
-0.1785533905932736
 20
-0.4650894030202291
 10
-0.1735533905932736
 20
-0.4670317834019928
 10
-0.1685533905932736
 20
-0.46891280704794
 10
-0.1635533905932736
 20
-0.4707332094929264
 10
-0.1585533905932736
 20
-0.4724936914133818
 10
-0.1535533905932736
 20
-0.4741949201872336
 10
-0.1485533905932736
 20
-0.4758375313458466
 10
-0.1435533905932736
 20
-0.4774221299261716
 10
-0.1385533905932736
 20
-0.4789492917305286
 10
-0.1335533905932736
 20
-0.4804195645007682
 10
-0.1285533905932736
 20
-0.4818334690129366
 10
-0.1235533905932736
 20
-0.4831915000980183
 10
-0.1185533905932736
 20
-0.4844941275938295
 10
-0.1135533905932736
 20
-0.4857417972326848
 10
-0.1085533905932736
 20
-0.4869349314690531
 10
-0.1035533905932736
 20
-0.4880739302510473
 10
-0.0985533905932736
 20
-0.489159171739258
 10
-0.0935533905932736
 20
-0.4901910129761353
 10
-0.0885533905932736
 20
-0.4911697905088447
 10
-0.0835533905932735
 20
-0.4920958209682695
 10
-0.0785533905932735
 20
-0.4929694016065986
 10
-0.0735533905932735
 20
-0.4937908107957261
 10
-0.0685533905932735
 20
-0.494560308488493
 10
-0.0635533905932735
 20
-0.4952781366446192
 10
-0.0585533905932735
 20
-0.4959445196230107
 10
-0.0535533905932735
 20
-0.4965596645419678
 10
-0.0485533905932735
 20
-0.4971237616086806
 10
-0.0435533905932735
 20
-0.4976369844192622
 10
-0.0385533905932735
 20
-0.4980994902304456
 10
-0.0335533905932735
 20
-0.4985114202039533
 10
-0.0285533905932735
 20
-0.4988728996244386
 10
-0.0235533905932735
 20
-0.4991840380917923
 10
-0.0185533905932735
 20
-0.49944492968851
 10
-0.0135533905932735
 20
-0.4996556531227215
 10
-0.0085533905932735
 20
-0.4998162718473921
 10
-0.0035533905932735
 20
-0.4999268341561182
 10
0.0014466094067265
 20
-0.499987373255857
 10
0.0064466094067265
 20
-0.4999979073168451
 10
0.0114466094067265
 20
-0.4999584394998819
 10
0.0164466094067265
 20
-0.4998689579610739
 10
0.0214466094067265
 20
-0.4997294358340547
 10
0.0264466094067265
 20
-0.4995398311896213
 10
0.0314466094067265
 20
-0.4993000869726422
 10
0.0364466094067265
 20
-0.4990101309160174
 10
0.0414466094067265
 20
-0.4986698754313855
 10
0.0464466094067265
 20
-0.498279217476192
 10
0.0514466094067265
 20
-0.4978380383966446
 10
0.0564466094067265
 20
-0.497346203745994
 10
0.0614466094067265
 20
-0.4968035630774849
 10
0.0664466094067264
 20
-0.4962099497112257
 10
0.0714466094067265
 20
-0.4955651804741228
 10
0.0764466094067265
 20
-0.4948690554119167
 10
0.0814466094067265
 20
-0.4941213574722463
 10
0.0864466094067265
 20
-0.4933218521575424
 10
0.0914466094067265
 20
-0.4924702871464235
 10
0.0964466094067265
 20
-0.4915663918821278
 10
0.1014466094067265
 20
-0.4906098771263643
 10
0.1064466094067265
 20
-0.4896004344768079
 10
0.1114466094067265
 20
-0.4885377358462822
 10
0.1164466094067265
 20
-0.4874214329014929
 10
0.1214466094067265
 20
-0.4862511564589613
 10
0.1264466094067265
 20
-0.4850265158355881
 10
0.1314466094067265
 20
-0.4837470981510305
 10
0.1364466094067265
 20
-0.482412467578809
 10
0.1414466094067265
 20
-0.4810221645427664
 10
0.1464466094067265
 20
-0.4795757048551781
 10
0.1514466094067265
 20
-0.4780725787924608
 10
0.1564466094067265
 20
-0.4765122501040308
 10
0.1614466094067265
 20
-0.4748941549494363
 10
0.1664466094067265
 20
-0.4732177007584056
 10
0.1714466094067265
 20
-0.4714822650079264
 10
0.1764466094067265
 20
-0.4696871939098801
 10
0.1814466094067266
 20
-0.4678318010021017
 10
0.1864466094067266
 20
-0.4659153656350076
 10
0.1914466094067266
 20
-0.4639371313451162
 10
0.1964466094067266
 20
-0.4618963041058764
 10
0.2014466094067266
 20
-0.4597920504451997
 10
0.2064466094067266
 20
-0.4576234954179405
 10
0.2114466094067266
 20
-0.4553897204202862
 10
0.2164466094067266
 20
-0.4530897608315588
 10
0.2214466094067266
 20
-0.45072260346729
 10
0.2264466094067266
 20
-0.4482871838255748
 10
0.2314466094067266
 20
-0.4457823831065977
 10
0.2364466094067266
 20
-0.4432070249828292
 10
0.2414466094067266
 20
-0.4405598720946596
 10
0.2464466094067266
 20
-0.4378396222431172
 10
0.2514466094067266
 20
-0.4350449042477435
 10
0.2564466094067266
 20
-0.4321742734336012
 10
0.2614466094067266
 20
-0.4292262067066663
 10
0.2664466094067266
 20
-0.4261990971714118
 10
0.2714466094067266
 20
-0.4230912482380831
 10
0.2764466094067266
 20
-0.4199008671598476
 10
0.2814466094067266
 20
-0.4166260579314797
 10
0.2864466094067266
 20
-0.4132648134712868
 10
0.2914466094067266
 20
-0.4098150069963156
 10
0.2964466094067266
 20
-0.4062743824871597
 10
0.3014466094067266
 20
-0.4026405441224911
 10
0.3064466094067266
 20
-0.3989109445442534
 10
0.3114466094067266
 20
-0.3950828717916294
 10
0.3164466094067266
 20
-0.391153434714632
 10
0.3214466094067266
 20
-0.3871195466454601
 10
0.3264466094067267
 20
-0.3829779070663467
 10
0.3314466094067267
 20
-0.3787249809648844
 10
0.3364466094067267
 20
-0.3743569755097196
 10
0.3414466094067267
 20
-0.3698698136084067
 10
0.3464466094067267
 20
-0.3652591038217257
 10
0.3514466094067267
 20
-0.3605201060004601
 10
0.3564466094067267
 20
-0.3556476918757041
 10
0.3614466094067267
 20
-0.3506362996645505
 10
0.3664466094067267
 20
-0.34547988153926
 10
0.3714466094067267
 20
-0.3401718425359658
 10
0.3764466094067267
 20
-0.334704969129899
 10
0.3814466094067267
 20
-0.3290713452523318
 10
0.3864466094067267
 20
-0.3232622529342269
 10
0.3914466094067267
 20
-0.3172680539828188
 10
0.3964466094067267
 20
-0.3110780480586465
 10
0.4014466094067267
 20
-0.304680301118911
 10
0.4064466094067267
 20
-0.2980614362775617
 10
0.4114466094067267
 20
-0.291206376478565
 10
0.4164466094067267
 20
-0.2840980246459106
 10
0.4214466094067267
 20
-0.276716861635935
 10
0.4264466094067267
 20
-0.2690404345439063
 10
0.4314466094067267
 20
-0.2610426963649944
 10
0.4364466094067267
 20
-0.2526931404518915
 10
0.4414466094067268
 20
-0.2439556458403291
 10
0.4464466094067268
 20
-0.2347869056044327
 10
0.4514466094067268
 20
-0.2251342376211081
 10
0.4564466094067268
 20
-0.2149324518428296
 10
0.4614466094067268
 20
-0.2040992228331676
 10
0.4664466094067268
 20
-0.1925279893081412
 10
0.4714466094067268
 20
-0.1800765408735088
 10
0.4764466094067268
 20
-0.1665475742210051
 10
0.4814466094067268
 20
-0.1516529867323223
 10
0.4864466094067268
 20
-0.1349413290684758
 10
0.4914466094067268
 20
-0.1156274024472547
 10
0.4964466094067268
 20
-0.0920881648347501
 10
0.5
 20
0.0
 10
0.495
 20
0.0
 10
0.49
 20
0.0705336798983295
 10
0.485
 20
0.0994987437106621
 10
0.48
 20
0.1215524578114322
 10
0.475
 20
0.14
 10
0.47
 20
0.15612494995996
 10
0.465
 20
0.1705872210923199
 10
0.46
 20
0.1837797594948911
 10
0.455
 20
0.1959591794226544
 10
0.45
 20
0.2073041244162789
 10
0.445
 20
0.2179449471770338
 10
0.4399999999999999
 20
0.2279802623035601
 10
0.4349999999999999
 20
0.2374868417407584
 10
0.4299999999999999
 20
0.2465258607124211
 10
0.4249999999999999
 20
0.2551470164434615
 10
0.4199999999999999
 20
0.2633913438213186
 10
0.4149999999999999
 20
0.2712931993250108
 10
0.4099999999999999
 20
0.2788816953476869
 10
0.4049999999999999
 20
0.2861817604250838
 10
0.3999999999999999
 20
0.2932149382279151
 10
0.3949999999999999
 20
0.3000000000000002
 10
0.3899999999999999
 20
0.3065534211193868
 10
0.3849999999999999
 20
0.3128897569432404
 10
0.3799999999999999
 20
0.3190219428189855
 10
0.3749999999999999
 20
0.3249615361854385
 10
0.3699999999999999
 20
0.330718913883074
 10
0.3649999999999999
 20
0.3363034344160049
 10
0.3599999999999999
 20
0.3417235724968357
 10
0.3549999999999999
 20
0.3469870314579496
 10
0.3535533905932738
 20
0.3535533905932738
 97
        0
 75
     0
 76
     1
 98
        0
  0
CIRCLE
  5
137
330
135
100
AcDbEntity
  8
0
  6
Continuous
 62
     0
370
    -2
390
5F
100
AcDbCircle
 10
0.0
 20
0.0
 30
0.0
 40
0.5
  0
ENDBLK
  5
139
330
135
100
AcDbEntity
  8
0
100
AcDbBlockEnd
  0
BLOCK
  5
13E
330
13A
100
AcDbEntity
  8
0
100
AcDbBlockBegin
  2
CDWK_PTTYP38
 70
     0
 10
0.0
 20
0.0
 30
0.0
  3
CDWK_PTTYP38
  1

  0
HATCH
  5
13B
330
13A
100
AcDbEntity
  8
0
  6
Continuous
 62
     0
370
    -2
390
5F
100
AcDbHatch
 10
0.0
 20
0.0
 30
0.0
210
0.0
220
0.0
230
1.0
  2
SOLID
 70
     1
 71
     0
 91
        1
 92
        3
 72
     0
 73
     1
 93
      102
 10
0.0
 20
0.0
 10
0.0
 20
0.5
 10
0.005
 20
0.5
 10
0.01
 20
0.4999749993749688
 10
0.015
 20
0.4998999899979995
 10
0.02
 20
0.4997749493522059
 10
0.025
 20
0.4995998398718718
 10
0.03
 20
0.4993746088859545
 10
0.035
 20
0.4990991885387112
 10
0.04
 20
0.4987734956871706
 10
0.045
 20
0.4983974317750845
 10
0.05
 20
0.4979708826829135
 10
0.055
 20
0.49749371855331
 10
0.06
 20
0.4969657935914704
 10
0.065
 20
0.4963869458396343
 10
0.07
 20
0.4957569969249047
 10
0.075
 20
0.4950757517794626
 10
0.08
 20
0.4943429983321297
 10
0.085
 20
0.4935585071701227
 10
0.09
 20
0.4927220311697053
 10
0.095
 20
0.4918333050943175
 10
0.1
 20
0.4908920451586071
 10
0.105
 20
0.4898979485566356
 10
0.11
 20
0.4888506929523574
 10
0.115
 20
0.4877499359302879
 10
0.12
 20
0.4865953144040744
 10
0.125
 20
0.4853864439804639
 10
0.13
 20
0.4841229182759271
 10
0.135
 20
0.4828043081829325
 10
0.14
 20
0.4814301610825811
 10
0.145
 20
0.48
 10
0.15
 20
0.478513322698543
 10
0.1550000000000001
 20
0.4769696007084728
 10
0.1600000000000001
 20
0.4753682782853731
 10
0.1650000000000001
 20
0.4737087712930804
 10
0.1700000000000001
 20
0.4719904660054056
 10
0.1750000000000001
 20
0.4702127178203498
 10
0.1800000000000001
 20
0.4683748498798799
 10
0.1850000000000001
 20
0.466476151587624
 10
0.1900000000000001
 20
0.4645158770160606
 10
0.1950000000000001
 20
0.4624932431938871
 10
0.2000000000000001
 20
0.460407428263272
 10
0.2050000000000001
 20
0.4582575694955839
 10
0.2100000000000001
 20
0.4560427611529427
 10
0.2150000000000001
 20
0.4537620521815371
 10
0.2200000000000001
 20
0.4514144437210665
 10
0.2250000000000001
 20
0.4489988864128729
 10
0.2300000000000001
 20
0.4465142774872937
 10
0.2350000000000001
 20
0.4439594576084622
 10
0.2400000000000001
 20
0.4413332074521472
 10
0.2450000000000001
 20
0.4386342439892261
 10
0.2500000000000001
 20
0.4358612164439502
 10
0.2550000000000001
 20
0.4330127018922192
 10
0.2600000000000001
 20
0.4300872004605577
 10
0.2650000000000001
 20
0.4270831300812524
 10
0.2700000000000001
 20
0.423998820753077
 10
0.2750000000000001
 20
0.4208325082500162
 10
0.2800000000000001
 20
0.4175823272122516
 10
0.2850000000000001
 20
0.4142463035441595
 10
0.2900000000000001
 20
0.4108223460329293
 10
0.2950000000000002
 20
0.4073082370883259
 10
0.3000000000000002
 20
0.403701622488689
 10
0.3050000000000002
 20
0.3999999999999999
 10
0.3100000000000002
 20
0.3962007067131506
 10
0.3150000000000002
 20
0.3923009049186605
 10
0.3200000000000002
 20
0.3882975663070783
 10
0.3250000000000002
 20
0.3841874542459708
 10
0.3300000000000002
 20
0.3799671038392664
 10
0.3350000000000002
 20
0.3756327994198588
 10
0.3400000000000002
 20
0.3711805490593491
 10
0.3450000000000002
 20
0.366606055596467
 10
0.3500000000000002
 20
0.3619046835839512
 10
0.3550000000000002
 20
0.3570714214271423
 10
0.3600000000000002
 20
0.3521008378291649
 10
0.3650000000000002
 20
0.3469870314579492
 10
0.3700000000000002
 20
0.3417235724968353
 10
0.3750000000000002
 20
0.3363034344160045
 10
0.3800000000000002
 20
0.3307189138830736
 10
0.3850000000000002
 20
0.3249615361854382
 10
0.3900000000000002
 20
0.3190219428189851
 10
0.3950000000000002
 20
0.31288975694324
 10
0.4000000000000002
 20
0.3065534211193863
 10
0.4050000000000002
 20
0.2999999999999997
 10
0.4100000000000003
 20
0.2932149382279147
 10
0.4150000000000003
 20
0.2861817604250834
 10
0.4200000000000003
 20
0.2788816953476864
 10
0.4250000000000003
 20
0.2712931993250103
 10
0.4300000000000003
 20
0.263391343821318
 10
0.4350000000000003
 20
0.255147016443461
 10
0.4400000000000003
 20
0.2465258607124206
 10
0.4450000000000003
 20
0.2374868417407578
 10
0.4500000000000003
 20
0.2279802623035594
 10
0.4550000000000003
 20
0.2179449471770331
 10
0.4600000000000003
 20
0.2073041244162782
 10
0.4650000000000003
 20
0.1959591794226536
 10
0.4700000000000003
 20
0.1837797594948903
 10
0.4750000000000003
 20
0.170587221092319
 10
0.4800000000000003
 20
0.156124949959959
 10
0.4850000000000003
 20
0.1399999999999989
 10
0.4900000000000003
 20
0.1215524578114309
 10
0.4950000000000003
 20
0.0994987437106604
 10
0.5
 20
0.0
 97
        0
 75
     0
 76
     1
 98
        0
  0
HATCH
  5
13C
330
13A
100
AcDbEntity
  8
0
  6
Continuous
 62
     0
370
    -2
390
5F
100
AcDbHatch
 10
0.0
 20
0.0
 30
0.0
210
0.0
220
0.0
230
1.0
  2
SOLID
 70
     1
 71
     0
 91
        1
 92
        3
 72
     0
 73
     1
 93
      102
 10
0.0
 20
0.0
 10
-0.5
 20
0.0
 10
-0.495
 20
0.0
 10
-0.49
 20
-0.0705336798983295
 10
-0.485
 20
-0.0994987437106621
 10
-0.48
 20
-0.1215524578114322
 10
-0.475
 20
-0.14
 10
-0.47
 20
-0.15612494995996
 10
-0.465
 20
-0.1705872210923199
 10
-0.46
 20
-0.1837797594948911
 10
-0.455
 20
-0.1959591794226544
 10
-0.45
 20
-0.2073041244162789
 10
-0.445
 20
-0.2179449471770338
 10
-0.4399999999999999
 20
-0.2279802623035601
 10
-0.4349999999999999
 20
-0.2374868417407584
 10
-0.4299999999999999
 20
-0.2465258607124211
 10
-0.4249999999999999
 20
-0.2551470164434615
 10
-0.4199999999999999
 20
-0.2633913438213186
 10
-0.4149999999999999
 20
-0.2712931993250108
 10
-0.4099999999999999
 20
-0.2788816953476869
 10
-0.4049999999999999
 20
-0.2861817604250838
 10
-0.3999999999999999
 20
-0.2932149382279151
 10
-0.3949999999999999
 20
-0.3000000000000002
 10
-0.3899999999999999
 20
-0.3065534211193868
 10
-0.3849999999999999
 20
-0.3128897569432404
 10
-0.3799999999999999
 20
-0.3190219428189855
 10
-0.3749999999999999
 20
-0.3249615361854385
 10
-0.3699999999999999
 20
-0.330718913883074
 10
-0.3649999999999999
 20
-0.3363034344160049
 10
-0.3599999999999999
 20
-0.3417235724968357
 10
-0.3549999999999999
 20
-0.3469870314579496
 10
-0.3499999999999999
 20
-0.3521008378291652
 10
-0.3449999999999999
 20
-0.3570714214271427
 10
-0.3399999999999999
 20
-0.3619046835839516
 10
-0.3349999999999999
 20
-0.3666060555964674
 10
-0.3299999999999998
 20
-0.3711805490593494
 10
-0.3249999999999998
 20
-0.3756327994198591
 10
-0.3199999999999998
 20
-0.3799671038392667
 10
-0.3149999999999998
 20
-0.3841874542459711
 10
-0.3099999999999998
 20
-0.3882975663070786
 10
-0.3049999999999998
 20
-0.3923009049186608
 10
-0.2999999999999998
 20
-0.3962007067131507
 10
-0.2949999999999998
 20
-0.4000000000000001
 10
-0.2899999999999998
 20
-0.4037016224886891
 10
-0.2849999999999998
 20
-0.4073082370883261
 10
-0.2799999999999998
 20
-0.4108223460329296
 10
-0.2749999999999998
 20
-0.4142463035441597
 10
-0.2699999999999998
 20
-0.4175823272122518
 10
-0.2649999999999998
 20
-0.4208325082500164
 10
-0.2599999999999998
 20
-0.4239988207530773
 10
-0.2549999999999998
 20
-0.4270831300812526
 10
-0.2499999999999998
 20
-0.4300872004605579
 10
-0.2449999999999998
 20
-0.4330127018922195
 10
-0.2399999999999998
 20
-0.4358612164439503
 10
-0.2349999999999998
 20
-0.4386342439892263
 10
-0.2299999999999998
 20
-0.4413332074521473
 10
-0.2249999999999998
 20
-0.4439594576084624
 10
-0.2199999999999998
 20
-0.4465142774872939
 10
-0.2149999999999997
 20
-0.4489988864128731
 10
-0.2099999999999997
 20
-0.4514144437210667
 10
-0.2049999999999997
 20
-0.4537620521815372
 10
-0.1999999999999997
 20
-0.4560427611529429
 10
-0.1949999999999997
 20
-0.4582575694955841
 10
-0.1899999999999997
 20
-0.4604074282632722
 10
-0.1849999999999997
 20
-0.4624932431938872
 10
-0.1799999999999997
 20
-0.4645158770160608
 10
-0.1749999999999997
 20
-0.4664761515876241
 10
-0.1699999999999997
 20
-0.46837484987988
 10
-0.1649999999999997
 20
-0.47021271782035
 10
-0.1599999999999997
 20
-0.4719904660054058
 10
-0.1549999999999997
 20
-0.4737087712930805
 10
-0.1499999999999997
 20
-0.4753682782853733
 10
-0.1449999999999997
 20
-0.4769696007084729
 10
-0.1399999999999997
 20
-0.4785133226985431
 10
-0.1349999999999997
 20
-0.4800000000000001
 10
-0.1299999999999997
 20
-0.4814301610825812
 10
-0.1249999999999997
 20
-0.4828043081829325
 10
-0.1199999999999997
 20
-0.4841229182759272
 10
-0.1149999999999997
 20
-0.485386443980464
 10
-0.1099999999999997
 20
-0.4865953144040744
 10
-0.1049999999999996
 20
-0.487749935930288
 10
-0.0999999999999996
 20
-0.4888506929523574
 10
-0.0949999999999996
 20
-0.4898979485566357
 10
-0.0899999999999996
 20
-0.4908920451586072
 10
-0.0849999999999996
 20
-0.4918333050943176
 10
-0.0799999999999996
 20
-0.4927220311697053
 10
-0.0749999999999996
 20
-0.4935585071701227
 10
-0.0699999999999996
 20
-0.4943429983321298
 10
-0.0649999999999996
 20
-0.4950757517794626
 10
-0.0599999999999996
 20
-0.4957569969249048
 10
-0.0549999999999996
 20
-0.4963869458396343
 10
-0.0499999999999996
 20
-0.4969657935914705
 10
-0.0449999999999996
 20
-0.49749371855331
 10
-0.0399999999999996
 20
-0.4979708826829135
 10
-0.0349999999999996
 20
-0.4983974317750846
 10
-0.0299999999999996
 20
-0.4987734956871706
 10
-0.0249999999999996
 20
-0.4990991885387112
 10
-0.0199999999999996
 20
-0.4993746088859545
 10
-0.0149999999999996
 20
-0.4995998398718719
 10
-0.0099999999999996
 20
-0.499774949352206
 10
-0.0049999999999996
 20
-0.4998999899979995
 10
0.0
 20
-0.5
 97
        0
 75
     0
 76
     1
 98
        0
  0
CIRCLE
  5
13D
330
13A
100
AcDbEntity
  8
0
  6
Continuous
 62
     0
370
    -2
390
5F
100
AcDbCircle
 10
0.0
 20
0.0
 30
0.0
 40
0.5
  0
ENDBLK
  5
13F
330
13A
100
AcDbEntity
  8
0
100
AcDbBlockEnd
  0
BLOCK
  5
148
330
140
100
AcDbEntity
  8
0
100
AcDbBlockBegin
  2
CDWK_PTTYP41
 70
     0
 10
0.0
 20
0.0
 30
0.0
  3
CDWK_PTTYP41
  1

  0
LINE
  5
141
330
140
100
AcDbEntity
  8
0
  6
Continuous
 62
     0
370
    -2
390
5F
100
AcDbLine
 10
-0.5
 20
0.5
 30
0.0
 11
0.5
 21
0.5
 31
0.0
  0
LINE
  5
142
330
140
100
AcDbEntity
  8
0
  6
Continuous
 62
     0
370
    -2
390
5F
100
AcDbLine
 10
0.5
 20
0.5
 30
0.0
 11
0.5
 21
-0.5
 31
0.0
  0
LINE
  5
143
330
140
100
AcDbEntity
  8
0
  6
Continuous
 62
     0
370
    -2
390
5F
100
AcDbLine
 10
0.5
 20
-0.5
 30
0.0
 11
-0.5
 21
-0.5
 31
0.0
  0
LINE
  5
144
330
140
100
AcDbEntity
  8
0
  6
Continuous
 62
     0
370
    -2
390
5F
100
AcDbLine
 10
-0.5
 20
-0.5
 30
0.0
 11
-0.5
 21
0.5
 31
0.0
  0
LINE
  5
145
330
140
100
AcDbEntity
  8
0
  6
Continuous
 62
     0
370
    -2
390
5F
100
AcDbLine
 10
-0.375
 20
0.25
 30
0.0
 11
0.375
 21
0.25
 31
0.0
  0
LINE
  5
146
330
140
100
AcDbEntity
  8
0
  6
Continuous
 62
     0
370
    -2
390
5F
100
AcDbLine
 10
-0.375
 20
0.0
 30
0.0
 11
0.375
 21
0.0
 31
0.0
  0
LINE
  5
147
330
140
100
AcDbEntity
  8
0
  6
Continuous
 62
     0
370
    -2
390
5F
100
AcDbLine
 10
-0.375
 20
-0.25
 30
0.0
 11
0.375
 21
-0.25
 31
0.0
  0
ENDBLK
  5
149
330
140
100
AcDbEntity
  8
0
100
AcDbBlockEnd
  0
BLOCK
  5
151
330
14A
100
AcDbEntity
  8
0
100
AcDbBlockBegin
  2
CDWK_PTTYP42
 70
     0
 10
0.0
 20
0.0
 30
0.0
  3
CDWK_PTTYP42
  1

  0
LINE
  5
14B
330
14A
100
AcDbEntity
  8
0
  6
Continuous
 62
     0
370
    -2
390
5F
100
AcDbLine
 10
-0.5
 20
0.5
 30
0.0
 11
0.5
 21
0.5
 31
0.0
  0
LINE
  5
14C
330
14A
100
AcDbEntity
  8
0
  6
Continuous
 62
     0
370
    -2
390
5F
100
AcDbLine
 10
0.5
 20
0.5
 30
0.0
 11
0.5
 21
-0.5
 31
0.0
  0
LINE
  5
14D
330
14A
100
AcDbEntity
  8
0
  6
Continuous
 62
     0
370
    -2
390
5F
100
AcDbLine
 10
0.5
 20
-0.5
 30
0.0
 11
-0.5
 21
-0.5
 31
0.0
  0
LINE
  5
14E
330
14A
100
AcDbEntity
  8
0
  6
Continuous
 62
     0
370
    -2
390
5F
100
AcDbLine
 10
-0.5
 20
-0.5
 30
0.0
 11
-0.5
 21
0.5
 31
0.0
  0
LINE
  5
14F
330
14A
100
AcDbEntity
  8
0
  6
Continuous
 62
     0
370
    -2
390
5F
100
AcDbLine
 10
-0.375
 20
0.125
 30
0.0
 11
0.375
 21
0.125
 31
0.0
  0
LINE
  5
150
330
14A
100
AcDbEntity
  8
0
  6
Continuous
 62
     0
370
    -2
390
5F
100
AcDbLine
 10
-0.375
 20
-0.125
 30
0.0
 11
0.375
 21
-0.125
 31
0.0
  0
ENDBLK
  5
152
330
14A
100
AcDbEntity
  8
0
100
AcDbBlockEnd
  0
BLOCK
  5
157
330
153
100
AcDbEntity
  8
0
100
AcDbBlockBegin
  2
CDWK_PTTYP43
 70
     0
 10
0.0
 20
0.0
 30
0.0
  3
CDWK_PTTYP43
  1

  0
CIRCLE
  5
154
330
153
100
AcDbEntity
  8
0
  6
Continuous
 62
     0
370
    -2
390
5F
100
AcDbCircle
 10
0.0
 20
0.0
 30
0.0
 40
0.5
  0
LINE
  5
155
330
153
100
AcDbEntity
  8
0
  6
Continuous
 62
     0
370
    -2
390
5F
100
AcDbLine
 10
-0.375
 20
0.166
 30
0.0
 11
0.375
 21
0.166
 31
0.0
  0
LINE
  5
156
330
153
100
AcDbEntity
  8
0
  6
Continuous
 62
     0
370
    -2
390
5F
100
AcDbLine
 10
-0.375
 20
-0.166
 30
0.0
 11
0.375
 21
-0.166
 31
0.0
  0
ENDBLK
  5
158
330
153
100
AcDbEntity
  8
0
100
AcDbBlockEnd
  0
BLOCK
  5
160
330
159
100
AcDbEntity
  8
0
100
AcDbBlockBegin
  2
CDWK_PTTYP44
 70
     0
 10
0.0
 20
0.0
 30
0.0
  3
CDWK_PTTYP44
  1

  0
CIRCLE
  5
15A
330
159
100
AcDbEntity
  8
0
  6
Continuous
 62
     0
370
    -2
390
5F
100
AcDbCircle
 10
0.0
 20
0.0
 30
0.0
 40
0.5
  0
LINE
  5
15B
330
159
100
AcDbEntity
  8
0
  6
Continuous
 62
     0
370
    -2
390
5F
100
AcDbLine
 10
-0.375
 20
0.333
 30
0.0
 11
0.375
 21
0.333
 31
0.0
  0
LINE
  5
15C
330
159
100
AcDbEntity
  8
0
  6
Continuous
 62
     0
370
    -2
390
5F
100
AcDbLine
 10
-0.375
 20
0.166
 30
0.0
 11
0.375
 21
0.166
 31
0.0
  0
LINE
  5
15D
330
159
100
AcDbEntity
  8
0
  6
Continuous
 62
     0
370
    -2
390
5F
100
AcDbLine
 10
-0.375
 20
0.0
 30
0.0
 11
0.375
 21
0.0
 31
0.0
  0
LINE
  5
15E
330
159
100
AcDbEntity
  8
0
  6
Continuous
 62
     0
370
    -2
390
5F
100
AcDbLine
 10
-0.375
 20
-0.166
 30
0.0
 11
0.375
 21
-0.166
 31
0.0
  0
LINE
  5
15F
330
159
100
AcDbEntity
  8
0
  6
Continuous
 62
     0
370
    -2
390
5F
100
AcDbLine
 10
-0.375
 20
-0.333
 30
0.0
 11
0.375
 21
-0.333
 31
0.0
  0
ENDBLK
  5
161
330
159
100
AcDbEntity
  8
0
100
AcDbBlockEnd
  0
BLOCK
  5
165
330
162
100
AcDbEntity
  8
0
100
AcDbBlockBegin
  2
CDWK_PTTYP45
 70
     0
 10
0.0
 20
0.0
 30
0.0
  3
CDWK_PTTYP45
  1

  0
ELLIPSE
  5
163
330
162
100
AcDbEntity
  8
0
  6
Continuous
 62
     0
370
    -2
390
5F
100
AcDbEllipse
 10
0.0
 20
0.0
 30
0.0
 11
0.5
 21
0.0
 31
0.0
210
0.0
220
0.0
230
1.0
 40
0.82
 41
0.0
 42
6.283185307179586
  0
CIRCLE
  5
164
330
162
100
AcDbEntity
  8
0
  6
Continuous
 62
     0
370
    -2
390
5F
100
AcDbCircle
 10
-0.235
 20
0.0
 30
0.0
 40
0.26
  0
ENDBLK
  5
166
330
162
100
AcDbEntity
  8
0
100
AcDbBlockEnd
  0
BLOCK
  5
16A
330
167
100
AcDbEntity
  8
0
100
AcDbBlockBegin
  2
CDWK_PTTYP46
 70
     0
 10
0.0
 20
0.0
 30
0.0
  3
CDWK_PTTYP46
  1

  0
ELLIPSE
  5
168
330
167
100
AcDbEntity
  8
0
  6
Continuous
 62
     0
370
    -2
390
5F
100
AcDbEllipse
 10
0.0
 20
0.0
 30
0.0
 11
0.5
 21
0.0
 31
0.0
210
0.0
220
0.0
230
1.0
 40
0.82
 41
0.0
 42
6.283185307179586
  0
CIRCLE
  5
169
330
167
100
AcDbEntity
  8
0
  6
Continuous
 62
     0
370
    -2
390
5F
100
AcDbCircle
 10
0.0
 20
0.15
 30
0.0
 40
0.26
  0
ENDBLK
  5
16B
330
167
100
AcDbEntity
  8
0
100
AcDbBlockEnd
  0
BLOCK
  5
172
330
16C
100
AcDbEntity
  8
0
100
AcDbBlockBegin
  2
CDWK_PTTYP47
 70
     0
 10
0.0
 20
0.0
 30
0.0
  3
CDWK_PTTYP47
  1

  0
LINE
  5
16D
330
16C
100
AcDbEntity
  8
0
  6
Continuous
 62
     0
370
    -2
390
5F
100
AcDbLine
 10
-0.5
 20
0.166
 30
0.0
 11
0.5
 21
0.166
 31
0.0
  0
LINE
  5
16E
330
16C
100
AcDbEntity
  8
0
  6
Continuous
 62
     0
370
    -2
390
5F
100
AcDbLine
 10
0.5
 20
0.166
 30
0.0
 11
0.5
 21
-0.166
 31
0.0
  0
LINE
  5
16F
330
16C
100
AcDbEntity
  8
0
  6
Continuous
 62
     0
370
    -2
390
5F
100
AcDbLine
 10
0.5
 20
-0.166
 30
0.0
 11
-0.5
 21
-0.166
 31
0.0
  0
LINE
  5
170
330
16C
100
AcDbEntity
  8
0
  6
Continuous
 62
     0
370
    -2
390
5F
100
AcDbLine
 10
-0.5
 20
-0.166
 30
0.0
 11
-0.5
 21
0.166
 31
0.0
  0
CIRCLE
  5
171
330
16C
100
AcDbEntity
  8
0
  6
Continuous
 62
     0
370
    -2
390
5F
100
AcDbCircle
 10
0.0
 20
-0.313
 30
0.0
 40
0.4
  0
ENDBLK
  5
173
330
16C
100
AcDbEntity
  8
0
100
AcDbBlockEnd
  0
BLOCK
  5
178
330
175
100
AcDbEntity
  8
0
100
AcDbBlockBegin
  2
CDWK_PTTYP48
 70
     0
 10
0.0
 20
0.0
 30
0.0
  3
CDWK_PTTYP48
  1

  0
CIRCLE
  5
176
330
175
100
AcDbEntity
  8
0
  6
CADWORK_3
 62
     0
 48
0.1
370
    -2
390
5F
100
AcDbCircle
 10
0.0
 20
0.0
 30
0.0
 40
0.5
  0
CIRCLE
  5
177
330
175
100
AcDbEntity
  8
0
  6
Continuous
 62
     0
370
    -2
390
5F
100
AcDbCircle
 10
0.0
 20
0.0
 30
0.0
 40
0.25
  0
ENDBLK
  5
179
330
175
100
AcDbEntity
  8
0
100
AcDbBlockEnd
  0
BLOCK
  5
17F
330
17A
100
AcDbEntity
  8
0
100
AcDbBlockBegin
  2
CDWK_PTTYP49
 70
     0
 10
0.0
 20
0.0
 30
0.0
  3
CDWK_PTTYP49
  1

  0
LINE
  5
17B
330
17A
100
AcDbEntity
  8
0
  6
Continuous
 62
     0
370
    -2
390
5F
100
AcDbLine
 10
-0.5
 20
0.166
 30
0.0
 11
0.5
 21
0.166
 31
0.0
  0
LINE
  5
17C
330
17A
100
AcDbEntity
  8
0
  6
Continuous
 62
     0
370
    -2
390
5F
100
AcDbLine
 10
0.5
 20
0.166
 30
0.0
 11
0.5
 21
-0.166
 31
0.0
  0
LINE
  5
17D
330
17A
100
AcDbEntity
  8
0
  6
Continuous
 62
     0
370
    -2
390
5F
100
AcDbLine
 10
0.5
 20
-0.166
 30
0.0
 11
-0.5
 21
-0.166
 31
0.0
  0
LINE
  5
17E
330
17A
100
AcDbEntity
  8
0
  6
Continuous
 62
     0
370
    -2
390
5F
100
AcDbLine
 10
-0.5
 20
-0.166
 30
0.0
 11
-0.5
 21
0.166
 31
0.0
  0
ENDBLK
  5
180
330
17A
100
AcDbEntity
  8
0
100
AcDbBlockEnd
  0
BLOCK
  5
189
330
181
100
AcDbEntity
  8
0
100
AcDbBlockBegin
  2
CDWK_PTTYP50
 70
     0
 10
0.0
 20
0.0
 30
0.0
  3
CDWK_PTTYP50
  1

  0
LINE
  5
182
330
181
100
AcDbEntity
  8
0
  6
Continuous
 62
     0
370
    -2
390
5F
100
AcDbLine
 10
-0.5
 20
0.166
 30
0.0
 11
0.5
 21
0.166
 31
0.0
  0
LINE
  5
183
330
181
100
AcDbEntity
  8
0
  6
Continuous
 62
     0
370
    -2
390
5F
100
AcDbLine
 10
0.5
 20
0.166
 30
0.0
 11
0.5
 21
-0.166
 31
0.0
  0
LINE
  5
184
330
181
100
AcDbEntity
  8
0
  6
Continuous
 62
     0
370
    -2
390
5F
100
AcDbLine
 10
0.5
 20
-0.166
 30
0.0
 11
-0.5
 21
-0.166
 31
0.0
  0
LINE
  5
185
330
181
100
AcDbEntity
  8
0
  6
Continuous
 62
     0
370
    -2
390
5F
100
AcDbLine
 10
-0.5
 20
-0.166
 30
0.0
 11
-0.5
 21
0.166
 31
0.0
  0
LINE
  5
186
330
181
100
AcDbEntity
  8
0
  6
Continuous
 62
     0
370
    -2
390
5F
100
AcDbLine
 10
-0.25
 20
-0.166
 30
0.0
 11
-0.25
 21
0.166
 31
0.0
  0
LINE
  5
187
330
181
100
AcDbEntity
  8
0
  6
Continuous
 62
     0
370
    -2
390
5F
100
AcDbLine
 10
0.0
 20
-0.166
 30
0.0
 11
0.0
 21
0.166
 31
0.0
  0
LINE
  5
188
330
181
100
AcDbEntity
  8
0
  6
Continuous
 62
     0
370
    -2
390
5F
100
AcDbLine
 10
0.25
 20
-0.166
 30
0.0
 11
0.25
 21
0.166
 31
0.0
  0
ENDBLK
  5
18A
330
181
100
AcDbEntity
  8
0
100
AcDbBlockEnd
  0
BLOCK
  5
18E
330
18B
100
AcDbEntity
  8
0
100
AcDbBlockBegin
  2
CDWK_PTTYP51
 70
     0
 10
0.0
 20
0.0
 30
0.0
  3
CDWK_PTTYP51
  1

  0
SPLINE
  5
18C
330
18B
100
AcDbEntity
  8
0
  6
Continuous
 62
     0
370
    -2
390
5F
100
AcDbSpline
210
0.0
220
0.0
230
1.0
 70
  1064
 71
     3
 72
    12
 73
     8
 74
     6
 42
0.0000000001
 43
0.0000000001
 44
0.0000000001
 40
0.0
 40
0.0
 40
0.0
 40
0.0
 40
0.1690118339052032
 40
0.5175774661755118
 40
0.8011704844252565
 40
0.9154070810132151
 40
0.975822310881188
 40
0.975822310881188
 40
0.975822310881188
 40
0.975822310881188
 10
-0.5
 20
-0.077
 30
0.0
 10
-0.443824324006723
 20
-0.0900581618560981
 30
0.0
 10
-0.2717933876546281
 20
-0.1300471387828842
 30
0.0
 10
-0.0276699186086479
 20
-0.0006977790990417
 30
0.0
 10
0.2303349729129116
 20
0.0817803270207037
 30
0.0
 10
0.3686157174766292
 20
0.0066250198607167
 30
0.0
 10
0.4216533294581816
 20
-0.0168719667726145
 30
0.0
 10
0.44
 20
-0.025
 30
0.0
 11
-0.5
 21
-0.077
 31
0.0
 11
-0.333
 21
-0.103
 31
0.0
 11
0.0
 21
0.0
 31
0.0
 11
0.28
 21
0.045
 31
0.0
 11
0.385
 21
0.0
 31
0.0
 11
0.44
 21
-0.025
 31
0.0
  0
HATCH
  5
18D
330
18B
100
AcDbEntity
  8
0
  6
Continuous
 62
     0
370
    -2
390
5F
100
AcDbHatch
 10
0.0
 20
0.0
 30
0.0
210
0.0
220
0.0
230
1.0
  2
SOLID
 70
     1
 71
     0
 91
        1
 92
        3
 72
     0
 73
     1
 93
        3
 10
0.365
 20
-0.05
 10
0.5
 20
-0.042
 10
0.395
 20
0.045
 97
        0
 75
     0
 76
     1
 98
        0
  0
ENDBLK
  5
18F
330
18B
100
AcDbEntity
  8
0
100
AcDbBlockEnd
  0
BLOCK
  5
194
330
190
100
AcDbEntity
  8
0
100
AcDbBlockBegin
  2
CDWK_PTTYP52
 70
     0
 10
0.0
 20
0.0
 30
0.0
  3
CDWK_PTTYP52
  1

  0
LINE
  5
191
330
190
100
AcDbEntity
  8
0
  6
Continuous
 62
     0
370
    -2
390
5F
100
AcDbLine
 10
-0.5
 20
-0.289
 30
0.0
 11
0.5
 21
-0.289
 31
0.0
  0
LINE
  5
192
330
190
100
AcDbEntity
  8
0
  6
Continuous
 62
     0
370
    -2
390
5F
100
AcDbLine
 10
0.5
 20
-0.289
 30
0.0
 11
0.0
 21
0.577
 31
0.0
  0
LINE
  5
193
330
190
100
AcDbEntity
  8
0
  6
Continuous
 62
     0
370
    -2
390
5F
100
AcDbLine
 10
0.0
 20
0.577
 30
0.0
 11
-0.5
 21
-0.289
 31
0.0
  0
ENDBLK
  5
195
330
190
100
AcDbEntity
  8
0
100
AcDbBlockEnd
  0
BLOCK
  5
19B
330
196
100
AcDbEntity
  8
0
100
AcDbBlockBegin
  2
cw-dimension-symbol1
 70
     0
 10
0.0
 20
0.0
 30
0.0
  3
cw-dimension-symbol1
  1

  0
LINE
  5
197
330
196
100
AcDbEntity
  8
0
  6
Continuous
 62
     0
370
    -2
390
5F
100
AcDbLine
 10
0.0
 20
0.0
 30
0.0
 11
-1.0
 21
0.25
 31
0.0
  0
LINE
  5
198
330
196
100
AcDbEntity
  8
0
  6
Continuous
 62
     0
370
    -2
390
5F
100
AcDbLine
 10
0.0
 20
0.0
 30
0.0
 11
-1.0
 21
-0.25
 31
0.0
  0
LINE
  5
199
330
196
100
AcDbEntity
  8
0
  6
Continuous
 62
     0
370
    -2
390
5F
100
AcDbLine
 10
-1.0
 20
0.25
 30
0.0
 11
-1.0
 21
-0.25
 31
0.0
  0
LINE
  5
19A
330
196
100
AcDbEntity
  8
0
  6
Continuous
 62
     0
370
    -2
390
5F
100
AcDbLine
 10
0.0
 20
0.0
 30
0.0
 11
-1.0
 21
0.0
 31
0.0
  0
ENDBLK
  5
19C
330
196
100
AcDbEntity
  8
0
100
AcDbBlockEnd
  0
BLOCK
  5
1A0
330
19D
100
AcDbEntity
  8
0
100
AcDbBlockBegin
  2
cw-dimension-symbol2
 70
     0
 10
0.0
 20
0.0
 30
0.0
  3
cw-dimension-symbol2
  1

  0
LINE
  5
19E
330
19D
100
AcDbEntity
  8
0
  6
Continuous
 62
     0
370
    -2
390
5F
100
AcDbLine
 10
-1.0
 20
0.0
 30
0.0
 11
1.0
 21
0.0
 31
0.0
  0
LINE
  5
19F
330
19D
100
AcDbEntity
  8
0
  6
Continuous
 62
     0
370
    -2
390
5F
100
AcDbLine
 10
-0.5
 20
-0.5
 30
0.0
 11
0.5
 21
0.5
 31
0.0
  0
ENDBLK
  5
1A1
330
19D
100
AcDbEntity
  8
0
100
AcDbBlockEnd
  0
BLOCK
  5
1A5
330
1A2
100
AcDbEntity
  8
0
100
AcDbBlockBegin
  2
cw-dimension-symbol3
 70
     0
 10
0.0
 20
0.0
 30
0.0
  3
cw-dimension-symbol3
  1

  0
LINE
  5
1A3
330
1A2
100
AcDbEntity
  8
0
  6
Continuous
 62
     0
370
    -2
390
5F
100
AcDbLine
 10
-1.0
 20
0.0
 30
0.0
 11
1.0
 21
0.0
 31
0.0
  0
CIRCLE
  5
1A4
330
1A2
100
AcDbEntity
  8
0
  6
Continuous
 62
     0
370
    -2
390
5F
100
AcDbCircle
 10
0.0
 20
0.0
 30
0.0
 40
0.25
  0
ENDBLK
  5
1A6
330
1A2
100
AcDbEntity
  8
0
100
AcDbBlockEnd
  0
BLOCK
  5
1AC
330
1A7
100
AcDbEntity
  8
0
100
AcDbBlockBegin
  2
cw-dimension-symbol5
 70
     0
 10
0.0
 20
0.0
 30
0.0
  3
cw-dimension-symbol5
  1

  0
HATCH
  5
1A8
330
1A7
100
AcDbEntity
  8
0
  6
Continuous
 62
     0
370
    -2
390
5F
100
AcDbHatch
 10
0.0
 20
0.0
 30
0.0
210
0.0
220
0.0
230
1.0
  2
SOLID
 70
     1
 71
     0
 91
        1
 92
        3
 72
     0
 73
     1
 93
        3
 10
0.0
 20
0.0
 10
-1.0
 20
0.25
 10
-1.0
 20
-0.25
 97
        0
 75
     0
 76
     1
 98
        0
  0
LINE
  5
1A9
330
1A7
100
AcDbEntity
  8
0
  6
Continuous
 62
     0
370
    -2
390
5F
100
AcDbLine
 10
0.0
 20
0.0
 30
0.0
 11
-1.0
 21
0.25
 31
0.0
  0
LINE
  5
1AA
330
1A7
100
AcDbEntity
  8
0
  6
Continuous
 62
     0
370
    -2
390
5F
100
AcDbLine
 10
-1.0
 20
0.25
 30
0.0
 11
-1.0
 21
-0.25
 31
0.0
  0
LINE
  5
1AB
330
1A7
100
AcDbEntity
  8
0
  6
Continuous
 62
     0
370
    -2
390
5F
100
AcDbLine
 10
-1.0
 20
-0.25
 30
0.0
 11
0.0
 21
0.0
 31
0.0
  0
ENDBLK
  5
1AD
330
1A7
100
AcDbEntity
  8
0
100
AcDbBlockEnd
  0
BLOCK
  5
1B2
330
1AE
100
AcDbEntity
  8
0
100
AcDbBlockBegin
  2
cw-dimension-symbol6
 70
     0
 10
0.0
 20
0.0
 30
0.0
  3
cw-dimension-symbol6
  1

  0
LINE
  5
1AF
330
1AE
100
AcDbEntity
  8
0
  6
Continuous
 62
     0
370
    -2
390
5F
100
AcDbLine
 10
0.0
 20
0.0
 30
0.0
 11
-1.0
 21
0.25
 31
0.0
  0
LINE
  5
1B0
330
1AE
100
AcDbEntity
  8
0
  6
Continuous
 62
     0
370
    -2
390
5F
100
AcDbLine
 10
0.0
 20
0.0
 30
0.0
 11
-1.0
 21
-0.25
 31
0.0
  0
LINE
  5
1B1
330
1AE
100
AcDbEntity
  8
0
  6
Continuous
 62
     0
370
    -2
390
5F
100
AcDbLine
 10
0.0
 20
0.0
 30
0.0
 11
-1.0
 21
0.0
 31
0.0
  0
ENDBLK
  5
1B3
330
1AE
100
AcDbEntity
  8
0
100
AcDbBlockEnd
  0
BLOCK
  5
1B8
330
1B4
100
AcDbEntity
  8
0
100
AcDbBlockBegin
  2
cw-dimension-symbol11
 70
     0
 10
0.0
 20
0.0
 30
0.0
  3
cw-dimension-symbol11
  1

  0
LINE
  5
1B5
330
1B4
100
AcDbEntity
  8
0
  6
Continuous
 62
     0
370
    -2
390
5F
100
AcDbLine
 10
-1.0
 20
1.0
 30
0.0
 11
1.0
 21
1.0
 31
0.0
  0
LINE
  5
1B6
330
1B4
100
AcDbEntity
  8
0
  6
Continuous
 62
     0
370
    -2
390
5F
100
AcDbLine
 10
0.0
 20
0.0
 30
0.0
 11
-1.0
 21
1.0
 31
0.0
  0
LINE
  5
1B7
330
1B4
100
AcDbEntity
  8
0
  6
Continuous
 62
     0
370
    -2
390
5F
100
AcDbLine
 10
0.0
 20
0.0
 30
0.0
 11
1.0
 21
1.0
 31
0.0
  0
ENDBLK
  5
1B9
330
1B4
100
AcDbEntity
  8
0
100
AcDbBlockEnd
  0
BLOCK
  5
1BE
330
1BA
100
AcDbEntity
  8
0
100
AcDbBlockBegin
  2
cw-dimension-symbol13
 70
     0
 10
0.0
 20
0.0
 30
0.0
  3
cw-dimension-symbol13
  1

  0
LINE
  5
1BB
330
1BA
100
AcDbEntity
  8
0
  6
Continuous
 62
     0
370
    -2
390
5F
100
AcDbLine
 10
-1.0
 20
-1.0
 30
0.0
 11
1.0
 21
-1.0
 31
0.0
  0
LINE
  5
1BC
330
1BA
100
AcDbEntity
  8
0
  6
Continuous
 62
     0
370
    -2
390
5F
100
AcDbLine
 10
0.0
 20
0.0
 30
0.0
 11
-1.0
 21
-1.0
 31
0.0
  0
LINE
  5
1BD
330
1BA
100
AcDbEntity
  8
0
  6
Continuous
 62
     0
370
    -2
390
5F
100
AcDbLine
 10
0.0
 20
0.0
 30
0.0
 11
1.0
 21
-1.0
 31
0.0
  0
ENDBLK
  5
1BF
330
1BA
100
AcDbEntity
  8
0
100
AcDbBlockEnd
  0
BLOCK
  5
1C5
330
1C0
100
AcDbEntity
  8
0
100
AcDbBlockBegin
  2
cw-dimension-symbol15
 70
     0
 10
0.0
 20
0.0
 30
0.0
  3
cw-dimension-symbol15
  1

  0
HATCH
  5
1C1
330
1C0
100
AcDbEntity
  8
0
  6
Continuous
 62
     0
370
    -2
390
5F
100
AcDbHatch
 10
0.0
 20
0.0
 30
0.0
210
0.0
220
0.0
230
1.0
  2
SOLID
 70
     1
 71
     0
 91
        1
 92
        3
 72
     0
 73
     1
 93
        3
 10
0.0
 20
0.0
 10
-1.0
 20
1.0
 10
1.0
 20
1.0
 97
        0
 75
     0
 76
     1
 98
        0
  0
LINE
  5
1C2
330
1C0
100
AcDbEntity
  8
0
  6
Continuous
 62
     0
370
    -2
390
5F
100
AcDbLine
 10
0.0
 20
0.0
 30
0.0
 11
-1.0
 21
1.0
 31
0.0
  0
LINE
  5
1C3
330
1C0
100
AcDbEntity
  8
0
  6
Continuous
 62
     0
370
    -2
390
5F
100
AcDbLine
 10
-1.0
 20
1.0
 30
0.0
 11
1.0
 21
1.0
 31
0.0
  0
LINE
  5
1C4
330
1C0
100
AcDbEntity
  8
0
  6
Continuous
 62
     0
370
    -2
390
5F
100
AcDbLine
 10
1.0
 20
1.0
 30
0.0
 11
0.0
 21
0.0
 31
0.0
  0
ENDBLK
  5
1C6
330
1C0
100
AcDbEntity
  8
0
100
AcDbBlockEnd
  0
BLOCK
  5
1CC
330
1C7
100
AcDbEntity
  8
0
100
AcDbBlockBegin
  2
cw-dimension-symbol16
 70
     0
 10
0.0
 20
0.0
 30
0.0
  3
cw-dimension-symbol16
  1

  0
HATCH
  5
1C8
330
1C7
100
AcDbEntity
  8
0
  6
Continuous
 62
     0
370
    -2
390
5F
100
AcDbHatch
 10
0.0
 20
0.0
 30
0.0
210
0.0
220
0.0
230
1.0
  2
SOLID
 70
     1
 71
     0
 91
        1
 92
        3
 72
     0
 73
     1
 93
        3
 10
0.0
 20
0.0
 10
-1.0
 20
-1.0
 10
1.0
 20
-1.0
 97
        0
 75
     0
 76
     1
 98
        0
  0
LINE
  5
1C9
330
1C7
100
AcDbEntity
  8
0
  6
Continuous
 62
     0
370
    -2
390
5F
100
AcDbLine
 10
0.0
 20
0.0
 30
0.0
 11
-1.0
 21
-1.0
 31
0.0
  0
LINE
  5
1CA
330
1C7
100
AcDbEntity
  8
0
  6
Continuous
 62
     0
370
    -2
390
5F
100
AcDbLine
 10
-1.0
 20
-1.0
 30
0.0
 11
1.0
 21
-1.0
 31
0.0
  0
LINE
  5
1CB
330
1C7
100
AcDbEntity
  8
0
  6
Continuous
 62
     0
370
    -2
390
5F
100
AcDbLine
 10
1.0
 20
-1.0
 30
0.0
 11
0.0
 21
0.0
 31
0.0
  0
ENDBLK
  5
1CD
330
1C7
100
AcDbEntity
  8
0
100
AcDbBlockEnd
  0
BLOCK
  5
1D3
330
1CE
100
AcDbEntity
  8
0
100
AcDbBlockBegin
  2
cw-dimension-symbol17
 70
     0
 10
0.0
 20
0.0
 30
0.0
  3
cw-dimension-symbol17
  1

  0
LINE
  5
1CF
330
1CE
100
AcDbEntity
  8
0
  6
Continuous
 62
     0
370
    -2
390
5F
100
AcDbLine
 10
0.0
 20
0.0
 30
0.0
 11
1.0
 21
1.0
 31
0.0
  0
LINE
  5
1D0
330
1CE
100
AcDbEntity
  8
0
  6
Continuous
 62
     0
370
    -2
390
5F
100
AcDbLine
 10
1.0
 20
1.0
 30
0.0
 11
-1.0
 21
1.0
 31
0.0
  0
LINE
  5
1D1
330
1CE
100
AcDbEntity
  8
0
  6
Continuous
 62
     0
370
    -2
390
5F
100
AcDbLine
 10
-1.0
 20
1.0
 30
0.0
 11
0.0
 21
0.0
 31
0.0
  0
HATCH
  5
1D2
330
1CE
100
AcDbEntity
  8
0
  6
Continuous
 62
     0
370
    -2
390
5F
100
AcDbHatch
 10
0.0
 20
0.0
 30
0.0
210
0.0
220
0.0
230
1.0
  2
SOLID
 70
     1
 71
     0
 91
        1
 92
        3
 72
     0
 73
     1
 93
        3
 10
0.0
 20
0.0
 10
-1.0
 20
1.0
 10
0.0
 20
1.0
 97
        0
 75
     0
 76
     1
 98
        0
  0
ENDBLK
  5
1D4
330
1CE
100
AcDbEntity
  8
0
100
AcDbBlockEnd
  0
BLOCK
  5
1DA
330
1D5
100
AcDbEntity
  8
0
100
AcDbBlockBegin
  2
cw-dimension-symbol18
 70
     0
 10
0.0
 20
0.0
 30
0.0
  3
cw-dimension-symbol18
  1

  0
LINE
  5
1D6
330
1D5
100
AcDbEntity
  8
0
  6
Continuous
 62
     0
370
    -2
390
5F
100
AcDbLine
 10
0.0
 20
0.0
 30
0.0
 11
1.0
 21
-1.0
 31
0.0
  0
LINE
  5
1D7
330
1D5
100
AcDbEntity
  8
0
  6
Continuous
 62
     0
370
    -2
390
5F
100
AcDbLine
 10
1.0
 20
-1.0
 30
0.0
 11
-1.0
 21
-1.0
 31
0.0
  0
LINE
  5
1D8
330
1D5
100
AcDbEntity
  8
0
  6
Continuous
 62
     0
370
    -2
390
5F
100
AcDbLine
 10
-1.0
 20
-1.0
 30
0.0
 11
0.0
 21
0.0
 31
0.0
  0
HATCH
  5
1D9
330
1D5
100
AcDbEntity
  8
0
  6
Continuous
 62
     0
370
    -2
390
5F
100
AcDbHatch
 10
0.0
 20
0.0
 30
0.0
210
0.0
220
0.0
230
1.0
  2
SOLID
 70
     1
 71
     0
 91
        1
 92
        3
 72
     0
 73
     1
 93
        3
 10
0.0
 20
0.0
 10
-1.0
 20
-1.0
 10
0.0
 20
-1.0
 97
        0
 75
     0
 76
     1
 98
        0
  0
ENDBLK
  5
1DB
330
1D5
100
AcDbEntity
  8
0
100
AcDbBlockEnd
  0
BLOCK
  5
1DD
330
1DC
100
AcDbEntity
  8
0
100
AcDbBlockBegin
  2
cw-dimension-symbol19
 70
     0
 10
0.0
 20
0.0
 30
0.0
  3
cw-dimension-symbol19
  1

  0
ENDBLK
  5
1DE
330
1DC
100
AcDbEntity
  8
0
100
AcDbBlockEnd
  0
BLOCK
  5
1E4
330
1DF
100
AcDbEntity
  8
0
100
AcDbBlockBegin
  2
cw-dimension-symbol20
 70
     0
 10
0.0
 20
0.0
 30
0.0
  3
cw-dimension-symbol20
  1

  0
LINE
  5
1E0
330
1DF
100
AcDbEntity
  8
0
  6
Continuous
 62
     0
370
    -2
390
5F
100
AcDbLine
 10
0.0
 20
0.0
 30
0.0
 11
0.0
 21
2.0
 31
0.0
  0
LINE
  5
1E1
330
1DF
100
AcDbEntity
  8
0
  6
Continuous
 62
     0
370
    -2
390
5F
100
AcDbLine
 10
0.0
 20
0.0
 30
0.0
 11
-1.0
 21
0.33
 31
0.0
  0
LINE
  5
1E2
330
1DF
100
AcDbEntity
  8
0
  6
Continuous
 62
     0
370
    -2
390
5F
100
AcDbLine
 10
0.0
 20
0.0
 30
0.0
 11
1.0
 21
0.33
 31
0.0
  0
LINE
  5
1E3
330
1DF
100
AcDbEntity
  8
0
  6
Continuous
 62
     0
370
    -2
390
5F
100
AcDbLine
 10
0.0
 20
2.0
 30
0.0
 11
4.15
 21
2.0
 31
0.0
  0
ENDBLK
  5
1E5
330
1DF
100
AcDbEntity
  8
0
100
AcDbBlockEnd
  0
BLOCK
  5
1EB
330
1E6
100
AcDbEntity
  8
0
100
AcDbBlockBegin
  2
cw-dimension-symbol21
 70
     0
 10
0.0
 20
0.0
 30
0.0
  3
cw-dimension-symbol21
  1

  0
LINE
  5
1E7
330
1E6
100
AcDbEntity
  8
0
  6
Continuous
 62
     0
370
    -2
390
5F
100
AcDbLine
 10
0.0
 20
0.0
 30
0.0
 11
0.0
 21
-2.0
 31
0.0
  0
LINE
  5
1E8
330
1E6
100
AcDbEntity
  8
0
  6
Continuous
 62
     0
370
    -2
390
5F
100
AcDbLine
 10
0.0
 20
0.0
 30
0.0
 11
-1.0
 21
-0.33
 31
0.0
  0
LINE
  5
1E9
330
1E6
100
AcDbEntity
  8
0
  6
Continuous
 62
     0
370
    -2
390
5F
100
AcDbLine
 10
0.0
 20
0.0
 30
0.0
 11
1.0
 21
-0.33
 31
0.0
  0
LINE
  5
1EA
330
1E6
100
AcDbEntity
  8
0
  6
Continuous
 62
     0
370
    -2
390
5F
100
AcDbLine
 10
0.0
 20
-2.0
 30
0.0
 11
4.15
 21
-2.0
 31
0.0
  0
ENDBLK
  5
1EC
330
1E6
100
AcDbEntity
  8
0
100
AcDbBlockEnd
  0
BLOCK
  5
21D
330
1ED
100
AcDbEntity
  8
0
100
AcDbBlockBegin
  2
cw-line-extremity0
 70
     0
 10
0.0
 20
0.0
 30
0.0
  3
cw-line-extremity0
  1

  0
LINE
  5
1EE
330
1ED
100
AcDbEntity
  8
0
  6
Continuous
 62
     0
370
    -2
390
5F
100
AcDbLine
 10
0.0
 20
0.0
 30
0.0
 11
10.0
 21
2.5
 31
0.0
  0
LINE
  5
1EF
330
1ED
100
AcDbEntity
  8
0
  6
Continuous
 62
     0
370
    -2
390
5F
100
AcDbLine
 10
0.0
 20
0.0
 30
0.0
 11
10.0
 21
-2.5
 31
0.0
  0
LINE
  5
1F0
330
1ED
100
AcDbEntity
  8
0
  6
Continuous
 62
     0
370
    -2
390
5F
100
AcDbLine
 10
10.0
 20
2.5
 30
0.0
 11
10.0
 21
-2.5
 31
0.0
  0
ENDBLK
  5
21E
330
1ED
100
AcDbEntity
  8
0
100
AcDbBlockEnd
  0
BLOCK
  5
21B
330
1F1
100
AcDbEntity
  8
0
100
AcDbBlockBegin
  2
cw-line-extremity2
 70
     0
 10
0.0
 20
0.0
 30
0.0
  3
cw-line-extremity2
  1

  0
HATCH
  5
1F2
330
1F1
100
AcDbEntity
  8
0
  6
Continuous
 62
     0
370
     0
390
5F
100
AcDbHatch
 10
0.0
 20
0.0
 30
0.0
210
0.0
220
0.0
230
1.0
  2
SOLID
 70
     1
 71
     0
 91
        1
 92
        3
 72
     0
 73
     1
 93
        3
 10
0.0
 20
0.0
 10
10.0
 20
2.5
 10
10.0
 20
-2.5
 97
        0
 75
     0
 76
     1
 98
        0
  0
LINE
  5
1F3
330
1F1
100
AcDbEntity
  8
0
  6
Continuous
 62
     0
370
    -2
390
5F
100
AcDbLine
 10
0.0
 20
0.0
 30
0.0
 11
10.0
 21
2.5
 31
0.0
  0
LINE
  5
1F4
330
1F1
100
AcDbEntity
  8
0
  6
Continuous
 62
     0
370
    -2
390
5F
100
AcDbLine
 10
10.0
 20
2.5
 30
0.0
 11
10.0
 21
-2.5
 31
0.0
  0
LINE
  5
1F5
330
1F1
100
AcDbEntity
  8
0
  6
Continuous
 62
     0
370
    -2
390
5F
100
AcDbLine
 10
10.0
 20
-2.5
 30
0.0
 11
0.0
 21
0.0
 31
0.0
  0
ENDBLK
  5
21C
330
1F1
100
AcDbEntity
  8
0
100
AcDbBlockEnd
  0
BLOCK
  5
219
330
1F6
100
AcDbEntity
  8
0
100
AcDbBlockBegin
  2
cw-line-extremity3
 70
     0
 10
0.0
 20
0.0
 30
0.0
  3
cw-line-extremity3
  1

  0
HATCH
  5
1F7
330
1F6
100
AcDbEntity
  8
0
  6
Continuous
 62
     0
370
     0
390
5F
100
AcDbHatch
 10
0.0
 20
0.0
 30
0.0
210
0.0
220
0.0
230
1.0
  2
SOLID
 70
     1
 71
     0
 91
        1
 92
        3
 72
     0
 73
     1
 93
        3
 10
0.0
 20
0.0
 10
10.0
 20
2.5
 10
10.0
 20
-2.5
 97
        0
 75
     0
 76
     1
 98
        0
  0
LINE
  5
1F8
330
1F6
100
AcDbEntity
  8
0
  6
Continuous
 62
     0
370
    -2
390
5F
100
AcDbLine
 10
0.0
 20
0.0
 30
0.0
 11
10.0
 21
2.5
 31
0.0
  0
LINE
  5
1F9
330
1F6
100
AcDbEntity
  8
0
  6
Continuous
 62
     0
370
    -2
390
5F
100
AcDbLine
 10
10.0
 20
2.5
 30
0.0
 11
10.0
 21
-2.5
 31
0.0
  0
LINE
  5
1FA
330
1F6
100
AcDbEntity
  8
0
  6
Continuous
 62
     0
370
    -2
390
5F
100
AcDbLine
 10
10.0
 20
-2.5
 30
0.0
 11
0.0
 21
0.0
 31
0.0
  0
ENDBLK
  5
21A
330
1F6
100
AcDbEntity
  8
0
100
AcDbBlockEnd
  0
BLOCK
  5
217
330
1FB
100
AcDbEntity
  8
0
100
AcDbBlockBegin
  2
cw-line-extremity301
 70
     0
 10
0.0
 20
0.0
 30
0.0
  3
cw-line-extremity301
  1

  0
LINE
  5
1FC
330
1FB
100
AcDbEntity
  8
0
  6
Continuous
 62
     0
370
    -2
390
5F
100
AcDbLine
 10
0.0
 20
6.66665
 30
0.0
 11
0.0
 21
-6.66665
 31
0.0
  0
ENDBLK
  5
218
330
1FB
100
AcDbEntity
  8
0
100
AcDbBlockEnd
  0
BLOCK
  5
215
330
1FD
100
AcDbEntity
  8
0
100
AcDbBlockBegin
  2
cw-line-extremity4
 70
     0
 10
0.0
 20
0.0
 30
0.0
  3
cw-line-extremity4
  1

  0
HATCH
  5
1FE
330
1FD
100
AcDbEntity
  8
0
  6
Continuous
 62
     0
370
     5
390
5F
100
AcDbHatch
 10
0.0
 20
0.0
 30
0.0
210
0.0
220
0.0
230
1.0
  2
SOLID
 70
     1
 71
     0
 91
        1
 92
        1
 93
        1
 72
     2
 10
0.0
 20
0.0
 40
2.5
 50
0.0
 51
360.0
 73
     1
 97
        0
 75
     0
 76
     1
 98
        0
  0
ENDBLK
  5
216
330
1FD
100
AcDbEntity
  8
0
100
AcDbBlockEnd
  0
BLOCK
  5
213
330
1FF
100
AcDbEntity
  8
0
100
AcDbBlockBegin
  2
cw-line-extremity5
 70
     0
 10
0.0
 20
0.0
 30
0.0
  3
cw-line-extremity5
  1

  0
LINE
  5
200
330
1FF
100
AcDbEntity
  8
0
  6
Continuous
 62
     0
370
    -2
390
5F
100
AcDbLine
 10
0.0
 20
0.0
 30
0.0
 11
-2.5
 21
0.0
 31
0.0
  0
ENDBLK
  5
214
330
1FF
100
AcDbEntity
  8
0
100
AcDbBlockEnd
  0
BLOCK
  5
211
330
201
100
AcDbEntity
  8
0
100
AcDbBlockBegin
  2
cw-line-extremity6
 70
     0
 10
0.0
 20
0.0
 30
0.0
  3
cw-line-extremity6
  1

  0
LINE
  5
202
330
201
100
AcDbEntity
  8
0
  6
Continuous
 62
     0
370
    18
390
5F
100
AcDbLine
 10
0.0
 20
2.5
 30
0.0
 11
0.0
 21
-2.5
 31
0.0
  0
ENDBLK
  5
212
330
201
100
AcDbEntity
  8
0
100
AcDbBlockEnd
  0
BLOCK
  5
20F
330
203
100
AcDbEntity
  8
0
100
AcDbBlockBegin
  2
cw-line-extremity9
 70
     0
 10
0.0
 20
0.0
 30
0.0
  3
cw-line-extremity9
  1

  0
LINE
  5
204
330
203
100
AcDbEntity
  8
0
  6
Continuous
 62
     0
370
    18
390
5F
100
AcDbLine
 10
-2.5
 20
-2.5
 30
0.0
 11
2.5
 21
2.5
 31
0.0
  0
ENDBLK
  5
210
330
203
100
AcDbEntity
  8
0
100
AcDbBlockEnd
  0
BLOCK
  5
20D
330
205
100
AcDbEntity
  8
0
100
AcDbBlockBegin
  2
cw-line-extremity10
 70
     0
 10
0.0
 20
0.0
 30
0.0
  3
cw-line-extremity10
  1

  0
CIRCLE
  5
206
330
205
100
AcDbEntity
  8
0
  6
Continuous
 62
     0
370
    -2
390
5F
100
AcDbCircle
 10
0.0
 20
0.0
 30
0.0
 40
2.5
  0
ENDBLK
  5
20E
330
205
100
AcDbEntity
  8
0
100
AcDbBlockEnd
  0
BLOCK
  5
20B
330
207
100
AcDbEntity
  8
0
100
AcDbBlockBegin
  2
cw-line-extremity1
 70
     0
 10
0.0
 20
0.0
 30
0.0
  3
cw-line-extremity1
  1

  0
LINE
  5
208
330
207
100
AcDbEntity
  8
0
  6
Continuous
 62
     0
370
    -2
390
5F
100
AcDbLine
 10
0.0
 20
0.0
 30
0.0
 11
0.0
 21
2.5
 31
0.0
  0
LINE
  5
209
330
207
100
AcDbEntity
  8
0
  6
Continuous
 62
     0
370
    -2
390
5F
100
AcDbLine
 10
0.0
 20
2.5
 30
0.0
 11
1.25
 21
3.75
 31
0.0
  0
LINE
  5
20A
330
207
100
AcDbEntity
  8
0
  6
Continuous
 62
     0
370
    -2
390
5F
100
AcDbLine
 10
1.25
 20
3.75
 30
0.0
 11
3.75
 21
3.75
 31
0.0
  0
ENDBLK
  5
20C
330
207
100
AcDbEntity
  8
0
100
AcDbBlockEnd
  0
BLOCK
  5
1C
330
1B
100
AcDbEntity
  8
0
100
AcDbBlockBegin
  2
*Paper_Space69
 70
     0
 10
0.0
 20
0.0
 30
0.0
  3
*Paper_Space69
  1

  0
ENDBLK
  5
1D
330
1B
100
AcDbEntity
  8
0
100
AcDbBlockEnd
  0
ENDSEC
  0
SECTION
  2
ENTITIES
  0
HATCH
  5
228
330
1F
100
AcDbEntity
  8
Ech.1_5
  6
Continuous
 62
    33
420
 12426362
440
 33554687
370
     5
390
5F
100
AcDbHatch
 10
0.0
 20
0.0
 30
0.0
210
0.0
220
0.0
230
1.0
  2
SOLID
 70
     1
 71
     0
 91
        1
 92
        3
 72
     0
 73
     1
 93
        4
 10
54711.86486115092
 20
-10940.67003516257
 10
54666.86486115092
 20
-10940.67003516257
 10
54666.86486115092
 20
-11160.67003516257
 10
54711.86486115092
 20
-11160.67003516257
 97
        0
 75
     0
 76
     1
 98
        0
  0
LINE
  5
229
330
1F
100
AcDbEntity
  8
Ech.1_5
  6
Continuous
 62
   190
370
    15
390
5F
100
AcDbLine
 10
54666.86486115092
 20
-10940.67003516257
 30
0.0
 11
54711.86486115092
 21
-11160.67003516257
 31
0.0
  0
LINE
  5
22A
330
1F
100
AcDbEntity
  8
Ech.1_5
  6
Continuous
 62
   190
370
    15
390
5F
100
AcDbLine
 10
54666.86486115092
 20
-11160.67003516257
 30
0.0
 11
54711.86486115092
 21
-10940.67003516257
 31
0.0
  0
3DFACE
  5
22B
330
1F
100
AcDbEntity
  8
Ech.1_5
  6
Continuous
 62
     5
370
    35
390
5F
100
AcDbFace
 10
54711.86486115092
 20
-10940.67003516257
 30
2500.0
 11
54666.86486115092
 21
-10940.67003516257
 31
2500.0
 12
54666.86486115092
 22
-11160.67003516257
 32
2500.0
 13
54711.86486115092
 23
-11160.67003516257
 33
2500.0
  0
HATCH
  5
22C
330
1F
100
AcDbEntity
  8
Ech.1_5
  6
Continuous
 62
   254
420
 16643007
440
 33554687
370
     5
390
5F
100
AcDbHatch
 10
0.0
 20
0.0
 30
0.0
210
0.0
220
0.0
230
1.0
  2
SOLID
 70
     1
 71
     0
 91
        1
 92
        3
 72
     0
 73
     1
 93
        4
 10
54451.34208561402
 20
-11320.6700582381
 10
54724.86800086347
 20
-11320.67010201474
 10
54724.86797563663
 20
-11220.67172278403
 10
54451.34208561402
 20
-11220.67120501506
 97
        0
 75
     0
 76
     1
 98
        0
  0
HATCH
  5
22D
330
1F
100
AcDbEntity
  8
Ech.1_5
  6
Continuous
 62
   190
440
 33554687
370
    15
390
5F
100
AcDbHatch
 10
0.0
 20
0.0
 30
0.0
210
0.0
220
0.0
230
1.0
  2
CwHatchPattern_201
 70
     0
 71
     0
 91
        1
 92
        3
 72
     0
 73
     1
 93
        4
 10
54451.34208561402
 20
-11320.6700582381
 10
54724.86800086347
 20
-11320.67010201474
 10
54724.86797563663
 20
-11220.67172278403
 10
54451.34208561402
 20
-11220.67120501506
 97
        0
 75
     0
 76
     2
 52
359.9999908300599
 41
1.999977111816406
 77
     0
 78
    29
 53
359.9999908300599
 43
54449.1101411745
 44
-11320.67005788089
 45
0.0000160043815443
 46
99.99885559081903
 79
     2
 49
4.463888879032538
 49
-12.20259052966867
 53
89.99999083006583
 43
54434.67561827452
 44
-11306.70817540607
 45
-33.33294868472834
 46
0.0000053347898902
 79
     2
 49
2.704598946038459
 49
-97.29425664478185
 53
89.99999083006583
 43
54451.34209895101
 44
-11237.33768175797
 45
-33.33294868472834
 46
0.0000053347898902
 79
     2
 49
2.704598946038459
 49
-97.29425664478185
 53
104.9324554296762
 43
54467.61132305022
 44
-11300.42844306905
 45
-33.33476102524968
 46
99.99838143864031
 79
     2
 49
61.59568390210552
 49
-455.8708662862773
 53
75.06752623045547
 43
54468.40580334171
 44
-11300.42844319621
 45
-33.33479303383859
 46
-99.9983707684753
 79
     2
 49
61.59568390210552
 49
-455.8708662862773
 53
15.25511015379137
 43
54453.57403005354
 44
-11320.67005859532
 45
-33.33294763833535
 46
0.0000062283312318
 79
     2
 49
4.530358026105432
 49
-375.5237709647918
 53
164.7448791357348
 43
54449.1101411745
 44
-11320.67005788089
 45
-33.33294763833592
 46
0.0000000026977578
 79
     2
 49
4.530358026105432
 49
-375.5237709647918
 53
15.25511015379137
 43
54461.40590627626
 44
-11221.8632167546
 45
-33.33294763833535
 46
0.0000062283312318
 79
     2
 49
4.530358026105432
 49
-375.5237709647918
 53
344.7448715063284
 43
54470.24051548295
 44
-11220.67120567189
 45
33.33294763833563
 46
-0.0000044412551114
 79
     2
 49
4.530358026105432
 49
-375.5237709647918
 53
30.96374739134123
 43
54457.94475053022
 44
-11319.47804292393
 45
-33.33295444451404
 46
0.0000051133621302
 79
     2
 49
4.352320095597406
 49
-190.0105093458114
 53
149.0362304540932
 43
54444.71476172796
 44
-11319.47804080652
 45
-33.33295444451353
 46
0.000007775495176
 79
     2
 49
4.352320095597406
 49
-190.0105093458114
 53
30.96374739134123
 43
54457.67382882994
 44
-11224.1024750461
 45
-33.33295444451404
 46
0.0000051133621302
 79
     2
 49
4.352320095597406
 49
-190.0105093458114
 53
329.0362342687786
 43
54474.61124526372
 44
-11221.86321886806
 45
33.33295444451397
 46
-0.0000055562263943
 79
     2
 49
4.352320095597406
 49
-190.0105093458114
 53
44.99999083006286
 43
54461.67682797654
 44
-11317.23878910272
 45
-33.33295747460421
 46
0.0000053347930242
 79
     2
 49
3.701247534295362
 49
-137.7184938041319
 53
134.9999908300688
 43
54441.00734434983
 44
-11317.23878579466
 45
-33.33295747460421
 46
0.0000053347895674
 79
     2
 49
3.701247534295362
 49
-137.7184938041319
 53
44.99999083006286
 43
54455.05665804755
 44
-11226.71964171254
 45
-33.33295747460421
 46
0.0000053347930242
 79
     2
 49
3.701247534295362
 49
-137.7184938041319
 53
314.999990830057
 43
54478.34332318536
 44
-11224.10247835417
 45
33.33295747460421
 46
-0.0000053347964738
 79
     2
 49
3.701247534295362
 49
-137.7184938041319
 53
56.30992353880385
 43
54464.29400859358
 44
-11314.62161945609
 45
-33.33295354563376
 46
0.0000015613826636
 79
     2
 49
3.882245695608617
 49
-116.3014167471192
 53
123.6900543066305
 43
54438.39016457053
 44
-11314.62161531029
 45
-33.33295354563187
 46
0.0000113274743016
 79
     2
 49
3.882245695608617
 49
-116.3014167471192
 53
56.30992353880385
 43
54452.90317232026
 44
-11229.94987097146
 45
-33.33295354563376
 46
0.0000015613826636
 79
     2
 49
3.882245695608617
 49
-116.3014167471192
 53
303.6900581213159
 43
54480.96050177258
 44
-11226.71964585833
 45
33.33295354563255
 46
-0.0000091082055714
 79
     2
 49
3.882245695608617
 49
-116.3014167471192
 53
71.56503904783806
 43
54466.44749432086
 44
-11311.39139675361
 45
-33.33295591185985
 46
0.0000036637088269
 79
     2
 49
4.936543534564635
 49
-100.4715102463524
 53
108.4349426122936
 43
54436.2366798772
 44
-11311.3913919185
 45
-33.33295591185932
 46
0.0000070058732744
 79
     2
 49
4.936543534564635
 49
-100.4715102463524
 53
71.56503904783806
 43
54451.34209938387
 44
-11234.63308281193
 45
-33.33295591185985
 46
0.0000036637088269
 79
     2
 49
4.936543534564635
 49
-100.4715102463524
 53
288.4349426122817
 43
54483.11397573719
 44
-11229.94987580657
 45
33.33295591185932
 46
-0.0000070058801595
 79
     2
 49
4.936543534564635
 49
-100.4715102463524
 53
83.65979612791696
 43
54434.67561870737
 44
-11304.00358599666
 45
-33.3329933081892
 46
-199.997715941017
 79
     2
 49
3.597148915499702
 49
-298.2455644724541
 53
96.34018553221468
 43
54468.00855785546
 44
-11304.00359133145
 45
-33.33292929070114
 46
199.9977266106008
 79
     2
 49
3.597148915499701
 49
-298.2455644724541
 53
263.6598113867179
 43
54451.34209895101
 44
-11237.33768175797
 45
33.3329400455332
 46
199.9977248181299
 79
     2
 49
3.597148915499701
 49
-298.2455644724541
 53
276.3401855322028
 43
54451.34209895101
 44
-11237.33768175797
 45
33.33292929065983
 46
-199.9977266106077
 79
     2
 49
3.597148915499702
 49
-298.2455644724541
 98
        0
1001
ACAD
1010
54451.34208561402
1020
-11320.6700582381
1030
0.0
  0
LWPOLYLINE
  5
22E
330
1F
100
AcDbEntity
  8
Ech.1_5
  6
Continuous
 62
   190
370
    15
390
5F
100
AcDbPolyline
 90
        5
 70
     0
 43
0.0
 10
54451.34208561402
 20
-11320.6700582381
 10
54724.86800086347
 20
-11320.67010201474
 10
54724.86797563663
 20
-11220.67172278403
 10
54451.34208561402
 20
-11220.67120501506
 10
54451.34208561402
 20
-11320.6700582381
  0
HATCH
  5
22F
330
1F
100
AcDbEntity
  8
Ech.1_5
  6
Continuous
 62
   254
420
 14407639
440
 33554687
370
    20
390
5F
100
AcDbHatch
 10
0.0
 20
0.0
 30
0.0
210
0.0
220
0.0
230
1.0
  2
SOLID
 70
     1
 71
     0
 91
        1
 92
        3
 72
     0
 73
     1
 93
        4
 10
54724.86797563664
 20
-11333.67010227437
 10
54724.86797563664
 20
-11320.6699593287
 10
54451.34208561402
 20
-11320.6699593287
 10
54451.34208561402
 20
-11333.67007926744
 97
        0
 75
     0
 76
     1
 98
        0
  0
LWPOLYLINE
  5
230
330
1F
100
AcDbEntity
  8
Ech.1_5
  6
Continuous
 62
   190
370
    15
390
5F
100
AcDbPolyline
 90
        5
 70
     0
 43
0.0
 10
54724.86797563664
 20
-11333.67010227437
 10
54724.86797563664
 20
-11320.6699593287
 10
54451.34208561402
 20
-11320.6699593287
 10
54451.34208561402
 20
-11333.67007926744
 10
54724.86797563664
 20
-11333.67010227437
  0
HATCH
  5
232
330
1F
100
AcDbEntity
  8
Ech.1_5
  6
Continuous
 62
   190
440
 33554687
370
    15
390
231
100
AcDbHatch
 10
0.0
 20
0.0
 30
0.0
210
0.0
220
0.0
230
1.0
  2
CwHatchPattern_84
 70
     0
 71
     0
 91
        1
 92
        3
 72
     0
 73
     1
 93
        4
 10
54724.86797563664
 20
-11333.67010227437
 10
54724.86800086346
 20
-11320.67010201474
 10
54451.34208561402
 20
-11320.67009146514
 10
54451.34208561402
 20
-11333.67009165807
 97
        0
 75
     0
 76
     2
 52
0.0
 41
1.0
 77
     0
 78
     2
 53
0.0
 43
0.0
 44
0.0
 45
0.0
 46
70.0
 79
     2
 49
0.0
 49
-70.0
 53
0.0
 43
35.0
 44
35.0
 45
0.0
 46
70.0
 79
     2
 49
0.0
 49
-70.0
 98
        0
1001
ACAD
1010
0.0
1020
0.0
1030
0.0
  0
LWPOLYLINE
  5
233
330
1F
100
AcDbEntity
  8
Ech.1_5
  6
Continuous
 62
     7
370
    20
390
5F
100
AcDbPolyline
 90
        5
 70
     0
 43
0.0
 10
54724.86797563664
 20
-11333.67010227437
 10
54724.86800086346
 20
-11320.67010201474
 10
54451.34208561402
 20
-11320.67009146514
 10
54451.34208561402
 20
-11333.67009165807
 10
54724.86797563664
 20
-11333.67010227437
  0
HATCH
  5
234
330
1F
100
AcDbEntity
  8
Ech.1_5
  6
Continuous
 62
   254
420
 15656413
440
 33554687
370
    20
390
5F
100
AcDbHatch
 10
0.0
 20
0.0
 30
0.0
210
0.0
220
0.0
230
1.0
  2
SOLID
 70
     1
 71
     0
 91
        1
 92
        3
 72
     0
 73
     1
 93
        4
 10
54684.86797563664
 20
-11344.72098344404
 10
54724.86797563664
 20
-11344.72098344404
 10
54724.86797563664
 20
-11382.2791096324
 10
54684.86797563664
 20
-11382.2791096324
 97
        0
 75
     0
 76
     1
 98
        0
  0
LWPOLYLINE
  5
235
330
1F
100
AcDbEntity
  8
Ech.1_5
  6
Continuous
 62
   190
370
    15
390
5F
100
AcDbPolyline
 90
        5
 70
     0
 43
0.0
 10
54684.86797563664
 20
-11344.72098344404
 10
54724.86797563664
 20
-11344.72098344404
 10
54724.86797563664
 20
-11382.2791096324
 10
54684.86797563664
 20
-11382.2791096324
 10
54684.86797563664
 20
-11344.72098344404
  0
HATCH
  5
236
330
1F
100
AcDbEntity
  8
Ech.1_5
  6
Continuous
 62
   254
420
 16643007
440
 33554687
370
     5
390
5F
100
AcDbHatch
 10
0.0
 20
0.0
 30
0.0
210
0.0
220
0.0
230
1.0
  2
SOLID
 70
     1
 71
     0
 91
        1
 92
        3
 72
     0
 73
     1
 93
        4
 10
54952.86797563664
 20
-11320.67010201474
 10
55254.14831082394
 20
-11320.67005379613
 10
55254.14831082394
 20
-11220.67115247748
 10
54952.86800086348
 20
-11220.67172278403
 97
        0
 75
     0
 76
     1
 98
        0
  0
HATCH
  5
237
330
1F
100
AcDbEntity
  8
Ech.1_5
  6
Continuous
 62
   190
440
 33554687
370
    15
390
5F
100
AcDbHatch
 10
0.0
 20
0.0
 30
0.0
210
0.0
220
0.0
230
1.0
  2
CwHatchPattern_201
 70
     0
 71
     0
 91
        1
 92
        3
 72
     0
 73
     1
 93
        4
 10
54952.86797563664
 20
-11320.67010201474
 10
55254.14831082394
 20
-11320.67005379613
 10
55254.14831082394
 20
-11220.67115247748
 10
54952.86800086348
 20
-11220.67172278403
 97
        0
 75
     0
 76
     2
 52
0.0000091699404203
 41
1.999978065490723
 77
     0
 78
    29
 53
0.0000091699404203
 43
54950.63603013285
 44
-11320.67010237195
 45
-0.0000160043897285
 46
99.99890327453485
 79
     2
 49
4.463891007604985
 49
-12.20259634838385
 53
90.00000916994634
 43
54936.20149588078
 44
-11306.70821785987
 45
-33.33296457929876
 46
-0.0000053347995132
 79
     2
 49
2.704600235706494
 49
-97.29430303882964
 53
90.00000916994634
 43
54952.86796229966
 44
-11237.33768579817
 45
-33.33296457929876
 46
-0.0000053347995132
 79
     2
 49
2.704600235706494
 49
-97.29430303882964
 53
104.9324737695567
 43
54969.13721435155
 44
-11300.42847198598
 45
-33.33480892930972
 46
99.99841845195284
 79
     2
 49
61.59571327355251
 49
-455.8710836649333
 53
75.06754457033598
 43
54969.93169502188
 44
-11300.42847185882
 45
-33.33477692066307
 46
-99.99842912213711
 79
     2
 49
61.59571327355252
 49
-455.8710836649334
 53
15.2551284936719
 43
54955.09992114045
 44
-11320.67010165752
 45
-33.33296353290556
 46
-0.0000044412574139
 79
     2
 49
4.530360186373201
 49
-375.5239500305288
 53
164.7448974756153
 43
54950.63603013285
 44
-11320.67010237195
 45
-33.33296353290415
 46
-0.0000106668938619
 79
     2
 49
4.5303601863732
 49
-375.5239500305287
 53
15.2551284936719
 43
54962.93176947052
 44
-11221.86321019458
 45
-33.33296353290556
 46
-0.0000044412574139
 79
     2
 49
4.530360186373201
 49
-375.5239500305288
 53
344.744889846209
 43
54971.76638250838
 44
-11220.67119571559
 45
33.33296353290527
 46
0.0000062283343847
 79
     2
 49
4.530360186373201
 49
-375.5239500305288
 53
30.96376573122176
 43
54959.47064331971
 44
-11319.4780840187
 45
-33.33297033908715
 46
-0.0000055562292249
 79
     2
 49
4.352322170969103
 49
-190.0105999509196
 53
149.0362487939737
 43
54946.24064820883
 44
-11319.4780861361
 45
-33.33297033908748
 46
-0.000002894094915
 79
     2
 49
4.352322170969103
 49
-190.0105999509196
 53
30.96376573122176
 43
54959.19969096135
 44
-11224.10247074846
 45
-33.33297033908715
 46
-0.0000055562292249
 79
     2
 49
4.352322170969103
 49
-190.0105999509196
 53
329.0362526086591
 43
54976.13711475485
 44
-11221.86320808113
 45
33.33297033908722
 46
0.0000051133647515
 79
     2
 49
4.352322170969103
 49
-190.0105999509196
 53
45.00000916994338
 43
54963.20272182889
 44
-11317.23882793512
 45
-33.33297336917883
 46
-0.0000053347991953
 79
     2
 49
3.701249299207916
 49
-137.7185594741786
 53
135.0000091699494
 43
54942.53322834609
 44
-11317.23883124318
 45
-33.33297336917883
 46
-0.0000053348026556
 79
     2
 49
3.701249299207916
 49
-137.7185594741786
 53
45.00000916994338
 43
54956.58251976872
 44
-11226.71963950061
 45
-33.33297336917883
 46
-0.0000053347991953
 79
     2
 49
3.701249299207916
 49
-137.7185594741786
 53
315.0000091699375
 43
54979.86919517286
 44
-11224.1024674404
 45
33.33297336917882
 46
0.0000053347957492
 79
     2
 49
3.701249299207916
 49
-137.7185594741786
 53
56.30994187868436
 43
54965.81990285617
 44
-11314.62165620277
 45
-33.33296944020529
 46
-0.0000091082100957
 79
     2
 49
3.882247546828807
 49
-116.3014722045909
 53
123.6900726465111
 43
54939.91604648107
 44
-11314.62166034857
 45
-33.33296944020653
 46
0.0000006578861902
 79
     2
 49
3.882247546828808
 49
-116.3014722045909
 53
56.30994187868436
 43
54954.42903404852
 44
-11229.94987098915
 45
-33.33296944020529
 46
-0.0000091082100957
 79
     2
 49
3.882247546828807
 49
-116.3014722045909
 53
303.6900764611965
 43
54982.48637584581
 44
-11226.71963535481
 45
33.3329694402065
 46
0.0000015613835893
 79
     2
 49
3.882247546828808
 49
-116.3014722045909
 53
71.56505738771857
 43
54967.97338857637
 44
-11311.39143127066
 45
-33.33297180643319
 46
-0.0000070058836867
 79
     2
 49
4.936545888518964
 49
-100.4715581554501
 53
108.4349609521741
 43
54937.76255972691
 44
-11311.39143610578
 45
-33.33297180643373
 46
-0.0000036637176455
 79
     2
 49
4.936545888518964
 49
-100.4715581554501
 53
71.56505738771857
 43
54952.8679618668
 44
-11234.63308556246
 45
-33.33297180643319
 46
-0.0000070058836867
 79
     2
 49
4.936545888518964
 49
-100.4715581554501
 53
288.4349609521623
 43
54984.63985187125
 44
-11229.94986615404
 45
33.33297180643373
 46
0.0000036637107587
 79
     2
 49
4.936545888518964
 49
-100.4715581554501
 53
83.65981446779749
 43
54936.20149544792
 44
-11304.0036271608
 45
-33.33294518521988
 46
-199.9978219780469
 79
     2
 49
3.597150630773598
 49
-298.2457066886491
 53
96.34020387209519
 43
54969.53445049058
 44
-11304.00362182601
 45
-33.33300920282333
 46
199.9978113084439
 79
     2
 49
3.597150630773598
 49
-298.2457066886491
 53
263.6598297265984
 43
54952.86796229966
 44
-11237.33768579817
 45
33.33289192253567
 46
199.997830855147
 79
     2
 49
3.597150630773597
 49
-298.245706688649
 53
276.3402038720834
 43
54952.86796229966
 44
-11237.33768579817
 45
33.33300920278202
 46
-199.9978113084507
 79
     2
 49
3.597150630773597
 49
-298.245706688649
 98
        0
1001
ACAD
1010
54952.86797563665
1020
-11320.67010201474
1030
0.0
  0
LWPOLYLINE
  5
238
330
1F
100
AcDbEntity
  8
Ech.1_5
  6
Continuous
 62
   190
370
    15
390
5F
100
AcDbPolyline
 90
        5
 70
     0
 43
0.0
 10
54952.86797563664
 20
-11320.67010201474
 10
55254.14831082394
 20
-11320.67005379613
 10
55254.14831082394
 20
-11220.67115247748
 10
54952.86800086348
 20
-11220.67172278403
 10
54952.86797563664
 20
-11320.67010201474
  0
HATCH
  5
239
330
1F
100
AcDbEntity
  8
Ech.1_5
  6
Continuous
 62
   254
420
 14407639
440
 33554687
370
    20
390
5F
100
AcDbHatch
 10
0.0
 20
0.0
 30
0.0
210
0.0
220
0.0
230
1.0
  2
SOLID
 70
     1
 71
     0
 91
        1
 92
        3
 72
     0
 73
     1
 93
        4
 10
54952.86800086347
 20
-11320.6699593287
 10
54952.86800086347
 20
-11333.67010227437
 10
55254.14831082394
 20
-11333.67007693295
 10
55254.14831082394
 20
-11320.6699593287
 97
        0
 75
     0
 76
     1
 98
        0
  0
LWPOLYLINE
  5
23A
330
1F
100
AcDbEntity
  8
Ech.1_5
  6
Continuous
 62
   190
370
    15
390
5F
100
AcDbPolyline
 90
        5
 70
     0
 43
0.0
 10
54952.86800086347
 20
-11320.6699593287
 10
54952.86800086347
 20
-11333.67010227437
 10
55254.14831082394
 20
-11333.67007693295
 10
55254.14831082394
 20
-11320.6699593287
 10
54952.86800086347
 20
-11320.6699593287
  0
HATCH
  5
23B
330
1F
100
AcDbEntity
  8
Ech.1_5
  6
Continuous
 62
   190
440
 33554687
370
    15
390
231
100
AcDbHatch
 10
0.0
 20
0.0
 30
0.0
210
0.0
220
0.0
230
1.0
  2
CwHatchPattern_84
 70
     0
 71
     0
 91
        1
 92
        3
 72
     0
 73
     1
 93
        4
 10
54952.86797563665
 20
-11320.67010201474
 10
54952.86800086347
 20
-11333.67010227437
 10
55254.14831082394
 20
-11333.67009058084
 10
55254.14831082394
 20
-11320.67009039468
 97
        0
 75
     0
 76
     2
 52
0.0
 41
1.0
 77
     0
 78
     2
 53
0.0
 43
0.0
 44
0.0
 45
0.0
 46
70.0
 79
     2
 49
0.0
 49
-70.0
 53
0.0
 43
35.0
 44
35.0
 45
0.0
 46
70.0
 79
     2
 49
0.0
 49
-70.0
 98
        0
1001
ACAD
1010
0.0
1020
0.0
1030
0.0
  0
LWPOLYLINE
  5
23C
330
1F
100
AcDbEntity
  8
Ech.1_5
  6
Continuous
 62
     7
370
    20
390
5F
100
AcDbPolyline
 90
        5
 70
     0
 43
0.0
 10
54952.86797563665
 20
-11320.67010201474
 10
54952.86800086347
 20
-11333.67010227437
 10
55254.14831082394
 20
-11333.67009058084
 10
55254.14831082394
 20
-11320.67009039468
 10
54952.86797563665
 20
-11320.67010201474
  0
LINE
  5
23D
330
1F
100
AcDbEntity
  8
Ech.1_5
  6
Continuous
 62
   190
370
    15
390
5F
100
AcDbLine
 10
54724.86797563664
 20
-11344.72098344404
 30
0.0
 11
54684.86797563664
 21
-11382.2791096324
 31
0.0
  0
LINE
  5
23E
330
1F
100
AcDbEntity
  8
Ech.1_5
  6
Continuous
 62
   190
370
    15
390
5F
100
AcDbLine
 10
54724.86797563664
 20
-11382.2791096324
 30
0.0
 11
54684.86797563664
 21
-11344.72098344404
 31
0.0
  0
LWPOLYLINE
  5
23F
330
1F
100
AcDbEntity
  8
Ech.1_5
  6
Continuous
 62
   190
370
    15
390
5F
100
AcDbPolyline
 90
        5
 70
     0
 43
0.0
 10
54684.86797563664
 20
-11344.72098344404
 10
54724.86797563664
 20
-11344.72098344404
 10
54724.86797563664
 20
-11382.2791096324
 10
54684.86797563664
 20
-11382.2791096324
 10
54684.86797563664
 20
-11344.72098344404
  0
HATCH
  5
240
330
1F
100
AcDbEntity
  8
Ech.1_5
  6
Continuous
 62
   254
420
 15656413
440
 33554687
370
    20
390
5F
100
AcDbHatch
 10
0.0
 20
0.0
 30
0.0
210
0.0
220
0.0
230
1.0
  2
SOLID
 70
     1
 71
     0
 91
        1
 92
        3
 72
     0
 73
     1
 93
        4
 10
55254.14831082394
 20
-11220.67114604882
 10
55254.14831082394
 20
-11160.67031310418
 10
54965.87109012236
 20
-11160.67043429682
 10
54965.87109012236
 20
-11220.67163043558
 97
        0
 75
     0
 76
     1
 98
        0
  0
LWPOLYLINE
  5
241
330
1F
100
AcDbEntity
  8
Ech.1_5
  6
Continuous
 62
   190
370
    15
390
5F
100
AcDbPolyline
 90
        5
 70
     0
 43
0.0
 10
55254.14831082394
 20
-11220.67114604882
 10
55254.14831082394
 20
-11160.67031310418
 10
54965.87109012236
 20
-11160.67043429682
 10
54965.87109012236
 20
-11220.67163043558
 10
55254.14831082394
 20
-11220.67114604882
  0
LWPOLYLINE
  5
242
330
1F
100
AcDbEntity
  8
Ech.1_5
  6
Continuous
 62
   190
370
    15
390
5F
100
AcDbPolyline
 90
        5
 70
     0
 43
0.0
 10
40816.40509298422
 20
-10420.97855993556
 10
58641.54782959308
 20
-10420.97855993556
 10
58641.54782959308
 20
-14187.2907041431
 10
40816.40509298422
 20
-14187.2907041431
 10
40816.40509298422
 20
-10420.97855993556
  0
HATCH
  5
243
330
1F
100
AcDbEntity
  8
Ech.1_5
  6
Continuous
 62
    33
420
 12426362
440
 33554687
370
    20
390
5F
100
AcDbHatch
 10
0.0
 20
0.0
 30
0.0
210
0.0
220
0.0
230
1.0
  2
SOLID
 70
     1
 71
     0
 91
        1
 92
        3
 72
     0
 73
     1
 93
        4
 10
54943.86797563664
 20
-10921.61916475403
 10
54848.86797563664
 20
-10921.61848263696
 10
54848.86797563664
 20
-10876.61848263696
 10
54943.86797563664
 20
-10876.61916475403
 97
        0
 75
     0
 76
     1
 98
        0
  0
LWPOLYLINE
  5
244
330
1F
100
AcDbEntity
  8
Ech.1_5
  6
Continuous
 62
   190
370
    15
390
5F
100
AcDbPolyline
 90
        5
 70
     0
 43
0.0
 10
54943.86797563664
 20
-10921.61916475403
 10
54848.86797563664
 20
-10921.61848263696
 10
54848.86797563664
 20
-10876.61848263696
 10
54943.86797563664
 20
-10876.61916475403
 10
54943.86797563664
 20
-10921.61916475403
  0
HATCH
  5
245
330
1F
100
AcDbEntity
  8
Ech.1_5
  6
Continuous
 62
   254
420
 16643007
440
 33554687
370
     5
390
5F
100
AcDbHatch
 10
0.0
 20
0.0
 30
0.0
210
0.0
220
0.0
230
1.0
  2
SOLID
 70
     1
 71
     0
 91
        1
 92
        3
 72
     0
 73
     1
 93
        4
 10
54965.87109012236
 20
-11160.67003516257
 10
54965.87109012236
 20
-10940.66936534094
 10
54893.86797563664
 20
-10940.66936534094
 10
54893.86797563664
 20
-11160.67003516257
 97
        0
 75
     0
 76
     1
 98
        0
  0
HATCH
  5
246
330
1F
100
AcDbEntity
  8
Ech.1_5
  6
Continuous
 62
   190
440
 33554687
370
    15
390
5F
100
AcDbHatch
 10
0.0
 20
0.0
 30
0.0
210
0.0
220
0.0
230
1.0
  2
CwHatchPattern_201
 70
     0
 71
     0
 91
        1
 92
        3
 72
     0
 73
     1
 93
        4
 10
54965.87109012236
 20
-11160.67003516257
 10
54965.87109012236
 20
-10940.66936534094
 10
54893.86797563664
 20
-10940.66936534094
 10
54893.86797563664
 20
-11160.67003516257
 97
        0
 75
     0
 76
     2
 52
90.0
 41
1.440062284469604
 77
     0
 78
    29
 53
90.0
 43
54965.87109012237
 44
-11162.27712305842
 45
-72.00311422348022
 46
0.0000000000000044
 79
     2
 49
3.214175791701841
 49
-8.786345749048223
 53
180.0000000000059
 43
54955.81798655103
 44
-11172.67054962198
 45
0.0000000000024805
 46
-24.00103578557605
 79
     2
 49
1.947417754830667
 49
-70.05569646864956
 53
180.0000000000059
 43
54905.86849722505
 44
-11160.67003516257
 45
0.0000000000024805
 46
-24.00103578557605
 79
     2
 49
1.947417754830667
 49
-70.05569646864956
 53
194.9324645996163
 43
54951.29632816177
 44
-11148.955545819
 45
-72.00276897376628
 46
-24.00235226585555
 79
     2
 49
44.35131819732361
 49
-328.244977029326
 53
165.0675354003956
 43
54951.29632816177
 44
-11148.38348872056
 45
72.00276897377124
 46
-24.00235226584067
 79
     2
 49
44.35131819732362
 49
-328.244977029326
 53
105.2551193237315
 43
54965.87109012237
 44
-11159.06294726672
 45
-0.000000643382593
 46
-24.00103503213199
 79
     2
 49
3.262036195310962
 49
-270.3919041338713
 53
254.7448883056749
 43
54965.87109012237
 44
-11162.27712305842
 45
0.0000038393186965
 46
-24.0010350321317
 79
     2
 49
3.262036195310962
 49
-270.3919041338713
 53
105.2551193237315
 43
54894.72627184082
 44
-11153.42369933445
 45
-0.000000643382593
 46
-24.00103503213199
 79
     2
 49
3.262036195310962
 49
-270.3919041338713
 53
74.74488067626852
 43
54893.86797589889
 44
-11147.0624329146
 45
-0.0000006433825905
 46
24.00103503213199
 79
     2
 49
3.262036195310962
 49
-270.3919041338713
 53
120.9637565612813
 43
54965.01279139081
 44
-11155.91585653128
 45
0.0000001594398518
 46
-24.00103993284857
 79
     2
 49
3.133841873778564
 49
-136.8150498048703
 53
239.0362396240333
 43
54965.01279139081
 44
-11165.44196949803
 45
-0.000001757400771
 46
-24.00103993284851
 79
     2
 49
3.133841873778564
 49
-136.8150498048703
 53
120.9637565612813
 43
54896.33862642822
 44
-11156.11094181603
 45
0.0000001594398518
 46
-24.00103993284857
 79
     2
 49
3.133841873778564
 49
-136.8150498048703
 53
59.03624343871866
 43
54894.72627184082
 44
-11143.91533520511
 45
0.0000001594398556
 46
24.00103993284857
 79
     2
 49
3.133841873778564
 49
-136.8150498048703
 53
135.000000000003
 43
54963.4004400222
 44
-11153.22861404969
 45
0.000000000001233
 46
-24.00104211463285
 79
     2
 49
2.665043988820486
 49
-99.16273922813616
 53
225.0000000000089
 43
54963.4004400222
 44
-11168.11145627544
 45
0.0000000000037271
 46
-24.00104211463285
 79
     2
 49
2.665043988820486
 49
-99.16273922813616
 53
135.000000000003
 43
54898.22308980004
 44
-11157.9954075483
 45
0.000000000001233
 46
-24.00104211463285
 79
     2
 49
2.665043988820486
 49
-99.16273922813616
 53
44.99999999999704
 43
54896.33862642822
 44
-11141.22809186518
 45
0.0000000000012432
 46
24.00104211463285
 79
     2
 49
2.665043988820486
 49
-99.16273922813616
 53
146.309932708744
 43
54961.51597450452
 44
-11151.34414123609
 45
0.0000027170048561
 46
-24.00103928561895
 79
     2
 49
2.795369793113736
 49
-83.74160029051495
 53
213.6900634765706
 43
54961.51597450452
 44
-11169.99592908905
 45
-0.0000043149657421
 46
-24.00103928561872
 79
     2
 49
2.795369793113736
 49
-83.74160029051495
 53
146.309932708744
 43
54900.54898232892
 44
-11159.5460017092
 45
0.0000027170048561
 46
-24.00103928561895
 79
     2
 49
2.795369793113736
 49
-83.74160029051495
 53
33.69006729125606
 43
54898.22308980004
 44
-11139.34361990992
 45
0.0000027170048523
 46
24.00103928561895
 79
     2
 49
2.795369793113736
 49
-83.74160029051495
 53
161.5650482177782
 43
54959.19008669654
 44
-11149.79354707518
 45
0.0000012032474937
 46
-24.00104098939517
 79
     2
 49
3.554505757974589
 49
-72.34344418975297
 53
198.4349517822336
 43
54959.19008669654
 44
-11171.54652324995
 45
-0.0000012032425349
 46
-24.00104098939517
 79
     2
 49
3.554505757974589
 49
-72.34344418975297
 53
161.5650482177782
 43
54903.92107947022
 44
-11160.67003516257
 45
0.0000012032474937
 46
-24.00104098939517
 79
     2
 49
3.554505757974589
 49
-72.34344418975297
 53
18.43495178222185
 43
54900.54898232892
 44
-11137.79303347411
 45
0.0000012032474924
 46
24.00104098939517
 79
     2
 49
3.554505757974589
 49
-72.34344418975297
 53
173.6598052978571
 43
54953.87057566296
 44
-11172.67054962198
 45
144.0062357151635
 46
-24.0010448686541
 79
     2
 49
2.590088883630877
 49
-214.7485520557075
 53
186.3401947021548
 43
54953.87057566296
 44
-11148.66952070316
 45
-144.0062357151585
 46
-24.00104486868387
 79
     2
 49
2.590088883630876
 49
-214.7485520557074
 53
353.659820556658
 43
54905.86849722505
 44
-11160.67003516257
 45
-144.0062421070282
 46
24.00100651744314
 79
     2
 49
2.590088883630877
 49
-214.7485520557075
 53
6.340194702142933
 43
54905.86849722505
 44
-11160.67003516257
 45
144.0062357151635
 46
24.00104486865408
 79
     2
 49
2.590088883630877
 49
-214.7485520557075
 98
        0
1001
ACAD
1010
54965.87109012237
1020
-11160.67003516257
1030
0.0
  0
LWPOLYLINE
  5
247
330
1F
100
AcDbEntity
  8
Ech.1_5
  6
Continuous
 62
   190
370
    15
390
5F
100
AcDbPolyline
 90
        5
 70
     0
 43
0.0
 10
54965.87109012236
 20
-11160.67003516257
 10
54965.87109012236
 20
-10940.66936534094
 10
54893.86797563664
 20
-10940.66936534094
 10
54893.86797563664
 20
-11160.67003516257
 10
54965.87109012236
 20
-11160.67003516257
  0
HATCH
  5
248
330
1F
100
AcDbEntity
  8
Ech.1_5
  6
Continuous
 62
   254
420
 16643007
440
 33554687
370
     5
390
5F
100
AcDbHatch
 10
0.0
 20
0.0
 30
0.0
210
0.0
220
0.0
230
1.0
  2
SOLID
 70
     1
 71
     0
 91
        1
 92
        3
 72
     0
 73
     1
 93
        4
 10
54848.86797563664
 20
-11382.27940921384
 10
54848.86797563664
 20
-11251.50547443805
 10
54943.86797563664
 20
-11251.50547443805
 10
54943.86797563664
 20
-11382.27925392616
 97
        0
 75
     0
 76
     1
 98
        0
  0
HATCH
  5
249
330
1F
100
AcDbEntity
  8
Ech.1_5
  6
Continuous
 62
   190
440
 33554687
370
    15
390
5F
100
AcDbHatch
 10
0.0
 20
0.0
 30
0.0
210
0.0
220
0.0
230
1.0
  2
CwHatchPattern_201
 70
     0
 71
     0
 91
        1
 92
        3
 72
     0
 73
     1
 93
        4
 10
54848.86797563664
 20
-11382.27940921384
 10
54848.86797563664
 20
-11251.50547443805
 10
54943.86797563664
 20
-11251.50547443805
 10
54943.86797563664
 20
-11382.27925392616
 97
        0
 75
     0
 76
     2
 52
90.0
 41
1.899999976158142
 77
     0
 78
    29
 53
90.0
 43
54848.86797563664
 44
-11384.3997806705
 45
-94.9999988079071
 46
0.0000000000000058
 79
     2
 49
4.240742913318396
 49
-11.59259352442348
 53
180.0000000000059
 43
54835.60403785294
 44
-11398.11273630855
 45
0.0000000000032728
 46
-31.66666324933374
 79
     2
 49
2.569398370926024
 49
-92.43060043698108
 53
180.0000000000059
 43
54769.70131298335
 44
-11382.27940921384
 45
0.0000000000032728
 46
-31.66666324933374
 79
     2
 49
2.569398370926024
 49
-92.43060043698108
 53
194.9324645996163
 43
54829.63821892661
 44
-11366.82346004169
 45
-94.99954328979838
 46
-31.66840019677458
 79
     2
 49
58.51656864170564
 49
-433.0822737708558
 53
165.0675354003956
 43
54829.63821892661
 44
-11366.06869513665
 45
94.99954328980492
 46
-31.66840019675494
 79
     2
 49
58.51656864170565
 49
-433.0822737708559
 53
105.2551193237315
 43
54848.86797563664
 44
-11380.15903775718
 45
-0.0000008488708611
 46
-31.66666225524917
 79
     2
 49
4.303889324898602
 49
-356.751660638713
 53
254.7448883056749
 43
54848.86797563664
 44
-11384.3997806705
 45
0.0000050655485603
 46
-31.66666225524878
 79
     2
 49
4.303889324898602
 49
-356.751660638713
 53
105.2551193237315
 43
54755.00040164591
 44
-11372.71868531381
 45
-0.0000008488708611
 46
-31.66666225524917
 79
     2
 49
4.303889324898602
 49
-356.751660638713
 53
74.74488067626852
 43
54753.86797682873
 44
-11364.32571080403
 45
-0.0000008488708577
 46
31.66666225524917
 79
     2
 49
4.303889324898602
 49
-356.751660638713
 53
120.9637565612813
 43
54847.73554713887
 44
-11376.00680601916
 45
0.0000002103629251
 46
-31.66666872119268
 79
     2
 49
4.134751357407929
 49
-180.5120474098601
 53
239.0362396240333
 43
54847.73554713887
 44
-11388.57543906018
 45
-0.0000023186923642
 46
-31.6666687211926
 79
     2
 49
4.134751357407929
 49
-180.5120474098601
 53
120.9637565612813
 43
54757.12772190883
 44
-11376.26419907804
 45
0.0000002103629251
 46
-31.66666872119268
 79
     2
 49
4.134751357407929
 49
-180.5120474098601
 53
59.03624343871866
 43
54755.00040164591
 44
-11360.17346986454
 45
0.0000002103629302
 46
31.66666872119268
 79
     2
 49
4.134751357407929
 49
-180.5120474098601
 53
135.000000000003
 43
54845.60823112279
 44
-11372.46129225492
 45
0.0000000000016268
 46
-31.66667159981128
 79
     2
 49
3.516225353464009
 49
-130.83406474924
 53
225.0000000000089
 43
54845.60823112279
 44
-11392.09752617276
 45
0.0000000000049175
 46
-31.66667159981128
 79
     2
 49
3.516225353464009
 49
-130.83406474924
 53
135.000000000003
 43
54759.61405906254
 44
-11378.75053934609
 45
0.0000000000016268
 46
-31.66667159981128
 79
     2
 49
3.516225353464009
 49
-130.83406474924
 53
44.99999999999704
 43
54757.12772190883
 44
-11356.62795496781
 45
0.0000000000016403
 46
31.66667159981128
 79
     2
 49
3.516225353464009
 49
-130.83406474924
 53
146.309932708744
 43
54843.12189113786
 44
-11369.97494264385
 45
0.000003584781865
 46
-31.6666678672461
 79
     2
 49
3.688175572368024
 49
-110.4876089536816
 53
213.6900634765706
 43
54843.12189113786
 44
-11394.58387578384
 45
-0.0000056931112602
 46
-31.66666786724579
 79
     2
 49
3.688175572368024
 49
-110.4876089536816
 53
146.309932708744
 43
54762.68281226652
 44
-11380.79637368293
 45
0.000003584781865
 46
-31.6666678672461
 79
     2
 49
3.688175572368024
 49
-110.4876089536816
 53
33.69006729125606
 43
54759.61405906254
 44
-11354.14160648923
 45
0.0000035847818599
 46
31.6666678672461
 79
     2
 49
3.688175572368024
 49
-110.4876089536816
 53
161.5650482177782
 43
54840.05314416256
 44
-11367.92910830701
 45
0.0000015875495345
 46
-31.66667011518691
 79
     2
 49
4.689769969146251
 49
-95.44902586373496
 53
198.4349517822336
 43
54840.05314416256
 44
-11396.62971012067
 45
-0.0000015875429919
 46
-31.66667011518691
 79
     2
 49
4.689769969146251
 49
-95.44902586373496
 53
161.5650482177782
 43
54767.13191461243
 44
-11382.27940921384
 45
0.0000015875495345
 46
-31.66667011518691
 79
     2
 49
4.689769969146251
 49
-95.44902586373496
 53
18.43495178222185
 43
54762.68281226652
 44
-11352.09578234479
 45
0.0000015875495328
 46
31.66667011518691
 79
     2
 49
4.689769969146251
 49
-95.44902586373496
 53
173.6598052978571
 43
54833.03464854193
 44
-11398.11273630855
 45
190.0000072053894
 46
-31.66667523343211
 79
     2
 49
3.417330535087704
 49
-283.3365252226713
 53
186.3401947021548
 43
54833.03464854193
 44
-11366.44608211913
 45
-190.0000072053828
 46
-31.66667523347139
 79
     2
 49
3.417330535087703
 49
-283.3365252226712
 53
353.659820556658
 43
54769.70131298335
 44
-11382.27940921384
 45
-190.000015638735
 46
31.66662463332911
 79
     2
 49
3.417330535087704
 49
-283.3365252226713
 53
6.340194702142933
 43
54769.70131298335
 44
-11382.27940921384
 45
190.0000072053894
 46
31.66667523343209
 79
     2
 49
3.417330535087704
 49
-283.3365252226713
 98
        0
1001
ACAD
1010
54848.86797563664
1020
-11382.27940921384
1030
0.0
  0
LWPOLYLINE
  5
24A
330
1F
100
AcDbEntity
  8
Ech.1_5
  6
Continuous
 62
   190
370
    15
390
5F
100
AcDbPolyline
 90
        5
 70
     0
 43
0.0
 10
54848.86797563664
 20
-11382.27940921384
 10
54848.86797563664
 20
-11251.50547443805
 10
54943.86797563664
 20
-11251.50547443805
 10
54943.86797563664
 20
-11382.27925392616
 10
54848.86797563664
 20
-11382.27940921384
  0
HATCH
  5
24B
330
1F
100
AcDbEntity
  8
Ech.1_5
  6
Continuous
 62
    33
420
 12426362
440
 33554687
370
    20
390
5F
100
AcDbHatch
 10
0.0
 20
0.0
 30
0.0
210
0.0
220
0.0
230
1.0
  2
SOLID
 70
     1
 71
     0
 91
        1
 92
        3
 72
     0
 73
     1
 93
        4
 10
54943.86797563664
 20
-11161.50547443805
 10
54848.86797563664
 20
-11161.50615655512
 10
54848.86797563664
 20
-11206.50615655512
 10
54943.86797563664
 20
-11206.50547443805
 97
        0
 75
     0
 76
     1
 98
        0
  0
LWPOLYLINE
  5
24C
330
1F
100
AcDbEntity
  8
Ech.1_5
  6
Continuous
 62
   190
370
    15
390
5F
100
AcDbPolyline
 90
        5
 70
     0
 43
0.0
 10
54943.86797563664
 20
-11161.50547443805
 10
54848.86797563664
 20
-11161.50615655512
 10
54848.86797563664
 20
-11206.50615655512
 10
54943.86797563664
 20
-11206.50547443805
 10
54943.86797563664
 20
-11161.50547443805
  0
LWPOLYLINE
  5
24D
330
1F
100
AcDbEntity
  8
Ech.1_5
  6
Continuous
 62
   190
370
    15
390
5F
100
AcDbPolyline
 90
        6
 70
     0
 43
0.0
 10
55254.1468350053
 20
-10887.67003516245
 10
55254.14831082394
 20
-11072.77753459462
 10
55272.12565923132
 20
-11089.26303775059
 10
55236.16995921951
 20
-11075.15309773278
 10
55254.14831082394
 20
-11091.63945181421
 10
55254.14748853888
 20
-11391.86639707787
  0
LWPOLYLINE
  5
24E
330
1F
100
AcDbEntity
  8
Ech.1_5
  6
Continuous
 62
   190
370
    15
390
5F
100
AcDbPolyline
 90
        6
 70
     0
 43
0.0
 10
54451.34060979538
 20
-10887.67003516245
 10
54451.34208561402
 20
-11072.77753459462
 10
54469.3194340214
 20
-11089.26303775059
 10
54433.3637340096
 20
-11075.15309773278
 10
54451.34208561402
 20
-11091.63945181421
 10
54451.34126332896
 20
-11391.86639707787
  0
HATCH
  5
24F
330
1F
100
AcDbEntity
  8
Ech.1_5
  6
Continuous
 62
   254
420
 16643007
440
 33554687
370
    20
390
5F
100
AcDbHatch
 10
0.0
 20
0.0
 30
0.0
210
0.0
220
0.0
230
1.0
  2
SOLID
 70
     1
 71
     0
 91
        1
 92
        3
 72
     0
 73
     1
 93
        4
 10
54943.86797563664
 20
-10650.42093650331
 10
54848.86797563664
 20
-10650.42078121563
 10
54848.86797563664
 20
-10876.61848263696
 10
54943.86797563664
 20
-10876.61848263696
 97
        0
 75
     0
 76
     1
 98
        0
  0
LWPOLYLINE
  5
250
330
1F
100
AcDbEntity
  8
Ech.1_5
  6
Continuous
 62
   190
370
    15
390
5F
100
AcDbPolyline
 90
        5
 70
     0
 43
0.0
 10
54943.86797563664
 20
-10650.42093650331
 10
54848.86797563664
 20
-10650.42078121563
 10
54848.86797563664
 20
-10876.61848263696
 10
54943.86797563664
 20
-10876.61848263696
 10
54943.86797563664
 20
-10650.42093650331
  0
HATCH
  5
251
330
1F
100
AcDbEntity
  8
Ech.1_5
  6
Continuous
 62
    33
420
 12426362
440
 33554687
370
    20
390
5F
100
AcDbHatch
 10
0.0
 20
0.0
 30
0.0
210
0.0
220
0.0
230
1.0
  2
SOLID
 70
     1
 71
     0
 91
        1
 92
        3
 72
     0
 73
     1
 93
        4
 10
54828.86797563664
 20
-10921.61916475403
 10
54733.86797563664
 20
-10921.61848263696
 10
54733.86797563664
 20
-10876.61848263696
 10
54828.86797563664
 20
-10876.61916475403
 97
        0
 75
     0
 76
     1
 98
        0
  0
LWPOLYLINE
  5
252
330
1F
100
AcDbEntity
  8
Ech.1_5
  6
Continuous
 62
   190
370
    15
390
5F
100
AcDbPolyline
 90
        5
 70
     0
 43
0.0
 10
54828.86797563664
 20
-10921.61916475403
 10
54733.86797563664
 20
-10921.61848263696
 10
54733.86797563664
 20
-10876.61848263696
 10
54828.86797563664
 20
-10876.61916475403
 10
54828.86797563664
 20
-10921.61916475403
  0
LWPOLYLINE
  5
253
330
1F
100
AcDbEntity
  8
Ech.1_5
  6
Continuous
 62
   190
370
    15
390
5F
100
AcDbPolyline
 90
        4
 70
     0
 43
0.0
 10
54828.86797563664
 20
-10876.61848263696
 10
54733.86797563664
 20
-10921.61848263696
 10
54733.86797563664
 20
-10876.61848263696
 10
54828.86797563664
 20
-10921.61848263696
  0
LWPOLYLINE
  5
254
330
1F
100
AcDbEntity
  8
Ech.1_5
370
    20
390
5F
100
AcDbPolyline
 90
        6
 70
     0
 43
0.0
 10
55005.86939082438
 20
-10842.00519292904
 10
55008.86797562136
 20
-10842.0052618525
 42
-0.4142135623667855
 10
55018.86797562136
 20
-10852.0052618525
 10
55018.86797562135
 20
-10907.67003516257
 10
55005.86797563664
 20
-10907.67003749739
 10
55005.86797563664
 20
-10842.00526418744
  0
LWPOLYLINE
  5
255
330
1F
100
AcDbEntity
  8
Ech.1_5
370
    20
390
5F
100
AcDbPolyline
 90
        6
 70
     0
 43
0.0
 10
54671.86656044889
 20
-10842.00452077241
 10
54668.86797565192
 20
-10842.00458969587
 42
0.4142135623682406
 10
54658.86797565192
 20
-10852.00458969587
 10
54658.86797565192
 20
-10907.66936300594
 10
54671.86797563664
 20
-10907.66936534076
 10
54671.86797563664
 20
-10842.00459203069
  0
HATCH
  5
256
330
1F
100
AcDbEntity
  8
Ech.1_5
  6
Continuous
 62
    33
420
 12426362
440
 33554687
370
     5
390
5F
100
AcDbHatch
 10
0.0
 20
0.0
 30
0.0
210
0.0
220
0.0
230
1.0
  2
SOLID
 70
     1
 71
     0
 91
        1
 92
        3
 72
     0
 73
     1
 93
        4
 10
54828.86797563664
 20
-10940.66936534094
 10
54783.86797563664
 20
-10940.66936534094
 10
54783.86797563664
 20
-11161.50615655512
 10
54828.86797563664
 20
-11161.50615655512
 97
        0
 75
     0
 76
     1
 98
        0
  0
LINE
  5
257
330
1F
100
AcDbEntity
  8
Ech.1_5
  6
Continuous
 62
   190
370
    15
390
5F
100
AcDbLine
 10
54783.86797563664
 20
-10940.66936534094
 30
0.0
 11
54828.86797563664
 21
-11161.50615655512
 31
0.0
  0
LINE
  5
258
330
1F
100
AcDbEntity
  8
Ech.1_5
  6
Continuous
 62
   190
370
    15
390
5F
100
AcDbLine
 10
54783.86797563664
 20
-11161.50615655512
 30
0.0
 11
54828.86797563664
 21
-10940.66936534094
 31
0.0
  0
3DFACE
  5
259
330
1F
100
AcDbEntity
  8
Ech.1_5
  6
Continuous
 62
     5
370
    35
390
5F
100
AcDbFace
 10
54828.86797563664
 20
-10940.66936534094
 30
2500.0
 11
54783.86797563664
 21
-10940.66936534094
 31
2500.0
 12
54783.86797563664
 22
-11161.50615655512
 32
2500.0
 13
54828.86797563664
 23
-11161.50615655512
 33
2500.0
  0
HATCH
  5
25A
330
1F
100
AcDbEntity
  8
Ech.1_5
  6
Continuous
 62
    40
420
 16297258
440
 33554687
370
    20
390
5F
100
AcDbHatch
 10
0.0
 20
0.0
 30
0.0
210
0.0
220
0.0
230
1.0
  2
SOLID
 70
     1
 71
     0
 91
        1
 92
        3
 72
     0
 73
     1
 93
        4
 10
54818.86797563664
 20
-10940.66936534094
 10
54818.86797563664
 20
-10921.66936534094
 10
54451.34060979538
 20
-10921.66936534094
 10
54451.34062569086
 20
-10940.66936534094
 97
        0
 75
     0
 76
     1
 98
        0
  0
LWPOLYLINE
  5
25B
330
1F
100
AcDbEntity
  8
Ech.1_5
  6
Continuous
 62
   190
370
    15
390
5F
100
AcDbPolyline
 90
        5
 70
     0
 43
0.0
 10
54818.86797563664
 20
-10940.66936534094
 10
54818.86797563664
 20
-10921.66936534094
 10
54451.34060979538
 20
-10921.66936534094
 10
54451.34062569086
 20
-10940.66936534094
 10
54818.86797563664
 20
-10940.66936534094
  0
HATCH
  5
25C
330
1F
100
AcDbEntity
  8
Ech.1_5
  6
Continuous
 62
    40
420
 16297258
440
 33554687
370
    20
390
5F
100
AcDbHatch
 10
0.0
 20
0.0
 30
0.0
210
0.0
220
0.0
230
1.0
  2
SOLID
 70
     1
 71
     0
 91
        1
 92
        3
 72
     0
 73
     1
 93
        4
 10
55254.14683691873
 20
-10940.66936534094
 10
55254.14681852851
 20
-10921.66936534094
 10
54858.86797563664
 20
-10921.66936534094
 10
54858.86797563664
 20
-10940.66936534094
 97
        0
 75
     0
 76
     1
 98
        0
  0
LWPOLYLINE
  5
25D
330
1F
100
AcDbEntity
  8
Ech.1_5
  6
Continuous
 62
   190
370
    15
390
5F
100
AcDbPolyline
 90
        5
 70
     0
 43
0.0
 10
55254.14683691873
 20
-10940.66936534094
 10
55254.14681852851
 20
-10921.66936534094
 10
54858.86797563664
 20
-10921.66936534094
 10
54858.86797563664
 20
-10940.66936534094
 10
55254.14683691873
 20
-10940.66936534094
  0
HATCH
  5
25E
330
1F
100
AcDbEntity
  8
Ech.1_5
  6
Continuous
 62
   190
440
 33554687
370
    15
390
5F
100
AcDbHatch
 10
0.0
 20
0.0
 30
0.0
210
0.0
220
0.0
230
1.0
  2
CwHatchPattern_215
 70
     0
 71
     0
 91
        1
 92
        3
 72
     0
 73
     1
 93
        4
 10
54818.86797563664
 20
-10940.66936534094
 10
54818.86797563664
 20
-10921.66936534094
 10
54451.34060979538
 20
-10921.66936534094
 10
54451.34062569086
 20
-10940.66936534094
 97
        0
 75
     0
 76
     2
 52
0.0
 41
0.5
 77
     0
 78
     2
 53
45.00000000000297
 43
54818.86797563664
 44
-10940.66936534094
 45
-7.071067811865841
 46
7.07106781186511
 79
     2
 49
800.0
 49
0.0
 53
135.0000000000089
 43
54818.86797563664
 44
-10940.66936534094
 45
-21.21320343559752
 46
7.07106781186218
 79
     2
 49
25.0
 49
-15.0
 98
        0
1001
ACAD
1010
54818.86797563664
1020
-10940.66936534094
1030
0.0
  0
LWPOLYLINE
  5
25F
330
1F
100
AcDbEntity
  8
Ech.1_5
  6
Continuous
 62
     7
370
    20
390
5F
100
AcDbPolyline
 90
        5
 70
     0
 43
0.0
 10
54818.86797563664
 20
-10940.66936534094
 10
54818.86797563664
 20
-10921.66936534094
 10
54451.34060979538
 20
-10921.66936534094
 10
54451.34062569086
 20
-10940.66936534094
 10
54818.86797563664
 20
-10940.66936534094
  0
HATCH
  5
260
330
1F
100
AcDbEntity
  8
Ech.1_5
  6
Continuous
 62
   190
440
 33554687
370
    15
390
5F
100
AcDbHatch
 10
0.0
 20
0.0
 30
0.0
210
0.0
220
0.0
230
1.0
  2
CwHatchPattern_215
 70
     0
 71
     0
 91
        1
 92
        3
 72
     0
 73
     1
 93
        4
 10
55254.14683691873
 20
-10940.66936534094
 10
55254.14681852853
 20
-10921.66936534094
 10
54858.86797563664
 20
-10921.66936534094
 10
54858.86797563664
 20
-10940.66936534094
 97
        0
 75
     0
 76
     2
 52
0.0
 41
0.5
 77
     0
 78
     2
 53
45.00000000000297
 43
55254.14683691874
 44
-10940.66936534094
 45
-7.071067811865841
 46
7.07106781186511
 79
     2
 49
800.0
 49
0.0
 53
135.0000000000089
 43
55254.14683691874
 44
-10940.66936534094
 45
-21.21320343559752
 46
7.07106781186218
 79
     2
 49
25.0
 49
-15.0
 98
        0
1001
ACAD
1010
55254.14683691874
1020
-10940.66936534094
1030
0.0
  0
LWPOLYLINE
  5
261
330
1F
100
AcDbEntity
  8
Ech.1_5
  6
Continuous
 62
     7
370
    20
390
5F
100
AcDbPolyline
 90
        5
 70
     0
 43
0.0
 10
55254.14683691873
 20
-10940.66936534094
 10
55254.14681852853
 20
-10921.66936534094
 10
54858.86797563664
 20
-10921.66936534094
 10
54858.86797563664
 20
-10940.66936534094
 10
55254.14683691873
 20
-10940.66936534094
  0
HATCH
  5
262
330
1F
100
AcDbEntity
  8
Ech.1_5
  6
Continuous
 62
    40
420
 16297258
440
 33554687
370
    20
390
5F
100
AcDbHatch
 10
0.0
 20
0.0
 30
0.0
210
0.0
220
0.0
230
1.0
  2
SOLID
 70
     1
 71
     0
 91
        1
 92
        3
 72
     0
 73
     1
 93
        4
 10
54943.86797563664
 20
-10650.42093650331
 10
54952.86797563664
 20
-10650.42093650331
 10
54952.86797563664
 20
-10921.61848263696
 10
54943.86797563664
 20
-10921.61848263696
 97
        0
 75
     0
 76
     1
 98
        0
  0
LWPOLYLINE
  5
263
330
1F
100
AcDbEntity
  8
Ech.1_5
  6
Continuous
 62
   190
370
    15
390
5F
100
AcDbPolyline
 90
        5
 70
     0
 43
0.0
 10
54943.86797563664
 20
-10650.42093650331
 10
54952.86797563664
 20
-10650.42093650331
 10
54952.86797563664
 20
-10921.61848263696
 10
54943.86797563664
 20
-10921.61848263696
 10
54943.86797563664
 20
-10650.42093650331
  0
HATCH
  5
264
330
1F
100
AcDbEntity
  8
Ech.1_5
  6
Continuous
 62
   254
420
 16643007
440
 33554687
370
    20
390
5F
100
AcDbHatch
 10
0.0
 20
0.0
 30
0.0
210
0.0
220
0.0
230
1.0
  2
SOLID
 70
     1
 71
     0
 91
        1
 92
        3
 72
     0
 73
     1
 93
        8
 10
54828.86797563664
 20
-10650.42066327189
 10
54776.71381732108
 20
-10650.42066327189
 10
54760.22746323956
 20
-10668.39901487632
 10
54774.33740325737
 20
-10632.44331486451
 10
54757.85190010146
 20
-10650.42066327189
 10
54733.86797563603
 20
-10650.42086194931
 10
54733.86797563664
 20
-10876.61870148485
 10
54828.86797563664
 20
-10876.61848263696
 97
        0
 75
     0
 76
     1
 98
        0
  0
LWPOLYLINE
  5
265
330
1F
100
AcDbEntity
  8
Ech.1_5
  6
Continuous
 62
   190
370
    15
390
5F
100
AcDbPolyline
 90
        9
 70
     0
 43
0.0
 10
54828.86797563664
 20
-10650.42066327189
 10
54776.71381732108
 20
-10650.42066327189
 10
54760.22746323956
 20
-10668.39901487632
 10
54774.33740325737
 20
-10632.44331486451
 10
54757.85190010146
 20
-10650.42066327189
 10
54733.86797563603
 20
-10650.42086194931
 10
54733.86797563664
 20
-10876.61870148485
 10
54828.86797563664
 20
-10876.61848263696
 10
54828.86797563664
 20
-10650.42066327189
  0
HATCH
  5
266
330
1F
100
AcDbEntity
  8
Ech.1_5
  6
Continuous
 62
   254
420
 15656413
440
 33554687
370
    20
390
5F
100
AcDbHatch
 10
0.0
 20
0.0
 30
0.0
210
0.0
220
0.0
230
1.0
  2
SOLID
 70
     1
 71
     0
 91
        1
 92
        3
 72
     0
 73
     1
 93
        4
 10
54684.86797563664
 20
-10856.66936534094
 10
54724.86797563664
 20
-10856.66936534094
 10
54724.86797563664
 20
-10901.66936534094
 10
54684.86797563664
 20
-10901.66936534094
 97
        0
 75
     0
 76
     1
 98
        0
  0
LWPOLYLINE
  5
267
330
1F
100
AcDbEntity
  8
Ech.1_5
  6
Continuous
 62
   190
370
    15
390
5F
100
AcDbPolyline
 90
        5
 70
     0
 43
0.0
 10
54684.86797563664
 20
-10856.66936534094
 10
54724.86797563664
 20
-10856.66936534094
 10
54724.86797563664
 20
-10901.66936534094
 10
54684.86797563664
 20
-10901.66936534094
 10
54684.86797563664
 20
-10856.66936534094
  0
HATCH
  5
268
330
1F
100
AcDbEntity
  8
Ech.1_5
  6
Continuous
 62
   254
420
 15656413
440
 33554687
370
    20
390
5F
100
AcDbHatch
 10
0.0
 20
0.0
 30
0.0
210
0.0
220
0.0
230
1.0
  2
SOLID
 70
     1
 71
     0
 91
        1
 92
        3
 72
     0
 73
     1
 93
        4
 10
54952.86797563664
 20
-10856.66936534094
 10
54992.86797563664
 20
-10856.66936534094
 10
54992.86797563664
 20
-10901.66936534094
 10
54952.86797563664
 20
-10901.66936534094
 97
        0
 75
     0
 76
     1
 98
        0
  0
LWPOLYLINE
  5
269
330
1F
100
AcDbEntity
  8
Ech.1_5
  6
Continuous
 62
   190
370
    15
390
5F
100
AcDbPolyline
 90
        5
 70
     0
 43
0.0
 10
54952.86797563664
 20
-10856.66936534094
 10
54992.86797563664
 20
-10856.66936534094
 10
54992.86797563664
 20
-10901.66936534094
 10
54952.86797563664
 20
-10901.66936534094
 10
54952.86797563664
 20
-10856.66936534094
  0
LINE
  5
26A
330
1F
100
AcDbEntity
  8
Ech.1_5
  6
Continuous
 62
   190
370
    15
390
5F
100
AcDbLine
 10
54724.86797563664
 20
-10856.66936534094
 30
0.0
 11
54684.86797563664
 21
-10901.66936534094
 31
0.0
  0
LINE
  5
26B
330
1F
100
AcDbEntity
  8
Ech.1_5
  6
Continuous
 62
   190
370
    15
390
5F
100
AcDbLine
 10
54724.86797563664
 20
-10901.66936534094
 30
0.0
 11
54684.86797563664
 21
-10856.66936534094
 31
0.0
  0
LWPOLYLINE
  5
26C
330
1F
100
AcDbEntity
  8
Ech.1_5
  6
Continuous
 62
   190
370
    15
390
5F
100
AcDbPolyline
 90
        5
 70
     0
 43
0.0
 10
54684.86797563664
 20
-10856.66936534094
 10
54724.86797563664
 20
-10856.66936534094
 10
54724.86797563664
 20
-10901.66936534094
 10
54684.86797563664
 20
-10901.66936534094
 10
54684.86797563664
 20
-10856.66936534094
  0
LINE
  5
26D
330
1F
100
AcDbEntity
  8
Ech.1_5
  6
Continuous
 62
   190
370
    15
390
5F
100
AcDbLine
 10
54992.86797563664
 20
-10856.66936534094
 30
0.0
 11
54952.86797563664
 21
-10901.66936534094
 31
0.0
  0
LINE
  5
26E
330
1F
100
AcDbEntity
  8
Ech.1_5
  6
Continuous
 62
   190
370
    15
390
5F
100
AcDbLine
 10
54992.86797563664
 20
-10901.66936534094
 30
0.0
 11
54952.86797563664
 21
-10856.66936534094
 31
0.0
  0
LWPOLYLINE
  5
26F
330
1F
100
AcDbEntity
  8
Ech.1_5
  6
Continuous
 62
   190
370
    15
390
5F
100
AcDbPolyline
 90
        5
 70
     0
 43
0.0
 10
54952.86797563664
 20
-10856.66936534094
 10
54992.86797563664
 20
-10856.66936534094
 10
54992.86797563664
 20
-10901.66936534094
 10
54952.86797563664
 20
-10901.66936534094
 10
54952.86797563664
 20
-10856.66936534094
  0
HATCH
  5
270
330
1F
100
AcDbEntity
  8
Ech.1_5
  6
Continuous
 62
   254
420
 14407639
440
 33554687
370
    15
390
5F
100
AcDbHatch
 10
0.0
 20
0.0
 30
0.0
210
0.0
220
0.0
230
1.0
  2
SOLID
 70
     1
 71
     0
 91
        1
 92
        3
 72
     0
 73
     1
 93
        4
 10
54992.86797563664
 20
-10650.42066327189
 10
55005.86797563664
 20
-10650.42066327189
 10
55005.86797563664
 20
-10911.66936534094
 10
54992.86797563664
 20
-10911.66936534094
 97
        0
 75
     0
 76
     1
 98
        0
  0
LWPOLYLINE
  5
271
330
1F
100
AcDbEntity
  8
Ech.1_5
  6
Continuous
 62
   254
420
 14407639
370
    15
390
5F
100
AcDbPolyline
 90
        5
 70
     0
 43
0.0
 10
54992.86797563664
 20
-10650.42066327189
 10
55005.86797563664
 20
-10650.42066327189
 10
55005.86797563664
 20
-10911.66936534094
 10
54992.86797563664
 20
-10911.66936534094
 10
54992.86797563664
 20
-10650.42066327189
  0
HATCH
  5
272
330
1F
100
AcDbEntity
  8
Ech.1_5
  6
Continuous
 62
    40
420
 16297258
440
 33554687
370
    20
390
5F
100
AcDbHatch
 10
0.0
 20
0.0
 30
0.0
210
0.0
220
0.0
230
1.0
  2
SOLID
 70
     1
 71
     0
 91
        1
 92
        3
 72
     0
 73
     1
 93
        4
 10
54724.86797563664
 20
-10650.42093650331
 10
54733.86797563664
 20
-10650.42093650331
 10
54733.86797563664
 20
-10921.61848263696
 10
54724.86797563664
 20
-10921.61848263696
 97
        0
 75
     0
 76
     1
 98
        0
  0
LWPOLYLINE
  5
273
330
1F
100
AcDbEntity
  8
Ech.1_5
  6
Continuous
 62
   190
370
    15
390
5F
100
AcDbPolyline
 90
        5
 70
     0
 43
0.0
 10
54724.86797563664
 20
-10650.42093650331
 10
54733.86797563664
 20
-10650.42093650331
 10
54733.86797563664
 20
-10921.61848263696
 10
54724.86797563664
 20
-10921.61848263696
 10
54724.86797563664
 20
-10650.42093650331
  0
HATCH
  5
274
330
1F
100
AcDbEntity
  8
Ech.1_5
  6
Continuous
 62
   254
420
 14407639
440
 33554687
370
    15
390
5F
100
AcDbHatch
 10
0.0
 20
0.0
 30
0.0
210
0.0
220
0.0
230
1.0
  2
SOLID
 70
     1
 71
     0
 91
        1
 92
        3
 72
     0
 73
     1
 93
        4
 10
54671.86797563664
 20
-10650.4212678542
 10
54684.86797563664
 20
-10650.4212678542
 10
54684.86797563664
 20
-10911.66936534094
 10
54671.86797563664
 20
-10911.66936534094
 97
        0
 75
     0
 76
     1
 98
        0
  0
LWPOLYLINE
  5
275
330
1F
100
AcDbEntity
  8
Ech.1_5
  6
Continuous
 62
   254
420
 14407639
370
    15
390
5F
100
AcDbPolyline
 90
        5
 70
     0
 43
0.0
 10
54671.86797563664
 20
-10650.4212678542
 10
54684.86797563664
 20
-10650.4212678542
 10
54684.86797563664
 20
-10911.66936534094
 10
54671.86797563664
 20
-10911.66936534094
 10
54671.86797563664
 20
-10650.4212678542
  0
HATCH
  5
276
330
1F
100
AcDbEntity
  8
Ech.1_5
  6
Continuous
 62
   190
440
 33554687
370
    15
390
231
100
AcDbHatch
 10
0.0
 20
0.0
 30
0.0
210
0.0
220
0.0
230
1.0
  2
CwHatchPattern_84
 70
     0
 71
     0
 91
        1
 92
        3
 72
     0
 73
     1
 93
        4
 10
54671.86797563664
 20
-10650.4212678542
 10
54684.86797563664
 20
-10650.4212678542
 10
54684.86797563664
 20
-10911.66936534094
 10
54671.86797563664
 20
-10911.66936534094
 97
        0
 75
     0
 76
     2
 52
0.0
 41
1.0
 77
     0
 78
     2
 53
0.0
 43
0.0
 44
0.0
 45
0.0
 46
70.0
 79
     2
 49
0.0
 49
-70.0
 53
0.0
 43
35.0
 44
35.0
 45
0.0
 46
70.0
 79
     2
 49
0.0
 49
-70.0
 98
        0
1001
ACAD
1010
0.0
1020
0.0
1030
0.0
  0
LWPOLYLINE
  5
277
330
1F
100
AcDbEntity
  8
Ech.1_5
  6
Continuous
 62
     7
370
    20
390
5F
100
AcDbPolyline
 90
        5
 70
     0
 43
0.0
 10
54671.86797563664
 20
-10650.4212678542
 10
54684.86797563664
 20
-10650.4212678542
 10
54684.86797563664
 20
-10911.66936534094
 10
54671.86797563664
 20
-10911.66936534094
 10
54671.86797563664
 20
-10650.4212678542
  0
HATCH
  5
278
330
1F
100
AcDbEntity
  8
Ech.1_5
  6
Continuous
 62
   190
440
 33554687
370
    15
390
5F
100
AcDbHatch
 10
0.0
 20
0.0
 30
0.0
210
0.0
220
0.0
230
1.0
  2
CwHatchPattern_74
 70
     0
 71
     0
 91
        1
 92
        3
 72
     0
 73
     1
 93
        4
 10
54724.86797563664
 20
-10650.42093650331
 10
54733.86797563664
 20
-10650.42093650331
 10
54733.86797563664
 20
-10921.61848263696
 10
54724.86797563664
 20
-10921.61848263696
 97
        0
 75
     0
 76
     2
 52
0.0
 41
0.6000000238418579
 77
     0
 78
     3
 53
45.00000000000297
 43
0.0
 44
0.0
 45
-0.0000000000043443
 46
42.00000166893005
 79
     0
 53
45.00000000000297
 43
0.0
 44
10.80000042915344
 45
-0.0000000000043443
 46
42.00000166893005
 79
     0
 53
45.00000000000297
 43
0.0
 44
21.60000085830688
 45
-0.0000000000043443
 46
42.00000166893005
 79
     0
 98
        0
1001
ACAD
1010
0.0
1020
0.0
1030
0.0
  0
LWPOLYLINE
  5
279
330
1F
100
AcDbEntity
  8
Ech.1_5
  6
Continuous
 62
     7
370
    20
390
5F
100
AcDbPolyline
 90
        5
 70
     0
 43
0.0
 10
54724.86797563664
 20
-10650.42093650331
 10
54733.86797563664
 20
-10650.42093650331
 10
54733.86797563664
 20
-10921.61848263696
 10
54724.86797563664
 20
-10921.61848263696
 10
54724.86797563664
 20
-10650.42093650331
  0
HATCH
  5
27A
330
1F
100
AcDbEntity
  8
Ech.1_5
  6
Continuous
 62
   190
440
 33554687
370
    15
390
231
100
AcDbHatch
 10
0.0
 20
0.0
 30
0.0
210
0.0
220
0.0
230
1.0
  2
CwHatchPattern_84
 70
     0
 71
     0
 91
        1
 92
        3
 72
     0
 73
     1
 93
        4
 10
54992.86797563664
 20
-10650.42066327189
 10
55005.86797563664
 20
-10650.42066327189
 10
55005.86797563664
 20
-10911.66936534094
 10
54992.86797563664
 20
-10911.66936534094
 97
        0
 75
     0
 76
     2
 52
0.0
 41
1.0
 77
     0
 78
     2
 53
0.0
 43
0.0
 44
0.0
 45
0.0
 46
70.0
 79
     2
 49
0.0
 49
-70.0
 53
0.0
 43
35.0
 44
35.0
 45
0.0
 46
70.0
 79
     2
 49
0.0
 49
-70.0
 98
        0
1001
ACAD
1010
0.0
1020
0.0
1030
0.0
  0
LWPOLYLINE
  5
27B
330
1F
100
AcDbEntity
  8
Ech.1_5
  6
Continuous
 62
     7
370
    20
390
5F
100
AcDbPolyline
 90
        5
 70
     0
 43
0.0
 10
54992.86797563664
 20
-10650.42066327189
 10
55005.86797563664
 20
-10650.42066327189
 10
55005.86797563664
 20
-10911.66936534094
 10
54992.86797563664
 20
-10911.66936534094
 10
54992.86797563664
 20
-10650.42066327189
  0
LINE
  5
27C
330
1F
100
AcDbEntity
  8
Ech.1_5
  6
Continuous
 62
   190
370
    15
390
5F
100
AcDbLine
 10
54828.86797563664
 20
-10650.42066327189
 30
0.0
 11
54828.86797563664
 21
-10876.61848263696
 31
0.0
  0
LWPOLYLINE
  5
27D
330
1F
100
AcDbEntity
  8
Ech.1_5
  6
Continuous
 62
   190
370
    15
390
5F
100
AcDbPolyline
 90
        6
 70
     0
 43
0.0
 10
54651.86797563664
 20
-10650.42154121874
 10
54757.85190010146
 20
-10650.42066327189
 10
54774.33740325737
 20
-10632.44331486451
 10
54760.22746323956
 20
-10668.39901487632
 10
54776.71381732108
 20
-10650.42066327189
 10
55025.86797563664
 20
-10650.42066327189
  0
HATCH
  5
27E
330
1F
100
AcDbEntity
  8
Ech.1_5
  6
Continuous
 62
   190
440
 33554687
370
    15
390
5F
100
AcDbHatch
 10
0.0
 20
0.0
 30
0.0
210
0.0
220
0.0
230
1.0
  2
CwHatchPattern_74
 70
     0
 71
     0
 91
        1
 92
        3
 72
     0
 73
     1
 93
        4
 10
54943.86797563664
 20
-10650.42093650331
 10
54952.86797563664
 20
-10650.42093650331
 10
54952.86797563664
 20
-10921.61848263696
 10
54943.86797563664
 20
-10921.61848263696
 97
        0
 75
     0
 76
     2
 52
0.0
 41
0.6000000238418579
 77
     0
 78
     3
 53
45.00000000000297
 43
0.0
 44
0.0
 45
-0.0000000000043443
 46
42.00000166893005
 79
     0
 53
45.00000000000297
 43
0.0
 44
10.80000042915344
 45
-0.0000000000043443
 46
42.00000166893005
 79
     0
 53
45.00000000000297
 43
0.0
 44
21.60000085830688
 45
-0.0000000000043443
 46
42.00000166893005
 79
     0
 98
        0
1001
ACAD
1010
0.0
1020
0.0
1030
0.0
  0
LWPOLYLINE
  5
27F
330
1F
100
AcDbEntity
  8
Ech.1_5
  6
Continuous
 62
     7
370
    20
390
5F
100
AcDbPolyline
 90
        5
 70
     0
 43
0.0
 10
54943.86797563664
 20
-10650.42093650331
 10
54952.86797563664
 20
-10650.42093650331
 10
54952.86797563664
 20
-10921.61848263696
 10
54943.86797563664
 20
-10921.61848263696
 10
54943.86797563664
 20
-10650.42093650331
  0
LINE
  5
280
330
1F
100
AcDbEntity
  8
Ech.1_5
  6
Continuous
 62
   190
370
    15
390
5F
100
AcDbLine
 10
54848.86797563664
 20
-10650.42066327189
 30
0.0
 11
54848.86797563664
 21
-10876.61848263696
 31
0.0
  0
LWPOLYLINE
  5
281
330
1F
100
AcDbEntity
  8
Ech.1_5
  6
Continuous
 62
   190
370
    15
390
5F
100
AcDbPolyline
 90
        4
 70
     0
 43
0.0
 10
54943.86797563664
 20
-10876.61848263696
 10
54848.86797563664
 20
-10921.61848263696
 10
54848.86797563664
 20
-10876.61848263696
 10
54943.86797563664
 20
-10921.61848263696
  0
HATCH
  5
282
330
1F
100
AcDbEntity
  8
Ech.1_5
  6
Continuous
 62
    33
420
 12426362
440
 33554687
370
     5
390
5F
100
AcDbHatch
 10
0.0
 20
0.0
 30
0.0
210
0.0
220
0.0
230
1.0
  2
SOLID
 70
     1
 71
     0
 91
        1
 92
        3
 72
     0
 73
     1
 93
        4
 10
54893.86797563664
 20
-10940.66936534094
 10
54848.86797563664
 20
-10940.66936534094
 10
54848.86797563664
 20
-11161.50615655512
 10
54893.86797563664
 20
-11161.50615655512
 97
        0
 75
     0
 76
     1
 98
        0
  0
LINE
  5
283
330
1F
100
AcDbEntity
  8
Ech.1_5
  6
Continuous
 62
   190
370
    15
390
5F
100
AcDbLine
 10
54848.86797563664
 20
-10940.66936534094
 30
0.0
 11
54893.86797563664
 21
-11161.50615655512
 31
0.0
  0
LINE
  5
284
330
1F
100
AcDbEntity
  8
Ech.1_5
  6
Continuous
 62
   190
370
    15
390
5F
100
AcDbLine
 10
54848.86797563664
 20
-11161.50615655512
 30
0.0
 11
54893.86797563664
 21
-10940.66936534094
 31
0.0
  0
3DFACE
  5
285
330
1F
100
AcDbEntity
  8
Ech.1_5
  6
Continuous
 62
     5
370
    35
390
5F
100
AcDbFace
 10
54893.86797563664
 20
-10940.66936534094
 30
2500.0
 11
54848.86797563664
 21
-10940.66936534094
 31
2500.0
 12
54848.86797563664
 22
-11161.50615655512
 32
2500.0
 13
54893.86797563664
 23
-11161.50615655512
 33
2500.0
  0
LWPOLYLINE
  5
286
330
1F
100
AcDbEntity
  8
Ech.1_5
  6
Continuous
 62
     5
370
    40
390
5F
100
AcDbPolyline
 90
        5
 70
     0
 43
0.0
 10
54828.86797563664
 20
-10921.61848263696
 10
54733.86797563664
 20
-10921.61848263696
 10
54733.86797563664
 20
-10876.61848263696
 10
54828.86797563664
 20
-10876.61848263696
 10
54828.86797563664
 20
-10921.61848263696
  0
LWPOLYLINE
  5
287
330
1F
100
AcDbEntity
  8
Ech.1_5
  6
Continuous
 62
     5
370
    40
390
5F
100
AcDbPolyline
 90
        5
 70
     0
 43
0.0
 10
54684.86797563664
 20
-10856.66936534094
 10
54724.86797563664
 20
-10856.66936534094
 10
54724.86797563664
 20
-10901.66936534094
 10
54684.86797563664
 20
-10901.66936534094
 10
54684.86797563664
 20
-10856.66936534094
  0
LWPOLYLINE
  5
288
330
1F
100
AcDbEntity
  8
Ech.1_5
  6
Continuous
 62
     5
370
    40
390
5F
100
AcDbPolyline
 90
        5
 70
     0
 43
0.0
 10
54952.86797563664
 20
-10856.66936534094
 10
54992.86797563664
 20
-10856.66936534094
 10
54992.86797563664
 20
-10901.66936534094
 10
54952.86797563664
 20
-10901.66936534094
 10
54952.86797563664
 20
-10856.66936534094
  0
LWPOLYLINE
  5
289
330
1F
100
AcDbEntity
  8
Ech.1_5
  6
Continuous
 62
     5
370
    40
390
5F
100
AcDbPolyline
 90
        5
 70
     0
 43
0.0
 10
54943.86797563664
 20
-10921.61848263696
 10
54848.86797563664
 20
-10921.61848263696
 10
54848.86797563664
 20
-10876.61848263696
 10
54943.86797563664
 20
-10876.61848263696
 10
54943.86797563664
 20
-10921.61848263696
  0
HATCH
  5
28A
330
1F
100
AcDbEntity
  8
Ech.1_5
  6
Continuous
 62
    33
420
 12426362
440
 33554687
370
    20
390
5F
100
AcDbHatch
 10
0.0
 20
0.0
 30
0.0
210
0.0
220
0.0
230
1.0
  2
SOLID
 70
     1
 71
     0
 91
        1
 92
        3
 72
     0
 73
     1
 93
        4
 10
54828.86797563664
 20
-11161.50547443805
 10
54733.86797563664
 20
-11161.50615655512
 10
54733.86797563664
 20
-11206.50615655512
 10
54828.86797563664
 20
-11206.50547443805
 97
        0
 75
     0
 76
     1
 98
        0
  0
LWPOLYLINE
  5
28B
330
1F
100
AcDbEntity
  8
Ech.1_5
  6
Continuous
 62
   190
370
    15
390
5F
100
AcDbPolyline
 90
        5
 70
     0
 43
0.0
 10
54828.86797563664
 20
-11161.50547443805
 10
54733.86797563664
 20
-11161.50615655512
 10
54733.86797563664
 20
-11206.50615655512
 10
54828.86797563664
 20
-11206.50547443805
 10
54828.86797563664
 20
-11161.50547443805
  0
LWPOLYLINE
  5
28C
330
1F
100
AcDbEntity
  8
Ech.1_5
  6
Continuous
 62
   190
370
    15
390
5F
100
AcDbPolyline
 90
        4
 70
     0
 43
0.0
 10
54828.86797563664
 20
-11206.50615655512
 10
54733.86797563664
 20
-11161.50615655512
 10
54733.86797563664
 20
-11206.50615655512
 10
54828.86797563664
 20
-11161.50615655512
  0
HATCH
  5
28D
330
1F
100
AcDbEntity
  8
Ech.1_5
  6
Continuous
 62
    40
420
 16297258
440
 33554687
370
    20
390
5F
100
AcDbHatch
 10
0.0
 20
0.0
 30
0.0
210
0.0
220
0.0
230
1.0
  2
SOLID
 70
     1
 71
     0
 91
        1
 92
        3
 72
     0
 73
     1
 93
        4
 10
54943.86797563664
 20
-11382.27925392616
 10
54952.86797563664
 20
-11382.27925392616
 10
54952.86797563664
 20
-11169.4564556259
 10
54943.86797563664
 20
-11169.4564556259
 97
        0
 75
     0
 76
     1
 98
        0
  0
LWPOLYLINE
  5
28E
330
1F
100
AcDbEntity
  8
Ech.1_5
  6
Continuous
 62
   190
370
    15
390
5F
100
AcDbPolyline
 90
        5
 70
     0
 43
0.0
 10
54943.86797563664
 20
-11382.27925392616
 10
54952.86797563664
 20
-11382.27925392616
 10
54952.86797563664
 20
-11169.4564556259
 10
54943.86797563664
 20
-11169.4564556259
 10
54943.86797563664
 20
-11382.27925392616
  0
HATCH
  5
28F
330
1F
100
AcDbEntity
  8
Ech.1_5
  6
Continuous
 62
   254
420
 15656413
440
 33554687
370
    20
390
5F
100
AcDbHatch
 10
0.0
 20
0.0
 30
0.0
210
0.0
220
0.0
230
1.0
  2
SOLID
 70
     1
 71
     0
 91
        1
 92
        3
 72
     0
 73
     1
 93
        4
 10
54992.86797563664
 20
-11344.72098344404
 10
54952.86797563664
 20
-11344.72098344404
 10
54952.86797563664
 20
-11382.2791096324
 10
54992.86797563664
 20
-11382.2791096324
 97
        0
 75
     0
 76
     1
 98
        0
  0
LWPOLYLINE
  5
290
330
1F
100
AcDbEntity
  8
Ech.1_5
  6
Continuous
 62
   190
370
    15
390
5F
100
AcDbPolyline
 90
        5
 70
     0
 43
0.0
 10
54992.86797563664
 20
-11344.72098344404
 10
54952.86797563664
 20
-11344.72098344404
 10
54952.86797563664
 20
-11382.2791096324
 10
54992.86797563664
 20
-11382.2791096324
 10
54992.86797563664
 20
-11344.72098344404
  0
LINE
  5
291
330
1F
100
AcDbEntity
  8
Ech.1_5
  6
Continuous
 62
   190
370
    15
390
5F
100
AcDbLine
 10
54952.86797563664
 20
-11344.72098344404
 30
0.0
 11
54992.86797563664
 21
-11382.2791096324
 31
0.0
  0
LINE
  5
292
330
1F
100
AcDbEntity
  8
Ech.1_5
  6
Continuous
 62
   190
370
    15
390
5F
100
AcDbLine
 10
54952.86797563664
 20
-11382.2791096324
 30
0.0
 11
54992.86797563664
 21
-11344.72098344404
 31
0.0
  0
LWPOLYLINE
  5
293
330
1F
100
AcDbEntity
  8
Ech.1_5
  6
Continuous
 62
   190
370
    15
390
5F
100
AcDbPolyline
 90
        5
 70
     0
 43
0.0
 10
54992.86797563664
 20
-11344.72098344404
 10
54952.86797563664
 20
-11344.72098344404
 10
54952.86797563664
 20
-11382.2791096324
 10
54992.86797563664
 20
-11382.2791096324
 10
54992.86797563664
 20
-11344.72098344404
  0
HATCH
  5
294
330
1F
100
AcDbEntity
  8
Ech.1_5
  6
Continuous
 62
   254
420
 14407639
440
 33554687
370
    15
390
5F
100
AcDbHatch
 10
0.0
 20
0.0
 30
0.0
210
0.0
220
0.0
230
1.0
  2
SOLID
 70
     1
 71
     0
 91
        1
 92
        3
 72
     0
 73
     1
 93
        4
 10
55005.86797563665
 20
-11333.67009781641
 10
54992.86797563665
 20
-11333.67009834835
 10
54992.86797563665
 20
-11382.27940921384
 10
55005.86797563665
 20
-11382.27940921384
 97
        0
 75
     0
 76
     1
 98
        0
  0
LWPOLYLINE
  5
295
330
1F
100
AcDbEntity
  8
Ech.1_5
  6
Continuous
 62
   254
420
 14407639
370
    15
390
5F
100
AcDbPolyline
 90
        5
 70
     0
 43
0.0
 10
55005.86797563665
 20
-11333.67009781641
 10
54992.86797563665
 20
-11333.67009834835
 10
54992.86797563665
 20
-11382.27940921384
 10
55005.86797563665
 20
-11382.27940921384
 10
55005.86797563665
 20
-11333.67009781641
  0
HATCH
  5
296
330
1F
100
AcDbEntity
  8
Ech.1_5
  6
Continuous
 62
    40
420
 16297258
440
 33554687
370
    20
390
5F
100
AcDbHatch
 10
0.0
 20
0.0
 30
0.0
210
0.0
220
0.0
230
1.0
  2
SOLID
 70
     1
 71
     0
 91
        1
 92
        3
 72
     0
 73
     1
 93
        4
 10
54724.86797563664
 20
-11382.27925392616
 10
54733.86797563664
 20
-11382.27925392616
 10
54733.86797563664
 20
-11169.4564556259
 10
54724.86797563664
 20
-11169.4564556259
 97
        0
 75
     0
 76
     1
 98
        0
  0
LWPOLYLINE
  5
297
330
1F
100
AcDbEntity
  8
Ech.1_5
  6
Continuous
 62
   190
370
    15
390
5F
100
AcDbPolyline
 90
        5
 70
     0
 43
0.0
 10
54724.86797563664
 20
-11382.27925392616
 10
54733.86797563664
 20
-11382.27925392616
 10
54733.86797563664
 20
-11169.4564556259
 10
54724.86797563664
 20
-11169.4564556259
 10
54724.86797563664
 20
-11382.27925392616
  0
HATCH
  5
298
330
1F
100
AcDbEntity
  8
Ech.1_5
  6
Continuous
 62
   190
440
 33554687
370
    15
390
5F
100
AcDbHatch
 10
0.0
 20
0.0
 30
0.0
210
0.0
220
0.0
230
1.0
  2
CwHatchPattern_74
 70
     0
 71
     0
 91
        1
 92
        3
 72
     0
 73
     1
 93
        4
 10
54724.86797563664
 20
-11382.27925392616
 10
54733.86797563664
 20
-11382.27925392616
 10
54733.86797563664
 20
-11169.4564556259
 10
54724.86797563664
 20
-11169.4564556259
 97
        0
 75
     0
 76
     2
 52
0.0
 41
0.6000000238418579
 77
     0
 78
     3
 53
45.00000000000297
 43
0.0
 44
0.0
 45
-0.0000000000043443
 46
42.00000166893005
 79
     0
 53
45.00000000000297
 43
0.0
 44
10.80000042915344
 45
-0.0000000000043443
 46
42.00000166893005
 79
     0
 53
45.00000000000297
 43
0.0
 44
21.60000085830688
 45
-0.0000000000043443
 46
42.00000166893005
 79
     0
 98
        0
1001
ACAD
1010
0.0
1020
0.0
1030
0.0
  0
LWPOLYLINE
  5
299
330
1F
100
AcDbEntity
  8
Ech.1_5
  6
Continuous
 62
     7
370
    20
390
5F
100
AcDbPolyline
 90
        5
 70
     0
 43
0.0
 10
54724.86797563664
 20
-11382.27925392616
 10
54733.86797563664
 20
-11382.27925392616
 10
54733.86797563664
 20
-11169.4564556259
 10
54724.86797563664
 20
-11169.4564556259
 10
54724.86797563664
 20
-11382.27925392616
  0
HATCH
  5
29A
330
1F
100
AcDbEntity
  8
Ech.1_5
  6
Continuous
 62
   190
440
 33554687
370
    15
390
231
100
AcDbHatch
 10
0.0
 20
0.0
 30
0.0
210
0.0
220
0.0
230
1.0
  2
CwHatchPattern_84
 70
     0
 71
     0
 91
        1
 92
        3
 72
     0
 73
     1
 93
        4
 10
54992.86797563664
 20
-11382.27940921384
 10
55005.86797563664
 20
-11382.27940921384
 10
55005.86797563664
 20
-11333.67009781641
 10
54992.86797563664
 20
-11333.67009781641
 97
        0
 75
     0
 76
     2
 52
0.0
 41
1.0
 77
     0
 78
     2
 53
0.0
 43
0.0
 44
0.0
 45
0.0
 46
70.0
 79
     2
 49
0.0
 49
-70.0
 53
0.0
 43
35.0
 44
35.0
 45
0.0
 46
70.0
 79
     2
 49
0.0
 49
-70.0
 98
        0
1001
ACAD
1010
0.0
1020
0.0
1030
0.0
  0
LWPOLYLINE
  5
29B
330
1F
100
AcDbEntity
  8
Ech.1_5
  6
Continuous
 62
     7
370
    20
390
5F
100
AcDbPolyline
 90
        5
 70
     0
 43
0.0
 10
54992.86797563664
 20
-11382.27940921384
 10
55005.86797563664
 20
-11382.27940921384
 10
55005.86797563664
 20
-11333.67009781641
 10
54992.86797563664
 20
-11333.67009781641
 10
54992.86797563664
 20
-11382.27940921384
  0
HATCH
  5
29C
330
1F
100
AcDbEntity
  8
Ech.1_5
  6
Continuous
 62
   190
440
 33554687
370
    15
390
5F
100
AcDbHatch
 10
0.0
 20
0.0
 30
0.0
210
0.0
220
0.0
230
1.0
  2
CwHatchPattern_74
 70
     0
 71
     0
 91
        1
 92
        3
 72
     0
 73
     1
 93
        4
 10
54943.86797563664
 20
-11382.27925392616
 10
54952.86797563664
 20
-11382.27925392616
 10
54952.86797563664
 20
-11169.4564556259
 10
54943.86797563664
 20
-11169.4564556259
 97
        0
 75
     0
 76
     2
 52
0.0
 41
0.6000000238418579
 77
     0
 78
     3
 53
45.00000000000297
 43
0.0
 44
0.0
 45
-0.0000000000043443
 46
42.00000166893005
 79
     0
 53
45.00000000000297
 43
0.0
 44
10.80000042915344
 45
-0.0000000000043443
 46
42.00000166893005
 79
     0
 53
45.00000000000297
 43
0.0
 44
21.60000085830688
 45
-0.0000000000043443
 46
42.00000166893005
 79
     0
 98
        0
1001
ACAD
1010
0.0
1020
0.0
1030
0.0
  0
LWPOLYLINE
  5
29D
330
1F
100
AcDbEntity
  8
Ech.1_5
  6
Continuous
 62
     7
370
    20
390
5F
100
AcDbPolyline
 90
        5
 70
     0
 43
0.0
 10
54943.86797563664
 20
-11382.27925392616
 10
54952.86797563664
 20
-11382.27925392616
 10
54952.86797563664
 20
-11169.4564556259
 10
54943.86797563664
 20
-11169.4564556259
 10
54943.86797563664
 20
-11382.27925392616
  0
LWPOLYLINE
  5
29E
330
1F
100
AcDbEntity
  8
Ech.1_5
  6
Continuous
 62
   190
370
    15
390
5F
100
AcDbPolyline
 90
        4
 70
     0
 43
0.0
 10
54943.86797563664
 20
-11206.50615655512
 10
54848.86797563664
 20
-11161.50615655512
 10
54848.86797563664
 20
-11206.50615655512
 10
54943.86797563664
 20
-11161.50615655512
  0
LWPOLYLINE
  5
29F
330
1F
100
AcDbEntity
  8
Ech.1_5
  6
Continuous
 62
     5
370
    40
390
5F
100
AcDbPolyline
 90
        5
 70
     0
 43
0.0
 10
54828.86797563664
 20
-11161.50615655512
 10
54733.86797563664
 20
-11161.50615655512
 10
54733.86797563664
 20
-11206.50615655512
 10
54828.86797563664
 20
-11206.50615655512
 10
54828.86797563664
 20
-11161.50615655512
  0
LWPOLYLINE
  5
2A0
330
1F
100
AcDbEntity
  8
Ech.1_5
  6
Continuous
 62
     5
370
    40
390
5F
100
AcDbPolyline
 90
        4
 70
     0
 43
0.0
 10
54992.86797563664
 20
-11382.2791096324
 10
54992.86797563664
 20
-11344.72098344404
 10
54952.86797563664
 20
-11344.72098344404
 10
54952.86797563664
 20
-11382.2791096324
  0
LWPOLYLINE
  5
2A1
330
1F
100
AcDbEntity
  8
Ech.1_5
  6
Continuous
 62
     5
370
    40
390
5F
100
AcDbPolyline
 90
        5
 70
     0
 43
0.0
 10
54943.86797563664
 20
-11161.50615655512
 10
54848.86797563664
 20
-11161.50615655512
 10
54848.86797563664
 20
-11206.50615655512
 10
54943.86797563664
 20
-11206.50615655512
 10
54943.86797563664
 20
-11161.50615655512
  0
HATCH
  5
2A2
330
1F
100
AcDbEntity
  8
Ech.1_5
  6
Continuous
 62
   254
420
 16643007
440
 33554687
370
     5
390
5F
100
AcDbHatch
 10
0.0
 20
0.0
 30
0.0
210
0.0
220
0.0
230
1.0
  2
SOLID
 70
     1
 71
     0
 91
        1
 92
        3
 72
     0
 73
     1
 93
        8
 10
54733.86797563546
 20
-11251.50547443805
 10
54733.86797563603
 20
-11382.27932848016
 10
54786.17640738629
 20
-11382.2791096324
 10
54802.66191054221
 20
-11364.30176122502
 10
54788.5519705244
 20
-11400.25746123682
 10
54805.0383246059
 20
-11382.2791096324
 10
54828.86797563603
 20
-11382.2791096324
 10
54828.86797563603
 20
-11251.50547443805
 97
        0
 75
     0
 76
     1
 98
        0
  0
HATCH
  5
2A3
330
1F
100
AcDbEntity
  8
Ech.1_5
  6
Continuous
 62
   190
440
 33554687
370
    15
390
5F
100
AcDbHatch
 10
0.0
 20
0.0
 30
0.0
210
0.0
220
0.0
230
1.0
  2
CwHatchPattern_201
 70
     0
 71
     0
 91
        1
 92
        3
 72
     0
 73
     1
 93
        8
 10
54733.86797563546
 20
-11251.50547443805
 10
54733.86797563603
 20
-11382.27932848016
 10
54786.17640738629
 20
-11382.2791096324
 10
54802.66191054221
 20
-11364.30176122502
 10
54788.5519705244
 20
-11400.25746123682
 10
54805.0383246059
 20
-11382.2791096324
 10
54828.86797563603
 20
-11382.2791096324
 10
54828.86797563603
 20
-11251.50547443805
 97
        0
 75
     0
 76
     2
 52
270.0000000002455
 41
1.899999976158142
 77
     0
 78
    29
 53
270.0000000002455
 43
54733.86797563546
 44
-11249.38510298139
 45
94.9999988079071
 46
0.000000000406998
 79
     2
 49
4.240742913318396
 49
-11.59259352442348
 53
0.000000000251391
 43
54747.13191341909
 44
-11235.67214734328
 45
-0.0000000001389407
 46
31.66666324933374
 79
     2
 49
2.569398370926024
 49
-92.43060043698108
 53
0.000000000251391
 43
54813.03463828876
 44
-11251.50547443771
 45
-0.0000000001389407
 46
31.66666324933374
 79
     2
 49
2.569398370926024
 49
-92.43060043698108
 53
14.93246459986175
 43
54753.09773234557
 44
-11266.96142361012
 45
94.99954328966271
 46
31.66840019718156
 79
     2
 49
58.51656864170565
 49
-433.0822737708559
 53
345.067535400641
 43
54753.09773234557
 44
-11267.71618851516
 45
-94.99954328994062
 46
31.66840019634792
 79
     2
 49
58.51656864170564
 49
-433.0822737708558
 53
285.2551193239769
 43
54733.86797563548
 44
-11253.62584589471
 45
0.0000008487351914
 46
31.66666225524917
 79
     2
 49
4.303889324898602
 49
-356.751660638713
 53
74.74488830592037
 43
54733.86797563546
 44
-11249.38510298139
 45
-0.0000050656842148
 46
31.66666225524877
 79
     2
 49
4.303889324898601
 49
-356.751660638713
 53
285.2551193239769
 43
54827.73554962624
 44
-11261.06619833768
 45
0.0000008487351914
 46
31.66666225524917
 79
     2
 49
4.303889324898602
 49
-356.751660638713
 53
254.744880676514
 43
54828.86797444346
 44
-11269.45917284746
 45
0.0000008490065257
 46
-31.66666225524917
 79
     2
 49
4.303889324898602
 49
-356.751660638713
 53
300.9637565615268
 43
54735.00040413326
 44
-11257.77807763273
 45
-0.0000002104985932
 46
31.66666872119268
 79
     2
 49
4.134751357407929
 49
-180.5120474098601
 53
59.03623962427871
 43
54735.00040413321
 44
-11245.20944459171
 45
0.0000023185567131
 46
31.6666687211926
 79
     2
 49
4.134751357407929
 49
-180.5120474098601
 53
300.9637565615268
 43
54825.6082293633
 44
-11257.52068457346
 45
-0.0000002104985932
 46
31.66666872119268
 79
     2
 49
4.134751357407929
 49
-180.5120474098601
 53
239.0362434389641
 43
54827.73554962629
 44
-11273.61141378695
 45
-0.0000002102272622
 46
-31.66666872119268
 79
     2
 49
4.134751357407929
 49
-180.5120474098601
 53
315.0000000002485
 43
54737.12772014936
 44
-11261.32359139696
 45
-0.0000000001373049
 46
31.66667159981128
 79
     2
 49
3.516225353464009
 49
-130.83406474924
 53
45.00000000025437
 43
54737.12772014928
 44
-11241.68735747912
 45
-0.0000000001405855
 46
31.66667159981128
 79
     2
 49
3.516225353464009
 49
-130.83406474924
 53
315.0000000002485
 43
54823.12189220959
 44
-11255.03434430542
 45
-0.0000000001373049
 46
31.66667159981128
 79
     2
 49
3.516225353464009
 49
-130.83406474924
 53
225.0000000002425
 43
54825.60822936339
 44
-11277.15692868369
 45
0.000000000134021
 46
-31.66667159981127
 79
     2
 49
3.516225353464009
 49
-130.83406474924
 53
326.3099327089894
 43
54739.6140601343
 44
-11263.80994100802
 45
-0.0000035849175246
 46
31.6666678672461
 79
     2
 49
3.688175572368024
 49
-110.4876089536816
 53
33.69006347681609
 43
54739.6140601342
 44
-11239.20100786803
 45
0.0000056929755938
 46
31.66666786724579
 79
     2
 49
3.688175572368024
 49
-110.4876089536816
 53
326.3099327089894
 43
54820.05313900559
 44
-11252.98850996859
 45
-0.0000035849175246
 46
31.6666678672461
 79
     2
 49
3.688175572368024
 49
-110.4876089536816
 53
213.6900672915015
 43
54823.12189220969
 44
-11279.64327716228
 45
-0.0000035846461852
 46
-31.6666678672461
 79
     2
 49
3.688175572368024
 49
-110.4876089536816
 53
341.5650482180236
 43
54742.68280710961
 44
-11265.85577534484
 45
-0.0000015876851974
 46
31.66667011518691
 79
     2
 49
4.689769969146251
 49
-95.44902586373496
 53
18.43495178247915
 43
54742.68280710949
 44
-11237.15517353118
 45
0.0000015874073222
 46
31.66667011518691
 79
     2
 49
4.689769969146251
 49
-95.44902586373496
 53
341.5650482180236
 43
54815.60403665968
 44
-11251.5054744377
 45
-0.0000015876851974
 46
31.66667011518691
 79
     2
 49
4.689769969146251
 49
-95.44902586373496
 53
198.4349517824674
 43
54820.05313900571
 44
-11281.68910130674
 45
-0.0000015874138597
 46
-31.66667011518691
 79
     2
 49
4.689769969146251
 49
-95.44902586373496
 53
353.6598052981025
 43
54749.70130273011
 44
-11235.67214734327
 45
-190.0000072055251
 46
31.6666752326181
 79
     2
 49
3.417330535087704
 49
-283.3365252226713
 53
6.340194702400239
 43
54749.70130273025
 44
-11267.3388015327
 45
190.0000072052472
 46
31.66667523428535
 79
     2
 49
3.417330535087703
 49
-283.3365252226712
 53
173.6598205569034
 43
54813.03463828876
 44
-11251.50547443771
 45
190.0000156388706
 46
-31.66662463251511
 79
     2
 49
3.417330535087703
 49
-283.3365252226712
 53
186.3401947023884
 43
54813.03463828876
 44
-11251.50547443771
 45
-190.0000072052538
 46
-31.6666752342461
 79
     2
 49
3.417330535087704
 49
-283.3365252226713
 98
        0
1001
ACAD
1010
54733.86797563547
1020
-11251.50547443805
1030
0.0
  0
LWPOLYLINE
  5
2A4
330
1F
100
AcDbEntity
  8
Ech.1_5
  6
Continuous
 62
   190
370
    15
390
5F
100
AcDbPolyline
 90
        9
 70
     0
 43
0.0
 10
54733.86797563546
 20
-11251.50547443805
 10
54733.86797563603
 20
-11382.27932848016
 10
54786.17640738629
 20
-11382.2791096324
 10
54802.66191054221
 20
-11364.30176122502
 10
54788.5519705244
 20
-11400.25746123682
 10
54805.0383246059
 20
-11382.2791096324
 10
54828.86797563603
 20
-11382.2791096324
 10
54828.86797563603
 20
-11251.50547443805
 10
54733.86797563546
 20
-11251.50547443805
  0
LWPOLYLINE
  5
2A5
330
1F
100
AcDbEntity
  8
Ech.1_5
  6
Continuous
 62
   190
370
    15
390
5F
100
AcDbPolyline
 90
       28
 70
     0
 43
0.0
 10
54749.70130896998
 20
-10650.42093650331
 42
1.140281805121476
 10
54753.79928641135
 20
-10681.54809294709
 10
54808.93666486194
 20
-10666.79378005953
 42
-1.303226186856043
 10
54808.93666486194
 20
-10697.38142628046
 10
54753.79928641135
 20
-10682.62711339279
 42
1.303226186856994
 10
54753.79928641135
 20
-10713.21475961371
 10
54808.93666486194
 20
-10698.46044672616
 42
-1.303226186856043
 10
54808.93666486194
 20
-10729.04809294709
 10
54753.79928641135
 20
-10714.29378005941
 42
1.303226186852034
 10
54753.79928641135
 20
-10744.88142628046
 10
54808.93666486194
 20
-10730.12711339279
 42
-1.303226186856043
 10
54808.93666486194
 20
-10760.71475961371
 10
54753.79928641135
 20
-10745.96044672616
 42
1.303226186856994
 10
54753.79928641135
 20
-10776.54809294709
 10
54808.93666486194
 20
-10761.79378005941
 42
-1.303226186851083
 10
54808.93666486194
 20
-10792.38142628046
 10
54753.79928641135
 20
-10777.62711339279
 42
1.303226186856994
 10
54753.79928641135
 20
-10808.21475961371
 10
54808.93666486194
 20
-10793.46044672616
 42
-1.303226186856043
 10
54808.93666486194
 20
-10824.04809294709
 10
54753.79928641135
 20
-10809.29378005941
 42
1.303226186852034
 10
54753.79928641135
 20
-10839.88142628046
 10
54808.93666486194
 20
-10825.12711339279
 42
-1.303226186856043
 10
54808.93666486194
 20
-10855.71475961371
 10
54753.79928641135
 20
-10840.96044672616
 42
1.303226186856994
 10
54753.79928641135
 20
-10871.54809294709
 10
54808.93666486194
 20
-10856.79378005941
 42
-0.586862412268205
 10
54828.20585107846
 20
-10876.61848263696
  0
LWPOLYLINE
  5
2A6
330
1F
100
AcDbEntity
  8
Ech.1_5
  6
Continuous
 62
   190
370
    15
390
5F
100
AcDbPolyline
 90
       28
 70
     0
 43
0.0
 10
54864.70130896998
 20
-10650.42078121563
 42
1.140281805121476
 10
54868.79928641135
 20
-10681.54793765941
 10
54923.93666486194
 20
-10666.79362477185
 42
-1.303226186856043
 10
54923.93666486194
 20
-10697.38127099278
 10
54868.79928641135
 20
-10682.62695810511
 42
1.303226186856994
 10
54868.79928641135
 20
-10713.21460432603
 10
54923.93666486194
 20
-10698.46029143848
 42
-1.303226186856043
 10
54923.93666486194
 20
-10729.04793765941
 10
54868.79928641135
 20
-10714.29362477174
 42
1.303226186852034
 10
54868.79928641135
 20
-10744.88127099278
 10
54923.93666486194
 20
-10730.12695810511
 42
-1.303226186856043
 10
54923.93666486194
 20
-10760.71460432603
 10
54868.79928641135
 20
-10745.96029143848
 42
1.303226186856994
 10
54868.79928641135
 20
-10776.54793765941
 10
54923.93666486194
 20
-10761.79362477174
 42
-1.303226186851083
 10
54923.93666486194
 20
-10792.38127099278
 10
54868.79928641135
 20
-10777.62695810511
 42
1.303226186856994
 10
54868.79928641135
 20
-10808.21460432603
 10
54923.93666486194
 20
-10793.46029143848
 42
-1.303226186856043
 10
54923.93666486194
 20
-10824.04793765941
 10
54868.79928641135
 20
-10809.29362477174
 42
1.303226186852034
 10
54868.79928641135
 20
-10839.88127099278
 10
54923.93666486194
 20
-10825.12695810511
 42
-1.303226186856043
 10
54923.93666486194
 20
-10855.71460432603
 10
54868.79928641135
 20
-10840.96029143848
 42
1.303226186856994
 10
54868.79928641135
 20
-10871.54793765941
 10
54923.93666486194
 20
-10856.79362477174
 42
-0.5868658525102785
 10
54943.20580470096
 20
-10876.61848263696
  0
LWPOLYLINE
  5
2A7
330
1F
100
AcDbEntity
  8
Ech.1_5
  6
Continuous
 62
   190
370
    15
390
5F
100
AcDbPolyline
 90
        6
 70
     0
 43
0.0
 10
54651.86779924483
 20
-11382.27967155228
 10
54786.17640738629
 20
-11382.2791096324
 10
54802.66191054221
 20
-11364.30176122502
 10
54788.5519705244
 20
-11400.25746123682
 10
54805.0383246059
 20
-11382.2791096324
 10
55028.43552875974
 20
-11382.2791096324
  0
HATCH
  5
2A8
330
1F
100
AcDbEntity
  8
Ech.1_5
  6
Continuous
 62
    33
420
 12426362
440
 33554687
370
    20
390
5F
100
AcDbHatch
 10
0.0
 20
0.0
 30
0.0
210
0.0
220
0.0
230
1.0
  2
SOLID
 70
     1
 71
     0
 91
        1
 92
        3
 72
     0
 73
     1
 93
        4
 10
54943.86797563664
 20
-11206.50479232098
 10
54848.86797563664
 20
-11206.50547443805
 10
54848.86797563664
 20
-11251.50547443805
 10
54943.86797563664
 20
-11251.50479232098
 97
        0
 75
     0
 76
     1
 98
        0
  0
LWPOLYLINE
  5
2A9
330
1F
100
AcDbEntity
  8
Ech.1_5
  6
Continuous
 62
   190
370
    15
390
5F
100
AcDbPolyline
 90
        5
 70
     0
 43
0.0
 10
54943.86797563664
 20
-11206.50479232098
 10
54848.86797563664
 20
-11206.50547443805
 10
54848.86797563664
 20
-11251.50547443805
 10
54943.86797563664
 20
-11251.50479232098
 10
54943.86797563664
 20
-11206.50479232098
  0
HATCH
  5
2AA
330
1F
100
AcDbEntity
  8
Ech.1_5
  6
Continuous
 62
    33
420
 12426362
440
 33554687
370
    20
390
5F
100
AcDbHatch
 10
0.0
 20
0.0
 30
0.0
210
0.0
220
0.0
230
1.0
  2
SOLID
 70
     1
 71
     0
 91
        1
 92
        3
 72
     0
 73
     1
 93
        4
 10
54828.86797563664
 20
-11206.50479232098
 10
54733.86797563664
 20
-11206.50547443805
 10
54733.86797563664
 20
-11251.50547443805
 10
54828.86797563664
 20
-11251.50479232098
 97
        0
 75
     0
 76
     1
 98
        0
  0
LWPOLYLINE
  5
2AB
330
1F
100
AcDbEntity
  8
Ech.1_5
  6
Continuous
 62
   190
370
    15
390
5F
100
AcDbPolyline
 90
        5
 70
     0
 43
0.0
 10
54828.86797563664
 20
-11206.50479232098
 10
54733.86797563664
 20
-11206.50547443805
 10
54733.86797563664
 20
-11251.50547443805
 10
54828.86797563664
 20
-11251.50479232098
 10
54828.86797563664
 20
-11206.50479232098
  0
LWPOLYLINE
  5
2AC
330
1F
100
AcDbEntity
  8
Ech.1_5
  6
Continuous
 62
   190
370
    15
390
5F
100
AcDbPolyline
 90
        4
 70
     0
 43
0.0
 10
54828.86797563664
 20
-11251.50547443805
 10
54733.86797563664
 20
-11206.50547443805
 10
54733.86797563664
 20
-11251.50547443805
 10
54828.86797563664
 20
-11206.50547443805
  0
LWPOLYLINE
  5
2AD
330
1F
100
AcDbEntity
  8
Ech.1_5
  6
Continuous
 62
   190
370
    15
390
5F
100
AcDbPolyline
 90
        4
 70
     0
 43
0.0
 10
54943.86797563664
 20
-11251.50547443805
 10
54848.86797563664
 20
-11206.50547443805
 10
54848.86797563664
 20
-11251.50547443805
 10
54943.86797563664
 20
-11206.50547443805
  0
LWPOLYLINE
  5
2AE
330
1F
100
AcDbEntity
  8
Ech.1_5
  6
Continuous
 62
     5
370
    40
390
5F
100
AcDbPolyline
 90
        5
 70
     0
 43
0.0
 10
54828.86797563664
 20
-11206.50547443805
 10
54733.86797563664
 20
-11206.50547443805
 10
54733.86797563664
 20
-11251.50547443805
 10
54828.86797563664
 20
-11251.50547443805
 10
54828.86797563664
 20
-11206.50547443805
  0
LWPOLYLINE
  5
2AF
330
1F
100
AcDbEntity
  8
Ech.1_5
  6
Continuous
 62
     5
370
    40
390
5F
100
AcDbPolyline
 90
        5
 70
     0
 43
0.0
 10
54943.86797563664
 20
-11206.50547443805
 10
54848.86797563664
 20
-11206.50547443805
 10
54848.86797563664
 20
-11251.50547443805
 10
54943.86797563664
 20
-11251.50547443805
 10
54943.86797563664
 20
-11206.50547443805
  0
LWPOLYLINE
  5
2B0
330
1F
100
AcDbEntity
  8
Ech.1_5
 62
     3
370
    70
390
5F
100
AcDbPolyline
 90
        4
 70
     0
 43
0.0
 10
54715.30798420817
 20
-11235.96381743447
 10
54715.30798420817
 20
-11248.95295085452
 10
54720.98859717017
 20
-11252.88768299538
 10
54720.98859717022
 20
-11266.36611299633
  0
LWPOLYLINE
  5
2B1
330
1F
100
AcDbEntity
  8
Ech.1_5
 62
     3
370
    70
390
5F
100
AcDbPolyline
 90
        4
 70
     0
 43
0.0
 10
54962.42796706451
 20
-11235.96381743447
 10
54962.42796706451
 20
-11248.95295085452
 10
54956.74735410252
 20
-11252.88768299538
 10
54956.74735410246
 20
-11266.36611299633
  0
LWPOLYLINE
  5
2B2
330
1F
100
AcDbEntity
  8
Ech.1_5
 62
     3
370
    70
390
5F
100
AcDbPolyline
 90
        4
 70
     0
 43
0.0
 10
54429.29756825885
 20
-10717.31526479004
 10
54416.30843483877
 20
-10717.31526479004
 10
54412.37370269787
 20
-10711.63465182805
 10
54398.89527269697
 20
-10711.63465182805
  0
HATCH
  5
2B3
330
1F
100
AcDbEntity
  8
Ech.1_5
  6
Continuous
 62
   190
440
 33554687
370
    15
390
5F
100
AcDbHatch
 10
0.0
 20
0.0
 30
0.0
210
0.0
220
0.0
230
1.0
  2
CwHatchPattern_22
 70
     0
 71
     0
 91
        1
 92
        3
 72
     0
 73
     1
 93
        4
 10
55254.14681852853
 20
-10921.67003516257
 10
55254.14680681608
 20
-10907.67003516233
 10
55015.86797563664
 20
-10907.67003516257
 10
55015.86797563664
 20
-10921.67003516257
 97
        0
 75
     0
 76
     2
 52
0.0
 41
1.0
 77
     0
 78
     1
 53
135.0000000000089
 43
0.0
 44
0.0
 45
-7.071067811864377
 46
-7.071067811866573
 79
     0
 98
        0
1001
ACAD
1010
0.0
1020
0.0
1030
0.0
  0
LWPOLYLINE
  5
2B4
330
1F
100
AcDbEntity
  8
Ech.1_5
  6
Continuous
 62
   190
370
    15
390
5F
100
AcDbPolyline
 90
        5
 70
     0
 43
0.0
 10
55254.14681852853
 20
-10921.67003516257
 10
55254.14680681608
 20
-10907.67003516233
 10
55015.86797563664
 20
-10907.67003516257
 10
55015.86797563664
 20
-10921.67003516257
 10
55254.14681852853
 20
-10921.67003516257
  0
HATCH
  5
2B5
330
1F
100
AcDbEntity
  8
Ech.1_5
  6
Continuous
 62
   190
440
 33554687
370
    15
390
5F
100
AcDbHatch
 10
0.0
 20
0.0
 30
0.0
210
0.0
220
0.0
230
1.0
  2
CwHatchPattern_22
 70
     0
 71
     0
 91
        1
 92
        3
 72
     0
 73
     1
 93
        4
 10
54661.86798734908
 20
-10921.669363545
 10
54661.86797563664
 20
-10907.66936354476
 10
54451.34060979538
 20
-10907.66936534094
 10
54451.34060979538
 20
-10921.66936534094
 97
        0
 75
     0
 76
     2
 52
0.0
 41
1.0
 77
     0
 78
     1
 53
135.0000000000089
 43
0.0
 44
0.0
 45
-7.071067811864377
 46
-7.071067811866573
 79
     0
 98
        0
1001
ACAD
1010
0.0
1020
0.0
1030
0.0
  0
LWPOLYLINE
  5
2B6
330
1F
100
AcDbEntity
  8
Ech.1_5
  6
Continuous
 62
   190
370
    15
390
5F
100
AcDbPolyline
 90
        5
 70
     0
 43
0.0
 10
54661.86798734908
 20
-10921.669363545
 10
54661.86797563664
 20
-10907.66936354476
 10
54451.34060979538
 20
-10907.66936534094
 10
54451.34060979538
 20
-10921.66936534094
 10
54661.86798734908
 20
-10921.669363545
  0
LWPOLYLINE
  5
2B8
330
1F
100
AcDbEntity
  8
Ech.1_5
  6
CADWORK_22
 62
   106
 48
0.6
370
    35
390
5F
100
AcDbPolyline
 90
        6
 70
   128
 43
0.0
 10
54959.42664675257
 20
-11243.87146347304
 10
54959.42664675257
 20
-11161.50615655512
 10
54848.86797563664
 20
-11161.50615655512
 10
54848.86797563664
 20
-10921.61848263696
 10
54960.6892878063
 20
-10921.61848263696
 10
54960.6892878063
 20
-10826.8107397175
  0
LWPOLYLINE
  5
2B9
330
1F
100
AcDbEntity
  8
Ech.1_5
 62
     3
370
    70
390
5F
100
AcDbPolyline
 90
        4
 70
     0
 43
0.0
 10
54960.38094831708
 20
-10805.82910256737
 10
54960.38094831708
 20
-10818.81823598742
 10
54966.06156127908
 20
-10822.75296812834
 10
54966.06156127908
 20
-10836.23139812923
  0
LWPOLYLINE
  5
2BA
330
1F
100
AcDbEntity
  8
Ech.1_5
  6
Continuous
 62
   190
370
    15
390
5F
100
AcDbPolyline
 90
        5
 70
     0
 43
0.0
 10
55370.68637392123
 20
-11985.0553414964
 10
55370.68637392123
 20
-10630.0553414964
 10
54385.68637392123
 20
-10630.0553414964
 10
54385.68637392123
 20
-11985.0553414964
 10
55370.68637392123
 20
-11985.0553414964
  0
LWPOLYLINE
  5
2BB
330
1F
100
AcDbEntity
  8
Ech.1_5
 62
   190
370
    15
390
5F
100
AcDbPolyline
 90
        5
 70
     0
 43
0.0
 10
55151.70786160741
 20
-10670.93049024893
 10
55286.13664059337
 20
-10670.93049024893
 10
55286.13664059337
 20
-10727.65344906084
 10
55151.70786160741
 20
-10727.65344906084
 10
55151.70786160741
 20
-10670.93049024893
  0
HATCH
  5
2BC
330
1F
100
AcDbEntity
  8
Ech.1_5
  6
Continuous
 62
   190
440
 33554687
370
    15
390
5F
100
AcDbHatch
 10
0.0
 20
0.0
 30
0.0
210
0.0
220
0.0
230
1.0
  2
SOLID
 70
     1
 71
     0
 91
        1
 92
        3
 72
     0
 73
     1
 93
        4
 10
55169.98790739273
 20
-10704.58730137788
 10
55219.98790739273
 20
-10704.58730137788
 10
55219.98790739273
 20
-10697.17216384397
 10
55169.98790739273
 20
-10697.17216384397
 97
        0
 75
     0
 76
     1
 98
        0
  0
LWPOLYLINE
  5
2BD
330
1F
100
AcDbEntity
  8
Ech.1_5
 62
   190
370
    15
390
5F
100
AcDbPolyline
 90
        5
 70
     0
 43
0.0
 10
55169.98790739273
 20
-10704.58730137788
 10
55219.98790739273
 20
-10704.58730137788
 10
55219.98790739273
 20
-10697.17216384397
 10
55169.98790739273
 20
-10697.17216384397
 10
55169.98790739273
 20
-10704.58730137788
  0
LWPOLYLINE
  5
2BE
330
1F
100
AcDbEntity
  8
Ech.1_5
 62
   190
370
    15
390
5F
100
AcDbPolyline
 90
        5
 70
     0
 43
0.0
 10
55219.98790739273
 20
-10704.58730137788
 10
55269.98790739273
 20
-10704.58730137788
 10
55269.98790739273
 20
-10697.17216384397
 10
55219.98790739273
 20
-10697.17216384397
 10
55219.98790739273
 20
-10704.58730137788
  0
LWPOLYLINE
  5
2BF
330
1F
100
AcDbEntity
  8
Ech.1_5
  6
CADWORK_22
 62
     1
 48
0.6
370
    35
390
5F
100
AcDbPolyline
 90
        3
 70
   128
 43
0.0
 10
54919.11894152445
 20
-10919.20884117335
 10
54954.36797563664
 20
-10919.20884117335
 10
54954.36797563664
 20
-10650.42093650331
  0
LWPOLYLINE
  5
2C0
330
1F
100
AcDbEntity
  8
Ech.1_5
  6
CADWORK_22
 62
   106
 48
0.6
370
    35
390
5F
100
AcDbPolyline
 90
        6
 70
   128
 43
0.0
 10
54718.30930452071
 20
-11243.87146347304
 10
54718.30930452071
 20
-11161.50615655512
 10
54828.86797563664
 20
-11161.50615655512
 10
54828.86797563664
 20
-10921.61848263696
 10
54717.04666346698
 20
-10921.61848263696
 10
54717.04666346698
 20
-10826.8107397175
  0
LWPOLYLINE
  5
2C1
330
1F
100
AcDbEntity
  8
Ech.1_5
 62
     3
370
    70
390
5F
100
AcDbPolyline
 90
        4
 70
     0
 43
0.0
 10
54717.3550029562
 20
-10805.82910256737
 10
54717.3550029562
 20
-10818.81823598742
 10
54711.6743899942
 20
-10822.75296812834
 10
54711.6743899942
 20
-10836.23139812923
  0
LWPOLYLINE
  5
2C2
330
1F
100
AcDbEntity
  8
Ech.1_5
  6
CADWORK_22
 62
     1
 48
0.6
370
    35
390
5F
100
AcDbPolyline
 90
        3
 70
   128
 43
0.0
 10
54758.61700974883
 20
-10919.20884117335
 10
54723.36797563664
 20
-10919.20884117335
 10
54723.36797563664
 20
-10650.42093650331
  0
LWPOLYLINE
  5
2C3
330
1F
100
AcDbEntity
  8
Ech.1_5
  6
Continuous
 62
   190
370
    15
390
5F
100
AcDbPolyline
 90
        5
 70
     0
 43
0.0
 10
54385.68637392123
 20
-11752.1253064257
 10
55370.68637392123
 20
-11752.1253064257
 10
55370.68637392123
 20
-11985.0553414964
 10
54385.68637392123
 20
-11985.0553414964
 10
54385.68637392123
 20
-11752.1253064257
  0
LWPOLYLINE
  5
2C4
330
1F
100
AcDbEntity
  8
Ech.1_5
  6
Continuous
 62
   190
370
    15
390
5F
100
AcDbPolyline
 90
        5
 70
     0
 43
0.0
 10
55370.68637392123
 20
-11847.64226943134
 10
54385.68637392123
 20
-11847.64226943134
 10
54385.68637392123
 20
-11752.1253064257
 10
55370.68637392123
 20
-11752.1253064257
 10
55370.68637392123
 20
-11847.64226943134
  0
LWPOLYLINE
  5
2C5
330
1F
100
AcDbEntity
  8
Ech.1_5
  6
Continuous
 62
   190
370
    15
390
5F
100
AcDbPolyline
 90
        5
 70
     0
 43
0.0
 10
55370.68637392123
 20
-11869.64226943134
 10
54385.68637392123
 20
-11869.64226943134
 10
54385.68637392123
 20
-11847.64226943134
 10
55370.68637392123
 20
-11847.64226943134
 10
55370.68637392123
 20
-11869.64226943134
  0
LWPOLYLINE
  5
2C6
330
1F
100
AcDbEntity
  8
Ech.1_5
  6
Continuous
 62
   190
370
    15
390
5F
100
AcDbPolyline
 90
        5
 70
     0
 43
0.0
 10
55370.68637392123
 20
-11926.51341466168
 10
54385.68637392123
 20
-11926.51341466168
 10
54385.68637392123
 20
-11902.78638635095
 10
55370.68637392123
 20
-11902.78638635095
 10
55370.68637392123
 20
-11926.51341466168
  0
LINE
  5
2C7
330
1F
100
AcDbEntity
  8
Ech.1_5
  6
Continuous
 62
   190
370
    15
390
5F
100
AcDbLine
 10
54573.89093588418
 20
-11847.64226943134
 30
0.0
 11
54573.89093588418
 21
-11869.64226943134
 31
0.0
  0
LINE
  5
2C8
330
1F
100
AcDbEntity
  8
Ech.1_5
  6
Continuous
 62
   190
370
    15
390
5F
100
AcDbLine
 10
55230.88903851473
 20
-11847.64226943134
 30
0.0
 11
55230.88903851473
 21
-11869.64226943134
 31
0.0
  0
LINE
  5
2C9
330
1F
100
AcDbEntity
  8
Ech.1_5
  6
Continuous
 62
   190
370
    15
390
5F
100
AcDbLine
 10
54730.04615387954
 20
-11847.64226943134
 30
0.0
 11
54730.04615387954
 21
-11869.64226943134
 31
0.0
  0
LWPOLYLINE
  5
2CA
330
1F
100
AcDbEntity
  8
Ech.1_5
  6
Continuous
 62
   190
370
    15
390
5F
100
AcDbPolyline
 90
        3
 70
     0
 43
0.0
 10
54953.89749305668
 20
-10920.83506684247
 10
55082.79475324354
 20
-10773.52389428064
 10
55102.79475324354
 20
-10773.52389428064
  0
INSERT
  5
2CB
330
1F
100
AcDbEntity
  8
Ech.1_5
 62
   190
370
    15
100
AcDbBlockReference
  2
cw-line-extremity4
 10
54953.89749305668
 20
-10920.83506684247
 30
0.0
 50
48.81407831586787
  0
CIRCLE
  5
2CC
330
1F
100
AcDbEntity
  8
Ech.1_5
 62
     7
370
    20
390
5F
100
AcDbCircle
 10
55007.65002291197
 20
-11229.73091206535
 30
0.0
 40
2.518023729790002
  0
ARC
  5
2CD
330
1F
100
AcDbEntity
  8
Ech.1_5
 62
     7
370
    20
390
5F
100
AcDbCircle
 10
54989.15002291201
 20
-11293.67008250547
 30
0.0
 40
4.999999999954488
100
AcDbArc
 50
269.9999999994998
 51
0.0000000005211021
  0
LINE
  5
2CE
330
1F
100
AcDbEntity
  8
Ech.1_5
 62
     7
370
    20
390
5F
100
AcDbLine
 10
54988.91992060428
 20
-11297.98791241004
 30
0.0
 11
54988.91992060428
 21
-11295.98791241004
 31
0.0
  0
LINE
  5
2CF
330
1F
100
AcDbEntity
  8
Ech.1_5
 62
     7
370
    20
390
5F
100
AcDbLine
 10
54985.15002291197
 20
-11298.67008250543
 30
0.0
 11
54989.15002291197
 21
-11298.67008250554
 31
0.0
  0
ARC
  5
2D0
330
1F
100
AcDbEntity
  8
Ech.1_5
 62
     7
370
    20
390
5F
100
AcDbCircle
 10
54998.91630220949
 20
-11293.16558809782
 30
0.0
 40
14.82598746733064
100
AcDbArc
 50
201.7941710805427
 51
238.1351583520384
  0
ARC
  5
2D1
330
1F
100
AcDbEntity
  8
Ech.1_5
 62
     7
370
    20
390
5F
100
AcDbCircle
 10
54997.46080371115
 20
-11306.64037978616
 30
0.0
 40
12.47697948280778
100
AcDbArc
 50
189.362243955793
 51
254.6121810363037
  0
LINE
  5
2D2
330
1F
100
AcDbEntity
  8
Ech.1_5
 62
     7
370
    20
390
5F
100
AcDbLine
 10
54988.91992060428
 20
-11297.98791241004
 30
0.0
 11
54984.78950666726
 21
-11297.98791241004
 31
0.0
  0
LINE
  5
2D3
330
1F
100
AcDbEntity
  8
Ech.1_5
 62
     7
370
    20
390
5F
100
AcDbLine
 10
54984.78950666726
 20
-11297.98791241004
 30
0.0
 11
54984.78950666726
 21
-11318.67008250543
 31
0.0
  0
CIRCLE
  5
2D4
330
1F
100
AcDbEntity
  8
Ech.1_5
 62
     7
370
    20
390
5F
100
AcDbCircle
 10
55007.65002291197
 20
-11259.73091206535
 30
0.0
 40
2.518023729790002
  0
CIRCLE
  5
2D5
330
1F
100
AcDbEntity
  8
Ech.1_5
 62
     7
370
    20
390
5F
100
AcDbCircle
 10
55007.65002291197
 20
-11289.73091206535
 30
0.0
 40
2.518023729790002
  0
CIRCLE
  5
2D6
330
1F
100
AcDbEntity
  8
Ech.1_5
 62
     7
370
    20
390
5F
100
AcDbCircle
 10
55007.65002291197
 20
-11244.73091206535
 30
0.0
 40
2.518023729790002
  0
ARC
  5
2D7
330
1F
100
AcDbEntity
  8
Ech.1_5
 62
     7
370
    20
390
5F
100
AcDbCircle
 10
55016.38374361437
 20
-11293.16558809772
 30
0.0
 40
14.82598746746612
100
AcDbArc
 50
301.8648416480366
 51
338.2058289192314
  0
ARC
  5
2D8
330
1F
100
AcDbEntity
  8
Ech.1_5
 62
     7
370
    20
390
5F
100
AcDbCircle
 10
55028.00841485599
 20
-11305.52517005542
 30
0.0
 40
3.804859968990686
100
AcDbArc
 50
183.4967666077915
 51
304.2539007994117
  0
ARC
  5
2D9
330
1F
100
AcDbEntity
  8
Ech.1_5
 62
     7
370
    20
390
5F
100
AcDbCircle
 10
55017.83924211282
 20
-11306.64037978616
 30
0.0
 40
12.47697948279555
100
AcDbArc
 50
285.3878189635741
 51
350.6377560442208
  0
LINE
  5
2DA
330
1F
100
AcDbEntity
  8
Ech.1_5
 62
     7
370
    20
390
5F
100
AcDbLine
 10
55030.15002291197
 20
-11298.67008250543
 30
0.0
 11
55026.15002291198
 21
-11298.67008250554
 31
0.0
  0
ARC
  5
2DB
330
1F
100
AcDbEntity
  8
Ech.1_5
 62
     7
370
    20
390
5F
100
AcDbCircle
 10
55026.15002291193
 20
-11293.67008250547
 30
0.0
 40
4.999999999954489
100
AcDbArc
 50
179.9999999994789
 51
270.0000000005002
  0
LINE
  5
2DC
330
1F
100
AcDbEntity
  8
Ech.1_5
 62
     7
370
    20
390
5F
100
AcDbLine
 10
55026.38012521966
 20
-11297.98791241004
 30
0.0
 11
55026.38012521966
 21
-11295.98791241004
 31
0.0
  0
LINE
  5
2DD
330
1F
100
AcDbEntity
  8
Ech.1_5
 62
     7
370
    20
390
5F
100
AcDbLine
 10
55026.38012521966
 20
-11297.98791241004
 30
0.0
 11
55030.51053915669
 21
-11297.98791241004
 31
0.0
  0
LINE
  5
2DE
330
1F
100
AcDbEntity
  8
Ech.1_5
 62
     7
370
    20
390
5F
100
AcDbLine
 10
55030.51053915669
 20
-11297.98791241004
 30
0.0
 11
55030.51053915669
 21
-11318.67008250543
 31
0.0
  0
LINE
  5
2DF
330
1F
100
AcDbEntity
  8
Ech.1_5
 62
     7
370
    20
390
5F
100
AcDbLine
 10
55026.38012521966
 20
-11295.98791241004
 30
0.0
 11
55032.51053915669
 21
-11295.98791241004
 31
0.0
  0
LINE
  5
2E0
330
1F
100
AcDbEntity
  8
Ech.1_5
 62
     7
370
    20
390
5F
100
AcDbLine
 10
55032.51053915669
 20
-11295.98791241004
 30
0.0
 11
55032.51053915669
 21
-11320.67008250543
 31
0.0
  0
CIRCLE
  5
2E1
330
1F
100
AcDbEntity
  8
Ech.1_5
 62
     7
370
    20
390
5F
100
AcDbCircle
 10
55007.65002291197
 20
-11214.73091206535
 30
0.0
 40
2.518023729790002
  0
LINE
  5
2E2
330
1F
100
AcDbEntity
  8
Ech.1_5
 62
     7
370
    20
390
5F
100
AcDbLine
 10
54994.15002291197
 20
-11167.98386052645
 30
0.0
 11
54994.15002291197
 21
-11293.67008250543
 31
0.0
  0
CIRCLE
  5
2E3
330
1F
100
AcDbEntity
  8
Ech.1_5
 62
     7
370
    20
390
5F
100
AcDbCircle
 10
55007.65002291197
 20
-11199.73091206535
 30
0.0
 40
2.518023729790002
  0
LINE
  5
2E4
330
1F
100
AcDbEntity
  8
Ech.1_5
 62
     7
370
    20
390
5F
100
AcDbLine
 10
54994.15002291197
 20
-11167.98386052645
 30
0.0
 11
55021.15002291197
 21
-11167.98386052645
 31
0.0
  0
CIRCLE
  5
2E5
330
1F
100
AcDbEntity
  8
Ech.1_5
 62
     7
370
    20
390
5F
100
AcDbCircle
 10
55007.65002291198
 20
-11184.73091206535
 30
0.0
 40
2.518023729790002
  0
LINE
  5
2E6
330
1F
100
AcDbEntity
  8
Ech.1_5
 62
     7
370
    20
390
5F
100
AcDbLine
 10
55030.51053915669
 20
-11318.67008250543
 30
0.0
 11
54984.78950666726
 21
-11318.67008250543
 31
0.0
  0
ARC
  5
2E7
330
1F
100
AcDbEntity
  8
Ech.1_5
 62
     7
370
    20
390
5F
100
AcDbCircle
 10
54987.29163096795
 20
-11305.52517005541
 30
0.0
 40
3.804859968996948
100
AcDbArc
 50
235.7460992006808
 51
356.5032333920444
  0
CIRCLE
  5
2E8
330
1F
100
AcDbEntity
  8
Ech.1_5
 62
     7
370
    20
390
5F
100
AcDbCircle
 10
55007.65002291197
 20
-11274.73091206535
 30
0.0
 40
2.518023729790002
  0
HATCH
  5
2E9
330
1F
100
AcDbEntity
  8
Ech.1_5
  6
Continuous
 62
   254
420
 14407639
440
 33554687
370
    15
390
5F
100
AcDbHatch
 10
0.0
 20
0.0
 30
0.0
210
0.0
220
0.0
230
1.0
  2
SOLID
 70
     1
 71
     0
 91
        1
 92
        3
 72
     0
 73
     1
 93
        4
 10
54671.86797563663
 20
-11333.67009781641
 10
54684.86797563663
 20
-11333.67009834835
 10
54684.86797563663
 20
-11382.27940921384
 10
54671.86797563663
 20
-11382.27940921384
 97
        0
 75
     0
 76
     1
 98
        0
  0
LWPOLYLINE
  5
2EA
330
1F
100
AcDbEntity
  8
Ech.1_5
  6
Continuous
 62
   254
420
 14407639
370
    15
390
5F
100
AcDbPolyline
 90
        5
 70
     0
 43
0.0
 10
54671.86797563663
 20
-11333.67009781641
 10
54684.86797563663
 20
-11333.67009834835
 10
54684.86797563663
 20
-11382.27940921384
 10
54671.86797563663
 20
-11382.27940921384
 10
54671.86797563663
 20
-11333.67009781641
  0
HATCH
  5
2EB
330
1F
100
AcDbEntity
  8
Ech.1_5
  6
Continuous
 62
   190
440
 33554687
370
    15
390
231
100
AcDbHatch
 10
0.0
 20
0.0
 30
0.0
210
0.0
220
0.0
230
1.0
  2
CwHatchPattern_84
 70
     0
 71
     0
 91
        1
 92
        3
 72
     0
 73
     1
 93
        4
 10
54684.86797563664
 20
-11382.27940921384
 10
54671.86797563664
 20
-11382.27940921384
 10
54671.86797563664
 20
-11333.67009781641
 10
54684.86797563664
 20
-11333.67009781641
 97
        0
 75
     0
 76
     2
 52
0.0
 41
1.0
 77
     0
 78
     2
 53
0.0
 43
0.0
 44
0.0
 45
0.0
 46
70.0
 79
     2
 49
0.0
 49
-70.0
 53
0.0
 43
35.0
 44
35.0
 45
0.0
 46
70.0
 79
     2
 49
0.0
 49
-70.0
 98
        0
1001
ACAD
1010
0.0
1020
0.0
1030
0.0
  0
LWPOLYLINE
  5
2EC
330
1F
100
AcDbEntity
  8
Ech.1_5
  6
Continuous
 62
     7
370
    20
390
5F
100
AcDbPolyline
 90
        5
 70
     0
 43
0.0
 10
54684.86797563664
 20
-11382.27940921384
 10
54671.86797563664
 20
-11382.27940921384
 10
54671.86797563664
 20
-11333.67009781641
 10
54684.86797563664
 20
-11333.67009781641
 10
54684.86797563664
 20
-11382.27940921384
  0
LWPOLYLINE
  5
2ED
330
1F
100
AcDbEntity
  8
Ech.1_5
  6
Continuous
 62
     5
370
    40
390
5F
100
AcDbPolyline
 90
        4
 70
     0
 43
0.0
 10
54684.86797563664
 20
-11382.2791096324
 10
54684.86797563664
 20
-11344.72098344404
 10
54724.86797563664
 20
-11344.72098344404
 10
54724.86797563664
 20
-11382.2791096324
  0
LINE
  5
2EE
330
1F
100
AcDbEntity
  8
Ech.1_5
 62
     7
370
    20
390
5F
100
AcDbLine
 10
55021.15002291197
 20
-11167.98386052645
 30
0.0
 11
55021.15002291197
 21
-11293.67008250543
 31
0.0
  0
HATCH
  5
2EF
330
1F
100
AcDbEntity
  8
Ech.1_5
  6
Continuous
 62
   254
420
 15656413
440
 33554687
370
    20
390
5F
100
AcDbHatch
 10
0.0
 20
0.0
 30
0.0
210
0.0
220
0.0
230
1.0
  2
SOLID
 70
     1
 71
     0
 91
        1
 92
        3
 72
     0
 73
     1
 93
        4
 10
54711.86486115092
 20
-11220.67169414197
 10
54711.86486115092
 20
-11160.67045023603
 10
54451.34208561402
 20
-11160.67032630681
 10
54451.34208561402
 20
-11220.67119881755
 97
        0
 75
     0
 76
     1
 98
        0
  0
LWPOLYLINE
  5
2F0
330
1F
100
AcDbEntity
  8
Ech.1_5
  6
Continuous
 62
   190
370
    15
390
5F
100
AcDbPolyline
 90
        5
 70
     0
 43
0.0
 10
54711.86486115092
 20
-11220.67169414197
 10
54711.86486115092
 20
-11160.67045023603
 10
54451.34208561402
 20
-11160.67032630681
 10
54451.34208561402
 20
-11220.67119881755
 10
54711.86486115092
 20
-11220.67169414197
  0
HATCH
  5
2F1
330
1F
100
AcDbEntity
  8
Ech.1_5
  6
Continuous
 62
   254
420
 16643007
440
 33554687
370
     5
390
5F
100
AcDbHatch
 10
0.0
 20
0.0
 30
0.0
210
0.0
220
0.0
230
1.0
  2
SOLID
 70
     1
 71
     0
 91
        1
 92
        3
 72
     0
 73
     1
 93
        4
 10
54711.86486115092
 20
-11160.67003516257
 10
54711.86486115092
 20
-10940.66936534094
 10
54783.86797563664
 20
-10940.66936534094
 10
54783.86797563664
 20
-11160.67003516257
 97
        0
 75
     0
 76
     1
 98
        0
  0
HATCH
  5
2F2
330
1F
100
AcDbEntity
  8
Ech.1_5
  6
Continuous
 62
   190
440
 33554687
370
    15
390
5F
100
AcDbHatch
 10
0.0
 20
0.0
 30
0.0
210
0.0
220
0.0
230
1.0
  2
CwHatchPattern_201
 70
     0
 71
     0
 91
        1
 92
        3
 72
     0
 73
     1
 93
        4
 10
54711.86486115092
 20
-11160.67003516257
 10
54711.86486115092
 20
-10940.66936534094
 10
54783.86797563664
 20
-10940.66936534094
 10
54783.86797563664
 20
-11160.67003516257
 97
        0
 75
     0
 76
     2
 52
90.0
 41
1.440062284469604
 77
     0
 78
    29
 53
90.0
 43
54711.86486115093
 44
-11162.27712305842
 45
-72.00311422348022
 46
0.0000000000000044
 79
     2
 49
3.214175791701841
 49
-8.786345749048223
 53
180.0000000000059
 43
54701.81175757959
 44
-11172.67054962198
 45
0.0000000000024805
 46
-24.00103578557605
 79
     2
 49
1.947417754830667
 49
-70.05569646864956
 53
180.0000000000059
 43
54651.86226825361
 44
-11160.67003516257
 45
0.0000000000024805
 46
-24.00103578557605
 79
     2
 49
1.947417754830667
 49
-70.05569646864956
 53
194.9324645996163
 43
54697.29009919033
 44
-11148.955545819
 45
-72.00276897376628
 46
-24.00235226585555
 79
     2
 49
44.35131819732361
 49
-328.244977029326
 53
165.0675354003956
 43
54697.29009919033
 44
-11148.38348872056
 45
72.00276897377124
 46
-24.00235226584067
 79
     2
 49
44.35131819732362
 49
-328.244977029326
 53
105.2551193237315
 43
54711.86486115093
 44
-11159.06294726672
 45
-0.000000643382593
 46
-24.00103503213199
 79
     2
 49
3.262036195310962
 49
-270.3919041338713
 53
254.7448883056749
 43
54711.86486115093
 44
-11162.27712305842
 45
0.0000038393186965
 46
-24.0010350321317
 79
     2
 49
3.262036195310962
 49
-270.3919041338713
 53
105.2551193237315
 43
54640.72004286938
 44
-11153.42369933445
 45
-0.000000643382593
 46
-24.00103503213199
 79
     2
 49
3.262036195310962
 49
-270.3919041338713
 53
74.74488067626852
 43
54639.86174692745
 44
-11147.0624329146
 45
-0.0000006433825905
 46
24.00103503213199
 79
     2
 49
3.262036195310962
 49
-270.3919041338713
 53
120.9637565612813
 43
54711.00656241937
 44
-11155.91585653128
 45
0.0000001594398518
 46
-24.00103993284857
 79
     2
 49
3.133841873778564
 49
-136.8150498048703
 53
239.0362396240333
 43
54711.00656241937
 44
-11165.44196949803
 45
-0.000001757400771
 46
-24.00103993284851
 79
     2
 49
3.133841873778564
 49
-136.8150498048703
 53
120.9637565612813
 43
54642.33239745678
 44
-11156.11094181603
 45
0.0000001594398518
 46
-24.00103993284857
 79
     2
 49
3.133841873778564
 49
-136.8150498048703
 53
59.03624343871866
 43
54640.72004286938
 44
-11143.91533520511
 45
0.0000001594398556
 46
24.00103993284857
 79
     2
 49
3.133841873778564
 49
-136.8150498048703
 53
135.000000000003
 43
54709.39421105076
 44
-11153.22861404969
 45
0.000000000001233
 46
-24.00104211463285
 79
     2
 49
2.665043988820486
 49
-99.16273922813616
 53
225.0000000000089
 43
54709.39421105076
 44
-11168.11145627544
 45
0.0000000000037271
 46
-24.00104211463285
 79
     2
 49
2.665043988820486
 49
-99.16273922813616
 53
135.000000000003
 43
54644.2168608286
 44
-11157.9954075483
 45
0.000000000001233
 46
-24.00104211463285
 79
     2
 49
2.665043988820486
 49
-99.16273922813616
 53
44.99999999999704
 43
54642.33239745678
 44
-11141.22809186518
 45
0.0000000000012432
 46
24.00104211463285
 79
     2
 49
2.665043988820486
 49
-99.16273922813616
 53
146.309932708744
 43
54707.50974553308
 44
-11151.34414123609
 45
0.0000027170048561
 46
-24.00103928561895
 79
     2
 49
2.795369793113736
 49
-83.74160029051495
 53
213.6900634765706
 43
54707.50974553308
 44
-11169.99592908905
 45
-0.0000043149657421
 46
-24.00103928561872
 79
     2
 49
2.795369793113736
 49
-83.74160029051495
 53
146.309932708744
 43
54646.54275335748
 44
-11159.5460017092
 45
0.0000027170048561
 46
-24.00103928561895
 79
     2
 49
2.795369793113736
 49
-83.74160029051495
 53
33.69006729125606
 43
54644.2168608286
 44
-11139.34361990992
 45
0.0000027170048523
 46
24.00103928561895
 79
     2
 49
2.795369793113736
 49
-83.74160029051495
 53
161.5650482177782
 43
54705.1838577251
 44
-11149.79354707518
 45
0.0000012032474937
 46
-24.00104098939517
 79
     2
 49
3.554505757974589
 49
-72.34344418975297
 53
198.4349517822336
 43
54705.1838577251
 44
-11171.54652324995
 45
-0.0000012032425349
 46
-24.00104098939517
 79
     2
 49
3.554505757974589
 49
-72.34344418975297
 53
161.5650482177782
 43
54649.91485049878
 44
-11160.67003516257
 45
0.0000012032474937
 46
-24.00104098939517
 79
     2
 49
3.554505757974589
 49
-72.34344418975297
 53
18.43495178222185
 43
54646.54275335748
 44
-11137.79303347411
 45
0.0000012032474924
 46
24.00104098939517
 79
     2
 49
3.554505757974589
 49
-72.34344418975297
 53
173.6598052978571
 43
54699.86434669152
 44
-11172.67054962198
 45
144.0062357151635
 46
-24.0010448686541
 79
     2
 49
2.590088883630877
 49
-214.7485520557075
 53
186.3401947021548
 43
54699.86434669152
 44
-11148.66952070316
 45
-144.0062357151585
 46
-24.00104486868387
 79
     2
 49
2.590088883630876
 49
-214.7485520557074
 53
353.659820556658
 43
54651.86226825361
 44
-11160.67003516257
 45
-144.0062421070282
 46
24.00100651744314
 79
     2
 49
2.590088883630877
 49
-214.7485520557075
 53
6.340194702142933
 43
54651.86226825361
 44
-11160.67003516257
 45
144.0062357151635
 46
24.00104486865408
 79
     2
 49
2.590088883630877
 49
-214.7485520557075
 98
        0
1001
ACAD
1010
54711.86486115093
1020
-11160.67003516257
1030
0.0
  0
LWPOLYLINE
  5
2F3
330
1F
100
AcDbEntity
  8
Ech.1_5
  6
Continuous
 62
   190
370
    15
390
5F
100
AcDbPolyline
 90
        5
 70
     0
 43
0.0
 10
54711.86486115092
 20
-11160.67003516257
 10
54711.86486115092
 20
-10940.66936534094
 10
54783.86797563664
 20
-10940.66936534094
 10
54783.86797563664
 20
-11160.67003516257
 10
54711.86486115092
 20
-11160.67003516257
  0
HATCH
  5
2F4
330
1F
100
AcDbEntity
  8
Ech.1_5
  6
Continuous
 62
   254
420
 16643007
440
 33554687
370
     5
390
5F
100
AcDbHatch
 10
0.0
 20
0.0
 30
0.0
210
0.0
220
0.0
230
1.0
  2
SOLID
 70
     1
 71
     0
 91
        1
 92
        3
 72
     0
 73
     1
 93
        8
 10
54965.87109012237
 20
-11160.67003516257
 10
55254.14831082394
 20
-11160.67003516257
 10
55254.14831082394
 20
-11091.63945181421
 10
55236.16995921951
 20
-11075.15309773278
 10
55272.12565923132
 20
-11089.26303775059
 10
55254.14831082394
 20
-11072.77753459462
 10
55254.14821429369
 20
-11060.67003516257
 10
54965.87109012236
 20
-11060.67003516257
 97
        0
 75
     0
 76
     1
 98
        0
  0
HATCH
  5
2F5
330
1F
100
AcDbEntity
  8
Ech.1_5
  6
Continuous
 62
   190
440
 33554687
370
    15
390
5F
100
AcDbHatch
 10
0.0
 20
0.0
 30
0.0
210
0.0
220
0.0
230
1.0
  2
CwHatchPattern_201
 70
     0
 71
     0
 91
        1
 92
        3
 72
     0
 73
     1
 93
        8
 10
54965.87109012237
 20
-11160.67003516257
 10
55254.14831082394
 20
-11160.67003516257
 10
55254.14831082394
 20
-11091.63945181421
 10
55236.16995921951
 20
-11075.15309773278
 10
55272.12565923132
 20
-11089.26303775059
 10
55254.14831082394
 20
-11072.77753459462
 10
55254.14821429369
 20
-11060.67003516257
 10
54965.87109012236
 20
-11060.67003516257
 97
        0
 75
     0
 76
     2
 52
0.0
 41
2.0
 77
     0
 78
    29
 53
0.0
 43
54963.63912014
 44
-11160.67003516257
 45
0.0
 46
100.0
 79
     2
 49
4.463939964771271
 49
-12.20273017883301
 53
90.00000000000594
 43
54949.20442981354
 44
-11146.70799521506
 45
-33.33333015441895
 46
-0.0000000000034471
 79
     2
 49
2.704629898071289
 49
-97.29537010192871
 53
90.00000000000594
 43
54965.87109012238
 44
-11077.33670500815
 45
-33.33333015441895
 46
-0.0000000000034471
 79
     2
 49
2.704629898071289
 49
-97.29537010192871
 53
104.9324645996163
 43
54982.14051050774
 44
-11140.42818574011
 45
-33.33515852016907
 46
99.99952050724798
 79
     2
 49
61.5963888168335
 49
-455.8760833740234
 53
75.06753540039557
 43
54982.93499989144
 44
-11140.42818574011
 45
-33.33515852014839
 46
-99.99952050725486
 79
     2
 49
61.5963888168335
 49
-455.8760833740234
 53
15.25511932373147
 43
54968.10306010477
 44
-11160.67003516257
 45
-33.33332910801413
 46
0.000000893548286
 79
     2
 49
4.530409872531891
 49
-375.5280685424805
 53
164.7448883056749
 43
54963.63912014
 44
-11160.67003516257
 45
-33.33332910801371
 46
-0.0000053321564355
 79
     2
 49
4.530409872531891
 49
-375.5280685424805
 53
15.25511932373147
 43
54975.93501014344
 44
-11061.86206130087
 45
-33.33332910801413
 46
0.000000893548286
 79
     2
 49
4.530409872531891
 49
-375.5280685424805
 53
344.7448806762685
 43
54984.76972026459
 44
-11060.67003516257
 45
33.33332910801413
 46
0.000000893548286
 79
     2
 49
4.530409872531891
 49
-375.5280685424805
 53
30.96375656128134
 43
54972.47383041016
 44
-11159.47800514996
 45
-33.33333591427053
 46
-0.0000002214346662
 79
     2
 49
4.352369904518127
 49
-190.0126838684082
 53
149.0362396240333
 43
54959.24369020096
 44
-11159.47800514996
 45
-33.33333591427045
 46
0.0000024407288475
 79
     2
 49
4.352369904518127
 49
-190.0126838684082
 53
30.96375656128134
 43
54972.20289034478
 44
-11064.10134581625
 45
-33.33333591427053
 46
-0.0000002214346662
 79
     2
 49
4.352369904518127
 49
-190.0126838684082
 53
329.0362434387187
 43
54989.14050025574
 44
-11061.86206130087
 45
33.33333591427053
 46
-0.0000002214346662
 79
     2
 49
4.352369904518127
 49
-190.0126838684082
 53
45.00000000000297
 43
54976.20595020882
 44
-11157.23872510493
 45
-33.33333894439541
 46
-0.0000000000017266
 79
     2
 49
3.701289892196655
 49
-137.7200698852539
 53
135.0000000000089
 43
54955.53623003594
 44
-11157.23872510493
 45
-33.33333894439541
 46
-0.0000000000051799
 79
     2
 49
3.701289892196655
 49
-137.7200698852539
 53
45.00000000000297
 43
54969.58569002978
 44
-11066.718542853
 45
-33.33333894439541
 46
-0.0000000000017266
 79
     2
 49
3.701289892196655
 49
-137.7200698852539
 53
314.999999999997
 43
54992.8726212465
 44
-11064.10134581625
 45
33.33333894439541
 46
-0.0000000000017266
 79
     2
 49
3.701289892196655
 49
-137.7200698852539
 53
56.30993270874394
 43
54978.82316035859
 44
-11154.62152508795
 45
-33.33333501537939
 46
-0.0000037734546368
 79
     2
 49
3.882290124893188
 49
-116.3027477264404
 53
123.6900634765706
 43
54952.91901988618
 44
-11154.62152508795
 45
-33.33333501537906
 46
0.0000059927487648
 79
     2
 49
3.882290124893188
 49
-116.3027477264404
 53
56.30993270874394
 43
54967.43218017451
 44
-11069.94880942404
 45
-33.33333501537939
 46
-0.0000037734546368
 79
     2
 49
3.882290124893188
 49
-116.3027477264404
 53
303.6900672912561
 43
54995.48983020417
 44
-11066.718542853
 45
33.33333501537939
 46
-0.0000037734546368
 79
     2
 49
3.882290124893188
 49
-116.3027477264404
 53
71.56504821777816
 43
54980.97667021386
 44
-11151.39126507342
 45
-33.3333373816329
 46
-0.0000016711047905
 79
     2
 49
4.936600029468536
 49
-100.4726600646973
 53
108.4349517822337
 43
54950.76551003091
 44
-11151.39126507342
 45
-33.3333373816329
 46
0.0000016710979054
 79
     2
 49
4.936600029468536
 49
-100.4726600646973
 53
71.56504821777816
 43
54965.87109012238
 44
-11074.63207511008
 45
-33.3333373816329
 46
-0.0000016711047905
 79
     2
 49
4.936600029468536
 49
-100.4726600646973
 53
288.4349517822218
 43
54997.6433293306
 44
-11069.94880942404
 45
33.3333373816329
 46
-0.0000016711047905
 79
     2
 49
4.936600029468536
 49
-100.4726600646973
 53
83.65980529785706
 43
54949.20442981354
 44
-11144.00337485373
 45
-33.33334276925949
 46
-200.0000100942898
 79
     2
 49
3.597190082073212
 49
-298.2489776611328
 53
96.34019470215476
 43
54982.53775043122
 44
-11144.00337485373
 45
-33.33334276930081
 46
200.000010094283
 79
     2
 49
3.597190082073212
 49
-298.2489776611328
 53
263.659820556658
 43
54965.87109012238
 44
-11077.33670500815
 45
33.3332895059925
 46
200.0000189714958
 79
     2
 49
3.597190082073212
 49
-298.2489776611328
 53
276.3401947021429
 43
54965.87109012238
 44
-11077.33670500815
 45
33.33334276925949
 46
-200.0000100942898
 79
     2
 49
3.597190082073212
 49
-298.2489776611328
 98
        0
1001
ACAD
1010
54965.87109012238
1020
-11160.67003516257
1030
0.0
  0
LWPOLYLINE
  5
2F6
330
1F
100
AcDbEntity
  8
Ech.1_5
  6
Continuous
 62
   190
370
    15
390
5F
100
AcDbPolyline
 90
        9
 70
     0
 43
0.0
 10
54965.87109012237
 20
-11160.67003516257
 10
55254.14831082394
 20
-11160.67003516257
 10
55254.14831082394
 20
-11091.63945181421
 10
55236.16995921951
 20
-11075.15309773278
 10
55272.12565923132
 20
-11089.26303775059
 10
55254.14831082394
 20
-11072.77753459462
 10
55254.14821429369
 20
-11060.67003516257
 10
54965.87109012236
 20
-11060.67003516257
 10
54965.87109012237
 20
-11160.67003516257
  0
HATCH
  5
2F7
330
1F
100
AcDbEntity
  8
Ech.1_5
  6
Continuous
 62
   254
420
 16643007
440
 33554687
370
     5
390
5F
100
AcDbHatch
 10
0.0
 20
0.0
 30
0.0
210
0.0
220
0.0
230
1.0
  2
SOLID
 70
     1
 71
     0
 91
        1
 92
        3
 72
     0
 73
     1
 93
        9
 10
54451.34208561402
 20
-11160.67032630681
 10
54666.86486115031
 20
-11160.67003516257
 10
54666.86486115032
 20
-11060.67003516257
 10
54451.34198908378
 20
-11060.67003516257
 10
54451.34208561402
 20
-11072.77753459462
 10
54469.3194340214
 20
-11089.26303775059
 10
54439.10785439896
 20
-11077.40723808111
 10
54437.46486303137
 20
-11078.91387995989
 10
54451.34208561402
 20
-11091.63945181421
 97
        0
 75
     0
 76
     1
 98
        0
  0
HATCH
  5
2F8
330
1F
100
AcDbEntity
  8
Ech.1_5
  6
Continuous
 62
   190
440
 33554687
370
    15
390
5F
100
AcDbHatch
 10
0.0
 20
0.0
 30
0.0
210
0.0
220
0.0
230
1.0
  2
CwHatchPattern_201
 70
     0
 71
     0
 91
        1
 92
        3
 72
     0
 73
     1
 93
        9
 10
54451.34208561402
 20
-11160.67032630681
 10
54666.86486115031
 20
-11160.67003516257
 10
54666.86486115032
 20
-11060.67003516257
 10
54451.34198908378
 20
-11060.67003516257
 10
54451.34208561402
 20
-11072.77753459462
 10
54469.3194340214
 20
-11089.26303775059
 10
54439.10785439896
 20
-11077.40723808111
 10
54437.46486303137
 20
-11078.91387995989
 10
54451.34208561402
 20
-11091.63945181421
 97
        0
 75
     0
 76
     2
 52
0.0000773994135333
 41
2.0
 77
     0
 78
    29
 53
0.0000773994135333
 43
54449.11011563164
 44
-11160.67032932192
 45
-0.0001350874605268
 46
99.99999999990877
 79
     2
 49
4.463939964771271
 49
-12.20273017883301
 53
90.00007739941945
 43
54434.67540644424
 44
-11146.70830887388
 45
-33.33333015438853
 46
-0.0000450291526623
 79
     2
 49
2.704629898071289
 49
-97.29537010192871
 53
90.00007739941945
 43
54451.34197304114
 44
-11077.33699615247
 45
-33.33333015438853
 46
-0.0000450291526623
 79
     2
 49
2.704629898071289
 49
-97.29537010192871
 53
104.9325419990298
 43
54467.61147865517
 44
-11140.42845490643
 45
-33.33529360695145
 46
99.99947547553761
 79
     2
 49
61.5963888168335
 49
-455.8760833740234
 53
75.06761279980911
 43
54468.40596803887
 44
-11140.42845383317
 45
-33.33502343330518
 46
-99.99956553878272
 79
     2
 49
61.59638881683349
 49
-455.8760833740234
 53
15.25519672314501
 43
54453.57405559641
 44
-11160.6703232917
 45
-33.33332910798492
 46
-0.0000441355995164
 79
     2
 49
4.53040987253189
 49
-375.5280685424804
 53
164.7449657050884
 43
54449.11011563164
 44
-11160.67032932192
 45
-33.33332910797609
 46
-0.0000503613042291
 79
     2
 49
4.530409872531891
 49
-375.5280685424805
 53
15.25519672314501
 43
54461.40587215788
 44
-11061.86233885011
 45
-33.33332910798492
 46
-0.0000441355995164
 79
     2
 49
4.53040987253189
 49
-375.5280685424804
 53
344.7449580756821
 43
54470.24058066875
 44
-11060.67030077722
 45
33.33332910798251
 46
0.0000459226960885
 79
     2
 49
4.530409872531891
 49
-375.5280685424805
 53
30.96383396069487
 43
54457.94482429152
 44
-11159.47828737473
 45
-33.33333591423983
 46
-0.0000452505916613
 79
     2
 49
4.352369904518127
 49
-190.0126838684082
 53
149.0363170234468
 43
54444.71468408233
 44
-11159.47830524699
 45
-33.33333591424334
 46
-0.0000425884281388
 79
     2
 49
4.352369904518127
 49
-190.0126838684082
 53
30.96383396069487
 43
54457.67375538422
 44
-11064.10162840712
 45
-33.33333591423983
 46
-0.0000452505916613
 79
     2
 49
4.352369904518127
 49
-190.0126838684082
 53
329.0363208381322
 43
54474.61136227018
 44
-11061.86232101115
 45
33.33333591424042
 46
0.0000448077223307
 79
     2
 49
4.352369904518127
 49
-190.0126838684082
 53
45.0000773994165
 43
54461.67694106518
 44
-11157.23900228808
 45
-33.333338944365
 46
-0.0000450291628127
 79
     2
 49
3.701289892196655
 49
-137.7200698852539
 53
135.0000773994224
 43
54441.00722089232
 44
-11157.23903021028
 45
-33.333338944365
 46
-0.0000450291662624
 79
     2
 49
3.701289892196655
 49
-137.7200698852539
 53
45.0000773994165
 43
54455.05655860473
 44
-11066.71882897937
 45
-33.333338944365
 46
-0.0000450291628127
 79
     2
 49
3.701289892196655
 49
-137.7200698852539
 53
315.0000773994105
 43
54478.34348628592
 44
-11064.1016004849
 45
33.333338944365
 46
0.0000450291593665
 79
     2
 49
3.701289892196655
 49
-137.7200698852539
 53
56.31001010815748
 43
54464.29414767944
 44
-11154.62179873558
 45
-33.33333501534388
 46
-0.0000488026104151
 79
     2
 49
3.882290124893188
 49
-116.3027477264404
 53
123.6901408759842
 43
54438.39000720705
 44
-11154.62183372882
 45
-33.33333501535675
 46
-0.0000390364070082
 79
     2
 49
3.882290124893188
 49
-116.3027477264404
 53
56.31001010815748
 43
54452.90305311315
 44
-11069.94909845953
 45
-33.33333501534388
 46
-0.0000488026104151
 79
     2
 49
3.882290124893188
 49
-116.3027477264404
 53
303.6901446906696
 43
54480.9606987791
 44
-11066.71879398612
 45
33.33333501535407
 46
0.0000412557011451
 79
     2
 49
3.882290124893188
 49
-116.3027477264404
 53
71.5651256171917
 43
54466.44765317103
 44
-11151.39153581193
 45
-33.33333738160023
 46
-0.0000467002637698
 79
     2
 49
4.936600029468536
 49
-100.4726600646973
 53
108.4350291816472
 43
54436.23649298811
 44
-11151.39157662341
 45
-33.33333738160474
 46
-0.0000433580610739
 79
     2
 49
4.936600029468535
 49
-100.4726600646973
 53
71.5651256171917
 43
54451.34196938753
 44
-11074.6323662544
 45
-33.33333738160023
 46
-0.0000467002637698
 79
     2
 49
4.936600029468536
 49
-100.4726600646973
 53
288.4350291816354
 43
54483.11420226921
 44
-11069.94905764806
 45
33.33333738160474
 46
0.000043358054187
 79
     2
 49
4.936600029468536
 49
-100.4726600646973
 53
83.6598826972706
 43
54434.67540279063
 44
-11144.00368851256
 45
-33.33307259429438
 46
-200.0000551232736
 79
     2
 49
3.597190082073212
 49
-298.2489776611328
 53
96.3402721015683
 43
54468.00872340827
 44
-11144.00364348342
 45
-33.33361294420509
 46
199.9999650649342
 79
     2
 49
3.597190082073212
 49
-298.2489776611328
 53
263.6598979560715
 43
54451.34197304114
 44
-11077.33699615247
 45
33.33301933101545
 46
200.0000640004076
 79
     2
 49
3.597190082073212
 49
-298.2489776611328
 53
276.3402721015565
 43
54451.34197304114
 44
-11077.33699615247
 45
33.33361294416377
 46
-199.9999650649411
 79
     2
 49
3.597190082073212
 49
-298.2489776611328
 98
        0
1001
ACAD
1010
54451.34208561402
1020
-11160.67032630681
1030
0.0
  0
LWPOLYLINE
  5
2F9
330
1F
100
AcDbEntity
  8
Ech.1_5
  6
Continuous
 62
   190
370
    15
390
5F
100
AcDbPolyline
 90
       10
 70
     0
 43
0.0
 10
54451.34208561402
 20
-11160.67032630681
 10
54666.86486115031
 20
-11160.67003516257
 10
54666.86486115032
 20
-11060.67003516257
 10
54451.34198908378
 20
-11060.67003516257
 10
54451.34208561402
 20
-11072.77753459462
 10
54469.3194340214
 20
-11089.26303775059
 10
54439.10785439896
 20
-11077.40723808111
 10
54437.46486303137
 20
-11078.91387995989
 10
54451.34208561402
 20
-11091.63945181421
 10
54451.34208561402
 20
-11160.67032630681
  0
HATCH
  5
2FA
330
1F
100
AcDbEntity
  8
Ech.1_5
  6
Continuous
 62
   254
420
 16643007
440
 33554687
370
     5
390
5F
100
AcDbHatch
 10
0.0
 20
0.0
 30
0.0
210
0.0
220
0.0
230
1.0
  2
SOLID
 70
     1
 71
     0
 91
        1
 92
        3
 72
     0
 73
     1
 93
        3
 10
54437.46486303137
 20
-11076.76248607687
 10
54433.3637340096
 20
-11075.15309773278
 10
54435.82187166379
 20
-11077.40723808111
 97
        0
 75
     0
 76
     1
 98
        0
  0
HATCH
  5
2FB
330
1F
100
AcDbEntity
  8
Ech.1_5
  6
Continuous
 62
   190
440
 33554687
370
    15
390
5F
100
AcDbHatch
 10
0.0
 20
0.0
 30
0.0
210
0.0
220
0.0
230
1.0
  2
CwHatchPattern_201
 70
     0
 71
     0
 91
        1
 92
        3
 72
     0
 73
     1
 93
        3
 10
54437.46486303137
 20
-11076.76248607687
 10
54433.3637340096
 20
-11075.15309773278
 10
54435.82187166379
 20
-11077.40723808111
 97
        0
 75
     0
 76
     2
 52
158.5736825917018
 41
2.0
 77
     0
 78
    29
 53
158.5736825917018
 43
54439.54257737323
 44
-11077.57783453979
 45
-36.53044034404471
 46
-93.08881204672336
 79
     2
 49
4.46393996477127
 49
-12.20273017883301
 53
248.5736825917077
 43
54447.87926444691
 44
-11095.84798760297
 45
31.02960105636207
 46
-12.17681228674029
 79
     2
 49
2.704629898071289
 49
-97.29537010192871
 53
248.5736825917077
 43
54407.02283057262
 44
-11154.3364931566
 45
31.02960105636207
 46
-12.17681228674029
 79
     2
 49
2.704629898071289
 49
-97.29537010192871
 53
263.5061471913181
 43
54414.92541613996
 44
-11089.66209233233
 45
-5.498962122913475
 46
-105.2658458894198
 79
     2
 49
61.59638881683349
 49
-455.8760833740234
 53
233.6412179920973
 43
54414.18583541084
 44
-11089.37186186198
 45
67.56156824353174
 46
80.91088549582751
 79
     2
 49
61.5963888168335
 49
-455.8760833740234
 53
173.8288019154332
 43
54435.38714868954
 44
-11075.94713761396
 45
31.02959975585788
 46
-12.17681273628068
 79
     2
 49
4.530409872531891
 49
-375.5280685424805
 53
323.3185708973767
 43
54439.54257737323
 44
-11077.57783453979
 45
31.02960203013485
 46
-12.17680694084595
 79
     2
 49
4.530409872531891
 49
-375.5280685424805
 53
173.8288019154332
 43
54392.00149149174
 44
-11165.0652608526
 45
31.02959975585788
 46
-12.17681273628068
 79
     2
 49
4.530409872531891
 49
-375.5280685424805
 53
143.3185632679703
 43
54383.34191239485
 44
-11162.94754531366
 45
-31.02960040869213
 46
12.1768110726937
 79
     2
 49
4.530409872531891
 49
-375.5280685424805
 53
189.5374391529831
 43
54430.88299672232
 44
-11075.46012255295
 45
31.0296064990293
 46
-12.17681418471173
 79
     2
 49
4.352369904518127
 49
-190.0126838684082
 53
307.609922215735
 43
54443.19877707517
 44
-11080.29315102951
 45
31.02960552652917
 46
-12.17681666288807
 79
     2
 49
4.352369904518127
 49
-190.0126838684082
 53
189.5374391529831
 43
54396.2936979705
 44
-11164.3440972955
 45
31.0296064990293
 46
-12.17681418471173
 79
     2
 49
4.352369904518127
 49
-190.0126838684082
 53
127.6099260304204
 43
54379.70865762125
 44
-11160.24123716498
 45
-31.02960633724718
 46
12.17681459697353
 79
     2
 49
4.352369904518127
 49
-190.0126838684082
 53
203.5736825917047
 43
54426.5907918766
 44
-11076.18128194865
 45
31.02960923884612
 46
-12.17681549775899
 79
     2
 49
3.701289892196655
 49
-137.7200698852539
 53
293.5736825917107
 43
54445.83198883892
 44
-11083.73202174569
 45
31.02960923884739
 46
-12.17681549775577
 79
     2
 49
3.701289892196655
 49
-137.7200698852539
 53
203.5736825917047
 43
54399.68609225481
 44
-11162.86385446483
 45
31.02960923884612
 46
-12.17681549775899
 79
     2
 49
3.701289892196655
 49
-137.7200698852539
 53
113.5736825916988
 43
54377.05249102083
 44
-11156.79335357918
 45
-31.02960923884486
 46
12.17681549776219
 79
     2
 49
3.701289892196655
 49
-137.7200698852539
 53
214.8836153004457
 43
54423.19838734853
 44
-11077.66152396091
 45
31.02960695983075
 46
-12.17681054980964
 79
     2
 49
3.882290124893188
 49
-116.3027477264404
 53
282.2637460682724
 43
54447.31224398522
 44
-11087.12442054282
 45
31.02960339219333
 46
-12.17681964105227
 79
     2
 49
3.882290124893188
 49
-116.3027477264404
 53
214.8836153004457
 43
54402.87079959908
 44
-11160.64352432089
 45
31.02960695983075
 46
-12.17681054980964
 79
     2
 49
3.882290124893188
 49
-116.3027477264404
 53
102.2637498829578
 43
54375.57223589555
 44
-11153.40095799179
 45
-31.02960420291156
 46
12.17681757513783
 79
     2
 49
3.882290124893188
 49
-116.3027477264404
 53
230.1387308094799
 43
54420.01368239938
 44
-11079.88184800147
 45
31.02960839455037
 46
-12.17681337126496
 79
     2
 49
4.936600029468536
 49
-100.4726600646973
 53
267.0086343739354
 43
54448.13689251923
 44
-11090.91811784935
 45
31.02960717362901
 46
-12.17681648248175
 79
     2
 49
4.936600029468535
 49
-100.4726600646973
 53
230.1387308094799
 43
54406.03481736117
 44
-11156.85420099897
 45
31.02960839455037
 46
-12.17681337126496
 79
     2
 49
4.936600029468536
 49
-100.4726600646973
 53
87.0086343739236
 43
54374.74759974401
 44
-11149.60725850117
 45
-31.02960717362649
 46
12.17681648248816
 79
     2
 49
4.936600029468535
 49
-100.4726600646973
 53
242.2334878895588
 43
54446.89125471927
 44
-11098.3656865677
 45
104.090497174944
 46
174.000816595101
 79
     2
 49
3.597190082073211
 49
-298.2489776611328
 53
254.9138772938566
 43
54415.86166254056
 44
-11086.18887776477
 45
-42.03127157617091
 46
-198.3544503851102
 79
     2
 49
3.597190082073212
 49
-298.2489776611328
 53
62.23350314835972
 43
54407.02283057262
 44
-11154.3364931566
 45
-104.0904508356839
 46
-174.0008443160925
 79
     2
 49
3.597190082073211
 49
-298.2489776611328
 53
74.91387729384469
 43
54407.02283057262
 44
-11154.3364931566
 45
42.03127157621194
 46
198.3544503851015
 79
     2
 49
3.597190082073211
 49
-298.2489776611328
 98
        0
1001
ACAD
1010
54437.46486303138
1020
-11076.76248607688
1030
0.0
  0
LWPOLYLINE
  5
2FC
330
1F
100
AcDbEntity
  8
Ech.1_5
  6
Continuous
 62
   190
370
    15
390
5F
100
AcDbPolyline
 90
        4
 70
     0
 43
0.0
 10
54437.46486303137
 20
-11076.76248607687
 10
54433.3637340096
 20
-11075.15309773278
 10
54435.82187166379
 20
-11077.40723808111
 10
54437.46486303137
 20
-11076.76248607687
  0
HATCH
  5
2FD
330
1F
100
AcDbEntity
  8
Ech.1_5
  6
Continuous
 62
    33
420
 12426362
440
 33554687
370
     5
390
5F
100
AcDbHatch
 10
0.0
 20
0.0
 30
0.0
210
0.0
220
0.0
230
1.0
  2
SOLID
 70
     1
 71
     0
 91
        1
 92
        3
 72
     0
 73
     1
 93
        4
 10
54965.87109012236
 20
-10940.67003516257
 10
55010.87109012236
 20
-10940.67003516257
 10
55010.87109012236
 20
-11160.67003516257
 10
54965.87109012236
 20
-11160.67003516257
 97
        0
 75
     0
 76
     1
 98
        0
  0
LINE
  5
2FE
330
1F
100
AcDbEntity
  8
Ech.1_5
  6
Continuous
 62
   190
370
    15
390
5F
100
AcDbLine
 10
55010.87109012236
 20
-10940.67003516257
 30
0.0
 11
54965.87109012236
 21
-11160.67003516257
 31
0.0
  0
LINE
  5
2FF
330
1F
100
AcDbEntity
  8
Ech.1_5
  6
Continuous
 62
   190
370
    15
390
5F
100
AcDbLine
 10
55010.87109012236
 20
-11160.67003516257
 30
0.0
 11
54965.87109012236
 21
-10940.67003516257
 31
0.0
  0
3DFACE
  5
300
330
1F
100
AcDbEntity
  8
Ech.1_5
  6
Continuous
 62
     5
370
    35
390
5F
100
AcDbFace
 10
54965.87109012236
 20
-10940.67003516257
 30
2500.0
 11
55010.87109012236
 21
-10940.67003516257
 31
2500.0
 12
55010.87109012236
 22
-11160.67003516257
 32
2500.0
 13
54965.87109012236
 23
-11160.67003516257
 33
2500.0
  0
POLYLINE
  5
301
330
1F
100
AcDbEntity
  8
Ech.1_5
  6
CADWORK_22
 62
     1
 48
0.6
370
    35
390
5F
100
AcDb3dPolyline
 66
     1
 10
0.0
 20
0.0
 30
0.0
 70
     8
  0
VERTEX
  5
302
330
301
100
AcDbEntity
  8
Ech.1_5
  6
CADWORK_22
 62
     1
 48
0.6
370
    35
100
AcDbVertex
100
AcDb3dPolylineVertex
 10
54723.36797563664
 20
-11382.27925392616
 30
0.0
 70
    32
  0
VERTEX
  5
303
330
301
100
AcDbEntity
  8
Ech.1_5
  6
CADWORK_22
 62
     1
 48
0.6
370
    35
100
AcDbVertex
100
AcDb3dPolylineVertex
 10
54723.36797563664
 20
-11165.6603717423
 30
2500.0
 70
    32
  0
VERTEX
  5
304
330
301
100
AcDbEntity
  8
Ech.1_5
  6
CADWORK_22
 62
     1
 48
0.6
370
    35
100
AcDbVertex
100
AcDb3dPolylineVertex
 10
54784.11901479693
 20
-11165.6603717423
 30
2500.0
 70
    32
  0
SEQEND
  5
305
330
301
100
AcDbEntity
  8
Ech.1_5
  6
CADWORK_22
 62
     1
 48
0.6
370
    35
390
5F
  0
POLYLINE
  5
306
330
1F
100
AcDbEntity
  8
Ech.1_5
  6
CADWORK_22
 62
     1
 48
0.6
370
    35
390
5F
100
AcDb3dPolyline
 66
     1
 10
0.0
 20
0.0
 30
0.0
 70
     8
  0
VERTEX
  5
307
330
306
100
AcDbEntity
  8
Ech.1_5
  6
CADWORK_22
 62
     1
 48
0.6
370
    35
100
AcDbVertex
100
AcDb3dPolylineVertex
 10
54954.36797563603
 20
-11382.27925392616
 30
0.0
 70
    32
  0
VERTEX
  5
308
330
306
100
AcDbEntity
  8
Ech.1_5
  6
CADWORK_22
 62
     1
 48
0.6
370
    35
100
AcDbVertex
100
AcDb3dPolylineVertex
 10
54954.36797563603
 20
-11165.6603717423
 30
2500.0
 70
    32
  0
VERTEX
  5
309
330
306
100
AcDbEntity
  8
Ech.1_5
  6
CADWORK_22
 62
     1
 48
0.6
370
    35
100
AcDbVertex
100
AcDb3dPolylineVertex
 10
54893.92671708398
 20
-11165.6603717423
 30
2500.0
 70
    32
  0
SEQEND
  5
30A
330
306
100
AcDbEntity
  8
Ech.1_5
  6
CADWORK_22
 62
     1
 48
0.6
370
    35
390
5F
  0
CIRCLE
  5
30B
330
1F
100
AcDbEntity
  8
Ech.1_5
 62
     7
370
    20
390
5F
100
AcDbCircle
 10
54659.81677706921
 20
-11229.73091206535
 30
0.0
 40
2.518023729790002
  0
ARC
  5
30C
330
1F
100
AcDbEntity
  8
Ech.1_5
 62
     7
370
    20
390
5F
100
AcDbCircle
 10
54678.31677706917
 20
-11293.67008250547
 30
0.0
 40
4.999999999954489
100
AcDbArc
 50
179.9999999994789
 51
270.0000000005002
  0
LINE
  5
30D
330
1F
100
AcDbEntity
  8
Ech.1_5
 62
     7
370
    20
390
5F
100
AcDbLine
 10
54678.5468793769
 20
-11297.98791241004
 30
0.0
 11
54678.5468793769
 21
-11295.98791241004
 31
0.0
  0
LINE
  5
30E
330
1F
100
AcDbEntity
  8
Ech.1_5
 62
     7
370
    20
390
5F
100
AcDbLine
 10
54682.31677706921
 20
-11298.67008250543
 30
0.0
 11
54678.31677706921
 21
-11298.67008250554
 31
0.0
  0
ARC
  5
30F
330
1F
100
AcDbEntity
  8
Ech.1_5
 62
     7
370
    20
390
5F
100
AcDbCircle
 10
54668.55049777169
 20
-11293.16558809782
 30
0.0
 40
14.82598746733064
100
AcDbArc
 50
301.8648416479616
 51
338.2058289194573
  0
ARC
  5
310
330
1F
100
AcDbEntity
  8
Ech.1_5
 62
     7
370
    20
390
5F
100
AcDbCircle
 10
54670.00599627003
 20
-11306.64037978616
 30
0.0
 40
12.47697948280778
100
AcDbArc
 50
285.3878189636962
 51
350.637756044207
  0
LINE
  5
311
330
1F
100
AcDbEntity
  8
Ech.1_5
 62
     7
370
    20
390
5F
100
AcDbLine
 10
54678.5468793769
 20
-11297.98791241004
 30
0.0
 11
54682.67729331391
 21
-11297.98791241004
 31
0.0
  0
LINE
  5
312
330
1F
100
AcDbEntity
  8
Ech.1_5
 62
     7
370
    20
390
5F
100
AcDbLine
 10
54682.67729331391
 20
-11297.98791241004
 30
0.0
 11
54682.67729331391
 21
-11318.67008250543
 31
0.0
  0
CIRCLE
  5
313
330
1F
100
AcDbEntity
  8
Ech.1_5
 62
     7
370
    20
390
5F
100
AcDbCircle
 10
54659.81677706921
 20
-11259.73091206535
 30
0.0
 40
2.518023729790002
  0
CIRCLE
  5
314
330
1F
100
AcDbEntity
  8
Ech.1_5
 62
     7
370
    20
390
5F
100
AcDbCircle
 10
54659.81677706921
 20
-11289.73091206535
 30
0.0
 40
2.518023729790002
  0
CIRCLE
  5
315
330
1F
100
AcDbEntity
  8
Ech.1_5
 62
     7
370
    20
390
5F
100
AcDbCircle
 10
54659.81677706921
 20
-11244.73091206535
 30
0.0
 40
2.518023729790002
  0
ARC
  5
316
330
1F
100
AcDbEntity
  8
Ech.1_5
 62
     7
370
    20
390
5F
100
AcDbCircle
 10
54651.08305636681
 20
-11293.16558809772
 30
0.0
 40
14.82598746746612
100
AcDbArc
 50
201.7941710807686
 51
238.1351583519634
  0
ARC
  5
317
330
1F
100
AcDbEntity
  8
Ech.1_5
 62
     7
370
    20
390
5F
100
AcDbCircle
 10
54639.45838512519
 20
-11305.52517005542
 30
0.0
 40
3.804859968990687
100
AcDbArc
 50
235.7460992005883
 51
356.5032333922085
  0
ARC
  5
318
330
1F
100
AcDbEntity
  8
Ech.1_5
 62
     7
370
    20
390
5F
100
AcDbCircle
 10
54649.62755786836
 20
-11306.64037978616
 30
0.0
 40
12.47697948279555
100
AcDbArc
 50
189.3622439557792
 51
254.6121810364259
  0
LINE
  5
319
330
1F
100
AcDbEntity
  8
Ech.1_5
 62
     7
370
    20
390
5F
100
AcDbLine
 10
54637.31677706921
 20
-11298.67008250543
 30
0.0
 11
54641.31677706919
 21
-11298.67008250554
 31
0.0
  0
ARC
  5
31A
330
1F
100
AcDbEntity
  8
Ech.1_5
 62
     7
370
    20
390
5F
100
AcDbCircle
 10
54641.31677706925
 20
-11293.67008250547
 30
0.0
 40
4.999999999954489
100
AcDbArc
 50
269.9999999994998
 51
0.0000000005211021
  0
LINE
  5
31B
330
1F
100
AcDbEntity
  8
Ech.1_5
 62
     7
370
    20
390
5F
100
AcDbLine
 10
54641.08667476152
 20
-11297.98791241004
 30
0.0
 11
54641.08667476152
 21
-11295.98791241004
 31
0.0
  0
LINE
  5
31C
330
1F
100
AcDbEntity
  8
Ech.1_5
 62
     7
370
    20
390
5F
100
AcDbLine
 10
54641.08667476152
 20
-11297.98791241004
 30
0.0
 11
54636.95626082449
 21
-11297.98791241004
 31
0.0
  0
LINE
  5
31D
330
1F
100
AcDbEntity
  8
Ech.1_5
 62
     7
370
    20
390
5F
100
AcDbLine
 10
54636.95626082449
 20
-11297.98791241004
 30
0.0
 11
54636.95626082449
 21
-11318.67008250543
 31
0.0
  0
LINE
  5
31E
330
1F
100
AcDbEntity
  8
Ech.1_5
 62
     7
370
    20
390
5F
100
AcDbLine
 10
54641.08667476152
 20
-11295.98791241004
 30
0.0
 11
54634.95626082449
 21
-11295.98791241004
 31
0.0
  0
LINE
  5
31F
330
1F
100
AcDbEntity
  8
Ech.1_5
 62
     7
370
    20
390
5F
100
AcDbLine
 10
54634.95626082449
 20
-11295.98791241004
 30
0.0
 11
54634.95626082449
 21
-11320.67008250543
 31
0.0
  0
CIRCLE
  5
320
330
1F
100
AcDbEntity
  8
Ech.1_5
 62
     7
370
    20
390
5F
100
AcDbCircle
 10
54659.81677706921
 20
-11214.73091206535
 30
0.0
 40
2.518023729790002
  0
LINE
  5
321
330
1F
100
AcDbEntity
  8
Ech.1_5
 62
     7
370
    20
390
5F
100
AcDbLine
 10
54673.31677706921
 20
-11167.98386052645
 30
0.0
 11
54673.31677706921
 21
-11293.67008250543
 31
0.0
  0
CIRCLE
  5
322
330
1F
100
AcDbEntity
  8
Ech.1_5
 62
     7
370
    20
390
5F
100
AcDbCircle
 10
54659.81677706921
 20
-11199.73091206535
 30
0.0
 40
2.518023729790002
  0
LINE
  5
323
330
1F
100
AcDbEntity
  8
Ech.1_5
 62
     7
370
    20
390
5F
100
AcDbLine
 10
54673.31677706921
 20
-11167.98386052645
 30
0.0
 11
54646.31677706921
 21
-11167.98386052645
 31
0.0
  0
CIRCLE
  5
324
330
1F
100
AcDbEntity
  8
Ech.1_5
 62
     7
370
    20
390
5F
100
AcDbCircle
 10
54659.81677706919
 20
-11184.73091206535
 30
0.0
 40
2.518023729790002
  0
LINE
  5
325
330
1F
100
AcDbEntity
  8
Ech.1_5
 62
     7
370
    20
390
5F
100
AcDbLine
 10
54636.95626082449
 20
-11318.67008250543
 30
0.0
 11
54682.67729331391
 21
-11318.67008250543
 31
0.0
  0
ARC
  5
326
330
1F
100
AcDbEntity
  8
Ech.1_5
 62
     7
370
    20
390
5F
100
AcDbCircle
 10
54680.17516901323
 20
-11305.52517005541
 30
0.0
 40
3.804859968996948
100
AcDbArc
 50
183.4967666079555
 51
304.2539007993192
  0
CIRCLE
  5
327
330
1F
100
AcDbEntity
  8
Ech.1_5
 62
     7
370
    20
390
5F
100
AcDbCircle
 10
54659.81677706921
 20
-11274.73091206535
 30
0.0
 40
2.518023729790002
  0
LINE
  5
328
330
1F
100
AcDbEntity
  8
Ech.1_5
 62
     7
370
    20
390
5F
100
AcDbLine
 10
54646.31677706921
 20
-11167.98386052645
 30
0.0
 11
54646.31677706921
 21
-11293.67008250543
 31
0.0
  0
LWPOLYLINE
  5
329
330
1F
100
AcDbEntity
  8
Ech.1_5
  6
Continuous
 62
   190
370
    15
390
5F
100
AcDbPolyline
 90
        3
 70
     0
 43
0.0
 10
54988.28159889096
 20
-11099.50687882613
 10
55061.03697740036
 20
-11420.67644608422
 10
55081.03697740036
 20
-11420.67644608422
  0
INSERT
  5
32A
330
1F
100
AcDbEntity
  8
Ech.1_5
 62
   190
370
    15
100
AcDbBlockReference
  2
cw-line-extremity4
 10
54988.28159889096
 20
-11099.50687882613
 30
0.0
 50
282.7639365070907
  0
MTEXT
  5
32C
330
1F
100
AcDbEntity
  8
Ech.1_5
  6
Continuous
 62
     4
420
    65535
390
5F
100
AcDbMText
 10
54396.46273307792
 20
-10682.2686608743
 30
0.0
 40
13.75
 41
247.6854307039539
 46
0.0
 71
     1
 72
     1
  1
{\fArial|b1|i0;\W1.000000;\H13.750000;\c16711848;COMPLEMENT LEGENDE}
  7
arial-b
 73
     1
 44
1.07999975538982
 90
        3
 63
     9
421
 13158600
 45
1.5
441
 33554687
  0
MTEXT
  5
32E
330
1F
100
AcDbEntity
  8
Ech.1_5
  6
Continuous
 62
     4
420
    65535
390
5F
100
AcDbMText
 10
54441.46273307792
 20
-10709.7686608743
 30
0.0
 40
13.75
 41
193.8487666624569
 46
0.0
 71
     1
 72
     1
  1
{\fArial|b0|i0;\W1.000000;\H13.750000;\c16711848;Bande adhésive}
  7
arial-
 73
     1
 44
1.07999975538982
 90
        3
 63
     9
421
 13158600
 45
1.5
441
 33554687
  0
MTEXT
  5
32F
330
1F
100
AcDbEntity
  8
Ech.1_5
  6
Continuous
 62
     4
420
    65535
390
5F
100
AcDbMText
 10
55109.66975324354
 20
-10766.43851950262
 30
0.0
 40
13.75
 41
181.5509996275796
 46
0.0
 71
     1
 72
     1
  1
{\fArial|b0|i0;\W1.000000;\H13.750000;\c16711848;Bande de pare-vapeur en attente}
  7
arial-
 73
     1
 44
1.07999975538982
  0
MTEXT
  5
330
330
1F
100
AcDbEntity
  8
Ech.1_5
  6
Continuous
 62
     4
420
    65535
390
5F
100
AcDbMText
 10
54980.46759619714
 20
-11851.33120222648
 30
0.0
 40
12.5
 41
488.3428846351962
 46
0.0
 71
     2
 72
     1
  1
{\fArial|b0|i0;\W1.000000;\H12.500000;\c16711848;Vue en coupe verticale}
  7
arial-
 73
     1
 44
1.07999975538982
  0
MTEXT
  5
331
330
1F
100
AcDbEntity
  8
Ech.1_5
  6
Continuous
 62
     4
420
    65535
390
5F
100
AcDbMText
 10
55300.78770621798
 20
-11851.16402573382
 30
0.0
 40
12.5
 41
127.2973354065034
 46
0.0
 71
     2
 72
     1
  1
{\fArial|b0|i0;\W1.000000;\H12.500000;\c16711848;Ech 1/5 }
  7
arial-
 73
     1
 44
1.07999975538982
  0
MTEXT
  5
332
330
1F
100
AcDbEntity
  8
Ech.1_5
  6
Continuous
 62
     4
420
    65535
390
5F
100
AcDbMText
 10
54651.96854488186
 20
-11850.89226943134
 30
0.0
 40
12.5
 41
143.6552179953433
 46
0.0
 71
     2
 72
     1
  1
{\fArial|b0|i0;\W1.000000;\H12.500000;\c16711848;PI02-09 }
  7
arial-
 73
     1
 44
1.07999975538982
  0
MTEXT
  5
334
330
1F
100
AcDbEntity
  8
Ech.1_5
  6
Continuous
 62
   200
420
 11010303
390
5F
100
AcDbMText
 10
54878.18637392123
 20
-11873.91138676818
 30
0.0
 40
8.75
 41
976.25
 46
0.0
 71
     2
 72
     1
  3
{\fArial|b0|i1;\W1.000000;\H8.750000;\c16711848; Il est rappelé à l'utilisateur qui consulte le site et utilise les informations qu'il contient, qu'il doit les utiliser sous sa seule responsabilité en vérifiant leur pertinence, leur cohérence et leur
  1
 non obsolescence.}
  7
arial-i
 73
     1
 44
1.07999975538982
  0
MTEXT
  5
335
330
1F
100
AcDbEntity
  8
Ech.1_5
  6
Continuous
 62
     4
420
    65535
390
5F
100
AcDbMText
 10
54878.18637392123
 20
-11791.60726958393
 30
0.0
 40
16.25
 41
968.75
 46
0.0
 71
     2
 72
     1
  1
{\fArial|b0|i0;\W1.000000;\H16.250000;\c16711848;Plancher sur lisse haute - Jonction avec mur porteur intérieur double ossature }\P{\fArial|b0|i0;\W1.000000;\H16.250000;\c16711848; sans pare-vapeur en plancher}
  7
arial-
 73
     1
 44
1.07999975538982
  0
MTEXT
  5
336
330
1F
100
AcDbEntity
  8
Ech.1_5
  6
Continuous
 62
   200
420
 11010303
390
5F
100
AcDbMText
 10
54565.87545812844
 20
-11544.53743795408
 30
0.0
 40
13.75
 41
251.2257411331302
 46
0.0
 71
     2
 72
     1
  1
{\fArial|b0|i0;\W1.000000;\H13.750000;\c16711848;NOTA: Si absence de mur porteur intérieur à l'étage inférieur les charges doivent être reprises par le plancher lui-même ou tout autre dispositif de renforcement (poteau, poutre, portique,...)}
  7
arial-
 73
     1
 44
1.07999975538982
 90
       19
 63
     9
421
 13158600
 45
1.5
441
 33554687
1001
ACAD
1000
ACAD_MTEXT_TEXT_BORDERS_BEGIN
1070
    80
1070
    19
1070
    46
1040
1.5
1070
    81
1070
     1
1070
     5
1005
33F
1000
ACAD_MTEXT_TEXT_BORDERS_END
  0
MTEXT
  5
337
330
1F
100
AcDbEntity
  8
Ech.1_5
  6
Continuous
 62
   200
420
 11010303
390
5F
100
AcDbMText
 10
54878.18637392123
 20
-11760.2503064257
 30
0.0
 40
16.25
 41
968.75
 46
0.0
 71
     2
 72
     1
  1
{\fArial|b1|i0;\W1.000000;\H16.250000;\c16711848;PLANCHER INTERMEDIAIRE TYPE 2: Plancher en éléments préfabriqués}
  7
arial-b
 73
     1
 44
1.07999975538982
  0
MTEXT
  5
338
330
1F
100
AcDbEntity
  8
Ech.1_5
  6
Continuous
 62
     4
420
    65535
390
5F
100
AcDbMText
 10
55087.91197740036
 20
-11413.5910713062
 30
0.0
 40
13.75
 41
181.5509996275796
 46
0.0
 71
     1
 72
     1
  1
{\fArial|b0|i0;\W1.000000;\H13.750000;\c16711848;Solive nécessaire pour supporter la contre-ossature support de plafond}
  7
arial-
 73
     1
 44
1.07999975538982
  0
MTEXT
  5
339
330
1F
100
AcDbEntity
  8
Ech.1_5
  6
Continuous
 62
   200
420
 11010303
390
5F
100
AcDbMText
 10
54878.18637392123
 20
-11908.70091466167
 30
0.0
 40
11.875
 41
973.125
 46
0.0
 71
     2
 72
     1
  1
{\fArial|b0|i1;\W1.000000;\H11.875000;\c16711848;www.catalogue-bois-construction.fr}
  7
arial-i
 73
     1
 44
1.07999975538982
  0
TEXT
  5
33A
330
1F
100
AcDbEntity
  8
Ech.1_5
  6
Continuous
 62
   190
390
5F
100
AcDbText
 10
55181.28220001846
 20
-10687.58616076198
 30
0.0
 40
8.0
  1
Echelle en mm
  7
arial-
100
AcDbText
  0
TEXT
  5
33B
330
1F
100
AcDbEntity
  8
Ech.1_5
  6
Continuous
 62
   190
390
5F
100
AcDbText
 10
55167.30161526903
 20
-10715.79599629166
 30
0.0
 40
8.0
  1
0
  7
arial-
100
AcDbText
  0
TEXT
  5
33C
330
1F
100
AcDbEntity
  8
Ech.1_5
  6
Continuous
 62
   190
390
5F
100
AcDbText
 10
55253.89867316175
 20
-10715.79599629166
 30
0.0
 40
8.0
  1
100
  7
arial-
100
AcDbText
  0
TEXT
  5
33D
330
1F
100
AcDbEntity
  8
Ech.1_5
  6
Continuous
 62
   190
390
5F
100
AcDbText
 10
55215.15824159587
 20
-10715.79599629166
 30
0.0
 40
8.0
  1
50
  7
arial-
100
AcDbText
  0
TEXT
  5
33E
330
1F
100
AcDbEntity
  8
Ech.1_5
  6
Continuous
 62
   190
390
5F
100
AcDbText
 10
54435.85537793046
 20
-11863.8818988352
 30
0.0
 40
13.5
  1
10/02/2023
  7
arial-
100
AcDbText
  0
LWPOLYLINE
  5
33F
330
1F
100
AcDbEntity
  8
Ech.1_5
  6
Continuous
 62
   200
420
 11010303
390
5F
100
AcDbPolyline
 90
        4
 70
     1
 43
0.0
 10
54433.38758756188
 20
-11537.66243795408
 10
54698.36332869501
 20
-11537.66243795408
 10
54698.36332869501
 20
-11718.90500409819
 10
54433.38758756188
 20
-11718.90500409819
  0
VIEWPORT
  5
225
330
21F
100
AcDbEntity
 67
     1
  8
0
  6
Continuous
390
5F
100
AcDbViewport
 10
98.8
 20
135.8
 30
0.0
 40
209.0608
 41
287.3528000000001
 68
     1
 69
     1
 12
128.5
 22
97.5
 13
0.0
 23
0.0
 14
10.0
 24
10.0
 15
10.0
 25
10.0
 16
0.0
 26
0.0
 36
1.0
 17
0.0
 27
0.0
 37
0.0
 42
50.0
 43
0.0
 44
0.0
 45
222.18
 50
0.0
 51
0.0
 72
   100
 90
   557152
  1

281
     0
 71
     1
 74
     0
110
0.0
120
0.0
130
0.0
111
1.0
121
0.0
131
0.0
112
0.0
122
1.0
132
0.0
 79
     0
146
0.0
170
     0
 61
     5
348
2F
292
     1
282
     1
141
0.0
142
0.0
 63
   256
361
226
  0
VIEWPORT
  5
227
330
21F
100
AcDbEntity
 67
     1
  8
0
  6
Continuous
 60
     1
390
5F
100
AcDbViewport
 10
98.8
 20
135.8
 30
0.0
 40
197.6
 41
271.6
 68
     2
 69
     2
 12
54878.18637392123
 22
-11307.5553414964
 13
0.0
 23
0.0
 14
10.0
 24
10.0
 15
10.0
 25
10.0
 16
0.0
 26
0.0
 36
1.0
 17
0.0
 27
0.0
 37
0.0
 42
50.0
 43
0.0
 44
0.0
 45
1358.0
 50
0.0
 51
0.0
 72
   100
 90
   557152
  1

281
     0
 71
     1
 74
     0
110
0.0
120
0.0
130
0.0
111
1.0
121
0.0
131
0.0
112
0.0
122
1.0
132
0.0
 79
     0
146
0.0
170
     0
 61
     5
348
2F
292
     1
282
     1
141
0.0
142
0.0
 63
   256
  0
ENDSEC
  0
SECTION
  2
OBJECTS
  0
DICTIONARY
  5
C
330
0
100
AcDbDictionary
281
     1
  3
ACAD_DETAILVIEWSTYLE
350
347
  3
ACAD_GROUP
350
D
  3
ACAD_IMAGE_VARS
350
60
  3
ACAD_LAYOUT
350
1A
  3
ACAD_MATERIAL
350
43
  3
ACAD_MLEADERSTYLE
350
5B
  3
ACAD_MLINESTYLE
350
17
  3
ACAD_PLOTSETTINGS
350
19
  3
ACAD_PLOTSTYLENAME
350
E
  3
ACAD_SCALELIST
350
47
  3
ACAD_SECTIONVIEWSTYLE
350
348
  3
ACAD_TABLESTYLE
350
59
  3
ACAD_VISUALSTYLE
350
2A
  3
ACAD_WIPEOUT_VARS
350
61
  3
ACDB_RECOMPOSE_DATA
350
344
  3
AcDbVariableDictionary
350
340
  0
SUN
  5
5D
330
29
100
AcDbSun
 90
        1
290
     0
 63
     7
421
 16777215
 40
1.0
291
     1
 91
  2455826
 92
 54000000
292
     0
 70
     2
 71
   256
280
     1
  0
SUN
  5
226
330
225
100
AcDbSun
 90
        1
290
     0
 63
     7
421
 16777215
 40
1.0
291
     1
 91
  2455826
 92
 54000000
292
     0
 70
     2
 71
   256
280
     1
  0
DICTIONARY
  5
347
102
{ACAD_REACTORS
330
C
102
}
330
C
100
AcDbDictionary
281
     1
  0
DICTIONARY
  5
D
102
{ACAD_REACTORS
330
C
102
}
330
C
100
AcDbDictionary
281
     1
  0
RASTERVARIABLES
  5
60
102
{ACAD_REACTORS
330
C
102
}
330
C
100
AcDbRasterVariables
 90
        0
 70
     0
 71
     1
 72
     1
  0
DICTIONARY
  5
1A
102
{ACAD_REACTORS
330
C
102
}
330
C
100
AcDbDictionary
281
     1
  3
CompleteLayout
350
1E
  3
Model
350
22
  3
PrintFrame_24
350
220
  0
DICTIONARY
  5
43
102
{ACAD_REACTORS
330
C
102
}
330
C
100
AcDbDictionary
281
     1
  3
ByBlock
350
45
  3
ByLayer
350
44
  3
Global
350
46
  0
DICTIONARY
  5
5B
102
{ACAD_REACTORS
330
C
102
}
330
C
100
AcDbDictionary
281
     1
  3
Standard
350
5C
  0
DICTIONARY
  5
17
102
{ACAD_REACTORS
330
C
102
}
330
C
100
AcDbDictionary
281
     1
  3
Standard
350
18
  0
DICTIONARY
  5
19
102
{ACAD_REACTORS
330
C
102
}
330
C
100
AcDbDictionary
281
     1
  3
PlotSettings_
350
223
  0
ACDBDICTIONARYWDFLT
  5
E
102
{ACAD_REACTORS
330
C
102
}
330
C
100
AcDbDictionary
281
     1
  3
flat
350
5F
  3
Normal
350
F
  3
round
350
231
100
AcDbDictionaryWithDefault
340
F
  0
DICTIONARY
  5
47
102
{ACAD_REACTORS
330
C
102
}
330
C
100
AcDbDictionary
281
     1
  3
A0
350
48
  3
A1
350
49
  3
A2
350
4A
  3
A3
350
4B
  3
A4
350
4C
  3
A5
350
4D
  3
A6
350
4E
  3
A7
350
4F
  3
A8
350
50
  3
A9
350
51
  3
B0
350
52
  3
B1
350
53
  3
B2
350
54
  3
B3
350
55
  3
B4
350
56
  3
B5
350
57
  3
B6
350
58
  0
DICTIONARY
  5
348
102
{ACAD_REACTORS
330
C
102
}
330
C
100
AcDbDictionary
281
     1
  0
DICTIONARY
  5
59
102
{ACAD_REACTORS
330
C
102
}
330
C
100
AcDbDictionary
281
     1
  3
Standard
350
5A
  0
DICTIONARY
  5
2A
102
{ACAD_REACTORS
330
C
102
}
330
C
100
AcDbDictionary
281
     1
  3
2dWireframe
350
2F
  3
Basic
350
32
  3
Brighten
350
36
  3
ColorChange
350
3A
  3
Conceptual
350
34
  3
Dim
350
35
  3
EdgeColorOff
350
3D
  3
Facepattern
350
39
  3
Flat
350
2B
  3
FlatWithEdges
350
2C
  3
Gouraud
350
2D
  3
GouraudWithEdges
350
2E
  3
Hidden
350
31
  3
JitterOff
350
3B
  3
Linepattern
350
38
  3
OverhangOff
350
3C
  3
Realistic
350
33
  3
Shaded
350
42
  3
Shaded with edges
350
41
  3
Shades of Gray
350
3E
  3
Sketchy
350
3F
  3
Thicken
350
37
  3
Wireframe
350
30
  3
X-Ray
350
40
  0
WIPEOUTVARIABLES
  5
61
102
{ACAD_REACTORS
330
C
102
}
330
C
100
AcDbWipeoutVariables
 70
     0
  0
XRECORD
  5
344
102
{ACAD_REACTORS
330
C
102
}
330
C
100
AcDbXrecord
280
     1
 90
        1
330
5A
  0
DICTIONARY
  5
340
102
{ACAD_REACTORS
330
C
102
}
330
C
100
AcDbDictionary
281
     1
  3
CANNOSCALE
350
341
  3
CENTEREXE
350
34A
  3
CENTERLTYPEFILE
350
34B
  3
CMLEADERSTYLE
350
346
  3
CTABLESTYLE
350
345
  3
WIPEOUTFRAME
350
349
  0
LAYOUT
  5
1E
102
{ACAD_REACTORS
330
1A
102
}
330
1A
100
AcDbPlotSettings
  1

  2
none_device
  4

  6

 40
0.0
 41
0.0
 42
0.0
 43
0.0
 44
0.0
 45
0.0
 46
0.0
 47
0.0
 48
0.0
 49
0.0
140
0.0
141
0.0
142
1.0
143
1.0
 70
   688
 72
     1
 73
     0
 74
     5
  7

 75
    16
 76
     0
 77
     2
 78
   300
147
1.0
148
0.0
149
0.0
100
AcDbLayout
  1
CompleteLayout
 70
     1
 71
     1
 10
0.0
 20
0.0
 11
420.0
 21
297.0
 12
0.0
 22
0.0
 32
0.0
 14
1.000000000000000E+20
 24
1.000000000000000E+20
 34
1.000000000000000E+20
 15
-1.000000000000000E+20
 25
-1.000000000000000E+20
 35
-1.000000000000000E+20
146
0.0
 13
0.0
 23
0.0
 33
0.0
 16
1.0
 26
0.0
 36
0.0
 17
0.0
 27
1.0
 37
0.0
 76
     0
330
1B
  0
LAYOUT
  5
22
102
{ACAD_REACTORS
330
1A
102
}
330
1A
100
AcDbPlotSettings
  1

  2
none_device
  4
Letter_(8.50_x_11.00_Inches)
  6

 40
6.35
 41
6.35
 42
6.35000508
 43
6.35000508
 44
215.9
 45
279.4
 46
0.0
 47
0.0
 48
0.0
 49
0.0
140
0.0
141
0.0
142
1.0
143
1.0
 70
  1712
 72
     1
 73
     0
 74
     0
  7

 75
     0
 76
     0
 77
     2
 78
   300
147
1.0
148
0.0
149
0.0
100
AcDbLayout
  1
Model
 70
     1
 71
     0
 10
0.0
 20
0.0
 11
420.0
 21
297.0
 12
0.0
 22
0.0
 32
0.0
 14
40816.40509298422
 24
-14187.2907041431
 34
0.0
 15
58641.54782959308
 25
-10420.97855993556
 35
2500.0
146
0.0
 13
0.0
 23
0.0
 33
0.0
 16
1.0
 26
0.0
 36
0.0
 17
0.0
 27
1.0
 37
0.0
 76
     0
330
1F
331
29
  0
LAYOUT
  5
220
102
{ACAD_REACTORS
330
1A
102
}
330
1A
100
AcDbPlotSettings
  1
PlotSettings_
  2
Custom Device
  4
Custom_210.000000x297.000000_12.700000_12.700000_6.200000_6.200000
  6

 40
6.2
 41
12.7
 42
6.2
 43
12.7
 44
210.0
 45
297.0
 46
0.0000000000000142
 47
0.0
 48
0.0
 49
0.0
140
197.6
141
271.6
142
1.0
143
1.0
 70
   756
 72
     1
 73
     0
 74
     4
  7

 75
     0
 76
     0
 77
     2
 78
   300
147
1.0
148
0.0
149
0.0
100
AcDbLayout
  1
PrintFrame_24
 70
     0
 71
     2
 10
-20.0
 20
-7.5
 11
277.0
 21
202.5
 12
0.0
 22
0.0
 32
0.0
 14
-5.730400000000003
 24
-7.876400000000018
 34
0.0
 15
203.3304
 25
279.4764
 35
0.0
146
0.0
 13
0.0
 23
0.0
 33
0.0
 16
1.0
 26
0.0
 36
0.0
 17
0.0
 27
1.0
 37
0.0
 76
     0
330
21F
331
225
1001
PLOTTRANSPARENCY
1071
        1
1000
layout-user-created
1070
     1
1000
layout-line-weight-scale
1042
1.0
  0
MATERIAL
  5
45
102
{ACAD_REACTORS
330
43
102
}
330
43
100
AcDbMaterial
  1
ByBlock
 72
     1
 94
      127
  0
MATERIAL
  5
44
102
{ACAD_REACTORS
330
43
102
}
330
43
100
AcDbMaterial
  1
ByLayer
 72
     1
 94
      127
  0
MATERIAL
  5
46
102
{ACAD_REACTORS
330
43
102
}
330
43
100
AcDbMaterial
  1
Global
 72
     1
 94
      127
  0
MLEADERSTYLE
  5
5C
102
{ACAD_REACTORS
330
5B
102
}
330
5B
100
AcDbMLeaderStyle
179
     2
170
     2
171
     1
172
     0
 90
        2
 40
0.0
 41
0.0
173
     1
 91
-1056964608
340
14
 92
       -2
290
     1
 42
2.0
291
     1
 43
8.0
  3
Standard
341
0
 44
4.0
300

342
11
174
     1
178
     6
175
     1
176
     0
 93
-1056964608
 45
4.0
292
     0
297
     0
 46
4.0
343
0
 94
-1056964608
 47
1.0
 49
1.0
140
1.0
293
     1
141
0.0
294
     1
177
     0
142
1.0
295
     0
296
     0
143
3.75
271
     0
272
     9
273
     9
298
     0
  0
MLINESTYLE
  5
18
102
{ACAD_REACTORS
330
17
102
}
330
17
100
AcDbMlineStyle
  2
Standard
 70
     0
  3

 62
   256
 51
90.0
 52
90.0
 71
     2
 49
0.5
 62
   256
  6
BYLAYER
 49
-0.5
 62
   256
  6
BYLAYER
  0
PLOTSETTINGS
  5
223
102
{ACAD_REACTORS
330
19
102
}
330
19
100
AcDbPlotSettings
  1
PlotSettings_
  2
Custom Device
  4
Custom_210.000000x297.000000_12.700000_12.700000_6.200000_6.200000
  6

 40
6.2
 41
12.7
 42
6.2
 43
12.7
 44
210.0
 45
297.0
 46
0.0000000000000142
 47
0.0
 48
0.0
 49
0.0
140
197.6
141
271.6
142
1.0
143
1.0
 70
   756
 72
     1
 73
     0
 74
     4
  7

 75
     0
 76
     0
 77
     2
 78
   300
147
1.0
148
0.0
149
0.0
1001
PLOTTRANSPARENCY
1071
        1
1000
layout-user-created
1070
     1
1000
layout-line-weight-scale
1042
1.0
  0
ACDBPLACEHOLDER
  5
5F
102
{ACAD_REACTORS
330
E
102
}
330
E
  0
ACDBPLACEHOLDER
  5
F
102
{ACAD_REACTORS
330
E
102
}
330
E
  0
ACDBPLACEHOLDER
  5
231
102
{ACAD_REACTORS
330
E
102
}
330
E
  0
SCALE
  5
48
102
{ACAD_REACTORS
330
47
102
}
330
47
100
AcDbScale
 70
     0
300
1:1
140
1.0
141
1.0
290
     1
  0
SCALE
  5
49
102
{ACAD_REACTORS
330
47
102
}
330
47
100
AcDbScale
 70
     0
300
1:2
140
1.0
141
2.0
290
     0
  0
SCALE
  5
4A
102
{ACAD_REACTORS
330
47
102
}
330
47
100
AcDbScale
 70
     0
300
1:4
140
1.0
141
4.0
290
     0
  0
SCALE
  5
4B
102
{ACAD_REACTORS
330
47
102
}
330
47
100
AcDbScale
 70
     0
300
1:5
140
1.0
141
5.0
290
     0
  0
SCALE
  5
4C
102
{ACAD_REACTORS
330
47
102
}
330
47
100
AcDbScale
 70
     0
300
1:8
140
1.0
141
8.0
290
     0
  0
SCALE
  5
4D
102
{ACAD_REACTORS
330
47
102
}
330
47
100
AcDbScale
 70
     0
300
1:10
140
1.0
141
10.0
290
     0
  0
SCALE
  5
4E
102
{ACAD_REACTORS
330
47
102
}
330
47
100
AcDbScale
 70
     0
300
1:16
140
1.0
141
16.0
290
     0
  0
SCALE
  5
4F
102
{ACAD_REACTORS
330
47
102
}
330
47
100
AcDbScale
 70
     0
300
1:20
140
1.0
141
20.0
290
     0
  0
SCALE
  5
50
102
{ACAD_REACTORS
330
47
102
}
330
47
100
AcDbScale
 70
     0
300
1:30
140
1.0
141
30.0
290
     0
  0
SCALE
  5
51
102
{ACAD_REACTORS
330
47
102
}
330
47
100
AcDbScale
 70
     0
300
1:40
140
1.0
141
40.0
290
     0
  0
SCALE
  5
52
102
{ACAD_REACTORS
330
47
102
}
330
47
100
AcDbScale
 70
     0
300
1:50
140
1.0
141
50.0
290
     0
  0
SCALE
  5
53
102
{ACAD_REACTORS
330
47
102
}
330
47
100
AcDbScale
 70
     0
300
1:100
140
1.0
141
100.0
290
     0
  0
SCALE
  5
54
102
{ACAD_REACTORS
330
47
102
}
330
47
100
AcDbScale
 70
     0
300
2:1
140
2.0
141
1.0
290
     0
  0
SCALE
  5
55
102
{ACAD_REACTORS
330
47
102
}
330
47
100
AcDbScale
 70
     0
300
4:1
140
4.0
141
1.0
290
     0
  0
SCALE
  5
56
102
{ACAD_REACTORS
330
47
102
}
330
47
100
AcDbScale
 70
     0
300
8:1
140
8.0
141
1.0
290
     0
  0
SCALE
  5
57
102
{ACAD_REACTORS
330
47
102
}
330
47
100
AcDbScale
 70
     0
300
10:1
140
10.0
141
1.0
290
     0
  0
SCALE
  5
58
102
{ACAD_REACTORS
330
47
102
}
330
47
100
AcDbScale
 70
     0
300
100:1
140
100.0
141
1.0
290
     0
  0
TABLESTYLE
  5
5A
102
{ACAD_REACTORS
330
59
102
}
102
{ACAD_XDICTIONARY
360
342
102
}
330
59
100
AcDbTableStyle
  3
Standard
 70
     0
 71
     0
 40
0.06
 41
0.06
280
     0
281
     0
  7
Standard
140
4.5
170
     2
 62
     0
 63
   257
283
     0
 90
        4
 91
        0
  1

274
    -2
284
     1
 64
     0
275
    -2
285
     1
 65
     0
276
    -2
286
     1
 66
     0
277
    -2
287
     1
 67
     0
278
    -2
288
     1
 68
     0
279
    -2
289
     1
 69
     0
  7
Standard
140
6.0
170
     5
 62
     0
 63
   257
283
     0
 90
        4
 91
        0
  1

274
    -2
284
     1
 64
     0
275
    -2
285
     1
 65
     0
276
    -2
286
     1
 66
     0
277
    -2
287
     1
 67
     0
278
    -2
288
     1
 68
     0
279
    -2
289
     1
 69
     0
  7
Standard
140
4.5
170
     5
 62
     0
 63
   257
283
     0
 90
        4
 91
        0
  1

274
    -2
284
     1
 64
     0
275
    -2
285
     1
 65
     0
276
    -2
286
     1
 66
     0
277
    -2
287
     1
 67
     0
278
    -2
288
     1
 68
     0
279
    -2
289
     1
 69
     0
  0
VISUALSTYLE
  5
2F
102
{ACAD_REACTORS
330
2A
102
}
330
2A
100
AcDbVisualStyle
  2
2dWireframe
 70
     4
177
     3
291
     0
 70
    58
 90
        0
176
     1
 90
        2
176
     1
 90
        0
176
     1
 90
        0
176
     1
 40
0.6
176
     1
 40
30.0
176
     1
 62
     7
420
 16777215
176
     1
 90
        1
176
     1
 90
        4
176
     1
 62
     7
176
     1
 62
   257
176
     1
 90
        1
176
     1
 90
        1
176
     1
 40
1.0
176
     1
 90
        0
176
     1
 62
   257
176
     1
 40
1.0
176
     1
 90
        1
176
     1
 90
        6
176
     1
 90
        2
176
     1
 62
     7
176
     1
 90
        5
176
     1
 90
        0
176
     1
 90
        0
176
     1
290
     0
176
     1
 90
        1
176
     1
 40
0.0
176
     1
 90
        0
176
     1
290
     1
176
     1
290
     1
176
     1
290
     0
176
     1
290
     0
176
     1
290
     0
176
     1
290
     0
176
     1
290
     0
176
     1
290
     0
176
     1
290
     0
176
     1
 90
       50
176
     1
 40
0.0
176
     1
 40
1.0
176
     1
 90
        0
176
     1
 62
    18
420
        0
176
     1
 90
       50
176
     1
 90
        3
176
     1
 62
     5
420
      255
176
     1
290
     0
176
     1
 90
       50
176
     1
 90
       50
176
     1
 90
       50
176
     1
290
     0
176
     1
 90
       50
176
     1
 62
   256
176
     0
 40
1.0
176
     0
 90
        2
176
     1
  1
strokes_ogs.tif
176
     1
290
     0
176
     1
 40
1.0
176
     1
 40
1.0
176
     1
  0
VISUALSTYLE
  5
32
102
{ACAD_REACTORS
330
2A
102
}
330
2A
100
AcDbVisualStyle
  2
Basic
 70
     7
177
     3
291
     1
 70
    58
 90
        1
176
     1
 90
        0
176
     1
 90
        1
176
     1
 90
        0
176
     1
 40
0.6
176
     1
 40
30.0
176
     1
 62
     7
420
 16777215
176
     1
 90
        0
176
     1
 90
        4
176
     1
 62
     7
176
     1
 62
   257
176
     1
 90
        1
176
     1
 90
        1
176
     1
 40
1.0
176
     1
 90
        8
176
     1
 62
     7
176
     1
 40
1.0
176
     1
 90
        1
176
     1
 90
        6
176
     1
 90
        2
176
     1
 62
     7
176
     1
 90
        5
176
     1
 90
        0
176
     1
 90
        0
176
     1
290
     0
176
     1
 90
        1
176
     1
 40
0.0
176
     1
 90
        0
176
     1
290
     0
176
     1
290
     1
176
     1
290
     1
176
     1
290
     0
176
     1
290
     0
176
     1
290
     0
176
     1
290
     0
176
     1
290
     0
176
     1
290
     0
176
     1
 90
       50
176
     1
 40
0.0
176
     1
 40
1.0
176
     1
 90
        0
176
     1
 62
    18
420
        0
176
     1
 90
       50
176
     1
 90
        3
176
     1
 62
     5
420
      255
176
     1
290
     0
176
     1
 90
       50
176
     1
 90
       50
176
     1
 90
       50
176
     1
290
     0
176
     1
 90
       50
176
     1
 62
   256
176
     0
 40
1.0
176
     0
 90
        2
176
     1
  1
strokes_ogs.tif
176
     1
290
     0
176
     1
 40
1.0
176
     1
 40
1.0
176
     1
  0
VISUALSTYLE
  5
36
102
{ACAD_REACTORS
330
2A
102
}
330
2A
100
AcDbVisualStyle
  2
Brighten
 70
    12
177
     3
291
     1
 70
    58
 90
        2
176
     1
 90
        2
176
     1
 90
        0
176
     1
 90
        0
176
     1
 40
0.6
176
     1
 40
30.0
176
     1
 62
     7
420
 16777215
176
     1
 90
        1
176
     1
 90
        4
176
     1
 62
     7
176
     1
 62
   257
176
     1
 90
        1
176
     1
 90
        1
176
     1
 40
1.0
176
     1
 90
        8
176
     1
 62
     7
176
     1
 40
1.0
176
     1
 90
        1
176
     1
 90
        6
176
     1
 90
        2
176
     1
 62
     7
176
     1
 90
        5
176
     1
 90
        0
176
     1
 90
        0
176
     1
290
     0
176
     1
 90
        1
176
     1
 40
50.0
176
     1
 90
        0
176
     1
290
     0
176
     1
290
     1
176
     1
290
     1
176
     1
290
     0
176
     1
290
     0
176
     1
290
     0
176
     1
290
     0
176
     1
290
     0
176
     1
290
     0
176
     1
 90
       50
176
     1
 40
0.0
176
     1
 40
1.0
176
     1
 90
        0
176
     1
 62
    18
420
        0
176
     1
 90
       50
176
     1
 90
        3
176
     1
 62
     5
420
      255
176
     1
290
     0
176
     1
 90
       50
176
     1
 90
       50
176
     1
 90
       50
176
     1
290
     0
176
     1
 90
       50
176
     1
 62
   256
176
     0
 40
1.0
176
     0
 90
        2
176
     1
  1
strokes_ogs.tif
176
     1
290
     0
176
     1
 40
1.0
176
     1
 40
1.0
176
     1
  0
VISUALSTYLE
  5
3A
102
{ACAD_REACTORS
330
2A
102
}
330
2A
100
AcDbVisualStyle
  2
ColorChange
 70
    16
177
     3
291
     1
 70
    58
 90
        2
176
     1
 90
        2
176
     1
 90
        3
176
     1
 90
        0
176
     1
 40
0.6
176
     1
 40
30.0
176
     1
 62
     8
420
  8421504
176
     1
 90
        1
176
     1
 90
        4
176
     1
 62
     7
176
     1
 62
   257
176
     1
 90
        1
176
     1
 90
        1
176
     1
 40
1.0
176
     1
 90
        8
176
     1
 62
     8
420
  8421504
176
     1
 40
1.0
176
     1
 90
        1
176
     1
 90
        6
176
     1
 90
        2
176
     1
 62
     7
176
     1
 90
        5
176
     1
 90
        0
176
     1
 90
        0
176
     1
290
     0
176
     1
 90
        1
176
     1
 40
0.0
176
     1
 90
        0
176
     1
290
     0
176
     1
290
     1
176
     1
290
     1
176
     1
290
     0
176
     1
290
     0
176
     1
290
     0
176
     1
290
     0
176
     1
290
     0
176
     1
290
     0
176
     1
 90
       50
176
     1
 40
0.0
176
     1
 40
1.0
176
     1
 90
        0
176
     1
 62
    18
420
        0
176
     1
 90
       50
176
     1
 90
        3
176
     1
 62
     5
420
      255
176
     1
290
     0
176
     1
 90
       50
176
     1
 90
       50
176
     1
 90
       50
176
     1
290
     0
176
     1
 90
       50
176
     1
 62
   256
176
     0
 40
1.0
176
     0
 90
        2
176
     1
  1
strokes_ogs.tif
176
     1
290
     0
176
     1
 40
1.0
176
     1
 40
1.0
176
     1
  0
VISUALSTYLE
  5
34
102
{ACAD_REACTORS
330
2A
102
}
330
2A
100
AcDbVisualStyle
  2
Conceptual
 70
     9
177
     3
291
     0
 70
    58
 90
        3
176
     1
 90
        2
176
     1
 90
        0
176
     1
 90
        0
176
     1
 40
0.6
176
     1
 40
30.0
176
     1
 62
     7
420
 16777215
176
     1
 90
        2
176
     1
 90
        2
176
     1
 62
     7
176
     1
 62
   257
176
     1
 90
        1
176
     1
 90
        1
176
     1
 40
179.0
176
     1
 90
        8
176
     1
 62
     7
176
     1
 40
1.0
176
     1
 90
        1
176
     1
 90
        6
176
     1
 90
        2
176
     1
 62
     7
176
     1
 90
        3
176
     1
 90
        0
176
     1
 90
        0
176
     1
290
     0
176
     1
 90
        1
176
     1
 40
0.0
176
     1
 90
        0
176
     1
290
     0
176
     1
290
     1
176
     1
290
     1
176
     1
290
     0
176
     1
290
     0
176
     1
290
     0
176
     1
290
     0
176
     1
290
     0
176
     1
290
     0
176
     1
 90
       50
176
     1
 40
0.0
176
     1
 40
1.0
176
     1
 90
        0
176
     1
 62
    18
420
        0
176
     1
 90
       50
176
     1
 90
        3
176
     1
 62
     5
420
      255
176
     1
290
     0
176
     1
 90
       50
176
     1
 90
       50
176
     1
 90
       50
176
     1
290
     0
176
     1
 90
       50
176
     1
 62
   256
176
     0
 40
1.0
176
     0
 90
        2
176
     1
  1
strokes_ogs.tif
176
     1
290
     0
176
     1
 40
1.0
176
     1
 40
1.0
176
     1
  0
VISUALSTYLE
  5
35
102
{ACAD_REACTORS
330
2A
102
}
330
2A
100
AcDbVisualStyle
  2
Dim
 70
    11
177
     3
291
     1
 70
    58
 90
        2
176
     1
 90
        2
176
     1
 90
        0
176
     1
 90
        0
176
     1
 40
0.6
176
     1
 40
30.0
176
     1
 62
     7
420
 16777215
176
     1
 90
        1
176
     1
 90
        4
176
     1
 62
     7
176
     1
 62
   257
176
     1
 90
        1
176
     1
 90
        1
176
     1
 40
1.0
176
     1
 90
        8
176
     1
 62
     7
176
     1
 40
1.0
176
     1
 90
        1
176
     1
 90
        6
176
     1
 90
        2
176
     1
 62
     7
176
     1
 90
        5
176
     1
 90
        0
176
     1
 90
        0
176
     1
290
     0
176
     1
 90
        1
176
     1
 40
-50.0
176
     1
 90
        0
176
     1
290
     0
176
     1
290
     1
176
     1
290
     1
176
     1
290
     0
176
     1
290
     0
176
     1
290
     0
176
     1
290
     0
176
     1
290
     0
176
     1
290
     0
176
     1
 90
       50
176
     1
 40
0.0
176
     1
 40
1.0
176
     1
 90
        0
176
     1
 62
    18
420
        0
176
     1
 90
       50
176
     1
 90
        3
176
     1
 62
     5
420
      255
176
     1
290
     0
176
     1
 90
       50
176
     1
 90
       50
176
     1
 90
       50
176
     1
290
     0
176
     1
 90
       50
176
     1
 62
   256
176
     0
 40
1.0
176
     0
 90
        2
176
     1
  1
strokes_ogs.tif
176
     1
290
     0
176
     1
 40
1.0
176
     1
 40
1.0
176
     1
  0
VISUALSTYLE
  5
3D
102
{ACAD_REACTORS
330
2A
102
}
330
2A
100
AcDbVisualStyle
  2
EdgeColorOff
 70
    22
177
     3
291
     1
 70
    58
 90
        2
176
     0
 90
        2
176
     0
 90
        0
176
     0
 90
        0
176
     0
 40
0.6
176
     0
 40
30.0
176
     0
 62
     7
420
 16777215
176
     0
 90
        1
176
     0
 90
        4
176
     0
 62
     7
176
     0
 62
   257
176
     0
 90
        1
176
     0
 90
        1
176
     0
 40
1.0
176
     0
 90
        8
176
     2
 62
     7
176
     0
 40
1.0
176
     0
 90
        1
176
     0
 90
        6
176
     0
 90
        2
176
     0
 62
     7
176
     0
 90
        5
176
     0
 90
        0
176
     0
 90
        0
176
     0
290
     0
176
     0
 90
        1
176
     0
 40
0.0
176
     0
 90
        0
176
     0
290
     0
176
     0
290
     1
176
     0
290
     1
176
     0
290
     0
176
     0
290
     0
176
     0
290
     0
176
     0
290
     0
176
     0
290
     0
176
     0
290
     0
176
     0
 90
       50
176
     0
 40
0.0
176
     0
 40
1.0
176
     0
 90
        0
176
     0
 62
    18
420
        0
176
     0
 90
       50
176
     0
 90
        3
176
     0
 62
     5
420
      255
176
     0
290
     0
176
     0
 90
       50
176
     0
 90
       50
176
     0
 90
       50
176
     0
290
     0
176
     0
 90
       50
176
     0
 62
   256
176
     0
 40
1.0
176
     0
 90
        2
176
     0
  1
strokes_ogs.tif
176
     0
290
     0
176
     0
 40
1.0
176
     0
 40
1.0
176
     0
  0
VISUALSTYLE
  5
39
102
{ACAD_REACTORS
330
2A
102
}
330
2A
100
AcDbVisualStyle
  2
Facepattern
 70
    15
177
     3
291
     1
 70
    58
 90
        2
176
     1
 90
        2
176
     1
 90
        0
176
     1
 90
        0
176
     1
 40
0.6
176
     1
 40
30.0
176
     1
 62
     7
420
 16777215
176
     1
 90
        1
176
     1
 90
        4
176
     1
 62
     7
176
     1
 62
   257
176
     1
 90
        1
176
     1
 90
        1
176
     1
 40
1.0
176
     1
 90
        8
176
     1
 62
     7
176
     1
 40
1.0
176
     1
 90
        1
176
     1
 90
        6
176
     1
 90
        2
176
     1
 62
     7
176
     1
 90
        5
176
     1
 90
        0
176
     1
 90
        0
176
     1
290
     0
176
     1
 90
        1
176
     1
 40
0.0
176
     1
 90
        0
176
     1
290
     0
176
     1
290
     1
176
     1
290
     1
176
     1
290
     0
176
     1
290
     0
176
     1
290
     0
176
     1
290
     0
176
     1
290
     0
176
     1
290
     0
176
     1
 90
       50
176
     1
 40
0.0
176
     1
 40
1.0
176
     1
 90
        0
176
     1
 62
    18
420
        0
176
     1
 90
       50
176
     1
 90
        3
176
     1
 62
     5
420
      255
176
     1
290
     0
176
     1
 90
       50
176
     1
 90
       50
176
     1
 90
       50
176
     1
290
     0
176
     1
 90
       50
176
     1
 62
   256
176
     0
 40
1.0
176
     0
 90
        2
176
     1
  1
strokes_ogs.tif
176
     1
290
     0
176
     1
 40
1.0
176
     1
 40
1.0
176
     1
  0
VISUALSTYLE
  5
2B
102
{ACAD_REACTORS
330
2A
102
}
330
2A
100
AcDbVisualStyle
  2
Flat
 70
     0
177
     3
291
     1
 70
    58
 90
        2
176
     1
 90
        1
176
     1
 90
        1
176
     1
 90
        2
176
     1
 40
0.6
176
     1
 40
30.0
176
     1
 62
     7
420
 16777215
176
     1
 90
        0
176
     1
 90
        0
176
     1
 62
     7
176
     1
 62
   257
176
     1
 90
        1
176
     1
 90
        1
176
     1
 40
1.0
176
     1
 90
        8
176
     1
 62
     7
176
     1
 40
1.0
176
     1
 90
        1
176
     1
 90
        6
176
     1
 90
        2
176
     1
 62
     7
176
     1
 90
        5
176
     1
 90
        0
176
     1
 90
        0
176
     1
290
     0
176
     1
 90
       13
176
     1
 40
0.0
176
     1
 90
        0
176
     1
290
     0
176
     1
290
     1
176
     1
290
     1
176
     1
290
     0
176
     1
290
     0
176
     1
290
     0
176
     1
290
     0
176
     1
290
     0
176
     1
290
     0
176
     1
 90
       50
176
     1
 40
0.0
176
     1
 40
1.0
176
     1
 90
        0
176
     1
 62
    18
420
        0
176
     1
 90
       50
176
     1
 90
        3
176
     1
 62
     5
420
      255
176
     1
290
     0
176
     1
 90
       50
176
     1
 90
       50
176
     1
 90
       50
176
     1
290
     0
176
     1
 90
       50
176
     1
 62
   256
176
     0
 40
1.0
176
     0
 90
        2
176
     1
  1
strokes_ogs.tif
176
     1
290
     0
176
     1
 40
1.0
176
     1
 40
1.0
176
     1
  0
VISUALSTYLE
  5
2C
102
{ACAD_REACTORS
330
2A
102
}
330
2A
100
AcDbVisualStyle
  2
FlatWithEdges
 70
     1
177
     3
291
     1
 70
    58
 90
        2
176
     1
 90
        1
176
     1
 90
        1
176
     1
 90
        2
176
     1
 40
0.6
176
     1
 40
30.0
176
     1
 62
     7
420
 16777215
176
     1
 90
        1
176
     1
 90
        0
176
     1
 62
     7
176
     1
 62
   257
176
     1
 90
        1
176
     1
 90
        1
176
     1
 40
1.0
176
     1
 90
        0
176
     1
 62
   257
176
     1
 40
1.0
176
     1
 90
        1
176
     1
 90
        6
176
     1
 90
        2
176
     1
 62
     7
176
     1
 90
        5
176
     1
 90
        0
176
     1
 90
        0
176
     1
290
     0
176
     1
 90
       13
176
     1
 40
0.0
176
     1
 90
        0
176
     1
290
     0
176
     1
290
     1
176
     1
290
     1
176
     1
290
     0
176
     1
290
     0
176
     1
290
     0
176
     1
290
     0
176
     1
290
     0
176
     1
290
     0
176
     1
 90
       50
176
     1
 40
0.0
176
     1
 40
1.0
176
     1
 90
        0
176
     1
 62
    18
420
        0
176
     1
 90
       50
176
     1
 90
        3
176
     1
 62
     5
420
      255
176
     1
290
     0
176
     1
 90
       50
176
     1
 90
       50
176
     1
 90
       50
176
     1
290
     0
176
     1
 90
       50
176
     1
 62
   256
176
     0
 40
1.0
176
     0
 90
        2
176
     1
  1
strokes_ogs.tif
176
     1
290
     0
176
     1
 40
1.0
176
     1
 40
1.0
176
     1
  0
VISUALSTYLE
  5
2D
102
{ACAD_REACTORS
330
2A
102
}
330
2A
100
AcDbVisualStyle
  2
Gouraud
 70
     2
177
     3
291
     1
 70
    58
 90
        2
176
     1
 90
        2
176
     1
 90
        1
176
     1
 90
        2
176
     1
 40
0.6
176
     1
 40
30.0
176
     1
 62
     7
420
 16777215
176
     1
 90
        0
176
     1
 90
        0
176
     1
 62
     7
176
     1
 62
   257
176
     1
 90
        1
176
     1
 90
        1
176
     1
 40
1.0
176
     1
 90
        0
176
     1
 62
     7
176
     1
 40
1.0
176
     1
 90
        1
176
     1
 90
        6
176
     1
 90
        2
176
     1
 62
     7
176
     1
 90
        5
176
     1
 90
        0
176
     1
 90
        0
176
     1
290
     0
176
     1
 90
       13
176
     1
 40
0.0
176
     1
 90
        0
176
     1
290
     0
176
     1
290
     1
176
     1
290
     1
176
     1
290
     0
176
     1
290
     0
176
     1
290
     0
176
     1
290
     0
176
     1
290
     0
176
     1
290
     0
176
     1
 90
       50
176
     1
 40
0.0
176
     1
 40
1.0
176
     1
 90
        0
176
     1
 62
    18
420
        0
176
     1
 90
       50
176
     1
 90
        3
176
     1
 62
     5
420
      255
176
     1
290
     0
176
     1
 90
       50
176
     1
 90
       50
176
     1
 90
       50
176
     1
290
     0
176
     1
 90
       50
176
     1
 62
   256
176
     0
 40
1.0
176
     0
 90
        2
176
     1
  1
strokes_ogs.tif
176
     1
290
     0
176
     1
 40
1.0
176
     1
 40
1.0
176
     1
  0
VISUALSTYLE
  5
2E
102
{ACAD_REACTORS
330
2A
102
}
330
2A
100
AcDbVisualStyle
  2
GouraudWithEdges
 70
     3
177
     3
291
     1
 70
    58
 90
        2
176
     1
 90
        2
176
     1
 90
        1
176
     1
 90
        2
176
     1
 40
0.6
176
     1
 40
30.0
176
     1
 62
     7
420
 16777215
176
     1
 90
        1
176
     1
 90
        0
176
     1
 62
     7
176
     1
 62
   257
176
     1
 90
        1
176
     1
 90
        1
176
     1
 40
1.0
176
     1
 90
        0
176
     1
 62
   257
176
     1
 40
1.0
176
     1
 90
        1
176
     1
 90
        6
176
     1
 90
        2
176
     1
 62
     7
176
     1
 90
        5
176
     1
 90
        0
176
     1
 90
        0
176
     1
290
     0
176
     1
 90
       13
176
     1
 40
0.0
176
     1
 90
        0
176
     1
290
     0
176
     1
290
     1
176
     1
290
     1
176
     1
290
     0
176
     1
290
     0
176
     1
290
     0
176
     1
290
     0
176
     1
290
     0
176
     1
290
     0
176
     1
 90
       50
176
     1
 40
0.0
176
     1
 40
1.0
176
     1
 90
        0
176
     1
 62
    18
420
        0
176
     1
 90
       50
176
     1
 90
        3
176
     1
 62
     5
420
      255
176
     1
290
     0
176
     1
 90
       50
176
     1
 90
       50
176
     1
 90
       50
176
     1
290
     0
176
     1
 90
       50
176
     1
 62
   256
176
     0
 40
1.0
176
     0
 90
        2
176
     1
  1
strokes_ogs.tif
176
     1
290
     0
176
     1
 40
1.0
176
     1
 40
1.0
176
     1
  0
VISUALSTYLE
  5
31
102
{ACAD_REACTORS
330
2A
102
}
330
2A
100
AcDbVisualStyle
  2
Hidden
 70
     6
177
     3
291
     0
 70
    58
 90
        1
176
     1
 90
        2
176
     1
 90
        2
176
     1
 90
        0
176
     1
 40
0.6
176
     1
 40
30.0
176
     1
 62
     7
420
 16777215
176
     1
 90
        2
176
     1
 90
        2
176
     1
 62
     7
176
     1
 62
   257
176
     1
 90
        2
176
     1
 90
        1
176
     1
 40
40.0
176
     1
 90
        0
176
     1
 62
   257
176
     1
 40
1.0
176
     1
 90
        1
176
     1
 90
        6
176
     1
 90
        2
176
     1
 62
     7
176
     1
 90
        3
176
     1
 90
        0
176
     1
 90
        0
176
     1
290
     0
176
     1
 90
        1
176
     1
 40
0.0
176
     1
 90
        0
176
     1
290
     0
176
     1
290
     1
176
     1
290
     1
176
     1
290
     0
176
     1
290
     0
176
     1
290
     0
176
     1
290
     0
176
     1
290
     0
176
     1
290
     0
176
     1
 90
       50
176
     1
 40
0.0
176
     1
 40
1.0
176
     1
 90
        0
176
     1
 62
    18
420
        0
176
     1
 90
       50
176
     1
 90
        3
176
     1
 62
     5
420
      255
176
     1
290
     0
176
     1
 90
       50
176
     1
 90
       50
176
     1
 90
       50
176
     1
290
     0
176
     1
 90
       50
176
     1
 62
   256
176
     0
 40
1.0
176
     0
 90
        2
176
     1
  1
strokes_ogs.tif
176
     1
290
     0
176
     1
 40
1.0
176
     1
 40
1.0
176
     1
  0
VISUALSTYLE
  5
3B
102
{ACAD_REACTORS
330
2A
102
}
330
2A
100
AcDbVisualStyle
  2
JitterOff
 70
    20
177
     3
291
     1
 70
    58
 90
        2
176
     0
 90
        2
176
     0
 90
        0
176
     0
 90
        0
176
     0
 40
0.6
176
     0
 40
30.0
176
     0
 62
     7
420
 16777215
176
     0
 90
        1
176
     0
 90
        4
176
     0
 62
     7
176
     0
 62
   257
176
     0
 90
        1
176
     0
 90
        1
176
     0
 40
1.0
176
     0
 90
       10
176
     2
 62
     7
176
     0
 40
1.0
176
     0
 90
        1
176
     0
 90
        6
176
     0
 90
        2
176
     0
 62
     7
176
     0
 90
        5
176
     0
 90
        0
176
     0
 90
        0
176
     0
290
     0
176
     0
 90
        1
176
     0
 40
0.0
176
     0
 90
        0
176
     0
290
     0
176
     0
290
     1
176
     0
290
     1
176
     0
290
     0
176
     0
290
     0
176
     0
290
     0
176
     0
290
     0
176
     0
290
     0
176
     0
290
     0
176
     0
 90
       50
176
     0
 40
0.0
176
     0
 40
1.0
176
     0
 90
        0
176
     0
 62
    18
420
        0
176
     0
 90
       50
176
     0
 90
        3
176
     0
 62
     5
420
      255
176
     0
290
     0
176
     0
 90
       50
176
     0
 90
       50
176
     0
 90
       50
176
     0
290
     0
176
     0
 90
       50
176
     0
 62
   256
176
     0
 40
1.0
176
     0
 90
        2
176
     0
  1
strokes_ogs.tif
176
     0
290
     0
176
     0
 40
1.0
176
     0
 40
1.0
176
     0
  0
VISUALSTYLE
  5
38
102
{ACAD_REACTORS
330
2A
102
}
330
2A
100
AcDbVisualStyle
  2
Linepattern
 70
    14
177
     3
291
     1
 70
    58
 90
        2
176
     1
 90
        2
176
     1
 90
        0
176
     1
 90
        0
176
     1
 40
0.6
176
     1
 40
30.0
176
     1
 62
     7
420
 16777215
176
     1
 90
        1
176
     1
 90
        4
176
     1
 62
     7
176
     1
 62
   257
176
     1
 90
        7
176
     1
 90
        7
176
     1
 40
1.0
176
     1
 90
        8
176
     1
 62
     7
176
     1
 40
1.0
176
     1
 90
        1
176
     1
 90
        6
176
     1
 90
        2
176
     1
 62
     7
176
     1
 90
        5
176
     1
 90
        0
176
     1
 90
        0
176
     1
290
     0
176
     1
 90
        1
176
     1
 40
0.0
176
     1
 90
        0
176
     1
290
     0
176
     1
290
     1
176
     1
290
     1
176
     1
290
     0
176
     1
290
     0
176
     1
290
     0
176
     1
290
     0
176
     1
290
     0
176
     1
290
     0
176
     1
 90
       50
176
     1
 40
0.0
176
     1
 40
1.0
176
     1
 90
        0
176
     1
 62
    18
420
        0
176
     1
 90
       50
176
     1
 90
        3
176
     1
 62
     5
420
      255
176
     1
290
     0
176
     1
 90
       50
176
     1
 90
       50
176
     1
 90
       50
176
     1
290
     0
176
     1
 90
       50
176
     1
 62
   256
176
     0
 40
1.0
176
     0
 90
        2
176
     1
  1
strokes_ogs.tif
176
     1
290
     0
176
     1
 40
1.0
176
     1
 40
1.0
176
     1
  0
VISUALSTYLE
  5
3C
102
{ACAD_REACTORS
330
2A
102
}
330
2A
100
AcDbVisualStyle
  2
OverhangOff
 70
    21
177
     3
291
     1
 70
    58
 90
        2
176
     0
 90
        2
176
     0
 90
        0
176
     0
 90
        0
176
     0
 40
0.6
176
     0
 40
30.0
176
     0
 62
     7
420
 16777215
176
     0
 90
        1
176
     0
 90
        4
176
     0
 62
     7
176
     0
 62
   257
176
     0
 90
        1
176
     0
 90
        1
176
     0
 40
1.0
176
     0
 90
        9
176
     2
 62
     7
176
     0
 40
1.0
176
     0
 90
        1
176
     0
 90
        6
176
     0
 90
        2
176
     0
 62
     7
176
     0
 90
        5
176
     0
 90
        0
176
     0
 90
        0
176
     0
290
     0
176
     0
 90
        1
176
     0
 40
0.0
176
     0
 90
        0
176
     0
290
     0
176
     0
290
     1
176
     0
290
     1
176
     0
290
     0
176
     0
290
     0
176
     0
290
     0
176
     0
290
     0
176
     0
290
     0
176
     0
290
     0
176
     0
 90
       50
176
     0
 40
0.0
176
     0
 40
1.0
176
     0
 90
        0
176
     0
 62
    18
420
        0
176
     0
 90
       50
176
     0
 90
        3
176
     0
 62
     5
420
      255
176
     0
290
     0
176
     0
 90
       50
176
     0
 90
       50
176
     0
 90
       50
176
     0
290
     0
176
     0
 90
       50
176
     0
 62
   256
176
     0
 40
1.0
176
     0
 90
        2
176
     0
  1
strokes_ogs.tif
176
     0
290
     0
176
     0
 40
1.0
176
     0
 40
1.0
176
     0
  0
VISUALSTYLE
  5
33
102
{ACAD_REACTORS
330
2A
102
}
330
2A
100
AcDbVisualStyle
  2
Realistic
 70
     8
177
     3
291
     0
 70
    58
 90
        2
176
     1
 90
        3
176
     1
 90
        0
176
     1
 90
        2
176
     1
 40
0.6
176
     1
 40
30.0
176
     1
 62
     7
420
 16777215
176
     1
 90
        0
176
     1
 90
        0
176
     1
 62
     7
176
     1
 62
   257
176
     1
 90
        1
176
     1
 90
        1
176
     1
 40
1.0
176
     1
 90
        8
176
     1
 62
   257
176
     1
 40
1.0
176
     1
 90
        1
176
     1
 90
        6
176
     1
 90
        2
176
     1
 62
     7
176
     1
 90
        3
176
     1
 90
        0
176
     1
 90
        0
176
     1
290
     0
176
     1
 90
       13
176
     1
 40
0.0
176
     1
 90
        0
176
     1
290
     0
176
     1
290
     1
176
     1
290
     1
176
     1
290
     0
176
     1
290
     0
176
     1
290
     0
176
     1
290
     0
176
     1
290
     0
176
     1
290
     0
176
     1
 90
       50
176
     1
 40
0.0
176
     1
 40
1.0
176
     1
 90
        0
176
     1
 62
    18
420
        0
176
     1
 90
       50
176
     1
 90
        3
176
     1
 62
     5
420
      255
176
     1
290
     0
176
     1
 90
       50
176
     1
 90
       50
176
     1
 90
       50
176
     1
290
     0
176
     1
 90
       50
176
     1
 62
   256
176
     0
 40
1.0
176
     0
 90
        2
176
     1
  1
strokes_ogs.tif
176
     1
290
     0
176
     1
 40
1.0
176
     1
 40
1.0
176
     1
  0
VISUALSTYLE
  5
42
102
{ACAD_REACTORS
330
2A
102
}
330
2A
100
AcDbVisualStyle
  2
Shaded
 70
    27
177
     3
291
     0
 70
    58
 90
        2
176
     1
 90
        2
176
     1
 90
        1
176
     1
 90
        2
176
     1
 40
0.6
176
     1
 40
30.0
176
     1
 62
     7
420
 16777215
176
     1
 90
        0
176
     1
 90
        4
176
     1
 62
     7
176
     1
 62
   257
176
     1
 90
        1
176
     1
 90
        1
176
     1
 40
1.0
176
     1
 90
        8
176
     1
 62
   257
176
     1
 40
1.0
176
     1
 90
        1
176
     1
 90
        6
176
     1
 90
        2
176
     1
 62
     8
420
  7895160
176
     1
 90
        3
176
     1
 90
        0
176
     1
 90
        0
176
     1
290
     0
176
     1
 90
        5
176
     1
 40
0.0
176
     1
 90
        0
176
     1
290
     0
176
     1
290
     1
176
     1
290
     1
176
     1
290
     0
176
     1
290
     0
176
     1
290
     0
176
     1
290
     0
176
     1
290
     0
176
     1
290
     0
176
     1
 90
       50
176
     1
 40
0.0
176
     1
 40
1.0
176
     1
 90
        0
176
     1
 62
    18
420
        0
176
     1
 90
       50
176
     1
 90
        3
176
     1
 62
     5
420
      255
176
     1
290
     0
176
     1
 90
       50
176
     1
 90
       50
176
     1
 90
       50
176
     1
290
     0
176
     1
 90
       50
176
     1
 62
   256
176
     0
 40
1.0
176
     0
 90
        2
176
     1
  1
strokes_ogs.tif
176
     1
290
     0
176
     1
 40
1.0
176
     1
 40
1.0
176
     1
  0
VISUALSTYLE
  5
41
102
{ACAD_REACTORS
330
2A
102
}
330
2A
100
AcDbVisualStyle
  2
Shaded with edges
 70
    26
177
     3
291
     0
 70
    58
 90
        2
176
     1
 90
        2
176
     1
 90
        1
176
     1
 90
        2
176
     1
 40
0.6
176
     1
 40
30.0
176
     1
 62
     7
420
 16777215
176
     1
 90
        1
176
     1
 90
       10
176
     1
 62
     7
176
     1
 62
   257
176
     1
 90
        2
176
     1
 90
        1
176
     1
 40
1.0
176
     1
 90
        8
176
     1
 62
   257
176
     1
 40
1.0
176
     1
 90
        1
176
     1
 90
        6
176
     1
 90
        2
176
     1
 62
     7
176
     1
 90
        3
176
     1
 90
        0
176
     1
 90
        0
176
     1
290
     0
176
     1
 90
        5
176
     1
 40
0.0
176
     1
 90
        0
176
     1
290
     0
176
     1
290
     1
176
     1
290
     1
176
     1
290
     0
176
     1
290
     0
176
     1
290
     0
176
     1
290
     0
176
     1
290
     0
176
     1
290
     0
176
     1
 90
       50
176
     1
 40
0.0
176
     1
 40
1.0
176
     1
 90
        0
176
     1
 62
    18
420
        0
176
     1
 90
       50
176
     1
 90
        3
176
     1
 62
     5
420
      255
176
     1
290
     0
176
     1
 90
       50
176
     1
 90
       50
176
     1
 90
       50
176
     1
290
     0
176
     1
 90
       50
176
     1
 62
   256
176
     0
 40
1.0
176
     0
 90
        2
176
     1
  1
strokes_ogs.tif
176
     1
290
     0
176
     1
 40
1.0
176
     1
 40
1.0
176
     1
  0
VISUALSTYLE
  5
3E
102
{ACAD_REACTORS
330
2A
102
}
330
2A
100
AcDbVisualStyle
  2
Shades of Gray
 70
    23
177
     3
291
     0
 70
    58
 90
        2
176
     1
 90
        2
176
     1
 90
        3
176
     1
 90
        0
176
     1
 40
0.6
176
     1
 40
30.0
176
     1
 62
     7
420
 16777215
176
     1
 90
        2
176
     1
 90
        2
176
     1
 62
     7
176
     1
 62
     7
176
     1
 90
        1
176
     1
 90
        1
176
     1
 40
40.0
176
     1
 90
        8
176
     1
 62
     7
176
     1
 40
1.0
176
     1
 90
        1
176
     1
 90
        6
176
     1
 90
        2
176
     1
 62
     7
176
     1
 90
        3
176
     1
 90
        0
176
     1
 90
        0
176
     1
290
     0
176
     1
 90
        1
176
     1
 40
0.0
176
     1
 90
        0
176
     1
290
     0
176
     1
290
     1
176
     1
290
     1
176
     1
290
     0
176
     1
290
     0
176
     1
290
     0
176
     1
290
     0
176
     1
290
     0
176
     1
290
     0
176
     1
 90
       50
176
     1
 40
0.0
176
     1
 40
1.0
176
     1
 90
        0
176
     1
 62
    18
420
        0
176
     1
 90
       50
176
     1
 90
        3
176
     1
 62
     5
420
      255
176
     1
290
     0
176
     1
 90
       50
176
     1
 90
       50
176
     1
 90
       50
176
     1
290
     0
176
     1
 90
       50
176
     1
 62
   256
176
     0
 40
1.0
176
     0
 90
        2
176
     1
  1
strokes_ogs.tif
176
     1
290
     0
176
     1
 40
1.0
176
     1
 40
1.0
176
     1
  0
VISUALSTYLE
  5
3F
102
{ACAD_REACTORS
330
2A
102
}
330
2A
100
AcDbVisualStyle
  2
Sketchy
 70
    24
177
     3
291
     0
 70
    58
 90
        1
176
     1
 90
        2
176
     1
 90
        2
176
     1
 90
        0
176
     1
 40
0.6
176
     1
 40
30.0
176
     1
 62
     7
420
 16777215
176
     1
 90
        2
176
     1
 90
        2
176
     1
 62
     7
176
     1
 62
     7
176
     1
 90
        1
176
     1
 90
        1
176
     1
 40
40.0
176
     1
 90
       11
176
     1
 62
     7
176
     1
 40
1.0
176
     1
 90
        1
176
     1
 90
        6
176
     1
 90
        2
176
     1
 62
     7
176
     1
 90
        6
176
     1
 90
        0
176
     1
 90
        0
176
     1
290
     0
176
     1
 90
        1
176
     1
 40
0.0
176
     1
 90
        0
176
     1
290
     0
176
     1
290
     1
176
     1
290
     1
176
     1
290
     0
176
     1
290
     0
176
     1
290
     0
176
     1
290
     0
176
     1
290
     0
176
     1
290
     0
176
     1
 90
       50
176
     1
 40
0.0
176
     1
 40
1.0
176
     1
 90
        0
176
     1
 62
    18
420
        0
176
     1
 90
       50
176
     1
 90
        3
176
     1
 62
     5
420
      255
176
     1
290
     0
176
     1
 90
       50
176
     1
 90
       50
176
     1
 90
       50
176
     1
290
     0
176
     1
 90
       50
176
     1
 62
   256
176
     0
 40
1.0
176
     0
 90
        2
176
     1
  1
strokes_ogs.tif
176
     1
290
     0
176
     1
 40
1.0
176
     1
 40
1.0
176
     1
  0
VISUALSTYLE
  5
37
102
{ACAD_REACTORS
330
2A
102
}
330
2A
100
AcDbVisualStyle
  2
Thicken
 70
    13
177
     3
291
     1
 70
    58
 90
        2
176
     1
 90
        2
176
     1
 90
        0
176
     1
 90
        0
176
     1
 40
0.6
176
     1
 40
30.0
176
     1
 62
     7
420
 16777215
176
     1
 90
        1
176
     1
 90
        4
176
     1
 62
     7
176
     1
 62
   257
176
     1
 90
        1
176
     1
 90
        1
176
     1
 40
1.0
176
     1
 90
       12
176
     1
 62
     7
176
     1
 40
1.0
176
     1
 90
        1
176
     1
 90
        6
176
     1
 90
        2
176
     1
 62
     7
176
     1
 90
        5
176
     1
 90
        0
176
     1
 90
        0
176
     1
290
     0
176
     1
 90
        1
176
     1
 40
0.0
176
     1
 90
        0
176
     1
290
     0
176
     1
290
     1
176
     1
290
     1
176
     1
290
     0
176
     1
290
     0
176
     1
290
     0
176
     1
290
     0
176
     1
290
     0
176
     1
290
     0
176
     1
 90
       50
176
     1
 40
0.0
176
     1
 40
1.0
176
     1
 90
        0
176
     1
 62
    18
420
        0
176
     1
 90
       50
176
     1
 90
        3
176
     1
 62
     5
420
      255
176
     1
290
     0
176
     1
 90
       50
176
     1
 90
       50
176
     1
 90
       50
176
     1
290
     0
176
     1
 90
       50
176
     1
 62
   256
176
     0
 40
1.0
176
     0
 90
        2
176
     1
  1
strokes_ogs.tif
176
     1
290
     0
176
     1
 40
1.0
176
     1
 40
1.0
176
     1
  0
VISUALSTYLE
  5
30
102
{ACAD_REACTORS
330
2A
102
}
330
2A
100
AcDbVisualStyle
  2
Wireframe
 70
     5
177
     3
291
     0
 70
    58
 90
        0
176
     1
 90
        2
176
     1
 90
        0
176
     1
 90
        0
176
     1
 40
0.6
176
     1
 40
30.0
176
     1
 62
     7
420
 16777215
176
     1
 90
        1
176
     1
 90
        4
176
     1
 62
     7
176
     1
 62
   257
176
     1
 90
        1
176
     1
 90
        1
176
     1
 40
1.0
176
     1
 90
        0
176
     1
 62
   257
176
     1
 40
1.0
176
     1
 90
        1
176
     1
 90
        6
176
     1
 90
        2
176
     1
 62
     7
176
     1
 90
        3
176
     1
 90
        0
176
     1
 90
        0
176
     1
290
     0
176
     1
 90
        1
176
     1
 40
0.0
176
     1
 90
        0
176
     1
290
     0
176
     1
290
     1
176
     1
290
     1
176
     1
290
     0
176
     1
290
     0
176
     1
290
     0
176
     1
290
     0
176
     1
290
     0
176
     1
290
     0
176
     1
 90
       50
176
     1
 40
0.0
176
     1
 40
1.0
176
     1
 90
        0
176
     1
 62
    18
420
        0
176
     1
 90
       50
176
     1
 90
        3
176
     1
 62
     5
420
      255
176
     1
290
     0
176
     1
 90
       50
176
     1
 90
       50
176
     1
 90
       50
176
     1
290
     0
176
     1
 90
       50
176
     1
 62
   256
176
     0
 40
1.0
176
     0
 90
        2
176
     1
  1
strokes_ogs.tif
176
     1
290
     0
176
     1
 40
1.0
176
     1
 40
1.0
176
     1
  0
VISUALSTYLE
  5
40
102
{ACAD_REACTORS
330
2A
102
}
330
2A
100
AcDbVisualStyle
  2
X-Ray
 70
    25
177
     3
291
     0
 70
    58
 90
        2
176
     1
 90
        2
176
     1
 90
        1
176
     1
 90
        1
176
     1
 40
0.5
176
     1
 40
30.0
176
     1
 62
     7
420
 16777215
176
     1
 90
        1
176
     1
 90
        0
176
     1
 62
     7
176
     1
 62
   257
176
     1
 90
        1
176
     1
 90
        1
176
     1
 40
1.0
176
     1
 90
        8
176
     1
 62
     7
176
     1
 40
1.0
176
     1
 90
        1
176
     1
 90
        6
176
     1
 90
        2
176
     1
 62
     7
176
     1
 90
        3
176
     1
 90
        0
176
     1
 90
        0
176
     1
290
     0
176
     1
 90
       13
176
     1
 40
0.0
176
     1
 90
        0
176
     1
290
     0
176
     1
290
     1
176
     1
290
     1
176
     1
290
     0
176
     1
290
     0
176
     1
290
     0
176
     1
290
     0
176
     1
290
     0
176
     1
290
     0
176
     1
 90
       50
176
     1
 40
0.0
176
     1
 40
1.0
176
     1
 90
        0
176
     1
 62
    18
420
        0
176
     1
 90
       50
176
     1
 90
        3
176
     1
 62
     5
420
      255
176
     1
290
     0
176
     1
 90
       50
176
     1
 90
       50
176
     1
 90
       50
176
     1
290
     0
176
     1
 90
       50
176
     1
 62
   256
176
     0
 40
1.0
176
     0
 90
        2
176
     1
  1
strokes_ogs.tif
176
     1
290
     0
176
     1
 40
1.0
176
     1
 40
1.0
176
     1
  0
DICTIONARYVAR
  5
341
102
{ACAD_REACTORS
330
340
102
}
330
340
100
DictionaryVariables
280
     0
  1
1:1
  0
DICTIONARYVAR
  5
34A
102
{ACAD_REACTORS
330
340
102
}
330
340
100
DictionaryVariables
280
     0
  1
3.500000
  0
DICTIONARYVAR
  5
34B
102
{ACAD_REACTORS
330
340
102
}
330
340
100
DictionaryVariables
280
     0
  1
acadiso.lin
  0
DICTIONARYVAR
  5
346
102
{ACAD_REACTORS
330
340
102
}
330
340
100
DictionaryVariables
280
     0
  1
Standard
  0
DICTIONARYVAR
  5
345
102
{ACAD_REACTORS
330
340
102
}
330
340
100
DictionaryVariables
280
     0
  1
Standard
  0
DICTIONARYVAR
  5
349
102
{ACAD_REACTORS
330
340
102
}
330
340
100
DictionaryVariables
280
     0
  1
0
  0
DICTIONARY
  5
342
330
5A
100
AcDbDictionary
280
     1
281
     1
  3
ACAD_ROUNDTRIP_2008_TABLESTYLE_CELLSTYLEMAP
360
343
  0
CELLSTYLEMAP
  5
343
102
{ACAD_REACTORS
330
342
102
}
330
342
100
AcDbCellStyleMap
 90
        3
300
CELLSTYLE
  1
TABLEFORMAT_BEGIN
 90
        5
170
     1
 91
        0
 92
    32768
 62
   257
 93
        1
300
CONTENTFORMAT
  1
CONTENTFORMAT_BEGIN
 90
        0
 91
        0
 92
        4
 93
        0
300

 40
0.0
140
1.0
 94
        5
 62
     0
340
11
144
6.0
309
CONTENTFORMAT_END
171
     1
301
MARGIN
  1
CELLMARGIN_BEGIN
 40
1.5
 40
1.5
 40
1.5
 40
1.5
 40
1.5
 40
1.5
309
CELLMARGIN_END
 94
        6
 95
        1
302
GRIDFORMAT
  1
GRIDFORMAT_BEGIN
 90
        0
 91
        1
 62
     0
 92
       -2
340
14
 93
        0
 40
0.045
309
GRIDFORMAT_END
 95
        2
302
GRIDFORMAT
  1
GRIDFORMAT_BEGIN
 90
        0
 91
        1
 62
     0
 92
       -2
340
14
 93
        0
 40
0.045
309
GRIDFORMAT_END
 95
        4
302
GRIDFORMAT
  1
GRIDFORMAT_BEGIN
 90
        0
 91
        1
 62
     0
 92
       -2
340
14
 93
        0
 40
0.045
309
GRIDFORMAT_END
 95
        8
302
GRIDFORMAT
  1
GRIDFORMAT_BEGIN
 90
        0
 91
        1
 62
     0
 92
       -2
340
14
 93
        0
 40
0.045
309
GRIDFORMAT_END
 95
       16
302
GRIDFORMAT
  1
GRIDFORMAT_BEGIN
 90
        0
 91
        1
 62
     0
 92
       -2
340
14
 93
        0
 40
0.045
309
GRIDFORMAT_END
 95
       32
302
GRIDFORMAT
  1
GRIDFORMAT_BEGIN
 90
        0
 91
        1
 62
     0
 92
       -2
340
14
 93
        0
 40
0.045
309
GRIDFORMAT_END
309
TABLEFORMAT_END
  1
CELLSTYLE_BEGIN
 90
        1
 91
        1
300
_TITLE
309
CELLSTYLE_END
300
CELLSTYLE
  1
TABLEFORMAT_BEGIN
 90
        5
170
     1
 91
        0
 92
        0
 62
   257
 93
        1
300
CONTENTFORMAT
  1
CONTENTFORMAT_BEGIN
 90
        0
 91
        0
 92
        4
 93
        0
300

 40
0.0
140
1.0
 94
        5
 62
     0
340
11
144
4.5
309
CONTENTFORMAT_END
171
     1
301
MARGIN
  1
CELLMARGIN_BEGIN
 40
1.5
 40
1.5
 40
1.5
 40
1.5
 40
1.5
 40
1.5
309
CELLMARGIN_END
 94
        6
 95
        1
302
GRIDFORMAT
  1
GRIDFORMAT_BEGIN
 90
        0
 91
        1
 62
     0
 92
       -2
340
14
 93
        0
 40
0.045
309
GRIDFORMAT_END
 95
        2
302
GRIDFORMAT
  1
GRIDFORMAT_BEGIN
 90
        0
 91
        1
 62
     0
 92
       -2
340
14
 93
        0
 40
0.045
309
GRIDFORMAT_END
 95
        4
302
GRIDFORMAT
  1
GRIDFORMAT_BEGIN
 90
        0
 91
        1
 62
     0
 92
       -2
340
14
 93
        0
 40
0.045
309
GRIDFORMAT_END
 95
        8
302
GRIDFORMAT
  1
GRIDFORMAT_BEGIN
 90
        0
 91
        1
 62
     0
 92
       -2
340
14
 93
        0
 40
0.045
309
GRIDFORMAT_END
 95
       16
302
GRIDFORMAT
  1
GRIDFORMAT_BEGIN
 90
        0
 91
        1
 62
     0
 92
       -2
340
14
 93
        0
 40
0.045
309
GRIDFORMAT_END
 95
       32
302
GRIDFORMAT
  1
GRIDFORMAT_BEGIN
 90
        0
 91
        1
 62
     0
 92
       -2
340
14
 93
        0
 40
0.045
309
GRIDFORMAT_END
309
TABLEFORMAT_END
  1
CELLSTYLE_BEGIN
 90
        2
 91
        1
300
_HEADER
309
CELLSTYLE_END
300
CELLSTYLE
  1
TABLEFORMAT_BEGIN
 90
        5
170
     1
 91
        0
 92
        0
 62
   257
 93
        1
300
CONTENTFORMAT
  1
CONTENTFORMAT_BEGIN
 90
        0
 91
        0
 92
        4
 93
        0
300

 40
0.0
140
1.0
 94
        2
 62
     0
340
11
144
4.5
309
CONTENTFORMAT_END
171
     1
301
MARGIN
  1
CELLMARGIN_BEGIN
 40
1.5
 40
1.5
 40
1.5
 40
1.5
 40
1.5
 40
1.5
309
CELLMARGIN_END
 94
        6
 95
        1
302
GRIDFORMAT
  1
GRIDFORMAT_BEGIN
 90
        0
 91
        1
 62
     0
 92
       -2
340
14
 93
        0
 40
0.045
309
GRIDFORMAT_END
 95
        2
302
GRIDFORMAT
  1
GRIDFORMAT_BEGIN
 90
        0
 91
        1
 62
     0
 92
       -2
340
14
 93
        0
 40
0.045
309
GRIDFORMAT_END
 95
        4
302
GRIDFORMAT
  1
GRIDFORMAT_BEGIN
 90
        0
 91
        1
 62
     0
 92
       -2
340
14
 93
        0
 40
0.045
309
GRIDFORMAT_END
 95
        8
302
GRIDFORMAT
  1
GRIDFORMAT_BEGIN
 90
        0
 91
        1
 62
     0
 92
       -2
340
14
 93
        0
 40
0.045
309
GRIDFORMAT_END
 95
       16
302
GRIDFORMAT
  1
GRIDFORMAT_BEGIN
 90
        0
 91
        1
 62
     0
 92
       -2
340
14
 93
        0
 40
0.045
309
GRIDFORMAT_END
 95
       32
302
GRIDFORMAT
  1
GRIDFORMAT_BEGIN
 90
        0
 91
        1
 62
     0
 92
       -2
340
14
 93
        0
 40
0.045
309
GRIDFORMAT_END
309
TABLEFORMAT_END
  1
CELLSTYLE_BEGIN
 90
        3
 91
        2
300
_DATA
309
CELLSTYLE_END
  0
ENDSEC
  0
EOF
