  0
SECTION
  2
HEADER
  9
$ACADVER
  1
AC1027
  9
$ACADMAINTVER
 70
   105
  9
$DWGCODEPAGE
  3
ANSI_1252
  9
$LASTSAVEDBY
  1
mezergues
  9
$REQUIREDVERSIONS
160
                 0
  9
$INSBASE
 10
0.0
 20
0.0
 30
0.0
  9
$EXTMIN
 10
40816.40509298422
 20
-10009.76953189872
 30
0.0
  9
$EXTMAX
 10
58809.49529936429
 20
-6487.599331055761
 30
2500.0
  9
$LIMMIN
 10
0.0
 20
0.0
  9
$LIMMAX
 10
420.0
 20
297.0
  9
$ORTHOMODE
 70
     0
  9
$REGENMODE
 70
     1
  9
$FILLMODE
 70
     1
  9
$QTEXTMODE
 70
     0
  9
$MIRRTEXT
 70
     1
  9
$LTSCALE
 40
5.0
  9
$ATTMODE
 70
     1
  9
$TEXTSIZE
 40
2.5
  9
$TRACEWID
 40
1.0
  9
$TEXTSTYLE
  7
Standard
  9
$CLAYER
  8
0
  9
$CELTYPE
  6
Continuous
  9
$CECOLOR
 62
   256
  9
$CELTSCALE
 40
1.0
  9
$DISPSILH
 70
     0
  9
$DIMSCALE
 40
1.0
  9
$DIMASZ
 40
2.5
  9
$DIMEXO
 40
0.625
  9
$DIMDLI
 40
3.75
  9
$DIMRND
 40
0.0
  9
$DIMDLE
 40
0.0
  9
$DIMEXE
 40
1.25
  9
$DIMTP
 40
0.0
  9
$DIMTM
 40
0.0
  9
$DIMTXT
 40
2.5
  9
$DIMCEN
 40
2.5
  9
$DIMTSZ
 40
0.0
  9
$DIMTOL
 70
     0
  9
$DIMLIM
 70
     0
  9
$DIMTIH
 70
     0
  9
$DIMTOH
 70
     0
  9
$DIMSE1
 70
     0
  9
$DIMSE2
 70
     0
  9
$DIMTAD
 70
     1
  9
$DIMZIN
 70
     8
  9
$DIMBLK
  1

  9
$DIMASO
 70
     1
  9
$DIMSHO
 70
     1
  9
$DIMPOST
  1

  9
$DIMAPOST
  1

  9
$DIMALT
 70
     0
  9
$DIMALTD
 70
     3
  9
$DIMALTF
 40
0.03937007874016
  9
$DIMLFAC
 40
1.0
  9
$DIMTOFL
 70
     1
  9
$DIMTVP
 40
0.0
  9
$DIMTIX
 70
     0
  9
$DIMSOXD
 70
     1
  9
$DIMSAH
 70
     0
  9
$DIMBLK1
  1

  9
$DIMBLK2
  1

  9
$DIMSTYLE
  2
ISO-25
  9
$DIMCLRD
 70
     0
  9
$DIMCLRE
 70
     0
  9
$DIMCLRT
 70
     0
  9
$DIMTFAC
 40
1.0
  9
$DIMGAP
 40
0.625
  9
$DIMJUST
 70
     0
  9
$DIMSD1
 70
     0
  9
$DIMSD2
 70
     0
  9
$DIMTOLJ
 70
     0
  9
$DIMTZIN
 70
     8
  9
$DIMALTZ
 70
     0
  9
$DIMALTTZ
 70
     0
  9
$DIMUPT
 70
     0
  9
$DIMDEC
 70
     2
  9
$DIMTDEC
 70
     2
  9
$DIMALTU
 70
     2
  9
$DIMALTTD
 70
     3
  9
$DIMTXSTY
  7
Standard
  9
$DIMAUNIT
 70
     0
  9
$DIMADEC
 70
     0
  9
$DIMALTRND
 40
0.0
  9
$DIMAZIN
 70
     0
  9
$DIMDSEP
 70
    44
  9
$DIMATFIT
 70
     3
  9
$DIMFRAC
 70
     0
  9
$DIMLDRBLK
  1

  9
$DIMLUNIT
 70
     2
  9
$DIMLWD
 70
    -2
  9
$DIMLWE
 70
    -2
  9
$DIMTMOVE
 70
     2
  9
$DIMFXL
 40
1.0
  9
$DIMFXLON
 70
     0
  9
$DIMJOGANG
 40
0.7853981633974483
  9
$DIMTFILL
 70
     0
  9
$DIMTFILLCLR
 70
     0
  9
$DIMARCSYM
 70
     0
  9
$DIMLTYPE
  6

  9
$DIMLTEX1
  6

  9
$DIMLTEX2
  6

  9
$DIMTXTDIRECTION
 70
     0
  9
$LUNITS
 70
     2
  9
$LUPREC
 70
     4
  9
$SKETCHINC
 40
1.0
  9
$FILLETRAD
 40
0.0
  9
$AUNITS
 70
     0
  9
$AUPREC
 70
     0
  9
$MENU
  1
.
  9
$ELEVATION
 40
0.0
  9
$PELEVATION
 40
0.0
  9
$THICKNESS
 40
0.0
  9
$LIMCHECK
 70
     0
  9
$CHAMFERA
 40
0.0
  9
$CHAMFERB
 40
0.0
  9
$CHAMFERC
 40
0.0
  9
$CHAMFERD
 40
0.0
  9
$SKPOLY
 70
     0
  9
$TDCREATE
 40
2459986.465370243
  9
$TDUCREATE
 40
2459986.423703576
  9
$TDUPDATE
 40
2459986.465373148
  9
$TDUUPDATE
 40
2459986.423706482
  9
$TDINDWG
 40
0.0000000116
  9
$TDUSRTIMER
 40
0.0000000116
  9
$USRTIMER
 70
     1
  9
$ANGBASE
 50
0.0
  9
$ANGDIR
 70
     0
  9
$PDMODE
 70
     0
  9
$PDSIZE
 40
0.0
  9
$PLINEWID
 40
0.0
  9
$SPLFRAME
 70
     0
  9
$SPLINETYPE
 70
     6
  9
$SPLINESEGS
 70
     8
  9
$HANDSEED
  5
399
  9
$SURFTAB1
 70
     6
  9
$SURFTAB2
 70
     6
  9
$SURFTYPE
 70
     6
  9
$SURFU
 70
     6
  9
$SURFV
 70
     6
  9
$UCSBASE
  2

  9
$UCSNAME
  2

  9
$UCSORG
 10
0.0
 20
0.0
 30
0.0
  9
$UCSXDIR
 10
1.0
 20
0.0
 30
0.0
  9
$UCSYDIR
 10
0.0
 20
1.0
 30
0.0
  9
$UCSORTHOREF
  2

  9
$UCSORTHOVIEW
 70
     0
  9
$UCSORGTOP
 10
0.0
 20
0.0
 30
0.0
  9
$UCSORGBOTTOM
 10
0.0
 20
0.0
 30
0.0
  9
$UCSORGLEFT
 10
0.0
 20
0.0
 30
0.0
  9
$UCSORGRIGHT
 10
0.0
 20
0.0
 30
0.0
  9
$UCSORGFRONT
 10
0.0
 20
0.0
 30
0.0
  9
$UCSORGBACK
 10
0.0
 20
0.0
 30
0.0
  9
$PUCSBASE
  2

  9
$PUCSNAME
  2

  9
$PUCSORG
 10
0.0
 20
0.0
 30
0.0
  9
$PUCSXDIR
 10
1.0
 20
0.0
 30
0.0
  9
$PUCSYDIR
 10
0.0
 20
1.0
 30
0.0
  9
$PUCSORTHOREF
  2

  9
$PUCSORTHOVIEW
 70
     0
  9
$PUCSORGTOP
 10
0.0
 20
0.0
 30
0.0
  9
$PUCSORGBOTTOM
 10
0.0
 20
0.0
 30
0.0
  9
$PUCSORGLEFT
 10
0.0
 20
0.0
 30
0.0
  9
$PUCSORGRIGHT
 10
0.0
 20
0.0
 30
0.0
  9
$PUCSORGFRONT
 10
0.0
 20
0.0
 30
0.0
  9
$PUCSORGBACK
 10
0.0
 20
0.0
 30
0.0
  9
$USERI1
 70
     0
  9
$USERI2
 70
     0
  9
$USERI3
 70
     0
  9
$USERI4
 70
     0
  9
$USERI5
 70
     0
  9
$USERR1
 40
0.0
  9
$USERR2
 40
0.0
  9
$USERR3
 40
0.0
  9
$USERR4
 40
0.0
  9
$USERR5
 40
0.0
  9
$WORLDVIEW
 70
     1
  9
$SHADEDGE
 70
     3
  9
$SHADEDIF
 70
    70
  9
$TILEMODE
 70
     1
  9
$MAXACTVP
 70
    64
  9
$PINSBASE
 10
0.0
 20
0.0
 30
0.0
  9
$PLIMCHECK
 70
     0
  9
$PEXTMIN
 10
-5.730400000000003
 20
-7.876400000000018
 30
0.0
  9
$PEXTMAX
 10
203.3304
 20
279.4764
 30
0.0
  9
$PLIMMIN
 10
-20.0
 20
-7.5
  9
$PLIMMAX
 10
277.0
 20
202.5
  9
$UNITMODE
 70
     0
  9
$VISRETAIN
 70
     1
  9
$PLINEGEN
 70
     0
  9
$PSLTSCALE
 70
     0
  9
$TREEDEPTH
 70
  3020
  9
$CMLSTYLE
  2
Standard
  9
$CMLJUST
 70
     0
  9
$CMLSCALE
 40
20.0
  9
$PROXYGRAPHICS
 70
     1
  9
$MEASUREMENT
 70
     1
  9
$CELWEIGHT
370
    -1
  9
$ENDCAPS
280
     0
  9
$JOINSTYLE
280
     0
  9
$LWDISPLAY
290
     0
  9
$INSUNITS
 70
     4
  9
$HYPERLINKBASE
  1

  9
$STYLESHEET
  1

  9
$XEDIT
290
     1
  9
$CEPSNTYPE
380
     3
  9
$CEPSNID
390
5F
  9
$PSTYLEMODE
290
     0
  9
$FINGERPRINTGUID
  2
{78fff24b-46bb-4576-8154-29e33157e221}
  9
$VERSIONGUID
  2
{FAEB1C32-E019-11D5-929B-00C0DF256EC4}
  9
$EXTNAMES
290
     1
  9
$PSVPSCALE
 40
0.0
  9
$OLESTARTUP
290
     0
  9
$SORTENTS
280
   127
  9
$INDEXCTL
280
     0
  9
$HIDETEXT
280
     1
  9
$XCLIPFRAME
280
     2
  9
$HALOGAP
280
     0
  9
$OBSCOLOR
 70
   257
  9
$OBSLTYPE
280
     0
  9
$INTERSECTIONDISPLAY
280
     0
  9
$INTERSECTIONCOLOR
 70
   257
  9
$DIMASSOC
280
     2
  9
$PROJECTNAME
  1

  9
$CAMERADISPLAY
290
     0
  9
$LENSLENGTH
 40
50.0
  9
$CAMERAHEIGHT
 40
0.0
  9
$STEPSPERSEC
 40
2.0
  9
$STEPSIZE
 40
6.0
  9
$3DDWFPREC
 40
2.0
  9
$PSOLWIDTH
 40
5.0
  9
$PSOLHEIGHT
 40
80.0
  9
$LOFTANG1
 40
1.570796326794897
  9
$LOFTANG2
 40
1.570796326794897
  9
$LOFTMAG1
 40
0.0
  9
$LOFTMAG2
 40
0.0
  9
$LOFTPARAM
 70
     7
  9
$LOFTNORMALS
280
     1
  9
$LATITUDE
 40
37.795
  9
$LONGITUDE
 40
-122.394
  9
$NORTHDIRECTION
 40
0.0
  9
$TIMEZONE
 70
 -8000
  9
$LIGHTGLYPHDISPLAY
280
     1
  9
$TILEMODELIGHTSYNCH
280
     1
  9
$CMATERIAL
347
44
  9
$SOLIDHIST
280
     0
  9
$SHOWHIST
280
     1
  9
$DWFFRAME
280
     2
  9
$DGNFRAME
280
     2
  9
$REALWORLDSCALE
290
     1
  9
$INTERFERECOLOR
 62
   256
  9
$CSHADOW
280
     0
  9
$SHADOWPLANELOCATION
 40
0.0
  0
ENDSEC
  0
SECTION
  2
CLASSES
  0
CLASS
  1
ACDBDICTIONARYWDFLT
  2
AcDbDictionaryWithDefault
  3
ObjectDBX Classes
 90
        0
 91
        3
280
     0
281
     0
  0
CLASS
  1
VISUALSTYLE
  2
AcDbVisualStyle
  3
ObjectDBX Classes
 90
     4095
 91
        3
280
     0
281
     0
  0
CLASS
  1
MATERIAL
  2
AcDbMaterial
  3
ObjectDBX Classes
 90
     1153
 91
        3
280
     0
281
     0
  0
CLASS
  1
SCALE
  2
AcDbScale
  3
ObjectDBX Classes
 90
     1153
 91
        3
280
     0
281
     0
  0
CLASS
  1
TABLESTYLE
  2
AcDbTableStyle
  3
ObjectDBX Classes
 90
     4095
 91
        3
280
     0
281
     0
  0
CLASS
  1
MLEADERSTYLE
  2
AcDbMLeaderStyle
  3
ACDB_MLEADERSTYLE_CLASS
 90
     4095
 91
        3
280
     0
281
     0
  0
CLASS
  1
SUN
  2
AcDbSun
  3
SCENEOE
 90
     1153
 91
        3
280
     0
281
     0
  0
CLASS
  1
RASTERVARIABLES
  2
AcDbRasterVariables
  3
ISM
 90
        0
 91
        3
280
     0
281
     0
  0
CLASS
  1
WIPEOUTVARIABLES
  2
AcDbWipeoutVariables
  3
WipeOut|AutoCAD Express Tool|expresstools@autodesk.com
 90
        0
 91
        3
280
     0
281
     0
  0
CLASS
  1
PLOTSETTINGS
  2
AcDbPlotSettings
  3
ObjectDBX Classes
 90
        0
 91
        3
280
     0
281
     0
  0
CLASS
  1
DICTIONARYVAR
  2
AcDbDictionaryVar
  3
ObjectDBX Classes
 90
        0
 91
        3
280
     0
281
     0
  0
CLASS
  1
CELLSTYLEMAP
  2
AcDbCellStyleMap
  3
ObjectDBX Classes
 90
     1152
 91
        3
280
     0
281
     0
  0
ENDSEC
  0
SECTION
  2
TABLES
  0
TABLE
  2
VPORT
  5
8
330
0
100
AcDbSymbolTable
 70
     1
  0
VPORT
  5
29
330
8
100
AcDbSymbolTableRecord
100
AcDbViewportTableRecord
  2
*Active
 70
     0
 10
0.0
 20
0.0
 11
1.0
 21
1.0
 12
49812.95019617426
 22
-8248.684431477239
 13
0.0
 23
0.0
 14
10.0
 24
10.0
 15
10.0
 25
10.0
 16
0.0
 26
0.0
 36
1.0
 17
0.0
 27
0.0
 37
0.0
 40
3592.613604859816
 41
5.10852377380111
 42
50.0
 43
0.0
 44
0.0
 50
0.0
 51
0.0
 71
     0
 72
   100
 73
     1
 74
     3
 75
     0
 76
     0
 77
     0
 78
     0
281
     0
 65
     1
110
0.0
120
0.0
130
0.0
111
1.0
121
0.0
131
0.0
112
0.0
122
1.0
132
0.0
 79
     0
146
0.0
348
2F
 60
     3
 61
     5
292
     1
282
     1
141
0.0
142
0.0
 63
   250
361
5D
  0
ENDTAB
  0
TABLE
  2
LTYPE
  5
5
330
0
100
AcDbSymbolTable
 70
     4
  0
LTYPE
  5
14
330
5
100
AcDbSymbolTableRecord
100
AcDbLinetypeTableRecord
  2
ByBlock
 70
     0
  3

 72
    65
 73
     0
 40
0.0
  0
LTYPE
  5
15
330
5
100
AcDbSymbolTableRecord
100
AcDbLinetypeTableRecord
  2
ByLayer
 70
     0
  3

 72
    65
 73
     0
 40
0.0
  0
LTYPE
  5
16
330
5
100
AcDbSymbolTableRecord
100
AcDbLinetypeTableRecord
  2
Continuous
 70
     0
  3
Solid line
 72
    65
 73
     0
 40
0.0
  0
LTYPE
  5
174
330
5
100
AcDbSymbolTableRecord
100
AcDbLinetypeTableRecord
  2
CADWORK_3
 70
     0
  3

 72
    65
 73
     2
 40
4.0
 49
2.0
 74
     0
 49
-2.0
 74
     0
  0
LTYPE
  5
27F
330
5
100
AcDbSymbolTableRecord
100
AcDbLinetypeTableRecord
  2
CADWORK_12
 70
     0
  3

 72
    65
 73
     2
 40
3.75
 49
2.5
 74
     0
 49
-1.25
 74
     0
  0
LTYPE
  5
290
330
5
100
AcDbSymbolTableRecord
100
AcDbLinetypeTableRecord
  2
CADWORK_22
 70
     0
  3

 72
    65
 73
     0
 40
0.0
  0
ENDTAB
  0
TABLE
  2
LAYER
  5
2
330
0
100
AcDbSymbolTable
 70
    18
  0
LAYER
  5
10
330
2
100
AcDbSymbolTableRecord
100
AcDbLayerTableRecord
  2
0
 70
     0
 62
     7
  6
Continuous
370
    -3
390
F
347
46
348
0
  0
LAYER
  5
67
330
2
100
AcDbSymbolTableRecord
100
AcDbLayerTableRecord
  2
Standard
 70
     0
 62
     7
  6
Continuous
370
    -3
390
F
347
46
348
0
  0
LAYER
  5
68
330
2
100
AcDbSymbolTableRecord
100
AcDbLayerTableRecord
  2
Ech.1_1
 70
     0
 62
     7
  6
Continuous
370
    -3
390
F
347
46
348
0
  0
LAYER
  5
69
330
2
100
AcDbSymbolTableRecord
100
AcDbLayerTableRecord
  2
Ech.1_2
 70
     0
 62
     7
  6
Continuous
370
    -3
390
F
347
46
348
0
  0
LAYER
  5
6A
330
2
100
AcDbSymbolTableRecord
100
AcDbLayerTableRecord
  2
Ech.1_5
 70
     0
 62
     7
  6
Continuous
370
    -3
390
F
347
46
348
0
  0
LAYER
  5
6B
330
2
100
AcDbSymbolTableRecord
100
AcDbLayerTableRecord
  2
Ech.1_10
 70
     0
 62
     7
  6
Continuous
370
    -3
390
F
347
46
348
0
  0
LAYER
  5
6C
330
2
100
AcDbSymbolTableRecord
100
AcDbLayerTableRecord
  2
Ech.1_20
 70
     0
 62
     7
  6
Continuous
370
    -3
390
F
347
46
348
0
  0
LAYER
  5
6D
330
2
100
AcDbSymbolTableRecord
100
AcDbLayerTableRecord
  2
Ech.1_25
 70
     0
 62
     7
  6
Continuous
370
    -3
390
F
347
46
348
0
  0
LAYER
  5
6E
330
2
100
AcDbSymbolTableRecord
100
AcDbLayerTableRecord
  2
Ech.1_33
 70
     0
 62
     7
  6
Continuous
370
    -3
390
F
347
46
348
0
  0
LAYER
  5
6F
330
2
100
AcDbSymbolTableRecord
100
AcDbLayerTableRecord
  2
Ech.1_50
 70
     0
 62
     7
  6
Continuous
370
    -3
390
F
347
46
348
0
  0
LAYER
  5
70
330
2
100
AcDbSymbolTableRecord
100
AcDbLayerTableRecord
  2
Ech.1_75
 70
     0
 62
     7
  6
Continuous
370
    -3
390
F
347
46
348
0
  0
LAYER
  5
71
330
2
100
AcDbSymbolTableRecord
100
AcDbLayerTableRecord
  2
Ech.1_100
 70
     0
 62
     7
  6
Continuous
370
    -3
390
F
347
46
348
0
  0
LAYER
  5
72
330
2
100
AcDbSymbolTableRecord
100
AcDbLayerTableRecord
  2
Ech.1_200
 70
     0
 62
     7
  6
Continuous
370
    -3
390
F
347
46
348
0
  0
LAYER
  5
73
330
2
100
AcDbSymbolTableRecord
100
AcDbLayerTableRecord
  2
Ech.1_500
 70
     0
 62
     7
  6
Continuous
370
    -3
390
F
347
46
348
0
  0
LAYER
  5
74
330
2
100
AcDbSymbolTableRecord
100
AcDbLayerTableRecord
  2
Ech.1_1000
 70
     0
 62
     7
  6
Continuous
370
    -3
390
F
347
46
348
0
  0
LAYER
  5
75
330
2
100
AcDbSymbolTableRecord
100
AcDbLayerTableRecord
  2
Cadres traceur
 70
     0
 62
     7
  6
Continuous
370
    -3
390
F
347
46
348
0
  0
LAYER
  5
76
330
2
100
AcDbSymbolTableRecord
100
AcDbLayerTableRecord
  2
Cadres laser
 70
     0
 62
     7
  6
Continuous
370
    -3
390
F
347
46
348
0
  0
LAYER
  5
77
330
2
100
AcDbSymbolTableRecord
100
AcDbLayerTableRecord
  2
Légende d_aide
 70
     0
 62
     7
  6
Continuous
370
    -3
390
F
347
46
348
0
  0
ENDTAB
  0
TABLE
  2
STYLE
  5
3
330
0
100
AcDbSymbolTable
 70
     9
  0
STYLE
  5
11
330
3
100
AcDbSymbolTableRecord
100
AcDbTextStyleTableRecord
  2
Standard
 70
     0
 40
0.0
 41
1.0
 50
0.0
 71
     0
 42
2.5
  3
txt
  4

  0
STYLE
  5
62
330
3
100
AcDbSymbolTableRecord
100
AcDbTextStyleTableRecord
  2
CwStyleShx
 70
     0
 40
1.0
 41
1.0
 50
0.0
 71
     0
 42
2.5
  3

  4

  0
STYLE
  5
63
330
3
100
AcDbSymbolTableRecord
100
AcDbTextStyleTableRecord
  2
CwStyleShx16
 70
     0
 40
1.0
 41
1.0
 50
0.0
 71
     0
 42
2.5
  3

  4

  0
STYLE
  5
64
330
3
100
AcDbSymbolTableRecord
100
AcDbTextStyleTableRecord
  2
MONOTXT
 70
     0
 40
0.0
 41
1.0
 50
0.0
 71
     0
 42
2.5
  3
MONOTXT
  4

  0
STYLE
  5
65
330
3
100
AcDbSymbolTableRecord
100
AcDbTextStyleTableRecord
  2
SYMAP
 70
     0
 40
1.0
 41
1.0
 50
0.0
 71
     0
 42
2.5
  3
SYMAP
  4

  0
STYLE
  5
66
330
3
100
AcDbSymbolTableRecord
100
AcDbTextStyleTableRecord
  2
CwStyleTtf
 70
     0
 40
1.0
 41
1.0
 50
0.0
 71
     0
 42
2.5
  3
arial.ttf
  4

  0
STYLE
  5
379
330
3
100
AcDbSymbolTableRecord
100
AcDbTextStyleTableRecord
  2
arial-b
 70
     0
 40
1.0
 41
1.0
 50
0.0
 71
     0
 42
2.5
  3
arialbd.ttf
  4

1001
ACAD
1000
Arial
1071
 33554432
  0
STYLE
  5
37B
330
3
100
AcDbSymbolTableRecord
100
AcDbTextStyleTableRecord
  2
arial-
 70
     0
 40
1.0
 41
1.0
 50
0.0
 71
     0
 42
2.5
  3
arial.ttf
  4

1001
ACAD
1000
Arial
1071
        0
  0
STYLE
  5
381
330
3
100
AcDbSymbolTableRecord
100
AcDbTextStyleTableRecord
  2
arial-i
 70
     0
 40
1.0
 41
1.0
 50
0.0
 71
     0
 42
2.5
  3
ariali.ttf
  4

1001
ACAD
1000
Arial
1071
 16777216
  0
ENDTAB
  0
TABLE
  2
VIEW
  5
6
330
0
100
AcDbSymbolTable
 70
     0
  0
ENDTAB
  0
TABLE
  2
UCS
  5
7
330
0
100
AcDbSymbolTable
 70
     0
  0
ENDTAB
  0
TABLE
  2
APPID
  5
9
330
0
100
AcDbSymbolTable
 70
     3
  0
APPID
  5
12
330
9
100
AcDbSymbolTableRecord
100
AcDbRegAppTableRecord
  2
ACAD
 70
     0
  0
APPID
  5
5E
330
9
100
AcDbSymbolTableRecord
100
AcDbRegAppTableRecord
  2
Cadwork
 70
     0
  0
APPID
  5
224
330
9
100
AcDbSymbolTableRecord
100
AcDbRegAppTableRecord
  2
PLOTTRANSPARENCY
 70
     0
  0
ENDTAB
  0
TABLE
  2
DIMSTYLE
  5
A
330
0
100
AcDbSymbolTable
 70
     1
100
AcDbDimStyleTable
  0
DIMSTYLE
105
27
330
A
100
AcDbSymbolTableRecord
100
AcDbDimStyleTableRecord
  2
ISO-25
 70
     0
 41
2.5
 42
0.625
 43
3.75
 44
1.25
 73
     0
 74
     0
 77
     1
 78
     8
140
2.5
141
2.5
143
0.03937007874016
147
0.625
171
     3
172
     1
178
     0
271
     2
272
     2
274
     3
278
    44
283
     0
284
     8
340
11
  0
ENDTAB
  0
TABLE
  2
BLOCK_RECORD
  5
1
330
0
100
AcDbSymbolTable
 70
    69
  0
BLOCK_RECORD
  5
1F
330
1
100
AcDbSymbolTableRecord
100
AcDbBlockTableRecord
  2
*Model_Space
340
22
 70
     0
280
     1
281
     0
  0
BLOCK_RECORD
  5
21F
330
1
100
AcDbSymbolTableRecord
100
AcDbBlockTableRecord
  2
*Paper_Space
340
220
 70
     0
280
     1
281
     0
  0
BLOCK_RECORD
  5
78
330
1
100
AcDbSymbolTableRecord
100
AcDbBlockTableRecord
  2
CDWK_PTTYP1
340
0
 70
     0
280
     1
281
     1
  0
BLOCK_RECORD
  5
7F
330
1
100
AcDbSymbolTableRecord
100
AcDbBlockTableRecord
  2
CDWK_PTTYP2
340
0
 70
     0
280
     1
281
     1
  0
BLOCK_RECORD
  5
84
330
1
100
AcDbSymbolTableRecord
100
AcDbBlockTableRecord
  2
CDWK_PTTYP4
340
0
 70
     0
280
     1
281
     1
  0
BLOCK_RECORD
  5
88
330
1
100
AcDbSymbolTableRecord
100
AcDbBlockTableRecord
  2
CDWK_PTTYP5
340
0
 70
     0
280
     1
281
     1
  0
BLOCK_RECORD
  5
91
330
1
100
AcDbSymbolTableRecord
100
AcDbBlockTableRecord
  2
CDWK_PTTYP6
340
0
 70
     0
280
     1
281
     1
  0
BLOCK_RECORD
  5
99
330
1
100
AcDbSymbolTableRecord
100
AcDbBlockTableRecord
  2
CDWK_PTTYP7
340
0
 70
     0
280
     1
281
     1
  0
BLOCK_RECORD
  5
A2
330
1
100
AcDbSymbolTableRecord
100
AcDbBlockTableRecord
  2
CDWK_PTTYP8
340
0
 70
     0
280
     1
281
     1
  0
BLOCK_RECORD
  5
A6
330
1
100
AcDbSymbolTableRecord
100
AcDbBlockTableRecord
  2
CDWK_PTTYP9
340
0
 70
     0
280
     1
281
     1
  0
BLOCK_RECORD
  5
AB
330
1
100
AcDbSymbolTableRecord
100
AcDbBlockTableRecord
  2
CDWK_PTTYP10
340
0
 70
     0
280
     1
281
     1
  0
BLOCK_RECORD
  5
AF
330
1
100
AcDbSymbolTableRecord
100
AcDbBlockTableRecord
  2
CDWK_PTTYP11
340
0
 70
     0
280
     1
281
     1
  0
BLOCK_RECORD
  5
B4
330
1
100
AcDbSymbolTableRecord
100
AcDbBlockTableRecord
  2
CDWK_PTTYP12
340
0
 70
     0
280
     1
281
     1
  0
BLOCK_RECORD
  5
B9
330
1
100
AcDbSymbolTableRecord
100
AcDbBlockTableRecord
  2
CDWK_PTTYP13
340
0
 70
     0
280
     1
281
     1
  0
BLOCK_RECORD
  5
BF
330
1
100
AcDbSymbolTableRecord
100
AcDbBlockTableRecord
  2
CDWK_PTTYP16
340
0
 70
     0
280
     1
281
     1
  0
BLOCK_RECORD
  5
C6
330
1
100
AcDbSymbolTableRecord
100
AcDbBlockTableRecord
  2
CDWK_PTTYP17
340
0
 70
     0
280
     1
281
     1
  0
BLOCK_RECORD
  5
CB
330
1
100
AcDbSymbolTableRecord
100
AcDbBlockTableRecord
  2
CDWK_PTTYP18
340
0
 70
     0
280
     1
281
     1
  0
BLOCK_RECORD
  5
D0
330
1
100
AcDbSymbolTableRecord
100
AcDbBlockTableRecord
  2
CDWK_PTTYP19
340
0
 70
     0
280
     1
281
     1
  0
BLOCK_RECORD
  5
D6
330
1
100
AcDbSymbolTableRecord
100
AcDbBlockTableRecord
  2
CDWK_PTTYP20
340
0
 70
     0
280
     1
281
     1
  0
BLOCK_RECORD
  5
DB
330
1
100
AcDbSymbolTableRecord
100
AcDbBlockTableRecord
  2
CDWK_PTTYP21
340
0
 70
     0
280
     1
281
     1
  0
BLOCK_RECORD
  5
E0
330
1
100
AcDbSymbolTableRecord
100
AcDbBlockTableRecord
  2
CDWK_PTTYP25
340
0
 70
     0
280
     1
281
     1
  0
BLOCK_RECORD
  5
E7
330
1
100
AcDbSymbolTableRecord
100
AcDbBlockTableRecord
  2
CDWK_PTTYP26
340
0
 70
     0
280
     1
281
     1
  0
BLOCK_RECORD
  5
EE
330
1
100
AcDbSymbolTableRecord
100
AcDbBlockTableRecord
  2
CDWK_PTTYP27
340
0
 70
     0
280
     1
281
     1
  0
BLOCK_RECORD
  5
F6
330
1
100
AcDbSymbolTableRecord
100
AcDbBlockTableRecord
  2
CDWK_PTTYP28
340
0
 70
     0
280
     1
281
     1
  0
BLOCK_RECORD
  5
FD
330
1
100
AcDbSymbolTableRecord
100
AcDbBlockTableRecord
  2
CDWK_PTTYP29
340
0
 70
     0
280
     1
281
     1
  0
BLOCK_RECORD
  5
103
330
1
100
AcDbSymbolTableRecord
100
AcDbBlockTableRecord
  2
CDWK_PTTYP30
340
0
 70
     0
280
     1
281
     1
  0
BLOCK_RECORD
  5
10A
330
1
100
AcDbSymbolTableRecord
100
AcDbBlockTableRecord
  2
CDWK_PTTYP31
340
0
 70
     0
280
     1
281
     1
  0
BLOCK_RECORD
  5
112
330
1
100
AcDbSymbolTableRecord
100
AcDbBlockTableRecord
  2
CDWK_PTTYP32
340
0
 70
     0
280
     1
281
     1
  0
BLOCK_RECORD
  5
11B
330
1
100
AcDbSymbolTableRecord
100
AcDbBlockTableRecord
  2
CDWK_PTTYP33
340
0
 70
     0
280
     1
281
     1
  0
BLOCK_RECORD
  5
121
330
1
100
AcDbSymbolTableRecord
100
AcDbBlockTableRecord
  2
CDWK_PTTYP34
340
0
 70
     0
280
     1
281
     1
  0
BLOCK_RECORD
  5
127
330
1
100
AcDbSymbolTableRecord
100
AcDbBlockTableRecord
  2
CDWK_PTTYP35
340
0
 70
     0
280
     1
281
     1
  0
BLOCK_RECORD
  5
12D
330
1
100
AcDbSymbolTableRecord
100
AcDbBlockTableRecord
  2
CDWK_PTTYP36
340
0
 70
     0
280
     1
281
     1
  0
BLOCK_RECORD
  5
135
330
1
100
AcDbSymbolTableRecord
100
AcDbBlockTableRecord
  2
CDWK_PTTYP37
340
0
 70
     0
280
     1
281
     1
  0
BLOCK_RECORD
  5
13A
330
1
100
AcDbSymbolTableRecord
100
AcDbBlockTableRecord
  2
CDWK_PTTYP38
340
0
 70
     0
280
     1
281
     1
  0
BLOCK_RECORD
  5
140
330
1
100
AcDbSymbolTableRecord
100
AcDbBlockTableRecord
  2
CDWK_PTTYP41
340
0
 70
     0
280
     1
281
     1
  0
BLOCK_RECORD
  5
14A
330
1
100
AcDbSymbolTableRecord
100
AcDbBlockTableRecord
  2
CDWK_PTTYP42
340
0
 70
     0
280
     1
281
     1
  0
BLOCK_RECORD
  5
153
330
1
100
AcDbSymbolTableRecord
100
AcDbBlockTableRecord
  2
CDWK_PTTYP43
340
0
 70
     0
280
     1
281
     1
  0
BLOCK_RECORD
  5
159
330
1
100
AcDbSymbolTableRecord
100
AcDbBlockTableRecord
  2
CDWK_PTTYP44
340
0
 70
     0
280
     1
281
     1
  0
BLOCK_RECORD
  5
162
330
1
100
AcDbSymbolTableRecord
100
AcDbBlockTableRecord
  2
CDWK_PTTYP45
340
0
 70
     0
280
     1
281
     1
  0
BLOCK_RECORD
  5
167
330
1
100
AcDbSymbolTableRecord
100
AcDbBlockTableRecord
  2
CDWK_PTTYP46
340
0
 70
     0
280
     1
281
     1
  0
BLOCK_RECORD
  5
16C
330
1
100
AcDbSymbolTableRecord
100
AcDbBlockTableRecord
  2
CDWK_PTTYP47
340
0
 70
     0
280
     1
281
     1
  0
BLOCK_RECORD
  5
175
330
1
100
AcDbSymbolTableRecord
100
AcDbBlockTableRecord
  2
CDWK_PTTYP48
340
0
 70
     0
280
     1
281
     1
  0
BLOCK_RECORD
  5
17A
330
1
100
AcDbSymbolTableRecord
100
AcDbBlockTableRecord
  2
CDWK_PTTYP49
340
0
 70
     0
280
     1
281
     1
  0
BLOCK_RECORD
  5
181
330
1
100
AcDbSymbolTableRecord
100
AcDbBlockTableRecord
  2
CDWK_PTTYP50
340
0
 70
     0
280
     1
281
     1
  0
BLOCK_RECORD
  5
18B
330
1
100
AcDbSymbolTableRecord
100
AcDbBlockTableRecord
  2
CDWK_PTTYP51
340
0
 70
     0
280
     1
281
     1
  0
BLOCK_RECORD
  5
190
330
1
100
AcDbSymbolTableRecord
100
AcDbBlockTableRecord
  2
CDWK_PTTYP52
340
0
 70
     0
280
     1
281
     1
  0
BLOCK_RECORD
  5
196
330
1
100
AcDbSymbolTableRecord
100
AcDbBlockTableRecord
  2
cw-dimension-symbol1
340
0
 70
     0
280
     1
281
     0
  0
BLOCK_RECORD
  5
19D
330
1
100
AcDbSymbolTableRecord
100
AcDbBlockTableRecord
  2
cw-dimension-symbol2
340
0
 70
     0
280
     1
281
     0
  0
BLOCK_RECORD
  5
1A2
330
1
100
AcDbSymbolTableRecord
100
AcDbBlockTableRecord
  2
cw-dimension-symbol3
340
0
 70
     0
280
     1
281
     0
  0
BLOCK_RECORD
  5
1A7
330
1
100
AcDbSymbolTableRecord
100
AcDbBlockTableRecord
  2
cw-dimension-symbol5
340
0
 70
     0
280
     1
281
     0
  0
BLOCK_RECORD
  5
1AE
330
1
100
AcDbSymbolTableRecord
100
AcDbBlockTableRecord
  2
cw-dimension-symbol6
340
0
 70
     0
280
     1
281
     0
  0
BLOCK_RECORD
  5
1B4
330
1
100
AcDbSymbolTableRecord
100
AcDbBlockTableRecord
  2
cw-dimension-symbol11
340
0
 70
     0
280
     1
281
     0
  0
BLOCK_RECORD
  5
1BA
330
1
100
AcDbSymbolTableRecord
100
AcDbBlockTableRecord
  2
cw-dimension-symbol13
340
0
 70
     0
280
     1
281
     0
  0
BLOCK_RECORD
  5
1C0
330
1
100
AcDbSymbolTableRecord
100
AcDbBlockTableRecord
  2
cw-dimension-symbol15
340
0
 70
     0
280
     1
281
     0
  0
BLOCK_RECORD
  5
1C7
330
1
100
AcDbSymbolTableRecord
100
AcDbBlockTableRecord
  2
cw-dimension-symbol16
340
0
 70
     0
280
     1
281
     0
  0
BLOCK_RECORD
  5
1CE
330
1
100
AcDbSymbolTableRecord
100
AcDbBlockTableRecord
  2
cw-dimension-symbol17
340
0
 70
     0
280
     1
281
     0
  0
BLOCK_RECORD
  5
1D5
330
1
100
AcDbSymbolTableRecord
100
AcDbBlockTableRecord
  2
cw-dimension-symbol18
340
0
 70
     0
280
     1
281
     0
  0
BLOCK_RECORD
  5
1DC
330
1
100
AcDbSymbolTableRecord
100
AcDbBlockTableRecord
  2
cw-dimension-symbol19
340
0
 70
     0
280
     1
281
     0
  0
BLOCK_RECORD
  5
1DF
330
1
100
AcDbSymbolTableRecord
100
AcDbBlockTableRecord
  2
cw-dimension-symbol20
340
0
 70
     0
280
     1
281
     0
  0
BLOCK_RECORD
  5
1E6
330
1
100
AcDbSymbolTableRecord
100
AcDbBlockTableRecord
  2
cw-dimension-symbol21
340
0
 70
     0
280
     1
281
     0
  0
BLOCK_RECORD
  5
1ED
330
1
100
AcDbSymbolTableRecord
100
AcDbBlockTableRecord
  2
cw-line-extremity0
340
0
 70
     0
280
     1
281
     0
  0
BLOCK_RECORD
  5
1F1
330
1
100
AcDbSymbolTableRecord
100
AcDbBlockTableRecord
  2
cw-line-extremity2
340
0
 70
     0
280
     1
281
     0
  0
BLOCK_RECORD
  5
1F6
330
1
100
AcDbSymbolTableRecord
100
AcDbBlockTableRecord
  2
cw-line-extremity3
340
0
 70
     0
280
     1
281
     0
  0
BLOCK_RECORD
  5
1FB
330
1
100
AcDbSymbolTableRecord
100
AcDbBlockTableRecord
  2
cw-line-extremity301
340
0
 70
     0
280
     1
281
     0
  0
BLOCK_RECORD
  5
1FD
330
1
100
AcDbSymbolTableRecord
100
AcDbBlockTableRecord
  2
cw-line-extremity4
340
0
102
{BLKREFS
331
2A7
102
}
 70
     0
280
     1
281
     0
  0
BLOCK_RECORD
  5
1FF
330
1
100
AcDbSymbolTableRecord
100
AcDbBlockTableRecord
  2
cw-line-extremity5
340
0
 70
     0
280
     1
281
     0
  0
BLOCK_RECORD
  5
201
330
1
100
AcDbSymbolTableRecord
100
AcDbBlockTableRecord
  2
cw-line-extremity6
340
0
 70
     0
280
     1
281
     0
  0
BLOCK_RECORD
  5
203
330
1
100
AcDbSymbolTableRecord
100
AcDbBlockTableRecord
  2
cw-line-extremity9
340
0
 70
     0
280
     1
281
     0
  0
BLOCK_RECORD
  5
205
330
1
100
AcDbSymbolTableRecord
100
AcDbBlockTableRecord
  2
cw-line-extremity10
340
0
 70
     0
280
     1
281
     0
  0
BLOCK_RECORD
  5
207
330
1
100
AcDbSymbolTableRecord
100
AcDbBlockTableRecord
  2
cw-line-extremity1
340
0
 70
     0
280
     1
281
     0
  0
BLOCK_RECORD
  5
1B
330
1
100
AcDbSymbolTableRecord
100
AcDbBlockTableRecord
  2
*Paper_Space69
340
1E
 70
     0
280
     1
281
     0
  0
ENDTAB
  0
ENDSEC
  0
SECTION
  2
BLOCKS
  0
BLOCK
  5
20
330
1F
100
AcDbEntity
  8
0
100
AcDbBlockBegin
  2
*Model_Space
 70
     0
 10
0.0
 20
0.0
 30
0.0
  3
*Model_Space
  1

  0
ENDBLK
  5
21
330
1F
100
AcDbEntity
  8
0
100
AcDbBlockEnd
  0
BLOCK
  5
221
330
21F
100
AcDbEntity
 67
     1
  8
0
100
AcDbBlockBegin
  2
*Paper_Space
 70
     0
 10
0.0
 20
0.0
 30
0.0
  3
*Paper_Space
  1

  0
ENDBLK
  5
222
330
21F
100
AcDbEntity
 67
     1
  8
0
100
AcDbBlockEnd
  0
BLOCK
  5
7D
330
78
100
AcDbEntity
  8
0
100
AcDbBlockBegin
  2
CDWK_PTTYP1
 70
     0
 10
0.0
 20
0.0
 30
0.0
  3
CDWK_PTTYP1
  1

  0
LINE
  5
79
330
78
100
AcDbEntity
  8
0
  6
Continuous
 62
     0
370
    -2
390
5F
100
AcDbLine
 10
-0.5
 20
0.5
 30
0.0
 11
0.5
 21
0.5
 31
0.0
  0
LINE
  5
7A
330
78
100
AcDbEntity
  8
0
  6
Continuous
 62
     0
370
    -2
390
5F
100
AcDbLine
 10
0.5
 20
0.5
 30
0.0
 11
0.5
 21
-0.5
 31
0.0
  0
LINE
  5
7B
330
78
100
AcDbEntity
  8
0
  6
Continuous
 62
     0
370
    -2
390
5F
100
AcDbLine
 10
0.5
 20
-0.5
 30
0.0
 11
-0.5
 21
-0.5
 31
0.0
  0
LINE
  5
7C
330
78
100
AcDbEntity
  8
0
  6
Continuous
 62
     0
370
    -2
390
5F
100
AcDbLine
 10
-0.5
 20
-0.5
 30
0.0
 11
-0.5
 21
0.5
 31
0.0
  0
ENDBLK
  5
7E
330
78
100
AcDbEntity
  8
0
100
AcDbBlockEnd
  0
BLOCK
  5
82
330
7F
100
AcDbEntity
  8
0
100
AcDbBlockBegin
  2
CDWK_PTTYP2
 70
     0
 10
0.0
 20
0.0
 30
0.0
  3
CDWK_PTTYP2
  1

  0
LINE
  5
80
330
7F
100
AcDbEntity
  8
0
  6
Continuous
 62
     0
370
    -2
390
5F
100
AcDbLine
 10
0.0
 20
0.5
 30
0.0
 11
0.0
 21
-0.5
 31
0.0
  0
LINE
  5
81
330
7F
100
AcDbEntity
  8
0
  6
Continuous
 62
     0
370
    -2
390
5F
100
AcDbLine
 10
0.5
 20
0.0
 30
0.0
 11
-0.5
 21
0.0
 31
0.0
  0
ENDBLK
  5
83
330
7F
100
AcDbEntity
  8
0
100
AcDbBlockEnd
  0
BLOCK
  5
86
330
84
100
AcDbEntity
  8
0
100
AcDbBlockBegin
  2
CDWK_PTTYP4
 70
     0
 10
0.0
 20
0.0
 30
0.0
  3
CDWK_PTTYP4
  1

  0
HATCH
  5
85
330
84
100
AcDbEntity
  8
0
  6
Continuous
 62
     0
370
    -2
390
5F
100
AcDbHatch
 10
0.0
 20
0.0
 30
0.0
210
0.0
220
0.0
230
1.0
  2
SOLID
 70
     1
 71
     0
 91
        1
 92
        1
 93
        1
 72
     2
 10
0.0
 20
0.0
 40
0.5
 50
0.0
 51
360.0
 73
     1
 97
        0
 75
     0
 76
     1
 98
        0
  0
ENDBLK
  5
87
330
84
100
AcDbEntity
  8
0
100
AcDbBlockEnd
  0
BLOCK
  5
8F
330
88
100
AcDbEntity
  8
0
100
AcDbBlockBegin
  2
CDWK_PTTYP5
 70
     0
 10
0.0
 20
0.0
 30
0.0
  3
CDWK_PTTYP5
  1

  0
LINE
  5
89
330
88
100
AcDbEntity
  8
0
  6
Continuous
 62
     0
370
    -2
390
5F
100
AcDbLine
 10
-0.5
 20
0.5
 30
0.0
 11
0.5
 21
0.5
 31
0.0
  0
LINE
  5
8A
330
88
100
AcDbEntity
  8
0
  6
Continuous
 62
     0
370
    -2
390
5F
100
AcDbLine
 10
0.5
 20
0.5
 30
0.0
 11
0.5
 21
-0.5
 31
0.0
  0
LINE
  5
8B
330
88
100
AcDbEntity
  8
0
  6
Continuous
 62
     0
370
    -2
390
5F
100
AcDbLine
 10
0.5
 20
-0.5
 30
0.0
 11
-0.5
 21
-0.5
 31
0.0
  0
LINE
  5
8C
330
88
100
AcDbEntity
  8
0
  6
Continuous
 62
     0
370
    -2
390
5F
100
AcDbLine
 10
-0.5
 20
-0.5
 30
0.0
 11
-0.5
 21
0.5
 31
0.0
  0
HATCH
  5
8D
330
88
100
AcDbEntity
  8
0
  6
Continuous
 62
     0
370
    -2
390
5F
100
AcDbHatch
 10
0.0
 20
0.0
 30
0.0
210
0.0
220
0.0
230
1.0
  2
SOLID
 70
     1
 71
     0
 91
        1
 92
        3
 72
     0
 73
     1
 93
        4
 10
-0.5
 20
0.0
 10
0.0
 20
0.0
 10
0.0
 20
-0.5
 10
-0.5
 20
-0.5
 97
        0
 75
     0
 76
     1
 98
        0
  0
HATCH
  5
8E
330
88
100
AcDbEntity
  8
0
  6
Continuous
 62
     0
370
    -2
390
5F
100
AcDbHatch
 10
0.0
 20
0.0
 30
0.0
210
0.0
220
0.0
230
1.0
  2
SOLID
 70
     1
 71
     0
 91
        1
 92
        3
 72
     0
 73
     1
 93
        4
 10
0.0
 20
0.0
 10
0.5
 20
0.0
 10
0.5
 20
0.5
 10
0.0
 20
0.5
 97
        0
 75
     0
 76
     1
 98
        0
  0
ENDBLK
  5
90
330
88
100
AcDbEntity
  8
0
100
AcDbBlockEnd
  0
BLOCK
  5
97
330
91
100
AcDbEntity
  8
0
100
AcDbBlockBegin
  2
CDWK_PTTYP6
 70
     0
 10
0.0
 20
0.0
 30
0.0
  3
CDWK_PTTYP6
  1

  0
LINE
  5
92
330
91
100
AcDbEntity
  8
0
  6
Continuous
 62
     0
370
    -2
390
5F
100
AcDbLine
 10
-0.5
 20
0.5
 30
0.0
 11
0.5
 21
0.5
 31
0.0
  0
LINE
  5
93
330
91
100
AcDbEntity
  8
0
  6
Continuous
 62
     0
370
    -2
390
5F
100
AcDbLine
 10
0.5
 20
0.5
 30
0.0
 11
0.5
 21
-0.5
 31
0.0
  0
LINE
  5
94
330
91
100
AcDbEntity
  8
0
  6
Continuous
 62
     0
370
    -2
390
5F
100
AcDbLine
 10
0.5
 20
-0.5
 30
0.0
 11
-0.5
 21
-0.5
 31
0.0
  0
LINE
  5
95
330
91
100
AcDbEntity
  8
0
  6
Continuous
 62
     0
370
    -2
390
5F
100
AcDbLine
 10
-0.5
 20
-0.5
 30
0.0
 11
-0.5
 21
0.5
 31
0.0
  0
HATCH
  5
96
330
91
100
AcDbEntity
  8
0
  6
Continuous
 62
     0
370
    -2
390
5F
100
AcDbHatch
 10
0.0
 20
0.0
 30
0.0
210
0.0
220
0.0
230
1.0
  2
SOLID
 70
     1
 71
     0
 91
        1
 92
        3
 72
     0
 73
     1
 93
        3
 10
-0.5
 20
-0.5
 10
-0.5
 20
0.5
 10
0.5
 20
0.5
 97
        0
 75
     0
 76
     1
 98
        0
  0
ENDBLK
  5
98
330
91
100
AcDbEntity
  8
0
100
AcDbBlockEnd
  0
BLOCK
  5
A0
330
99
100
AcDbEntity
  8
0
100
AcDbBlockBegin
  2
CDWK_PTTYP7
 70
     0
 10
0.0
 20
0.0
 30
0.0
  3
CDWK_PTTYP7
  1

  0
LINE
  5
9A
330
99
100
AcDbEntity
  8
0
  6
Continuous
 62
     0
370
    -2
390
5F
100
AcDbLine
 10
-0.5
 20
0.5
 30
0.0
 11
0.5
 21
0.5
 31
0.0
  0
LINE
  5
9B
330
99
100
AcDbEntity
  8
0
  6
Continuous
 62
     0
370
    -2
390
5F
100
AcDbLine
 10
0.5
 20
0.5
 30
0.0
 11
0.5
 21
-0.5
 31
0.0
  0
LINE
  5
9C
330
99
100
AcDbEntity
  8
0
  6
Continuous
 62
     0
370
    -2
390
5F
100
AcDbLine
 10
0.5
 20
-0.5
 30
0.0
 11
-0.5
 21
-0.5
 31
0.0
  0
LINE
  5
9D
330
99
100
AcDbEntity
  8
0
  6
Continuous
 62
     0
370
    -2
390
5F
100
AcDbLine
 10
-0.5
 20
-0.5
 30
0.0
 11
-0.5
 21
0.5
 31
0.0
  0
LINE
  5
9E
330
99
100
AcDbEntity
  8
0
  6
Continuous
 62
     0
370
    -2
390
5F
100
AcDbLine
 10
0.0
 20
0.5
 30
0.0
 11
0.0
 21
-0.5
 31
0.0
  0
LINE
  5
9F
330
99
100
AcDbEntity
  8
0
  6
Continuous
 62
     0
370
    -2
390
5F
100
AcDbLine
 10
0.5
 20
0.0
 30
0.0
 11
-0.5
 21
0.0
 31
0.0
  0
ENDBLK
  5
A1
330
99
100
AcDbEntity
  8
0
100
AcDbBlockEnd
  0
BLOCK
  5
A4
330
A2
100
AcDbEntity
  8
0
100
AcDbBlockBegin
  2
CDWK_PTTYP8
 70
     0
 10
0.0
 20
0.0
 30
0.0
  3
CDWK_PTTYP8
  1

  0
HATCH
  5
A3
330
A2
100
AcDbEntity
  8
0
  6
Continuous
 62
     0
370
    -2
390
5F
100
AcDbHatch
 10
0.0
 20
0.0
 30
0.0
210
0.0
220
0.0
230
1.0
  2
SOLID
 70
     1
 71
     0
 91
        1
 92
        3
 72
     0
 73
     1
 93
        4
 10
0.5
 20
0.5
 10
0.5
 20
-0.5
 10
-0.5
 20
-0.5
 10
-0.5
 20
0.5
 97
        0
 75
     0
 76
     1
 98
        0
  0
ENDBLK
  5
A5
330
A2
100
AcDbEntity
  8
0
100
AcDbBlockEnd
  0
BLOCK
  5
A9
330
A6
100
AcDbEntity
  8
0
100
AcDbBlockBegin
  2
CDWK_PTTYP9
 70
     0
 10
0.0
 20
0.0
 30
0.0
  3
CDWK_PTTYP9
  1

  0
CIRCLE
  5
A7
330
A6
100
AcDbEntity
  8
0
  6
Continuous
 62
     0
370
    -2
390
5F
100
AcDbCircle
 10
0.0
 20
0.0
 30
0.0
 40
0.1666666666666667
  0
CIRCLE
  5
A8
330
A6
100
AcDbEntity
  8
0
  6
Continuous
 62
     0
370
    -2
390
5F
100
AcDbCircle
 10
0.0
 20
0.0
 30
0.0
 40
0.5
  0
ENDBLK
  5
AA
330
A6
100
AcDbEntity
  8
0
100
AcDbBlockEnd
  0
BLOCK
  5
AD
330
AB
100
AcDbEntity
  8
0
100
AcDbBlockBegin
  2
CDWK_PTTYP10
 70
     0
 10
0.0
 20
0.0
 30
0.0
  3
CDWK_PTTYP10
  1

  0
CIRCLE
  5
AC
330
AB
100
AcDbEntity
  8
0
  6
Continuous
 62
     0
370
    -2
390
5F
100
AcDbCircle
 10
0.0
 20
0.0
 30
0.0
 40
0.5
  0
ENDBLK
  5
AE
330
AB
100
AcDbEntity
  8
0
100
AcDbBlockEnd
  0
BLOCK
  5
B2
330
AF
100
AcDbEntity
  8
0
100
AcDbBlockBegin
  2
CDWK_PTTYP11
 70
     0
 10
0.0
 20
0.0
 30
0.0
  3
CDWK_PTTYP11
  1

  0
CIRCLE
  5
B0
330
AF
100
AcDbEntity
  8
0
  6
Continuous
 62
     0
370
    -2
390
5F
100
AcDbCircle
 10
0.0
 20
0.0
 30
0.0
 40
0.25
  0
CIRCLE
  5
B1
330
AF
100
AcDbEntity
  8
0
  6
Continuous
 62
     0
370
    -2
390
5F
100
AcDbCircle
 10
0.0
 20
0.0
 30
0.0
 40
0.5
  0
ENDBLK
  5
B3
330
AF
100
AcDbEntity
  8
0
100
AcDbBlockEnd
  0
BLOCK
  5
B7
330
B4
100
AcDbEntity
  8
0
100
AcDbBlockBegin
  2
CDWK_PTTYP12
 70
     0
 10
0.0
 20
0.0
 30
0.0
  3
CDWK_PTTYP12
  1

  0
CIRCLE
  5
B5
330
B4
100
AcDbEntity
  8
0
  6
Continuous
 62
     0
370
    -2
390
5F
100
AcDbCircle
 10
0.25
 20
0.0
 30
0.0
 40
0.25
  0
CIRCLE
  5
B6
330
B4
100
AcDbEntity
  8
0
  6
Continuous
 62
     0
370
    -2
390
5F
100
AcDbCircle
 10
0.0
 20
0.0
 30
0.0
 40
0.5
  0
ENDBLK
  5
B8
330
B4
100
AcDbEntity
  8
0
100
AcDbBlockEnd
  0
BLOCK
  5
BD
330
B9
100
AcDbEntity
  8
0
100
AcDbBlockBegin
  2
CDWK_PTTYP13
 70
     0
 10
0.0
 20
0.0
 30
0.0
  3
CDWK_PTTYP13
  1

  0
CIRCLE
  5
BA
330
B9
100
AcDbEntity
  8
0
  6
Continuous
 62
     0
370
    -2
390
5F
100
AcDbCircle
 10
-0.25
 20
0.0
 30
0.0
 40
0.25
  0
CIRCLE
  5
BB
330
B9
100
AcDbEntity
  8
0
  6
Continuous
 62
     0
370
    -2
390
5F
100
AcDbCircle
 10
0.25
 20
0.0
 30
0.0
 40
0.25
  0
CIRCLE
  5
BC
330
B9
100
AcDbEntity
  8
0
  6
Continuous
 62
     0
370
    -2
390
5F
100
AcDbCircle
 10
0.0
 20
0.0
 30
0.0
 40
0.5
  0
ENDBLK
  5
BE
330
B9
100
AcDbEntity
  8
0
100
AcDbBlockEnd
  0
BLOCK
  5
C4
330
BF
100
AcDbEntity
  8
0
100
AcDbBlockBegin
  2
CDWK_PTTYP16
 70
     0
 10
0.0
 20
0.0
 30
0.0
  3
CDWK_PTTYP16
  1

  0
LINE
  5
C0
330
BF
100
AcDbEntity
  8
0
  6
Continuous
 62
     0
370
    -2
390
5F
100
AcDbLine
 10
-0.5
 20
-0.289
 30
0.0
 11
0.5
 21
-0.289
 31
0.0
  0
LINE
  5
C1
330
BF
100
AcDbEntity
  8
0
  6
Continuous
 62
     0
370
    -2
390
5F
100
AcDbLine
 10
0.5
 20
-0.289
 30
0.0
 11
0.0
 21
0.577
 31
0.0
  0
LINE
  5
C2
330
BF
100
AcDbEntity
  8
0
  6
Continuous
 62
     0
370
    -2
390
5F
100
AcDbLine
 10
0.0
 20
0.577
 30
0.0
 11
-0.5
 21
-0.289
 31
0.0
  0
CIRCLE
  5
C3
330
BF
100
AcDbEntity
  8
0
  6
Continuous
 62
     0
370
    -2
390
5F
100
AcDbCircle
 10
0.0
 20
0.0
 30
0.0
 40
0.289
  0
ENDBLK
  5
C5
330
BF
100
AcDbEntity
  8
0
100
AcDbBlockEnd
  0
BLOCK
  5
C9
330
C6
100
AcDbEntity
  8
0
100
AcDbBlockBegin
  2
CDWK_PTTYP17
 70
     0
 10
0.0
 20
0.0
 30
0.0
  3
CDWK_PTTYP17
  1

  0
CIRCLE
  5
C7
330
C6
100
AcDbEntity
  8
0
  6
Continuous
 62
     0
370
    -2
390
5F
100
AcDbCircle
 10
0.0
 20
0.0
 30
0.0
 40
0.5
  0
HATCH
  5
C8
330
C6
100
AcDbEntity
  8
0
  6
Continuous
 62
     0
370
    -2
390
5F
100
AcDbHatch
 10
0.0
 20
0.0
 30
0.0
210
0.0
220
0.0
230
1.0
  2
SOLID
 70
     1
 71
     0
 91
        1
 92
        1
 93
        1
 72
     2
 10
0.0
 20
0.0
 40
0.25
 50
0.0
 51
360.0
 73
     1
 97
        0
 75
     0
 76
     1
 98
        0
  0
ENDBLK
  5
CA
330
C6
100
AcDbEntity
  8
0
100
AcDbBlockEnd
  0
BLOCK
  5
CE
330
CB
100
AcDbEntity
  8
0
100
AcDbBlockBegin
  2
CDWK_PTTYP18
 70
     0
 10
0.0
 20
0.0
 30
0.0
  3
CDWK_PTTYP18
  1

  0
CIRCLE
  5
CC
330
CB
100
AcDbEntity
  8
0
  6
Continuous
 62
     0
370
    -2
390
5F
100
AcDbCircle
 10
0.0
 20
0.0
 30
0.0
 40
0.5
  0
CIRCLE
  5
CD
330
CB
100
AcDbEntity
  8
0
  6
Continuous
 62
     0
370
    -2
390
5F
100
AcDbCircle
 10
0.0
 20
0.0
 30
0.0
 40
0.208
  0
ENDBLK
  5
CF
330
CB
100
AcDbEntity
  8
0
100
AcDbBlockEnd
  0
BLOCK
  5
D4
330
D0
100
AcDbEntity
  8
0
100
AcDbBlockBegin
  2
CDWK_PTTYP19
 70
     0
 10
0.0
 20
0.0
 30
0.0
  3
CDWK_PTTYP19
  1

  0
CIRCLE
  5
D1
330
D0
100
AcDbEntity
  8
0
  6
Continuous
 62
     0
370
    -2
390
5F
100
AcDbCircle
 10
0.0
 20
0.0
 30
0.0
 40
0.25
  0
CIRCLE
  5
D2
330
D0
100
AcDbEntity
  8
0
  6
Continuous
 62
     0
370
    -2
390
5F
100
AcDbCircle
 10
0.0
 20
0.0
 30
0.0
 40
0.35
  0
LINE
  5
D3
330
D0
100
AcDbEntity
  8
0
  6
Continuous
 62
     0
370
    -2
390
5F
100
AcDbLine
 10
-0.25
 20
0.0
 30
0.0
 11
0.25
 21
0.0
 31
0.0
  0
ENDBLK
  5
D5
330
D0
100
AcDbEntity
  8
0
100
AcDbBlockEnd
  0
BLOCK
  5
D9
330
D6
100
AcDbEntity
  8
0
100
AcDbBlockBegin
  2
CDWK_PTTYP20
 70
     0
 10
0.0
 20
0.0
 30
0.0
  3
CDWK_PTTYP20
  1

  0
CIRCLE
  5
D7
330
D6
100
AcDbEntity
  8
0
  6
Continuous
 62
     0
370
    -2
390
5F
100
AcDbCircle
 10
0.0
 20
0.0
 30
0.0
 40
0.3333333333333333
  0
CIRCLE
  5
D8
330
D6
100
AcDbEntity
  8
0
  6
Continuous
 62
     0
370
    -2
390
5F
100
AcDbCircle
 10
0.0
 20
0.0
 30
0.0
 40
0.5
  0
ENDBLK
  5
DA
330
D6
100
AcDbEntity
  8
0
100
AcDbBlockEnd
  0
BLOCK
  5
DE
330
DB
100
AcDbEntity
  8
0
100
AcDbBlockBegin
  2
CDWK_PTTYP21
 70
     0
 10
0.0
 20
0.0
 30
0.0
  3
CDWK_PTTYP21
  1

  0
CIRCLE
  5
DC
330
DB
100
AcDbEntity
  8
0
  6
Continuous
 62
     0
370
    -2
390
5F
100
AcDbCircle
 10
0.0
 20
0.0
 30
0.0
 40
0.5
  0
LINE
  5
DD
330
DB
100
AcDbEntity
  8
0
  6
Continuous
 62
     0
370
    -2
390
5F
100
AcDbLine
 10
-0.5
 20
0.0
 30
0.0
 11
0.5
 21
0.0
 31
0.0
  0
ENDBLK
  5
DF
330
DB
100
AcDbEntity
  8
0
100
AcDbBlockEnd
  0
BLOCK
  5
E5
330
E0
100
AcDbEntity
  8
0
100
AcDbBlockBegin
  2
CDWK_PTTYP25
 70
     0
 10
0.0
 20
0.0
 30
0.0
  3
CDWK_PTTYP25
  1

  0
LINE
  5
E1
330
E0
100
AcDbEntity
  8
0
  6
Continuous
 62
     0
370
    -2
390
5F
100
AcDbLine
 10
0.0
 20
0.5
 30
0.0
 11
-0.4330127018922193
 21
-0.25
 31
0.0
  0
LINE
  5
E2
330
E0
100
AcDbEntity
  8
0
  6
Continuous
 62
     0
370
    -2
390
5F
100
AcDbLine
 10
-0.4330127018922193
 20
-0.25
 30
0.0
 11
0.4330127018922193
 21
-0.25
 31
0.0
  0
LINE
  5
E3
330
E0
100
AcDbEntity
  8
0
  6
Continuous
 62
     0
370
    -2
390
5F
100
AcDbLine
 10
0.4330127018922193
 20
-0.25
 30
0.0
 11
0.0
 21
0.5
 31
0.0
  0
CIRCLE
  5
E4
330
E0
100
AcDbEntity
  8
0
  6
Continuous
 62
     0
370
    -2
390
5F
100
AcDbCircle
 10
0.0
 20
0.0
 30
0.0
 40
0.5
  0
ENDBLK
  5
E6
330
E0
100
AcDbEntity
  8
0
100
AcDbBlockEnd
  0
BLOCK
  5
EC
330
E7
100
AcDbEntity
  8
0
100
AcDbBlockBegin
  2
CDWK_PTTYP26
 70
     0
 10
0.0
 20
0.0
 30
0.0
  3
CDWK_PTTYP26
  1

  0
LINE
  5
E8
330
E7
100
AcDbEntity
  8
0
  6
Continuous
 62
     0
370
    -2
390
5F
100
AcDbLine
 10
-0.5
 20
-0.289
 30
0.0
 11
0.5
 21
-0.289
 31
0.0
  0
LINE
  5
E9
330
E7
100
AcDbEntity
  8
0
  6
Continuous
 62
     0
370
    -2
390
5F
100
AcDbLine
 10
0.5
 20
-0.289
 30
0.0
 11
0.0
 21
0.577
 31
0.0
  0
LINE
  5
EA
330
E7
100
AcDbEntity
  8
0
  6
Continuous
 62
     0
370
    -2
390
5F
100
AcDbLine
 10
0.0
 20
0.577
 30
0.0
 11
-0.5
 21
-0.289
 31
0.0
  0
CIRCLE
  5
EB
330
E7
100
AcDbEntity
  8
0
  6
Continuous
 62
     0
370
    -2
390
5F
100
AcDbCircle
 10
0.0
 20
0.0
 30
0.0
 40
0.125
  0
ENDBLK
  5
ED
330
E7
100
AcDbEntity
  8
0
100
AcDbBlockEnd
  0
BLOCK
  5
F4
330
EE
100
AcDbEntity
  8
0
100
AcDbBlockBegin
  2
CDWK_PTTYP27
 70
     0
 10
0.0
 20
0.0
 30
0.0
  3
CDWK_PTTYP27
  1

  0
LINE
  5
EF
330
EE
100
AcDbEntity
  8
0
  6
Continuous
 62
     0
370
    -2
390
5F
100
AcDbLine
 10
0.0
 20
0.5
 30
0.0
 11
-0.4330127018922193
 21
-0.25
 31
0.0
  0
LINE
  5
F0
330
EE
100
AcDbEntity
  8
0
  6
Continuous
 62
     0
370
    -2
390
5F
100
AcDbLine
 10
-0.4330127018922193
 20
-0.25
 30
0.0
 11
0.4330127018922193
 21
-0.25
 31
0.0
  0
LINE
  5
F1
330
EE
100
AcDbEntity
  8
0
  6
Continuous
 62
     0
370
    -2
390
5F
100
AcDbLine
 10
0.4330127018922193
 20
-0.25
 30
0.0
 11
0.0
 21
0.5
 31
0.0
  0
CIRCLE
  5
F2
330
EE
100
AcDbEntity
  8
0
  6
Continuous
 62
     0
370
    -2
390
5F
100
AcDbCircle
 10
0.0
 20
0.0
 30
0.0
 40
0.125
  0
CIRCLE
  5
F3
330
EE
100
AcDbEntity
  8
0
  6
Continuous
 62
     0
370
    -2
390
5F
100
AcDbCircle
 10
0.0
 20
0.0
 30
0.0
 40
0.5
  0
ENDBLK
  5
F5
330
EE
100
AcDbEntity
  8
0
100
AcDbBlockEnd
  0
BLOCK
  5
FB
330
F6
100
AcDbEntity
  8
0
100
AcDbBlockBegin
  2
CDWK_PTTYP28
 70
     0
 10
0.0
 20
0.0
 30
0.0
  3
CDWK_PTTYP28
  1

  0
LINE
  5
F7
330
F6
100
AcDbEntity
  8
0
  6
Continuous
 62
     0
370
    -2
390
5F
100
AcDbLine
 10
-0.5
 20
0.5
 30
0.0
 11
0.5
 21
0.5
 31
0.0
  0
LINE
  5
F8
330
F6
100
AcDbEntity
  8
0
  6
Continuous
 62
     0
370
    -2
390
5F
100
AcDbLine
 10
0.5
 20
0.5
 30
0.0
 11
-0.5
 21
-0.5
 31
0.0
  0
LINE
  5
F9
330
F6
100
AcDbEntity
  8
0
  6
Continuous
 62
     0
370
    -2
390
5F
100
AcDbLine
 10
0.5
 20
-0.5
 30
0.0
 11
-0.5
 21
-0.5
 31
0.0
  0
LINE
  5
FA
330
F6
100
AcDbEntity
  8
0
  6
Continuous
 62
     0
370
    -2
390
5F
100
AcDbLine
 10
-0.5
 20
0.5
 30
0.0
 11
0.5
 21
-0.5
 31
0.0
  0
ENDBLK
  5
FC
330
F6
100
AcDbEntity
  8
0
100
AcDbBlockEnd
  0
BLOCK
  5
101
330
FD
100
AcDbEntity
  8
0
100
AcDbBlockBegin
  2
CDWK_PTTYP29
 70
     0
 10
0.0
 20
0.0
 30
0.0
  3
CDWK_PTTYP29
  1

  0
CIRCLE
  5
FE
330
FD
100
AcDbEntity
  8
0
  6
Continuous
 62
     0
370
    -2
390
5F
100
AcDbCircle
 10
0.0
 20
0.0
 30
0.0
 40
0.2
  0
CIRCLE
  5
FF
330
FD
100
AcDbEntity
  8
0
  6
Continuous
 62
     0
370
    -2
390
5F
100
AcDbCircle
 10
0.0
 20
0.0
 30
0.0
 40
0.35
  0
CIRCLE
  5
100
330
FD
100
AcDbEntity
  8
0
  6
Continuous
 62
     0
370
    -2
390
5F
100
AcDbCircle
 10
0.0
 20
0.0
 30
0.0
 40
0.5
  0
ENDBLK
  5
102
330
FD
100
AcDbEntity
  8
0
100
AcDbBlockEnd
  0
BLOCK
  5
108
330
103
100
AcDbEntity
  8
0
100
AcDbBlockBegin
  2
CDWK_PTTYP30
 70
     0
 10
0.0
 20
0.0
 30
0.0
  3
CDWK_PTTYP30
  1

  0
LINE
  5
104
330
103
100
AcDbEntity
  8
0
  6
Continuous
 62
     0
370
    -2
390
5F
100
AcDbLine
 10
-0.5
 20
0.5
 30
0.0
 11
-0.1
 21
0.1
 31
0.0
  0
LINE
  5
105
330
103
100
AcDbEntity
  8
0
  6
Continuous
 62
     0
370
    -2
390
5F
100
AcDbLine
 10
0.5
 20
0.5
 30
0.0
 11
0.1
 21
0.1
 31
0.0
  0
LINE
  5
106
330
103
100
AcDbEntity
  8
0
  6
Continuous
 62
     0
370
    -2
390
5F
100
AcDbLine
 10
0.5
 20
-0.5
 30
0.0
 11
0.1
 21
-0.1
 31
0.0
  0
LINE
  5
107
330
103
100
AcDbEntity
  8
0
  6
Continuous
 62
     0
370
    -2
390
5F
100
AcDbLine
 10
-0.5
 20
-0.5
 30
0.0
 11
-0.1
 21
-0.1
 31
0.0
  0
ENDBLK
  5
109
330
103
100
AcDbEntity
  8
0
100
AcDbBlockEnd
  0
BLOCK
  5
110
330
10A
100
AcDbEntity
  8
0
100
AcDbBlockBegin
  2
CDWK_PTTYP31
 70
     0
 10
0.0
 20
0.0
 30
0.0
  3
CDWK_PTTYP31
  1

  0
LINE
  5
10B
330
10A
100
AcDbEntity
  8
0
  6
Continuous
 62
     0
370
    -2
390
5F
100
AcDbLine
 10
-0.5
 20
0.0
 30
0.0
 11
-0.1
 21
0.0
 31
0.0
  0
LINE
  5
10C
330
10A
100
AcDbEntity
  8
0
  6
Continuous
 62
     0
370
    -2
390
5F
100
AcDbLine
 10
0.1
 20
0.0
 30
0.0
 11
0.5
 21
0.0
 31
0.0
  0
LINE
  5
10D
330
10A
100
AcDbEntity
  8
0
  6
Continuous
 62
     0
370
    -2
390
5F
100
AcDbLine
 10
0.0
 20
0.5
 30
0.0
 11
0.0
 21
0.1
 31
0.0
  0
LINE
  5
10E
330
10A
100
AcDbEntity
  8
0
  6
Continuous
 62
     0
370
    -2
390
5F
100
AcDbLine
 10
0.0
 20
-0.1
 30
0.0
 11
0.0
 21
-0.5
 31
0.0
  0
CIRCLE
  5
10F
330
10A
100
AcDbEntity
  8
0
  6
Continuous
 62
     0
370
    -2
390
5F
100
AcDbCircle
 10
0.0
 20
0.0
 30
0.0
 40
0.1
  0
ENDBLK
  5
111
330
10A
100
AcDbEntity
  8
0
100
AcDbBlockEnd
  0
BLOCK
  5
119
330
112
100
AcDbEntity
  8
0
100
AcDbBlockBegin
  2
CDWK_PTTYP32
 70
     0
 10
0.0
 20
0.0
 30
0.0
  3
CDWK_PTTYP32
  1

  0
CIRCLE
  5
113
330
112
100
AcDbEntity
  8
0
  6
Continuous
 62
     0
370
    -2
390
5F
100
AcDbCircle
 10
0.0
 20
0.0
 30
0.0
 40
0.2
  0
CIRCLE
  5
114
330
112
100
AcDbEntity
  8
0
  6
Continuous
 62
     0
370
    -2
390
5F
100
AcDbCircle
 10
0.0
 20
0.0
 30
0.0
 40
0.5
  0
LINE
  5
115
330
112
100
AcDbEntity
  8
0
  6
Continuous
 62
     0
370
    -2
390
5F
100
AcDbLine
 10
0.1414213562373095
 20
0.1414213562373095
 30
0.0
 11
0.3535533905932738
 21
0.3535533905932738
 31
0.0
  0
LINE
  5
116
330
112
100
AcDbEntity
  8
0
  6
Continuous
 62
     0
370
    -2
390
5F
100
AcDbLine
 10
-0.1414213562373095
 20
0.1414213562373095
 30
0.0
 11
-0.3535533905932738
 21
0.3535533905932738
 31
0.0
  0
LINE
  5
117
330
112
100
AcDbEntity
  8
0
  6
Continuous
 62
     0
370
    -2
390
5F
100
AcDbLine
 10
0.1414213562373095
 20
-0.1414213562373095
 30
0.0
 11
0.3535533905932738
 21
-0.3535533905932738
 31
0.0
  0
LINE
  5
118
330
112
100
AcDbEntity
  8
0
  6
Continuous
 62
     0
370
    -2
390
5F
100
AcDbLine
 10
-0.1414213562373095
 20
-0.1414213562373095
 30
0.0
 11
-0.3535533905932738
 21
-0.3535533905932738
 31
0.0
  0
ENDBLK
  5
11A
330
112
100
AcDbEntity
  8
0
100
AcDbBlockEnd
  0
BLOCK
  5
11F
330
11B
100
AcDbEntity
  8
0
100
AcDbBlockBegin
  2
CDWK_PTTYP33
 70
     0
 10
0.0
 20
0.0
 30
0.0
  3
CDWK_PTTYP33
  1

  0
LINE
  5
11C
330
11B
100
AcDbEntity
  8
0
  6
Continuous
 62
     0
370
    -2
390
5F
100
AcDbLine
 10
0.0
 20
-0.5
 30
0.0
 11
0.0
 21
0.5
 31
0.0
  0
LINE
  5
11D
330
11B
100
AcDbEntity
  8
0
  6
Continuous
 62
     0
370
    -2
390
5F
100
AcDbLine
 10
0.5
 20
0.0
 30
0.0
 11
-0.5
 21
0.0
 31
0.0
  0
CIRCLE
  5
11E
330
11B
100
AcDbEntity
  8
0
  6
Continuous
 62
     0
370
    -2
390
5F
100
AcDbCircle
 10
0.0
 20
0.0
 30
0.0
 40
0.5
  0
ENDBLK
  5
120
330
11B
100
AcDbEntity
  8
0
100
AcDbBlockEnd
  0
BLOCK
  5
125
330
121
100
AcDbEntity
  8
0
100
AcDbBlockBegin
  2
CDWK_PTTYP34
 70
     0
 10
0.0
 20
0.0
 30
0.0
  3
CDWK_PTTYP34
  1

  0
CIRCLE
  5
122
330
121
100
AcDbEntity
  8
0
  6
Continuous
 62
     0
370
    -2
390
5F
100
AcDbCircle
 10
0.0
 20
0.0
 30
0.0
 40
0.5
  0
LINE
  5
123
330
121
100
AcDbEntity
  8
0
  6
Continuous
 62
     0
370
    -2
390
5F
100
AcDbLine
 10
-0.4
 20
-0.3
 30
0.0
 11
0.3
 21
0.4
 31
0.0
  0
LINE
  5
124
330
121
100
AcDbEntity
  8
0
  6
Continuous
 62
     0
370
    -2
390
5F
100
AcDbLine
 10
-0.3
 20
-0.4
 30
0.0
 11
0.4
 21
0.3
 31
0.0
  0
ENDBLK
  5
126
330
121
100
AcDbEntity
  8
0
100
AcDbBlockEnd
  0
BLOCK
  5
12B
330
127
100
AcDbEntity
  8
0
100
AcDbBlockBegin
  2
CDWK_PTTYP35
 70
     0
 10
0.0
 20
0.0
 30
0.0
  3
CDWK_PTTYP35
  1

  0
LINE
  5
128
330
127
100
AcDbEntity
  8
0
  6
Continuous
 62
     0
370
    -2
390
5F
100
AcDbLine
 10
0.0
 20
0.2
 30
0.0
 11
0.0
 21
0.5
 31
0.0
  0
LINE
  5
129
330
127
100
AcDbEntity
  8
0
  6
Continuous
 62
     0
370
    -2
390
5F
100
AcDbLine
 10
0.0
 20
-0.2
 30
0.0
 11
0.0
 21
-0.5
 31
0.0
  0
CIRCLE
  5
12A
330
127
100
AcDbEntity
  8
0
  6
Continuous
 62
     0
370
    -2
390
5F
100
AcDbCircle
 10
0.0
 20
0.0
 30
0.0
 40
0.2
  0
ENDBLK
  5
12C
330
127
100
AcDbEntity
  8
0
100
AcDbBlockEnd
  0
BLOCK
  5
133
330
12D
100
AcDbEntity
  8
0
100
AcDbBlockBegin
  2
CDWK_PTTYP36
 70
     0
 10
0.0
 20
0.0
 30
0.0
  3
CDWK_PTTYP36
  1

  0
LINE
  5
12E
330
12D
100
AcDbEntity
  8
0
  6
Continuous
 62
     0
370
    -2
390
5F
100
AcDbLine
 10
-0.5
 20
0.2
 30
0.0
 11
0.5
 21
0.2
 31
0.0
  0
LINE
  5
12F
330
12D
100
AcDbEntity
  8
0
  6
Continuous
 62
     0
370
    -2
390
5F
100
AcDbLine
 10
0.5
 20
0.2
 30
0.0
 11
0.5
 21
-0.2
 31
0.0
  0
LINE
  5
130
330
12D
100
AcDbEntity
  8
0
  6
Continuous
 62
     0
370
    -2
390
5F
100
AcDbLine
 10
0.5
 20
-0.2
 30
0.0
 11
-0.5
 21
-0.2
 31
0.0
  0
LINE
  5
131
330
12D
100
AcDbEntity
  8
0
  6
Continuous
 62
     0
370
    -2
390
5F
100
AcDbLine
 10
-0.5
 20
-0.2
 30
0.0
 11
-0.5
 21
0.2
 31
0.0
  0
HATCH
  5
132
330
12D
100
AcDbEntity
  8
0
  6
Continuous
 62
     0
370
    -2
390
5F
100
AcDbHatch
 10
0.0
 20
0.0
 30
0.0
210
0.0
220
0.0
230
1.0
  2
SOLID
 70
     1
 71
     0
 91
        1
 92
        3
 72
     0
 73
     1
 93
        3
 10
-0.5
 20
-0.2
 10
0.5
 20
-0.2
 10
0.5
 20
0.2
 97
        0
 75
     0
 76
     1
 98
        0
  0
ENDBLK
  5
134
330
12D
100
AcDbEntity
  8
0
100
AcDbBlockEnd
  0
BLOCK
  5
138
330
135
100
AcDbEntity
  8
0
100
AcDbBlockBegin
  2
CDWK_PTTYP37
 70
     0
 10
0.0
 20
0.0
 30
0.0
  3
CDWK_PTTYP37
  1

  0
HATCH
  5
136
330
135
100
AcDbEntity
  8
0
  6
Continuous
 62
     0
370
    -2
390
5F
100
AcDbHatch
 10
0.0
 20
0.0
 30
0.0
210
0.0
220
0.0
230
1.0
  2
SOLID
 70
     1
 71
     0
 91
        1
 92
        3
 72
     0
 73
     1
 93
      202
 10
-0.3535533905932738
 20
-0.3535533905932738
 10
-0.3485533905932738
 20
-0.3535533905932737
 10
-0.3435533905932738
 20
-0.3584836591895546
 10
-0.3385533905932738
 20
-0.3632782236961988
 10
-0.3335533905932738
 20
-0.367942389128785
 10
-0.3285533905932738
 20
-0.372481054046687
 10
-0.3235533905932738
 20
-0.3768987523588579
 10
-0.3185533905932738
 20
-0.3811996897107819
 10
-0.3135533905932738
 20
-0.3853877752881235
 10
-0.3085533905932737
 20
-0.3894666497242888
 10
-0.3035533905932737
 20
-0.3934397096803965
 10
-0.2985533905932737
 20
-0.3973101295704999
 10
-0.2935533905932737
 20
-0.4010808808273714
 10
-0.2885533905932737
 20
-0.4047547490409382
 10
-0.2835533905932737
 20
-0.4083343492496384
 10
-0.2785533905932737
 20
-0.4118221396222626
 10
-0.2735533905932737
 20
-0.4152204337324827
 10
-0.2685533905932737
 20
-0.4185314115988474
 10
-0.2635533905932737
 20
-0.4217571296384408
 10
-0.2585533905932737
 20
-0.4248995296617653
 10
-0.2535533905932737
 20
-0.4279604470190231
 10
-0.2485533905932737
 20
-0.4309416179932669
 10
-0.2435533905932737
 20
-0.4338446865234004
 10
-0.2385533905932737
 20
-0.4366712103293738
 10
-0.2335533905932737
 20
-0.439422666502825
 10
-0.2285533905932737
 20
-0.4421004566186126
 10
-0.2235533905932737
 20
-0.4447059114159811
 10
-0.2185533905932737
 20
-0.4472402950923041
 10
-0.2135533905932737
 20
-0.4497048092473372
 10
-0.2085533905932737
 20
-0.4521005965115692
 10
-0.2035533905932737
 20
-0.4544287438884664
 10
-0.1985533905932736
 20
-0.456690285837111
 10
-0.1935533905932736
 20
-0.45888620711884
 10
-0.1885533905932736
 20
-0.4610174454289638
 10
-0.1835533905932736
 20
-0.4630848938324164
 10
-0.1785533905932736
 20
-0.4650894030202291
 10
-0.1735533905932736
 20
-0.4670317834019928
 10
-0.1685533905932736
 20
-0.46891280704794
 10
-0.1635533905932736
 20
-0.4707332094929264
 10
-0.1585533905932736
 20
-0.4724936914133818
 10
-0.1535533905932736
 20
-0.4741949201872336
 10
-0.1485533905932736
 20
-0.4758375313458466
 10
-0.1435533905932736
 20
-0.4774221299261716
 10
-0.1385533905932736
 20
-0.4789492917305286
 10
-0.1335533905932736
 20
-0.4804195645007682
 10
-0.1285533905932736
 20
-0.4818334690129366
 10
-0.1235533905932736
 20
-0.4831915000980183
 10
-0.1185533905932736
 20
-0.4844941275938295
 10
-0.1135533905932736
 20
-0.4857417972326848
 10
-0.1085533905932736
 20
-0.4869349314690531
 10
-0.1035533905932736
 20
-0.4880739302510473
 10
-0.0985533905932736
 20
-0.489159171739258
 10
-0.0935533905932736
 20
-0.4901910129761353
 10
-0.0885533905932736
 20
-0.4911697905088447
 10
-0.0835533905932735
 20
-0.4920958209682695
 10
-0.0785533905932735
 20
-0.4929694016065986
 10
-0.0735533905932735
 20
-0.4937908107957261
 10
-0.0685533905932735
 20
-0.494560308488493
 10
-0.0635533905932735
 20
-0.4952781366446192
 10
-0.0585533905932735
 20
-0.4959445196230107
 10
-0.0535533905932735
 20
-0.4965596645419678
 10
-0.0485533905932735
 20
-0.4971237616086806
 10
-0.0435533905932735
 20
-0.4976369844192622
 10
-0.0385533905932735
 20
-0.4980994902304456
 10
-0.0335533905932735
 20
-0.4985114202039533
 10
-0.0285533905932735
 20
-0.4988728996244386
 10
-0.0235533905932735
 20
-0.4991840380917923
 10
-0.0185533905932735
 20
-0.49944492968851
 10
-0.0135533905932735
 20
-0.4996556531227215
 10
-0.0085533905932735
 20
-0.4998162718473921
 10
-0.0035533905932735
 20
-0.4999268341561182
 10
0.0014466094067265
 20
-0.499987373255857
 10
0.0064466094067265
 20
-0.4999979073168451
 10
0.0114466094067265
 20
-0.4999584394998819
 10
0.0164466094067265
 20
-0.4998689579610739
 10
0.0214466094067265
 20
-0.4997294358340547
 10
0.0264466094067265
 20
-0.4995398311896213
 10
0.0314466094067265
 20
-0.4993000869726422
 10
0.0364466094067265
 20
-0.4990101309160174
 10
0.0414466094067265
 20
-0.4986698754313855
 10
0.0464466094067265
 20
-0.498279217476192
 10
0.0514466094067265
 20
-0.4978380383966446
 10
0.0564466094067265
 20
-0.497346203745994
 10
0.0614466094067265
 20
-0.4968035630774849
 10
0.0664466094067264
 20
-0.4962099497112257
 10
0.0714466094067265
 20
-0.4955651804741228
 10
0.0764466094067265
 20
-0.4948690554119167
 10
0.0814466094067265
 20
-0.4941213574722463
 10
0.0864466094067265
 20
-0.4933218521575424
 10
0.0914466094067265
 20
-0.4924702871464235
 10
0.0964466094067265
 20
-0.4915663918821278
 10
0.1014466094067265
 20
-0.4906098771263643
 10
0.1064466094067265
 20
-0.4896004344768079
 10
0.1114466094067265
 20
-0.4885377358462822
 10
0.1164466094067265
 20
-0.4874214329014929
 10
0.1214466094067265
 20
-0.4862511564589613
 10
0.1264466094067265
 20
-0.4850265158355881
 10
0.1314466094067265
 20
-0.4837470981510305
 10
0.1364466094067265
 20
-0.482412467578809
 10
0.1414466094067265
 20
-0.4810221645427664
 10
0.1464466094067265
 20
-0.4795757048551781
 10
0.1514466094067265
 20
-0.4780725787924608
 10
0.1564466094067265
 20
-0.4765122501040308
 10
0.1614466094067265
 20
-0.4748941549494363
 10
0.1664466094067265
 20
-0.4732177007584056
 10
0.1714466094067265
 20
-0.4714822650079264
 10
0.1764466094067265
 20
-0.4696871939098801
 10
0.1814466094067266
 20
-0.4678318010021017
 10
0.1864466094067266
 20
-0.4659153656350076
 10
0.1914466094067266
 20
-0.4639371313451162
 10
0.1964466094067266
 20
-0.4618963041058764
 10
0.2014466094067266
 20
-0.4597920504451997
 10
0.2064466094067266
 20
-0.4576234954179405
 10
0.2114466094067266
 20
-0.4553897204202862
 10
0.2164466094067266
 20
-0.4530897608315588
 10
0.2214466094067266
 20
-0.45072260346729
 10
0.2264466094067266
 20
-0.4482871838255748
 10
0.2314466094067266
 20
-0.4457823831065977
 10
0.2364466094067266
 20
-0.4432070249828292
 10
0.2414466094067266
 20
-0.4405598720946596
 10
0.2464466094067266
 20
-0.4378396222431172
 10
0.2514466094067266
 20
-0.4350449042477435
 10
0.2564466094067266
 20
-0.4321742734336012
 10
0.2614466094067266
 20
-0.4292262067066663
 10
0.2664466094067266
 20
-0.4261990971714118
 10
0.2714466094067266
 20
-0.4230912482380831
 10
0.2764466094067266
 20
-0.4199008671598476
 10
0.2814466094067266
 20
-0.4166260579314797
 10
0.2864466094067266
 20
-0.4132648134712868
 10
0.2914466094067266
 20
-0.4098150069963156
 10
0.2964466094067266
 20
-0.4062743824871597
 10
0.3014466094067266
 20
-0.4026405441224911
 10
0.3064466094067266
 20
-0.3989109445442534
 10
0.3114466094067266
 20
-0.3950828717916294
 10
0.3164466094067266
 20
-0.391153434714632
 10
0.3214466094067266
 20
-0.3871195466454601
 10
0.3264466094067267
 20
-0.3829779070663467
 10
0.3314466094067267
 20
-0.3787249809648844
 10
0.3364466094067267
 20
-0.3743569755097196
 10
0.3414466094067267
 20
-0.3698698136084067
 10
0.3464466094067267
 20
-0.3652591038217257
 10
0.3514466094067267
 20
-0.3605201060004601
 10
0.3564466094067267
 20
-0.3556476918757041
 10
0.3614466094067267
 20
-0.3506362996645505
 10
0.3664466094067267
 20
-0.34547988153926
 10
0.3714466094067267
 20
-0.3401718425359658
 10
0.3764466094067267
 20
-0.334704969129899
 10
0.3814466094067267
 20
-0.3290713452523318
 10
0.3864466094067267
 20
-0.3232622529342269
 10
0.3914466094067267
 20
-0.3172680539828188
 10
0.3964466094067267
 20
-0.3110780480586465
 10
0.4014466094067267
 20
-0.304680301118911
 10
0.4064466094067267
 20
-0.2980614362775617
 10
0.4114466094067267
 20
-0.291206376478565
 10
0.4164466094067267
 20
-0.2840980246459106
 10
0.4214466094067267
 20
-0.276716861635935
 10
0.4264466094067267
 20
-0.2690404345439063
 10
0.4314466094067267
 20
-0.2610426963649944
 10
0.4364466094067267
 20
-0.2526931404518915
 10
0.4414466094067268
 20
-0.2439556458403291
 10
0.4464466094067268
 20
-0.2347869056044327
 10
0.4514466094067268
 20
-0.2251342376211081
 10
0.4564466094067268
 20
-0.2149324518428296
 10
0.4614466094067268
 20
-0.2040992228331676
 10
0.4664466094067268
 20
-0.1925279893081412
 10
0.4714466094067268
 20
-0.1800765408735088
 10
0.4764466094067268
 20
-0.1665475742210051
 10
0.4814466094067268
 20
-0.1516529867323223
 10
0.4864466094067268
 20
-0.1349413290684758
 10
0.4914466094067268
 20
-0.1156274024472547
 10
0.4964466094067268
 20
-0.0920881648347501
 10
0.5
 20
0.0
 10
0.495
 20
0.0
 10
0.49
 20
0.0705336798983295
 10
0.485
 20
0.0994987437106621
 10
0.48
 20
0.1215524578114322
 10
0.475
 20
0.14
 10
0.47
 20
0.15612494995996
 10
0.465
 20
0.1705872210923199
 10
0.46
 20
0.1837797594948911
 10
0.455
 20
0.1959591794226544
 10
0.45
 20
0.2073041244162789
 10
0.445
 20
0.2179449471770338
 10
0.4399999999999999
 20
0.2279802623035601
 10
0.4349999999999999
 20
0.2374868417407584
 10
0.4299999999999999
 20
0.2465258607124211
 10
0.4249999999999999
 20
0.2551470164434615
 10
0.4199999999999999
 20
0.2633913438213186
 10
0.4149999999999999
 20
0.2712931993250108
 10
0.4099999999999999
 20
0.2788816953476869
 10
0.4049999999999999
 20
0.2861817604250838
 10
0.3999999999999999
 20
0.2932149382279151
 10
0.3949999999999999
 20
0.3000000000000002
 10
0.3899999999999999
 20
0.3065534211193868
 10
0.3849999999999999
 20
0.3128897569432404
 10
0.3799999999999999
 20
0.3190219428189855
 10
0.3749999999999999
 20
0.3249615361854385
 10
0.3699999999999999
 20
0.330718913883074
 10
0.3649999999999999
 20
0.3363034344160049
 10
0.3599999999999999
 20
0.3417235724968357
 10
0.3549999999999999
 20
0.3469870314579496
 10
0.3535533905932738
 20
0.3535533905932738
 97
        0
 75
     0
 76
     1
 98
        0
  0
CIRCLE
  5
137
330
135
100
AcDbEntity
  8
0
  6
Continuous
 62
     0
370
    -2
390
5F
100
AcDbCircle
 10
0.0
 20
0.0
 30
0.0
 40
0.5
  0
ENDBLK
  5
139
330
135
100
AcDbEntity
  8
0
100
AcDbBlockEnd
  0
BLOCK
  5
13E
330
13A
100
AcDbEntity
  8
0
100
AcDbBlockBegin
  2
CDWK_PTTYP38
 70
     0
 10
0.0
 20
0.0
 30
0.0
  3
CDWK_PTTYP38
  1

  0
HATCH
  5
13B
330
13A
100
AcDbEntity
  8
0
  6
Continuous
 62
     0
370
    -2
390
5F
100
AcDbHatch
 10
0.0
 20
0.0
 30
0.0
210
0.0
220
0.0
230
1.0
  2
SOLID
 70
     1
 71
     0
 91
        1
 92
        3
 72
     0
 73
     1
 93
      102
 10
0.0
 20
0.0
 10
0.0
 20
0.5
 10
0.005
 20
0.5
 10
0.01
 20
0.4999749993749688
 10
0.015
 20
0.4998999899979995
 10
0.02
 20
0.4997749493522059
 10
0.025
 20
0.4995998398718718
 10
0.03
 20
0.4993746088859545
 10
0.035
 20
0.4990991885387112
 10
0.04
 20
0.4987734956871706
 10
0.045
 20
0.4983974317750845
 10
0.05
 20
0.4979708826829135
 10
0.055
 20
0.49749371855331
 10
0.06
 20
0.4969657935914704
 10
0.065
 20
0.4963869458396343
 10
0.07
 20
0.4957569969249047
 10
0.075
 20
0.4950757517794626
 10
0.08
 20
0.4943429983321297
 10
0.085
 20
0.4935585071701227
 10
0.09
 20
0.4927220311697053
 10
0.095
 20
0.4918333050943175
 10
0.1
 20
0.4908920451586071
 10
0.105
 20
0.4898979485566356
 10
0.11
 20
0.4888506929523574
 10
0.115
 20
0.4877499359302879
 10
0.12
 20
0.4865953144040744
 10
0.125
 20
0.4853864439804639
 10
0.13
 20
0.4841229182759271
 10
0.135
 20
0.4828043081829325
 10
0.14
 20
0.4814301610825811
 10
0.145
 20
0.48
 10
0.15
 20
0.478513322698543
 10
0.1550000000000001
 20
0.4769696007084728
 10
0.1600000000000001
 20
0.4753682782853731
 10
0.1650000000000001
 20
0.4737087712930804
 10
0.1700000000000001
 20
0.4719904660054056
 10
0.1750000000000001
 20
0.4702127178203498
 10
0.1800000000000001
 20
0.4683748498798799
 10
0.1850000000000001
 20
0.466476151587624
 10
0.1900000000000001
 20
0.4645158770160606
 10
0.1950000000000001
 20
0.4624932431938871
 10
0.2000000000000001
 20
0.460407428263272
 10
0.2050000000000001
 20
0.4582575694955839
 10
0.2100000000000001
 20
0.4560427611529427
 10
0.2150000000000001
 20
0.4537620521815371
 10
0.2200000000000001
 20
0.4514144437210665
 10
0.2250000000000001
 20
0.4489988864128729
 10
0.2300000000000001
 20
0.4465142774872937
 10
0.2350000000000001
 20
0.4439594576084622
 10
0.2400000000000001
 20
0.4413332074521472
 10
0.2450000000000001
 20
0.4386342439892261
 10
0.2500000000000001
 20
0.4358612164439502
 10
0.2550000000000001
 20
0.4330127018922192
 10
0.2600000000000001
 20
0.4300872004605577
 10
0.2650000000000001
 20
0.4270831300812524
 10
0.2700000000000001
 20
0.423998820753077
 10
0.2750000000000001
 20
0.4208325082500162
 10
0.2800000000000001
 20
0.4175823272122516
 10
0.2850000000000001
 20
0.4142463035441595
 10
0.2900000000000001
 20
0.4108223460329293
 10
0.2950000000000002
 20
0.4073082370883259
 10
0.3000000000000002
 20
0.403701622488689
 10
0.3050000000000002
 20
0.3999999999999999
 10
0.3100000000000002
 20
0.3962007067131506
 10
0.3150000000000002
 20
0.3923009049186605
 10
0.3200000000000002
 20
0.3882975663070783
 10
0.3250000000000002
 20
0.3841874542459708
 10
0.3300000000000002
 20
0.3799671038392664
 10
0.3350000000000002
 20
0.3756327994198588
 10
0.3400000000000002
 20
0.3711805490593491
 10
0.3450000000000002
 20
0.366606055596467
 10
0.3500000000000002
 20
0.3619046835839512
 10
0.3550000000000002
 20
0.3570714214271423
 10
0.3600000000000002
 20
0.3521008378291649
 10
0.3650000000000002
 20
0.3469870314579492
 10
0.3700000000000002
 20
0.3417235724968353
 10
0.3750000000000002
 20
0.3363034344160045
 10
0.3800000000000002
 20
0.3307189138830736
 10
0.3850000000000002
 20
0.3249615361854382
 10
0.3900000000000002
 20
0.3190219428189851
 10
0.3950000000000002
 20
0.31288975694324
 10
0.4000000000000002
 20
0.3065534211193863
 10
0.4050000000000002
 20
0.2999999999999997
 10
0.4100000000000003
 20
0.2932149382279147
 10
0.4150000000000003
 20
0.2861817604250834
 10
0.4200000000000003
 20
0.2788816953476864
 10
0.4250000000000003
 20
0.2712931993250103
 10
0.4300000000000003
 20
0.263391343821318
 10
0.4350000000000003
 20
0.255147016443461
 10
0.4400000000000003
 20
0.2465258607124206
 10
0.4450000000000003
 20
0.2374868417407578
 10
0.4500000000000003
 20
0.2279802623035594
 10
0.4550000000000003
 20
0.2179449471770331
 10
0.4600000000000003
 20
0.2073041244162782
 10
0.4650000000000003
 20
0.1959591794226536
 10
0.4700000000000003
 20
0.1837797594948903
 10
0.4750000000000003
 20
0.170587221092319
 10
0.4800000000000003
 20
0.156124949959959
 10
0.4850000000000003
 20
0.1399999999999989
 10
0.4900000000000003
 20
0.1215524578114309
 10
0.4950000000000003
 20
0.0994987437106604
 10
0.5
 20
0.0
 97
        0
 75
     0
 76
     1
 98
        0
  0
HATCH
  5
13C
330
13A
100
AcDbEntity
  8
0
  6
Continuous
 62
     0
370
    -2
390
5F
100
AcDbHatch
 10
0.0
 20
0.0
 30
0.0
210
0.0
220
0.0
230
1.0
  2
SOLID
 70
     1
 71
     0
 91
        1
 92
        3
 72
     0
 73
     1
 93
      102
 10
0.0
 20
0.0
 10
-0.5
 20
0.0
 10
-0.495
 20
0.0
 10
-0.49
 20
-0.0705336798983295
 10
-0.485
 20
-0.0994987437106621
 10
-0.48
 20
-0.1215524578114322
 10
-0.475
 20
-0.14
 10
-0.47
 20
-0.15612494995996
 10
-0.465
 20
-0.1705872210923199
 10
-0.46
 20
-0.1837797594948911
 10
-0.455
 20
-0.1959591794226544
 10
-0.45
 20
-0.2073041244162789
 10
-0.445
 20
-0.2179449471770338
 10
-0.4399999999999999
 20
-0.2279802623035601
 10
-0.4349999999999999
 20
-0.2374868417407584
 10
-0.4299999999999999
 20
-0.2465258607124211
 10
-0.4249999999999999
 20
-0.2551470164434615
 10
-0.4199999999999999
 20
-0.2633913438213186
 10
-0.4149999999999999
 20
-0.2712931993250108
 10
-0.4099999999999999
 20
-0.2788816953476869
 10
-0.4049999999999999
 20
-0.2861817604250838
 10
-0.3999999999999999
 20
-0.2932149382279151
 10
-0.3949999999999999
 20
-0.3000000000000002
 10
-0.3899999999999999
 20
-0.3065534211193868
 10
-0.3849999999999999
 20
-0.3128897569432404
 10
-0.3799999999999999
 20
-0.3190219428189855
 10
-0.3749999999999999
 20
-0.3249615361854385
 10
-0.3699999999999999
 20
-0.330718913883074
 10
-0.3649999999999999
 20
-0.3363034344160049
 10
-0.3599999999999999
 20
-0.3417235724968357
 10
-0.3549999999999999
 20
-0.3469870314579496
 10
-0.3499999999999999
 20
-0.3521008378291652
 10
-0.3449999999999999
 20
-0.3570714214271427
 10
-0.3399999999999999
 20
-0.3619046835839516
 10
-0.3349999999999999
 20
-0.3666060555964674
 10
-0.3299999999999998
 20
-0.3711805490593494
 10
-0.3249999999999998
 20
-0.3756327994198591
 10
-0.3199999999999998
 20
-0.3799671038392667
 10
-0.3149999999999998
 20
-0.3841874542459711
 10
-0.3099999999999998
 20
-0.3882975663070786
 10
-0.3049999999999998
 20
-0.3923009049186608
 10
-0.2999999999999998
 20
-0.3962007067131507
 10
-0.2949999999999998
 20
-0.4000000000000001
 10
-0.2899999999999998
 20
-0.4037016224886891
 10
-0.2849999999999998
 20
-0.4073082370883261
 10
-0.2799999999999998
 20
-0.4108223460329296
 10
-0.2749999999999998
 20
-0.4142463035441597
 10
-0.2699999999999998
 20
-0.4175823272122518
 10
-0.2649999999999998
 20
-0.4208325082500164
 10
-0.2599999999999998
 20
-0.4239988207530773
 10
-0.2549999999999998
 20
-0.4270831300812526
 10
-0.2499999999999998
 20
-0.4300872004605579
 10
-0.2449999999999998
 20
-0.4330127018922195
 10
-0.2399999999999998
 20
-0.4358612164439503
 10
-0.2349999999999998
 20
-0.4386342439892263
 10
-0.2299999999999998
 20
-0.4413332074521473
 10
-0.2249999999999998
 20
-0.4439594576084624
 10
-0.2199999999999998
 20
-0.4465142774872939
 10
-0.2149999999999997
 20
-0.4489988864128731
 10
-0.2099999999999997
 20
-0.4514144437210667
 10
-0.2049999999999997
 20
-0.4537620521815372
 10
-0.1999999999999997
 20
-0.4560427611529429
 10
-0.1949999999999997
 20
-0.4582575694955841
 10
-0.1899999999999997
 20
-0.4604074282632722
 10
-0.1849999999999997
 20
-0.4624932431938872
 10
-0.1799999999999997
 20
-0.4645158770160608
 10
-0.1749999999999997
 20
-0.4664761515876241
 10
-0.1699999999999997
 20
-0.46837484987988
 10
-0.1649999999999997
 20
-0.47021271782035
 10
-0.1599999999999997
 20
-0.4719904660054058
 10
-0.1549999999999997
 20
-0.4737087712930805
 10
-0.1499999999999997
 20
-0.4753682782853733
 10
-0.1449999999999997
 20
-0.4769696007084729
 10
-0.1399999999999997
 20
-0.4785133226985431
 10
-0.1349999999999997
 20
-0.4800000000000001
 10
-0.1299999999999997
 20
-0.4814301610825812
 10
-0.1249999999999997
 20
-0.4828043081829325
 10
-0.1199999999999997
 20
-0.4841229182759272
 10
-0.1149999999999997
 20
-0.485386443980464
 10
-0.1099999999999997
 20
-0.4865953144040744
 10
-0.1049999999999996
 20
-0.487749935930288
 10
-0.0999999999999996
 20
-0.4888506929523574
 10
-0.0949999999999996
 20
-0.4898979485566357
 10
-0.0899999999999996
 20
-0.4908920451586072
 10
-0.0849999999999996
 20
-0.4918333050943176
 10
-0.0799999999999996
 20
-0.4927220311697053
 10
-0.0749999999999996
 20
-0.4935585071701227
 10
-0.0699999999999996
 20
-0.4943429983321298
 10
-0.0649999999999996
 20
-0.4950757517794626
 10
-0.0599999999999996
 20
-0.4957569969249048
 10
-0.0549999999999996
 20
-0.4963869458396343
 10
-0.0499999999999996
 20
-0.4969657935914705
 10
-0.0449999999999996
 20
-0.49749371855331
 10
-0.0399999999999996
 20
-0.4979708826829135
 10
-0.0349999999999996
 20
-0.4983974317750846
 10
-0.0299999999999996
 20
-0.4987734956871706
 10
-0.0249999999999996
 20
-0.4990991885387112
 10
-0.0199999999999996
 20
-0.4993746088859545
 10
-0.0149999999999996
 20
-0.4995998398718719
 10
-0.0099999999999996
 20
-0.499774949352206
 10
-0.0049999999999996
 20
-0.4998999899979995
 10
0.0
 20
-0.5
 97
        0
 75
     0
 76
     1
 98
        0
  0
CIRCLE
  5
13D
330
13A
100
AcDbEntity
  8
0
  6
Continuous
 62
     0
370
    -2
390
5F
100
AcDbCircle
 10
0.0
 20
0.0
 30
0.0
 40
0.5
  0
ENDBLK
  5
13F
330
13A
100
AcDbEntity
  8
0
100
AcDbBlockEnd
  0
BLOCK
  5
148
330
140
100
AcDbEntity
  8
0
100
AcDbBlockBegin
  2
CDWK_PTTYP41
 70
     0
 10
0.0
 20
0.0
 30
0.0
  3
CDWK_PTTYP41
  1

  0
LINE
  5
141
330
140
100
AcDbEntity
  8
0
  6
Continuous
 62
     0
370
    -2
390
5F
100
AcDbLine
 10
-0.5
 20
0.5
 30
0.0
 11
0.5
 21
0.5
 31
0.0
  0
LINE
  5
142
330
140
100
AcDbEntity
  8
0
  6
Continuous
 62
     0
370
    -2
390
5F
100
AcDbLine
 10
0.5
 20
0.5
 30
0.0
 11
0.5
 21
-0.5
 31
0.0
  0
LINE
  5
143
330
140
100
AcDbEntity
  8
0
  6
Continuous
 62
     0
370
    -2
390
5F
100
AcDbLine
 10
0.5
 20
-0.5
 30
0.0
 11
-0.5
 21
-0.5
 31
0.0
  0
LINE
  5
144
330
140
100
AcDbEntity
  8
0
  6
Continuous
 62
     0
370
    -2
390
5F
100
AcDbLine
 10
-0.5
 20
-0.5
 30
0.0
 11
-0.5
 21
0.5
 31
0.0
  0
LINE
  5
145
330
140
100
AcDbEntity
  8
0
  6
Continuous
 62
     0
370
    -2
390
5F
100
AcDbLine
 10
-0.375
 20
0.25
 30
0.0
 11
0.375
 21
0.25
 31
0.0
  0
LINE
  5
146
330
140
100
AcDbEntity
  8
0
  6
Continuous
 62
     0
370
    -2
390
5F
100
AcDbLine
 10
-0.375
 20
0.0
 30
0.0
 11
0.375
 21
0.0
 31
0.0
  0
LINE
  5
147
330
140
100
AcDbEntity
  8
0
  6
Continuous
 62
     0
370
    -2
390
5F
100
AcDbLine
 10
-0.375
 20
-0.25
 30
0.0
 11
0.375
 21
-0.25
 31
0.0
  0
ENDBLK
  5
149
330
140
100
AcDbEntity
  8
0
100
AcDbBlockEnd
  0
BLOCK
  5
151
330
14A
100
AcDbEntity
  8
0
100
AcDbBlockBegin
  2
CDWK_PTTYP42
 70
     0
 10
0.0
 20
0.0
 30
0.0
  3
CDWK_PTTYP42
  1

  0
LINE
  5
14B
330
14A
100
AcDbEntity
  8
0
  6
Continuous
 62
     0
370
    -2
390
5F
100
AcDbLine
 10
-0.5
 20
0.5
 30
0.0
 11
0.5
 21
0.5
 31
0.0
  0
LINE
  5
14C
330
14A
100
AcDbEntity
  8
0
  6
Continuous
 62
     0
370
    -2
390
5F
100
AcDbLine
 10
0.5
 20
0.5
 30
0.0
 11
0.5
 21
-0.5
 31
0.0
  0
LINE
  5
14D
330
14A
100
AcDbEntity
  8
0
  6
Continuous
 62
     0
370
    -2
390
5F
100
AcDbLine
 10
0.5
 20
-0.5
 30
0.0
 11
-0.5
 21
-0.5
 31
0.0
  0
LINE
  5
14E
330
14A
100
AcDbEntity
  8
0
  6
Continuous
 62
     0
370
    -2
390
5F
100
AcDbLine
 10
-0.5
 20
-0.5
 30
0.0
 11
-0.5
 21
0.5
 31
0.0
  0
LINE
  5
14F
330
14A
100
AcDbEntity
  8
0
  6
Continuous
 62
     0
370
    -2
390
5F
100
AcDbLine
 10
-0.375
 20
0.125
 30
0.0
 11
0.375
 21
0.125
 31
0.0
  0
LINE
  5
150
330
14A
100
AcDbEntity
  8
0
  6
Continuous
 62
     0
370
    -2
390
5F
100
AcDbLine
 10
-0.375
 20
-0.125
 30
0.0
 11
0.375
 21
-0.125
 31
0.0
  0
ENDBLK
  5
152
330
14A
100
AcDbEntity
  8
0
100
AcDbBlockEnd
  0
BLOCK
  5
157
330
153
100
AcDbEntity
  8
0
100
AcDbBlockBegin
  2
CDWK_PTTYP43
 70
     0
 10
0.0
 20
0.0
 30
0.0
  3
CDWK_PTTYP43
  1

  0
CIRCLE
  5
154
330
153
100
AcDbEntity
  8
0
  6
Continuous
 62
     0
370
    -2
390
5F
100
AcDbCircle
 10
0.0
 20
0.0
 30
0.0
 40
0.5
  0
LINE
  5
155
330
153
100
AcDbEntity
  8
0
  6
Continuous
 62
     0
370
    -2
390
5F
100
AcDbLine
 10
-0.375
 20
0.166
 30
0.0
 11
0.375
 21
0.166
 31
0.0
  0
LINE
  5
156
330
153
100
AcDbEntity
  8
0
  6
Continuous
 62
     0
370
    -2
390
5F
100
AcDbLine
 10
-0.375
 20
-0.166
 30
0.0
 11
0.375
 21
-0.166
 31
0.0
  0
ENDBLK
  5
158
330
153
100
AcDbEntity
  8
0
100
AcDbBlockEnd
  0
BLOCK
  5
160
330
159
100
AcDbEntity
  8
0
100
AcDbBlockBegin
  2
CDWK_PTTYP44
 70
     0
 10
0.0
 20
0.0
 30
0.0
  3
CDWK_PTTYP44
  1

  0
CIRCLE
  5
15A
330
159
100
AcDbEntity
  8
0
  6
Continuous
 62
     0
370
    -2
390
5F
100
AcDbCircle
 10
0.0
 20
0.0
 30
0.0
 40
0.5
  0
LINE
  5
15B
330
159
100
AcDbEntity
  8
0
  6
Continuous
 62
     0
370
    -2
390
5F
100
AcDbLine
 10
-0.375
 20
0.333
 30
0.0
 11
0.375
 21
0.333
 31
0.0
  0
LINE
  5
15C
330
159
100
AcDbEntity
  8
0
  6
Continuous
 62
     0
370
    -2
390
5F
100
AcDbLine
 10
-0.375
 20
0.166
 30
0.0
 11
0.375
 21
0.166
 31
0.0
  0
LINE
  5
15D
330
159
100
AcDbEntity
  8
0
  6
Continuous
 62
     0
370
    -2
390
5F
100
AcDbLine
 10
-0.375
 20
0.0
 30
0.0
 11
0.375
 21
0.0
 31
0.0
  0
LINE
  5
15E
330
159
100
AcDbEntity
  8
0
  6
Continuous
 62
     0
370
    -2
390
5F
100
AcDbLine
 10
-0.375
 20
-0.166
 30
0.0
 11
0.375
 21
-0.166
 31
0.0
  0
LINE
  5
15F
330
159
100
AcDbEntity
  8
0
  6
Continuous
 62
     0
370
    -2
390
5F
100
AcDbLine
 10
-0.375
 20
-0.333
 30
0.0
 11
0.375
 21
-0.333
 31
0.0
  0
ENDBLK
  5
161
330
159
100
AcDbEntity
  8
0
100
AcDbBlockEnd
  0
BLOCK
  5
165
330
162
100
AcDbEntity
  8
0
100
AcDbBlockBegin
  2
CDWK_PTTYP45
 70
     0
 10
0.0
 20
0.0
 30
0.0
  3
CDWK_PTTYP45
  1

  0
ELLIPSE
  5
163
330
162
100
AcDbEntity
  8
0
  6
Continuous
 62
     0
370
    -2
390
5F
100
AcDbEllipse
 10
0.0
 20
0.0
 30
0.0
 11
0.5
 21
0.0
 31
0.0
210
0.0
220
0.0
230
1.0
 40
0.82
 41
0.0
 42
6.283185307179586
  0
CIRCLE
  5
164
330
162
100
AcDbEntity
  8
0
  6
Continuous
 62
     0
370
    -2
390
5F
100
AcDbCircle
 10
-0.235
 20
0.0
 30
0.0
 40
0.26
  0
ENDBLK
  5
166
330
162
100
AcDbEntity
  8
0
100
AcDbBlockEnd
  0
BLOCK
  5
16A
330
167
100
AcDbEntity
  8
0
100
AcDbBlockBegin
  2
CDWK_PTTYP46
 70
     0
 10
0.0
 20
0.0
 30
0.0
  3
CDWK_PTTYP46
  1

  0
ELLIPSE
  5
168
330
167
100
AcDbEntity
  8
0
  6
Continuous
 62
     0
370
    -2
390
5F
100
AcDbEllipse
 10
0.0
 20
0.0
 30
0.0
 11
0.5
 21
0.0
 31
0.0
210
0.0
220
0.0
230
1.0
 40
0.82
 41
0.0
 42
6.283185307179586
  0
CIRCLE
  5
169
330
167
100
AcDbEntity
  8
0
  6
Continuous
 62
     0
370
    -2
390
5F
100
AcDbCircle
 10
0.0
 20
0.15
 30
0.0
 40
0.26
  0
ENDBLK
  5
16B
330
167
100
AcDbEntity
  8
0
100
AcDbBlockEnd
  0
BLOCK
  5
172
330
16C
100
AcDbEntity
  8
0
100
AcDbBlockBegin
  2
CDWK_PTTYP47
 70
     0
 10
0.0
 20
0.0
 30
0.0
  3
CDWK_PTTYP47
  1

  0
LINE
  5
16D
330
16C
100
AcDbEntity
  8
0
  6
Continuous
 62
     0
370
    -2
390
5F
100
AcDbLine
 10
-0.5
 20
0.166
 30
0.0
 11
0.5
 21
0.166
 31
0.0
  0
LINE
  5
16E
330
16C
100
AcDbEntity
  8
0
  6
Continuous
 62
     0
370
    -2
390
5F
100
AcDbLine
 10
0.5
 20
0.166
 30
0.0
 11
0.5
 21
-0.166
 31
0.0
  0
LINE
  5
16F
330
16C
100
AcDbEntity
  8
0
  6
Continuous
 62
     0
370
    -2
390
5F
100
AcDbLine
 10
0.5
 20
-0.166
 30
0.0
 11
-0.5
 21
-0.166
 31
0.0
  0
LINE
  5
170
330
16C
100
AcDbEntity
  8
0
  6
Continuous
 62
     0
370
    -2
390
5F
100
AcDbLine
 10
-0.5
 20
-0.166
 30
0.0
 11
-0.5
 21
0.166
 31
0.0
  0
CIRCLE
  5
171
330
16C
100
AcDbEntity
  8
0
  6
Continuous
 62
     0
370
    -2
390
5F
100
AcDbCircle
 10
0.0
 20
-0.313
 30
0.0
 40
0.4
  0
ENDBLK
  5
173
330
16C
100
AcDbEntity
  8
0
100
AcDbBlockEnd
  0
BLOCK
  5
178
330
175
100
AcDbEntity
  8
0
100
AcDbBlockBegin
  2
CDWK_PTTYP48
 70
     0
 10
0.0
 20
0.0
 30
0.0
  3
CDWK_PTTYP48
  1

  0
CIRCLE
  5
176
330
175
100
AcDbEntity
  8
0
  6
CADWORK_3
 62
     0
 48
0.1
370
    -2
390
5F
100
AcDbCircle
 10
0.0
 20
0.0
 30
0.0
 40
0.5
  0
CIRCLE
  5
177
330
175
100
AcDbEntity
  8
0
  6
Continuous
 62
     0
370
    -2
390
5F
100
AcDbCircle
 10
0.0
 20
0.0
 30
0.0
 40
0.25
  0
ENDBLK
  5
179
330
175
100
AcDbEntity
  8
0
100
AcDbBlockEnd
  0
BLOCK
  5
17F
330
17A
100
AcDbEntity
  8
0
100
AcDbBlockBegin
  2
CDWK_PTTYP49
 70
     0
 10
0.0
 20
0.0
 30
0.0
  3
CDWK_PTTYP49
  1

  0
LINE
  5
17B
330
17A
100
AcDbEntity
  8
0
  6
Continuous
 62
     0
370
    -2
390
5F
100
AcDbLine
 10
-0.5
 20
0.166
 30
0.0
 11
0.5
 21
0.166
 31
0.0
  0
LINE
  5
17C
330
17A
100
AcDbEntity
  8
0
  6
Continuous
 62
     0
370
    -2
390
5F
100
AcDbLine
 10
0.5
 20
0.166
 30
0.0
 11
0.5
 21
-0.166
 31
0.0
  0
LINE
  5
17D
330
17A
100
AcDbEntity
  8
0
  6
Continuous
 62
     0
370
    -2
390
5F
100
AcDbLine
 10
0.5
 20
-0.166
 30
0.0
 11
-0.5
 21
-0.166
 31
0.0
  0
LINE
  5
17E
330
17A
100
AcDbEntity
  8
0
  6
Continuous
 62
     0
370
    -2
390
5F
100
AcDbLine
 10
-0.5
 20
-0.166
 30
0.0
 11
-0.5
 21
0.166
 31
0.0
  0
ENDBLK
  5
180
330
17A
100
AcDbEntity
  8
0
100
AcDbBlockEnd
  0
BLOCK
  5
189
330
181
100
AcDbEntity
  8
0
100
AcDbBlockBegin
  2
CDWK_PTTYP50
 70
     0
 10
0.0
 20
0.0
 30
0.0
  3
CDWK_PTTYP50
  1

  0
LINE
  5
182
330
181
100
AcDbEntity
  8
0
  6
Continuous
 62
     0
370
    -2
390
5F
100
AcDbLine
 10
-0.5
 20
0.166
 30
0.0
 11
0.5
 21
0.166
 31
0.0
  0
LINE
  5
183
330
181
100
AcDbEntity
  8
0
  6
Continuous
 62
     0
370
    -2
390
5F
100
AcDbLine
 10
0.5
 20
0.166
 30
0.0
 11
0.5
 21
-0.166
 31
0.0
  0
LINE
  5
184
330
181
100
AcDbEntity
  8
0
  6
Continuous
 62
     0
370
    -2
390
5F
100
AcDbLine
 10
0.5
 20
-0.166
 30
0.0
 11
-0.5
 21
-0.166
 31
0.0
  0
LINE
  5
185
330
181
100
AcDbEntity
  8
0
  6
Continuous
 62
     0
370
    -2
390
5F
100
AcDbLine
 10
-0.5
 20
-0.166
 30
0.0
 11
-0.5
 21
0.166
 31
0.0
  0
LINE
  5
186
330
181
100
AcDbEntity
  8
0
  6
Continuous
 62
     0
370
    -2
390
5F
100
AcDbLine
 10
-0.25
 20
-0.166
 30
0.0
 11
-0.25
 21
0.166
 31
0.0
  0
LINE
  5
187
330
181
100
AcDbEntity
  8
0
  6
Continuous
 62
     0
370
    -2
390
5F
100
AcDbLine
 10
0.0
 20
-0.166
 30
0.0
 11
0.0
 21
0.166
 31
0.0
  0
LINE
  5
188
330
181
100
AcDbEntity
  8
0
  6
Continuous
 62
     0
370
    -2
390
5F
100
AcDbLine
 10
0.25
 20
-0.166
 30
0.0
 11
0.25
 21
0.166
 31
0.0
  0
ENDBLK
  5
18A
330
181
100
AcDbEntity
  8
0
100
AcDbBlockEnd
  0
BLOCK
  5
18E
330
18B
100
AcDbEntity
  8
0
100
AcDbBlockBegin
  2
CDWK_PTTYP51
 70
     0
 10
0.0
 20
0.0
 30
0.0
  3
CDWK_PTTYP51
  1

  0
SPLINE
  5
18C
330
18B
100
AcDbEntity
  8
0
  6
Continuous
 62
     0
370
    -2
390
5F
100
AcDbSpline
210
0.0
220
0.0
230
1.0
 70
  1064
 71
     3
 72
    12
 73
     8
 74
     6
 42
0.0000000001
 43
0.0000000001
 44
0.0000000001
 40
0.0
 40
0.0
 40
0.0
 40
0.0
 40
0.1690118339052032
 40
0.5175774661755118
 40
0.8011704844252565
 40
0.9154070810132151
 40
0.975822310881188
 40
0.975822310881188
 40
0.975822310881188
 40
0.975822310881188
 10
-0.5
 20
-0.077
 30
0.0
 10
-0.443824324006723
 20
-0.0900581618560981
 30
0.0
 10
-0.2717933876546281
 20
-0.1300471387828842
 30
0.0
 10
-0.0276699186086479
 20
-0.0006977790990417
 30
0.0
 10
0.2303349729129116
 20
0.0817803270207037
 30
0.0
 10
0.3686157174766292
 20
0.0066250198607167
 30
0.0
 10
0.4216533294581816
 20
-0.0168719667726145
 30
0.0
 10
0.44
 20
-0.025
 30
0.0
 11
-0.5
 21
-0.077
 31
0.0
 11
-0.333
 21
-0.103
 31
0.0
 11
0.0
 21
0.0
 31
0.0
 11
0.28
 21
0.045
 31
0.0
 11
0.385
 21
0.0
 31
0.0
 11
0.44
 21
-0.025
 31
0.0
  0
HATCH
  5
18D
330
18B
100
AcDbEntity
  8
0
  6
Continuous
 62
     0
370
    -2
390
5F
100
AcDbHatch
 10
0.0
 20
0.0
 30
0.0
210
0.0
220
0.0
230
1.0
  2
SOLID
 70
     1
 71
     0
 91
        1
 92
        3
 72
     0
 73
     1
 93
        3
 10
0.365
 20
-0.05
 10
0.5
 20
-0.042
 10
0.395
 20
0.045
 97
        0
 75
     0
 76
     1
 98
        0
  0
ENDBLK
  5
18F
330
18B
100
AcDbEntity
  8
0
100
AcDbBlockEnd
  0
BLOCK
  5
194
330
190
100
AcDbEntity
  8
0
100
AcDbBlockBegin
  2
CDWK_PTTYP52
 70
     0
 10
0.0
 20
0.0
 30
0.0
  3
CDWK_PTTYP52
  1

  0
LINE
  5
191
330
190
100
AcDbEntity
  8
0
  6
Continuous
 62
     0
370
    -2
390
5F
100
AcDbLine
 10
-0.5
 20
-0.289
 30
0.0
 11
0.5
 21
-0.289
 31
0.0
  0
LINE
  5
192
330
190
100
AcDbEntity
  8
0
  6
Continuous
 62
     0
370
    -2
390
5F
100
AcDbLine
 10
0.5
 20
-0.289
 30
0.0
 11
0.0
 21
0.577
 31
0.0
  0
LINE
  5
193
330
190
100
AcDbEntity
  8
0
  6
Continuous
 62
     0
370
    -2
390
5F
100
AcDbLine
 10
0.0
 20
0.577
 30
0.0
 11
-0.5
 21
-0.289
 31
0.0
  0
ENDBLK
  5
195
330
190
100
AcDbEntity
  8
0
100
AcDbBlockEnd
  0
BLOCK
  5
19B
330
196
100
AcDbEntity
  8
0
100
AcDbBlockBegin
  2
cw-dimension-symbol1
 70
     0
 10
0.0
 20
0.0
 30
0.0
  3
cw-dimension-symbol1
  1

  0
LINE
  5
197
330
196
100
AcDbEntity
  8
0
  6
Continuous
 62
     0
370
    -2
390
5F
100
AcDbLine
 10
0.0
 20
0.0
 30
0.0
 11
-1.0
 21
0.25
 31
0.0
  0
LINE
  5
198
330
196
100
AcDbEntity
  8
0
  6
Continuous
 62
     0
370
    -2
390
5F
100
AcDbLine
 10
0.0
 20
0.0
 30
0.0
 11
-1.0
 21
-0.25
 31
0.0
  0
LINE
  5
199
330
196
100
AcDbEntity
  8
0
  6
Continuous
 62
     0
370
    -2
390
5F
100
AcDbLine
 10
-1.0
 20
0.25
 30
0.0
 11
-1.0
 21
-0.25
 31
0.0
  0
LINE
  5
19A
330
196
100
AcDbEntity
  8
0
  6
Continuous
 62
     0
370
    -2
390
5F
100
AcDbLine
 10
0.0
 20
0.0
 30
0.0
 11
-1.0
 21
0.0
 31
0.0
  0
ENDBLK
  5
19C
330
196
100
AcDbEntity
  8
0
100
AcDbBlockEnd
  0
BLOCK
  5
1A0
330
19D
100
AcDbEntity
  8
0
100
AcDbBlockBegin
  2
cw-dimension-symbol2
 70
     0
 10
0.0
 20
0.0
 30
0.0
  3
cw-dimension-symbol2
  1

  0
LINE
  5
19E
330
19D
100
AcDbEntity
  8
0
  6
Continuous
 62
     0
370
    -2
390
5F
100
AcDbLine
 10
-1.0
 20
0.0
 30
0.0
 11
1.0
 21
0.0
 31
0.0
  0
LINE
  5
19F
330
19D
100
AcDbEntity
  8
0
  6
Continuous
 62
     0
370
    -2
390
5F
100
AcDbLine
 10
-0.5
 20
-0.5
 30
0.0
 11
0.5
 21
0.5
 31
0.0
  0
ENDBLK
  5
1A1
330
19D
100
AcDbEntity
  8
0
100
AcDbBlockEnd
  0
BLOCK
  5
1A5
330
1A2
100
AcDbEntity
  8
0
100
AcDbBlockBegin
  2
cw-dimension-symbol3
 70
     0
 10
0.0
 20
0.0
 30
0.0
  3
cw-dimension-symbol3
  1

  0
LINE
  5
1A3
330
1A2
100
AcDbEntity
  8
0
  6
Continuous
 62
     0
370
    -2
390
5F
100
AcDbLine
 10
-1.0
 20
0.0
 30
0.0
 11
1.0
 21
0.0
 31
0.0
  0
CIRCLE
  5
1A4
330
1A2
100
AcDbEntity
  8
0
  6
Continuous
 62
     0
370
    -2
390
5F
100
AcDbCircle
 10
0.0
 20
0.0
 30
0.0
 40
0.25
  0
ENDBLK
  5
1A6
330
1A2
100
AcDbEntity
  8
0
100
AcDbBlockEnd
  0
BLOCK
  5
1AC
330
1A7
100
AcDbEntity
  8
0
100
AcDbBlockBegin
  2
cw-dimension-symbol5
 70
     0
 10
0.0
 20
0.0
 30
0.0
  3
cw-dimension-symbol5
  1

  0
HATCH
  5
1A8
330
1A7
100
AcDbEntity
  8
0
  6
Continuous
 62
     0
370
    -2
390
5F
100
AcDbHatch
 10
0.0
 20
0.0
 30
0.0
210
0.0
220
0.0
230
1.0
  2
SOLID
 70
     1
 71
     0
 91
        1
 92
        3
 72
     0
 73
     1
 93
        3
 10
0.0
 20
0.0
 10
-1.0
 20
0.25
 10
-1.0
 20
-0.25
 97
        0
 75
     0
 76
     1
 98
        0
  0
LINE
  5
1A9
330
1A7
100
AcDbEntity
  8
0
  6
Continuous
 62
     0
370
    -2
390
5F
100
AcDbLine
 10
0.0
 20
0.0
 30
0.0
 11
-1.0
 21
0.25
 31
0.0
  0
LINE
  5
1AA
330
1A7
100
AcDbEntity
  8
0
  6
Continuous
 62
     0
370
    -2
390
5F
100
AcDbLine
 10
-1.0
 20
0.25
 30
0.0
 11
-1.0
 21
-0.25
 31
0.0
  0
LINE
  5
1AB
330
1A7
100
AcDbEntity
  8
0
  6
Continuous
 62
     0
370
    -2
390
5F
100
AcDbLine
 10
-1.0
 20
-0.25
 30
0.0
 11
0.0
 21
0.0
 31
0.0
  0
ENDBLK
  5
1AD
330
1A7
100
AcDbEntity
  8
0
100
AcDbBlockEnd
  0
BLOCK
  5
1B2
330
1AE
100
AcDbEntity
  8
0
100
AcDbBlockBegin
  2
cw-dimension-symbol6
 70
     0
 10
0.0
 20
0.0
 30
0.0
  3
cw-dimension-symbol6
  1

  0
LINE
  5
1AF
330
1AE
100
AcDbEntity
  8
0
  6
Continuous
 62
     0
370
    -2
390
5F
100
AcDbLine
 10
0.0
 20
0.0
 30
0.0
 11
-1.0
 21
0.25
 31
0.0
  0
LINE
  5
1B0
330
1AE
100
AcDbEntity
  8
0
  6
Continuous
 62
     0
370
    -2
390
5F
100
AcDbLine
 10
0.0
 20
0.0
 30
0.0
 11
-1.0
 21
-0.25
 31
0.0
  0
LINE
  5
1B1
330
1AE
100
AcDbEntity
  8
0
  6
Continuous
 62
     0
370
    -2
390
5F
100
AcDbLine
 10
0.0
 20
0.0
 30
0.0
 11
-1.0
 21
0.0
 31
0.0
  0
ENDBLK
  5
1B3
330
1AE
100
AcDbEntity
  8
0
100
AcDbBlockEnd
  0
BLOCK
  5
1B8
330
1B4
100
AcDbEntity
  8
0
100
AcDbBlockBegin
  2
cw-dimension-symbol11
 70
     0
 10
0.0
 20
0.0
 30
0.0
  3
cw-dimension-symbol11
  1

  0
LINE
  5
1B5
330
1B4
100
AcDbEntity
  8
0
  6
Continuous
 62
     0
370
    -2
390
5F
100
AcDbLine
 10
-1.0
 20
1.0
 30
0.0
 11
1.0
 21
1.0
 31
0.0
  0
LINE
  5
1B6
330
1B4
100
AcDbEntity
  8
0
  6
Continuous
 62
     0
370
    -2
390
5F
100
AcDbLine
 10
0.0
 20
0.0
 30
0.0
 11
-1.0
 21
1.0
 31
0.0
  0
LINE
  5
1B7
330
1B4
100
AcDbEntity
  8
0
  6
Continuous
 62
     0
370
    -2
390
5F
100
AcDbLine
 10
0.0
 20
0.0
 30
0.0
 11
1.0
 21
1.0
 31
0.0
  0
ENDBLK
  5
1B9
330
1B4
100
AcDbEntity
  8
0
100
AcDbBlockEnd
  0
BLOCK
  5
1BE
330
1BA
100
AcDbEntity
  8
0
100
AcDbBlockBegin
  2
cw-dimension-symbol13
 70
     0
 10
0.0
 20
0.0
 30
0.0
  3
cw-dimension-symbol13
  1

  0
LINE
  5
1BB
330
1BA
100
AcDbEntity
  8
0
  6
Continuous
 62
     0
370
    -2
390
5F
100
AcDbLine
 10
-1.0
 20
-1.0
 30
0.0
 11
1.0
 21
-1.0
 31
0.0
  0
LINE
  5
1BC
330
1BA
100
AcDbEntity
  8
0
  6
Continuous
 62
     0
370
    -2
390
5F
100
AcDbLine
 10
0.0
 20
0.0
 30
0.0
 11
-1.0
 21
-1.0
 31
0.0
  0
LINE
  5
1BD
330
1BA
100
AcDbEntity
  8
0
  6
Continuous
 62
     0
370
    -2
390
5F
100
AcDbLine
 10
0.0
 20
0.0
 30
0.0
 11
1.0
 21
-1.0
 31
0.0
  0
ENDBLK
  5
1BF
330
1BA
100
AcDbEntity
  8
0
100
AcDbBlockEnd
  0
BLOCK
  5
1C5
330
1C0
100
AcDbEntity
  8
0
100
AcDbBlockBegin
  2
cw-dimension-symbol15
 70
     0
 10
0.0
 20
0.0
 30
0.0
  3
cw-dimension-symbol15
  1

  0
HATCH
  5
1C1
330
1C0
100
AcDbEntity
  8
0
  6
Continuous
 62
     0
370
    -2
390
5F
100
AcDbHatch
 10
0.0
 20
0.0
 30
0.0
210
0.0
220
0.0
230
1.0
  2
SOLID
 70
     1
 71
     0
 91
        1
 92
        3
 72
     0
 73
     1
 93
        3
 10
0.0
 20
0.0
 10
-1.0
 20
1.0
 10
1.0
 20
1.0
 97
        0
 75
     0
 76
     1
 98
        0
  0
LINE
  5
1C2
330
1C0
100
AcDbEntity
  8
0
  6
Continuous
 62
     0
370
    -2
390
5F
100
AcDbLine
 10
0.0
 20
0.0
 30
0.0
 11
-1.0
 21
1.0
 31
0.0
  0
LINE
  5
1C3
330
1C0
100
AcDbEntity
  8
0
  6
Continuous
 62
     0
370
    -2
390
5F
100
AcDbLine
 10
-1.0
 20
1.0
 30
0.0
 11
1.0
 21
1.0
 31
0.0
  0
LINE
  5
1C4
330
1C0
100
AcDbEntity
  8
0
  6
Continuous
 62
     0
370
    -2
390
5F
100
AcDbLine
 10
1.0
 20
1.0
 30
0.0
 11
0.0
 21
0.0
 31
0.0
  0
ENDBLK
  5
1C6
330
1C0
100
AcDbEntity
  8
0
100
AcDbBlockEnd
  0
BLOCK
  5
1CC
330
1C7
100
AcDbEntity
  8
0
100
AcDbBlockBegin
  2
cw-dimension-symbol16
 70
     0
 10
0.0
 20
0.0
 30
0.0
  3
cw-dimension-symbol16
  1

  0
HATCH
  5
1C8
330
1C7
100
AcDbEntity
  8
0
  6
Continuous
 62
     0
370
    -2
390
5F
100
AcDbHatch
 10
0.0
 20
0.0
 30
0.0
210
0.0
220
0.0
230
1.0
  2
SOLID
 70
     1
 71
     0
 91
        1
 92
        3
 72
     0
 73
     1
 93
        3
 10
0.0
 20
0.0
 10
-1.0
 20
-1.0
 10
1.0
 20
-1.0
 97
        0
 75
     0
 76
     1
 98
        0
  0
LINE
  5
1C9
330
1C7
100
AcDbEntity
  8
0
  6
Continuous
 62
     0
370
    -2
390
5F
100
AcDbLine
 10
0.0
 20
0.0
 30
0.0
 11
-1.0
 21
-1.0
 31
0.0
  0
LINE
  5
1CA
330
1C7
100
AcDbEntity
  8
0
  6
Continuous
 62
     0
370
    -2
390
5F
100
AcDbLine
 10
-1.0
 20
-1.0
 30
0.0
 11
1.0
 21
-1.0
 31
0.0
  0
LINE
  5
1CB
330
1C7
100
AcDbEntity
  8
0
  6
Continuous
 62
     0
370
    -2
390
5F
100
AcDbLine
 10
1.0
 20
-1.0
 30
0.0
 11
0.0
 21
0.0
 31
0.0
  0
ENDBLK
  5
1CD
330
1C7
100
AcDbEntity
  8
0
100
AcDbBlockEnd
  0
BLOCK
  5
1D3
330
1CE
100
AcDbEntity
  8
0
100
AcDbBlockBegin
  2
cw-dimension-symbol17
 70
     0
 10
0.0
 20
0.0
 30
0.0
  3
cw-dimension-symbol17
  1

  0
LINE
  5
1CF
330
1CE
100
AcDbEntity
  8
0
  6
Continuous
 62
     0
370
    -2
390
5F
100
AcDbLine
 10
0.0
 20
0.0
 30
0.0
 11
1.0
 21
1.0
 31
0.0
  0
LINE
  5
1D0
330
1CE
100
AcDbEntity
  8
0
  6
Continuous
 62
     0
370
    -2
390
5F
100
AcDbLine
 10
1.0
 20
1.0
 30
0.0
 11
-1.0
 21
1.0
 31
0.0
  0
LINE
  5
1D1
330
1CE
100
AcDbEntity
  8
0
  6
Continuous
 62
     0
370
    -2
390
5F
100
AcDbLine
 10
-1.0
 20
1.0
 30
0.0
 11
0.0
 21
0.0
 31
0.0
  0
HATCH
  5
1D2
330
1CE
100
AcDbEntity
  8
0
  6
Continuous
 62
     0
370
    -2
390
5F
100
AcDbHatch
 10
0.0
 20
0.0
 30
0.0
210
0.0
220
0.0
230
1.0
  2
SOLID
 70
     1
 71
     0
 91
        1
 92
        3
 72
     0
 73
     1
 93
        3
 10
0.0
 20
0.0
 10
-1.0
 20
1.0
 10
0.0
 20
1.0
 97
        0
 75
     0
 76
     1
 98
        0
  0
ENDBLK
  5
1D4
330
1CE
100
AcDbEntity
  8
0
100
AcDbBlockEnd
  0
BLOCK
  5
1DA
330
1D5
100
AcDbEntity
  8
0
100
AcDbBlockBegin
  2
cw-dimension-symbol18
 70
     0
 10
0.0
 20
0.0
 30
0.0
  3
cw-dimension-symbol18
  1

  0
LINE
  5
1D6
330
1D5
100
AcDbEntity
  8
0
  6
Continuous
 62
     0
370
    -2
390
5F
100
AcDbLine
 10
0.0
 20
0.0
 30
0.0
 11
1.0
 21
-1.0
 31
0.0
  0
LINE
  5
1D7
330
1D5
100
AcDbEntity
  8
0
  6
Continuous
 62
     0
370
    -2
390
5F
100
AcDbLine
 10
1.0
 20
-1.0
 30
0.0
 11
-1.0
 21
-1.0
 31
0.0
  0
LINE
  5
1D8
330
1D5
100
AcDbEntity
  8
0
  6
Continuous
 62
     0
370
    -2
390
5F
100
AcDbLine
 10
-1.0
 20
-1.0
 30
0.0
 11
0.0
 21
0.0
 31
0.0
  0
HATCH
  5
1D9
330
1D5
100
AcDbEntity
  8
0
  6
Continuous
 62
     0
370
    -2
390
5F
100
AcDbHatch
 10
0.0
 20
0.0
 30
0.0
210
0.0
220
0.0
230
1.0
  2
SOLID
 70
     1
 71
     0
 91
        1
 92
        3
 72
     0
 73
     1
 93
        3
 10
0.0
 20
0.0
 10
-1.0
 20
-1.0
 10
0.0
 20
-1.0
 97
        0
 75
     0
 76
     1
 98
        0
  0
ENDBLK
  5
1DB
330
1D5
100
AcDbEntity
  8
0
100
AcDbBlockEnd
  0
BLOCK
  5
1DD
330
1DC
100
AcDbEntity
  8
0
100
AcDbBlockBegin
  2
cw-dimension-symbol19
 70
     0
 10
0.0
 20
0.0
 30
0.0
  3
cw-dimension-symbol19
  1

  0
ENDBLK
  5
1DE
330
1DC
100
AcDbEntity
  8
0
100
AcDbBlockEnd
  0
BLOCK
  5
1E4
330
1DF
100
AcDbEntity
  8
0
100
AcDbBlockBegin
  2
cw-dimension-symbol20
 70
     0
 10
0.0
 20
0.0
 30
0.0
  3
cw-dimension-symbol20
  1

  0
LINE
  5
1E0
330
1DF
100
AcDbEntity
  8
0
  6
Continuous
 62
     0
370
    -2
390
5F
100
AcDbLine
 10
0.0
 20
0.0
 30
0.0
 11
0.0
 21
2.0
 31
0.0
  0
LINE
  5
1E1
330
1DF
100
AcDbEntity
  8
0
  6
Continuous
 62
     0
370
    -2
390
5F
100
AcDbLine
 10
0.0
 20
0.0
 30
0.0
 11
-1.0
 21
0.33
 31
0.0
  0
LINE
  5
1E2
330
1DF
100
AcDbEntity
  8
0
  6
Continuous
 62
     0
370
    -2
390
5F
100
AcDbLine
 10
0.0
 20
0.0
 30
0.0
 11
1.0
 21
0.33
 31
0.0
  0
LINE
  5
1E3
330
1DF
100
AcDbEntity
  8
0
  6
Continuous
 62
     0
370
    -2
390
5F
100
AcDbLine
 10
0.0
 20
2.0
 30
0.0
 11
4.15
 21
2.0
 31
0.0
  0
ENDBLK
  5
1E5
330
1DF
100
AcDbEntity
  8
0
100
AcDbBlockEnd
  0
BLOCK
  5
1EB
330
1E6
100
AcDbEntity
  8
0
100
AcDbBlockBegin
  2
cw-dimension-symbol21
 70
     0
 10
0.0
 20
0.0
 30
0.0
  3
cw-dimension-symbol21
  1

  0
LINE
  5
1E7
330
1E6
100
AcDbEntity
  8
0
  6
Continuous
 62
     0
370
    -2
390
5F
100
AcDbLine
 10
0.0
 20
0.0
 30
0.0
 11
0.0
 21
-2.0
 31
0.0
  0
LINE
  5
1E8
330
1E6
100
AcDbEntity
  8
0
  6
Continuous
 62
     0
370
    -2
390
5F
100
AcDbLine
 10
0.0
 20
0.0
 30
0.0
 11
-1.0
 21
-0.33
 31
0.0
  0
LINE
  5
1E9
330
1E6
100
AcDbEntity
  8
0
  6
Continuous
 62
     0
370
    -2
390
5F
100
AcDbLine
 10
0.0
 20
0.0
 30
0.0
 11
1.0
 21
-0.33
 31
0.0
  0
LINE
  5
1EA
330
1E6
100
AcDbEntity
  8
0
  6
Continuous
 62
     0
370
    -2
390
5F
100
AcDbLine
 10
0.0
 20
-2.0
 30
0.0
 11
4.15
 21
-2.0
 31
0.0
  0
ENDBLK
  5
1EC
330
1E6
100
AcDbEntity
  8
0
100
AcDbBlockEnd
  0
BLOCK
  5
21D
330
1ED
100
AcDbEntity
  8
0
100
AcDbBlockBegin
  2
cw-line-extremity0
 70
     0
 10
0.0
 20
0.0
 30
0.0
  3
cw-line-extremity0
  1

  0
LINE
  5
1EE
330
1ED
100
AcDbEntity
  8
0
  6
Continuous
 62
     0
370
    -2
390
5F
100
AcDbLine
 10
0.0
 20
0.0
 30
0.0
 11
10.0
 21
2.5
 31
0.0
  0
LINE
  5
1EF
330
1ED
100
AcDbEntity
  8
0
  6
Continuous
 62
     0
370
    -2
390
5F
100
AcDbLine
 10
0.0
 20
0.0
 30
0.0
 11
10.0
 21
-2.5
 31
0.0
  0
LINE
  5
1F0
330
1ED
100
AcDbEntity
  8
0
  6
Continuous
 62
     0
370
    -2
390
5F
100
AcDbLine
 10
10.0
 20
2.5
 30
0.0
 11
10.0
 21
-2.5
 31
0.0
  0
ENDBLK
  5
21E
330
1ED
100
AcDbEntity
  8
0
100
AcDbBlockEnd
  0
BLOCK
  5
21B
330
1F1
100
AcDbEntity
  8
0
100
AcDbBlockBegin
  2
cw-line-extremity2
 70
     0
 10
0.0
 20
0.0
 30
0.0
  3
cw-line-extremity2
  1

  0
HATCH
  5
1F2
330
1F1
100
AcDbEntity
  8
0
  6
Continuous
 62
     0
370
     0
390
5F
100
AcDbHatch
 10
0.0
 20
0.0
 30
0.0
210
0.0
220
0.0
230
1.0
  2
SOLID
 70
     1
 71
     0
 91
        1
 92
        3
 72
     0
 73
     1
 93
        3
 10
0.0
 20
0.0
 10
10.0
 20
2.5
 10
10.0
 20
-2.5
 97
        0
 75
     0
 76
     1
 98
        0
  0
LINE
  5
1F3
330
1F1
100
AcDbEntity
  8
0
  6
Continuous
 62
     0
370
    -2
390
5F
100
AcDbLine
 10
0.0
 20
0.0
 30
0.0
 11
10.0
 21
2.5
 31
0.0
  0
LINE
  5
1F4
330
1F1
100
AcDbEntity
  8
0
  6
Continuous
 62
     0
370
    -2
390
5F
100
AcDbLine
 10
10.0
 20
2.5
 30
0.0
 11
10.0
 21
-2.5
 31
0.0
  0
LINE
  5
1F5
330
1F1
100
AcDbEntity
  8
0
  6
Continuous
 62
     0
370
    -2
390
5F
100
AcDbLine
 10
10.0
 20
-2.5
 30
0.0
 11
0.0
 21
0.0
 31
0.0
  0
ENDBLK
  5
21C
330
1F1
100
AcDbEntity
  8
0
100
AcDbBlockEnd
  0
BLOCK
  5
219
330
1F6
100
AcDbEntity
  8
0
100
AcDbBlockBegin
  2
cw-line-extremity3
 70
     0
 10
0.0
 20
0.0
 30
0.0
  3
cw-line-extremity3
  1

  0
HATCH
  5
1F7
330
1F6
100
AcDbEntity
  8
0
  6
Continuous
 62
     0
370
     0
390
5F
100
AcDbHatch
 10
0.0
 20
0.0
 30
0.0
210
0.0
220
0.0
230
1.0
  2
SOLID
 70
     1
 71
     0
 91
        1
 92
        3
 72
     0
 73
     1
 93
        3
 10
0.0
 20
0.0
 10
10.0
 20
2.5
 10
10.0
 20
-2.5
 97
        0
 75
     0
 76
     1
 98
        0
  0
LINE
  5
1F8
330
1F6
100
AcDbEntity
  8
0
  6
Continuous
 62
     0
370
    -2
390
5F
100
AcDbLine
 10
0.0
 20
0.0
 30
0.0
 11
10.0
 21
2.5
 31
0.0
  0
LINE
  5
1F9
330
1F6
100
AcDbEntity
  8
0
  6
Continuous
 62
     0
370
    -2
390
5F
100
AcDbLine
 10
10.0
 20
2.5
 30
0.0
 11
10.0
 21
-2.5
 31
0.0
  0
LINE
  5
1FA
330
1F6
100
AcDbEntity
  8
0
  6
Continuous
 62
     0
370
    -2
390
5F
100
AcDbLine
 10
10.0
 20
-2.5
 30
0.0
 11
0.0
 21
0.0
 31
0.0
  0
ENDBLK
  5
21A
330
1F6
100
AcDbEntity
  8
0
100
AcDbBlockEnd
  0
BLOCK
  5
217
330
1FB
100
AcDbEntity
  8
0
100
AcDbBlockBegin
  2
cw-line-extremity301
 70
     0
 10
0.0
 20
0.0
 30
0.0
  3
cw-line-extremity301
  1

  0
LINE
  5
1FC
330
1FB
100
AcDbEntity
  8
0
  6
Continuous
 62
     0
370
    -2
390
5F
100
AcDbLine
 10
0.0
 20
6.66665
 30
0.0
 11
0.0
 21
-6.66665
 31
0.0
  0
ENDBLK
  5
218
330
1FB
100
AcDbEntity
  8
0
100
AcDbBlockEnd
  0
BLOCK
  5
215
330
1FD
100
AcDbEntity
  8
0
100
AcDbBlockBegin
  2
cw-line-extremity4
 70
     0
 10
0.0
 20
0.0
 30
0.0
  3
cw-line-extremity4
  1

  0
HATCH
  5
1FE
330
1FD
100
AcDbEntity
  8
0
  6
Continuous
 62
     0
370
     5
390
5F
100
AcDbHatch
 10
0.0
 20
0.0
 30
0.0
210
0.0
220
0.0
230
1.0
  2
SOLID
 70
     1
 71
     0
 91
        1
 92
        1
 93
        1
 72
     2
 10
0.0
 20
0.0
 40
2.5
 50
0.0
 51
360.0
 73
     1
 97
        0
 75
     0
 76
     1
 98
        0
  0
ENDBLK
  5
216
330
1FD
100
AcDbEntity
  8
0
100
AcDbBlockEnd
  0
BLOCK
  5
213
330
1FF
100
AcDbEntity
  8
0
100
AcDbBlockBegin
  2
cw-line-extremity5
 70
     0
 10
0.0
 20
0.0
 30
0.0
  3
cw-line-extremity5
  1

  0
LINE
  5
200
330
1FF
100
AcDbEntity
  8
0
  6
Continuous
 62
     0
370
    -2
390
5F
100
AcDbLine
 10
0.0
 20
0.0
 30
0.0
 11
-2.5
 21
0.0
 31
0.0
  0
ENDBLK
  5
214
330
1FF
100
AcDbEntity
  8
0
100
AcDbBlockEnd
  0
BLOCK
  5
211
330
201
100
AcDbEntity
  8
0
100
AcDbBlockBegin
  2
cw-line-extremity6
 70
     0
 10
0.0
 20
0.0
 30
0.0
  3
cw-line-extremity6
  1

  0
LINE
  5
202
330
201
100
AcDbEntity
  8
0
  6
Continuous
 62
     0
370
    18
390
5F
100
AcDbLine
 10
0.0
 20
2.5
 30
0.0
 11
0.0
 21
-2.5
 31
0.0
  0
ENDBLK
  5
212
330
201
100
AcDbEntity
  8
0
100
AcDbBlockEnd
  0
BLOCK
  5
20F
330
203
100
AcDbEntity
  8
0
100
AcDbBlockBegin
  2
cw-line-extremity9
 70
     0
 10
0.0
 20
0.0
 30
0.0
  3
cw-line-extremity9
  1

  0
LINE
  5
204
330
203
100
AcDbEntity
  8
0
  6
Continuous
 62
     0
370
    18
390
5F
100
AcDbLine
 10
-2.5
 20
-2.5
 30
0.0
 11
2.5
 21
2.5
 31
0.0
  0
ENDBLK
  5
210
330
203
100
AcDbEntity
  8
0
100
AcDbBlockEnd
  0
BLOCK
  5
20D
330
205
100
AcDbEntity
  8
0
100
AcDbBlockBegin
  2
cw-line-extremity10
 70
     0
 10
0.0
 20
0.0
 30
0.0
  3
cw-line-extremity10
  1

  0
CIRCLE
  5
206
330
205
100
AcDbEntity
  8
0
  6
Continuous
 62
     0
370
    -2
390
5F
100
AcDbCircle
 10
0.0
 20
0.0
 30
0.0
 40
2.5
  0
ENDBLK
  5
20E
330
205
100
AcDbEntity
  8
0
100
AcDbBlockEnd
  0
BLOCK
  5
20B
330
207
100
AcDbEntity
  8
0
100
AcDbBlockBegin
  2
cw-line-extremity1
 70
     0
 10
0.0
 20
0.0
 30
0.0
  3
cw-line-extremity1
  1

  0
LINE
  5
208
330
207
100
AcDbEntity
  8
0
  6
Continuous
 62
     0
370
    -2
390
5F
100
AcDbLine
 10
0.0
 20
0.0
 30
0.0
 11
0.0
 21
2.5
 31
0.0
  0
LINE
  5
209
330
207
100
AcDbEntity
  8
0
  6
Continuous
 62
     0
370
    -2
390
5F
100
AcDbLine
 10
0.0
 20
2.5
 30
0.0
 11
1.25
 21
3.75
 31
0.0
  0
LINE
  5
20A
330
207
100
AcDbEntity
  8
0
  6
Continuous
 62
     0
370
    -2
390
5F
100
AcDbLine
 10
1.25
 20
3.75
 30
0.0
 11
3.75
 21
3.75
 31
0.0
  0
ENDBLK
  5
20C
330
207
100
AcDbEntity
  8
0
100
AcDbBlockEnd
  0
BLOCK
  5
1C
330
1B
100
AcDbEntity
  8
0
100
AcDbBlockBegin
  2
*Paper_Space69
 70
     0
 10
0.0
 20
0.0
 30
0.0
  3
*Paper_Space69
  1

  0
ENDBLK
  5
1D
330
1B
100
AcDbEntity
  8
0
100
AcDbBlockEnd
  0
ENDSEC
  0
SECTION
  2
ENTITIES
  0
HATCH
  5
228
330
1F
100
AcDbEntity
  8
Ech.1_5
  6
Continuous
 62
   254
420
 13882323
440
 33554687
370
    20
390
5F
100
AcDbHatch
 10
0.0
 20
0.0
 30
0.0
210
0.0
220
0.0
230
1.0
  2
SOLID
 70
     1
 71
     0
 91
        1
 92
        3
 72
     0
 73
     1
 93
        4
 10
52434.48291188876
 20
-9226.780287089243
 10
52434.48291188876
 20
-9546.846089407863
 10
52452.28597458751
 20
-9546.846089407863
 10
52452.28597458751
 20
-9226.780287089243
 97
        0
 75
     0
 76
     1
 98
        0
  0
LWPOLYLINE
  5
229
330
1F
100
AcDbEntity
  8
Ech.1_5
  6
Continuous
 62
   190
370
    15
390
5F
100
AcDbPolyline
 90
        5
 70
     0
 43
0.0
 10
52434.48291188876
 20
-9226.780287089243
 10
52434.48291188876
 20
-9546.846089407863
 10
52452.28597458751
 20
-9546.846089407863
 10
52452.28597458751
 20
-9226.780287089243
 10
52434.48291188876
 20
-9226.780287089243
  0
HATCH
  5
22A
330
1F
100
AcDbEntity
  8
Ech.1_5
  6
Continuous
 62
    40
420
 16297258
440
 33554687
370
    20
390
5F
100
AcDbHatch
 10
0.0
 20
0.0
 30
0.0
210
0.0
220
0.0
230
1.0
  2
SOLID
 70
     1
 71
     0
 91
        1
 92
        3
 72
     0
 73
     1
 93
        4
 10
52450.81239942487
 20
-9226.780287089243
 10
52450.81239942487
 20
-9546.846089407863
 10
52459.81239942487
 20
-9546.846089407863
 10
52459.81239942487
 20
-9226.780287089243
 97
        0
 75
     0
 76
     1
 98
        0
  0
LWPOLYLINE
  5
22B
330
1F
100
AcDbEntity
  8
Ech.1_5
  6
Continuous
 62
   190
370
    15
390
5F
100
AcDbPolyline
 90
        5
 70
     0
 43
0.0
 10
52450.81239942487
 20
-9226.780287089243
 10
52450.81239942487
 20
-9546.846089407863
 10
52459.81239942487
 20
-9546.846089407863
 10
52459.81239942487
 20
-9226.780287089243
 10
52450.81239942487
 20
-9226.780287089243
  0
HATCH
  5
22C
330
1F
100
AcDbEntity
  8
Ech.1_5
  6
Continuous
 62
   254
420
 16643007
440
 33554687
370
    20
390
5F
100
AcDbHatch
 10
0.0
 20
0.0
 30
0.0
210
0.0
220
0.0
230
1.0
  2
SOLID
 70
     1
 71
     0
 91
        1
 92
        3
 72
     0
 73
     1
 93
       26
 10
52585.74794820022
 20
-8673.471660763133
 10
52603.60928107367
 20
-8670.66771361423
 10
52620.5799005046
 20
-8666.071245723802
 10
52636.24193352036
 20
-8659.79543738625
 10
52650.20972888879
 20
-8651.994819830978
 10
52658.1549083892
 20
-8645.911970851701
 10
52658.1549083892
 20
-8549.82807540427
 10
52650.20972888879
 20
-8543.745226424993
 10
52636.24193352036
 20
-8535.94460886972
 10
52620.5799005046
 20
-8529.668800532168
 10
52603.60928107367
 20
-8525.072332641741
 10
52585.74794820022
 20
-8522.268385492838
 10
52567.43570717797
 20
-8521.32600156991
 10
52549.12346615571
 20
-8522.268385492838
 10
52531.26213328226
 20
-8525.072332641741
 10
52514.29151385133
 20
-8529.668800532168
 10
52498.62948083557
 20
-8535.94460886972
 10
52484.66168546713
 20
-8543.745226424993
 10
52478.1549083892
 20
-8548.726830969614
 10
52478.1549083892
 20
-8647.013215286357
 10
52484.66168546713
 20
-8651.994819830978
 10
52498.62948083557
 20
-8659.79543738625
 10
52514.29151385133
 20
-8666.071245723802
 10
52531.26213328226
 20
-8670.66771361423
 10
52549.12346615571
 20
-8673.471660763133
 10
52567.43570717797
 20
-8674.41404468606
 97
        0
 75
     0
 76
     1
 98
        0
  0
LWPOLYLINE
  5
22D
330
1F
100
AcDbEntity
  8
Ech.1_5
  6
Continuous
 62
   190
370
    15
390
5F
100
AcDbPolyline
 90
       27
 70
     0
 43
0.0
 10
52585.74794820022
 20
-8673.471660763133
 10
52603.60928107367
 20
-8670.66771361423
 10
52620.5799005046
 20
-8666.071245723802
 10
52636.24193352036
 20
-8659.79543738625
 10
52650.20972888879
 20
-8651.994819830978
 10
52658.1549083892
 20
-8645.911970851701
 10
52658.1549083892
 20
-8549.82807540427
 10
52650.20972888879
 20
-8543.745226424993
 10
52636.24193352036
 20
-8535.94460886972
 10
52620.5799005046
 20
-8529.668800532168
 10
52603.60928107367
 20
-8525.072332641741
 10
52585.74794820022
 20
-8522.268385492838
 10
52567.43570717797
 20
-8521.32600156991
 10
52549.12346615571
 20
-8522.268385492838
 10
52531.26213328226
 20
-8525.072332641741
 10
52514.29151385133
 20
-8529.668800532168
 10
52498.62948083557
 20
-8535.94460886972
 10
52484.66168546713
 20
-8543.745226424993
 10
52478.1549083892
 20
-8548.726830969614
 10
52478.1549083892
 20
-8647.013215286357
 10
52484.66168546713
 20
-8651.994819830978
 10
52498.62948083557
 20
-8659.79543738625
 10
52514.29151385133
 20
-8666.071245723802
 10
52531.26213328226
 20
-8670.66771361423
 10
52549.12346615571
 20
-8673.471660763133
 10
52567.43570717797
 20
-8674.41404468606
 10
52585.74794820022
 20
-8673.471660763133
  0
HATCH
  5
22E
330
1F
100
AcDbEntity
  8
Ech.1_5
  6
Continuous
 62
   254
420
 15656413
440
 33554687
370
    20
390
5F
100
AcDbHatch
 10
0.0
 20
0.0
 30
0.0
210
0.0
220
0.0
230
1.0
  2
SOLID
 70
     1
 71
     0
 91
        1
 92
        3
 72
     0
 73
     1
 93
        4
 10
52639.81239942502
 20
-9528.98407529204
 10
52679.81239942515
 20
-9528.984075292157
 10
52679.81239942515
 20
-9483.98407529204
 10
52639.81239942487
 20
-9483.98407529204
 97
        0
 75
     0
 76
     1
 98
        0
  0
LWPOLYLINE
  5
22F
330
1F
100
AcDbEntity
  8
Ech.1_5
  6
Continuous
 62
   190
370
    15
390
5F
100
AcDbPolyline
 90
        5
 70
     0
 43
0.0
 10
52639.81239942502
 20
-9528.98407529204
 10
52679.81239942515
 20
-9528.984075292157
 10
52679.81239942515
 20
-9483.98407529204
 10
52639.81239942487
 20
-9483.98407529204
 10
52639.81239942502
 20
-9528.98407529204
  0
HATCH
  5
230
330
1F
100
AcDbEntity
  8
Ech.1_5
  6
Continuous
 62
   254
420
 16643007
440
 33554687
370
     5
390
5F
100
AcDbHatch
 10
0.0
 20
0.0
 30
0.0
210
0.0
220
0.0
230
1.0
  2
SOLID
 70
     1
 71
     0
 91
        1
 92
        3
 72
     0
 73
     1
 93
        4
 10
52684.81239942473
 20
-9289.963077964267
 10
52867.51311502571
 20
-9289.963077964267
 10
52867.51311502571
 20
-9226.780287089243
 10
52684.81239942473
 20
-9226.780287089243
 97
        0
 75
     0
 76
     1
 98
        0
  0
LWPOLYLINE
  5
231
330
1F
100
AcDbEntity
  8
Ech.1_5
  6
Continuous
 62
   190
370
    15
390
5F
100
AcDbPolyline
 90
        5
 70
     0
 43
0.0
 10
52684.81239942473
 20
-9289.963077964267
 10
52867.51311502571
 20
-9289.963077964267
 10
52867.51311502571
 20
-9226.780287089243
 10
52684.81239942473
 20
-9226.780287089243
 10
52684.81239942473
 20
-9289.963077964267
  0
HATCH
  5
232
330
1F
100
AcDbEntity
  8
Ech.1_5
  6
Continuous
 62
    33
420
 12426362
440
 33554687
370
    20
390
5F
100
AcDbHatch
 10
0.0
 20
0.0
 30
0.0
210
0.0
220
0.0
230
1.0
  2
SOLID
 70
     1
 71
     0
 91
        1
 92
        3
 72
     0
 73
     1
 93
        4
 10
52684.81239942473
 20
-9289.963077964267
 10
52684.81239942473
 20
-9226.780287089243
 10
52639.81239942473
 20
-9226.780287089243
 10
52639.81239942473
 20
-9289.963077964267
 97
        0
 75
     0
 76
     1
 98
        0
  0
LWPOLYLINE
  5
233
330
1F
100
AcDbEntity
  8
Ech.1_5
  6
Continuous
 62
   190
370
    15
390
5F
100
AcDbPolyline
 90
        5
 70
     0
 43
0.0
 10
52684.81239942473
 20
-9289.963077964267
 10
52684.81239942473
 20
-9226.780287089243
 10
52639.81239942473
 20
-9226.780287089243
 10
52639.81239942473
 20
-9289.963077964267
 10
52684.81239942473
 20
-9289.963077964267
  0
HATCH
  5
234
330
1F
100
AcDbEntity
  8
Ech.1_5
  6
Continuous
 62
   254
420
 15656413
440
 33554687
370
    20
390
5F
100
AcDbHatch
 10
0.0
 20
0.0
 30
0.0
210
0.0
220
0.0
230
1.0
  2
SOLID
 70
     1
 71
     0
 91
        1
 92
        3
 72
     0
 73
     1
 93
        4
 10
52639.8121800571
 20
-9349.963077964267
 10
52867.51311502571
 20
-9349.963077964267
 10
52867.51311502571
 20
-9289.963077964267
 10
52639.81239942473
 20
-9289.963077964267
 97
        0
 75
     0
 76
     1
 98
        0
  0
LWPOLYLINE
  5
235
330
1F
100
AcDbEntity
  8
Ech.1_5
  6
Continuous
 62
   190
370
    15
390
5F
100
AcDbPolyline
 90
        5
 70
     0
 43
0.0
 10
52639.8121800571
 20
-9349.963077964267
 10
52867.51311502571
 20
-9349.963077964267
 10
52867.51311502571
 20
-9289.963077964267
 10
52639.81239942473
 20
-9289.963077964267
 10
52639.8121800571
 20
-9349.963077964267
  0
HATCH
  5
236
330
1F
100
AcDbEntity
  8
Ech.1_5
  6
Continuous
 62
   254
420
 16643007
440
 33554687
370
     5
390
5F
100
AcDbHatch
 10
0.0
 20
0.0
 30
0.0
210
0.0
220
0.0
230
1.0
  2
SOLID
 70
     1
 71
     0
 91
        1
 92
        3
 72
     0
 73
     1
 93
        5
 10
52459.81239942487
 20
-9226.780287089243
 10
52459.81239942487
 20
-9546.846089407863
 10
52639.81239942487
 20
-9546.846089407863
 10
52639.81239942487
 20
-9453.963076009886
 10
52639.81239942487
 20
-9226.780287089243
 97
        0
 75
     0
 76
     1
 98
        0
  0
HATCH
  5
237
330
1F
100
AcDbEntity
  8
Ech.1_5
  6
Continuous
 62
   190
440
 33554687
370
    15
390
5F
100
AcDbHatch
 10
0.0
 20
0.0
 30
0.0
210
0.0
220
0.0
230
1.0
  2
CwHatchPattern_201
 70
     0
 71
     0
 91
        1
 92
        3
 72
     0
 73
     1
 93
        5
 10
52459.81239942487
 20
-9226.780287089243
 10
52459.81239942487
 20
-9546.846089407863
 10
52639.81239942487
 20
-9546.846089407863
 10
52639.81239942487
 20
-9453.963076009886
 10
52639.81239942487
 20
-9226.780287089243
 97
        0
 75
     0
 76
     2
 52
270.0
 41
3.599999904632568
 77
     0
 78
    29
 53
270.0
 43
52459.81239942488
 44
-9222.762741227378
 45
179.9999952316284
 46
0.000000000000011
 79
     2
 49
8.035091723731043
 49
-21.9649137400279
 53
0.0000000000059286
 43
52484.94407066463
 44
-9196.780299328064
 45
-0.0000000000062084
 46
59.99999268849706
 79
     2
 49
4.868333687561517
 49
-175.1316615440669
 53
0.0000000000059286
 43
52609.8123897292
 44
-9226.780287089243
 45
-0.0000000000062084
 46
59.99999268849706
 79
     2
 49
4.868333687561517
 49
-175.1316615440669
 53
14.93246459961628
 43
52496.24772742009
 44
-9256.065243007106
 45
179.9991321446976
 46
60.00328374676012
 79
     2
 49
110.8734969331556
 49
-820.5769283353765
 53
345.0675354003956
 43
52496.24772742009
 44
-9257.495323859877
 45
-179.99913214471
 46
60.00328374672286
 79
     2
 49
110.8734969331556
 49
-820.5769283353766
 53
285.2551193237315
 43
52459.81239942488
 44
-9230.797832951108
 45
0.0000016083868659
 46
59.99999080496843
 79
     2
 49
8.154737554530627
 49
-675.9505054698911
 53
74.74488830567492
 43
52459.81239942488
 44
-9222.762741227378
 45
-0.0000095978813328
 46
59.99999080496769
 79
     2
 49
8.154737554530627
 49
-675.9505054698911
 53
285.2551193237315
 43
52637.6667476644
 44
-9244.89534264726
 45
0.0000016083868659
 46
59.99999080496843
 79
     2
 49
8.154737554530627
 49
-675.9505054698911
 53
254.7448806762685
 43
52639.81239465651
 44
-9260.797820444068
 45
0.0000016083868722
 46
-59.99999080496843
 79
     2
 49
8.154737554530627
 49
-675.9505054698911
 53
300.9637565612813
 43
52461.95805339074
 44
-9238.665219292405
 45
-0.0000003985823885
 46
60.00000305622964
 79
     2
 49
7.83426562059546
 49
-342.0228219026239
 53
59.03623962403325
 43
52461.95805339074
 44
-9214.85096754671
 45
0.0000043933118091
 46
60.0000030562295
 79
     2
 49
7.83426562059546
 49
-342.0228219026239
 53
300.9637565612813
 43
52633.63603564349
 44
-9238.177527187634
 45
-0.0000003985823885
 46
60.00000305622964
 79
     2
 49
7.83426562059546
 49
-342.0228219026239
 53
239.0362434387187
 43
52637.6667476644
 44
-9268.665224219721
 45
-0.0000003985823789
 46
-60.00000305622964
 79
     2
 49
7.83426562059546
 49
-342.0228219026239
 53
315.000000000003
 43
52465.98875736502
 44
-9245.383034752032
 45
-0.0000000000031079
 46
60.00000851045429
 79
     2
 49
6.662321629462724
 49
-247.8961192264524
 53
45.0000000000089
 43
52465.98875736502
 44
-9208.177539426453
 45
-0.0000000000093237
 46
60.00000851045429
 79
     2
 49
6.662321629462724
 49
-247.8961192264524
 53
315.000000000003
 43
52628.92508110215
 44
-9233.466566745434
 45
-0.0000000000031079
 46
60.00000851045429
 79
     2
 49
6.662321629462724
 49
-247.8961192264524
 53
224.999999999997
 43
52633.63603564349
 44
-9275.383041825116
 45
-0.0000000000030823
 46
-60.00000851045429
 79
     2
 49
6.662321629462724
 49
-247.8961192264524
 53
326.3099327087439
 43
52470.69971727077
 44
-9250.09401289681
 45
-0.0000067922181662
 46
60.00000143822563
 79
     2
 49
6.98812203968572
 49
-209.3449403618456
 53
33.69006347657064
 43
52470.69971727077
 44
-9203.466561281675
 45
0.0000107869474909
 46
60.00000143822504
 79
     2
 49
6.98812203968572
 49
-209.3449403618456
 53
326.3099327087439
 43
52623.1106014283
 44
-9229.590249108634
 45
-0.0000067922181662
 46
60.00000143822563
 79
     2
 49
6.98812203968572
 49
-209.3449403618456
 53
213.690067291256
 43
52628.92508110215
 44
-9280.094017824127
 45
-0.0000067922181758
 46
-60.00000143822563
 79
     2
 49
6.98812203968572
 49
-209.3449403618456
 53
341.5650482177782
 43
52476.51418514291
 44
-9253.97033053361
 45
-0.0000030079885465
 46
60.00000569748183
 79
     2
 49
8.885879817647933
 49
-180.8507833255453
 53
18.43495178223369
 43
52476.51418514291
 44
-9199.590243644876
 45
0.0000030079761436
 46
60.00000569748183
 79
     2
 49
8.88587981764793
 49
-180.8507833255453
 53
341.5650482177782
 43
52614.68072341676
 44
-9226.780287089243
 45
-0.0000030079885465
 46
60.00000569748183
 79
     2
 49
8.885879817647933
 49
-180.8507833255453
 53
198.4349517822218
 43
52623.1106014283
 44
-9283.970316149023
 45
-0.0000030079885497
 46
-60.00000569748183
 79
     2
 49
8.885879817647933
 49
-180.8507833255453
 53
353.6598052978571
 43
52489.81238718606
 44
-9196.780299328062
 45
-360.0000086329781
 46
60.00001539520941
 79
     2
 49
6.474941976204391
 49
-536.8481455684196
 53
6.340194702154776
 43
52489.81238718606
 44
-9256.780274850422
 45
360.0000086329657
 46
60.00001539528382
 79
     2
 49
6.47494197620439
 49
-536.8481455684195
 53
173.659820556658
 43
52609.8123897292
 44
-9226.780287089243
 45
360.0000246119483
 46
-59.99991952133139
 79
     2
 49
6.474941976204391
 49
-536.8481455684196
 53
186.3401947021429
 43
52609.8123897292
 44
-9226.780287089243
 45
-360.0000086329781
 46
-60.00001539520945
 79
     2
 49
6.474941976204391
 49
-536.8481455684196
 98
        0
1001
ACAD
1010
52459.81239942488
1020
-9226.780287089243
1030
0.0
  0
LWPOLYLINE
  5
238
330
1F
100
AcDbEntity
  8
Ech.1_5
  6
Continuous
 62
   190
370
    15
390
5F
100
AcDbPolyline
 90
        6
 70
     0
 43
0.0
 10
52459.81239942487
 20
-9226.780287089243
 10
52459.81239942487
 20
-9546.846089407863
 10
52639.81239942487
 20
-9546.846089407863
 10
52639.81239942487
 20
-9453.963076009886
 10
52639.81239942487
 20
-9226.780287089243
 10
52459.81239942487
 20
-9226.780287089243
  0
HATCH
  5
239
330
1F
100
AcDbEntity
  8
Ech.1_5
  6
Continuous
 62
   254
420
 13882323
440
 33554687
370
    20
390
5F
100
AcDbHatch
 10
0.0
 20
0.0
 30
0.0
210
0.0
220
0.0
230
1.0
  2
SOLID
 70
     1
 71
     0
 91
        1
 92
        3
 72
     0
 73
     1
 93
        4
 10
51975.41913754959
 20
-8540.82586497877
 10
51975.41913754959
 20
-9345.048834024252
 10
52002.41913754958
 20
-9345.048947717069
 10
52002.41913754957
 20
-8540.825730649709
 97
        0
 75
     0
 76
     1
 98
        0
  0
LWPOLYLINE
  5
23A
330
1F
100
AcDbEntity
  8
Ech.1_5
  6
Continuous
 62
   190
370
    15
390
5F
100
AcDbPolyline
 90
        5
 70
     0
 43
0.0
 10
51975.41913754959
 20
-8540.82586497877
 10
51975.41913754959
 20
-9345.048834024252
 10
52002.41913754958
 20
-9345.048947717069
 10
52002.41913754957
 20
-8540.825730649709
 10
51975.41913754959
 20
-8540.82586497877
  0
HATCH
  5
23B
330
1F
100
AcDbEntity
  8
Ech.1_5
  6
Continuous
 62
   254
420
 13882323
440
 33554687
370
    20
390
5F
100
AcDbHatch
 10
0.0
 20
0.0
 30
0.0
210
0.0
220
0.0
230
1.0
  2
SOLID
 70
     1
 71
     0
 91
        1
 92
        3
 72
     0
 73
     1
 93
        4
 10
51949.41913754959
 20
-9345.048724542281
 10
51975.41913754959
 20
-9345.048834024252
 10
51975.41913754959
 20
-8540.82622686089
 10
51949.41913754959
 20
-8540.826094784186
 97
        0
 75
     0
 76
     1
 98
        0
  0
LWPOLYLINE
  5
23C
330
1F
100
AcDbEntity
  8
Ech.1_5
  6
Continuous
 62
     7
370
    20
390
5F
100
AcDbPolyline
 90
        5
 70
     0
 43
0.0
 10
51949.41913754959
 20
-9345.048724542281
 10
51975.41913754959
 20
-9345.048834024252
 10
51975.41913754959
 20
-8540.82622686089
 10
51949.41913754959
 20
-8540.826094784186
 10
51949.41913754959
 20
-9345.048724542281
  0
LWPOLYLINE
  5
23D
330
1F
100
AcDbEntity
  8
Ech.1_5
  6
Continuous
 62
   190
370
    15
390
5F
100
AcDbPolyline
 90
        5
 70
     0
 43
0.0
 10
40816.40509298422
 20
-6487.599331055761
 10
58809.49529936429
 20
-6487.599331055761
 10
58809.49529936429
 20
-10009.76953189872
 10
40816.40509298422
 20
-10009.76953189872
 10
40816.40509298422
 20
-6487.599331055761
  0
LWPOLYLINE
  5
23E
330
1F
100
AcDbEntity
  8
Ech.1_5
 62
     3
370
    70
390
5F
100
AcDbPolyline
 90
        4
 70
     0
 43
0.0
 10
51970.84500457836
 20
-8495.573333096654
 10
51957.85587115828
 20
-8495.573333096654
 10
51953.92113901738
 20
-8489.89272013466
 10
51940.44270901648
 20
-8489.89272013466
  0
LINE
  5
23F
330
1F
100
AcDbEntity
  8
Ech.1_5
  6
Continuous
 62
   190
370
    15
390
5F
100
AcDbLine
 10
52866.58466642437
 20
-9280.684299519608
 30
0.0
 11
52867.51311502571
 21
-9277.898954195118
 31
0.0
  0
LINE
  5
240
330
1F
100
AcDbEntity
  8
Ech.1_5
  6
Continuous
 62
   190
370
    15
390
5F
100
AcDbLine
 10
52864.43114473783
 20
-9283.91454902239
 30
0.0
 11
52866.58465181868
 21
-9280.684288372444
 31
0.0
  0
LINE
  5
241
330
1F
100
AcDbEntity
  8
Ech.1_5
  6
Continuous
 62
   190
370
    15
390
5F
100
AcDbLine
 10
52835.2096026738
 20
-9269.720999871693
 30
0.0
 11
52846.66130023907
 21
-9226.780287089243
 31
0.0
  0
LINE
  5
242
330
1F
100
AcDbEntity
  8
Ech.1_5
  6
Continuous
 62
   190
370
    15
390
5F
100
AcDbLine
 10
52801.8762793038
 20
-9269.721057039224
 30
0.0
 11
52813.32799211486
 21
-9226.780287089243
 31
0.0
  0
LINE
  5
243
330
1F
100
AcDbEntity
  8
Ech.1_5
  6
Continuous
 62
   190
370
    15
390
5F
100
AcDbLine
 10
52768.54295593379
 20
-9269.721114206752
 30
0.0
 11
52779.99468399066
 21
-9226.780287089243
 31
0.0
  0
LINE
  5
244
330
1F
100
AcDbEntity
  8
Ech.1_5
  6
Continuous
 62
   190
370
    15
390
5F
100
AcDbLine
 10
52735.20963256379
 20
-9269.721171374284
 30
0.0
 11
52746.66137586645
 21
-9226.780287089243
 31
0.0
  0
LINE
  5
245
330
1F
100
AcDbEntity
  8
Ech.1_5
  6
Continuous
 62
   190
370
    15
390
5F
100
AcDbLine
 10
52701.87630919379
 20
-9269.721228541812
 30
0.0
 11
52713.32806774224
 21
-9226.780287089243
 31
0.0
  0
LINE
  5
246
330
1F
100
AcDbEntity
  8
Ech.1_5
  6
Continuous
 62
   190
370
    15
390
5F
100
AcDbLine
 10
52867.51311502571
 20
-9268.83912304348
 30
0.0
 11
52856.29660188268
 21
-9226.780287089243
 31
0.0
  0
LINE
  5
247
330
1F
100
AcDbEntity
  8
Ech.1_5
  6
Continuous
 62
   190
370
    15
390
5F
100
AcDbLine
 10
52834.4151132901
 20
-9269.721457211932
 30
0.0
 11
52822.96329375848
 21
-9226.780287089243
 31
0.0
  0
LINE
  5
248
330
1F
100
AcDbEntity
  8
Ech.1_5
  6
Continuous
 62
   190
370
    15
390
5F
100
AcDbLine
 10
52801.0817899201
 20
-9269.721400044402
 30
0.0
 11
52789.62998563427
 21
-9226.780287089243
 31
0.0
  0
LINE
  5
249
330
1F
100
AcDbEntity
  8
Ech.1_5
  6
Continuous
 62
   190
370
    15
390
5F
100
AcDbLine
 10
52767.7484665501
 20
-9269.721342876874
 30
0.0
 11
52756.29667751006
 21
-9226.780287089243
 31
0.0
  0
LINE
  5
24A
330
1F
100
AcDbEntity
  8
Ech.1_5
  6
Continuous
 62
   190
370
    15
390
5F
100
AcDbLine
 10
52734.41514318009
 20
-9269.721285709342
 30
0.0
 11
52722.96336938585
 21
-9226.780287089243
 31
0.0
  0
LINE
  5
24B
330
1F
100
AcDbEntity
  8
Ech.1_5
  6
Continuous
 62
   190
370
    15
390
5F
100
AcDbLine
 10
52701.08181981009
 20
-9269.721228541812
 30
0.0
 11
52689.63006126164
 21
-9226.780287089243
 31
0.0
  0
LWPOLYLINE
  5
24C
330
1F
100
AcDbEntity
  8
Ech.1_5
  6
Continuous
 62
   190
370
    15
390
5F
100
AcDbPolyline
 90
        6
 70
     0
 43
0.0
 10
52789.87498003822
 20
-8785.22749052099
 10
52789.87645585687
 20
-8970.334989953159
 10
52807.85380426425
 20
-8986.82049310913
 10
52771.89810425244
 20
-8972.710553091323
 10
52789.87645585687
 20
-8989.196907172749
 10
52789.87577269351
 20
-9161.200090729668
  0
HATCH
  5
24D
330
1F
100
AcDbEntity
  8
Ech.1_5
  6
Continuous
 62
   254
420
 14407639
440
 33554687
370
    15
390
5F
100
AcDbHatch
 10
0.0
 20
0.0
 30
0.0
210
0.0
220
0.0
230
1.0
  2
SOLID
 70
     1
 71
     0
 91
        1
 92
        3
 72
     0
 73
     1
 93
        4
 10
52229.94556238694
 20
-9345.047830201407
 10
52242.94556238694
 20
-9345.047830201407
 10
52242.94556238694
 20
-9177.22748856661
 10
52229.94556238694
 20
-9177.22748856661
 97
        0
 75
     0
 76
     1
 98
        0
  0
LWPOLYLINE
  5
24E
330
1F
100
AcDbEntity
  8
Ech.1_5
  6
Continuous
 62
   254
420
 14407639
370
    15
390
5F
100
AcDbPolyline
 90
        5
 70
     0
 43
0.0
 10
52229.94556238694
 20
-9345.047830201407
 10
52242.94556238694
 20
-9345.047830201407
 10
52242.94556238694
 20
-9177.22748856661
 10
52229.94556238694
 20
-9177.22748856661
 10
52229.94556238694
 20
-9345.047830201407
  0
HATCH
  5
24F
330
1F
100
AcDbEntity
  8
Ech.1_5
  6
Continuous
 62
   254
420
 14407639
440
 33554687
370
    15
390
5F
100
AcDbHatch
 10
0.0
 20
0.0
 30
0.0
210
0.0
220
0.0
230
1.0
  2
SOLID
 70
     1
 71
     0
 91
        1
 92
        3
 72
     0
 73
     1
 93
        4
 10
52229.94556238694
 20
-8809.227490521223
 10
52242.94556238694
 20
-8809.227490521223
 10
52242.94556238694
 20
-8540.825463367115
 10
52229.94556238694
 20
-8540.825463367115
 97
        0
 75
     0
 76
     1
 98
        0
  0
LWPOLYLINE
  5
250
330
1F
100
AcDbEntity
  8
Ech.1_5
  6
Continuous
 62
   254
420
 14407639
370
    15
390
5F
100
AcDbPolyline
 90
        5
 70
     0
 43
0.0
 10
52229.94556238694
 20
-8809.227490521223
 10
52242.94556238694
 20
-8809.227490521223
 10
52242.94556238694
 20
-8540.825463367115
 10
52229.94556238694
 20
-8540.825463367115
 10
52229.94556238694
 20
-8809.227490521223
  0
HATCH
  5
252
330
1F
100
AcDbEntity
  8
Ech.1_5
  6
Continuous
 62
   190
440
 33554687
370
    15
390
251
100
AcDbHatch
 10
0.0
 20
0.0
 30
0.0
210
0.0
220
0.0
230
1.0
  2
CwHatchPattern_84
 70
     0
 71
     0
 91
        1
 92
        3
 72
     0
 73
     1
 93
        4
 10
52229.94556238694
 20
-9345.047830201407
 10
52242.94556238694
 20
-9345.047830201407
 10
52242.94556238694
 20
-9177.22748856661
 10
52229.94556238694
 20
-9177.22748856661
 97
        0
 75
     0
 76
     2
 52
0.0
 41
1.0
 77
     0
 78
     2
 53
0.0
 43
0.0
 44
0.0
 45
0.0
 46
70.0
 79
     2
 49
0.0
 49
-70.0
 53
0.0
 43
35.0
 44
35.0
 45
0.0
 46
70.0
 79
     2
 49
0.0
 49
-70.0
 98
        0
1001
ACAD
1010
0.0
1020
0.0
1030
0.0
  0
LWPOLYLINE
  5
253
330
1F
100
AcDbEntity
  8
Ech.1_5
  6
Continuous
 62
     7
370
    20
390
5F
100
AcDbPolyline
 90
        5
 70
     0
 43
0.0
 10
52229.94556238694
 20
-9345.047830201407
 10
52242.94556238694
 20
-9345.047830201407
 10
52242.94556238694
 20
-9177.22748856661
 10
52229.94556238694
 20
-9177.22748856661
 10
52229.94556238694
 20
-9345.047830201407
  0
HATCH
  5
254
330
1F
100
AcDbEntity
  8
Ech.1_5
  6
Continuous
 62
   190
440
 33554687
370
    15
390
251
100
AcDbHatch
 10
0.0
 20
0.0
 30
0.0
210
0.0
220
0.0
230
1.0
  2
CwHatchPattern_84
 70
     0
 71
     0
 91
        1
 92
        3
 72
     0
 73
     1
 93
        4
 10
52229.94556238694
 20
-8809.227490521223
 10
52242.94556238694
 20
-8809.227490521223
 10
52242.94556238694
 20
-8540.825463367115
 10
52229.94556238694
 20
-8540.825463367115
 97
        0
 75
     0
 76
     2
 52
0.0
 41
1.0
 77
     0
 78
     2
 53
0.0
 43
0.0
 44
0.0
 45
0.0
 46
70.0
 79
     2
 49
0.0
 49
-70.0
 53
0.0
 43
35.0
 44
35.0
 45
0.0
 46
70.0
 79
     2
 49
0.0
 49
-70.0
 98
        0
1001
ACAD
1010
0.0
1020
0.0
1030
0.0
  0
LWPOLYLINE
  5
255
330
1F
100
AcDbEntity
  8
Ech.1_5
  6
Continuous
 62
     7
370
    20
390
5F
100
AcDbPolyline
 90
        5
 70
     0
 43
0.0
 10
52229.94556238694
 20
-8809.227490521223
 10
52242.94556238694
 20
-8809.227490521223
 10
52242.94556238694
 20
-8540.825463367115
 10
52229.94556238694
 20
-8540.825463367115
 10
52229.94556238694
 20
-8809.227490521223
  0
HATCH
  5
256
330
1F
100
AcDbEntity
  8
Ech.1_5
  6
Continuous
 62
    40
420
 16297258
440
 33554687
370
    20
390
5F
100
AcDbHatch
 10
0.0
 20
0.0
 30
0.0
210
0.0
220
0.0
230
1.0
  2
SOLID
 70
     1
 71
     0
 91
        1
 92
        3
 72
     0
 73
     1
 93
        4
 10
52000.94556238694
 20
-8814.073778732212
 10
52009.94556238694
 20
-8814.073778732212
 10
52009.94556238694
 20
-8540.825074169506
 10
52000.94556238694
 20
-8540.825074169506
 97
        0
 75
     0
 76
     1
 98
        0
  0
LWPOLYLINE
  5
257
330
1F
100
AcDbEntity
  8
Ech.1_5
  6
Continuous
 62
   190
370
    15
390
5F
100
AcDbPolyline
 90
        5
 70
     0
 43
0.0
 10
52000.94556238694
 20
-8814.073778732212
 10
52009.94556238694
 20
-8814.073778732212
 10
52009.94556238694
 20
-8540.825074169506
 10
52000.94556238694
 20
-8540.825074169506
 10
52000.94556238694
 20
-8814.073778732212
  0
HATCH
  5
258
330
1F
100
AcDbEntity
  8
Ech.1_5
  6
Continuous
 62
    40
420
 16297258
440
 33554687
370
    20
390
5F
100
AcDbHatch
 10
0.0
 20
0.0
 30
0.0
210
0.0
220
0.0
230
1.0
  2
SOLID
 70
     1
 71
     0
 91
        1
 92
        3
 72
     0
 73
     1
 93
        4
 10
52009.94556238694
 20
-8816.073778732212
 10
52000.94556238694
 20
-8816.073778732212
 10
52000.94556238694
 20
-9345.049168158743
 10
52009.94556238694
 20
-9345.049168158743
 97
        0
 75
     0
 76
     1
 98
        0
  0
LWPOLYLINE
  5
259
330
1F
100
AcDbEntity
  8
Ech.1_5
  6
Continuous
 62
   190
370
    15
390
5F
100
AcDbPolyline
 90
        5
 70
     0
 43
0.0
 10
52009.94556238694
 20
-8816.073778732212
 10
52000.94556238694
 20
-8816.073778732212
 10
52000.94556238694
 20
-9345.049168158743
 10
52009.94556238694
 20
-9345.049168158743
 10
52009.94556238694
 20
-8816.073778732212
  0
HATCH
  5
25A
330
1F
100
AcDbEntity
  8
Ech.1_5
  6
Continuous
 62
   190
440
 33554687
370
    15
390
5F
100
AcDbHatch
 10
0.0
 20
0.0
 30
0.0
210
0.0
220
0.0
230
1.0
  2
CwHatchPattern_74
 70
     0
 71
     0
 91
        1
 92
        3
 72
     0
 73
     1
 93
        4
 10
52000.94556238694
 20
-8814.073778732212
 10
52009.94556238694
 20
-8814.073778732212
 10
52009.94556238694
 20
-8540.825074169506
 10
52000.94556238694
 20
-8540.825074169506
 97
        0
 75
     0
 76
     2
 52
0.0
 41
0.6000000238418579
 77
     0
 78
     3
 53
45.00000000000297
 43
0.0
 44
0.0
 45
-0.0000000000043443
 46
42.00000166893005
 79
     0
 53
45.00000000000297
 43
0.0
 44
10.80000042915344
 45
-0.0000000000043443
 46
42.00000166893005
 79
     0
 53
45.00000000000297
 43
0.0
 44
21.60000085830688
 45
-0.0000000000043443
 46
42.00000166893005
 79
     0
 98
        0
1001
ACAD
1010
0.0
1020
0.0
1030
0.0
  0
LWPOLYLINE
  5
25B
330
1F
100
AcDbEntity
  8
Ech.1_5
  6
Continuous
 62
     7
370
    20
390
5F
100
AcDbPolyline
 90
        5
 70
     0
 43
0.0
 10
52000.94556238694
 20
-8814.073778732212
 10
52009.94556238694
 20
-8814.073778732212
 10
52009.94556238694
 20
-8540.825074169506
 10
52000.94556238694
 20
-8540.825074169506
 10
52000.94556238694
 20
-8814.073778732212
  0
LINE
  5
25C
330
1F
100
AcDbEntity
  8
Ech.1_5
  6
Continuous
 62
   190
370
    15
390
5F
100
AcDbLine
 10
52000.94556238694
 20
-8540.825348992787
 30
0.0
 11
52000.94556238694
 21
-9345.049137262233
 31
0.0
  0
HATCH
  5
25D
330
1F
100
AcDbEntity
  8
Ech.1_5
  6
Continuous
 62
    33
420
 12426362
440
 33554687
370
    20
390
5F
100
AcDbHatch
 10
0.0
 20
0.0
 30
0.0
210
0.0
220
0.0
230
1.0
  2
SOLID
 70
     1
 71
     0
 91
        1
 92
        3
 72
     0
 73
     1
 93
        4
 10
52234.9455623868
 20
-8838.227490521107
 10
52189.9455623868
 20
-8838.227490521107
 10
52189.9455623868
 20
-9058.227490521107
 10
52234.9455623868
 20
-9058.227490521107
 97
        0
 75
     0
 76
     1
 98
        0
  0
LWPOLYLINE
  5
25E
330
1F
100
AcDbEntity
  8
Ech.1_5
  6
Continuous
 62
   190
370
    15
390
5F
100
AcDbPolyline
 90
        5
 70
     0
 43
0.0
 10
52234.9455623868
 20
-8838.227490521107
 10
52189.9455623868
 20
-8838.227490521107
 10
52189.9455623868
 20
-9058.227490521107
 10
52234.9455623868
 20
-9058.227490521107
 10
52234.9455623868
 20
-8838.227490521107
  0
LINE
  5
25F
330
1F
100
AcDbEntity
  8
Ech.1_5
  6
Continuous
 62
   190
370
    15
390
5F
100
AcDbLine
 10
52234.9455623868
 20
-9058.227490521107
 30
0.0
 11
52189.9455623868
 21
-8838.227490521107
 31
0.0
  0
LINE
  5
260
330
1F
100
AcDbEntity
  8
Ech.1_5
  6
Continuous
 62
   190
370
    15
390
5F
100
AcDbLine
 10
52234.9455623868
 20
-8838.227490521107
 30
0.0
 11
52189.9455623868
 21
-9058.227490521107
 31
0.0
  0
LWPOLYLINE
  5
261
330
1F
100
AcDbEntity
  8
Ech.1_5
  6
Continuous
 62
   190
370
    15
390
5F
100
AcDbPolyline
 90
        5
 70
     0
 43
0.0
 10
52189.9455623868
 20
-9058.227490521107
 10
52234.9455623868
 20
-9058.227490521107
 10
52234.9455623868
 20
-8838.227490521107
 10
52189.9455623868
 20
-8838.227490521107
 10
52189.9455623868
 20
-9058.227490521107
  0
HATCH
  5
262
330
1F
100
AcDbEntity
  8
Ech.1_5
  6
Continuous
 62
    40
420
 16297258
440
 33554687
370
    20
390
5F
100
AcDbHatch
 10
0.0
 20
0.0
 30
0.0
210
0.0
220
0.0
230
1.0
  2
SOLID
 70
     1
 71
     0
 91
        1
 92
        3
 72
     0
 73
     1
 93
        4
 10
52189.9455623868
 20
-8838.227490521107
 10
52189.9455623868
 20
-8819.227490521107
 10
52789.87594418193
 20
-8819.227490521107
 10
52789.87594418193
 20
-8838.227490521107
 97
        0
 75
     0
 76
     1
 98
        0
  0
LWPOLYLINE
  5
263
330
1F
100
AcDbEntity
  8
Ech.1_5
  6
Continuous
 62
   190
370
    15
390
5F
100
AcDbPolyline
 90
        5
 70
     0
 43
0.0
 10
52189.9455623868
 20
-8838.227490521107
 10
52189.9455623868
 20
-8819.227490521107
 10
52789.87594418193
 20
-8819.227490521107
 10
52789.87594418193
 20
-8838.227490521107
 10
52189.9455623868
 20
-8838.227490521107
  0
HATCH
  5
264
330
1F
100
AcDbEntity
  8
Ech.1_5
  6
Continuous
 62
   190
440
 33554687
370
    15
390
5F
100
AcDbHatch
 10
0.0
 20
0.0
 30
0.0
210
0.0
220
0.0
230
1.0
  2
CwHatchPattern_215
 70
     0
 71
     0
 91
        1
 92
        3
 72
     0
 73
     1
 93
        4
 10
52189.9455623868
 20
-8838.227490521107
 10
52189.9455623868
 20
-8819.227490521107
 10
52789.87594418193
 20
-8819.227490521107
 10
52789.87594418193
 20
-8838.227490521107
 97
        0
 75
     0
 76
     2
 52
0.0
 41
0.6000000238418579
 77
     0
 78
     2
 53
45.00000000000297
 43
52189.9455623868
 44
-8838.227490521109
 45
-8.485281711413798
 46
8.48528171141292
 79
     2
 49
960.0000381469727
 49
0.0
 53
135.0000000000089
 43
52189.9455623868
 44
-8838.227490521109
 45
-25.45584513424139
 46
8.485281711409405
 79
     2
 49
30.0000011920929
 49
-18.00000071525574
 98
        0
1001
ACAD
1010
52189.9455623868
1020
-8838.227490521109
1030
0.0
  0
LWPOLYLINE
  5
265
330
1F
100
AcDbEntity
  8
Ech.1_5
  6
Continuous
 62
     7
370
    20
390
5F
100
AcDbPolyline
 90
        5
 70
     0
 43
0.0
 10
52189.9455623868
 20
-8838.227490521107
 10
52189.9455623868
 20
-8819.227490521107
 10
52789.87594418193
 20
-8819.227490521107
 10
52789.87594418193
 20
-8838.227490521107
 10
52189.9455623868
 20
-8838.227490521107
  0
HATCH
  5
266
330
1F
100
AcDbEntity
  8
Ech.1_5
  6
Continuous
 62
   254
420
 14407639
440
 33554687
370
    20
390
5F
100
AcDbHatch
 10
0.0
 20
0.0
 30
0.0
210
0.0
220
0.0
230
1.0
  2
SOLID
 70
     1
 71
     0
 91
        1
 92
        3
 72
     0
 73
     1
 93
        4
 10
52189.9455623868
 20
-9163.22732801987
 10
52189.9455623868
 20
-9176.22732801987
 10
52789.87563357181
 20
-9176.22732801987
 10
52789.87563357181
 20
-9163.22732801987
 97
        0
 75
     0
 76
     1
 98
        0
  0
LWPOLYLINE
  5
267
330
1F
100
AcDbEntity
  8
Ech.1_5
  6
Continuous
 62
   190
370
    15
390
5F
100
AcDbPolyline
 90
        5
 70
     0
 43
0.0
 10
52189.9455623868
 20
-9163.22732801987
 10
52189.9455623868
 20
-9176.22732801987
 10
52789.87563357181
 20
-9176.22732801987
 10
52789.87563357181
 20
-9163.22732801987
 10
52189.9455623868
 20
-9163.22732801987
  0
HATCH
  5
268
330
1F
100
AcDbEntity
  8
Ech.1_5
  6
Continuous
 62
   190
440
 33554687
370
    15
390
251
100
AcDbHatch
 10
0.0
 20
0.0
 30
0.0
210
0.0
220
0.0
230
1.0
  2
CwHatchPattern_84
 70
     0
 71
     0
 91
        1
 92
        3
 72
     0
 73
     1
 93
        4
 10
52789.87563357181
 20
-9176.227403853742
 10
52789.87563357181
 20
-9163.227403853742
 10
52189.9455623868
 20
-9163.227490521107
 10
52189.9455623868
 20
-9176.227490521107
 97
        0
 75
     0
 76
     2
 52
0.0
 41
1.0
 77
     0
 78
     2
 53
0.0
 43
0.0
 44
0.0
 45
0.0
 46
70.0
 79
     2
 49
0.0
 49
-70.0
 53
0.0
 43
35.0
 44
35.0
 45
0.0
 46
70.0
 79
     2
 49
0.0
 49
-70.0
 98
        0
1001
ACAD
1010
0.0
1020
0.0
1030
0.0
  0
LWPOLYLINE
  5
269
330
1F
100
AcDbEntity
  8
Ech.1_5
  6
Continuous
 62
     7
370
    20
390
5F
100
AcDbPolyline
 90
        5
 70
     0
 43
0.0
 10
52789.87563357181
 20
-9176.227403853742
 10
52789.87563357181
 20
-9163.227403853742
 10
52189.9455623868
 20
-9163.227490521107
 10
52189.9455623868
 20
-9176.227490521107
 10
52789.87563357181
 20
-9176.227403853742
  0
LWPOLYLINE
  5
26A
330
1F
100
AcDbEntity
  8
Ech.1_5
  6
Continuous
 62
   190
370
    15
390
5F
100
AcDbPolyline
 90
        4
 70
     0
 43
0.0
 10
52789.87563357181
 20
-9163.227490521107
 10
52288.1538446217
 20
-9163.227490521107
 10
52288.1538446217
 20
-9063.227490521107
 10
52789.87563357181
 20
-9063.227490521107
  0
HATCH
  5
26B
330
1F
100
AcDbEntity
  8
Ech.1_5
  6
Continuous
 62
   254
420
 16643007
440
 33554687
370
    20
390
5F
100
AcDbHatch
 10
0.0
 20
0.0
 30
0.0
210
0.0
220
0.0
230
1.0
  2
SOLID
 70
     1
 71
     0
 91
        1
 92
        3
 72
     0
 73
     1
 93
        4
 10
52189.9455623868
 20
-9063.227490521107
 10
52189.9455623868
 20
-9163.227490521107
 10
52789.87563357181
 20
-9163.227490521107
 10
52789.87563357181
 20
-9063.227490521107
 97
        0
 75
     0
 76
     1
 98
        0
  0
LWPOLYLINE
  5
26C
330
1F
100
AcDbEntity
  8
Ech.1_5
  6
Continuous
 62
   190
370
    15
390
5F
100
AcDbPolyline
 90
        5
 70
     0
 43
0.0
 10
52189.9455623868
 20
-9063.227490521107
 10
52189.9455623868
 20
-9163.227490521107
 10
52789.87563357181
 20
-9163.227490521107
 10
52789.87563357181
 20
-9063.227490521107
 10
52189.9455623868
 20
-9063.227490521107
  0
HATCH
  5
26D
330
1F
100
AcDbEntity
  8
Ech.1_5
  6
Continuous
 62
   254
420
 15656413
440
 33554687
370
    20
390
5F
100
AcDbHatch
 10
0.0
 20
0.0
 30
0.0
210
0.0
220
0.0
230
1.0
  2
SOLID
 70
     1
 71
     0
 91
        1
 92
        3
 72
     0
 73
     1
 93
        4
 10
52189.94556238694
 20
-9242.22748856661
 10
52229.94556238707
 20
-9242.227488566727
 10
52229.94556238707
 20
-9197.22748856661
 10
52189.9455623868
 20
-9197.22748856661
 97
        0
 75
     0
 76
     1
 98
        0
  0
LWPOLYLINE
  5
26E
330
1F
100
AcDbEntity
  8
Ech.1_5
  6
Continuous
 62
   190
370
    15
390
5F
100
AcDbPolyline
 90
        5
 70
     0
 43
0.0
 10
52189.94556238694
 20
-9242.22748856661
 10
52229.94556238707
 20
-9242.227488566727
 10
52229.94556238707
 20
-9197.22748856661
 10
52189.9455623868
 20
-9197.22748856661
 10
52189.94556238694
 20
-9242.22748856661
  0
HATCH
  5
26F
330
1F
100
AcDbEntity
  8
Ech.1_5
  6
Continuous
 62
   254
420
 15656413
440
 33554687
370
    20
390
5F
100
AcDbHatch
 10
0.0
 20
0.0
 30
0.0
210
0.0
220
0.0
230
1.0
  2
SOLID
 70
     1
 71
     0
 91
        1
 92
        3
 72
     0
 73
     1
 93
        4
 10
52189.94556238694
 20
-8809.227490521107
 10
52229.94556238707
 20
-8809.227490521223
 10
52229.94556238707
 20
-8764.227490521107
 10
52189.9455623868
 20
-8764.227490521107
 97
        0
 75
     0
 76
     1
 98
        0
  0
LWPOLYLINE
  5
270
330
1F
100
AcDbEntity
  8
Ech.1_5
  6
Continuous
 62
   190
370
    15
390
5F
100
AcDbPolyline
 90
        5
 70
     0
 43
0.0
 10
52189.94556238694
 20
-8809.227490521107
 10
52229.94556238707
 20
-8809.227490521223
 10
52229.94556238707
 20
-8764.227490521107
 10
52189.9455623868
 20
-8764.227490521107
 10
52189.94556238694
 20
-8809.227490521107
  0
LINE
  5
271
330
1F
100
AcDbEntity
  8
Ech.1_5
  6
Continuous
 62
   190
370
    15
390
5F
100
AcDbLine
 10
52189.94556238694
 20
-8774.227490521107
 30
0.0
 11
52189.94556238694
 21
-8540.825588914753
 31
0.0
  0
LINE
  5
272
330
1F
100
AcDbEntity
  8
Ech.1_5
  6
Continuous
 62
   190
370
    15
390
5F
100
AcDbLine
 10
52189.94556238694
 20
-9148.227490521107
 30
0.0
 11
52189.94556238694
 21
-9345.047830201407
 31
0.0
  0
LWPOLYLINE
  5
273
330
1F
100
AcDbEntity
  8
Ech.1_5
 62
   190
370
    18
390
5F
100
AcDbPolyline
 90
        4
 70
     0
 43
0.0
 10
52189.9455623868
 20
-9197.22748856661
 10
52229.94556238696
 20
-9242.227488566727
 10
52229.94556238707
 20
-9197.22748856661
 10
52189.94556238694
 20
-9242.22748856661
  0
LWPOLYLINE
  5
274
330
1F
100
AcDbEntity
  8
Ech.1_5
  6
Continuous
 62
   190
370
    15
390
5F
100
AcDbPolyline
 90
       70
 70
     0
 43
0.0
 10
52194.58390759164
 20
-9146.560688436684
 42
1.140281805121786
 10
52227.34928218299
 20
-9142.247034981918
 10
52211.81845174967
 20
-9084.207783559059
 42
-1.303226186854903
 10
52244.01592176611
 20
-9084.207783559059
 10
52228.48509133278
 20
-9142.247034981918
 42
1.303226186854903
 10
52260.68256134923
 20
-9142.247034981918
 10
52245.1517309159
 20
-9084.207783559059
 42
-1.303226186854903
 10
52277.34920093234
 20
-9084.207783559059
 10
52261.81837049901
 20
-9142.247034981918
 42
1.303226186854903
 10
52294.01584051545
 20
-9142.247034981918
 10
52278.48501008213
 20
-9084.207783559059
 42
-1.303226186854903
 10
52310.68248009858
 20
-9084.207783559059
 10
52295.15164966525
 20
-9142.247034981918
 42
1.303226186854903
 10
52327.34911968169
 20
-9142.247034981918
 10
52311.81828924836
 20
-9084.207783559059
 42
-1.303226186854903
 10
52344.0157592648
 20
-9084.207783559059
 10
52328.48492883147
 20
-9142.247034981918
 42
1.303226186854903
 10
52360.68239884792
 20
-9142.247034981918
 10
52345.1515684146
 20
-9084.207783559059
 42
-1.303226186854903
 10
52377.34903843104
 20
-9084.207783559059
 10
52361.81820799771
 20
-9142.247034981918
 42
1.303226186854903
 10
52394.01567801416
 20
-9142.247034981918
 10
52378.48484758082
 20
-9084.207783559059
 42
-1.303226186854903
 10
52410.68231759727
 20
-9084.207783559059
 10
52395.15148716394
 20
-9142.247034981918
 42
1.303226186854903
 10
52427.34895718038
 20
-9142.247034981918
 10
52411.81812674706
 20
-9084.207783559059
 42
-1.303226186854903
 10
52444.01559676351
 20
-9084.207783559059
 10
52428.48476633018
 20
-9142.247034981918
 42
1.303226186854903
 10
52460.68223634662
 20
-9142.247034981918
 10
52445.15140591329
 20
-9084.207783559059
 42
-1.303226186854903
 10
52477.34887592973
 20
-9084.207783559059
 10
52461.8180454964
 20
-9142.247034981918
 42
1.303226186854903
 10
52494.01551551285
 20
-9142.247034981918
 10
52478.48468507953
 20
-9084.207783559059
 42
-1.303226186854903
 10
52510.68215509597
 20
-9084.207783559059
 10
52495.15132466264
 20
-9142.247034981918
 42
1.303226186854903
 10
52527.34879467908
 20
-9142.247034981918
 10
52511.81796424575
 20
-9084.207783559059
 42
-1.303226186854903
 10
52544.0154342622
 20
-9084.207783559059
 10
52528.48460382887
 20
-9142.247034981918
 42
1.303226186854903
 10
52560.68207384531
 20
-9142.247034981918
 10
52545.15124341199
 20
-9084.207783559059
 42
-1.303226186854903
 10
52577.34871342844
 20
-9084.207783559059
 10
52561.81788299511
 20
-9142.247034981918
 42
1.303226186854903
 10
52594.01535301155
 20
-9142.247034981918
 10
52578.48452257822
 20
-9084.207783559059
 42
-1.303226186854903
 10
52610.68199259466
 20
-9084.207783559059
 10
52595.15116216133
 20
-9142.247034981918
 42
1.303226186854903
 10
52627.34863217777
 20
-9142.247034981918
 10
52611.81780174446
 20
-9084.207783559059
 42
-1.303226186854903
 10
52644.0152717609
 20
-9084.207783559059
 10
52628.48444132757
 20
-9142.247034981918
 42
1.303226186854903
 10
52660.68191134401
 20
-9142.247034981918
 10
52645.15108091068
 20
-9084.207783559059
 42
-1.303226186854903
 10
52677.34855092713
 20
-9084.207783559059
 10
52661.8177204938
 20
-9142.247034981918
 42
1.303226186854903
 10
52694.01519051024
 20
-9142.247034981918
 10
52678.48436007692
 20
-9084.207783559059
 42
-1.303226186854903
 10
52710.68183009337
 20
-9084.207783559059
 10
52695.15099966004
 20
-9142.247034981918
 42
1.303226186854903
 10
52727.34846967648
 20
-9142.247034981918
 10
52711.81763924315
 20
-9084.207783559059
 42
-1.303226186854903
 10
52744.01510925959
 20
-9084.207783559059
 10
52728.48427882626
 20
-9142.247034981918
 42
1.303226186854903
 10
52760.6817488427
 20
-9142.247034981918
 10
52745.15091840939
 20
-9084.207783559059
 42
-1.303226186854903
 10
52777.34838842583
 20
-9084.207783559059
 10
52761.8175579925
 20
-9142.247034981918
 42
0.7732612097277047
 10
52789.87563357181
 20
-9158.168920347654
  0
HATCH
  5
275
330
1F
100
AcDbEntity
  8
Ech.1_5
  6
Continuous
 62
   190
440
 33554687
370
    15
390
5F
100
AcDbHatch
 10
0.0
 20
0.0
 30
0.0
210
0.0
220
0.0
230
1.0
  2
CwHatchPattern_74
 70
     0
 71
     0
 91
        1
 92
        3
 72
     0
 73
     1
 93
        4
 10
52009.94556238694
 20
-8816.073778732212
 10
52000.94556238694
 20
-8816.073778732212
 10
52000.94556238694
 20
-9345.049168158743
 10
52009.94556238694
 20
-9345.049168158743
 97
        0
 75
     0
 76
     2
 52
0.0
 41
0.6000000238418579
 77
     0
 78
     3
 53
45.00000000000297
 43
0.0
 44
0.0
 45
-0.0000000000043443
 46
42.00000166893005
 79
     0
 53
45.00000000000297
 43
0.0
 44
10.80000042915344
 45
-0.0000000000043443
 46
42.00000166893005
 79
     0
 53
45.00000000000297
 43
0.0
 44
21.60000085830688
 45
-0.0000000000043443
 46
42.00000166893005
 79
     0
 98
        0
1001
ACAD
1010
0.0
1020
0.0
1030
0.0
  0
LWPOLYLINE
  5
276
330
1F
100
AcDbEntity
  8
Ech.1_5
  6
Continuous
 62
     7
370
    20
390
5F
100
AcDbPolyline
 90
        5
 70
     0
 43
0.0
 10
52009.94556238694
 20
-8816.073778732212
 10
52000.94556238694
 20
-8816.073778732212
 10
52000.94556238694
 20
-9345.049168158743
 10
52009.94556238694
 20
-9345.049168158743
 10
52009.94556238694
 20
-8816.073778732212
  0
LWPOLYLINE
  5
277
330
1F
100
AcDbEntity
  8
Ech.1_5
 62
   190
370
    18
390
5F
100
AcDbPolyline
 90
        4
 70
     0
 43
0.0
 10
52189.9455623868
 20
-8764.227490521107
 10
52229.94556238696
 20
-8809.227490521223
 10
52229.94556238707
 20
-8764.227490521107
 10
52189.94556238694
 20
-8809.227490521107
  0
HATCH
  5
278
330
1F
100
AcDbEntity
  8
Ech.1_5
  6
Continuous
 62
    33
420
 12426362
440
 33554687
370
    20
390
5F
100
AcDbHatch
 10
0.0
 20
0.0
 30
0.0
210
0.0
220
0.0
230
1.0
  2
SOLID
 70
     1
 71
     0
 91
        1
 92
        3
 72
     0
 73
     1
 93
        4
 10
52720.06838374611
 20
-8838.227490521107
 10
52675.06838374611
 20
-8838.227490521107
 10
52675.06838374611
 20
-9058.227490521107
 10
52720.06838374611
 20
-9058.227490521107
 97
        0
 75
     0
 76
     1
 98
        0
  0
LWPOLYLINE
  5
279
330
1F
100
AcDbEntity
  8
Ech.1_5
  6
Continuous
 62
   190
370
    15
390
5F
100
AcDbPolyline
 90
        5
 70
     0
 43
0.0
 10
52720.06838374611
 20
-8838.227490521107
 10
52675.06838374611
 20
-8838.227490521107
 10
52675.06838374611
 20
-9058.227490521107
 10
52720.06838374611
 20
-9058.227490521107
 10
52720.06838374611
 20
-8838.227490521107
  0
LINE
  5
27A
330
1F
100
AcDbEntity
  8
Ech.1_5
  6
Continuous
 62
   190
370
    15
390
5F
100
AcDbLine
 10
52720.06838374611
 20
-9058.227490521107
 30
0.0
 11
52675.06838374611
 21
-8838.227490521107
 31
0.0
  0
LINE
  5
27B
330
1F
100
AcDbEntity
  8
Ech.1_5
  6
Continuous
 62
   190
370
    15
390
5F
100
AcDbLine
 10
52720.06838374611
 20
-8838.227490521107
 30
0.0
 11
52675.06838374611
 21
-9058.227490521107
 31
0.0
  0
LWPOLYLINE
  5
27C
330
1F
100
AcDbEntity
  8
Ech.1_5
  6
Continuous
 62
   190
370
    15
390
5F
100
AcDbPolyline
 90
        5
 70
     0
 43
0.0
 10
52675.06838374611
 20
-9058.227490521107
 10
52720.06838374611
 20
-9058.227490521107
 10
52720.06838374611
 20
-8838.227490521107
 10
52675.06838374611
 20
-8838.227490521107
 10
52675.06838374611
 20
-9058.227490521107
  0
LINE
  5
27D
330
1F
100
AcDbEntity
  8
Ech.1_5
370
    35
390
5F
100
AcDbLine
 10
52725.99482447965
 20
-9139.296024480906
 30
0.0
 11
52725.99482447965
 21
-9010.54126854213
 31
0.0
  0
LWPOLYLINE
  5
27E
330
1F
100
AcDbEntity
  8
Ech.1_5
370
    20
390
5F
100
AcDbPolyline
 90
        4
 70
     0
 43
0.0
 10
52789.87563357181
 20
-9163.227490521107
 10
52189.9455623868
 20
-9163.227490521107
 10
52189.94556238678
 20
-9138.545320425836
 10
52789.87563357181
 20
-9138.545320425836
  0
LWPOLYLINE
  5
280
330
1F
100
AcDbEntity
  8
Ech.1_5
  6
CADWORK_12
 48
0.2000000029802322
370
    35
390
5F
100
AcDbPolyline
 90
        2
 70
     0
 43
0.0
 10
52725.99482447965
 20
-9139.296024480906
 10
52725.99482447965
 20
-9163.227490521107
  0
LWPOLYLINE
  5
281
330
1F
100
AcDbEntity
  8
Ech.1_5
370
    50
390
5F
100
AcDbPolyline
 90
        3
 70
     0
 43
0.0
 10
52190.13220268732
 20
-9139.911382232049
 10
52190.13220268734
 20
-9162.989899138409
 10
52220.63273241119
 20
-9162.989899138409
  0
LWPOLYLINE
  5
282
330
1F
100
AcDbEntity
  8
Ech.1_5
  6
Continuous
 62
     5
370
    40
390
5F
100
AcDbPolyline
 90
        5
 70
     0
 43
0.0
 10
52189.9455623868
 20
-8838.227490521107
 10
52234.9455623868
 20
-8838.227490521107
 10
52234.9455623868
 20
-9058.227490521107
 10
52189.9455623868
 20
-9058.227490521107
 10
52189.9455623868
 20
-8838.227490521107
  0
LWPOLYLINE
  5
283
330
1F
100
AcDbEntity
  8
Ech.1_5
 62
     5
370
    40
390
5F
100
AcDbPolyline
 90
        5
 70
     0
 43
0.0
 10
52189.94556238694
 20
-9242.22748856661
 10
52229.94556238707
 20
-9242.227488566727
 10
52229.94556238707
 20
-9197.22748856661
 10
52189.9455623868
 20
-9197.22748856661
 10
52189.94556238694
 20
-9242.22748856661
  0
LWPOLYLINE
  5
284
330
1F
100
AcDbEntity
  8
Ech.1_5
 62
     5
370
    40
390
5F
100
AcDbPolyline
 90
        5
 70
     0
 43
0.0
 10
52189.94556238694
 20
-8809.227490521107
 10
52229.94556238707
 20
-8809.227490521223
 10
52229.94556238707
 20
-8764.227490521107
 10
52189.9455623868
 20
-8764.227490521107
 10
52189.94556238694
 20
-8809.227490521107
  0
LWPOLYLINE
  5
285
330
1F
100
AcDbEntity
  8
Ech.1_5
  6
Continuous
 62
     5
370
    40
390
5F
100
AcDbPolyline
 90
        5
 70
     0
 43
0.0
 10
52675.06838374611
 20
-8838.227490521107
 10
52720.06838374611
 20
-8838.227490521107
 10
52720.06838374611
 20
-9058.227490521107
 10
52675.06838374611
 20
-9058.227490521107
 10
52675.06838374611
 20
-8838.227490521107
  0
LWPOLYLINE
  5
286
330
1F
100
AcDbEntity
  8
Ech.1_5
370
    20
390
5F
100
AcDbPolyline
 90
        6
 70
     0
 43
0.0
 10
52242.94697757468
 20
-8739.562645952754
 10
52245.94556237166
 20
-8739.562714876212
 42
-0.4142135623667855
 10
52255.94556237166
 20
-8749.562714876212
 10
52255.94556237165
 20
-8805.227488186281
 10
52242.94556238694
 20
-8805.227490521107
 10
52242.94556238694
 20
-8739.562717211038
  0
HATCH
  5
287
330
1F
100
AcDbEntity
  8
Ech.1_5
  6
Continuous
 62
   254
420
 16643007
440
 33554687
370
     5
390
5F
100
AcDbHatch
 10
0.0
 20
0.0
 30
0.0
210
0.0
220
0.0
230
1.0
  2
SOLID
 70
     1
 71
     0
 91
        1
 92
        3
 72
     0
 73
     1
 93
       13
 10
52009.94556238694
 20
-8540.825074169506
 10
52009.94556238694
 20
-9345.049168158743
 10
52124.01803636318
 20
-9345.049459751184
 10
52140.50439044469
 20
-9327.071108146758
 10
52126.39445042689
 20
-9363.026808158565
 10
52142.87995358279
 20
-9345.049459751184
 10
52189.94556238694
 20
-9345.047830201407
 10
52189.94556238694
 20
-9222.227488566727
 10
52189.94556238694
 20
-8540.825074169506
 10
52091.24098310013
 20
-8540.825074169506
 10
52074.75462901863
 20
-8558.802695994453
 10
52088.86456903644
 20
-8522.846995982645
 10
52072.37906588052
 20
-8540.825074169506
 97
        0
 75
     0
 76
     1
 98
        0
  0
HATCH
  5
288
330
1F
100
AcDbEntity
  8
Ech.1_5
  6
Continuous
 62
   190
440
 33554687
370
    15
390
5F
100
AcDbHatch
 10
0.0
 20
0.0
 30
0.0
210
0.0
220
0.0
230
1.0
  2
CwHatchPattern_201
 70
     0
 71
     0
 91
        1
 92
        3
 72
     0
 73
     1
 93
       13
 10
52009.94556238694
 20
-8540.825074169506
 10
52009.94556238694
 20
-9345.049168158743
 10
52124.01803636318
 20
-9345.049459751184
 10
52140.50439044469
 20
-9327.071108146758
 10
52126.39445042689
 20
-9363.026808158565
 10
52142.87995358279
 20
-9345.049459751184
 10
52189.94556238694
 20
-9345.047830201407
 10
52189.94556238694
 20
-9222.227488566727
 10
52189.94556238694
 20
-8540.825074169506
 10
52091.24098310013
 20
-8540.825074169506
 10
52074.75462901863
 20
-8558.802695994453
 10
52088.86456903644
 20
-8522.846995982645
 10
52072.37906588052
 20
-8540.825074169506
 97
        0
 75
     0
 76
     2
 52
270.0
 41
3.599999904632568
 77
     0
 78
    29
 53
270.0
 43
52009.94556238694
 44
-8536.807528307641
 45
179.9999952316284
 46
0.000000000000011
 79
     2
 49
8.035091723731043
 49
-21.9649137400279
 53
0.0000000000059286
 43
52035.0772336267
 44
-8510.825086408327
 45
-0.0000000000062084
 46
59.99999268849706
 79
     2
 49
4.868333687561517
 49
-175.1316615440669
 53
0.0000000000059286
 43
52159.94555269126
 44
-8540.825074169506
 45
-0.0000000000062084
 46
59.99999268849706
 79
     2
 49
4.868333687561517
 49
-175.1316615440669
 53
14.93246459961628
 43
52046.38089038216
 44
-8570.11003008737
 45
179.9991321446976
 46
60.00328374676012
 79
     2
 49
110.8734969331556
 49
-820.5769283353765
 53
345.0675354003956
 43
52046.38089038216
 44
-8571.540110940141
 45
-179.99913214471
 46
60.00328374672286
 79
     2
 49
110.8734969331556
 49
-820.5769283353766
 53
285.2551193237315
 43
52009.94556238694
 44
-8544.842620031372
 45
0.0000016083868659
 46
59.99999080496843
 79
     2
 49
8.154737554530627
 49
-675.9505054698911
 53
74.74488830567492
 43
52009.94556238694
 44
-8536.807528307641
 45
-0.0000095978813328
 46
59.99999080496769
 79
     2
 49
8.154737554530627
 49
-675.9505054698911
 53
285.2551193237315
 43
52187.79991062646
 44
-8558.940129727524
 45
0.0000016083868659
 46
59.99999080496843
 79
     2
 49
8.154737554530627
 49
-675.9505054698911
 53
254.7448806762685
 43
52189.94555761857
 44
-8574.842607524331
 45
0.0000016083868722
 46
-59.99999080496843
 79
     2
 49
8.154737554530627
 49
-675.9505054698911
 53
300.9637565612813
 43
52012.0912163528
 44
-8552.710006372668
 45
-0.0000003985823885
 46
60.00000305622964
 79
     2
 49
7.83426562059546
 49
-342.0228219026239
 53
59.03623962403325
 43
52012.0912163528
 44
-8528.895754626974
 45
0.0000043933118091
 46
60.0000030562295
 79
     2
 49
7.83426562059546
 49
-342.0228219026239
 53
300.9637565612813
 43
52183.76919860555
 44
-8552.222314267898
 45
-0.0000003985823885
 46
60.00000305622964
 79
     2
 49
7.83426562059546
 49
-342.0228219026239
 53
239.0362434387187
 43
52187.79991062646
 44
-8582.710011299985
 45
-0.0000003985823789
 46
-60.00000305622964
 79
     2
 49
7.83426562059546
 49
-342.0228219026239
 53
315.000000000003
 43
52016.12192032708
 44
-8559.427821832296
 45
-0.0000000000031079
 46
60.00000851045429
 79
     2
 49
6.662321629462724
 49
-247.8961192264524
 53
45.0000000000089
 43
52016.12192032708
 44
-8522.222326506717
 45
-0.0000000000093237
 46
60.00000851045429
 79
     2
 49
6.662321629462724
 49
-247.8961192264524
 53
315.000000000003
 43
52179.05824406422
 44
-8547.511353825697
 45
-0.0000000000031079
 46
60.00000851045429
 79
     2
 49
6.662321629462724
 49
-247.8961192264524
 53
224.999999999997
 43
52183.76919860555
 44
-8589.42782890538
 45
-0.0000000000030823
 46
-60.00000851045429
 79
     2
 49
6.662321629462724
 49
-247.8961192264524
 53
326.3099327087439
 43
52020.83288023283
 44
-8564.138799977074
 45
-0.0000067922181662
 46
60.00000143822563
 79
     2
 49
6.98812203968572
 49
-209.3449403618456
 53
33.69006347657064
 43
52020.83288023283
 44
-8517.511348361939
 45
0.0000107869474909
 46
60.00000143822504
 79
     2
 49
6.98812203968572
 49
-209.3449403618456
 53
326.3099327087439
 43
52173.24376439036
 44
-8543.635036188898
 45
-0.0000067922181662
 46
60.00000143822563
 79
     2
 49
6.98812203968572
 49
-209.3449403618456
 53
213.690067291256
 43
52179.05824406422
 44
-8594.13880490439
 45
-0.0000067922181758
 46
-60.00000143822563
 79
     2
 49
6.98812203968572
 49
-209.3449403618456
 53
341.5650482177782
 43
52026.64734810497
 44
-8568.015117613873
 45
-0.0000030079885465
 46
60.00000569748183
 79
     2
 49
8.885879817647933
 49
-180.8507833255453
 53
18.43495178223369
 43
52026.64734810497
 44
-8513.63503072514
 45
0.0000030079761436
 46
60.00000569748183
 79
     2
 49
8.88587981764793
 49
-180.8507833255453
 53
341.5650482177782
 43
52164.81388637882
 44
-8540.825074169506
 45
-0.0000030079885465
 46
60.00000569748183
 79
     2
 49
8.885879817647933
 49
-180.8507833255453
 53
198.4349517822218
 43
52173.24376439036
 44
-8598.015103229287
 45
-0.0000030079885497
 46
-60.00000569748183
 79
     2
 49
8.885879817647933
 49
-180.8507833255453
 53
353.6598052978571
 43
52039.94555014812
 44
-8510.825086408326
 45
-360.0000086329781
 46
60.00001539520941
 79
     2
 49
6.474941976204391
 49
-536.8481455684196
 53
6.340194702154776
 43
52039.94555014812
 44
-8570.825061930685
 45
360.0000086329657
 46
60.00001539528382
 79
     2
 49
6.47494197620439
 49
-536.8481455684195
 53
173.659820556658
 43
52159.94555269126
 44
-8540.825074169506
 45
360.0000246119483
 46
-59.99991952133139
 79
     2
 49
6.474941976204391
 49
-536.8481455684196
 53
186.3401947021429
 43
52159.94555269126
 44
-8540.825074169506
 45
-360.0000086329781
 46
-60.00001539520945
 79
     2
 49
6.474941976204391
 49
-536.8481455684196
 98
        0
1001
ACAD
1010
52009.94556238694
1020
-8540.825074169506
1030
0.0
  0
LWPOLYLINE
  5
289
330
1F
100
AcDbEntity
  8
Ech.1_5
  6
Continuous
 62
   190
370
    15
390
5F
100
AcDbPolyline
 90
       14
 70
     0
 43
0.0
 10
52009.94556238694
 20
-8540.825074169506
 10
52009.94556238694
 20
-9345.049168158743
 10
52124.01803636318
 20
-9345.049459751184
 10
52140.50439044469
 20
-9327.071108146758
 10
52126.39445042689
 20
-9363.026808158565
 10
52142.87995358279
 20
-9345.049459751184
 10
52189.94556238694
 20
-9345.047830201407
 10
52189.94556238694
 20
-9222.227488566727
 10
52189.94556238694
 20
-8540.825074169506
 10
52091.24098310013
 20
-8540.825074169506
 10
52074.75462901863
 20
-8558.802695994453
 10
52088.86456903644
 20
-8522.846995982645
 10
52072.37906588052
 20
-8540.825074169506
 10
52009.94556238694
 20
-8540.825074169506
  0
HATCH
  5
28A
330
1F
100
AcDbEntity
  8
Ech.1_5
  6
Continuous
 62
    33
420
 12426362
440
 33554687
370
    20
390
5F
100
AcDbHatch
 10
0.0
 20
0.0
 30
0.0
210
0.0
220
0.0
230
1.0
  2
SOLID
 70
     1
 71
     0
 91
        1
 92
        3
 72
     0
 73
     1
 93
        4
 10
52009.94556238694
 20
-8819.227490521107
 10
52009.94556238694
 20
-8864.227490521107
 10
52189.94556238694
 20
-8864.227490521107
 10
52189.94556238694
 20
-8819.227490521107
 97
        0
 75
     0
 76
     1
 98
        0
  0
LWPOLYLINE
  5
28B
330
1F
100
AcDbEntity
  8
Ech.1_5
  6
Continuous
 62
   190
370
    15
390
5F
100
AcDbPolyline
 90
        5
 70
     0
 43
0.0
 10
52009.94556238694
 20
-8819.227490521107
 10
52009.94556238694
 20
-8864.227490521107
 10
52189.94556238694
 20
-8864.227490521107
 10
52189.94556238694
 20
-8819.227490521107
 10
52009.94556238694
 20
-8819.227490521107
  0
LINE
  5
28C
330
1F
100
AcDbEntity
  8
Ech.1_5
  6
Continuous
 62
   190
370
    15
390
5F
100
AcDbLine
 10
52189.94556238694
 20
-8819.227490521107
 30
0.0
 11
52009.94556238694
 21
-8864.227490521107
 31
0.0
  0
LINE
  5
28D
330
1F
100
AcDbEntity
  8
Ech.1_5
  6
Continuous
 62
   190
370
    15
390
5F
100
AcDbLine
 10
52009.94556238694
 20
-8819.227490521107
 30
0.0
 11
52189.94556238694
 21
-8864.227490521107
 31
0.0
  0
LWPOLYLINE
  5
28E
330
1F
100
AcDbEntity
  8
Ech.1_5
  6
Continuous
 62
   190
370
    15
390
5F
100
AcDbPolyline
 90
        5
 70
     0
 43
0.0
 10
52189.94556238694
 20
-8864.227490521107
 10
52189.94556238694
 20
-8819.227490521107
 10
52009.94556238694
 20
-8819.227490521107
 10
52009.94556238694
 20
-8864.227490521107
 10
52189.94556238694
 20
-8864.227490521107
  0
LWPOLYLINE
  5
28F
330
1F
100
AcDbEntity
  8
Ech.1_5
  6
Continuous
 62
     5
370
    40
390
5F
100
AcDbPolyline
 90
        5
 70
     0
 43
0.0
 10
52009.94556238694
 20
-8864.227490521107
 10
52009.94556238694
 20
-8819.227490521107
 10
52189.94556238694
 20
-8819.227490521107
 10
52189.94556238694
 20
-8864.227490521107
 10
52009.94556238694
 20
-8864.227490521107
  0
LWPOLYLINE
  5
291
330
1F
100
AcDbEntity
  8
Ech.1_5
  6
CADWORK_22
 62
   140
420
  1483507
 48
0.6
370
    35
390
5F
100
AcDbPolyline
 90
        2
 70
   128
 43
0.0
 10
52002.43104490128
 20
-8817.46835713306
 10
52002.44556238694
 20
-9345.049137262233
  0
LWPOLYLINE
  5
292
330
1F
100
AcDbEntity
  8
Ech.1_5
  6
CADWORK_22
 62
   140
420
  1483507
 48
0.6
370
    35
390
5F
100
AcDbPolyline
 90
        4
 70
   128
 43
0.0
 10
52002.41913754957
 20
-8540.825730649709
 10
52002.43063762218
 20
-8811.28964659341
 10
51999.16316472189
 20
-8814.864359853636
 10
51999.16316472189
 20
-8928.130516567231
  0
HATCH
  5
293
330
1F
100
AcDbEntity
  8
Ech.1_5
  6
Continuous
 62
    33
420
 12426362
440
 33554687
370
    20
390
5F
100
AcDbHatch
 10
0.0
 20
0.0
 30
0.0
210
0.0
220
0.0
230
1.0
  2
SOLID
 70
     1
 71
     0
 91
        1
 92
        3
 72
     0
 73
     1
 93
        4
 10
52009.94556238694
 20
-8864.227490521107
 10
52009.94556238694
 20
-8909.227490521107
 10
52189.94556238694
 20
-8909.227490521107
 10
52189.94556238694
 20
-8864.227490521107
 97
        0
 75
     0
 76
     1
 98
        0
  0
LWPOLYLINE
  5
294
330
1F
100
AcDbEntity
  8
Ech.1_5
  6
Continuous
 62
   190
370
    15
390
5F
100
AcDbPolyline
 90
        5
 70
     0
 43
0.0
 10
52009.94556238694
 20
-8864.227490521107
 10
52009.94556238694
 20
-8909.227490521107
 10
52189.94556238694
 20
-8909.227490521107
 10
52189.94556238694
 20
-8864.227490521107
 10
52009.94556238694
 20
-8864.227490521107
  0
LINE
  5
295
330
1F
100
AcDbEntity
  8
Ech.1_5
  6
Continuous
 62
   190
370
    15
390
5F
100
AcDbLine
 10
52189.94556238694
 20
-8864.227490521107
 30
0.0
 11
52009.94556238694
 21
-8909.227490521107
 31
0.0
  0
LINE
  5
296
330
1F
100
AcDbEntity
  8
Ech.1_5
  6
Continuous
 62
   190
370
    15
390
5F
100
AcDbLine
 10
52009.94556238694
 20
-8864.227490521107
 30
0.0
 11
52189.94556238694
 21
-8909.227490521107
 31
0.0
  0
LWPOLYLINE
  5
297
330
1F
100
AcDbEntity
  8
Ech.1_5
  6
Continuous
 62
   190
370
    15
390
5F
100
AcDbPolyline
 90
        5
 70
     0
 43
0.0
 10
52189.94556238694
 20
-8909.227490521107
 10
52189.94556238694
 20
-8864.227490521107
 10
52009.94556238694
 20
-8864.227490521107
 10
52009.94556238694
 20
-8909.227490521107
 10
52189.94556238694
 20
-8909.227490521107
  0
LWPOLYLINE
  5
298
330
1F
100
AcDbEntity
  8
Ech.1_5
  6
Continuous
 62
     5
370
    40
390
5F
100
AcDbPolyline
 90
        5
 70
     0
 43
0.0
 10
52009.94556238694
 20
-8909.227490521107
 10
52009.94556238694
 20
-8864.227490521107
 10
52189.94556238694
 20
-8864.227490521107
 10
52189.94556238694
 20
-8909.227490521107
 10
52009.94556238694
 20
-8909.227490521107
  0
HATCH
  5
299
330
1F
100
AcDbEntity
  8
Ech.1_5
  6
Continuous
 62
    33
420
 12426362
440
 33554687
370
    20
390
5F
100
AcDbHatch
 10
0.0
 20
0.0
 30
0.0
210
0.0
220
0.0
230
1.0
  2
SOLID
 70
     1
 71
     0
 91
        1
 92
        3
 72
     0
 73
     1
 93
        4
 10
52009.94556238694
 20
-8774.227490521107
 10
52009.94556238694
 20
-8819.227490521107
 10
52189.94556238694
 20
-8819.227490521107
 10
52189.94556238694
 20
-8774.227490521107
 97
        0
 75
     0
 76
     1
 98
        0
  0
LWPOLYLINE
  5
29A
330
1F
100
AcDbEntity
  8
Ech.1_5
  6
Continuous
 62
   190
370
    15
390
5F
100
AcDbPolyline
 90
        5
 70
     0
 43
0.0
 10
52009.94556238694
 20
-8774.227490521107
 10
52009.94556238694
 20
-8819.227490521107
 10
52189.94556238694
 20
-8819.227490521107
 10
52189.94556238694
 20
-8774.227490521107
 10
52009.94556238694
 20
-8774.227490521107
  0
LINE
  5
29B
330
1F
100
AcDbEntity
  8
Ech.1_5
  6
Continuous
 62
   190
370
    15
390
5F
100
AcDbLine
 10
52189.94556238694
 20
-8774.227490521107
 30
0.0
 11
52009.94556238694
 21
-8819.227490521107
 31
0.0
  0
LINE
  5
29C
330
1F
100
AcDbEntity
  8
Ech.1_5
  6
Continuous
 62
   190
370
    15
390
5F
100
AcDbLine
 10
52009.94556238694
 20
-8774.227490521107
 30
0.0
 11
52189.94556238694
 21
-8819.227490521107
 31
0.0
  0
LWPOLYLINE
  5
29D
330
1F
100
AcDbEntity
  8
Ech.1_5
  6
Continuous
 62
   190
370
    15
390
5F
100
AcDbPolyline
 90
        5
 70
     0
 43
0.0
 10
52189.94556238694
 20
-8819.227490521107
 10
52189.94556238694
 20
-8774.227490521107
 10
52009.94556238694
 20
-8774.227490521107
 10
52009.94556238694
 20
-8819.227490521107
 10
52189.94556238694
 20
-8819.227490521107
  0
LWPOLYLINE
  5
29E
330
1F
100
AcDbEntity
  8
Ech.1_5
  6
Continuous
 62
     5
370
    40
390
5F
100
AcDbPolyline
 90
        5
 70
     0
 43
0.0
 10
52009.94556238694
 20
-8819.227490521107
 10
52009.94556238694
 20
-8774.227490521107
 10
52189.94556238694
 20
-8774.227490521107
 10
52189.94556238694
 20
-8819.227490521107
 10
52009.94556238694
 20
-8819.227490521107
  0
HATCH
  5
29F
330
1F
100
AcDbEntity
  8
Ech.1_5
  6
Continuous
 62
   190
440
 33554687
370
    15
390
5F
100
AcDbHatch
 10
0.0
 20
0.0
 30
0.0
210
0.0
220
0.0
230
1.0
  2
CwHatchPattern_22
 70
     0
 71
     0
 91
        1
 92
        3
 72
     0
 73
     1
 93
        4
 10
52789.87594418193
 20
-8819.227490521107
 10
52789.87593246948
 20
-8805.227490520874
 10
52252.94606977457
 20
-8805.227490521107
 10
52252.94606977457
 20
-8819.227490521107
 97
        0
 75
     0
 76
     2
 52
0.0
 41
1.0
 77
     0
 78
     1
 53
135.0000000000089
 43
0.0
 44
0.0
 45
-7.071067811864377
 46
-7.071067811866573
 79
     0
 98
        0
1001
ACAD
1010
0.0
1020
0.0
1030
0.0
  0
LWPOLYLINE
  5
2A0
330
1F
100
AcDbEntity
  8
Ech.1_5
  6
Continuous
 62
   190
370
    15
390
5F
100
AcDbPolyline
 90
        5
 70
     0
 43
0.0
 10
52789.87594418193
 20
-8819.227490521107
 10
52789.87593246948
 20
-8805.227490520874
 10
52252.94606977457
 20
-8805.227490521107
 10
52252.94606977457
 20
-8819.227490521107
 10
52789.87594418193
 20
-8819.227490521107
  0
LWPOLYLINE
  5
2A1
330
1F
100
AcDbEntity
  8
Ech.1_5
  6
Continuous
 62
   190
370
    15
390
5F
100
AcDbPolyline
 90
        5
 70
     0
 43
0.0
 10
52895.00589881782
 20
-9800.360051476098
 10
52895.00589881782
 20
-8445.360051476098
 10
51910.00589881782
 20
-8445.360051476098
 10
51910.00589881782
 20
-9800.360051476098
 10
52895.00589881782
 20
-9800.360051476098
  0
LWPOLYLINE
  5
2A2
330
1F
100
AcDbEntity
  8
Ech.1_5
 62
   190
370
    15
390
5F
100
AcDbPolyline
 90
        5
 70
     0
 43
0.0
 10
52736.56386825062
 20
-8478.35549563978
 10
52870.99264723657
 20
-8478.35549563978
 10
52870.99264723657
 20
-8535.078454451688
 10
52736.56386825062
 20
-8535.078454451688
 10
52736.56386825062
 20
-8478.35549563978
  0
HATCH
  5
2A3
330
1F
100
AcDbEntity
  8
Ech.1_5
  6
Continuous
 62
   190
440
 33554687
370
    15
390
5F
100
AcDbHatch
 10
0.0
 20
0.0
 30
0.0
210
0.0
220
0.0
230
1.0
  2
SOLID
 70
     1
 71
     0
 91
        1
 92
        3
 72
     0
 73
     1
 93
        4
 10
52754.84391403593
 20
-8512.012306768733
 10
52804.84391403593
 20
-8512.012306768733
 10
52804.84391403593
 20
-8504.59716923482
 10
52754.84391403593
 20
-8504.59716923482
 97
        0
 75
     0
 76
     1
 98
        0
  0
LWPOLYLINE
  5
2A4
330
1F
100
AcDbEntity
  8
Ech.1_5
 62
   190
370
    15
390
5F
100
AcDbPolyline
 90
        5
 70
     0
 43
0.0
 10
52754.84391403593
 20
-8512.012306768733
 10
52804.84391403593
 20
-8512.012306768733
 10
52804.84391403593
 20
-8504.59716923482
 10
52754.84391403593
 20
-8504.59716923482
 10
52754.84391403593
 20
-8512.012306768733
  0
LWPOLYLINE
  5
2A5
330
1F
100
AcDbEntity
  8
Ech.1_5
 62
   190
370
    15
390
5F
100
AcDbPolyline
 90
        5
 70
     0
 43
0.0
 10
52804.84391403593
 20
-8512.012306768733
 10
52854.84391403593
 20
-8512.012306768733
 10
52854.84391403593
 20
-8504.59716923482
 10
52804.84391403593
 20
-8504.59716923482
 10
52804.84391403593
 20
-8512.012306768733
  0
LWPOLYLINE
  5
2A6
330
1F
100
AcDbEntity
  8
Ech.1_5
  6
Continuous
 62
   190
370
    15
390
5F
100
AcDbPolyline
 90
        3
 70
     0
 43
0.0
 10
52686.36797235519
 20
-8942.904787557678
 10
52615.7494367959
 20
-8755.61215374201
 10
52595.7494367959
 20
-8755.61215374201
  0
INSERT
  5
2A7
330
1F
100
AcDbEntity
  8
Ech.1_5
 62
   190
370
    15
100
AcDbBlockReference
  2
cw-line-extremity4
 10
52686.36797235519
 20
-8942.904787557678
 30
0.0
 50
110.658910464434
  0
LWPOLYLINE
  5
2A8
330
1F
100
AcDbEntity
  8
Ech.1_5
  6
Continuous
 62
   190
370
    15
390
5F
100
AcDbPolyline
 90
        5
 70
     0
 43
0.0
 10
51910.00589881782
 20
-9567.430016405393
 10
52895.00589881782
 20
-9567.430016405393
 10
52895.00589881782
 20
-9800.360051476098
 10
51910.00589881782
 20
-9800.360051476098
 10
51910.00589881782
 20
-9567.430016405393
  0
LWPOLYLINE
  5
2A9
330
1F
100
AcDbEntity
  8
Ech.1_5
  6
Continuous
 62
   190
370
    15
390
5F
100
AcDbPolyline
 90
        5
 70
     0
 43
0.0
 10
52895.00589881782
 20
-9662.946979411041
 10
51910.00589881782
 20
-9662.946979411041
 10
51910.00589881782
 20
-9567.430016405393
 10
52895.00589881782
 20
-9567.430016405393
 10
52895.00589881782
 20
-9662.946979411041
  0
LWPOLYLINE
  5
2AA
330
1F
100
AcDbEntity
  8
Ech.1_5
  6
Continuous
 62
   190
370
    15
390
5F
100
AcDbPolyline
 90
        5
 70
     0
 43
0.0
 10
52895.00589881782
 20
-9684.946979411041
 10
51910.00589881782
 20
-9684.946979411041
 10
51910.00589881782
 20
-9662.946979411041
 10
52895.00589881782
 20
-9662.946979411041
 10
52895.00589881782
 20
-9684.946979411041
  0
LWPOLYLINE
  5
2AB
330
1F
100
AcDbEntity
  8
Ech.1_5
  6
Continuous
 62
   190
370
    15
390
5F
100
AcDbPolyline
 90
        5
 70
     0
 43
0.0
 10
52895.00589881782
 20
-9741.81812464138
 10
51910.00589881782
 20
-9741.81812464138
 10
51910.00589881782
 20
-9718.091096330645
 10
52895.00589881782
 20
-9718.091096330645
 10
52895.00589881782
 20
-9741.81812464138
  0
LINE
  5
2AC
330
1F
100
AcDbEntity
  8
Ech.1_5
  6
Continuous
 62
   190
370
    15
390
5F
100
AcDbLine
 10
52098.21046078078
 20
-9662.946979411041
 30
0.0
 11
52098.21046078078
 21
-9684.946979411041
 31
0.0
  0
LINE
  5
2AD
330
1F
100
AcDbEntity
  8
Ech.1_5
  6
Continuous
 62
   190
370
    15
390
5F
100
AcDbLine
 10
52755.20856341132
 20
-9662.946979411041
 30
0.0
 11
52755.20856341132
 21
-9684.946979411041
 31
0.0
  0
LINE
  5
2AE
330
1F
100
AcDbEntity
  8
Ech.1_5
  6
Continuous
 62
   190
370
    15
390
5F
100
AcDbLine
 10
52254.36567877613
 20
-9662.946979411041
 30
0.0
 11
52254.36567877613
 21
-9684.946979411041
 31
0.0
  0
LWPOLYLINE
  5
2AF
330
1F
100
AcDbEntity
  8
Ech.1_5
  6
Continuous
 62
   190
370
    15
390
5F
100
AcDbPolyline
 90
        6
 70
     0
 43
0.0
 10
52262.94556238694
 20
-9345.047830201407
 10
52142.87995358279
 20
-9345.049459751184
 10
52126.39445042689
 20
-9363.026808158565
 10
52140.50439044469
 20
-9327.071108146758
 10
52124.01803636318
 20
-9345.049459751184
 10
51937.41913754957
 20
-9345.04867401214
  0
LWPOLYLINE
  5
2B0
330
1F
100
AcDbEntity
  8
Ech.1_5
  6
Continuous
 62
   190
370
    15
390
5F
100
AcDbPolyline
 90
        6
 70
     0
 43
0.0
 10
51937.41913754957
 20
-8540.825820208598
 10
52072.37906588052
 20
-8540.824344390026
 10
52088.86456903644
 20
-8522.846995982645
 10
52074.75462901863
 20
-8558.802695994453
 10
52091.24098310013
 20
-8540.824344390026
 10
52262.94556238694
 20
-8540.8251666751
  0
HATCH
  5
2B1
330
1F
100
AcDbEntity
  8
Ech.1_5
  6
Continuous
 62
   158
420
    12131
440
 33554687
370
    20
390
5F
100
AcDbHatch
 10
0.0
 20
0.0
 30
0.0
210
0.0
220
0.0
230
1.0
  2
SOLID
 70
     1
 71
     0
 91
        1
 92
        3
 72
     0
 73
     1
 93
        4
 10
51978.32260422145
 20
-9784.07200798234
 10
51978.32260422145
 20
-9780.683344502348
 10
51978.86278558146
 20
-9780.683344502348
 10
51978.86278558146
 20
-9784.07200798234
 97
        0
 75
     0
 76
     1
 98
        0
  0
HATCH
  5
2B2
330
1F
100
AcDbEntity
  8
Ech.1_5
  6
Continuous
 62
   158
420
    12131
440
 33554687
370
    20
390
5F
100
AcDbHatch
 10
0.0
 20
0.0
 30
0.0
210
0.0
220
0.0
230
1.0
  2
SOLID
 70
     1
 71
     0
 91
        1
 92
        3
 72
     0
 73
     1
 93
        8
 10
51980.63090498144
 20
-9784.07200798234
 10
51980.63090498144
 20
-9781.126070462346
 10
51979.64799766145
 20
-9781.126070462346
 10
51979.64799766145
 20
-9780.683344502348
 10
51982.20411358145
 20
-9780.683344502348
 10
51982.15399366144
 20
-9781.126070462346
 10
51981.17108634145
 20
-9781.126070462346
 10
51981.17108634145
 20
-9784.07200798234
 97
        0
 75
     0
 76
     1
 98
        0
  0
HATCH
  5
2B3
330
1F
100
AcDbEntity
  8
Ech.1_5
  6
Continuous
 62
   158
420
    12131
440
 33554687
370
    20
390
5F
100
AcDbHatch
 10
0.0
 20
0.0
 30
0.0
210
0.0
220
0.0
230
1.0
  2
SOLID
 70
     1
 71
     0
 91
        1
 92
        3
 72
     0
 73
     1
 93
       32
 10
51984.11980830145
 20
-9784.122127902348
 10
51983.87199314145
 20
-9784.122127902348
 10
51983.47938710146
 20
-9784.021888062347
 10
51983.18423646145
 20
-9783.874312742348
 10
51982.98932566145
 20
-9783.629282022343
 10
51982.93920574145
 20
-9783.531826622344
 10
51982.89187026145
 20
-9783.384251302352
 10
51982.84175034145
 20
-9783.089100662346
 10
51982.84175034145
 20
-9780.683344502348
 10
51983.33181178145
 20
-9780.683344502348
 10
51983.33181178145
 20
-9782.696494622342
 10
51983.33181178145
 20
-9783.089100662346
 10
51983.38193170146
 20
-9783.286795902339
 10
51983.57962694146
 20
-9783.531826622344
 10
51983.72441782145
 20
-9783.629282022343
 10
51983.97223298145
 20
-9783.679401942343
 10
51984.11980830145
 20
-9783.679401942343
 10
51984.31471910146
 20
-9783.679401942343
 10
51984.55974982145
 20
-9783.581946542337
 10
51984.70732514145
 20
-9783.481706702343
 10
51984.80478054145
 20
-9783.334131382337
 10
51984.85490046145
 20
-9783.041765182348
 10
51984.85490046145
 20
-9780.683344502348
 10
51985.39508182145
 20
-9780.683344502348
 10
51985.39508182145
 20
-9782.84406994234
 10
51985.39508182145
 20
-9783.186556062337
 10
51985.29762642145
 20
-9783.531826622344
 10
51985.20017102145
 20
-9783.729521862337
 10
51985.09993118145
 20
-9783.776857342335
 10
51985.00247578145
 20
-9783.874312742348
 10
51984.80478054145
 20
-9784.021888062347
 10
51984.41217450146
 20
-9784.122127902348
 97
        0
 75
     0
 76
     1
 98
        0
  0
HATCH
  5
2B4
330
1F
100
AcDbEntity
  8
Ech.1_5
  6
Continuous
 62
   158
420
    12131
440
 33554687
370
    20
390
5F
100
AcDbHatch
 10
0.0
 20
0.0
 30
0.0
210
0.0
220
0.0
230
1.0
  2
SOLID
 70
     1
 71
     0
 91
        1
 92
        3
 72
     0
 73
     1
 93
        8
 10
51987.16320122145
 20
-9784.07200798234
 10
51987.16320122145
 20
-9781.126070462346
 10
51986.18029390145
 20
-9781.126070462346
 10
51986.18029390145
 20
-9780.683344502348
 10
51988.73640982145
 20
-9780.683344502348
 10
51988.68628990145
 20
-9781.126070462346
 10
51987.70338258145
 20
-9781.126070462346
 10
51987.70338258145
 20
-9784.07200798234
 97
        0
 75
     0
 76
     1
 98
        0
  0
HATCH
  5
2B5
330
1F
100
AcDbEntity
  8
Ech.1_5
  6
Continuous
 62
   158
420
    12131
440
 33554687
370
    20
390
5F
100
AcDbHatch
 10
0.0
 20
0.0
 30
0.0
210
0.0
220
0.0
230
1.0
  2
SOLID
 70
     1
 71
     0
 91
        1
 92
        3
 72
     0
 73
     1
 93
        8
 10
51967.22382638145
 20
-9790.99691026234
 10
51967.22382638145
 20
-9788.050972742352
 10
51966.24091906146
 20
-9788.050972742352
 10
51966.24091906146
 20
-9787.608246782354
 10
51968.84437046145
 20
-9787.608246782354
 10
51968.74691506145
 20
-9788.050972742352
 10
51967.76400774145
 20
-9788.050972742352
 10
51967.76400774145
 20
-9790.99691026234
 97
        0
 75
     0
 76
     1
 98
        0
  0
HATCH
  5
2B6
330
1F
100
AcDbEntity
  8
Ech.1_5
  6
Continuous
 62
   158
420
    12131
440
 33554687
370
    20
390
5F
100
AcDbHatch
 10
0.0
 20
0.0
 30
0.0
210
0.0
220
0.0
230
1.0
  2
SOLID
 70
     1
 71
     0
 91
        1
 92
        3
 72
     0
 73
     1
 93
       12
 10
51969.57946262145
 20
-9790.99691026234
 10
51969.57946262145
 20
-9787.608246782354
 10
51971.69285258145
 20
-9787.608246782354
 10
51971.59539718145
 20
-9788.050972742352
 10
51970.11964398145
 20
-9788.050972742352
 10
51970.11964398145
 20
-9789.033880062354
 10
51971.34758202145
 20
-9789.033880062354
 10
51971.34758202145
 20
-9789.426486102337
 10
51970.11964398145
 20
-9789.426486102337
 10
51970.11964398145
 20
-9790.506848822344
 10
51971.74297250145
 20
-9790.506848822344
 10
51971.74297250145
 20
-9790.99691026234
 97
        0
 75
     0
 76
     1
 98
        0
  0
HATCH
  5
2B7
330
1F
100
AcDbEntity
  8
Ech.1_5
  6
Continuous
 62
   158
420
    12131
440
 33554687
370
    20
390
5F
100
AcDbHatch
 10
0.0
 20
0.0
 30
0.0
210
0.0
220
0.0
230
1.0
  2
SOLID
 70
     1
 71
     0
 91
        1
 92
        3
 72
     0
 73
     1
 93
       38
 10
51974.09860874145
 20
-9791.047030182355
 10
51973.75612262145
 20
-9790.99691026234
 10
51973.16582134145
 20
-9790.75187954235
 10
51972.72309538145
 20
-9790.309153582351
 10
51972.52818458145
 20
-9789.671516822349
 10
51972.47806466145
 20
-9789.326246262342
 10
51972.52818458145
 20
-9788.93364022236
 10
51972.77321530145
 20
-9788.296003462343
 10
51973.21594126145
 20
-9787.80594202234
 10
51973.80345810145
 20
-9787.55812686234
 10
51974.09860874145
 20
-9787.55812686234
 10
51974.39375938145
 20
-9787.55812686234
 10
51974.88382082144
 20
-9787.705702182338
 10
51975.08151606144
 20
-9787.80594202234
 10
51974.78636542145
 20
-9788.198548062344
 10
51974.63879010145
 20
-9788.050972742352
 10
51974.29630398145
 20
-9787.950732902344
 10
51974.14872866146
 20
-9787.950732902344
 10
51974.00115334145
 20
-9787.950732902344
 10
51973.70600270145
 20
-9788.050972742352
 10
51973.46097198145
 20
-9788.198548062344
 10
51973.26327674145
 20
-9788.393458862349
 10
51973.21594126145
 20
-9788.54103418234
 10
51973.11570142146
 20
-9788.688609502347
 10
51973.06836594145
 20
-9789.081215542352
 10
51973.06836594145
 20
-9789.326246262342
 10
51973.06836594145
 20
-9789.671516822349
 10
51973.21594126145
 20
-9790.114242782347
 10
51973.36351658145
 20
-9790.259033662343
 10
51973.51109190146
 20
-9790.45672890235
 10
51973.95103342145
 20
-9790.604304222357
 10
51974.14872866146
 20
-9790.604304222357
 10
51974.34363946145
 20
-9790.604304222357
 10
51974.73902994145
 20
-9790.506848822344
 10
51974.88382082144
 20
-9790.406608982335
 10
51975.13163598145
 20
-9790.75187954235
 10
51974.93394074145
 20
-9790.899454862349
 10
51974.39375938145
 20
-9790.99691026234
 97
        0
 75
     0
 76
     1
 98
        0
  0
HATCH
  5
2B8
330
1F
100
AcDbEntity
  8
Ech.1_5
  6
Continuous
 62
   158
420
    12131
440
 33554687
370
    20
390
5F
100
AcDbHatch
 10
0.0
 20
0.0
 30
0.0
210
0.0
220
0.0
230
1.0
  2
SOLID
 70
     1
 71
     0
 91
        1
 92
        3
 72
     0
 73
     1
 93
       12
 10
51975.81939266145
 20
-9790.99691026234
 10
51975.81939266145
 20
-9787.608246782354
 10
51976.35957402145
 20
-9787.608246782354
 10
51976.35957402145
 20
-9788.983760142339
 10
51977.87987826145
 20
-9788.983760142339
 10
51977.87987826145
 20
-9787.608246782354
 10
51978.37272414145
 20
-9787.608246782354
 10
51978.37272414145
 20
-9790.99691026234
 10
51977.87987826145
 20
-9790.99691026234
 10
51977.87987826145
 20
-9789.426486102337
 10
51976.35957402145
 20
-9789.426486102337
 10
51976.35957402145
 20
-9790.99691026234
 97
        0
 75
     0
 76
     1
 98
        0
  0
HATCH
  5
2B9
330
1F
100
AcDbEntity
  8
Ech.1_5
  6
Continuous
 62
   158
420
    12131
440
 33554687
370
    20
390
5F
100
AcDbHatch
 10
0.0
 20
0.0
 30
0.0
210
0.0
220
0.0
230
1.0
  2
SOLID
 70
     1
 71
     0
 91
        1
 92
        3
 72
     0
 73
     1
 93
       18
 10
51979.55054226145
 20
-9790.99691026234
 10
51979.55054226145
 20
-9787.608246782354
 10
51980.14084354145
 20
-9787.608246782354
 10
51981.22120626146
 20
-9789.426486102337
 10
51981.56369238145
 20
-9790.014002942353
 10
51981.66393222145
 20
-9790.259033662343
 10
51981.61381230145
 20
-9789.76897222234
 10
51981.61381230145
 20
-9789.278910782345
 10
51981.61381230145
 20
-9787.608246782354
 10
51982.10387374145
 20
-9787.608246782354
 10
51982.10387374145
 20
-9790.99691026234
 10
51981.56369238145
 20
-9790.99691026234
 10
51980.48332966145
 20
-9789.178670942336
 10
51980.23829894145
 20
-9788.836184822347
 10
51979.99326822144
 20
-9788.296003462343
 10
51980.04338814145
 20
-9788.591154102356
 10
51980.04338814145
 20
-9789.278910782345
 10
51980.09072362146
 20
-9790.99691026234
 97
        0
 75
     0
 76
     1
 98
        0
  0
HATCH
  5
2BA
330
1F
100
AcDbEntity
  8
Ech.1_5
  6
Continuous
 62
   158
420
    12131
440
 33554687
370
    20
390
5F
100
AcDbHatch
 10
0.0
 20
0.0
 30
0.0
210
0.0
220
0.0
230
1.0
  2
SOLID
 70
     1
 71
     0
 91
        1
 92
        3
 72
     0
 73
     1
 93
       56
 10
51984.65998966145
 20
-9791.047030182355
 10
51984.65998966145
 20
-9790.654424142336
 10
51984.85490046145
 20
-9790.654424142336
 10
51985.09993118145
 20
-9790.554184302342
 10
51985.29762642145
 20
-9790.45672890235
 10
51985.44520174145
 20
-9790.259033662343
 10
51985.49253722145
 20
-9790.16157826236
 10
51985.59277706145
 20
-9789.866427622354
 10
51985.59277706145
 20
-9789.376366182358
 10
51985.59277706145
 20
-9789.033880062354
 10
51985.54265714145
 20
-9788.591154102356
 10
51985.44520174145
 20
-9788.393458862349
 10
51985.39508182145
 20
-9788.296003462343
 10
51985.20017102145
 20
-9788.148428142336
 10
51985.00247578145
 20
-9788.050972742352
 10
51984.75744506145
 20
-9787.950732902344
 10
51984.60986974146
 20
-9787.950732902344
 10
51984.36483902145
 20
-9788.000852822337
 10
51984.06968838145
 20
-9788.098308222343
 10
51983.92211306145
 20
-9788.24588354235
 10
51983.77453774145
 20
-9788.443578782335
 10
51983.67708234146
 20
-9788.93364022236
 10
51983.67708234146
 20
-9789.228790862351
 10
51983.67708234146
 20
-9789.574061422343
 10
51983.82465766145
 20
-9790.114242782347
 10
51983.92211306145
 20
-9790.309153582351
 10
51984.11980830145
 20
-9790.506848822344
 10
51984.41217450146
 20
-9790.654424142336
 10
51984.65998966145
 20
-9790.654424142336
 10
51984.65998966145
 20
-9791.047030182355
 10
51984.31471910146
 20
-9790.99691026234
 10
51983.87199314145
 20
-9790.899454862349
 10
51983.62696242145
 20
-9790.701759622341
 10
51983.52950702145
 20
-9790.604304222357
 10
51983.33181178145
 20
-9790.309153582351
 10
51983.13690098145
 20
-9789.671516822349
 10
51983.08678106145
 20
-9789.278910782345
 10
51983.13690098145
 20
-9788.886304742355
 10
51983.33181178145
 20
-9788.24588354235
 10
51983.62696242145
 20
-9787.903397422346
 10
51983.87199314145
 20
-9787.705702182338
 10
51984.26459918145
 20
-9787.55812686234
 10
51984.60986974146
 20
-9787.55812686234
 10
51985.05259570145
 20
-9787.55812686234
 10
51985.49253722145
 20
-9787.755822102346
 10
51985.74035238146
 20
-9787.950732902344
 10
51985.83780778146
 20
-9788.098308222343
 10
51986.03271858145
 20
-9788.296003462343
 10
51986.18029390145
 20
-9788.93364022236
 10
51986.18029390145
 20
-9789.326246262342
 10
51986.18029390145
 20
-9789.718852302361
 10
51986.03271858145
 20
-9790.309153582351
 10
51985.83780778146
 20
-9790.506848822344
 10
51985.74035238146
 20
-9790.654424142336
 10
51985.49253722145
 20
-9790.849334942348
 10
51985.05259570145
 20
-9790.99691026234
 97
        0
 75
     0
 76
     1
 98
        0
  0
HATCH
  5
2BB
330
1F
100
AcDbEntity
  8
Ech.1_5
  6
Continuous
 62
   158
420
    12131
440
 33554687
370
    20
390
5F
100
AcDbHatch
 10
0.0
 20
0.0
 30
0.0
210
0.0
220
0.0
230
1.0
  2
SOLID
 70
     1
 71
     0
 91
        1
 92
        3
 72
     0
 73
     1
 93
        6
 10
51987.21332114145
 20
-9790.99691026234
 10
51987.21332114145
 20
-9787.608246782354
 10
51987.70338258145
 20
-9787.608246782354
 10
51987.70338258145
 20
-9790.554184302342
 10
51989.17635134145
 20
-9790.554184302342
 10
51989.12901586144
 20
-9790.99691026234
 97
        0
 75
     0
 76
     1
 98
        0
  0
HATCH
  5
2BC
330
1F
100
AcDbEntity
  8
Ech.1_5
  6
Continuous
 62
   158
420
    12131
440
 33554687
370
    20
390
5F
100
AcDbHatch
 10
0.0
 20
0.0
 30
0.0
210
0.0
220
0.0
230
1.0
  2
SOLID
 70
     1
 71
     0
 91
        1
 92
        3
 72
     0
 73
     1
 93
       56
 10
51990.89713526145
 20
-9791.047030182355
 10
51990.94447074145
 20
-9790.654424142336
 10
51991.09204606144
 20
-9790.654424142336
 10
51991.33707678145
 20
-9790.554184302342
 10
51991.53477202145
 20
-9790.45672890235
 10
51991.68234734146
 20
-9790.259033662343
 10
51991.73246726145
 20
-9790.16157826236
 10
51991.82992266145
 20
-9789.866427622354
 10
51991.87725814145
 20
-9789.376366182358
 10
51991.87725814145
 20
-9789.033880062354
 10
51991.77980274145
 20
-9788.591154102356
 10
51991.68234734146
 20
-9788.393458862349
 10
51991.63222742145
 20
-9788.296003462343
 10
51991.48465210146
 20
-9788.148428142336
 10
51991.23962138145
 20
-9788.050972742352
 10
51990.99459066144
 20
-9787.950732902344
 10
51990.84701534145
 20
-9787.950732902344
 10
51990.65210454146
 20
-9788.000852822337
 10
51990.30683398145
 20
-9788.098308222343
 10
51990.15925866145
 20
-9788.24588354235
 10
51990.01168334145
 20
-9788.443578782335
 10
51989.91422794145
 20
-9788.93364022236
 10
51989.91422794145
 20
-9789.228790862351
 10
51989.91422794145
 20
-9789.574061422343
 10
51990.06180326145
 20
-9790.114242782347
 10
51990.15925866145
 20
-9790.309153582351
 10
51990.35695390145
 20
-9790.506848822344
 10
51990.65210454146
 20
-9790.654424142336
 10
51990.94447074145
 20
-9790.654424142336
 10
51990.89713526145
 20
-9791.047030182355
 10
51990.55186470145
 20
-9790.99691026234
 10
51990.15925866145
 20
-9790.899454862349
 10
51989.91422794145
 20
-9790.701759622341
 10
51989.76665262145
 20
-9790.604304222357
 10
51989.56895738145
 20
-9790.309153582351
 10
51989.37404658145
 20
-9789.671516822349
 10
51989.32392666145
 20
-9789.278910782345
 10
51989.37404658145
 20
-9788.886304742355
 10
51989.56895738145
 20
-9788.24588354235
 10
51989.86410802144
 20
-9787.903397422346
 10
51990.10913874145
 20
-9787.705702182338
 10
51990.50452922145
 20
-9787.55812686234
 10
51990.89713526145
 20
-9787.55812686234
 10
51991.28974130144
 20
-9787.55812686234
 10
51991.73246726145
 20
-9787.755822102346
 10
51991.97749798145
 20
-9787.950732902344
 10
51992.07495338145
 20
-9788.098308222343
 10
51992.27264862145
 20
-9788.296003462343
 10
51992.42022394144
 20
-9788.93364022236
 10
51992.46755942145
 20
-9789.326246262342
 10
51992.42022394144
 20
-9789.718852302361
 10
51992.27264862145
 20
-9790.309153582351
 10
51992.12507330145
 20
-9790.506848822344
 10
51991.97749798145
 20
-9790.654424142336
 10
51991.73246726145
 20
-9790.849334942348
 10
51991.28974130144
 20
-9790.99691026234
 97
        0
 75
     0
 76
     1
 98
        0
  0
HATCH
  5
2BD
330
1F
100
AcDbEntity
  8
Ech.1_5
  6
Continuous
 62
   158
420
    12131
440
 33554687
370
    20
390
5F
100
AcDbHatch
 10
0.0
 20
0.0
 30
0.0
210
0.0
220
0.0
230
1.0
  2
SOLID
 70
     1
 71
     0
 91
        1
 92
        3
 72
     0
 73
     1
 93
       46
 10
51994.92343550145
 20
-9791.047030182355
 10
51994.53082946145
 20
-9790.99691026234
 10
51993.94052818145
 20
-9790.75187954235
 10
51993.69549746145
 20
-9790.554184302342
 10
51993.59804206145
 20
-9790.45672890235
 10
51993.40034682145
 20
-9790.16157826236
 10
51993.25277150145
 20
-9789.671516822349
 10
51993.20543602145
 20
-9789.278910782345
 10
51993.25277150145
 20
-9788.786064902353
 10
51993.45046674146
 20
-9788.24588354235
 10
51993.69549746145
 20
-9787.950732902344
 10
51993.84307278146
 20
-9787.853277502345
 10
51994.08810350145
 20
-9787.705702182338
 10
51994.58094938145
 20
-9787.55812686234
 10
51994.82598010145
 20
-9787.55812686234
 10
51995.12113074145
 20
-9787.55812686234
 10
51995.66131210145
 20
-9787.755822102346
 10
51995.90634282145
 20
-9787.950732902344
 10
51995.66131210145
 20
-9788.24588354235
 10
51995.46361686145
 20
-9788.148428142336
 10
51995.12113074145
 20
-9788.000852822337
 10
51994.87331558146
 20
-9788.000852822337
 10
51994.67840478145
 20
-9788.000852822337
 10
51994.38325414144
 20
-9788.050972742352
 10
51994.18834334145
 20
-9788.198548062344
 10
51993.99064810145
 20
-9788.346123382344
 10
51993.94052818145
 20
-9788.443578782335
 10
51993.84307278146
 20
-9788.836184822347
 10
51993.79295286145
 20
-9789.326246262342
 10
51993.79295286145
 20
-9789.718852302361
 10
51993.99064810145
 20
-9790.16157826236
 10
51994.18834334145
 20
-9790.406608982335
 10
51994.28579874145
 20
-9790.45672890235
 10
51994.43337406145
 20
-9790.506848822344
 10
51994.77586018145
 20
-9790.604304222357
 10
51994.92343550145
 20
-9790.654424142336
 10
51995.12113074145
 20
-9790.604304222357
 10
51995.41349694145
 20
-9790.554184302342
 10
51995.51373678145
 20
-9790.506848822344
 10
51995.51373678145
 20
-9789.621396902348
 10
51994.77586018145
 20
-9789.621396902348
 10
51994.67840478145
 20
-9789.178670942336
 10
51996.00379822146
 20
-9789.178670942336
 10
51996.00379822146
 20
-9790.75187954235
 10
51995.75876750145
 20
-9790.899454862349
 10
51995.21858614145
 20
-9790.99691026234
 97
        0
 75
     0
 76
     1
 98
        0
  0
HATCH
  5
2BE
330
1F
100
AcDbEntity
  8
Ech.1_5
  6
Continuous
 62
   158
420
    12131
440
 33554687
370
    20
390
5F
100
AcDbHatch
 10
0.0
 20
0.0
 30
0.0
210
0.0
220
0.0
230
1.0
  2
SOLID
 70
     1
 71
     0
 91
        1
 92
        3
 72
     0
 73
     1
 93
        4
 10
51997.03682546145
 20
-9790.99691026234
 10
51997.03682546145
 20
-9787.608246782354
 10
51997.52688690145
 20
-9787.608246782354
 10
51997.52688690145
 20
-9790.99691026234
 97
        0
 75
     0
 76
     1
 98
        0
  0
HATCH
  5
2BF
330
1F
100
AcDbEntity
  8
Ech.1_5
  6
Continuous
 62
   158
420
    12131
440
 33554687
370
    20
390
5F
100
AcDbHatch
 10
0.0
 20
0.0
 30
0.0
210
0.0
220
0.0
230
1.0
  2
SOLID
 70
     1
 71
     0
 91
        1
 92
        3
 72
     0
 73
     1
 93
       64
 10
52001.84833778146
 20
-9791.734786862344
 10
52001.65342698145
 20
-9791.68466694235
 10
52001.35827634145
 20
-9791.587211542337
 10
52000.57306426145
 20
-9791.14448558234
 10
52000.27791362145
 20
-9791.047030182355
 10
52000.27791362145
 20
-9790.654424142336
 10
52000.52294434146
 20
-9790.554184302342
 10
52000.71785514145
 20
-9790.45672890235
 10
52000.86543046145
 20
-9790.259033662343
 10
52000.91555038145
 20
-9790.16157826236
 10
52001.06312570145
 20
-9789.866427622354
 10
52001.06312570145
 20
-9789.376366182358
 10
52001.06312570145
 20
-9789.033880062354
 10
52000.96567030145
 20
-9788.591154102356
 10
52000.81809498146
 20
-9788.296003462343
 10
52000.62039974146
 20
-9788.148428142336
 10
52000.42548894144
 20
-9788.050972742352
 10
52000.17767378145
 20
-9787.950732902344
 10
52000.03288290145
 20
-9787.950732902344
 10
51999.83518766145
 20
-9788.000852822337
 10
51999.54003702145
 20
-9788.098308222343
 10
51999.34512622145
 20
-9788.24588354235
 10
51999.19755090145
 20
-9788.443578782335
 10
51999.09731106144
 20
-9788.93364022236
 10
51999.09731106144
 20
-9789.228790862351
 10
51999.09731106144
 20
-9789.52394150235
 10
51999.19755090145
 20
-9790.064122862346
 10
51999.39246170146
 20
-9790.359273502345
 10
51999.54003702145
 20
-9790.506848822344
 10
51999.73773226145
 20
-9790.604304222357
 10
51999.98276298145
 20
-9790.654424142336
 10
52000.27791362145
 20
-9790.654424142336
 10
52000.27791362145
 20
-9791.047030182355
 10
51999.73773226145
 20
-9790.99691026234
 10
51999.34512622145
 20
-9790.899454862349
 10
51999.09731106144
 20
-9790.701759622341
 10
51998.99985566144
 20
-9790.604304222357
 10
51998.75482494145
 20
-9790.309153582351
 10
51998.55712970145
 20
-9789.671516822349
 10
51998.55712970145
 20
-9789.278910782345
 10
51998.55712970145
 20
-9788.886304742355
 10
51998.75482494145
 20
-9788.24588354235
 10
51999.04997558145
 20
-9787.903397422346
 10
51999.29500630145
 20
-9787.705702182338
 10
51999.73773226145
 20
-9787.55812686234
 10
52000.08021838145
 20
-9787.55812686234
 10
52000.27791362145
 20
-9787.55812686234
 10
52000.62039974146
 20
-9787.658366702333
 10
52001.06312570145
 20
-9787.853277502345
 10
52001.30815642145
 20
-9788.098308222343
 10
52001.45573174144
 20
-9788.296003462343
 10
52001.60330706145
 20
-9788.93364022236
 10
52001.65342698145
 20
-9789.326246262342
 10
52001.60330706145
 20
-9789.718852302361
 10
52001.45573174144
 20
-9790.309153582351
 10
52001.30815642145
 20
-9790.506848822344
 10
52001.11324562145
 20
-9790.75187954235
 10
52000.91555038145
 20
-9790.849334942348
 10
52001.26082094145
 20
-9790.99691026234
 10
52001.70076246145
 20
-9791.292060902346
 10
52001.94579318145
 20
-9791.389516302352
 10
52002.04603302146
 20
-9791.389516302352
 10
52002.24094382145
 20
-9791.389516302352
 10
52002.09336850145
 20
-9791.734786862344
 97
        0
 75
     0
 76
     1
 98
        0
  0
HATCH
  5
2C0
330
1F
100
AcDbEntity
  8
Ech.1_5
  6
Continuous
 62
   158
420
    12131
440
 33554687
370
    20
390
5F
100
AcDbHatch
 10
0.0
 20
0.0
 30
0.0
210
0.0
220
0.0
230
1.0
  2
SOLID
 70
     1
 71
     0
 91
        1
 92
        3
 72
     0
 73
     1
 93
       32
 10
52003.81415242145
 20
-9791.047030182355
 10
52003.56912170145
 20
-9791.047030182355
 10
52003.17373122145
 20
-9790.946790342347
 10
52002.92870050145
 20
-9790.801999462343
 10
52002.73378970145
 20
-9790.604304222357
 10
52002.68366978146
 20
-9790.45672890235
 10
52002.58621438144
 20
-9790.359273502345
 10
52002.53609446145
 20
-9790.014002942353
 10
52002.53609446145
 20
-9787.608246782354
 10
52003.07627582146
 20
-9787.608246782354
 10
52003.07627582146
 20
-9789.621396902348
 10
52003.07627582146
 20
-9790.014002942353
 10
52003.12639574145
 20
-9790.211698182338
 10
52003.27397106145
 20
-9790.406608982335
 10
52003.46888186145
 20
-9790.554184302342
 10
52003.71391258144
 20
-9790.604304222357
 10
52003.81415242145
 20
-9790.604304222357
 10
52004.05918314145
 20
-9790.604304222357
 10
52004.30421386145
 20
-9790.506848822344
 10
52004.45178918145
 20
-9790.406608982335
 10
52004.54924458145
 20
-9790.259033662343
 10
52004.59936450145
 20
-9789.966667462355
 10
52004.59936450145
 20
-9787.608246782354
 10
52005.13954586145
 20
-9787.608246782354
 10
52005.13954586145
 20
-9789.76897222234
 10
52005.13954586145
 20
-9790.114242782347
 10
52005.04209046144
 20
-9790.45672890235
 10
52004.89451514145
 20
-9790.654424142336
 10
52004.79705974145
 20
-9790.75187954235
 10
52004.74693982145
 20
-9790.801999462343
 10
52004.50190910145
 20
-9790.899454862349
 10
52004.15663854145
 20
-9791.047030182355
 97
        0
 75
     0
 76
     1
 98
        0
  0
HATCH
  5
2C1
330
1F
100
AcDbEntity
  8
Ech.1_5
  6
Continuous
 62
   158
420
    12131
440
 33554687
370
    20
390
5F
100
AcDbHatch
 10
0.0
 20
0.0
 30
0.0
210
0.0
220
0.0
230
1.0
  2
SOLID
 70
     1
 71
     0
 91
        1
 92
        3
 72
     0
 73
     1
 93
       12
 10
52006.27002850145
 20
-9790.99691026234
 10
52006.27002850145
 20
-9787.608246782354
 10
52008.38063402145
 20
-9787.608246782354
 10
52008.28317862145
 20
-9788.050972742352
 10
52006.76008994145
 20
-9788.050972742352
 10
52006.76008994145
 20
-9789.033880062354
 10
52008.03814790145
 20
-9789.033880062354
 10
52008.03814790145
 20
-9789.426486102337
 10
52006.81020986145
 20
-9789.426486102337
 10
52006.81020986145
 20
-9790.506848822344
 10
52008.43075394145
 20
-9790.506848822344
 10
52008.43075394145
 20
-9790.99691026234
 97
        0
 75
     0
 76
     1
 98
        0
  0
HATCH
  5
2C2
330
1F
100
AcDbEntity
  8
Ech.1_5
  6
Continuous
 62
   136
420
    33651
440
 33554687
370
    20
390
5F
100
AcDbHatch
 10
0.0
 20
0.0
 30
0.0
210
0.0
220
0.0
230
1.0
  2
SOLID
 70
     1
 71
     0
 91
        1
 92
        3
 72
     0
 73
     1
 93
       15
 10
51990.01168334145
 20
-9765.850632622354
 10
51990.01168334145
 20
-9763.639787262353
 10
51991.43731662145
 20
-9763.639787262353
 10
51991.77980274145
 20
-9763.639787262353
 10
51992.31998410145
 20
-9763.787362582345
 10
51992.61513474146
 20
-9763.985057822338
 10
51992.71259014145
 20
-9764.13263314233
 10
51992.86016546145
 20
-9764.424999342355
 10
51992.86016546145
 20
-9764.672814502348
 10
51992.86016546145
 20
-9764.965180702358
 10
51992.71259014145
 20
-9765.260331342357
 10
51992.56501482145
 20
-9765.458026582342
 10
51992.31998410145
 20
-9765.652937382347
 10
51991.87725814145
 20
-9765.800512702339
 10
51991.63222742145
 20
-9765.850632622354
 97
        0
 75
     0
 76
     1
 98
        0
  0
HATCH
  5
2C3
330
1F
100
AcDbEntity
  8
Ech.1_5
  6
Continuous
 62
   136
420
    33651
440
 33554687
370
    20
390
5F
100
AcDbHatch
 10
0.0
 20
0.0
 30
0.0
210
0.0
220
0.0
230
1.0
  2
SOLID
 70
     1
 71
     0
 91
        1
 92
        3
 72
     0
 73
     1
 93
       16
 10
51990.01168334145
 20
-9761.87166786235
 10
51990.01168334145
 20
-9759.858517742348
 10
51991.09204606144
 20
-9759.858517742348
 10
51991.28974130144
 20
-9759.858517742348
 10
51991.68234734146
 20
-9760.006093062355
 10
51991.92737806145
 20
-9760.153668382347
 10
51992.02483346144
 20
-9760.301243702346
 10
51992.12507330145
 20
-9760.496154502343
 10
51992.17240878145
 20
-9760.69384974235
 10
51992.17240878145
 20
-9760.791305142342
 10
51992.12507330145
 20
-9761.036335862354
 10
51992.02483346144
 20
-9761.331486502346
 10
51991.92737806145
 20
-9761.529181742346
 10
51991.73246726145
 20
-9761.724092542343
 10
51991.28974130144
 20
-9761.824332382337
 10
51991.09204606144
 20
-9761.87166786235
 97
        0
 75
     0
 76
     1
 98
        0
  0
HATCH
  5
2C4
330
1F
100
AcDbEntity
  8
Ech.1_5
  6
Continuous
 62
   136
420
    33651
440
 33554687
370
    20
390
5F
100
AcDbHatch
 10
0.0
 20
0.0
 30
0.0
210
0.0
220
0.0
230
1.0
  2
SOLID
 70
     1
 71
     0
 91
        1
 92
        3
 72
     0
 73
     1
 93
        3
 10
52000.17767378145
 20
-9763.884817982329
 10
52001.45573174144
 20
-9760.006093062355
 10
52002.73378970145
 20
-9763.884817982329
 97
        0
 75
     0
 76
     1
 98
        0
  0
HATCH
  5
2C5
330
1F
100
AcDbEntity
  8
Ech.1_5
  6
Continuous
 62
   158
420
    12131
440
 33554687
370
    20
390
5F
100
AcDbHatch
 10
0.0
 20
0.0
 30
0.0
210
0.0
220
0.0
230
1.0
  2
SOLID
 70
     1
 71
     0
 91
        3
 92
        3
 72
     0
 73
     1
 93
       25
 10
51967.12358654145
 20
-9772.825654822347
 10
51970.07230850145
 20
-9771.597716782348
 10
51973.60854730145
 20
-9770.712264862352
 10
51976.60460474146
 20
-9770.269538902354
 10
51980.18817902145
 20
-9770.024508182341
 10
51984.36483902145
 20
-9770.074628102357
 10
51986.77059518145
 20
-9770.222203422349
 10
51986.77059518145
 20
-9754.554159542353
 10
51989.96434786145
 20
-9753.718827542343
 10
51992.37010402145
 20
-9752.343314182344
 10
51992.81282998146
 20
-9751.853252742349
 10
51992.91028538145
 20
-9751.705677422342
 10
51992.96040530145
 20
-9751.507982182335
 10
51992.86016546145
 20
-9751.313071382338
 10
51992.66525466145
 20
-9751.068040662347
 10
51991.97749798145
 20
-9750.72277010234
 10
51990.25671406146
 20
-9750.280044142342
 10
51988.34101934145
 20
-9750.085133342345
 10
51986.08283850145
 20
-9749.937558022339
 10
51981.90896294145
 20
-9749.937558022339
 10
51976.40690950145
 20
-9750.330164062358
 10
51970.76006518144
 20
-9751.360406862335
 10
51967.17135401284
 20
-9752.54225622011
 10
51966.33837446145
 20
-9752.983735382357
 10
51966.33837446145
 20
-9773.31571626235
 97
        0
 92
        3
 72
     0
 73
     1
 93
       53
 10
51983.38193170146
 20
-9767.716207422349
 10
51982.54659970145
 20
-9767.766327342342
 10
51981.51635690145
 20
-9767.668871942351
 10
51979.84569290145
 20
-9766.930995342347
 10
51978.66787478145
 20
-9765.652937382347
 10
51977.98011810145
 20
-9763.884817982329
 10
51977.92999818145
 20
-9762.854575182351
 10
51977.98011810145
 20
-9761.824332382337
 10
51978.66787478145
 20
-9760.056212982334
 10
51979.84569290145
 20
-9758.72803510234
 10
51981.51635690145
 20
-9757.992942942354
 10
51982.54659970145
 20
-9757.942823022338
 10
51983.38193170146
 20
-9757.992942942354
 10
51984.75744506145
 20
-9758.432884462349
 10
51985.20017102145
 20
-9758.828274942334
 10
51985.39508182145
 20
-9759.220880982353
 10
51985.39508182145
 20
-9759.613487022336
 10
51985.24750650144
 20
-9759.908637662342
 10
51985.05259570145
 20
-9760.153668382347
 10
51984.75744506145
 20
-9760.301243702346
 10
51984.55974982145
 20
-9760.301243702346
 10
51984.36483902145
 20
-9760.301243702346
 10
51983.97223298145
 20
-9760.201003862352
 10
51983.28447630144
 20
-9759.908637662342
 10
51982.54659970145
 20
-9759.858517742348
 10
51982.20411358145
 20
-9759.858517742348
 10
51981.66393222145
 20
-9760.006093062355
 10
51981.22120626146
 20
-9760.251123782331
 10
51980.82860022145
 20
-9760.546274422359
 10
51980.38587426145
 20
-9761.183911182354
 10
51980.04338814145
 20
-9762.264273902354
 10
51979.99326822144
 20
-9762.904695102345
 10
51980.04338814145
 20
-9763.492211942346
 10
51980.38587426145
 20
-9764.525239182349
 10
51980.82860022145
 20
-9765.162875942344
 10
51981.22120626146
 20
-9765.458026582342
 10
51981.66393222145
 20
-9765.703057302355
 10
51982.20411358145
 20
-9765.800512702339
 10
51982.54659970145
 20
-9765.850632622354
 10
51983.28447630144
 20
-9765.753177222348
 10
51984.01956846144
 20
-9765.458026582342
 10
51984.46229442145
 20
-9765.31045126235
 10
51984.65998966145
 20
-9765.260331342357
 10
51984.75744506145
 20
-9765.260331342357
 10
51984.95235586145
 20
-9765.31045126235
 10
51985.20017102145
 20
-9765.458026582342
 10
51985.39508182145
 20
-9765.753177222348
 10
51985.54265714145
 20
-9766.04832786234
 10
51985.54265714145
 20
-9766.193118742358
 10
51985.49253722145
 20
-9766.390813982343
 10
51985.34774634145
 20
-9766.783420022348
 10
51985.05259570145
 20
-9767.128690582333
 10
51984.60986974146
 20
-9767.323601382344
 97
        0
 92
        3
 72
     0
 73
     1
 93
       37
 10
51972.47806466145
 20
-9767.521296622352
 10
51972.13557854145
 20
-9767.668871942351
 10
51971.69285258145
 20
-9767.668871942351
 10
51971.34758202145
 20
-9767.521296622352
 10
51971.10255130145
 20
-9767.27348146235
 10
51970.90764050145
 20
-9766.880875422332
 10
51970.90764050145
 20
-9758.925730342347
 10
51971.05521582146
 20
-9758.58045978234
 10
51971.34758202145
 20
-9758.288093582352
 10
51971.74297250145
 20
-9758.090398342345
 10
51971.98800322146
 20
-9758.090398342345
 10
51975.37666670146
 20
-9758.090398342345
 10
51975.57157750145
 20
-9758.090398342345
 10
51975.91684806145
 20
-9758.237973662337
 10
51976.16187878145
 20
-9758.533124302343
 10
51976.25933418145
 20
-9758.828274942334
 10
51976.25933418145
 20
-9759.170761062338
 10
51976.16187878145
 20
-9759.516031622352
 10
51976.01430346144
 20
-9759.710942422349
 10
51975.86672814145
 20
-9759.808397822333
 10
51975.57157750145
 20
-9759.908637662342
 10
51975.37666670146
 20
-9759.95597314234
 10
51972.92079062144
 20
-9759.95597314234
 10
51972.92079062144
 20
-9761.87166786235
 10
51974.98406066145
 20
-9761.87166786235
 10
51975.22909138145
 20
-9761.92178778235
 10
51975.57157750145
 20
-9762.019243182342
 10
51975.81939266145
 20
-9762.314393822347
 10
51975.96418354145
 20
-9762.609544462339
 10
51975.96418354145
 20
-9762.952030582343
 10
51975.81939266145
 20
-9763.29730114235
 10
51975.57157750145
 20
-9763.54233186234
 10
51975.22909138145
 20
-9763.689907182332
 10
51974.98406066145
 20
-9763.737242662337
 10
51972.92079062144
 20
-9763.737242662337
 10
51972.92079062144
 20
-9766.880875422332
 10
51972.77321530145
 20
-9767.27348146235
 97
        0
 75
     0
 76
     1
 98
        0
  0
HATCH
  5
2C6
330
1F
100
AcDbEntity
  8
Ech.1_5
  6
Continuous
 62
   136
420
    33651
440
 33554687
370
    20
390
5F
100
AcDbHatch
 10
0.0
 20
0.0
 30
0.0
210
0.0
220
0.0
230
1.0
  2
SOLID
 70
     1
 71
     0
 91
        3
 92
        3
 72
     0
 73
     1
 93
       18
 10
51986.85750633021
 20
-9774.788685022348
 10
51989.91422794145
 20
-9774.788685022348
 10
51995.16846622145
 20
-9774.201168182346
 10
51999.44258162145
 20
-9772.973230142346
 10
52002.78112518146
 20
-9771.450141462348
 10
52005.23700126146
 20
-9769.77947746235
 10
52006.90766526145
 20
-9768.25638878236
 10
52008.18572322145
 20
-9766.73330010234
 10
52008.43075394145
 20
-9766.193118742358
 10
52008.43075394145
 20
-9745.958593262349
 10
52008.08548338145
 20
-9746.45143914234
 10
52005.72984714145
 20
-9748.511924742354
 10
52001.99591310145
 20
-9750.820225502346
 10
51998.60724962145
 20
-9752.343314182344
 10
51994.48070954144
 20
-9753.571252222337
 10
51989.56895738145
 20
-9754.406584222354
 10
51986.77059518145
 20
-9754.554159542353
 10
51986.77059518145
 20
-9774.788685022348
 97
        0
 92
        3
 72
     0
 73
     1
 93
       30
 10
51994.58094938145
 20
-9766.193118742358
 10
51994.28579874145
 20
-9766.685964622335
 10
51993.64537754146
 20
-9767.176026062338
 10
51992.51767934146
 20
-9767.568632102342
 10
51991.82992266145
 20
-9767.568632102342
 10
51989.07889594145
 20
-9767.568632102342
 10
51988.88398514145
 20
-9767.568632102342
 10
51988.48859466145
 20
-9767.42105678235
 10
51988.19622846145
 20
-9767.176026062338
 10
51988.04865314145
 20
-9766.833539942341
 10
51988.04865314145
 20
-9758.875610422347
 10
51988.14610854145
 20
-9758.58045978234
 10
51988.24356394145
 20
-9758.432884462349
 10
51988.48859466145
 20
-9758.237973662337
 10
51988.83386522145
 20
-9758.090398342345
 10
51991.63222742145
 20
-9758.090398342345
 10
51992.17240878145
 20
-9758.140518262346
 10
51993.05786070145
 20
-9758.432884462349
 10
51993.74561738146
 20
-9759.073305662354
 10
51994.13822342145
 20
-9759.908637662342
 10
51994.13822342145
 20
-9760.791305142342
 10
51993.99064810145
 20
-9761.38160642234
 10
51993.69549746145
 20
-9761.87166786235
 10
51993.20543602145
 20
-9762.264273902354
 10
51992.91028538145
 20
-9762.411849222353
 10
51993.35301134145
 20
-9762.512089062355
 10
51994.08810350145
 20
-9762.904695102345
 10
51994.62828486145
 20
-9763.492211942346
 10
51994.92343550145
 20
-9764.280208462358
 10
51994.92343550145
 20
-9765.360571182351
 97
        0
 92
        3
 72
     0
 73
     1
 93
       35
 10
52004.15663854145
 20
-9767.568632102342
 10
52003.91160782145
 20
-9767.373721302345
 10
52003.76403250145
 20
-9767.128690582333
 10
52003.71391258144
 20
-9766.98111526234
 10
52003.32130654145
 20
-9765.703057302355
 10
51999.59015694146
 20
-9765.703057302355
 10
51999.19755090145
 20
-9766.98111526234
 10
51999.14743098145
 20
-9767.128690582333
 10
51998.99985566144
 20
-9767.373721302345
 10
51998.75482494145
 20
-9767.568632102342
 10
51998.40955438145
 20
-9767.668871942351
 10
51998.01694834145
 20
-9767.668871942351
 10
51997.67446222145
 20
-9767.521296622352
 10
51997.42943150145
 20
-9767.27348146235
 10
51997.28185618145
 20
-9766.930995342347
 10
51997.23173626146
 20
-9766.73330010234
 10
51997.28185618145
 20
-9766.440933902359
 10
51997.32919166145
 20
-9766.293358582352
 10
52000.03288290145
 20
-9759.023185742339
 10
52000.13033830145
 20
-9758.828274942334
 10
52000.37536902145
 20
-9758.432884462349
 10
52000.76797506145
 20
-9758.090398342345
 10
52001.21070102145
 20
-9757.942823022338
 10
52001.70076246145
 20
-9757.942823022338
 10
52002.14348842145
 20
-9758.090398342345
 10
52002.53609446145
 20
-9758.385548982336
 10
52002.78112518146
 20
-9758.828274942334
 10
52002.88136502144
 20
-9759.023185742339
 10
52005.48203198145
 20
-9766.293358582352
 10
52005.58227182145
 20
-9766.58850922235
 10
52005.58227182145
 20
-9766.98111526234
 10
52005.43469650145
 20
-9767.323601382344
 10
52005.18966578145
 20
-9767.521296622352
 10
52004.84439522146
 20
-9767.668871942351
 10
52004.50190910145
 20
-9767.668871942351
 97
        0
 75
     0
 76
     1
 98
        0
  0
HATCH
  5
2C7
330
1F
100
AcDbEntity
  8
Ech.1_5
  6
Continuous
 62
   158
420
    12131
440
 33554687
370
    20
390
5F
100
AcDbHatch
 10
0.0
 20
0.0
 30
0.0
210
0.0
220
0.0
230
1.0
  2
SOLID
 70
     1
 71
     0
 91
        1
 92
        3
 72
     0
 73
     1
 93
        4
 10
51966.63352510145
 20
-9784.07200798234
 10
51966.63352510145
 20
-9780.683344502348
 10
51967.12358654145
 20
-9780.683344502348
 10
51967.12358654145
 20
-9784.07200798234
 97
        0
 75
     0
 76
     1
 98
        0
  0
HATCH
  5
2C8
330
1F
100
AcDbEntity
  8
Ech.1_5
  6
Continuous
 62
   158
420
    12131
440
 33554687
370
    20
390
5F
100
AcDbHatch
 10
0.0
 20
0.0
 30
0.0
210
0.0
220
0.0
230
1.0
  2
SOLID
 70
     1
 71
     0
 91
        1
 92
        3
 72
     0
 73
     1
 93
       18
 10
51968.35152458145
 20
-9784.07200798234
 10
51968.35152458145
 20
-9780.683344502348
 10
51968.94182586145
 20
-9780.683344502348
 10
51970.02218858145
 20
-9782.501583822344
 10
51970.36745914145
 20
-9783.089100662346
 10
51970.46491454145
 20
-9783.286795902339
 10
51970.41479462145
 20
-9782.84406994234
 10
51970.41479462145
 20
-9782.401343982343
 10
51970.36745914145
 20
-9780.683344502348
 10
51970.85752058146
 20
-9780.683344502348
 10
51970.85752058146
 20
-9784.07200798234
 10
51970.36745914145
 20
-9784.07200798234
 10
51969.28709642145
 20
-9782.253768662344
 10
51969.03928126144
 20
-9781.91128254234
 10
51968.79425054145
 20
-9781.371101182358
 10
51968.79425054145
 20
-9781.66625182235
 10
51968.84437046145
 20
-9782.303888582344
 10
51968.84437046145
 20
-9784.07200798234
 97
        0
 75
     0
 76
     1
 98
        0
  0
HATCH
  5
2C9
330
1F
100
AcDbEntity
  8
Ech.1_5
  6
Continuous
 62
   158
420
    12131
440
 33554687
370
    20
390
5F
100
AcDbHatch
 10
0.0
 20
0.0
 30
0.0
210
0.0
220
0.0
230
1.0
  2
SOLID
 70
     1
 71
     0
 91
        1
 92
        3
 72
     0
 73
     1
 93
       62
 10
51972.97091054145
 20
-9784.122127902348
 10
51972.67575990145
 20
-9784.122127902348
 10
51972.03533870145
 20
-9783.974552582356
 10
51971.74297250145
 20
-9783.82697726235
 10
51971.93788330145
 20
-9783.384251302352
 10
51972.23303394145
 20
-9783.531826622344
 10
51972.77321530145
 20
-9783.679401942343
 10
51973.01824602146
 20
-9783.679401942343
 10
51973.21594126145
 20
-9783.679401942343
 10
51973.46097198145
 20
-9783.629282022343
 10
51973.55842738145
 20
-9783.581946542337
 10
51973.70600270145
 20
-9783.43437122233
 10
51973.80345810145
 20
-9783.334131382337
 10
51973.80345810145
 20
-9783.236675982345
 10
51973.80345810145
 20
-9783.041765182348
 10
51973.75612262145
 20
-9782.894189862349
 10
51973.60854730145
 20
-9782.746614542357
 10
51973.31339666146
 20
-9782.646374702348
 10
51973.16582134145
 20
-9782.59903922235
 10
51972.67575990145
 20
-9782.451463902351
 10
51972.52818458145
 20
-9782.401343982343
 10
51972.18291402145
 20
-9782.253768662344
 10
51971.98800322146
 20
-9782.008737942353
 10
51971.88776338146
 20
-9781.76370722234
 10
51971.88776338146
 20
-9781.566011982355
 10
51971.88776338146
 20
-9781.468556582342
 10
51971.93788330145
 20
-9781.273645782345
 10
51972.03533870145
 20
-9781.07595054236
 10
51972.13557854145
 20
-9780.92837522236
 10
51972.38060926145
 20
-9780.780799902353
 10
51972.82333522144
 20
-9780.585889102356
 10
51973.11570142146
 20
-9780.585889102356
 10
51973.46097198145
 20
-9780.585889102356
 10
51974.05127326144
 20
-9780.780799902353
 10
51974.29630398145
 20
-9780.92837522236
 10
51974.05127326144
 20
-9781.320981262343
 10
51973.85357802145
 20
-9781.17340594235
 10
51973.36351658145
 20
-9781.025830622344
 10
51973.11570142146
 20
-9781.025830622344
 10
51972.97091054145
 20
-9781.025830622344
 10
51972.72309538145
 20
-9781.07595054236
 10
51972.57552006145
 20
-9781.17340594235
 10
51972.52818458145
 20
-9781.273645782345
 10
51972.47806466145
 20
-9781.371101182358
 10
51972.42794474145
 20
-9781.468556582342
 10
51972.42794474145
 20
-9781.566011982355
 10
51972.72309538145
 20
-9781.91128254234
 10
51973.01824602146
 20
-9782.008737942353
 10
51973.46097198145
 20
-9782.106193342337
 10
51973.65588278144
 20
-9782.156313262352
 10
51974.05127326144
 20
-9782.354008502338
 10
51974.14872866146
 20
-9782.451463902351
 10
51974.24618406146
 20
-9782.548919302335
 10
51974.39375938145
 20
-9782.894189862349
 10
51974.39375938145
 20
-9783.041765182348
 10
51974.39375938145
 20
-9783.186556062337
 10
51974.29630398145
 20
-9783.43437122233
 10
51974.19606414145
 20
-9783.679401942343
 10
51974.00115334145
 20
-9783.874312742348
 10
51973.85357802145
 20
-9783.924432662341
 10
51973.65588278144
 20
-9784.021888062347
 10
51973.21594126145
 20
-9784.122127902348
 97
        0
 75
     0
 76
     1
 98
        0
  0
HATCH
  5
2CA
330
1F
100
AcDbEntity
  8
Ech.1_5
  6
Continuous
 62
   158
420
    12131
440
 33554687
370
    20
390
5F
100
AcDbHatch
 10
0.0
 20
0.0
 30
0.0
210
0.0
220
0.0
230
1.0
  2
SOLID
 70
     1
 71
     0
 91
        1
 92
        3
 72
     0
 73
     1
 93
        8
 10
51975.96418354145
 20
-9784.07200798234
 10
51975.96418354145
 20
-9781.126070462346
 10
51974.98406066145
 20
-9781.126070462346
 10
51974.98406066145
 20
-9780.683344502348
 10
51977.53739214145
 20
-9780.683344502348
 10
51977.48727222145
 20
-9781.126070462346
 10
51976.45702942145
 20
-9781.126070462346
 10
51976.45702942145
 20
-9784.07200798234
 97
        0
 75
     0
 76
     1
 98
        0
  0
HATCH
  5
2CB
330
1F
100
AcDbEntity
  8
Ech.1_5
  6
Continuous
 62
    40
420
 16297258
440
 33554687
370
    20
390
5F
100
AcDbHatch
 10
0.0
 20
0.0
 30
0.0
210
0.0
220
0.0
230
1.0
  2
SOLID
 70
     1
 71
     0
 91
        1
 92
        3
 72
     0
 73
     1
 93
        5
 10
52478.1549083892
 20
-8590.971031352752
 10
52478.1549083892
 20
-8548.726830969614
 10
52472.73206122444
 20
-8552.878576104986
 10
52469.1549083892
 20
-8556.695560656828
 10
52469.1549083892
 20
-8590.971031352752
 97
        0
 75
     0
 76
     1
 98
        0
  0
LWPOLYLINE
  5
2CC
330
1F
100
AcDbEntity
  8
Ech.1_5
  6
Continuous
 62
   190
370
    15
390
5F
100
AcDbPolyline
 90
        6
 70
     0
 43
0.0
 10
52478.1549083892
 20
-8590.971031352752
 10
52478.1549083892
 20
-8548.726830969614
 10
52472.73206122444
 20
-8552.878576104986
 10
52469.1549083892
 20
-8556.695560656828
 10
52469.1549083892
 20
-8590.971031352752
 10
52478.1549083892
 20
-8590.971031352752
  0
HATCH
  5
2CD
330
1F
100
AcDbEntity
  8
Ech.1_5
  6
Continuous
 62
    40
420
 16297258
440
 33554687
370
    20
390
5F
100
AcDbHatch
 10
0.0
 20
0.0
 30
0.0
210
0.0
220
0.0
230
1.0
  2
SOLID
 70
     1
 71
     0
 91
        1
 92
        3
 72
     0
 73
     1
 93
        5
 10
52469.1549083892
 20
-8592.971031352752
 10
52469.1549083892
 20
-8639.044485599143
 10
52472.73206122444
 20
-8642.861470150985
 10
52478.1549083892
 20
-8647.013215286357
 10
52478.1549083892
 20
-8592.971031352752
 97
        0
 75
     0
 76
     1
 98
        0
  0
LWPOLYLINE
  5
2CE
330
1F
100
AcDbEntity
  8
Ech.1_5
  6
Continuous
 62
   190
370
    15
390
5F
100
AcDbPolyline
 90
        6
 70
     0
 43
0.0
 10
52469.1549083892
 20
-8592.971031352752
 10
52469.1549083892
 20
-8639.044485599143
 10
52472.73206122444
 20
-8642.861470150985
 10
52478.1549083892
 20
-8647.013215286357
 10
52478.1549083892
 20
-8592.971031352752
 10
52469.1549083892
 20
-8592.971031352752
  0
HATCH
  5
2CF
330
1F
100
AcDbEntity
  8
Ech.1_5
  6
Continuous
 62
   190
440
 33554687
370
    15
390
5F
100
AcDbHatch
 10
0.0
 20
0.0
 30
0.0
210
0.0
220
0.0
230
1.0
  2
CwHatchPattern_74
 70
     0
 71
     0
 91
        1
 92
        3
 72
     0
 73
     1
 93
        5
 10
52478.1549083892
 20
-8590.971031352752
 10
52478.1549083892
 20
-8548.726830969614
 10
52472.73206122444
 20
-8552.878576104986
 10
52469.1549083892
 20
-8556.695560656828
 10
52469.1549083892
 20
-8590.971031352752
 97
        0
 75
     0
 76
     2
 52
0.0
 41
0.6000000238418579
 77
     0
 78
     3
 53
45.00000000000297
 43
0.0
 44
0.0
 45
-0.0000000000043443
 46
42.00000166893005
 79
     0
 53
45.00000000000297
 43
0.0
 44
10.80000042915344
 45
-0.0000000000043443
 46
42.00000166893005
 79
     0
 53
45.00000000000297
 43
0.0
 44
21.60000085830688
 45
-0.0000000000043443
 46
42.00000166893005
 79
     0
 98
        0
1001
ACAD
1010
0.0
1020
0.0
1030
0.0
  0
LWPOLYLINE
  5
2D0
330
1F
100
AcDbEntity
  8
Ech.1_5
  6
Continuous
 62
     7
370
    20
390
5F
100
AcDbPolyline
 90
        6
 70
     0
 43
0.0
 10
52478.1549083892
 20
-8590.971031352752
 10
52478.1549083892
 20
-8548.726830969614
 10
52472.73206122444
 20
-8552.878576104986
 10
52469.1549083892
 20
-8556.695560656828
 10
52469.1549083892
 20
-8590.971031352752
 10
52478.1549083892
 20
-8590.971031352752
  0
LINE
  5
2D1
330
1F
100
AcDbEntity
  8
Ech.1_5
  6
Continuous
 62
   190
370
    15
390
5F
100
AcDbLine
 10
52469.1549083892
 20
-8556.695560656828
 30
0.0
 11
52469.1549083892
 21
-8639.044485599143
 31
0.0
  0
HATCH
  5
2D2
330
1F
100
AcDbEntity
  8
Ech.1_5
  6
Continuous
 62
    33
420
 12426362
440
 33554687
370
    20
390
5F
100
AcDbHatch
 10
0.0
 20
0.0
 30
0.0
210
0.0
220
0.0
230
1.0
  2
SOLID
 70
     1
 71
     0
 91
        1
 92
        3
 72
     0
 73
     1
 93
       11
 10
52671.73705930742
 20
-8632.620281727219
 10
52678.76652003758
 20
-8621.523426607242
 10
52683.05464666935
 20
-8609.844146192472
 10
52684.49585129358
 20
-8597.870023127985
 10
52683.05464666935
 20
-8585.895900063499
 10
52678.76652003758
 20
-8574.216619648729
 10
52671.73705930742
 20
-8563.119764528752
 10
52662.13935313148
 20
-8552.878576104986
 10
52658.15490838906
 20
-8549.828075404153
 10
52658.15490838906
 20
-8645.911970851817
 10
52662.13935313148
 20
-8642.861470150927
 97
        0
 75
     0
 76
     1
 98
        0
  0
LWPOLYLINE
  5
2D3
330
1F
100
AcDbEntity
  8
Ech.1_5
  6
Continuous
 62
   190
370
    15
390
5F
100
AcDbPolyline
 90
       12
 70
     0
 43
0.0
 10
52671.73705930742
 20
-8632.620281727219
 10
52678.76652003758
 20
-8621.523426607242
 10
52683.05464666935
 20
-8609.844146192472
 10
52684.49585129358
 20
-8597.870023127985
 10
52683.05464666935
 20
-8585.895900063499
 10
52678.76652003758
 20
-8574.216619648729
 10
52671.73705930742
 20
-8563.119764528752
 10
52662.13935313148
 20
-8552.878576104986
 10
52658.15490838906
 20
-8549.828075404153
 10
52658.15490838906
 20
-8645.911970851817
 10
52662.13935313148
 20
-8642.861470150927
 10
52671.73705930742
 20
-8632.620281727219
  0
LINE
  5
2D4
330
1F
100
AcDbEntity
  8
Ech.1_5
  6
Continuous
 62
   190
370
    15
390
5F
100
AcDbLine
 10
52662.13935313148
 20
-8552.878576104986
 30
0.0
 11
52658.15490838906
 21
-8645.911970851817
 31
0.0
  0
LINE
  5
2D5
330
1F
100
AcDbEntity
  8
Ech.1_5
  6
Continuous
 62
   190
370
    15
390
5F
100
AcDbLine
 10
52658.15490838906
 20
-8549.828075404153
 30
0.0
 11
52662.13935313148
 21
-8642.861470150927
 31
0.0
  0
LWPOLYLINE
  5
2D6
330
1F
100
AcDbEntity
  8
Ech.1_5
  6
Continuous
 62
   190
370
    15
390
5F
100
AcDbPolyline
 90
       12
 70
     0
 43
0.0
 10
52671.73705930742
 20
-8632.620281727219
 10
52678.76652003758
 20
-8621.523426607242
 10
52683.05464666935
 20
-8609.844146192472
 10
52684.49585129358
 20
-8597.870023127985
 10
52683.05464666935
 20
-8585.895900063499
 10
52678.76652003758
 20
-8574.216619648729
 10
52671.73705930742
 20
-8563.119764528752
 10
52662.13935313148
 20
-8552.878576104986
 10
52658.15490838906
 20
-8549.828075404153
 10
52658.15490838906
 20
-8645.911970851817
 10
52662.13935313148
 20
-8642.861470150927
 10
52671.73705930742
 20
-8632.620281727219
  0
HATCH
  5
2D7
330
1F
100
AcDbEntity
  8
Ech.1_5
  6
Continuous
 62
   254
420
 15656413
440
 33554687
370
    20
390
5F
100
AcDbHatch
 10
0.0
 20
0.0
 30
0.0
210
0.0
220
0.0
230
1.0
  2
SOLID
 70
     1
 71
     0
 91
        1
 92
        3
 72
     0
 73
     1
 93
        9
 10
52456.10489431834
 20
-8574.216619648729
 10
52451.81676768657
 20
-8585.895900063499
 10
52450.37556306233
 20
-8597.870023127985
 10
52451.81676768657
 20
-8609.844146192472
 10
52456.10489431834
 20
-8621.523426607242
 10
52463.1343550485
 20
-8632.620281727219
 10
52470.62848355183
 20
-8640.616857228442
 10
52470.62848355183
 20
-8555.123189027528
 10
52463.1343550485
 20
-8563.119764528752
 97
        0
 75
     0
 76
     1
 98
        0
  0
HATCH
  5
2D8
330
1F
100
AcDbEntity
  8
Ech.1_5
  6
Continuous
 62
   190
440
 33554687
370
    15
390
5F
100
AcDbHatch
 10
0.0
 20
0.0
 30
0.0
210
0.0
220
0.0
230
1.0
  2
CwHatchPattern_74
 70
     0
 71
     0
 91
        1
 92
        3
 72
     0
 73
     1
 93
        5
 10
52469.1549083892
 20
-8592.971031352752
 10
52469.1549083892
 20
-8639.044485599143
 10
52472.73206122444
 20
-8642.861470150985
 10
52478.1549083892
 20
-8647.013215286357
 10
52478.1549083892
 20
-8592.971031352752
 97
        0
 75
     0
 76
     2
 52
0.0
 41
0.6000000238418579
 77
     0
 78
     3
 53
45.00000000000297
 43
0.0
 44
0.0
 45
-0.0000000000043443
 46
42.00000166893005
 79
     0
 53
45.00000000000297
 43
0.0
 44
10.80000042915344
 45
-0.0000000000043443
 46
42.00000166893005
 79
     0
 53
45.00000000000297
 43
0.0
 44
21.60000085830688
 45
-0.0000000000043443
 46
42.00000166893005
 79
     0
 98
        0
1001
ACAD
1010
0.0
1020
0.0
1030
0.0
  0
LWPOLYLINE
  5
2D9
330
1F
100
AcDbEntity
  8
Ech.1_5
  6
Continuous
 62
     7
370
    20
390
5F
100
AcDbPolyline
 90
        6
 70
     0
 43
0.0
 10
52469.1549083892
 20
-8592.971031352752
 10
52469.1549083892
 20
-8639.044485599143
 10
52472.73206122444
 20
-8642.861470150985
 10
52478.1549083892
 20
-8647.013215286357
 10
52478.1549083892
 20
-8592.971031352752
 10
52469.1549083892
 20
-8592.971031352752
  0
LINE
  5
2DA
330
1F
100
AcDbEntity
  8
Ech.1_5
  6
Continuous
 62
     5
370
    40
390
5F
100
AcDbLine
 10
52658.15490838906
 20
-8645.911970851817
 30
0.0
 11
52658.15490838906
 21
-8549.828075404153
 31
0.0
  0
LWPOLYLINE
  5
2DB
330
1F
100
AcDbEntity
  8
Ech.1_5
  6
Continuous
 62
   190
370
    15
390
5F
100
AcDbPolyline
 90
        8
 70
     0
 43
0.0
 10
52657.61771501011
 20
-8549.41679883113
 42
-0.5535056430938561
 10
52620.39031955293
 20
-8584.046385105166
 10
52515.91949722549
 20
-8556.090844897079
 42
1.303226186856227
 10
52515.91949722549
 20
-8614.046385105166
 10
52620.39031955293
 20
-8586.090844897079
 42
-1.303226186855725
 10
52620.39031955293
 20
-8644.046385105166
 10
52515.91949722549
 20
-8616.090844897079
 42
0.5140069127224951
 10
52478.22134667254
 20
-8647.064080599628
  0
LWPOLYLINE
  5
2DC
330
1F
100
AcDbEntity
  8
Ech.1_5
  6
Continuous
 62
   190
370
    15
390
5F
100
AcDbPolyline
 90
        3
 70
     0
 43
0.0
 10
52484.67270282982
 20
-8543.739073540424
 42
0.2986460414877553
 10
52515.91949722549
 20
-8554.046385105166
 10
52613.84064786122
 20
-8527.843483636321
  0
LWPOLYLINE
  5
2DD
330
1F
100
AcDbEntity
  8
Ech.1_5
  6
Continuous
 62
   190
370
    15
390
5F
100
AcDbPolyline
 90
        3
 70
     0
 43
0.0
 10
52529.91213650901
 20
-8670.302068927782
 10
52620.39031955293
 20
-8646.090844897079
 42
-0.2566391775331849
 10
52648.45146113254
 20
-8652.976762504424
  0
HATCH
  5
2DE
330
1F
100
AcDbEntity
  8
Ech.1_5
  6
Continuous
 62
    33
420
 12426362
440
 33554687
370
    20
390
5F
100
AcDbHatch
 10
0.0
 20
0.0
 30
0.0
210
0.0
220
0.0
230
1.0
  2
SOLID
 70
     1
 71
     0
 91
        1
 92
        3
 72
     0
 73
     1
 93
        4
 10
52478.1549083892
 20
-8572.471031352752
 10
52478.1549083892
 20
-8617.471031352752
 10
52658.1549083892
 20
-8617.471031352752
 10
52658.1549083892
 20
-8572.471031352752
 97
        0
 75
     0
 76
     1
 98
        0
  0
LWPOLYLINE
  5
2DF
330
1F
100
AcDbEntity
  8
Ech.1_5
  6
Continuous
 62
   190
370
    15
390
5F
100
AcDbPolyline
 90
        5
 70
     0
 43
0.0
 10
52478.1549083892
 20
-8572.471031352752
 10
52478.1549083892
 20
-8617.471031352752
 10
52658.1549083892
 20
-8617.471031352752
 10
52658.1549083892
 20
-8572.471031352752
 10
52478.1549083892
 20
-8572.471031352752
  0
LINE
  5
2E0
330
1F
100
AcDbEntity
  8
Ech.1_5
  6
Continuous
 62
   190
370
    15
390
5F
100
AcDbLine
 10
52658.1549083892
 20
-8572.471031352752
 30
0.0
 11
52478.1549083892
 21
-8617.471031352752
 31
0.0
  0
LINE
  5
2E1
330
1F
100
AcDbEntity
  8
Ech.1_5
  6
Continuous
 62
   190
370
    15
390
5F
100
AcDbLine
 10
52478.1549083892
 20
-8572.471031352752
 30
0.0
 11
52658.1549083892
 21
-8617.471031352752
 31
0.0
  0
LWPOLYLINE
  5
2E2
330
1F
100
AcDbEntity
  8
Ech.1_5
  6
Continuous
 62
   190
370
    15
390
5F
100
AcDbPolyline
 90
        5
 70
     0
 43
0.0
 10
52658.1549083892
 20
-8617.471031352752
 10
52658.1549083892
 20
-8572.471031352752
 10
52478.1549083892
 20
-8572.471031352752
 10
52478.1549083892
 20
-8617.471031352752
 10
52658.1549083892
 20
-8617.471031352752
  0
LWPOLYLINE
  5
2E3
330
1F
100
AcDbEntity
  8
Ech.1_5
  6
Continuous
 62
     5
370
    40
390
5F
100
AcDbPolyline
 90
        5
 70
     0
 43
0.0
 10
52478.1549083892
 20
-8617.471031352752
 10
52478.1549083892
 20
-8572.471031352752
 10
52658.1549083892
 20
-8572.471031352752
 10
52658.1549083892
 20
-8617.471031352752
 10
52478.1549083892
 20
-8617.471031352752
  0
LWPOLYLINE
  5
2E4
330
1F
100
AcDbEntity
  8
Ech.1_5
  6
CADWORK_22
 62
   140
420
  1483507
 48
0.6
370
    35
390
5F
100
AcDbPolyline
 90
        2
 70
   128
 43
0.0
 10
52469.16681574091
 20
-8607.692140443882
 10
52469.16797855764
 20
-8639.058432062555
  0
LWPOLYLINE
  5
2E5
330
1F
100
AcDbEntity
  8
Ech.1_5
  6
CADWORK_22
 62
   140
420
  1483507
 48
0.6
370
    35
390
5F
100
AcDbPolyline
 90
        4
 70
   128
 43
0.0
 10
52469.16483275892
 20
-8556.68497090355
 10
52469.16640846181
 20
-8601.513429904173
 10
52465.89893556152
 20
-8605.0881431644
 10
52465.89893556152
 20
-8635.570214703612
  0
LWPOLYLINE
  5
2E6
330
1F
100
AcDbEntity
  8
Ech.1_5
  6
Continuous
 62
   190
370
    15
390
5F
100
AcDbPolyline
 90
       41
 70
     0
 43
0.0
 10
52567.43570717797
 20
-8674.41404468606
 10
52585.74794820022
 20
-8673.471660763133
 10
52603.60928107367
 20
-8670.66771361423
 10
52620.5799005046
 20
-8666.071245723802
 10
52636.24193352036
 20
-8659.79543738625
 10
52650.20972888879
 20
-8651.994819830978
 10
52662.13935313148
 20
-8642.861470150927
 10
52671.73705930742
 20
-8632.620281727219
 10
52678.76652003758
 20
-8621.523426607242
 10
52683.05464666935
 20
-8609.844146192472
 10
52684.49585129358
 20
-8597.870023127985
 10
52683.05464666935
 20
-8585.895900063499
 10
52678.76652003758
 20
-8574.216619648729
 10
52671.73705930742
 20
-8563.119764528752
 10
52662.13935313148
 20
-8552.878576104986
 10
52650.20972888879
 20
-8543.745226424993
 10
52636.24193352036
 20
-8535.94460886972
 10
52620.5799005046
 20
-8529.668800532168
 10
52603.60928107367
 20
-8525.072332641741
 10
52585.74794820022
 20
-8522.268385492838
 10
52567.43570717797
 20
-8521.32600156991
 10
52549.12346615571
 20
-8522.268385492838
 10
52531.26213328226
 20
-8525.072332641741
 10
52514.29151385133
 20
-8529.668800532168
 10
52498.62948083557
 20
-8535.94460886972
 10
52484.66168546713
 20
-8543.745226424993
 10
52472.73206122444
 20
-8552.878576104986
 10
52463.1343550485
 20
-8563.119764528752
 10
52456.10489431834
 20
-8574.216619648729
 10
52451.81676768657
 20
-8585.895900063499
 10
52450.37556306233
 20
-8597.870023127985
 10
52451.81676768657
 20
-8609.844146192472
 10
52456.10489431834
 20
-8621.523426607242
 10
52463.1343550485
 20
-8632.620281727219
 10
52472.73206122444
 20
-8642.861470150985
 10
52484.66168546713
 20
-8651.994819830978
 10
52498.62948083557
 20
-8659.79543738625
 10
52514.29151385133
 20
-8666.071245723802
 10
52531.26213328226
 20
-8670.66771361423
 10
52549.12346615571
 20
-8673.471660763133
 10
52567.43570717797
 20
-8674.41404468606
  0
LWPOLYLINE
  5
2E7
330
1F
100
AcDbEntity
  8
Ech.1_5
  6
CADWORK_22
 62
     1
 48
0.6
370
    35
390
5F
100
AcDbPolyline
 90
        2
 70
   128
 43
0.0
 10
52659.6549083892
 20
-8644.76356716005
 10
52659.6549083892
 20
-8550.976479095922
  0
LWPOLYLINE
  5
2E8
330
1F
100
AcDbEntity
  8
Ech.1_5
  6
CADWORK_22
 62
   106
 48
0.6
370
    35
390
5F
100
AcDbPolyline
 90
        2
 70
   128
 43
0.0
 10
52193.47114085615
 20
-8730.817095476616
 10
52193.47114085615
 20
-8884.81154636519
  0
POLYLINE
  5
2E9
330
1F
100
AcDbEntity
  8
Ech.1_5
  6
CADWORK_22
 62
     1
 48
0.6
370
    35
390
5F
100
AcDb3dPolyline
 66
     1
 10
0.0
 20
0.0
 30
0.0
 70
     8
  0
VERTEX
  5
2EA
330
2E9
100
AcDbEntity
  8
Ech.1_5
  6
CADWORK_22
 62
     1
 48
0.6
370
    35
100
AcDbVertex
100
AcDb3dPolylineVertex
 10
52189.94556238694
 20
-9345.047830201407
 30
0.0
 70
    32
  0
VERTEX
  5
2EB
330
2E9
100
AcDbEntity
  8
Ech.1_5
  6
CADWORK_22
 62
     1
 48
0.6
370
    35
100
AcDbVertex
100
AcDb3dPolylineVertex
 10
52189.94556238694
 20
-8819.227490521107
 30
2500.0
 70
    32
  0
VERTEX
  5
2EC
330
2E9
100
AcDbEntity
  8
Ech.1_5
  6
CADWORK_22
 62
     1
 48
0.6
370
    35
100
AcDbVertex
100
AcDb3dPolylineVertex
 10
52111.37533980379
 20
-8819.227490521107
 30
2500.0
 70
    32
  0
SEQEND
  5
2ED
330
2E9
100
AcDbEntity
  8
Ech.1_5
  6
CADWORK_22
 62
     1
 48
0.6
370
    35
390
5F
  0
LWPOLYLINE
  5
2EE
330
1F
100
AcDbEntity
  8
Ech.1_5
 62
     3
370
    70
390
5F
100
AcDbPolyline
 90
        4
 70
     0
 43
0.0
 10
52193.33738684498
 20
-8904.968238058334
 10
52193.33738684498
 20
-8891.979104638283
 10
52199.01799980697
 20
-8888.04437249731
 10
52199.01799980697
 20
-8874.565942496478
  0
LWPOLYLINE
  5
2EF
330
1F
100
AcDbEntity
  8
Ech.1_5
 62
     3
370
    70
390
5F
100
AcDbPolyline
 90
        4
 70
     0
 43
0.0
 10
52193.01894304396
 20
-8711.103985450942
 10
52193.01894304396
 20
-8724.093118870993
 10
52198.69955600595
 20
-8728.027851011966
 10
52198.69955600595
 20
-8741.506281012798
  0
LWPOLYLINE
  5
2F0
330
1F
100
AcDbEntity
  8
Ech.1_5
  6
Continuous
 62
     7
370
    20
390
5F
100
AcDbPolyline
 90
        5
 70
     0
 43
0.0
 10
52434.48291188876
 20
-9546.846089407863
 10
52867.51311502571
 20
-9546.846089407863
 10
52867.51311502571
 20
-9226.780287089243
 10
52434.48291188876
 20
-9226.780287089243
 10
52434.48291188876
 20
-9546.846089407863
  0
LWPOLYLINE
  5
2F1
330
1F
100
AcDbEntity
  8
Ech.1_5
 62
   190
370
    18
390
5F
100
AcDbPolyline
 90
        4
 70
     0
 43
0.0
 10
52639.81239942487
 20
-9483.98407529204
 10
52679.81239942503
 20
-9528.984075292157
 10
52679.81239942515
 20
-9483.98407529204
 10
52639.81239942502
 20
-9528.98407529204
  0
HATCH
  5
2F2
330
1F
100
AcDbEntity
  8
Ech.1_5
  6
Continuous
 62
   254
420
 14407639
440
 33554687
370
    15
390
5F
100
AcDbHatch
 10
0.0
 20
0.0
 30
0.0
210
0.0
220
0.0
230
1.0
  2
SOLID
 70
     1
 71
     0
 91
        1
 92
        3
 72
     0
 73
     1
 93
        4
 10
52679.81239942502
 20
-9546.846089407863
 10
52692.81239942502
 20
-9546.846089407863
 10
52692.81239942502
 20
-9472.350053044513
 10
52679.81239942502
 20
-9472.350053044513
 97
        0
 75
     0
 76
     1
 98
        0
  0
LWPOLYLINE
  5
2F3
330
1F
100
AcDbEntity
  8
Ech.1_5
  6
Continuous
 62
   254
420
 14407639
370
    15
390
5F
100
AcDbPolyline
 90
        5
 70
     0
 43
0.0
 10
52679.81239942502
 20
-9546.846089407863
 10
52692.81239942502
 20
-9546.846089407863
 10
52692.81239942502
 20
-9472.350053044513
 10
52679.81239942502
 20
-9472.350053044513
 10
52679.81239942502
 20
-9546.846089407863
  0
HATCH
  5
2F4
330
1F
100
AcDbEntity
  8
Ech.1_5
  6
Continuous
 62
   190
440
 33554687
370
    15
390
251
100
AcDbHatch
 10
0.0
 20
0.0
 30
0.0
210
0.0
220
0.0
230
1.0
  2
CwHatchPattern_84
 70
     0
 71
     0
 91
        1
 92
        3
 72
     0
 73
     1
 93
        4
 10
52679.81239942502
 20
-9546.846089407863
 10
52692.81239942502
 20
-9546.846089407863
 10
52692.81239942502
 20
-9472.350053044513
 10
52679.81239942502
 20
-9472.350053044513
 97
        0
 75
     0
 76
     2
 52
0.0
 41
1.0
 77
     0
 78
     2
 53
0.0
 43
0.0
 44
0.0
 45
0.0
 46
70.0
 79
     2
 49
0.0
 49
-70.0
 53
0.0
 43
35.0
 44
35.0
 45
0.0
 46
70.0
 79
     2
 49
0.0
 49
-70.0
 98
        0
1001
ACAD
1010
0.0
1020
0.0
1030
0.0
  0
LWPOLYLINE
  5
2F5
330
1F
100
AcDbEntity
  8
Ech.1_5
  6
Continuous
 62
     7
370
    20
390
5F
100
AcDbPolyline
 90
        5
 70
     0
 43
0.0
 10
52679.81239942502
 20
-9546.846089407863
 10
52692.81239942502
 20
-9546.846089407863
 10
52692.81239942502
 20
-9472.350053044513
 10
52679.81239942502
 20
-9472.350053044513
 10
52679.81239942502
 20
-9546.846089407863
  0
LWPOLYLINE
  5
2F6
330
1F
100
AcDbEntity
  8
Ech.1_5
 62
     3
370
    70
390
5F
100
AcDbPolyline
 90
        4
 70
     0
 43
0.0
 10
52644.1613163958
 20
-9389.687814086848
 10
52644.1613163958
 20
-9376.698680666797
 10
52649.8419293578
 20
-9372.763948525824
 10
52649.8419293578
 20
-9359.285518524992
  0
LWPOLYLINE
  5
2F7
330
1F
100
AcDbEntity
  8
Ech.1_5
  6
CADWORK_22
 62
     1
 48
0.6
370
    35
390
5F
100
AcDbPolyline
 90
        4
 70
   128
 43
0.0
 10
52189.94556238694
 20
-8540.825074169506
 10
52189.94556238694
 20
-8805.920860396242
 10
52189.94556238694
 20
-8816.813799660189
 10
52111.37533980379
 20
-8816.813799660189
  0
LWPOLYLINE
  5
2F8
330
1F
100
AcDbEntity
  8
Ech.1_5
  6
Continuous
 62
     7
370
    20
390
5F
100
AcDbPolyline
 90
        5
 70
     0
 43
0.0
 10
51984.61607485083
 20
-9315.110501964704
 10
52417.64627798778
 20
-9315.110501964704
 10
52417.64627798778
 20
-8995.044699646083
 10
51984.61607485083
 20
-8995.044699646083
 10
51984.61607485083
 20
-9315.110501964704
  0
LWPOLYLINE
  5
2F9
330
1F
100
AcDbEntity
  8
Ech.1_5
  6
CADWORK_22
 62
   140
420
  1483507
 48
0.6
370
    35
390
5F
100
AcDbPolyline
 90
        2
 70
   128
 43
0.0
 10
52450.81239942487
 20
-9226.780287089243
 10
52450.82120670306
 20
-9546.846089407863
  0
LINE
  5
2FA
330
1F
100
AcDbEntity
  8
Ech.1_5
 62
     5
370
    40
390
5F
100
AcDbLine
 10
52639.81239942473
 20
-9428.96307600977
 30
0.0
 11
52639.81239942487
 21
-9473.96307600977
 31
0.0
  0
LWPOLYLINE
  5
2FB
330
1F
100
AcDbEntity
  8
Ech.1_5
  6
Continuous
 62
     5
370
    40
390
5F
100
AcDbPolyline
 90
        4
 70
     0
 43
0.0
 10
52684.81239942473
 20
-9226.780287089243
 10
52684.81239942473
 20
-9289.963077964267
 10
52639.81239942473
 20
-9289.963077964267
 10
52639.81239942473
 20
-9226.780287089243
  0
HATCH
  5
2FC
330
1F
100
AcDbEntity
  8
Ech.1_5
  6
Continuous
 62
   190
440
 33554687
370
    15
390
5F
100
AcDbHatch
 10
0.0
 20
0.0
 30
0.0
210
0.0
220
0.0
230
1.0
  2
CwHatchPattern_74
 70
     0
 71
     0
 91
        1
 92
        3
 72
     0
 73
     1
 93
        4
 10
52450.81239942487
 20
-9226.780287089243
 10
52450.81239942487
 20
-9546.846089407863
 10
52459.81239942487
 20
-9546.846089407863
 10
52459.81239942487
 20
-9226.780287089243
 97
        0
 75
     0
 76
     2
 52
0.0
 41
0.6000000238418579
 77
     0
 78
     3
 53
45.00000000000297
 43
0.0
 44
0.0
 45
-0.0000000000043443
 46
42.00000166893005
 79
     0
 53
45.00000000000297
 43
0.0
 44
10.80000042915344
 45
-0.0000000000043443
 46
42.00000166893005
 79
     0
 53
45.00000000000297
 43
0.0
 44
21.60000085830688
 45
-0.0000000000043443
 46
42.00000166893005
 79
     0
 98
        0
1001
ACAD
1010
0.0
1020
0.0
1030
0.0
  0
LWPOLYLINE
  5
2FD
330
1F
100
AcDbEntity
  8
Ech.1_5
  6
Continuous
 62
     7
370
    20
390
5F
100
AcDbPolyline
 90
        5
 70
     0
 43
0.0
 10
52450.81239942487
 20
-9226.780287089243
 10
52450.81239942487
 20
-9546.846089407863
 10
52459.81239942487
 20
-9546.846089407863
 10
52459.81239942487
 20
-9226.780287089243
 10
52450.81239942487
 20
-9226.780287089243
  0
LINE
  5
2FE
330
1F
100
AcDbEntity
  8
Ech.1_5
  6
Continuous
 62
   190
370
    15
390
5F
100
AcDbLine
 10
52639.81239942487
 20
-9379.963077964267
 30
0.0
 11
52639.81239942487
 21
-9546.846089407863
 31
0.0
  0
LINE
  5
2FF
330
1F
100
AcDbEntity
  8
Ech.1_5
  6
Continuous
 62
   190
370
    15
390
5F
100
AcDbLine
 10
52450.81239942487
 20
-9226.780287089243
 30
0.0
 11
52450.81239942487
 21
-9546.846089407863
 31
0.0
  0
HATCH
  5
300
330
1F
100
AcDbEntity
  8
Ech.1_5
  6
Continuous
 62
   254
420
 16643007
440
 33554687
370
     5
390
5F
100
AcDbHatch
 10
0.0
 20
0.0
 30
0.0
210
0.0
220
0.0
230
1.0
  2
SOLID
 70
     1
 71
     0
 91
        1
 92
        3
 72
     0
 73
     1
 93
        4
 10
52639.81239942487
 20
-9456.963077964267
 10
52867.51311502571
 20
-9456.963077964267
 10
52867.51311502571
 20
-9356.963077964267
 10
52639.81239942502
 20
-9356.963077964267
 97
        0
 75
     0
 76
     1
 98
        0
  0
HATCH
  5
301
330
1F
100
AcDbEntity
  8
Ech.1_5
  6
Continuous
 62
   190
440
 33554687
370
    15
390
5F
100
AcDbHatch
 10
0.0
 20
0.0
 30
0.0
210
0.0
220
0.0
230
1.0
  2
CwHatchPattern_201
 70
     0
 71
     0
 91
        1
 92
        3
 72
     0
 73
     1
 93
        4
 10
52639.81239942487
 20
-9456.963077964267
 10
52867.51311502571
 20
-9456.963077964267
 10
52867.51311502571
 20
-9356.963077964267
 10
52639.81239942502
 20
-9356.963077964267
 97
        0
 75
     0
 76
     2
 52
0.0
 41
2.0
 77
     0
 78
    29
 53
0.0
 43
52637.5804294425
 44
-9456.963077964267
 45
0.0
 46
100.0
 79
     2
 49
4.463939964771271
 49
-12.20273017883301
 53
90.00000000000594
 43
52623.14573911604
 44
-9443.001038016757
 45
-33.33333015441895
 46
-0.0000000000034471
 79
     2
 49
2.704629898071289
 49
-97.29537010192871
 53
90.00000000000594
 43
52639.81239942488
 44
-9373.629747809848
 45
-33.33333015441895
 46
-0.0000000000034471
 79
     2
 49
2.704629898071289
 49
-97.29537010192871
 53
104.9324645996163
 43
52656.08181981024
 44
-9436.721228541812
 45
-33.33515852016907
 46
99.99952050724798
 79
     2
 49
61.5963888168335
 49
-455.8760833740234
 53
75.06753540039557
 43
52656.87630919394
 44
-9436.721228541812
 45
-33.33515852014839
 46
-99.99952050725486
 79
     2
 49
61.5963888168335
 49
-455.8760833740234
 53
15.25511932373147
 43
52642.04436940727
 44
-9456.963077964267
 45
-33.33332910801413
 46
0.000000893548286
 79
     2
 49
4.530409872531891
 49
-375.5280685424805
 53
164.7448883056749
 43
52637.5804294425
 44
-9456.963077964267
 45
-33.33332910801371
 46
-0.0000053321564355
 79
     2
 49
4.530409872531891
 49
-375.5280685424805
 53
15.25511932373147
 43
52649.87631944594
 44
-9358.155104102572
 45
-33.33332910801413
 46
0.000000893548286
 79
     2
 49
4.530409872531891
 49
-375.5280685424805
 53
344.7448806762685
 43
52658.71102956709
 44
-9356.963077964267
 45
33.33332910801413
 46
0.000000893548286
 79
     2
 49
4.530409872531891
 49
-375.5280685424805
 53
30.96375656128134
 43
52646.41513971266
 44
-9455.771047951659
 45
-33.33333591427053
 46
-0.0000002214346662
 79
     2
 49
4.352369904518127
 49
-190.0126838684082
 53
149.0362396240333
 43
52633.18499950346
 44
-9455.771047951659
 45
-33.33333591427045
 46
0.0000024407288475
 79
     2
 49
4.352369904518127
 49
-190.0126838684082
 53
30.96375656128134
 43
52646.14419964728
 44
-9360.394388617953
 45
-33.33333591427053
 46
-0.0000002214346662
 79
     2
 49
4.352369904518127
 49
-190.0126838684082
 53
329.0362434387187
 43
52663.08180955824
 44
-9358.155104102572
 45
33.33333591427053
 46
-0.0000002214346662
 79
     2
 49
4.352369904518127
 49
-190.0126838684082
 53
45.00000000000297
 43
52650.14725951132
 44
-9453.531767906627
 45
-33.33333894439541
 46
-0.0000000000017266
 79
     2
 49
3.701289892196655
 49
-137.7200698852539
 53
135.0000000000089
 43
52629.47753933844
 44
-9453.531767906627
 45
-33.33333894439541
 46
-0.0000000000051799
 79
     2
 49
3.701289892196655
 49
-137.7200698852539
 53
45.00000000000297
 43
52643.52699933228
 44
-9363.011585654696
 45
-33.33333894439541
 46
-0.0000000000017266
 79
     2
 49
3.701289892196655
 49
-137.7200698852539
 53
314.999999999997
 43
52666.813930549
 44
-9360.394388617953
 45
33.33333894439541
 46
-0.0000000000017266
 79
     2
 49
3.701289892196655
 49
-137.7200698852539
 53
56.30993270874394
 43
52652.76446966109
 44
-9450.914567889651
 45
-33.33333501537939
 46
-0.0000037734546368
 79
     2
 49
3.882290124893188
 49
-116.3027477264404
 53
123.6900634765706
 43
52626.86032918868
 44
-9450.914567889651
 45
-33.33333501537906
 46
0.0000059927487648
 79
     2
 49
3.882290124893188
 49
-116.3027477264404
 53
56.30993270874394
 43
52641.37348947701
 44
-9366.241852225741
 45
-33.33333501537939
 46
-0.0000037734546368
 79
     2
 49
3.882290124893188
 49
-116.3027477264404
 53
303.6900672912561
 43
52669.43113950667
 44
-9363.011585654696
 45
33.33333501537939
 46
-0.0000037734546368
 79
     2
 49
3.882290124893188
 49
-116.3027477264404
 53
71.56504821777816
 43
52654.91797951636
 44
-9447.684307875117
 45
-33.3333373816329
 46
-0.0000016711047905
 79
     2
 49
4.936600029468536
 49
-100.4726600646973
 53
108.4349517822337
 43
52624.70681933341
 44
-9447.684307875117
 45
-33.3333373816329
 46
0.0000016710979054
 79
     2
 49
4.936600029468536
 49
-100.4726600646973
 53
71.56504821777816
 43
52639.81239942488
 44
-9370.925117911776
 45
-33.3333373816329
 46
-0.0000016711047905
 79
     2
 49
4.936600029468536
 49
-100.4726600646973
 53
288.4349517822218
 43
52671.5846386331
 44
-9366.241852225741
 45
33.3333373816329
 46
-0.0000016711047905
 79
     2
 49
4.936600029468536
 49
-100.4726600646973
 53
83.65980529785706
 43
52623.14573911604
 44
-9440.296417655429
 45
-33.33334276925949
 46
-200.0000100942898
 79
     2
 49
3.597190082073212
 49
-298.2489776611328
 53
96.34019470215476
 43
52656.47905973372
 44
-9440.296417655429
 45
-33.33334276930081
 46
200.000010094283
 79
     2
 49
3.597190082073212
 49
-298.2489776611328
 53
263.659820556658
 43
52639.81239942488
 44
-9373.629747809848
 45
33.3332895059925
 46
200.0000189714958
 79
     2
 49
3.597190082073212
 49
-298.2489776611328
 53
276.3401947021429
 43
52639.81239942488
 44
-9373.629747809848
 45
33.33334276925949
 46
-200.0000100942898
 79
     2
 49
3.597190082073212
 49
-298.2489776611328
 98
        0
1001
ACAD
1010
52639.81239942488
1020
-9456.963077964267
1030
0.0
  0
LWPOLYLINE
  5
302
330
1F
100
AcDbEntity
  8
Ech.1_5
  6
Continuous
 62
   190
370
    15
390
5F
100
AcDbPolyline
 90
        5
 70
     0
 43
0.0
 10
52639.81239942487
 20
-9456.963077964267
 10
52867.51311502571
 20
-9456.963077964267
 10
52867.51311502571
 20
-9356.963077964267
 10
52639.81239942502
 20
-9356.963077964267
 10
52639.81239942487
 20
-9456.963077964267
  0
HATCH
  5
303
330
1F
100
AcDbEntity
  8
Ech.1_5
  6
Continuous
 62
   254
420
 14407639
440
 33554687
370
    20
390
5F
100
AcDbHatch
 10
0.0
 20
0.0
 30
0.0
210
0.0
220
0.0
230
1.0
  2
SOLID
 70
     1
 71
     0
 91
        1
 92
        3
 72
     0
 73
     1
 93
        4
 10
52867.51311502571
 20
-9469.96291546303
 10
52867.51311502571
 20
-9456.962944055418
 10
52641.76419845876
 20
-9456.963039986886
 10
52641.76422052043
 20
-9469.96291546303
 97
        0
 75
     0
 76
     1
 98
        0
  0
LWPOLYLINE
  5
304
330
1F
100
AcDbEntity
  8
Ech.1_5
  6
Continuous
 62
   190
370
    15
390
5F
100
AcDbPolyline
 90
        5
 70
     0
 43
0.0
 10
52867.51311502571
 20
-9469.96291546303
 10
52867.51311502571
 20
-9456.962944055418
 10
52641.76419845876
 20
-9456.963039986886
 10
52641.76422052043
 20
-9469.96291546303
 10
52867.51311502571
 20
-9469.96291546303
  0
HATCH
  5
305
330
1F
100
AcDbEntity
  8
Ech.1_5
  6
Continuous
 62
   190
440
 33554687
370
    15
390
251
100
AcDbHatch
 10
0.0
 20
0.0
 30
0.0
210
0.0
220
0.0
230
1.0
  2
CwHatchPattern_84
 70
     0
 71
     0
 91
        1
 92
        3
 72
     0
 73
     1
 93
        4
 10
52867.51311502571
 20
-9469.963019839086
 10
52867.51311502571
 20
-9456.963019779467
 10
52641.76419845876
 20
-9456.963039986886
 10
52641.76419845876
 20
-9469.963040246541
 97
        0
 75
     0
 76
     2
 52
0.0
 41
1.0
 77
     0
 78
     2
 53
0.0
 43
0.0
 44
0.0
 45
0.0
 46
70.0
 79
     2
 49
0.0
 49
-70.0
 53
0.0
 43
35.0
 44
35.0
 45
0.0
 46
70.0
 79
     2
 49
0.0
 49
-70.0
 98
        0
1001
ACAD
1010
0.0
1020
0.0
1030
0.0
  0
LWPOLYLINE
  5
306
330
1F
100
AcDbEntity
  8
Ech.1_5
  6
Continuous
 62
     7
370
    20
390
5F
100
AcDbPolyline
 90
        5
 70
     0
 43
0.0
 10
52867.51311502571
 20
-9469.963019839086
 10
52867.51311502571
 20
-9456.963019779467
 10
52641.76419845876
 20
-9456.963039986886
 10
52641.76419845876
 20
-9469.963040246541
 10
52867.51311502571
 20
-9469.963019839086
  0
POLYLINE
  5
307
330
1F
100
AcDbEntity
  8
Ech.1_5
  6
CADWORK_22
 62
     1
 48
0.6
370
    35
390
5F
100
AcDb3dPolyline
 66
     1
 10
0.0
 20
0.0
 30
0.0
 70
     8
  0
VERTEX
  5
308
330
307
100
AcDbEntity
  8
Ech.1_5
  6
CADWORK_22
 62
     1
 48
0.6
370
    35
100
AcDbVertex
100
AcDb3dPolylineVertex
 10
52639.81239942487
 20
-9546.846089407863
 30
53.95071675498692
 70
    32
  0
VERTEX
  5
309
330
307
100
AcDbEntity
  8
Ech.1_5
  6
CADWORK_22
 62
     1
 48
0.6
370
    35
100
AcDbVertex
100
AcDb3dPolylineVertex
 10
52639.81239942487
 20
-9226.780287089243
 30
1632.743916533219
 70
    32
  0
SEQEND
  5
30A
330
307
100
AcDbEntity
  8
Ech.1_5
  6
CADWORK_22
 62
     1
 48
0.6
370
    35
390
5F
  0
POLYLINE
  5
30B
330
1F
100
AcDbEntity
  8
Ech.1_5
  6
CADWORK_22
 62
     1
 48
0.6
370
    35
390
5F
100
AcDb3dPolyline
 66
     1
 10
0.0
 20
0.0
 30
0.0
 70
     8
  0
VERTEX
  5
30C
330
30B
100
AcDbEntity
  8
Ech.1_5
  6
CADWORK_22
 62
     1
 48
0.6
370
    35
100
AcDbVertex
100
AcDb3dPolylineVertex
 10
52867.51311502571
 20
-9289.963077964267
 30
0.0
 70
    32
  0
VERTEX
  5
30D
330
30B
100
AcDbEntity
  8
Ech.1_5
  6
CADWORK_22
 62
     1
 48
0.6
370
    35
100
AcDbVertex
100
AcDb3dPolylineVertex
 10
52644.91206773117
 20
-9289.963077964267
 30
2500.0
 70
    32
  0
VERTEX
  5
30E
330
30B
100
AcDbEntity
  8
Ech.1_5
  6
CADWORK_22
 62
     1
 48
0.6
370
    35
100
AcDbVertex
100
AcDb3dPolylineVertex
 10
52644.91206773117
 20
-9370.957788911226
 30
2500.0
 70
    32
  0
SEQEND
  5
30F
330
30B
100
AcDbEntity
  8
Ech.1_5
  6
CADWORK_22
 62
     1
 48
0.6
370
    35
390
5F
  0
CIRCLE
  5
310
330
1F
100
AcDbEntity
  8
Ech.1_5
  6
Continuous
 62
     7
370
    20
390
5F
100
AcDbCircle
 10
52766.13349009153
 20
-9410.8931589966
 30
0.0
 40
2.518023729793135
  0
LINE
  5
311
330
1F
100
AcDbEntity
  8
Ech.1_5
  6
Continuous
 62
     7
370
    20
390
5F
100
AcDbLine
 10
52779.63359195345
 20
-9304.146078510681
 30
0.0
 11
52779.63346803922
 21
-9429.832345155772
 31
0.0
  0
CIRCLE
  5
312
330
1F
100
AcDbEntity
  8
Ech.1_5
  6
Continuous
 62
     7
370
    20
390
5F
100
AcDbCircle
 10
52766.13354248847
 20
-9365.893158996658
 30
0.0
 40
2.518023729844584
  0
ARC
  5
313
330
1F
100
AcDbEntity
  8
Ech.1_5
  6
Continuous
 62
     7
370
    20
390
5F
100
AcDbCircle
 10
52747.63346803925
 20
-9429.832307895787
 30
0.0
 40
4.99999999998272
100
AcDbArc
 50
269.9999332858438
 51
359.999933287157
  0
LINE
  5
314
330
1F
100
AcDbEntity
  8
Ech.1_5
  6
Continuous
 62
     7
370
    20
390
5F
100
AcDbLine
 10
52747.40334933685
 20
-9443.912603997049
 30
0.0
 11
52747.40335166559
 21
-9441.912603997049
 31
0.0
  0
LINE
  5
315
330
1F
100
AcDbEntity
  8
Ech.1_5
  6
Continuous
 62
     7
370
    20
390
5F
100
AcDbLine
 10
52743.63346221735
 20
-9434.832303238223
 30
0.0
 11
52747.63346221735
 21
-9434.832307895767
 31
0.0
  0
ARC
  5
316
330
1F
100
AcDbEntity
  8
Ech.1_5
  6
Continuous
 62
     7
370
    20
390
5F
100
AcDbCircle
 10
52757.39974792339
 20
-9429.327824860115
 30
0.0
 40
14.82598746648372
100
AcDbArc
 50
201.7941043664991
 51
238.1350916398017
  0
ARC
  5
317
330
1F
100
AcDbEntity
  8
Ech.1_5
  6
Continuous
 62
     7
370
    20
390
5F
100
AcDbCircle
 10
52755.94423373633
 20
-9442.80261485316
 30
0.0
 40
12.47697948302203
100
AcDbArc
 50
189.3621772420564
 51
254.6121143215138
  0
LINE
  5
318
330
1F
100
AcDbEntity
  8
Ech.1_5
  6
Continuous
 62
     7
370
    20
390
5F
100
AcDbLine
 10
52747.40334933685
 20
-9443.912603997049
 30
0.0
 11
52743.27293539981
 21
-9443.912599187699
 31
0.0
  0
LINE
  5
319
330
1F
100
AcDbEntity
  8
Ech.1_5
  6
Continuous
 62
     7
370
    20
390
5F
100
AcDbLine
 10
52743.27293539981
 20
-9443.912599187699
 30
0.0
 11
52743.27292268512
 21
-9454.83230281843
 31
0.0
  0
LINE
  5
31A
330
1F
100
AcDbEntity
  8
Ech.1_5
  6
Continuous
 62
     7
370
    20
390
5F
100
AcDbLine
 10
52747.40335166559
 20
-9441.912603997049
 30
0.0
 11
52741.27293772857
 21
-9441.912596858927
 31
0.0
  0
LINE
  5
31B
330
1F
100
AcDbEntity
  8
Ech.1_5
  6
Continuous
 62
     7
370
    20
390
5F
100
AcDbLine
 10
52741.27293772857
 20
-9441.912596858927
 30
0.0
 11
52741.27292035638
 21
-9456.832300489657
 31
0.0
  0
CIRCLE
  5
31C
330
1F
100
AcDbEntity
  8
Ech.1_5
  6
Continuous
 62
     7
370
    20
390
5F
100
AcDbCircle
 10
52766.13350755716
 20
-9395.893158996658
 30
0.0
 40
2.518023729834294
  0
CIRCLE
  5
31D
330
1F
100
AcDbEntity
  8
Ech.1_5
  6
Continuous
 62
     7
370
    20
390
5F
100
AcDbCircle
 10
52766.13347262589
 20
-9425.8931589966
 30
0.0
 40
2.51802372979828
  0
CIRCLE
  5
31E
330
1F
100
AcDbEntity
  8
Ech.1_5
  6
Continuous
 62
     7
370
    20
390
5F
100
AcDbCircle
 10
52766.13352502281
 20
-9380.893158996658
 30
0.0
 40
2.518023729834294
  0
ARC
  5
31F
330
1F
100
AcDbEntity
  8
Ech.1_5
  6
Continuous
 62
     7
370
    20
390
5F
100
AcDbCircle
 10
52774.86718932955
 20
-9429.327845198632
 30
0.0
 40
14.8259874668525
100
AcDbArc
 50
301.8647749334603
 51
338.2057622058346
  0
ARC
  5
320
330
1F
100
AcDbEntity
  8
Ech.1_5
  6
Continuous
 62
     7
370
    20
390
5F
100
AcDbCircle
 10
52786.49184617933
 20
-9441.687440691714
 30
0.0
 40
3.804859968864435
100
AcDbArc
 50
183.4966998893073
 51
304.2538340887782
  0
ARC
  5
321
330
1F
100
AcDbEntity
  8
Ech.1_5
  6
Continuous
 62
     7
370
    20
390
5F
100
AcDbCircle
 10
52776.32267213771
 20
-9442.80263858153
 30
0.0
 40
12.47697948280634
100
AcDbArc
 50
285.3877522501109
 51
350.6376893311362
  0
LINE
  5
322
330
1F
100
AcDbEntity
  8
Ech.1_5
  6
Continuous
 62
     7
370
    20
390
5F
100
AcDbLine
 10
52788.63346221733
 20
-9434.83235563513
 30
0.0
 11
52784.63346221735
 21
-9434.832350977702
 31
0.0
  0
ARC
  5
323
330
1F
100
AcDbEntity
  8
Ech.1_5
  6
Continuous
 62
     7
370
    20
390
5F
100
AcDbCircle
 10
52784.63346803933
 20
-9429.832350977598
 30
0.0
 40
5.00000000010693
100
AcDbArc
 50
179.9999332867818
 51
269.9999332847599
  0
LINE
  5
324
330
1F
100
AcDbEntity
  8
Ech.1_5
  6
Continuous
 62
     7
370
    20
390
5F
100
AcDbLine
 10
52784.86355395219
 20
-9443.912647614727
 30
0.0
 11
52784.86355628095
 21
-9441.912647614843
 31
0.0
  0
LINE
  5
325
330
1F
100
AcDbEntity
  8
Ech.1_5
  6
Continuous
 62
     7
370
    20
390
5F
100
AcDbLine
 10
52784.86355395219
 20
-9443.912647614727
 30
0.0
 11
52788.99396788923
 21
-9443.912652424076
 31
0.0
  0
LINE
  5
326
330
1F
100
AcDbEntity
  8
Ech.1_5
  6
Continuous
 62
     7
370
    20
390
5F
100
AcDbLine
 10
52788.99396788923
 20
-9443.912652424076
 30
0.0
 11
52788.9939551745
 21
-9454.832356054923
 31
0.0
  0
LINE
  5
327
330
1F
100
AcDbEntity
  8
Ech.1_5
  6
Continuous
 62
     7
370
    20
390
5F
100
AcDbLine
 10
52784.86355628095
 20
-9441.912647614843
 30
0.0
 11
52790.993970218
 21
-9441.912654752849
 31
0.0
  0
LINE
  5
328
330
1F
100
AcDbEntity
  8
Ech.1_5
  6
Continuous
 62
     7
370
    20
390
5F
100
AcDbLine
 10
52790.993970218
 20
-9441.912654752849
 30
0.0
 11
52790.99395284579
 21
-9456.832358383695
 31
0.0
  0
CIRCLE
  5
329
330
1F
100
AcDbEntity
  8
Ech.1_5
  6
Continuous
 62
     7
370
    20
390
5F
100
AcDbCircle
 10
52766.13355995411
 20
-9350.8931589966
 30
0.0
 40
2.518023729793135
  0
LINE
  5
32A
330
1F
100
AcDbEntity
  8
Ech.1_5
  6
Continuous
 62
     7
370
    20
390
5F
100
AcDbLine
 10
52752.63359195348
 20
-9304.146047072607
 30
0.0
 11
52752.63346803925
 21
-9429.832313717581
 31
0.0
  0
CIRCLE
  5
32B
330
1F
100
AcDbEntity
  8
Ech.1_5
  6
Continuous
 62
     7
370
    20
390
5F
100
AcDbCircle
 10
52766.13357741976
 20
-9335.893158996658
 30
0.0
 40
2.518023729834294
  0
LINE
  5
32C
330
1F
100
AcDbEntity
  8
Ech.1_5
  6
Continuous
 62
     7
370
    20
390
5F
100
AcDbLine
 10
52752.63359195348
 20
-9304.146047072607
 30
0.0
 11
52779.63359195345
 21
-9304.146078510681
 31
0.0
  0
LINE
  5
32D
330
1F
100
AcDbEntity
  8
Ech.1_5
  6
Continuous
 62
     7
370
    20
390
5F
100
AcDbLine
 10
52788.9939551745
 20
-9454.832356054923
 30
0.0
 11
52743.27292268512
 21
-9454.83230281843
 31
0.0
  0
LINE
  5
32E
330
1F
100
AcDbEntity
  8
Ech.1_5
  6
Continuous
 62
     7
370
    20
390
5F
100
AcDbLine
 10
52741.27292035638
 20
-9456.832300489657
 30
0.0
 11
52790.99395284579
 21
-9456.832358383695
 31
0.0
  0
ARC
  5
32F
330
1F
100
AcDbEntity
  8
Ech.1_5
  6
Continuous
 62
     7
370
    20
390
5F
100
AcDbCircle
 10
52745.7750622915
 20
-9441.68739328201
 30
0.0
 40
3.804859968910015
100
AcDbArc
 50
235.7460324844839
 51
356.5031666827437
  0
CIRCLE
  5
330
330
1F
100
AcDbEntity
  8
Ech.1_5
  6
Continuous
 62
     7
370
    20
390
5F
100
AcDbCircle
 10
52766.13357741976
 20
-9320.984747568908
 30
0.0
 40
2.518023729834294
  0
LINE
  5
331
330
1F
100
AcDbEntity
  8
Ech.1_5
  6
Continuous
 62
   190
370
    15
390
5F
100
AcDbLine
 10
52701.47906927031
 20
-9276.001038016757
 30
0.0
 11
52701.47906927031
 21
-9273.296408118686
 31
0.0
  0
LINE
  5
332
330
1F
100
AcDbEntity
  8
Ech.1_5
  6
Continuous
 62
   190
370
    15
390
5F
100
AcDbLine
 10
52734.81239942473
 20
-9276.001038016757
 30
0.0
 11
52734.81239942473
 21
-9273.296408118686
 31
0.0
  0
LINE
  5
333
330
1F
100
AcDbEntity
  8
Ech.1_5
  6
Continuous
 62
   190
370
    15
390
5F
100
AcDbLine
 10
52768.14572957915
 20
-9276.001038016757
 30
0.0
 11
52768.14572957915
 21
-9273.296408118686
 31
0.0
  0
LINE
  5
334
330
1F
100
AcDbEntity
  8
Ech.1_5
  6
Continuous
 62
   190
370
    15
390
5F
100
AcDbLine
 10
52801.47905973357
 20
-9276.001038016757
 30
0.0
 11
52801.47905973357
 21
-9273.296408118686
 31
0.0
  0
LINE
  5
335
330
1F
100
AcDbEntity
  8
Ech.1_5
  6
Continuous
 62
   190
370
    15
390
5F
100
AcDbLine
 10
52834.81238988799
 20
-9276.001038016757
 30
0.0
 11
52834.81238988799
 21
-9273.296408118686
 31
0.0
  0
LINE
  5
336
330
1F
100
AcDbEntity
  8
Ech.1_5
  6
Continuous
 62
   190
370
    15
390
5F
100
AcDbLine
 10
52687.04436940711
 20
-9289.963077964267
 30
0.0
 11
52691.4151449346
 21
-9288.771048224084
 31
0.0
  0
LINE
  5
337
330
1F
100
AcDbEntity
  8
Ech.1_5
  6
Continuous
 62
   190
370
    15
390
5F
100
AcDbLine
 10
52720.37770179148
 20
-9289.963077964267
 30
0.0
 11
52724.74847404261
 21
-9288.771049117633
 31
0.0
  0
LINE
  5
338
330
1F
100
AcDbEntity
  8
Ech.1_5
  6
Continuous
 62
   190
370
    15
390
5F
100
AcDbLine
 10
52753.71103417583
 20
-9289.963077964267
 30
0.0
 11
52758.08180315062
 21
-9288.77105001118
 31
0.0
  0
LINE
  5
339
330
1F
100
AcDbEntity
  8
Ech.1_5
  6
Continuous
 62
   190
370
    15
390
5F
100
AcDbLine
 10
52787.04436656019
 20
-9289.963077964267
 30
0.0
 11
52791.41513225864
 21
-9288.771050904728
 31
0.0
  0
LINE
  5
33A
330
1F
100
AcDbEntity
  8
Ech.1_5
  6
Continuous
 62
   190
370
    15
390
5F
100
AcDbLine
 10
52820.37769894455
 20
-9289.963077964267
 30
0.0
 11
52824.74846136665
 21
-9288.77105179828
 31
0.0
  0
LINE
  5
33B
330
1F
100
AcDbEntity
  8
Ech.1_5
  6
Continuous
 62
   190
370
    15
390
5F
100
AcDbLine
 10
52853.71103132892
 20
-9289.963077964267
 30
0.0
 11
52858.08179047467
 21
-9288.771052691829
 31
0.0
  0
LINE
  5
33C
330
1F
100
AcDbEntity
  8
Ech.1_5
  6
Continuous
 62
   190
370
    15
390
5F
100
AcDbLine
 10
52715.91375855036
 20
-9289.963072632117
 30
0.0
 11
52711.54298286414
 21
-9288.771043473938
 31
0.0
  0
LINE
  5
33D
330
1F
100
AcDbEntity
  8
Ech.1_5
  6
Continuous
 62
   190
370
    15
390
5F
100
AcDbLine
 10
52749.24708765837
 20
-9289.963067299965
 30
0.0
 11
52744.87631197216
 21
-9288.771038141786
 31
0.0
  0
LINE
  5
33E
330
1F
100
AcDbEntity
  8
Ech.1_5
  6
Continuous
 62
   190
370
    15
390
5F
100
AcDbLine
 10
52782.58041676638
 20
-9289.963061967816
 30
0.0
 11
52778.20964108017
 21
-9288.771032809636
 31
0.0
  0
LINE
  5
33F
330
1F
100
AcDbEntity
  8
Ech.1_5
  6
Continuous
 62
   190
370
    15
390
5F
100
AcDbLine
 10
52815.9137458744
 20
-9289.963056635666
 30
0.0
 11
52811.54297018819
 21
-9288.771027477487
 31
0.0
  0
LINE
  5
340
330
1F
100
AcDbEntity
  8
Ech.1_5
  6
Continuous
 62
   190
370
    15
390
5F
100
AcDbLine
 10
52849.24707498241
 20
-9289.963051303517
 30
0.0
 11
52844.8762992962
 21
-9288.771022145338
 31
0.0
  0
LINE
  5
341
330
1F
100
AcDbEntity
  8
Ech.1_5
  6
Continuous
 62
   190
370
    15
390
5F
100
AcDbLine
 10
52691.41513971251
 20
-9288.771047951657
 30
0.0
 11
52695.14726611457
 21
-9286.53177210783
 31
0.0
  0
LINE
  5
342
330
1F
100
AcDbEntity
  8
Ech.1_5
  6
Continuous
 62
   190
370
    15
390
5F
100
AcDbLine
 10
52724.74847562678
 20
-9288.771047730226
 30
0.0
 11
52728.48060202885
 21
-9286.531771886399
 31
0.0
  0
LINE
  5
343
330
1F
100
AcDbEntity
  8
Ech.1_5
  6
Continuous
 62
   190
370
    15
390
5F
100
AcDbLine
 10
52758.08181154105
 20
-9288.771047508792
 30
0.0
 11
52761.81393794312
 21
-9286.531771664964
 31
0.0
  0
LINE
  5
344
330
1F
100
AcDbEntity
  8
Ech.1_5
  6
Continuous
 62
   190
370
    15
390
5F
100
AcDbLine
 10
52791.41514745532
 20
-9288.771047287357
 30
0.0
 11
52795.14727385739
 21
-9286.53177144353
 31
0.0
  0
LINE
  5
345
330
1F
100
AcDbEntity
  8
Ech.1_5
  6
Continuous
 62
   190
370
    15
390
5F
100
AcDbLine
 10
52824.74848336959
 20
-9288.771047065926
 30
0.0
 11
52828.48060977166
 21
-9286.531771222099
 31
0.0
  0
LINE
  5
346
330
1F
100
AcDbEntity
  8
Ech.1_5
  6
Continuous
 62
   190
370
    15
390
5F
100
AcDbLine
 10
52858.08181928386
 20
-9288.771046844491
 30
0.0
 11
52861.81394568593
 21
-9286.531771000664
 31
0.0
  0
LINE
  5
347
330
1F
100
AcDbEntity
  8
Ech.1_5
  6
Continuous
 62
   190
370
    15
390
5F
100
AcDbLine
 10
52711.51833541758
 20
-9288.771050392394
 30
0.0
 11
52707.7862091646
 21
-9286.531774300085
 31
0.0
  0
LINE
  5
348
330
1F
100
AcDbEntity
  8
Ech.1_5
  6
Continuous
 62
   190
370
    15
390
5F
100
AcDbLine
 10
52744.85167133185
 20
-9288.77105283313
 30
0.0
 11
52741.11954507887
 21
-9286.531776740821
 31
0.0
  0
LINE
  5
349
330
1F
100
AcDbEntity
  8
Ech.1_5
  6
Continuous
 62
   190
370
    15
390
5F
100
AcDbLine
 10
52778.18500724612
 20
-9288.771055273863
 30
0.0
 11
52774.45288099314
 21
-9286.531779181554
 31
0.0
  0
LINE
  5
34A
330
1F
100
AcDbEntity
  8
Ech.1_5
  6
Continuous
 62
   190
370
    15
390
5F
100
AcDbLine
 10
52811.51834316039
 20
-9288.771057714597
 30
0.0
 11
52807.78621690741
 21
-9286.531781622289
 31
0.0
  0
LINE
  5
34B
330
1F
100
AcDbEntity
  8
Ech.1_5
  6
Continuous
 62
   190
370
    15
390
5F
100
AcDbLine
 10
52844.85167907467
 20
-9288.771060155334
 30
0.0
 11
52841.11955282168
 21
-9286.531784063025
 31
0.0
  0
LINE
  5
34C
330
1F
100
AcDbEntity
  8
Ech.1_5
  6
Continuous
 62
   190
370
    15
390
5F
100
AcDbLine
 10
52695.14725951117
 20
-9286.531767906627
 30
0.0
 11
52697.76446669308
 21
-9283.914560724717
 31
0.0
  0
LINE
  5
34D
330
1F
100
AcDbEntity
  8
Ech.1_5
  6
Continuous
 62
   190
370
    15
390
5F
100
AcDbLine
 10
52728.48059845556
 20
-9286.531767906627
 30
0.0
 11
52731.09780563747
 21
-9283.914560724717
 31
0.0
  0
LINE
  5
34E
330
1F
100
AcDbEntity
  8
Ech.1_5
  6
Continuous
 62
   190
370
    15
390
5F
100
AcDbLine
 10
52761.81393739996
 20
-9286.531767906627
 30
0.0
 11
52764.43114458187
 21
-9283.914560724717
 31
0.0
  0
LINE
  5
34F
330
1F
100
AcDbEntity
  8
Ech.1_5
  6
Continuous
 62
   190
370
    15
390
5F
100
AcDbLine
 10
52795.14727634436
 20
-9286.531767906627
 30
0.0
 11
52797.76448352627
 21
-9283.914560724717
 31
0.0
  0
LINE
  5
350
330
1F
100
AcDbEntity
  8
Ech.1_5
  6
Continuous
 62
   190
370
    15
390
5F
100
AcDbLine
 10
52828.48061528875
 20
-9286.531767906627
 30
0.0
 11
52831.09782247066
 21
-9283.914560724717
 31
0.0
  0
LINE
  5
351
330
1F
100
AcDbEntity
  8
Ech.1_5
  6
Continuous
 62
   190
370
    15
390
5F
100
AcDbLine
 10
52861.81395423315
 20
-9286.531767906627
 30
0.0
 11
52864.43116141506
 21
-9283.914560724717
 31
0.0
  0
LINE
  5
352
330
1F
100
AcDbEntity
  8
Ech.1_5
  6
Continuous
 62
   190
370
    15
390
5F
100
AcDbLine
 10
52707.81087828268
 20
-9286.531767906627
 30
0.0
 11
52705.19367110077
 21
-9283.914560724717
 31
0.0
  0
LINE
  5
353
330
1F
100
AcDbEntity
  8
Ech.1_5
  6
Continuous
 62
   190
370
    15
390
5F
100
AcDbLine
 10
52741.14421722708
 20
-9286.531767906627
 30
0.0
 11
52738.52701004517
 21
-9283.914560724717
 31
0.0
  0
LINE
  5
354
330
1F
100
AcDbEntity
  8
Ech.1_5
  6
Continuous
 62
   190
370
    15
390
5F
100
AcDbLine
 10
52774.47755617148
 20
-9286.531767906627
 30
0.0
 11
52771.86034898957
 21
-9283.914560724717
 31
0.0
  0
LINE
  5
355
330
1F
100
AcDbEntity
  8
Ech.1_5
  6
Continuous
 62
   190
370
    15
390
5F
100
AcDbLine
 10
52807.81089511587
 20
-9286.531767906627
 30
0.0
 11
52805.19368793396
 21
-9283.914560724717
 31
0.0
  0
LINE
  5
356
330
1F
100
AcDbEntity
  8
Ech.1_5
  6
Continuous
 62
   190
370
    15
390
5F
100
AcDbLine
 10
52841.14423406027
 20
-9286.531767906627
 30
0.0
 11
52838.52702687836
 21
-9283.914560724717
 31
0.0
  0
LINE
  5
357
330
1F
100
AcDbEntity
  8
Ech.1_5
  6
Continuous
 62
   190
370
    15
390
5F
100
AcDbLine
 10
52697.76446966093
 20
-9283.914567889651
 30
0.0
 11
52699.91797674178
 21
-9280.684307239706
 31
0.0
  0
LINE
  5
358
330
1F
100
AcDbEntity
  8
Ech.1_5
  6
Continuous
 62
   190
370
    15
390
5F
100
AcDbLine
 10
52731.09780467631
 20
-9283.9145641162
 30
0.0
 11
52733.25131175716
 21
-9280.684303466254
 31
0.0
  0
LINE
  5
359
330
1F
100
AcDbEntity
  8
Ech.1_5
  6
Continuous
 62
   190
370
    15
390
5F
100
AcDbLine
 10
52764.4311396917
 20
-9283.914560342744
 30
0.0
 11
52766.58464677254
 21
-9280.684299692799
 31
0.0
  0
LINE
  5
35A
330
1F
100
AcDbEntity
  8
Ech.1_5
  6
Continuous
 62
   190
370
    15
390
5F
100
AcDbLine
 10
52797.76447470707
 20
-9283.914556569292
 30
0.0
 11
52799.91798178792
 21
-9280.684295919347
 31
0.0
  0
LINE
  5
35B
330
1F
100
AcDbEntity
  8
Ech.1_5
  6
Continuous
 62
   190
370
    15
390
5F
100
AcDbLine
 10
52831.09780972245
 20
-9283.91455279584
 30
0.0
 11
52833.2513168033
 21
-9280.684292145896
 31
0.0
  0
LINE
  5
35C
330
1F
100
AcDbEntity
  8
Ech.1_5
  6
Continuous
 62
   190
370
    15
390
5F
100
AcDbLine
 10
52705.1936642039
 20
-9283.914573882405
 30
0.0
 11
52703.04015733812
 21
-9280.684313089081
 31
0.0
  0
LINE
  5
35D
330
1F
100
AcDbEntity
  8
Ech.1_5
  6
Continuous
 62
   190
370
    15
390
5F
100
AcDbLine
 10
52738.52699921928
 20
-9283.91457987516
 30
0.0
 11
52736.3734923535
 21
-9280.684319081836
 31
0.0
  0
LINE
  5
35E
330
1F
100
AcDbEntity
  8
Ech.1_5
  6
Continuous
 62
   190
370
    15
390
5F
100
AcDbLine
 10
52771.86033423466
 20
-9283.914585867913
 30
0.0
 11
52769.70682736888
 21
-9280.68432507459
 31
0.0
  0
LINE
  5
35F
330
1F
100
AcDbEntity
  8
Ech.1_5
  6
Continuous
 62
   190
370
    15
390
5F
100
AcDbLine
 10
52805.19366925004
 20
-9283.914591860665
 30
0.0
 11
52803.04016238426
 21
-9280.684331067341
 31
0.0
  0
LINE
  5
360
330
1F
100
AcDbEntity
  8
Ech.1_5
  6
Continuous
 62
   190
370
    15
390
5F
100
AcDbLine
 10
52838.52700426542
 20
-9283.914597853418
 30
0.0
 11
52836.37349739963
 21
-9280.684337060095
 31
0.0
  0
LINE
  5
361
330
1F
100
AcDbEntity
  8
Ech.1_5
  6
Continuous
 62
   190
370
    15
390
5F
100
AcDbLine
 10
52699.91797951621
 20
-9280.684307875117
 30
0.0
 11
52701.47906975713
 21
-9276.001037958635
 31
0.0
  0
LINE
  5
362
330
1F
100
AcDbEntity
  8
Ech.1_5
  6
Continuous
 62
   190
370
    15
390
5F
100
AcDbLine
 10
52733.25131689783
 20
-9280.684306204013
 30
0.0
 11
52734.81240713876
 21
-9276.001036287531
 31
0.0
  0
LINE
  5
363
330
1F
100
AcDbEntity
  8
Ech.1_5
  6
Continuous
 62
   190
370
    15
390
5F
100
AcDbLine
 10
52766.58465427947
 20
-9280.684304532915
 30
0.0
 11
52768.14574452039
 21
-9276.001034616433
 31
0.0
  0
LINE
  5
364
330
1F
100
AcDbEntity
  8
Ech.1_5
  6
Continuous
 62
   190
370
    15
390
5F
100
AcDbLine
 10
52799.9179916611
 20
-9280.684302861811
 30
0.0
 11
52801.47908190203
 21
-9276.001032945329
 31
0.0
  0
LINE
  5
365
330
1F
100
AcDbEntity
  8
Ech.1_5
  6
Continuous
 62
   190
370
    15
390
5F
100
AcDbLine
 10
52833.25132904274
 20
-9280.68430119071
 30
0.0
 11
52834.81241928366
 21
-9276.001031274227
 31
0.0
  0
LINE
  5
366
330
1F
100
AcDbEntity
  8
Ech.1_5
  6
Continuous
 62
   190
370
    15
390
5F
100
AcDbLine
 10
52703.04015671489
 20
-9280.684309546219
 30
0.0
 11
52701.47906647396
 21
-9276.001039629737
 31
0.0
  0
LINE
  5
367
330
1F
100
AcDbEntity
  8
Ech.1_5
  6
Continuous
 62
   190
370
    15
390
5F
100
AcDbLine
 10
52736.37349409652
 20
-9280.684311217321
 30
0.0
 11
52734.81240385559
 21
-9276.001041300839
 31
0.0
  0
LINE
  5
368
330
1F
100
AcDbEntity
  8
Ech.1_5
  6
Continuous
 62
   190
370
    15
390
5F
100
AcDbLine
 10
52769.70683147815
 20
-9280.684312888421
 30
0.0
 11
52768.14574123723
 21
-9276.001042971939
 31
0.0
  0
LINE
  5
369
330
1F
100
AcDbEntity
  8
Ech.1_5
  6
Continuous
 62
   190
370
    15
390
5F
100
AcDbLine
 10
52803.04016885978
 20
-9280.684314559525
 30
0.0
 11
52801.47907861886
 21
-9276.001044643042
 31
0.0
  0
LINE
  5
36A
330
1F
100
AcDbEntity
  8
Ech.1_5
  6
Continuous
 62
   190
370
    15
390
5F
100
AcDbLine
 10
52836.37350624142
 20
-9280.684316230627
 30
0.0
 11
52834.8124160005
 21
-9276.001046314144
 31
0.0
  0
LINE
  5
36B
330
1F
100
AcDbEntity
  8
Ech.1_5
  6
Continuous
 62
   190
370
    15
390
5F
100
AcDbLine
 10
52701.47907057861
 20
-9273.296376919903
 30
0.0
 11
52701.87631395343
 21
-9269.721188227297
 31
0.0
  0
LINE
  5
36C
330
1F
100
AcDbEntity
  8
Ech.1_5
  6
Continuous
 62
   190
370
    15
390
5F
100
AcDbLine
 10
52734.81240204135
 20
-9273.296336184378
 30
0.0
 11
52735.20964541616
 21
-9269.721147491771
 31
0.0
  0
LINE
  5
36D
330
1F
100
AcDbEntity
  8
Ech.1_5
  6
Continuous
 62
   190
370
    15
390
5F
100
AcDbLine
 10
52768.14573350407
 20
-9273.29629544885
 30
0.0
 11
52768.54297687888
 21
-9269.721106756244
 31
0.0
  0
LINE
  5
36E
330
1F
100
AcDbEntity
  8
Ech.1_5
  6
Continuous
 62
   190
370
    15
390
5F
100
AcDbLine
 10
52801.47906496679
 20
-9273.296254713325
 30
0.0
 11
52801.87630834161
 21
-9269.721066020718
 31
0.0
  0
LINE
  5
36F
330
1F
100
AcDbEntity
  8
Ech.1_5
  6
Continuous
 62
   190
370
    15
390
5F
100
AcDbLine
 10
52834.81239642952
 20
-9273.296213977801
 30
0.0
 11
52835.20963980434
 21
-9269.721025285195
 31
0.0
  0
LINE
  5
370
330
1F
100
AcDbEntity
  8
Ech.1_5
  6
Continuous
 62
   190
370
    15
390
5F
100
AcDbLine
 10
52701.47905973357
 20
-9273.296417655429
 30
0.0
 11
52701.08181635875
 21
-9269.721228962822
 31
0.0
  0
LINE
  5
371
330
1F
100
AcDbEntity
  8
Ech.1_5
  6
Continuous
 62
   190
370
    15
390
5F
100
AcDbLine
 10
52734.8123911963
 20
-9273.296458390954
 30
0.0
 11
52734.41514782148
 21
-9269.721269698348
 31
0.0
  0
LINE
  5
372
330
1F
100
AcDbEntity
  8
Ech.1_5
  6
Continuous
 62
   190
370
    15
390
5F
100
AcDbLine
 10
52768.14572265903
 20
-9273.296499126482
 30
0.0
 11
52767.74847928422
 21
-9269.721310433875
 31
0.0
  0
LINE
  5
373
330
1F
100
AcDbEntity
  8
Ech.1_5
  6
Continuous
 62
   190
370
    15
390
5F
100
AcDbLine
 10
52801.47905412175
 20
-9273.296539862007
 30
0.0
 11
52801.08181074694
 21
-9269.7213511694
 31
0.0
  0
LINE
  5
374
330
1F
100
AcDbEntity
  8
Ech.1_5
  6
Continuous
 62
   190
370
    15
390
5F
100
AcDbLine
 10
52834.81238558448
 20
-9273.296580597531
 30
0.0
 11
52834.41514220966
 21
-9269.721391904925
 31
0.0
  0
LINE
  5
375
330
1F
100
AcDbEntity
  8
Ech.1_5
370
    35
390
5F
100
AcDbLine
 10
52240.87200312034
 20
-9139.296024480906
 30
0.0
 11
52240.87200312034
 21
-9010.54126854213
 31
0.0
  0
LWPOLYLINE
  5
376
330
1F
100
AcDbEntity
  8
Ech.1_5
  6
CADWORK_12
 48
0.2000000029802322
370
    35
390
5F
100
AcDbPolyline
 90
        2
 70
     0
 43
0.0
 10
52240.87200312034
 20
-9139.296024480906
 10
52240.87200312034
 20
-9163.227490521107
  0
LWPOLYLINE
  5
377
330
1F
100
AcDbEntity
  8
Ech.1_5
 62
     3
370
    70
390
5F
100
AcDbPolyline
 90
        4
 70
     0
 43
0.0
 10
52645.60758966766
 20
-9388.024669630631
 10
52645.60758966766
 20
-9375.03553621058
 10
52651.28820262966
 20
-9371.100804069607
 10
52651.28820262966
 20
-9357.622374068775
  0
LWPOLYLINE
  5
378
330
1F
100
AcDbEntity
  8
Ech.1_5
  6
Continuous
 62
   190
370
    15
390
5F
100
AcDbPolyline
 90
       41
 70
     0
 43
0.0
 10
52101.08260156419
 20
-8897.38881123044
 10
52119.39484258645
 20
-8896.446427307512
 10
52137.2561754599
 20
-8893.642480158609
 10
52154.22679489083
 20
-8889.046012268182
 10
52169.88882790659
 20
-8882.77020393063
 10
52183.85662327502
 20
-8874.969586375357
 10
52195.78624751771
 20
-8865.836236695306
 10
52205.38395369364
 20
-8855.595048271598
 10
52212.41341442381
 20
-8844.498193151621
 10
52216.70154105558
 20
-8832.818912736851
 10
52218.14274567981
 20
-8820.844789672365
 10
52216.70154105558
 20
-8808.870666607878
 10
52212.41341442381
 20
-8797.191386193108
 10
52205.38395369364
 20
-8786.094531073131
 10
52195.78624751771
 20
-8775.853342649365
 10
52183.85662327502
 20
-8766.719992969372
 10
52169.88882790659
 20
-8758.9193754141
 10
52154.22679489083
 20
-8752.643567076548
 10
52137.2561754599
 20
-8748.04709918612
 10
52119.39484258645
 20
-8745.243152037217
 10
52101.08260156419
 20
-8744.30076811429
 10
52082.77036054194
 20
-8745.243152037217
 10
52064.90902766849
 20
-8748.04709918612
 10
52047.93840823756
 20
-8752.643567076548
 10
52032.2763752218
 20
-8758.9193754141
 10
52018.30857985336
 20
-8766.719992969372
 10
52006.37895561066
 20
-8775.853342649365
 10
51996.78124943473
 20
-8786.094531073131
 10
51989.75178870457
 20
-8797.191386193108
 10
51985.4636620728
 20
-8808.870666607878
 10
51984.02245744856
 20
-8820.844789672365
 10
51985.4636620728
 20
-8832.818912736851
 10
51989.75178870457
 20
-8844.498193151621
 10
51996.78124943473
 20
-8855.595048271598
 10
52006.37895561066
 20
-8865.836236695364
 10
52018.30857985336
 20
-8874.969586375357
 10
52032.2763752218
 20
-8882.77020393063
 10
52047.93840823756
 20
-8889.046012268182
 10
52064.90902766849
 20
-8893.642480158609
 10
52082.77036054194
 20
-8896.446427307512
 10
52101.08260156419
 20
-8897.38881123044
  0
MTEXT
  5
37A
330
1F
100
AcDbEntity
  8
Ech.1_5
  6
Continuous
 62
     4
420
    65535
390
5F
100
AcDbMText
 10
51983.01016939742
 20
-8460.526729180907
 30
0.0
 40
13.75
 41
247.6854307039684
 46
0.0
 71
     1
 72
     1
  1
{\fArial|b1|i0;\W1.000000;\H13.750000;\c16711848;COMPLEMENT LEGENDE}
  7
arial-b
 73
     1
 44
1.07999975538982
 90
        3
 63
     9
421
 13158600
 45
1.5
441
 33554687
  0
MTEXT
  5
37C
330
1F
100
AcDbEntity
  8
Ech.1_5
  6
Continuous
 62
     4
420
    65535
390
5F
100
AcDbMText
 10
51983.01016939742
 20
-8488.026729180907
 30
0.0
 40
13.75
 41
193.8487666624569
 46
0.0
 71
     1
 72
     1
  1
{\fArial|b0|i0;\W1.000000;\H13.750000;\c16711848;Bande adhésive}
  7
arial-
 73
     1
 44
1.07999975538982
 90
        3
 63
     9
421
 13158600
 45
1.5
441
 33554687
  0
MTEXT
  5
37D
330
1F
100
AcDbEntity
  8
Ech.1_5
  6
Continuous
 62
     4
420
    65535
390
5F
100
AcDbMText
 10
52588.8744367959
 20
-8748.699182293856
 30
0.0
 40
13.75
 41
122.8719190733173
 46
0.0
 71
     3
 72
     1
  1
{\fArial|b0|i0;\W1.000000;\H13.750000;\c16711848;Solive}
  7
arial-
 73
     1
 44
1.07999975538982
  0
MTEXT
  5
37E
330
1F
100
AcDbEntity
  8
Ech.1_5
  6
Continuous
 62
     4
420
    65535
390
5F
100
AcDbMText
 10
52504.78712109373
 20
-9666.635912206177
 30
0.0
 40
12.5
 41
488.3428846351962
 46
0.0
 71
     2
 72
     1
  1
{\fArial|b0|i0;\W1.000000;\H12.500000;\c16711848;Vue en coupe verticale}
  7
arial-
 73
     1
 44
1.07999975538982
  0
MTEXT
  5
37F
330
1F
100
AcDbEntity
  8
Ech.1_5
  6
Continuous
 62
     4
420
    65535
390
5F
100
AcDbMText
 10
52825.10723111458
 20
-9666.468735713519
 30
0.0
 40
12.5
 41
127.2973354065034
 46
0.0
 71
     2
 72
     1
  1
{\fArial|b0|i0;\W1.000000;\H12.500000;\c16711848;Ech 1/5 }
  7
arial-
 73
     1
 44
1.07999975538982
  0
MTEXT
  5
380
330
1F
100
AcDbEntity
  8
Ech.1_5
  6
Continuous
 62
     4
420
    65535
390
5F
100
AcDbMText
 10
52176.28806977846
 20
-9666.196979411041
 30
0.0
 40
12.5
 41
143.6552179953433
 46
0.0
 71
     2
 72
     1
  1
{\fArial|b0|i0;\W1.000000;\H12.500000;\c16711848;PI01-08 }
  7
arial-
 73
     1
 44
1.07999975538982
  0
MTEXT
  5
382
330
1F
100
AcDbEntity
  8
Ech.1_5
  6
Continuous
 62
   200
420
 11010303
390
5F
100
AcDbMText
 10
52402.50589881783
 20
-9689.216096747878
 30
0.0
 40
8.75
 41
976.25
 46
0.0
 71
     2
 72
     1
  3
{\fArial|b0|i1;\W1.000000;\H8.750000;\c16711848; Il est rappelé à l'utilisateur qui consulte le site et utilise les informations qu'il contient, qu'il doit les utiliser sous sa seule responsabilité en vérifiant leur pertinence, leur cohérence et leur
  1
 non obsolescence.}
  7
arial-i
 73
     1
 44
1.07999975538982
  0
MTEXT
  5
383
330
1F
100
AcDbEntity
  8
Ech.1_5
  6
Continuous
 62
   200
420
 11010303
390
5F
100
AcDbMText
 10
52402.50589881783
 20
-9724.00562464138
 30
0.0
 40
11.875
 41
973.125
 46
0.0
 71
     2
 72
     1
  1
{\fArial|b0|i1;\W1.000000;\H11.875000;\c16711848;www.catalogue-construction-bois.fr}
  7
arial-i
 73
     1
 44
1.07999975538982
  0
MTEXT
  5
384
330
1F
100
AcDbEntity
  8
Ech.1_5
  6
Continuous
 62
   200
420
 11010303
390
5F
100
AcDbMText
 10
52402.50589881783
 20
-9575.555016405393
 30
0.0
 40
16.25
 41
968.75
 46
0.0
 71
     2
 72
     1
  1
{\fArial|b1|i0;\W1.000000;\H16.250000;\c16711848;PLANCHER INTERMEDIAIRE TYPE 1: Solivage bois}
  7
arial-b
 73
     1
 44
1.07999975538982
  0
MTEXT
  5
385
330
1F
100
AcDbEntity
  8
Ech.1_5
  6
Continuous
 62
     4
420
    65535
390
5F
100
AcDbMText
 10
52402.50589881783
 20
-9606.911979563629
 30
0.0
 40
16.25
 41
968.75
 46
0.0
 71
     2
 72
     1
  1
{\fArial|b0|i0;\W1.000000;\H16.250000;\c16711848;Plancher sur muraillère - Solives parallèles au mur}
  7
arial-
 73
     1
 44
1.07999975538982
  0
MTEXT
  5
386
330
1F
100
AcDbEntity
  8
Ech.1_5
  6
Continuous
 62
   200
420
 11010303
390
5F
100
AcDbMText
 10
52447.80965464219
 20
-8493.540694397512
 30
0.0
 40
13.75
 41
226.1154116988255
 46
0.0
 71
     1
 72
     1
  1
{\fArial|b0|i0;\W1.000000;\H13.750000;\c16711848;MUR EXTERIEUR FILANT}
  7
arial-
 73
     1
 44
1.07999975538982
  0
MTEXT
  5
387
330
1F
100
AcDbEntity
  8
Ech.1_5
  6
Continuous
 62
   200
420
 11010303
390
5F
100
AcDbMText
 10
52298.21302972003
 20
-9401.271359442777
 30
0.0
 40
13.75
 41
210.5444427570183
 46
0.0
 71
     2
 72
     1
  1
{\fArial|b0|i0;\W1.000000;\H13.750000;\c16711848;RACCORDEMENT DE PARE-VAPEUR EN JONCTION MUR/ PLANCHER }
  7
arial-
 73
     1
 44
1.07999975538982
  0
TEXT
  5
388
330
1F
100
AcDbEntity
  8
Ech.1_5
  6
Continuous
 62
   190
390
5F
100
AcDbText
 10
52766.13820666166
 20
-8495.011166152832
 30
0.0
 40
8.0
  1
Echelle en mm
  7
arial-
100
AcDbText
  0
TEXT
  5
389
330
1F
100
AcDbEntity
  8
Ech.1_5
  6
Continuous
 62
   190
390
5F
100
AcDbText
 10
52752.15762191223
 20
-8523.221001682507
 30
0.0
 40
8.0
  1
0
  7
arial-
100
AcDbText
  0
TEXT
  5
38A
330
1F
100
AcDbEntity
  8
Ech.1_5
  6
Continuous
 62
   190
390
5F
100
AcDbText
 10
52838.75467980495
 20
-8523.221001682507
 30
0.0
 40
8.0
  1
100
  7
arial-
100
AcDbText
  0
TEXT
  5
38B
330
1F
100
AcDbEntity
  8
Ech.1_5
  6
Continuous
 62
   190
390
5F
100
AcDbText
 10
52800.01424823908
 20
-8523.221001682507
 30
0.0
 40
8.0
  1
50
  7
arial-
100
AcDbText
  0
TEXT
  5
38C
330
1F
100
AcDbEntity
  8
Ech.1_5
  6
Continuous
 62
   190
390
5F
100
AcDbText
 10
51960.17490282705
 20
-9679.186608814896
 30
0.0
 40
13.5
  1
10/02/2023
  7
arial-
100
AcDbText
  0
VIEWPORT
  5
225
330
21F
100
AcDbEntity
 67
     1
  8
0
  6
Continuous
390
5F
100
AcDbViewport
 10
98.8
 20
135.8
 30
0.0
 40
209.0608
 41
287.3528000000001
 68
     1
 69
     1
 12
128.5
 22
97.5
 13
0.0
 23
0.0
 14
10.0
 24
10.0
 15
10.0
 25
10.0
 16
0.0
 26
0.0
 36
1.0
 17
0.0
 27
0.0
 37
0.0
 42
50.0
 43
0.0
 44
0.0
 45
222.18
 50
0.0
 51
0.0
 72
   100
 90
   557152
  1

281
     0
 71
     1
 74
     0
110
0.0
120
0.0
130
0.0
111
1.0
121
0.0
131
0.0
112
0.0
122
1.0
132
0.0
 79
     0
146
0.0
170
     0
 61
     5
348
2F
292
     1
282
     1
141
0.0
142
0.0
 63
   256
361
226
  0
VIEWPORT
  5
227
330
21F
100
AcDbEntity
 67
     1
  8
0
  6
Continuous
 60
     1
390
5F
100
AcDbViewport
 10
98.8
 20
135.8
 30
0.0
 40
197.6
 41
271.6
 68
     2
 69
     2
 12
52402.50589881782
 22
-9122.860051476098
 13
0.0
 23
0.0
 14
10.0
 24
10.0
 15
10.0
 25
10.0
 16
0.0
 26
0.0
 36
1.0
 17
0.0
 27
0.0
 37
0.0
 42
50.0
 43
0.0
 44
0.0
 45
1358.0
 50
0.0
 51
0.0
 72
   100
 90
   557152
  1

281
     0
 71
     1
 74
     0
110
0.0
120
0.0
130
0.0
111
1.0
121
0.0
131
0.0
112
0.0
122
1.0
132
0.0
 79
     0
146
0.0
170
     0
 61
     5
348
2F
292
     1
282
     1
141
0.0
142
0.0
 63
   256
  0
ENDSEC
  0
SECTION
  2
OBJECTS
  0
DICTIONARY
  5
C
330
0
100
AcDbDictionary
281
     1
  3
ACAD_DETAILVIEWSTYLE
350
394
  3
ACAD_GROUP
350
D
  3
ACAD_IMAGE_VARS
350
60
  3
ACAD_LAYOUT
350
1A
  3
ACAD_MATERIAL
350
43
  3
ACAD_MLEADERSTYLE
350
5B
  3
ACAD_MLINESTYLE
350
17
  3
ACAD_PLOTSETTINGS
350
19
  3
ACAD_PLOTSTYLENAME
350
E
  3
ACAD_SCALELIST
350
47
  3
ACAD_SECTIONVIEWSTYLE
350
395
  3
ACAD_TABLESTYLE
350
59
  3
ACAD_VISUALSTYLE
350
2A
  3
ACAD_WIPEOUT_VARS
350
61
  3
ACDB_RECOMPOSE_DATA
350
391
  3
AcDbVariableDictionary
350
38D
  0
SUN
  5
5D
330
29
100
AcDbSun
 90
        1
290
     0
 63
     7
421
 16777215
 40
1.0
291
     1
 91
  2455826
 92
 54000000
292
     0
 70
     2
 71
   256
280
     1
  0
SUN
  5
226
330
225
100
AcDbSun
 90
        1
290
     0
 63
     7
421
 16777215
 40
1.0
291
     1
 91
  2455826
 92
 54000000
292
     0
 70
     2
 71
   256
280
     1
  0
DICTIONARY
  5
394
102
{ACAD_REACTORS
330
C
102
}
330
C
100
AcDbDictionary
281
     1
  0
DICTIONARY
  5
D
102
{ACAD_REACTORS
330
C
102
}
330
C
100
AcDbDictionary
281
     1
  0
RASTERVARIABLES
  5
60
102
{ACAD_REACTORS
330
C
102
}
330
C
100
AcDbRasterVariables
 90
        0
 70
     0
 71
     1
 72
     1
  0
DICTIONARY
  5
1A
102
{ACAD_REACTORS
330
C
102
}
330
C
100
AcDbDictionary
281
     1
  3
CompleteLayout
350
1E
  3
Model
350
22
  3
PrintFrame_8
350
220
  0
DICTIONARY
  5
43
102
{ACAD_REACTORS
330
C
102
}
330
C
100
AcDbDictionary
281
     1
  3
ByBlock
350
45
  3
ByLayer
350
44
  3
Global
350
46
  0
DICTIONARY
  5
5B
102
{ACAD_REACTORS
330
C
102
}
330
C
100
AcDbDictionary
281
     1
  3
Standard
350
5C
  0
DICTIONARY
  5
17
102
{ACAD_REACTORS
330
C
102
}
330
C
100
AcDbDictionary
281
     1
  3
Standard
350
18
  0
DICTIONARY
  5
19
102
{ACAD_REACTORS
330
C
102
}
330
C
100
AcDbDictionary
281
     1
  3
PlotSettings_
350
223
  0
ACDBDICTIONARYWDFLT
  5
E
102
{ACAD_REACTORS
330
C
102
}
330
C
100
AcDbDictionary
281
     1
  3
flat
350
5F
  3
Normal
350
F
  3
round
350
251
100
AcDbDictionaryWithDefault
340
F
  0
DICTIONARY
  5
47
102
{ACAD_REACTORS
330
C
102
}
330
C
100
AcDbDictionary
281
     1
  3
A0
350
48
  3
A1
350
49
  3
A2
350
4A
  3
A3
350
4B
  3
A4
350
4C
  3
A5
350
4D
  3
A6
350
4E
  3
A7
350
4F
  3
A8
350
50
  3
A9
350
51
  3
B0
350
52
  3
B1
350
53
  3
B2
350
54
  3
B3
350
55
  3
B4
350
56
  3
B5
350
57
  3
B6
350
58
  0
DICTIONARY
  5
395
102
{ACAD_REACTORS
330
C
102
}
330
C
100
AcDbDictionary
281
     1
  0
DICTIONARY
  5
59
102
{ACAD_REACTORS
330
C
102
}
330
C
100
AcDbDictionary
281
     1
  3
Standard
350
5A
  0
DICTIONARY
  5
2A
102
{ACAD_REACTORS
330
C
102
}
330
C
100
AcDbDictionary
281
     1
  3
2dWireframe
350
2F
  3
Basic
350
32
  3
Brighten
350
36
  3
ColorChange
350
3A
  3
Conceptual
350
34
  3
Dim
350
35
  3
EdgeColorOff
350
3D
  3
Facepattern
350
39
  3
Flat
350
2B
  3
FlatWithEdges
350
2C
  3
Gouraud
350
2D
  3
GouraudWithEdges
350
2E
  3
Hidden
350
31
  3
JitterOff
350
3B
  3
Linepattern
350
38
  3
OverhangOff
350
3C
  3
Realistic
350
33
  3
Shaded
350
42
  3
Shaded with edges
350
41
  3
Shades of Gray
350
3E
  3
Sketchy
350
3F
  3
Thicken
350
37
  3
Wireframe
350
30
  3
X-Ray
350
40
  0
WIPEOUTVARIABLES
  5
61
102
{ACAD_REACTORS
330
C
102
}
330
C
100
AcDbWipeoutVariables
 70
     0
  0
XRECORD
  5
391
102
{ACAD_REACTORS
330
C
102
}
330
C
100
AcDbXrecord
280
     1
 90
        1
330
5A
  0
DICTIONARY
  5
38D
102
{ACAD_REACTORS
330
C
102
}
330
C
100
AcDbDictionary
281
     1
  3
CANNOSCALE
350
38E
  3
CENTEREXE
350
397
  3
CENTERLTYPEFILE
350
398
  3
CMLEADERSTYLE
350
393
  3
CTABLESTYLE
350
392
  3
WIPEOUTFRAME
350
396
  0
LAYOUT
  5
1E
102
{ACAD_REACTORS
330
1A
102
}
330
1A
100
AcDbPlotSettings
  1

  2
none_device
  4

  6

 40
0.0
 41
0.0
 42
0.0
 43
0.0
 44
0.0
 45
0.0
 46
0.0
 47
0.0
 48
0.0
 49
0.0
140
0.0
141
0.0
142
1.0
143
1.0
 70
   688
 72
     1
 73
     0
 74
     5
  7

 75
    16
 76
     0
 77
     2
 78
   300
147
1.0
148
0.0
149
0.0
100
AcDbLayout
  1
CompleteLayout
 70
     1
 71
     1
 10
0.0
 20
0.0
 11
420.0
 21
297.0
 12
0.0
 22
0.0
 32
0.0
 14
1.000000000000000E+20
 24
1.000000000000000E+20
 34
1.000000000000000E+20
 15
-1.000000000000000E+20
 25
-1.000000000000000E+20
 35
-1.000000000000000E+20
146
0.0
 13
0.0
 23
0.0
 33
0.0
 16
1.0
 26
0.0
 36
0.0
 17
0.0
 27
1.0
 37
0.0
 76
     0
330
1B
  0
LAYOUT
  5
22
102
{ACAD_REACTORS
330
1A
102
}
330
1A
100
AcDbPlotSettings
  1

  2
none_device
  4
Letter_(8.50_x_11.00_Inches)
  6

 40
6.35
 41
6.35
 42
6.35000508
 43
6.35000508
 44
215.9
 45
279.4
 46
0.0
 47
0.0
 48
0.0
 49
0.0
140
0.0
141
0.0
142
1.0
143
1.0
 70
  1712
 72
     1
 73
     0
 74
     0
  7

 75
     0
 76
     0
 77
     2
 78
   300
147
1.0
148
0.0
149
0.0
100
AcDbLayout
  1
Model
 70
     1
 71
     0
 10
0.0
 20
0.0
 11
420.0
 21
297.0
 12
0.0
 22
0.0
 32
0.0
 14
40816.40509298422
 24
-10009.76953189872
 34
0.0
 15
58809.49529936429
 25
-6487.599331055761
 35
2500.0
146
0.0
 13
0.0
 23
0.0
 33
0.0
 16
1.0
 26
0.0
 36
0.0
 17
0.0
 27
1.0
 37
0.0
 76
     0
330
1F
331
29
  0
LAYOUT
  5
220
102
{ACAD_REACTORS
330
1A
102
}
330
1A
100
AcDbPlotSettings
  1
PlotSettings_
  2
Custom Device
  4
Custom_210.000000x297.000000_12.700000_12.700000_6.200000_6.200000
  6

 40
6.2
 41
12.7
 42
6.2
 43
12.7
 44
210.0
 45
297.0
 46
0.0000000000000142
 47
0.0
 48
0.0
 49
0.0
140
197.6
141
271.6
142
1.0
143
1.0
 70
   756
 72
     1
 73
     0
 74
     4
  7

 75
     0
 76
     0
 77
     2
 78
   300
147
1.0
148
0.0
149
0.0
100
AcDbLayout
  1
PrintFrame_8
 70
     0
 71
     2
 10
-20.0
 20
-7.5
 11
277.0
 21
202.5
 12
0.0
 22
0.0
 32
0.0
 14
-5.730400000000003
 24
-7.876400000000018
 34
0.0
 15
203.3304
 25
279.4764
 35
0.0
146
0.0
 13
0.0
 23
0.0
 33
0.0
 16
1.0
 26
0.0
 36
0.0
 17
0.0
 27
1.0
 37
0.0
 76
     0
330
21F
331
225
1001
PLOTTRANSPARENCY
1071
        1
1000
layout-user-created
1070
     1
1000
layout-line-weight-scale
1042
1.0
  0
MATERIAL
  5
45
102
{ACAD_REACTORS
330
43
102
}
330
43
100
AcDbMaterial
  1
ByBlock
 72
     1
 94
      127
  0
MATERIAL
  5
44
102
{ACAD_REACTORS
330
43
102
}
330
43
100
AcDbMaterial
  1
ByLayer
 72
     1
 94
      127
  0
MATERIAL
  5
46
102
{ACAD_REACTORS
330
43
102
}
330
43
100
AcDbMaterial
  1
Global
 72
     1
 94
      127
  0
MLEADERSTYLE
  5
5C
102
{ACAD_REACTORS
330
5B
102
}
330
5B
100
AcDbMLeaderStyle
179
     2
170
     2
171
     1
172
     0
 90
        2
 40
0.0
 41
0.0
173
     1
 91
-1056964608
340
14
 92
       -2
290
     1
 42
2.0
291
     1
 43
8.0
  3
Standard
341
0
 44
4.0
300

342
11
174
     1
178
     6
175
     1
176
     0
 93
-1056964608
 45
4.0
292
     0
297
     0
 46
4.0
343
0
 94
-1056964608
 47
1.0
 49
1.0
140
1.0
293
     1
141
0.0
294
     1
177
     0
142
1.0
295
     0
296
     0
143
3.75
271
     0
272
     9
273
     9
298
     0
  0
MLINESTYLE
  5
18
102
{ACAD_REACTORS
330
17
102
}
330
17
100
AcDbMlineStyle
  2
Standard
 70
     0
  3

 62
   256
 51
90.0
 52
90.0
 71
     2
 49
0.5
 62
   256
  6
BYLAYER
 49
-0.5
 62
   256
  6
BYLAYER
  0
PLOTSETTINGS
  5
223
102
{ACAD_REACTORS
330
19
102
}
330
19
100
AcDbPlotSettings
  1
PlotSettings_
  2
Custom Device
  4
Custom_210.000000x297.000000_12.700000_12.700000_6.200000_6.200000
  6

 40
6.2
 41
12.7
 42
6.2
 43
12.7
 44
210.0
 45
297.0
 46
0.0000000000000142
 47
0.0
 48
0.0
 49
0.0
140
197.6
141
271.6
142
1.0
143
1.0
 70
   756
 72
     1
 73
     0
 74
     4
  7

 75
     0
 76
     0
 77
     2
 78
   300
147
1.0
148
0.0
149
0.0
1001
PLOTTRANSPARENCY
1071
        1
1000
layout-user-created
1070
     1
1000
layout-line-weight-scale
1042
1.0
  0
ACDBPLACEHOLDER
  5
5F
102
{ACAD_REACTORS
330
E
102
}
330
E
  0
ACDBPLACEHOLDER
  5
F
102
{ACAD_REACTORS
330
E
102
}
330
E
  0
ACDBPLACEHOLDER
  5
251
102
{ACAD_REACTORS
330
E
102
}
330
E
  0
SCALE
  5
48
102
{ACAD_REACTORS
330
47
102
}
330
47
100
AcDbScale
 70
     0
300
1:1
140
1.0
141
1.0
290
     1
  0
SCALE
  5
49
102
{ACAD_REACTORS
330
47
102
}
330
47
100
AcDbScale
 70
     0
300
1:2
140
1.0
141
2.0
290
     0
  0
SCALE
  5
4A
102
{ACAD_REACTORS
330
47
102
}
330
47
100
AcDbScale
 70
     0
300
1:4
140
1.0
141
4.0
290
     0
  0
SCALE
  5
4B
102
{ACAD_REACTORS
330
47
102
}
330
47
100
AcDbScale
 70
     0
300
1:5
140
1.0
141
5.0
290
     0
  0
SCALE
  5
4C
102
{ACAD_REACTORS
330
47
102
}
330
47
100
AcDbScale
 70
     0
300
1:8
140
1.0
141
8.0
290
     0
  0
SCALE
  5
4D
102
{ACAD_REACTORS
330
47
102
}
330
47
100
AcDbScale
 70
     0
300
1:10
140
1.0
141
10.0
290
     0
  0
SCALE
  5
4E
102
{ACAD_REACTORS
330
47
102
}
330
47
100
AcDbScale
 70
     0
300
1:16
140
1.0
141
16.0
290
     0
  0
SCALE
  5
4F
102
{ACAD_REACTORS
330
47
102
}
330
47
100
AcDbScale
 70
     0
300
1:20
140
1.0
141
20.0
290
     0
  0
SCALE
  5
50
102
{ACAD_REACTORS
330
47
102
}
330
47
100
AcDbScale
 70
     0
300
1:30
140
1.0
141
30.0
290
     0
  0
SCALE
  5
51
102
{ACAD_REACTORS
330
47
102
}
330
47
100
AcDbScale
 70
     0
300
1:40
140
1.0
141
40.0
290
     0
  0
SCALE
  5
52
102
{ACAD_REACTORS
330
47
102
}
330
47
100
AcDbScale
 70
     0
300
1:50
140
1.0
141
50.0
290
     0
  0
SCALE
  5
53
102
{ACAD_REACTORS
330
47
102
}
330
47
100
AcDbScale
 70
     0
300
1:100
140
1.0
141
100.0
290
     0
  0
SCALE
  5
54
102
{ACAD_REACTORS
330
47
102
}
330
47
100
AcDbScale
 70
     0
300
2:1
140
2.0
141
1.0
290
     0
  0
SCALE
  5
55
102
{ACAD_REACTORS
330
47
102
}
330
47
100
AcDbScale
 70
     0
300
4:1
140
4.0
141
1.0
290
     0
  0
SCALE
  5
56
102
{ACAD_REACTORS
330
47
102
}
330
47
100
AcDbScale
 70
     0
300
8:1
140
8.0
141
1.0
290
     0
  0
SCALE
  5
57
102
{ACAD_REACTORS
330
47
102
}
330
47
100
AcDbScale
 70
     0
300
10:1
140
10.0
141
1.0
290
     0
  0
SCALE
  5
58
102
{ACAD_REACTORS
330
47
102
}
330
47
100
AcDbScale
 70
     0
300
100:1
140
100.0
141
1.0
290
     0
  0
TABLESTYLE
  5
5A
102
{ACAD_REACTORS
330
59
102
}
102
{ACAD_XDICTIONARY
360
38F
102
}
330
59
100
AcDbTableStyle
  3
Standard
 70
     0
 71
     0
 40
0.06
 41
0.06
280
     0
281
     0
  7
Standard
140
4.5
170
     2
 62
     0
 63
   257
283
     0
 90
        4
 91
        0
  1

274
    -2
284
     1
 64
     0
275
    -2
285
     1
 65
     0
276
    -2
286
     1
 66
     0
277
    -2
287
     1
 67
     0
278
    -2
288
     1
 68
     0
279
    -2
289
     1
 69
     0
  7
Standard
140
6.0
170
     5
 62
     0
 63
   257
283
     0
 90
        4
 91
        0
  1

274
    -2
284
     1
 64
     0
275
    -2
285
     1
 65
     0
276
    -2
286
     1
 66
     0
277
    -2
287
     1
 67
     0
278
    -2
288
     1
 68
     0
279
    -2
289
     1
 69
     0
  7
Standard
140
4.5
170
     5
 62
     0
 63
   257
283
     0
 90
        4
 91
        0
  1

274
    -2
284
     1
 64
     0
275
    -2
285
     1
 65
     0
276
    -2
286
     1
 66
     0
277
    -2
287
     1
 67
     0
278
    -2
288
     1
 68
     0
279
    -2
289
     1
 69
     0
  0
VISUALSTYLE
  5
2F
102
{ACAD_REACTORS
330
2A
102
}
330
2A
100
AcDbVisualStyle
  2
2dWireframe
 70
     4
177
     3
291
     0
 70
    58
 90
        0
176
     1
 90
        2
176
     1
 90
        0
176
     1
 90
        0
176
     1
 40
0.6
176
     1
 40
30.0
176
     1
 62
     7
420
 16777215
176
     1
 90
        1
176
     1
 90
        4
176
     1
 62
     7
176
     1
 62
   257
176
     1
 90
        1
176
     1
 90
        1
176
     1
 40
1.0
176
     1
 90
        0
176
     1
 62
   257
176
     1
 40
1.0
176
     1
 90
        1
176
     1
 90
        6
176
     1
 90
        2
176
     1
 62
     7
176
     1
 90
        5
176
     1
 90
        0
176
     1
 90
        0
176
     1
290
     0
176
     1
 90
        1
176
     1
 40
0.0
176
     1
 90
        0
176
     1
290
     1
176
     1
290
     1
176
     1
290
     0
176
     1
290
     0
176
     1
290
     0
176
     1
290
     0
176
     1
290
     0
176
     1
290
     0
176
     1
290
     0
176
     1
 90
       50
176
     1
 40
0.0
176
     1
 40
1.0
176
     1
 90
        0
176
     1
 62
    18
420
        0
176
     1
 90
       50
176
     1
 90
        3
176
     1
 62
     5
420
      255
176
     1
290
     0
176
     1
 90
       50
176
     1
 90
       50
176
     1
 90
       50
176
     1
290
     0
176
     1
 90
       50
176
     1
 62
   256
176
     0
 40
1.0
176
     0
 90
        2
176
     1
  1
strokes_ogs.tif
176
     1
290
     0
176
     1
 40
1.0
176
     1
 40
1.0
176
     1
  0
VISUALSTYLE
  5
32
102
{ACAD_REACTORS
330
2A
102
}
330
2A
100
AcDbVisualStyle
  2
Basic
 70
     7
177
     3
291
     1
 70
    58
 90
        1
176
     1
 90
        0
176
     1
 90
        1
176
     1
 90
        0
176
     1
 40
0.6
176
     1
 40
30.0
176
     1
 62
     7
420
 16777215
176
     1
 90
        0
176
     1
 90
        4
176
     1
 62
     7
176
     1
 62
   257
176
     1
 90
        1
176
     1
 90
        1
176
     1
 40
1.0
176
     1
 90
        8
176
     1
 62
     7
176
     1
 40
1.0
176
     1
 90
        1
176
     1
 90
        6
176
     1
 90
        2
176
     1
 62
     7
176
     1
 90
        5
176
     1
 90
        0
176
     1
 90
        0
176
     1
290
     0
176
     1
 90
        1
176
     1
 40
0.0
176
     1
 90
        0
176
     1
290
     0
176
     1
290
     1
176
     1
290
     1
176
     1
290
     0
176
     1
290
     0
176
     1
290
     0
176
     1
290
     0
176
     1
290
     0
176
     1
290
     0
176
     1
 90
       50
176
     1
 40
0.0
176
     1
 40
1.0
176
     1
 90
        0
176
     1
 62
    18
420
        0
176
     1
 90
       50
176
     1
 90
        3
176
     1
 62
     5
420
      255
176
     1
290
     0
176
     1
 90
       50
176
     1
 90
       50
176
     1
 90
       50
176
     1
290
     0
176
     1
 90
       50
176
     1
 62
   256
176
     0
 40
1.0
176
     0
 90
        2
176
     1
  1
strokes_ogs.tif
176
     1
290
     0
176
     1
 40
1.0
176
     1
 40
1.0
176
     1
  0
VISUALSTYLE
  5
36
102
{ACAD_REACTORS
330
2A
102
}
330
2A
100
AcDbVisualStyle
  2
Brighten
 70
    12
177
     3
291
     1
 70
    58
 90
        2
176
     1
 90
        2
176
     1
 90
        0
176
     1
 90
        0
176
     1
 40
0.6
176
     1
 40
30.0
176
     1
 62
     7
420
 16777215
176
     1
 90
        1
176
     1
 90
        4
176
     1
 62
     7
176
     1
 62
   257
176
     1
 90
        1
176
     1
 90
        1
176
     1
 40
1.0
176
     1
 90
        8
176
     1
 62
     7
176
     1
 40
1.0
176
     1
 90
        1
176
     1
 90
        6
176
     1
 90
        2
176
     1
 62
     7
176
     1
 90
        5
176
     1
 90
        0
176
     1
 90
        0
176
     1
290
     0
176
     1
 90
        1
176
     1
 40
50.0
176
     1
 90
        0
176
     1
290
     0
176
     1
290
     1
176
     1
290
     1
176
     1
290
     0
176
     1
290
     0
176
     1
290
     0
176
     1
290
     0
176
     1
290
     0
176
     1
290
     0
176
     1
 90
       50
176
     1
 40
0.0
176
     1
 40
1.0
176
     1
 90
        0
176
     1
 62
    18
420
        0
176
     1
 90
       50
176
     1
 90
        3
176
     1
 62
     5
420
      255
176
     1
290
     0
176
     1
 90
       50
176
     1
 90
       50
176
     1
 90
       50
176
     1
290
     0
176
     1
 90
       50
176
     1
 62
   256
176
     0
 40
1.0
176
     0
 90
        2
176
     1
  1
strokes_ogs.tif
176
     1
290
     0
176
     1
 40
1.0
176
     1
 40
1.0
176
     1
  0
VISUALSTYLE
  5
3A
102
{ACAD_REACTORS
330
2A
102
}
330
2A
100
AcDbVisualStyle
  2
ColorChange
 70
    16
177
     3
291
     1
 70
    58
 90
        2
176
     1
 90
        2
176
     1
 90
        3
176
     1
 90
        0
176
     1
 40
0.6
176
     1
 40
30.0
176
     1
 62
     8
420
  8421504
176
     1
 90
        1
176
     1
 90
        4
176
     1
 62
     7
176
     1
 62
   257
176
     1
 90
        1
176
     1
 90
        1
176
     1
 40
1.0
176
     1
 90
        8
176
     1
 62
     8
420
  8421504
176
     1
 40
1.0
176
     1
 90
        1
176
     1
 90
        6
176
     1
 90
        2
176
     1
 62
     7
176
     1
 90
        5
176
     1
 90
        0
176
     1
 90
        0
176
     1
290
     0
176
     1
 90
        1
176
     1
 40
0.0
176
     1
 90
        0
176
     1
290
     0
176
     1
290
     1
176
     1
290
     1
176
     1
290
     0
176
     1
290
     0
176
     1
290
     0
176
     1
290
     0
176
     1
290
     0
176
     1
290
     0
176
     1
 90
       50
176
     1
 40
0.0
176
     1
 40
1.0
176
     1
 90
        0
176
     1
 62
    18
420
        0
176
     1
 90
       50
176
     1
 90
        3
176
     1
 62
     5
420
      255
176
     1
290
     0
176
     1
 90
       50
176
     1
 90
       50
176
     1
 90
       50
176
     1
290
     0
176
     1
 90
       50
176
     1
 62
   256
176
     0
 40
1.0
176
     0
 90
        2
176
     1
  1
strokes_ogs.tif
176
     1
290
     0
176
     1
 40
1.0
176
     1
 40
1.0
176
     1
  0
VISUALSTYLE
  5
34
102
{ACAD_REACTORS
330
2A
102
}
330
2A
100
AcDbVisualStyle
  2
Conceptual
 70
     9
177
     3
291
     0
 70
    58
 90
        3
176
     1
 90
        2
176
     1
 90
        0
176
     1
 90
        0
176
     1
 40
0.6
176
     1
 40
30.0
176
     1
 62
     7
420
 16777215
176
     1
 90
        2
176
     1
 90
        2
176
     1
 62
     7
176
     1
 62
   257
176
     1
 90
        1
176
     1
 90
        1
176
     1
 40
179.0
176
     1
 90
        8
176
     1
 62
     7
176
     1
 40
1.0
176
     1
 90
        1
176
     1
 90
        6
176
     1
 90
        2
176
     1
 62
     7
176
     1
 90
        3
176
     1
 90
        0
176
     1
 90
        0
176
     1
290
     0
176
     1
 90
        1
176
     1
 40
0.0
176
     1
 90
        0
176
     1
290
     0
176
     1
290
     1
176
     1
290
     1
176
     1
290
     0
176
     1
290
     0
176
     1
290
     0
176
     1
290
     0
176
     1
290
     0
176
     1
290
     0
176
     1
 90
       50
176
     1
 40
0.0
176
     1
 40
1.0
176
     1
 90
        0
176
     1
 62
    18
420
        0
176
     1
 90
       50
176
     1
 90
        3
176
     1
 62
     5
420
      255
176
     1
290
     0
176
     1
 90
       50
176
     1
 90
       50
176
     1
 90
       50
176
     1
290
     0
176
     1
 90
       50
176
     1
 62
   256
176
     0
 40
1.0
176
     0
 90
        2
176
     1
  1
strokes_ogs.tif
176
     1
290
     0
176
     1
 40
1.0
176
     1
 40
1.0
176
     1
  0
VISUALSTYLE
  5
35
102
{ACAD_REACTORS
330
2A
102
}
330
2A
100
AcDbVisualStyle
  2
Dim
 70
    11
177
     3
291
     1
 70
    58
 90
        2
176
     1
 90
        2
176
     1
 90
        0
176
     1
 90
        0
176
     1
 40
0.6
176
     1
 40
30.0
176
     1
 62
     7
420
 16777215
176
     1
 90
        1
176
     1
 90
        4
176
     1
 62
     7
176
     1
 62
   257
176
     1
 90
        1
176
     1
 90
        1
176
     1
 40
1.0
176
     1
 90
        8
176
     1
 62
     7
176
     1
 40
1.0
176
     1
 90
        1
176
     1
 90
        6
176
     1
 90
        2
176
     1
 62
     7
176
     1
 90
        5
176
     1
 90
        0
176
     1
 90
        0
176
     1
290
     0
176
     1
 90
        1
176
     1
 40
-50.0
176
     1
 90
        0
176
     1
290
     0
176
     1
290
     1
176
     1
290
     1
176
     1
290
     0
176
     1
290
     0
176
     1
290
     0
176
     1
290
     0
176
     1
290
     0
176
     1
290
     0
176
     1
 90
       50
176
     1
 40
0.0
176
     1
 40
1.0
176
     1
 90
        0
176
     1
 62
    18
420
        0
176
     1
 90
       50
176
     1
 90
        3
176
     1
 62
     5
420
      255
176
     1
290
     0
176
     1
 90
       50
176
     1
 90
       50
176
     1
 90
       50
176
     1
290
     0
176
     1
 90
       50
176
     1
 62
   256
176
     0
 40
1.0
176
     0
 90
        2
176
     1
  1
strokes_ogs.tif
176
     1
290
     0
176
     1
 40
1.0
176
     1
 40
1.0
176
     1
  0
VISUALSTYLE
  5
3D
102
{ACAD_REACTORS
330
2A
102
}
330
2A
100
AcDbVisualStyle
  2
EdgeColorOff
 70
    22
177
     3
291
     1
 70
    58
 90
        2
176
     0
 90
        2
176
     0
 90
        0
176
     0
 90
        0
176
     0
 40
0.6
176
     0
 40
30.0
176
     0
 62
     7
420
 16777215
176
     0
 90
        1
176
     0
 90
        4
176
     0
 62
     7
176
     0
 62
   257
176
     0
 90
        1
176
     0
 90
        1
176
     0
 40
1.0
176
     0
 90
        8
176
     2
 62
     7
176
     0
 40
1.0
176
     0
 90
        1
176
     0
 90
        6
176
     0
 90
        2
176
     0
 62
     7
176
     0
 90
        5
176
     0
 90
        0
176
     0
 90
        0
176
     0
290
     0
176
     0
 90
        1
176
     0
 40
0.0
176
     0
 90
        0
176
     0
290
     0
176
     0
290
     1
176
     0
290
     1
176
     0
290
     0
176
     0
290
     0
176
     0
290
     0
176
     0
290
     0
176
     0
290
     0
176
     0
290
     0
176
     0
 90
       50
176
     0
 40
0.0
176
     0
 40
1.0
176
     0
 90
        0
176
     0
 62
    18
420
        0
176
     0
 90
       50
176
     0
 90
        3
176
     0
 62
     5
420
      255
176
     0
290
     0
176
     0
 90
       50
176
     0
 90
       50
176
     0
 90
       50
176
     0
290
     0
176
     0
 90
       50
176
     0
 62
   256
176
     0
 40
1.0
176
     0
 90
        2
176
     0
  1
strokes_ogs.tif
176
     0
290
     0
176
     0
 40
1.0
176
     0
 40
1.0
176
     0
  0
VISUALSTYLE
  5
39
102
{ACAD_REACTORS
330
2A
102
}
330
2A
100
AcDbVisualStyle
  2
Facepattern
 70
    15
177
     3
291
     1
 70
    58
 90
        2
176
     1
 90
        2
176
     1
 90
        0
176
     1
 90
        0
176
     1
 40
0.6
176
     1
 40
30.0
176
     1
 62
     7
420
 16777215
176
     1
 90
        1
176
     1
 90
        4
176
     1
 62
     7
176
     1
 62
   257
176
     1
 90
        1
176
     1
 90
        1
176
     1
 40
1.0
176
     1
 90
        8
176
     1
 62
     7
176
     1
 40
1.0
176
     1
 90
        1
176
     1
 90
        6
176
     1
 90
        2
176
     1
 62
     7
176
     1
 90
        5
176
     1
 90
        0
176
     1
 90
        0
176
     1
290
     0
176
     1
 90
        1
176
     1
 40
0.0
176
     1
 90
        0
176
     1
290
     0
176
     1
290
     1
176
     1
290
     1
176
     1
290
     0
176
     1
290
     0
176
     1
290
     0
176
     1
290
     0
176
     1
290
     0
176
     1
290
     0
176
     1
 90
       50
176
     1
 40
0.0
176
     1
 40
1.0
176
     1
 90
        0
176
     1
 62
    18
420
        0
176
     1
 90
       50
176
     1
 90
        3
176
     1
 62
     5
420
      255
176
     1
290
     0
176
     1
 90
       50
176
     1
 90
       50
176
     1
 90
       50
176
     1
290
     0
176
     1
 90
       50
176
     1
 62
   256
176
     0
 40
1.0
176
     0
 90
        2
176
     1
  1
strokes_ogs.tif
176
     1
290
     0
176
     1
 40
1.0
176
     1
 40
1.0
176
     1
  0
VISUALSTYLE
  5
2B
102
{ACAD_REACTORS
330
2A
102
}
330
2A
100
AcDbVisualStyle
  2
Flat
 70
     0
177
     3
291
     1
 70
    58
 90
        2
176
     1
 90
        1
176
     1
 90
        1
176
     1
 90
        2
176
     1
 40
0.6
176
     1
 40
30.0
176
     1
 62
     7
420
 16777215
176
     1
 90
        0
176
     1
 90
        0
176
     1
 62
     7
176
     1
 62
   257
176
     1
 90
        1
176
     1
 90
        1
176
     1
 40
1.0
176
     1
 90
        8
176
     1
 62
     7
176
     1
 40
1.0
176
     1
 90
        1
176
     1
 90
        6
176
     1
 90
        2
176
     1
 62
     7
176
     1
 90
        5
176
     1
 90
        0
176
     1
 90
        0
176
     1
290
     0
176
     1
 90
       13
176
     1
 40
0.0
176
     1
 90
        0
176
     1
290
     0
176
     1
290
     1
176
     1
290
     1
176
     1
290
     0
176
     1
290
     0
176
     1
290
     0
176
     1
290
     0
176
     1
290
     0
176
     1
290
     0
176
     1
 90
       50
176
     1
 40
0.0
176
     1
 40
1.0
176
     1
 90
        0
176
     1
 62
    18
420
        0
176
     1
 90
       50
176
     1
 90
        3
176
     1
 62
     5
420
      255
176
     1
290
     0
176
     1
 90
       50
176
     1
 90
       50
176
     1
 90
       50
176
     1
290
     0
176
     1
 90
       50
176
     1
 62
   256
176
     0
 40
1.0
176
     0
 90
        2
176
     1
  1
strokes_ogs.tif
176
     1
290
     0
176
     1
 40
1.0
176
     1
 40
1.0
176
     1
  0
VISUALSTYLE
  5
2C
102
{ACAD_REACTORS
330
2A
102
}
330
2A
100
AcDbVisualStyle
  2
FlatWithEdges
 70
     1
177
     3
291
     1
 70
    58
 90
        2
176
     1
 90
        1
176
     1
 90
        1
176
     1
 90
        2
176
     1
 40
0.6
176
     1
 40
30.0
176
     1
 62
     7
420
 16777215
176
     1
 90
        1
176
     1
 90
        0
176
     1
 62
     7
176
     1
 62
   257
176
     1
 90
        1
176
     1
 90
        1
176
     1
 40
1.0
176
     1
 90
        0
176
     1
 62
   257
176
     1
 40
1.0
176
     1
 90
        1
176
     1
 90
        6
176
     1
 90
        2
176
     1
 62
     7
176
     1
 90
        5
176
     1
 90
        0
176
     1
 90
        0
176
     1
290
     0
176
     1
 90
       13
176
     1
 40
0.0
176
     1
 90
        0
176
     1
290
     0
176
     1
290
     1
176
     1
290
     1
176
     1
290
     0
176
     1
290
     0
176
     1
290
     0
176
     1
290
     0
176
     1
290
     0
176
     1
290
     0
176
     1
 90
       50
176
     1
 40
0.0
176
     1
 40
1.0
176
     1
 90
        0
176
     1
 62
    18
420
        0
176
     1
 90
       50
176
     1
 90
        3
176
     1
 62
     5
420
      255
176
     1
290
     0
176
     1
 90
       50
176
     1
 90
       50
176
     1
 90
       50
176
     1
290
     0
176
     1
 90
       50
176
     1
 62
   256
176
     0
 40
1.0
176
     0
 90
        2
176
     1
  1
strokes_ogs.tif
176
     1
290
     0
176
     1
 40
1.0
176
     1
 40
1.0
176
     1
  0
VISUALSTYLE
  5
2D
102
{ACAD_REACTORS
330
2A
102
}
330
2A
100
AcDbVisualStyle
  2
Gouraud
 70
     2
177
     3
291
     1
 70
    58
 90
        2
176
     1
 90
        2
176
     1
 90
        1
176
     1
 90
        2
176
     1
 40
0.6
176
     1
 40
30.0
176
     1
 62
     7
420
 16777215
176
     1
 90
        0
176
     1
 90
        0
176
     1
 62
     7
176
     1
 62
   257
176
     1
 90
        1
176
     1
 90
        1
176
     1
 40
1.0
176
     1
 90
        0
176
     1
 62
     7
176
     1
 40
1.0
176
     1
 90
        1
176
     1
 90
        6
176
     1
 90
        2
176
     1
 62
     7
176
     1
 90
        5
176
     1
 90
        0
176
     1
 90
        0
176
     1
290
     0
176
     1
 90
       13
176
     1
 40
0.0
176
     1
 90
        0
176
     1
290
     0
176
     1
290
     1
176
     1
290
     1
176
     1
290
     0
176
     1
290
     0
176
     1
290
     0
176
     1
290
     0
176
     1
290
     0
176
     1
290
     0
176
     1
 90
       50
176
     1
 40
0.0
176
     1
 40
1.0
176
     1
 90
        0
176
     1
 62
    18
420
        0
176
     1
 90
       50
176
     1
 90
        3
176
     1
 62
     5
420
      255
176
     1
290
     0
176
     1
 90
       50
176
     1
 90
       50
176
     1
 90
       50
176
     1
290
     0
176
     1
 90
       50
176
     1
 62
   256
176
     0
 40
1.0
176
     0
 90
        2
176
     1
  1
strokes_ogs.tif
176
     1
290
     0
176
     1
 40
1.0
176
     1
 40
1.0
176
     1
  0
VISUALSTYLE
  5
2E
102
{ACAD_REACTORS
330
2A
102
}
330
2A
100
AcDbVisualStyle
  2
GouraudWithEdges
 70
     3
177
     3
291
     1
 70
    58
 90
        2
176
     1
 90
        2
176
     1
 90
        1
176
     1
 90
        2
176
     1
 40
0.6
176
     1
 40
30.0
176
     1
 62
     7
420
 16777215
176
     1
 90
        1
176
     1
 90
        0
176
     1
 62
     7
176
     1
 62
   257
176
     1
 90
        1
176
     1
 90
        1
176
     1
 40
1.0
176
     1
 90
        0
176
     1
 62
   257
176
     1
 40
1.0
176
     1
 90
        1
176
     1
 90
        6
176
     1
 90
        2
176
     1
 62
     7
176
     1
 90
        5
176
     1
 90
        0
176
     1
 90
        0
176
     1
290
     0
176
     1
 90
       13
176
     1
 40
0.0
176
     1
 90
        0
176
     1
290
     0
176
     1
290
     1
176
     1
290
     1
176
     1
290
     0
176
     1
290
     0
176
     1
290
     0
176
     1
290
     0
176
     1
290
     0
176
     1
290
     0
176
     1
 90
       50
176
     1
 40
0.0
176
     1
 40
1.0
176
     1
 90
        0
176
     1
 62
    18
420
        0
176
     1
 90
       50
176
     1
 90
        3
176
     1
 62
     5
420
      255
176
     1
290
     0
176
     1
 90
       50
176
     1
 90
       50
176
     1
 90
       50
176
     1
290
     0
176
     1
 90
       50
176
     1
 62
   256
176
     0
 40
1.0
176
     0
 90
        2
176
     1
  1
strokes_ogs.tif
176
     1
290
     0
176
     1
 40
1.0
176
     1
 40
1.0
176
     1
  0
VISUALSTYLE
  5
31
102
{ACAD_REACTORS
330
2A
102
}
330
2A
100
AcDbVisualStyle
  2
Hidden
 70
     6
177
     3
291
     0
 70
    58
 90
        1
176
     1
 90
        2
176
     1
 90
        2
176
     1
 90
        0
176
     1
 40
0.6
176
     1
 40
30.0
176
     1
 62
     7
420
 16777215
176
     1
 90
        2
176
     1
 90
        2
176
     1
 62
     7
176
     1
 62
   257
176
     1
 90
        2
176
     1
 90
        1
176
     1
 40
40.0
176
     1
 90
        0
176
     1
 62
   257
176
     1
 40
1.0
176
     1
 90
        1
176
     1
 90
        6
176
     1
 90
        2
176
     1
 62
     7
176
     1
 90
        3
176
     1
 90
        0
176
     1
 90
        0
176
     1
290
     0
176
     1
 90
        1
176
     1
 40
0.0
176
     1
 90
        0
176
     1
290
     0
176
     1
290
     1
176
     1
290
     1
176
     1
290
     0
176
     1
290
     0
176
     1
290
     0
176
     1
290
     0
176
     1
290
     0
176
     1
290
     0
176
     1
 90
       50
176
     1
 40
0.0
176
     1
 40
1.0
176
     1
 90
        0
176
     1
 62
    18
420
        0
176
     1
 90
       50
176
     1
 90
        3
176
     1
 62
     5
420
      255
176
     1
290
     0
176
     1
 90
       50
176
     1
 90
       50
176
     1
 90
       50
176
     1
290
     0
176
     1
 90
       50
176
     1
 62
   256
176
     0
 40
1.0
176
     0
 90
        2
176
     1
  1
strokes_ogs.tif
176
     1
290
     0
176
     1
 40
1.0
176
     1
 40
1.0
176
     1
  0
VISUALSTYLE
  5
3B
102
{ACAD_REACTORS
330
2A
102
}
330
2A
100
AcDbVisualStyle
  2
JitterOff
 70
    20
177
     3
291
     1
 70
    58
 90
        2
176
     0
 90
        2
176
     0
 90
        0
176
     0
 90
        0
176
     0
 40
0.6
176
     0
 40
30.0
176
     0
 62
     7
420
 16777215
176
     0
 90
        1
176
     0
 90
        4
176
     0
 62
     7
176
     0
 62
   257
176
     0
 90
        1
176
     0
 90
        1
176
     0
 40
1.0
176
     0
 90
       10
176
     2
 62
     7
176
     0
 40
1.0
176
     0
 90
        1
176
     0
 90
        6
176
     0
 90
        2
176
     0
 62
     7
176
     0
 90
        5
176
     0
 90
        0
176
     0
 90
        0
176
     0
290
     0
176
     0
 90
        1
176
     0
 40
0.0
176
     0
 90
        0
176
     0
290
     0
176
     0
290
     1
176
     0
290
     1
176
     0
290
     0
176
     0
290
     0
176
     0
290
     0
176
     0
290
     0
176
     0
290
     0
176
     0
290
     0
176
     0
 90
       50
176
     0
 40
0.0
176
     0
 40
1.0
176
     0
 90
        0
176
     0
 62
    18
420
        0
176
     0
 90
       50
176
     0
 90
        3
176
     0
 62
     5
420
      255
176
     0
290
     0
176
     0
 90
       50
176
     0
 90
       50
176
     0
 90
       50
176
     0
290
     0
176
     0
 90
       50
176
     0
 62
   256
176
     0
 40
1.0
176
     0
 90
        2
176
     0
  1
strokes_ogs.tif
176
     0
290
     0
176
     0
 40
1.0
176
     0
 40
1.0
176
     0
  0
VISUALSTYLE
  5
38
102
{ACAD_REACTORS
330
2A
102
}
330
2A
100
AcDbVisualStyle
  2
Linepattern
 70
    14
177
     3
291
     1
 70
    58
 90
        2
176
     1
 90
        2
176
     1
 90
        0
176
     1
 90
        0
176
     1
 40
0.6
176
     1
 40
30.0
176
     1
 62
     7
420
 16777215
176
     1
 90
        1
176
     1
 90
        4
176
     1
 62
     7
176
     1
 62
   257
176
     1
 90
        7
176
     1
 90
        7
176
     1
 40
1.0
176
     1
 90
        8
176
     1
 62
     7
176
     1
 40
1.0
176
     1
 90
        1
176
     1
 90
        6
176
     1
 90
        2
176
     1
 62
     7
176
     1
 90
        5
176
     1
 90
        0
176
     1
 90
        0
176
     1
290
     0
176
     1
 90
        1
176
     1
 40
0.0
176
     1
 90
        0
176
     1
290
     0
176
     1
290
     1
176
     1
290
     1
176
     1
290
     0
176
     1
290
     0
176
     1
290
     0
176
     1
290
     0
176
     1
290
     0
176
     1
290
     0
176
     1
 90
       50
176
     1
 40
0.0
176
     1
 40
1.0
176
     1
 90
        0
176
     1
 62
    18
420
        0
176
     1
 90
       50
176
     1
 90
        3
176
     1
 62
     5
420
      255
176
     1
290
     0
176
     1
 90
       50
176
     1
 90
       50
176
     1
 90
       50
176
     1
290
     0
176
     1
 90
       50
176
     1
 62
   256
176
     0
 40
1.0
176
     0
 90
        2
176
     1
  1
strokes_ogs.tif
176
     1
290
     0
176
     1
 40
1.0
176
     1
 40
1.0
176
     1
  0
VISUALSTYLE
  5
3C
102
{ACAD_REACTORS
330
2A
102
}
330
2A
100
AcDbVisualStyle
  2
OverhangOff
 70
    21
177
     3
291
     1
 70
    58
 90
        2
176
     0
 90
        2
176
     0
 90
        0
176
     0
 90
        0
176
     0
 40
0.6
176
     0
 40
30.0
176
     0
 62
     7
420
 16777215
176
     0
 90
        1
176
     0
 90
        4
176
     0
 62
     7
176
     0
 62
   257
176
     0
 90
        1
176
     0
 90
        1
176
     0
 40
1.0
176
     0
 90
        9
176
     2
 62
     7
176
     0
 40
1.0
176
     0
 90
        1
176
     0
 90
        6
176
     0
 90
        2
176
     0
 62
     7
176
     0
 90
        5
176
     0
 90
        0
176
     0
 90
        0
176
     0
290
     0
176
     0
 90
        1
176
     0
 40
0.0
176
     0
 90
        0
176
     0
290
     0
176
     0
290
     1
176
     0
290
     1
176
     0
290
     0
176
     0
290
     0
176
     0
290
     0
176
     0
290
     0
176
     0
290
     0
176
     0
290
     0
176
     0
 90
       50
176
     0
 40
0.0
176
     0
 40
1.0
176
     0
 90
        0
176
     0
 62
    18
420
        0
176
     0
 90
       50
176
     0
 90
        3
176
     0
 62
     5
420
      255
176
     0
290
     0
176
     0
 90
       50
176
     0
 90
       50
176
     0
 90
       50
176
     0
290
     0
176
     0
 90
       50
176
     0
 62
   256
176
     0
 40
1.0
176
     0
 90
        2
176
     0
  1
strokes_ogs.tif
176
     0
290
     0
176
     0
 40
1.0
176
     0
 40
1.0
176
     0
  0
VISUALSTYLE
  5
33
102
{ACAD_REACTORS
330
2A
102
}
330
2A
100
AcDbVisualStyle
  2
Realistic
 70
     8
177
     3
291
     0
 70
    58
 90
        2
176
     1
 90
        3
176
     1
 90
        0
176
     1
 90
        2
176
     1
 40
0.6
176
     1
 40
30.0
176
     1
 62
     7
420
 16777215
176
     1
 90
        0
176
     1
 90
        0
176
     1
 62
     7
176
     1
 62
   257
176
     1
 90
        1
176
     1
 90
        1
176
     1
 40
1.0
176
     1
 90
        8
176
     1
 62
   257
176
     1
 40
1.0
176
     1
 90
        1
176
     1
 90
        6
176
     1
 90
        2
176
     1
 62
     7
176
     1
 90
        3
176
     1
 90
        0
176
     1
 90
        0
176
     1
290
     0
176
     1
 90
       13
176
     1
 40
0.0
176
     1
 90
        0
176
     1
290
     0
176
     1
290
     1
176
     1
290
     1
176
     1
290
     0
176
     1
290
     0
176
     1
290
     0
176
     1
290
     0
176
     1
290
     0
176
     1
290
     0
176
     1
 90
       50
176
     1
 40
0.0
176
     1
 40
1.0
176
     1
 90
        0
176
     1
 62
    18
420
        0
176
     1
 90
       50
176
     1
 90
        3
176
     1
 62
     5
420
      255
176
     1
290
     0
176
     1
 90
       50
176
     1
 90
       50
176
     1
 90
       50
176
     1
290
     0
176
     1
 90
       50
176
     1
 62
   256
176
     0
 40
1.0
176
     0
 90
        2
176
     1
  1
strokes_ogs.tif
176
     1
290
     0
176
     1
 40
1.0
176
     1
 40
1.0
176
     1
  0
VISUALSTYLE
  5
42
102
{ACAD_REACTORS
330
2A
102
}
330
2A
100
AcDbVisualStyle
  2
Shaded
 70
    27
177
     3
291
     0
 70
    58
 90
        2
176
     1
 90
        2
176
     1
 90
        1
176
     1
 90
        2
176
     1
 40
0.6
176
     1
 40
30.0
176
     1
 62
     7
420
 16777215
176
     1
 90
        0
176
     1
 90
        4
176
     1
 62
     7
176
     1
 62
   257
176
     1
 90
        1
176
     1
 90
        1
176
     1
 40
1.0
176
     1
 90
        8
176
     1
 62
   257
176
     1
 40
1.0
176
     1
 90
        1
176
     1
 90
        6
176
     1
 90
        2
176
     1
 62
     8
420
  7895160
176
     1
 90
        3
176
     1
 90
        0
176
     1
 90
        0
176
     1
290
     0
176
     1
 90
        5
176
     1
 40
0.0
176
     1
 90
        0
176
     1
290
     0
176
     1
290
     1
176
     1
290
     1
176
     1
290
     0
176
     1
290
     0
176
     1
290
     0
176
     1
290
     0
176
     1
290
     0
176
     1
290
     0
176
     1
 90
       50
176
     1
 40
0.0
176
     1
 40
1.0
176
     1
 90
        0
176
     1
 62
    18
420
        0
176
     1
 90
       50
176
     1
 90
        3
176
     1
 62
     5
420
      255
176
     1
290
     0
176
     1
 90
       50
176
     1
 90
       50
176
     1
 90
       50
176
     1
290
     0
176
     1
 90
       50
176
     1
 62
   256
176
     0
 40
1.0
176
     0
 90
        2
176
     1
  1
strokes_ogs.tif
176
     1
290
     0
176
     1
 40
1.0
176
     1
 40
1.0
176
     1
  0
VISUALSTYLE
  5
41
102
{ACAD_REACTORS
330
2A
102
}
330
2A
100
AcDbVisualStyle
  2
Shaded with edges
 70
    26
177
     3
291
     0
 70
    58
 90
        2
176
     1
 90
        2
176
     1
 90
        1
176
     1
 90
        2
176
     1
 40
0.6
176
     1
 40
30.0
176
     1
 62
     7
420
 16777215
176
     1
 90
        1
176
     1
 90
       10
176
     1
 62
     7
176
     1
 62
   257
176
     1
 90
        2
176
     1
 90
        1
176
     1
 40
1.0
176
     1
 90
        8
176
     1
 62
   257
176
     1
 40
1.0
176
     1
 90
        1
176
     1
 90
        6
176
     1
 90
        2
176
     1
 62
     7
176
     1
 90
        3
176
     1
 90
        0
176
     1
 90
        0
176
     1
290
     0
176
     1
 90
        5
176
     1
 40
0.0
176
     1
 90
        0
176
     1
290
     0
176
     1
290
     1
176
     1
290
     1
176
     1
290
     0
176
     1
290
     0
176
     1
290
     0
176
     1
290
     0
176
     1
290
     0
176
     1
290
     0
176
     1
 90
       50
176
     1
 40
0.0
176
     1
 40
1.0
176
     1
 90
        0
176
     1
 62
    18
420
        0
176
     1
 90
       50
176
     1
 90
        3
176
     1
 62
     5
420
      255
176
     1
290
     0
176
     1
 90
       50
176
     1
 90
       50
176
     1
 90
       50
176
     1
290
     0
176
     1
 90
       50
176
     1
 62
   256
176
     0
 40
1.0
176
     0
 90
        2
176
     1
  1
strokes_ogs.tif
176
     1
290
     0
176
     1
 40
1.0
176
     1
 40
1.0
176
     1
  0
VISUALSTYLE
  5
3E
102
{ACAD_REACTORS
330
2A
102
}
330
2A
100
AcDbVisualStyle
  2
Shades of Gray
 70
    23
177
     3
291
     0
 70
    58
 90
        2
176
     1
 90
        2
176
     1
 90
        3
176
     1
 90
        0
176
     1
 40
0.6
176
     1
 40
30.0
176
     1
 62
     7
420
 16777215
176
     1
 90
        2
176
     1
 90
        2
176
     1
 62
     7
176
     1
 62
     7
176
     1
 90
        1
176
     1
 90
        1
176
     1
 40
40.0
176
     1
 90
        8
176
     1
 62
     7
176
     1
 40
1.0
176
     1
 90
        1
176
     1
 90
        6
176
     1
 90
        2
176
     1
 62
     7
176
     1
 90
        3
176
     1
 90
        0
176
     1
 90
        0
176
     1
290
     0
176
     1
 90
        1
176
     1
 40
0.0
176
     1
 90
        0
176
     1
290
     0
176
     1
290
     1
176
     1
290
     1
176
     1
290
     0
176
     1
290
     0
176
     1
290
     0
176
     1
290
     0
176
     1
290
     0
176
     1
290
     0
176
     1
 90
       50
176
     1
 40
0.0
176
     1
 40
1.0
176
     1
 90
        0
176
     1
 62
    18
420
        0
176
     1
 90
       50
176
     1
 90
        3
176
     1
 62
     5
420
      255
176
     1
290
     0
176
     1
 90
       50
176
     1
 90
       50
176
     1
 90
       50
176
     1
290
     0
176
     1
 90
       50
176
     1
 62
   256
176
     0
 40
1.0
176
     0
 90
        2
176
     1
  1
strokes_ogs.tif
176
     1
290
     0
176
     1
 40
1.0
176
     1
 40
1.0
176
     1
  0
VISUALSTYLE
  5
3F
102
{ACAD_REACTORS
330
2A
102
}
330
2A
100
AcDbVisualStyle
  2
Sketchy
 70
    24
177
     3
291
     0
 70
    58
 90
        1
176
     1
 90
        2
176
     1
 90
        2
176
     1
 90
        0
176
     1
 40
0.6
176
     1
 40
30.0
176
     1
 62
     7
420
 16777215
176
     1
 90
        2
176
     1
 90
        2
176
     1
 62
     7
176
     1
 62
     7
176
     1
 90
        1
176
     1
 90
        1
176
     1
 40
40.0
176
     1
 90
       11
176
     1
 62
     7
176
     1
 40
1.0
176
     1
 90
        1
176
     1
 90
        6
176
     1
 90
        2
176
     1
 62
     7
176
     1
 90
        6
176
     1
 90
        0
176
     1
 90
        0
176
     1
290
     0
176
     1
 90
        1
176
     1
 40
0.0
176
     1
 90
        0
176
     1
290
     0
176
     1
290
     1
176
     1
290
     1
176
     1
290
     0
176
     1
290
     0
176
     1
290
     0
176
     1
290
     0
176
     1
290
     0
176
     1
290
     0
176
     1
 90
       50
176
     1
 40
0.0
176
     1
 40
1.0
176
     1
 90
        0
176
     1
 62
    18
420
        0
176
     1
 90
       50
176
     1
 90
        3
176
     1
 62
     5
420
      255
176
     1
290
     0
176
     1
 90
       50
176
     1
 90
       50
176
     1
 90
       50
176
     1
290
     0
176
     1
 90
       50
176
     1
 62
   256
176
     0
 40
1.0
176
     0
 90
        2
176
     1
  1
strokes_ogs.tif
176
     1
290
     0
176
     1
 40
1.0
176
     1
 40
1.0
176
     1
  0
VISUALSTYLE
  5
37
102
{ACAD_REACTORS
330
2A
102
}
330
2A
100
AcDbVisualStyle
  2
Thicken
 70
    13
177
     3
291
     1
 70
    58
 90
        2
176
     1
 90
        2
176
     1
 90
        0
176
     1
 90
        0
176
     1
 40
0.6
176
     1
 40
30.0
176
     1
 62
     7
420
 16777215
176
     1
 90
        1
176
     1
 90
        4
176
     1
 62
     7
176
     1
 62
   257
176
     1
 90
        1
176
     1
 90
        1
176
     1
 40
1.0
176
     1
 90
       12
176
     1
 62
     7
176
     1
 40
1.0
176
     1
 90
        1
176
     1
 90
        6
176
     1
 90
        2
176
     1
 62
     7
176
     1
 90
        5
176
     1
 90
        0
176
     1
 90
        0
176
     1
290
     0
176
     1
 90
        1
176
     1
 40
0.0
176
     1
 90
        0
176
     1
290
     0
176
     1
290
     1
176
     1
290
     1
176
     1
290
     0
176
     1
290
     0
176
     1
290
     0
176
     1
290
     0
176
     1
290
     0
176
     1
290
     0
176
     1
 90
       50
176
     1
 40
0.0
176
     1
 40
1.0
176
     1
 90
        0
176
     1
 62
    18
420
        0
176
     1
 90
       50
176
     1
 90
        3
176
     1
 62
     5
420
      255
176
     1
290
     0
176
     1
 90
       50
176
     1
 90
       50
176
     1
 90
       50
176
     1
290
     0
176
     1
 90
       50
176
     1
 62
   256
176
     0
 40
1.0
176
     0
 90
        2
176
     1
  1
strokes_ogs.tif
176
     1
290
     0
176
     1
 40
1.0
176
     1
 40
1.0
176
     1
  0
VISUALSTYLE
  5
30
102
{ACAD_REACTORS
330
2A
102
}
330
2A
100
AcDbVisualStyle
  2
Wireframe
 70
     5
177
     3
291
     0
 70
    58
 90
        0
176
     1
 90
        2
176
     1
 90
        0
176
     1
 90
        0
176
     1
 40
0.6
176
     1
 40
30.0
176
     1
 62
     7
420
 16777215
176
     1
 90
        1
176
     1
 90
        4
176
     1
 62
     7
176
     1
 62
   257
176
     1
 90
        1
176
     1
 90
        1
176
     1
 40
1.0
176
     1
 90
        0
176
     1
 62
   257
176
     1
 40
1.0
176
     1
 90
        1
176
     1
 90
        6
176
     1
 90
        2
176
     1
 62
     7
176
     1
 90
        3
176
     1
 90
        0
176
     1
 90
        0
176
     1
290
     0
176
     1
 90
        1
176
     1
 40
0.0
176
     1
 90
        0
176
     1
290
     0
176
     1
290
     1
176
     1
290
     1
176
     1
290
     0
176
     1
290
     0
176
     1
290
     0
176
     1
290
     0
176
     1
290
     0
176
     1
290
     0
176
     1
 90
       50
176
     1
 40
0.0
176
     1
 40
1.0
176
     1
 90
        0
176
     1
 62
    18
420
        0
176
     1
 90
       50
176
     1
 90
        3
176
     1
 62
     5
420
      255
176
     1
290
     0
176
     1
 90
       50
176
     1
 90
       50
176
     1
 90
       50
176
     1
290
     0
176
     1
 90
       50
176
     1
 62
   256
176
     0
 40
1.0
176
     0
 90
        2
176
     1
  1
strokes_ogs.tif
176
     1
290
     0
176
     1
 40
1.0
176
     1
 40
1.0
176
     1
  0
VISUALSTYLE
  5
40
102
{ACAD_REACTORS
330
2A
102
}
330
2A
100
AcDbVisualStyle
  2
X-Ray
 70
    25
177
     3
291
     0
 70
    58
 90
        2
176
     1
 90
        2
176
     1
 90
        1
176
     1
 90
        1
176
     1
 40
0.5
176
     1
 40
30.0
176
     1
 62
     7
420
 16777215
176
     1
 90
        1
176
     1
 90
        0
176
     1
 62
     7
176
     1
 62
   257
176
     1
 90
        1
176
     1
 90
        1
176
     1
 40
1.0
176
     1
 90
        8
176
     1
 62
     7
176
     1
 40
1.0
176
     1
 90
        1
176
     1
 90
        6
176
     1
 90
        2
176
     1
 62
     7
176
     1
 90
        3
176
     1
 90
        0
176
     1
 90
        0
176
     1
290
     0
176
     1
 90
       13
176
     1
 40
0.0
176
     1
 90
        0
176
     1
290
     0
176
     1
290
     1
176
     1
290
     1
176
     1
290
     0
176
     1
290
     0
176
     1
290
     0
176
     1
290
     0
176
     1
290
     0
176
     1
290
     0
176
     1
 90
       50
176
     1
 40
0.0
176
     1
 40
1.0
176
     1
 90
        0
176
     1
 62
    18
420
        0
176
     1
 90
       50
176
     1
 90
        3
176
     1
 62
     5
420
      255
176
     1
290
     0
176
     1
 90
       50
176
     1
 90
       50
176
     1
 90
       50
176
     1
290
     0
176
     1
 90
       50
176
     1
 62
   256
176
     0
 40
1.0
176
     0
 90
        2
176
     1
  1
strokes_ogs.tif
176
     1
290
     0
176
     1
 40
1.0
176
     1
 40
1.0
176
     1
  0
DICTIONARYVAR
  5
38E
102
{ACAD_REACTORS
330
38D
102
}
330
38D
100
DictionaryVariables
280
     0
  1
1:1
  0
DICTIONARYVAR
  5
397
102
{ACAD_REACTORS
330
38D
102
}
330
38D
100
DictionaryVariables
280
     0
  1
3.500000
  0
DICTIONARYVAR
  5
398
102
{ACAD_REACTORS
330
38D
102
}
330
38D
100
DictionaryVariables
280
     0
  1
acadiso.lin
  0
DICTIONARYVAR
  5
393
102
{ACAD_REACTORS
330
38D
102
}
330
38D
100
DictionaryVariables
280
     0
  1
Standard
  0
DICTIONARYVAR
  5
392
102
{ACAD_REACTORS
330
38D
102
}
330
38D
100
DictionaryVariables
280
     0
  1
Standard
  0
DICTIONARYVAR
  5
396
102
{ACAD_REACTORS
330
38D
102
}
330
38D
100
DictionaryVariables
280
     0
  1
0
  0
DICTIONARY
  5
38F
330
5A
100
AcDbDictionary
280
     1
281
     1
  3
ACAD_ROUNDTRIP_2008_TABLESTYLE_CELLSTYLEMAP
360
390
  0
CELLSTYLEMAP
  5
390
102
{ACAD_REACTORS
330
38F
102
}
330
38F
100
AcDbCellStyleMap
 90
        3
300
CELLSTYLE
  1
TABLEFORMAT_BEGIN
 90
        5
170
     1
 91
        0
 92
    32768
 62
   257
 93
        1
300
CONTENTFORMAT
  1
CONTENTFORMAT_BEGIN
 90
        0
 91
        0
 92
        4
 93
        0
300

 40
0.0
140
1.0
 94
        5
 62
     0
340
11
144
6.0
309
CONTENTFORMAT_END
171
     1
301
MARGIN
  1
CELLMARGIN_BEGIN
 40
1.5
 40
1.5
 40
1.5
 40
1.5
 40
1.5
 40
1.5
309
CELLMARGIN_END
 94
        6
 95
        1
302
GRIDFORMAT
  1
GRIDFORMAT_BEGIN
 90
        0
 91
        1
 62
     0
 92
       -2
340
14
 93
        0
 40
0.045
309
GRIDFORMAT_END
 95
        2
302
GRIDFORMAT
  1
GRIDFORMAT_BEGIN
 90
        0
 91
        1
 62
     0
 92
       -2
340
14
 93
        0
 40
0.045
309
GRIDFORMAT_END
 95
        4
302
GRIDFORMAT
  1
GRIDFORMAT_BEGIN
 90
        0
 91
        1
 62
     0
 92
       -2
340
14
 93
        0
 40
0.045
309
GRIDFORMAT_END
 95
        8
302
GRIDFORMAT
  1
GRIDFORMAT_BEGIN
 90
        0
 91
        1
 62
     0
 92
       -2
340
14
 93
        0
 40
0.045
309
GRIDFORMAT_END
 95
       16
302
GRIDFORMAT
  1
GRIDFORMAT_BEGIN
 90
        0
 91
        1
 62
     0
 92
       -2
340
14
 93
        0
 40
0.045
309
GRIDFORMAT_END
 95
       32
302
GRIDFORMAT
  1
GRIDFORMAT_BEGIN
 90
        0
 91
        1
 62
     0
 92
       -2
340
14
 93
        0
 40
0.045
309
GRIDFORMAT_END
309
TABLEFORMAT_END
  1
CELLSTYLE_BEGIN
 90
        1
 91
        1
300
_TITLE
309
CELLSTYLE_END
300
CELLSTYLE
  1
TABLEFORMAT_BEGIN
 90
        5
170
     1
 91
        0
 92
        0
 62
   257
 93
        1
300
CONTENTFORMAT
  1
CONTENTFORMAT_BEGIN
 90
        0
 91
        0
 92
        4
 93
        0
300

 40
0.0
140
1.0
 94
        5
 62
     0
340
11
144
4.5
309
CONTENTFORMAT_END
171
     1
301
MARGIN
  1
CELLMARGIN_BEGIN
 40
1.5
 40
1.5
 40
1.5
 40
1.5
 40
1.5
 40
1.5
309
CELLMARGIN_END
 94
        6
 95
        1
302
GRIDFORMAT
  1
GRIDFORMAT_BEGIN
 90
        0
 91
        1
 62
     0
 92
       -2
340
14
 93
        0
 40
0.045
309
GRIDFORMAT_END
 95
        2
302
GRIDFORMAT
  1
GRIDFORMAT_BEGIN
 90
        0
 91
        1
 62
     0
 92
       -2
340
14
 93
        0
 40
0.045
309
GRIDFORMAT_END
 95
        4
302
GRIDFORMAT
  1
GRIDFORMAT_BEGIN
 90
        0
 91
        1
 62
     0
 92
       -2
340
14
 93
        0
 40
0.045
309
GRIDFORMAT_END
 95
        8
302
GRIDFORMAT
  1
GRIDFORMAT_BEGIN
 90
        0
 91
        1
 62
     0
 92
       -2
340
14
 93
        0
 40
0.045
309
GRIDFORMAT_END
 95
       16
302
GRIDFORMAT
  1
GRIDFORMAT_BEGIN
 90
        0
 91
        1
 62
     0
 92
       -2
340
14
 93
        0
 40
0.045
309
GRIDFORMAT_END
 95
       32
302
GRIDFORMAT
  1
GRIDFORMAT_BEGIN
 90
        0
 91
        1
 62
     0
 92
       -2
340
14
 93
        0
 40
0.045
309
GRIDFORMAT_END
309
TABLEFORMAT_END
  1
CELLSTYLE_BEGIN
 90
        2
 91
        1
300
_HEADER
309
CELLSTYLE_END
300
CELLSTYLE
  1
TABLEFORMAT_BEGIN
 90
        5
170
     1
 91
        0
 92
        0
 62
   257
 93
        1
300
CONTENTFORMAT
  1
CONTENTFORMAT_BEGIN
 90
        0
 91
        0
 92
        4
 93
        0
300

 40
0.0
140
1.0
 94
        2
 62
     0
340
11
144
4.5
309
CONTENTFORMAT_END
171
     1
301
MARGIN
  1
CELLMARGIN_BEGIN
 40
1.5
 40
1.5
 40
1.5
 40
1.5
 40
1.5
 40
1.5
309
CELLMARGIN_END
 94
        6
 95
        1
302
GRIDFORMAT
  1
GRIDFORMAT_BEGIN
 90
        0
 91
        1
 62
     0
 92
       -2
340
14
 93
        0
 40
0.045
309
GRIDFORMAT_END
 95
        2
302
GRIDFORMAT
  1
GRIDFORMAT_BEGIN
 90
        0
 91
        1
 62
     0
 92
       -2
340
14
 93
        0
 40
0.045
309
GRIDFORMAT_END
 95
        4
302
GRIDFORMAT
  1
GRIDFORMAT_BEGIN
 90
        0
 91
        1
 62
     0
 92
       -2
340
14
 93
        0
 40
0.045
309
GRIDFORMAT_END
 95
        8
302
GRIDFORMAT
  1
GRIDFORMAT_BEGIN
 90
        0
 91
        1
 62
     0
 92
       -2
340
14
 93
        0
 40
0.045
309
GRIDFORMAT_END
 95
       16
302
GRIDFORMAT
  1
GRIDFORMAT_BEGIN
 90
        0
 91
        1
 62
     0
 92
       -2
340
14
 93
        0
 40
0.045
309
GRIDFORMAT_END
 95
       32
302
GRIDFORMAT
  1
GRIDFORMAT_BEGIN
 90
        0
 91
        1
 62
     0
 92
       -2
340
14
 93
        0
 40
0.045
309
GRIDFORMAT_END
309
TABLEFORMAT_END
  1
CELLSTYLE_BEGIN
 90
        3
 91
        2
300
_DATA
309
CELLSTYLE_END
  0
ENDSEC
  0
EOF
