  0
SECTION
  2
HEADER
  9
$ACADVER
  1
AC1027
  9
$ACADMAINTVER
 70
   105
  9
$DWGCODEPAGE
  3
ANSI_1252
  9
$LASTSAVEDBY
  1
mezergues
  9
$REQUIREDVERSIONS
160
                 0
  9
$INSBASE
 10
0.0
 20
0.0
 30
0.0
  9
$EXTMIN
 10
9116.32829549663
 20
-14457.30704422377
 30
0.0
  9
$EXTMAX
 10
31769.28913838763
 20
-12018.78313514858
 30
2500.0
  9
$LIMMIN
 10
0.0
 20
0.0
  9
$LIMMAX
 10
420.0
 20
297.0
  9
$ORTHOMODE
 70
     0
  9
$REGENMODE
 70
     1
  9
$FILLMODE
 70
     1
  9
$QTEXTMODE
 70
     0
  9
$MIRRTEXT
 70
     1
  9
$LTSCALE
 40
5.0
  9
$ATTMODE
 70
     1
  9
$TEXTSIZE
 40
2.5
  9
$TRACEWID
 40
1.0
  9
$TEXTSTYLE
  7
Standard
  9
$CLAYER
  8
0
  9
$CELTYPE
  6
Continuous
  9
$CECOLOR
 62
   256
  9
$CELTSCALE
 40
1.0
  9
$DISPSILH
 70
     0
  9
$DIMSCALE
 40
1.0
  9
$DIMASZ
 40
2.5
  9
$DIMEXO
 40
0.625
  9
$DIMDLI
 40
3.75
  9
$DIMRND
 40
0.0
  9
$DIMDLE
 40
0.0
  9
$DIMEXE
 40
1.25
  9
$DIMTP
 40
0.0
  9
$DIMTM
 40
0.0
  9
$DIMTXT
 40
2.5
  9
$DIMCEN
 40
2.5
  9
$DIMTSZ
 40
0.0
  9
$DIMTOL
 70
     0
  9
$DIMLIM
 70
     0
  9
$DIMTIH
 70
     0
  9
$DIMTOH
 70
     0
  9
$DIMSE1
 70
     0
  9
$DIMSE2
 70
     0
  9
$DIMTAD
 70
     1
  9
$DIMZIN
 70
     8
  9
$DIMBLK
  1

  9
$DIMASO
 70
     1
  9
$DIMSHO
 70
     1
  9
$DIMPOST
  1

  9
$DIMAPOST
  1

  9
$DIMALT
 70
     0
  9
$DIMALTD
 70
     3
  9
$DIMALTF
 40
0.03937007874016
  9
$DIMLFAC
 40
1.0
  9
$DIMTOFL
 70
     1
  9
$DIMTVP
 40
0.0
  9
$DIMTIX
 70
     0
  9
$DIMSOXD
 70
     1
  9
$DIMSAH
 70
     0
  9
$DIMBLK1
  1

  9
$DIMBLK2
  1

  9
$DIMSTYLE
  2
ISO-25
  9
$DIMCLRD
 70
     0
  9
$DIMCLRE
 70
     0
  9
$DIMCLRT
 70
     0
  9
$DIMTFAC
 40
1.0
  9
$DIMGAP
 40
0.625
  9
$DIMJUST
 70
     0
  9
$DIMSD1
 70
     0
  9
$DIMSD2
 70
     0
  9
$DIMTOLJ
 70
     0
  9
$DIMTZIN
 70
     8
  9
$DIMALTZ
 70
     0
  9
$DIMALTTZ
 70
     0
  9
$DIMUPT
 70
     0
  9
$DIMDEC
 70
     2
  9
$DIMTDEC
 70
     2
  9
$DIMALTU
 70
     2
  9
$DIMALTTD
 70
     3
  9
$DIMTXSTY
  7
Standard
  9
$DIMAUNIT
 70
     0
  9
$DIMADEC
 70
     0
  9
$DIMALTRND
 40
0.0
  9
$DIMAZIN
 70
     0
  9
$DIMDSEP
 70
    44
  9
$DIMATFIT
 70
     3
  9
$DIMFRAC
 70
     0
  9
$DIMLDRBLK
  1

  9
$DIMLUNIT
 70
     2
  9
$DIMLWD
 70
    -2
  9
$DIMLWE
 70
    -2
  9
$DIMTMOVE
 70
     2
  9
$DIMFXL
 40
1.0
  9
$DIMFXLON
 70
     0
  9
$DIMJOGANG
 40
0.7853981633974483
  9
$DIMTFILL
 70
     0
  9
$DIMTFILLCLR
 70
     0
  9
$DIMARCSYM
 70
     0
  9
$DIMLTYPE
  6

  9
$DIMLTEX1
  6

  9
$DIMLTEX2
  6

  9
$DIMTXTDIRECTION
 70
     0
  9
$LUNITS
 70
     2
  9
$LUPREC
 70
     4
  9
$SKETCHINC
 40
1.0
  9
$FILLETRAD
 40
0.0
  9
$AUNITS
 70
     0
  9
$AUPREC
 70
     0
  9
$MENU
  1
.
  9
$ELEVATION
 40
0.0
  9
$PELEVATION
 40
0.0
  9
$THICKNESS
 40
0.0
  9
$LIMCHECK
 70
     0
  9
$CHAMFERA
 40
0.0
  9
$CHAMFERB
 40
0.0
  9
$CHAMFERC
 40
0.0
  9
$CHAMFERD
 40
0.0
  9
$SKPOLY
 70
     0
  9
$TDCREATE
 40
2459978.673799734
  9
$TDUCREATE
 40
2459978.632133067
  9
$TDUPDATE
 40
2459978.673803044
  9
$TDUUPDATE
 40
2459978.632136378
  9
$TDINDWG
 40
0.0000000116
  9
$TDUSRTIMER
 40
0.0000000116
  9
$USRTIMER
 70
     1
  9
$ANGBASE
 50
0.0
  9
$ANGDIR
 70
     0
  9
$PDMODE
 70
     0
  9
$PDSIZE
 40
0.0
  9
$PLINEWID
 40
0.0
  9
$SPLFRAME
 70
     0
  9
$SPLINETYPE
 70
     6
  9
$SPLINESEGS
 70
     8
  9
$HANDSEED
  5
33C
  9
$SURFTAB1
 70
     6
  9
$SURFTAB2
 70
     6
  9
$SURFTYPE
 70
     6
  9
$SURFU
 70
     6
  9
$SURFV
 70
     6
  9
$UCSBASE
  2

  9
$UCSNAME
  2

  9
$UCSORG
 10
0.0
 20
0.0
 30
0.0
  9
$UCSXDIR
 10
1.0
 20
0.0
 30
0.0
  9
$UCSYDIR
 10
0.0
 20
1.0
 30
0.0
  9
$UCSORTHOREF
  2

  9
$UCSORTHOVIEW
 70
     0
  9
$UCSORGTOP
 10
0.0
 20
0.0
 30
0.0
  9
$UCSORGBOTTOM
 10
0.0
 20
0.0
 30
0.0
  9
$UCSORGLEFT
 10
0.0
 20
0.0
 30
0.0
  9
$UCSORGRIGHT
 10
0.0
 20
0.0
 30
0.0
  9
$UCSORGFRONT
 10
0.0
 20
0.0
 30
0.0
  9
$UCSORGBACK
 10
0.0
 20
0.0
 30
0.0
  9
$PUCSBASE
  2

  9
$PUCSNAME
  2

  9
$PUCSORG
 10
0.0
 20
0.0
 30
0.0
  9
$PUCSXDIR
 10
1.0
 20
0.0
 30
0.0
  9
$PUCSYDIR
 10
0.0
 20
1.0
 30
0.0
  9
$PUCSORTHOREF
  2

  9
$PUCSORTHOVIEW
 70
     0
  9
$PUCSORGTOP
 10
0.0
 20
0.0
 30
0.0
  9
$PUCSORGBOTTOM
 10
0.0
 20
0.0
 30
0.0
  9
$PUCSORGLEFT
 10
0.0
 20
0.0
 30
0.0
  9
$PUCSORGRIGHT
 10
0.0
 20
0.0
 30
0.0
  9
$PUCSORGFRONT
 10
0.0
 20
0.0
 30
0.0
  9
$PUCSORGBACK
 10
0.0
 20
0.0
 30
0.0
  9
$USERI1
 70
     0
  9
$USERI2
 70
     0
  9
$USERI3
 70
     0
  9
$USERI4
 70
     0
  9
$USERI5
 70
     0
  9
$USERR1
 40
0.0
  9
$USERR2
 40
0.0
  9
$USERR3
 40
0.0
  9
$USERR4
 40
0.0
  9
$USERR5
 40
0.0
  9
$WORLDVIEW
 70
     1
  9
$SHADEDGE
 70
     3
  9
$SHADEDIF
 70
    70
  9
$TILEMODE
 70
     1
  9
$MAXACTVP
 70
    64
  9
$PINSBASE
 10
0.0
 20
0.0
 30
0.0
  9
$PLIMCHECK
 70
     0
  9
$PEXTMIN
 10
-5.730400000000003
 20
-7.876400000000018
 30
0.0
  9
$PEXTMAX
 10
203.3304
 20
279.4764
 30
0.0
  9
$PLIMMIN
 10
-20.0
 20
-7.5
  9
$PLIMMAX
 10
277.0
 20
202.5
  9
$UNITMODE
 70
     0
  9
$VISRETAIN
 70
     1
  9
$PLINEGEN
 70
     0
  9
$PSLTSCALE
 70
     0
  9
$TREEDEPTH
 70
  3020
  9
$CMLSTYLE
  2
Standard
  9
$CMLJUST
 70
     0
  9
$CMLSCALE
 40
20.0
  9
$PROXYGRAPHICS
 70
     1
  9
$MEASUREMENT
 70
     1
  9
$CELWEIGHT
370
    -1
  9
$ENDCAPS
280
     0
  9
$JOINSTYLE
280
     0
  9
$LWDISPLAY
290
     0
  9
$INSUNITS
 70
     4
  9
$HYPERLINKBASE
  1

  9
$STYLESHEET
  1

  9
$XEDIT
290
     1
  9
$CEPSNTYPE
380
     3
  9
$CEPSNID
390
5F
  9
$PSTYLEMODE
290
     0
  9
$FINGERPRINTGUID
  2
{c23e39c1-d054-477d-be3a-9f8614bf6cef}
  9
$VERSIONGUID
  2
{FAEB1C32-E019-11D5-929B-00C0DF256EC4}
  9
$EXTNAMES
290
     1
  9
$PSVPSCALE
 40
0.0
  9
$OLESTARTUP
290
     0
  9
$SORTENTS
280
   127
  9
$INDEXCTL
280
     0
  9
$HIDETEXT
280
     1
  9
$XCLIPFRAME
280
     2
  9
$HALOGAP
280
     0
  9
$OBSCOLOR
 70
   257
  9
$OBSLTYPE
280
     0
  9
$INTERSECTIONDISPLAY
280
     0
  9
$INTERSECTIONCOLOR
 70
   257
  9
$DIMASSOC
280
     2
  9
$PROJECTNAME
  1

  9
$CAMERADISPLAY
290
     0
  9
$LENSLENGTH
 40
50.0
  9
$CAMERAHEIGHT
 40
0.0
  9
$STEPSPERSEC
 40
2.0
  9
$STEPSIZE
 40
6.0
  9
$3DDWFPREC
 40
2.0
  9
$PSOLWIDTH
 40
5.0
  9
$PSOLHEIGHT
 40
80.0
  9
$LOFTANG1
 40
1.570796326794897
  9
$LOFTANG2
 40
1.570796326794897
  9
$LOFTMAG1
 40
0.0
  9
$LOFTMAG2
 40
0.0
  9
$LOFTPARAM
 70
     7
  9
$LOFTNORMALS
280
     1
  9
$LATITUDE
 40
37.795
  9
$LONGITUDE
 40
-122.394
  9
$NORTHDIRECTION
 40
0.0
  9
$TIMEZONE
 70
 -8000
  9
$LIGHTGLYPHDISPLAY
280
     1
  9
$TILEMODELIGHTSYNCH
280
     1
  9
$CMATERIAL
347
44
  9
$SOLIDHIST
280
     0
  9
$SHOWHIST
280
     1
  9
$DWFFRAME
280
     2
  9
$DGNFRAME
280
     2
  9
$REALWORLDSCALE
290
     1
  9
$INTERFERECOLOR
 62
   256
  9
$CSHADOW
280
     0
  9
$SHADOWPLANELOCATION
 40
0.0
  0
ENDSEC
  0
SECTION
  2
CLASSES
  0
CLASS
  1
ACDBDICTIONARYWDFLT
  2
AcDbDictionaryWithDefault
  3
ObjectDBX Classes
 90
        0
 91
        3
280
     0
281
     0
  0
CLASS
  1
VISUALSTYLE
  2
AcDbVisualStyle
  3
ObjectDBX Classes
 90
     4095
 91
        3
280
     0
281
     0
  0
CLASS
  1
MATERIAL
  2
AcDbMaterial
  3
ObjectDBX Classes
 90
     1153
 91
        3
280
     0
281
     0
  0
CLASS
  1
SCALE
  2
AcDbScale
  3
ObjectDBX Classes
 90
     1153
 91
        3
280
     0
281
     0
  0
CLASS
  1
TABLESTYLE
  2
AcDbTableStyle
  3
ObjectDBX Classes
 90
     4095
 91
        3
280
     0
281
     0
  0
CLASS
  1
MLEADERSTYLE
  2
AcDbMLeaderStyle
  3
ACDB_MLEADERSTYLE_CLASS
 90
     4095
 91
        3
280
     0
281
     0
  0
CLASS
  1
SUN
  2
AcDbSun
  3
SCENEOE
 90
     1153
 91
        3
280
     0
281
     0
  0
CLASS
  1
RASTERVARIABLES
  2
AcDbRasterVariables
  3
ISM
 90
        0
 91
        3
280
     0
281
     0
  0
CLASS
  1
WIPEOUTVARIABLES
  2
AcDbWipeoutVariables
  3
WipeOut|AutoCAD Express Tool|expresstools@autodesk.com
 90
        0
 91
        3
280
     0
281
     0
  0
CLASS
  1
PLOTSETTINGS
  2
AcDbPlotSettings
  3
ObjectDBX Classes
 90
        0
 91
        3
280
     0
281
     0
  0
CLASS
  1
DICTIONARYVAR
  2
AcDbDictionaryVar
  3
ObjectDBX Classes
 90
        0
 91
        3
280
     0
281
     0
  0
CLASS
  1
CELLSTYLEMAP
  2
AcDbCellStyleMap
  3
ObjectDBX Classes
 90
     1152
 91
        3
280
     0
281
     0
  0
ENDSEC
  0
SECTION
  2
TABLES
  0
TABLE
  2
VPORT
  5
8
330
0
100
AcDbSymbolTable
 70
     1
  0
VPORT
  5
29
330
8
100
AcDbSymbolTableRecord
100
AcDbViewportTableRecord
  2
*Active
 70
     0
 10
0.0
 20
0.0
 11
1.0
 21
1.0
 12
20442.80871694214
 22
-13238.04508968617
 13
0.0
 23
0.0
 14
10.0
 24
10.0
 15
10.0
 25
10.0
 16
0.0
 26
0.0
 36
1.0
 17
0.0
 27
0.0
 37
0.0
 40
2487.294387256689
 41
9.289620150364728
 42
50.0
 43
0.0
 44
0.0
 50
0.0
 51
0.0
 71
     0
 72
   100
 73
     1
 74
     3
 75
     0
 76
     0
 77
     0
 78
     0
281
     0
 65
     1
110
0.0
120
0.0
130
0.0
111
1.0
121
0.0
131
0.0
112
0.0
122
1.0
132
0.0
 79
     0
146
0.0
348
2F
 60
     3
 61
     5
292
     1
282
     1
141
0.0
142
0.0
 63
   250
361
5D
  0
ENDTAB
  0
TABLE
  2
LTYPE
  5
5
330
0
100
AcDbSymbolTable
 70
     3
  0
LTYPE
  5
14
330
5
100
AcDbSymbolTableRecord
100
AcDbLinetypeTableRecord
  2
ByBlock
 70
     0
  3

 72
    65
 73
     0
 40
0.0
  0
LTYPE
  5
15
330
5
100
AcDbSymbolTableRecord
100
AcDbLinetypeTableRecord
  2
ByLayer
 70
     0
  3

 72
    65
 73
     0
 40
0.0
  0
LTYPE
  5
16
330
5
100
AcDbSymbolTableRecord
100
AcDbLinetypeTableRecord
  2
Continuous
 70
     0
  3
Solid line
 72
    65
 73
     0
 40
0.0
  0
LTYPE
  5
166
330
5
100
AcDbSymbolTableRecord
100
AcDbLinetypeTableRecord
  2
CADWORK_3
 70
     0
  3

 72
    65
 73
     2
 40
4.0
 49
2.0
 74
     0
 49
-2.0
 74
     0
  0
LTYPE
  5
256
330
5
100
AcDbSymbolTableRecord
100
AcDbLinetypeTableRecord
  2
CADWORK_22
 70
     0
  3

 72
    65
 73
     0
 40
0.0
  0
ENDTAB
  0
TABLE
  2
LAYER
  5
2
330
0
100
AcDbSymbolTable
 70
     4
  0
LAYER
  5
10
330
2
100
AcDbSymbolTableRecord
100
AcDbLayerTableRecord
  2
0
 70
     0
 62
     7
  6
Continuous
370
    -3
390
F
347
46
348
0
  0
LAYER
  5
67
330
2
100
AcDbSymbolTableRecord
100
AcDbLayerTableRecord
  2
Ech.1_5
 70
     0
 62
     7
  6
Continuous
370
    -3
390
F
347
46
348
0
  0
LAYER
  5
68
330
2
100
AcDbSymbolTableRecord
100
AcDbLayerTableRecord
  2
ECH_1_5
 70
     0
 62
     7
  6
Continuous
370
    -3
390
F
347
46
348
0
  0
LAYER
  5
69
330
2
100
AcDbSymbolTableRecord
100
AcDbLayerTableRecord
  2
0_
 70
     0
 62
     7
  6
Continuous
370
    -3
390
F
347
46
348
0
  0
ENDTAB
  0
TABLE
  2
STYLE
  5
3
330
0
100
AcDbSymbolTable
 70
     9
  0
STYLE
  5
11
330
3
100
AcDbSymbolTableRecord
100
AcDbTextStyleTableRecord
  2
Standard
 70
     0
 40
0.0
 41
1.0
 50
0.0
 71
     0
 42
2.5
  3
txt
  4

  0
STYLE
  5
62
330
3
100
AcDbSymbolTableRecord
100
AcDbTextStyleTableRecord
  2
CwStyleShx
 70
     0
 40
1.0
 41
1.0
 50
0.0
 71
     0
 42
2.5
  3

  4

  0
STYLE
  5
63
330
3
100
AcDbSymbolTableRecord
100
AcDbTextStyleTableRecord
  2
CwStyleShx16
 70
     0
 40
1.0
 41
1.0
 50
0.0
 71
     0
 42
2.5
  3

  4

  0
STYLE
  5
64
330
3
100
AcDbSymbolTableRecord
100
AcDbTextStyleTableRecord
  2
MONOTXT
 70
     0
 40
0.0
 41
1.0
 50
0.0
 71
     0
 42
2.5
  3
MONOTXT
  4

  0
STYLE
  5
65
330
3
100
AcDbSymbolTableRecord
100
AcDbTextStyleTableRecord
  2
SYMAP
 70
     0
 40
1.0
 41
1.0
 50
0.0
 71
     0
 42
2.5
  3
SYMAP
  4

  0
STYLE
  5
66
330
3
100
AcDbSymbolTableRecord
100
AcDbTextStyleTableRecord
  2
CwStyleTtf
 70
     0
 40
1.0
 41
1.0
 50
0.0
 71
     0
 42
2.5
  3
arial.ttf
  4

  0
STYLE
  5
318
330
3
100
AcDbSymbolTableRecord
100
AcDbTextStyleTableRecord
  2
arial-
 70
     0
 40
1.0
 41
1.0
 50
0.0
 71
     0
 42
2.5
  3
arial.ttf
  4

1001
ACAD
1000
Arial
1071
        0
  0
STYLE
  5
31C
330
3
100
AcDbSymbolTableRecord
100
AcDbTextStyleTableRecord
  2
arial-i
 70
     0
 40
1.0
 41
1.0
 50
0.0
 71
     0
 42
2.5
  3
ariali.ttf
  4

1001
ACAD
1000
Arial
1071
 16777216
  0
STYLE
  5
31E
330
3
100
AcDbSymbolTableRecord
100
AcDbTextStyleTableRecord
  2
arial-b
 70
     0
 40
1.0
 41
1.0
 50
0.0
 71
     0
 42
2.5
  3
arialbd.ttf
  4

1001
ACAD
1000
Arial
1071
 33554432
  0
ENDTAB
  0
TABLE
  2
VIEW
  5
6
330
0
100
AcDbSymbolTable
 70
     0
  0
ENDTAB
  0
TABLE
  2
UCS
  5
7
330
0
100
AcDbSymbolTable
 70
     0
  0
ENDTAB
  0
TABLE
  2
APPID
  5
9
330
0
100
AcDbSymbolTable
 70
     3
  0
APPID
  5
12
330
9
100
AcDbSymbolTableRecord
100
AcDbRegAppTableRecord
  2
ACAD
 70
     0
  0
APPID
  5
5E
330
9
100
AcDbSymbolTableRecord
100
AcDbRegAppTableRecord
  2
Cadwork
 70
     0
  0
APPID
  5
216
330
9
100
AcDbSymbolTableRecord
100
AcDbRegAppTableRecord
  2
PLOTTRANSPARENCY
 70
     0
  0
ENDTAB
  0
TABLE
  2
DIMSTYLE
  5
A
330
0
100
AcDbSymbolTable
 70
     1
100
AcDbDimStyleTable
  0
DIMSTYLE
105
27
330
A
100
AcDbSymbolTableRecord
100
AcDbDimStyleTableRecord
  2
ISO-25
 70
     0
 41
2.5
 42
0.625
 43
3.75
 44
1.25
 73
     0
 74
     0
 77
     1
 78
     8
140
2.5
141
2.5
143
0.03937007874016
147
0.625
171
     3
172
     1
178
     0
271
     2
272
     2
274
     3
278
    44
283
     0
284
     8
340
11
  0
ENDTAB
  0
TABLE
  2
BLOCK_RECORD
  5
1
330
0
100
AcDbSymbolTable
 70
    69
  0
BLOCK_RECORD
  5
1F
330
1
100
AcDbSymbolTableRecord
100
AcDbBlockTableRecord
  2
*Model_Space
340
22
 70
     0
280
     1
281
     0
  0
BLOCK_RECORD
  5
211
330
1
100
AcDbSymbolTableRecord
100
AcDbBlockTableRecord
  2
*Paper_Space
340
212
 70
     0
280
     1
281
     0
  0
BLOCK_RECORD
  5
6A
330
1
100
AcDbSymbolTableRecord
100
AcDbBlockTableRecord
  2
CDWK_PTTYP1
340
0
 70
     0
280
     1
281
     1
  0
BLOCK_RECORD
  5
71
330
1
100
AcDbSymbolTableRecord
100
AcDbBlockTableRecord
  2
CDWK_PTTYP2
340
0
 70
     0
280
     1
281
     1
  0
BLOCK_RECORD
  5
76
330
1
100
AcDbSymbolTableRecord
100
AcDbBlockTableRecord
  2
CDWK_PTTYP4
340
0
 70
     0
280
     1
281
     1
  0
BLOCK_RECORD
  5
7A
330
1
100
AcDbSymbolTableRecord
100
AcDbBlockTableRecord
  2
CDWK_PTTYP5
340
0
 70
     0
280
     1
281
     1
  0
BLOCK_RECORD
  5
83
330
1
100
AcDbSymbolTableRecord
100
AcDbBlockTableRecord
  2
CDWK_PTTYP6
340
0
 70
     0
280
     1
281
     1
  0
BLOCK_RECORD
  5
8B
330
1
100
AcDbSymbolTableRecord
100
AcDbBlockTableRecord
  2
CDWK_PTTYP7
340
0
 70
     0
280
     1
281
     1
  0
BLOCK_RECORD
  5
94
330
1
100
AcDbSymbolTableRecord
100
AcDbBlockTableRecord
  2
CDWK_PTTYP8
340
0
 70
     0
280
     1
281
     1
  0
BLOCK_RECORD
  5
98
330
1
100
AcDbSymbolTableRecord
100
AcDbBlockTableRecord
  2
CDWK_PTTYP9
340
0
 70
     0
280
     1
281
     1
  0
BLOCK_RECORD
  5
9D
330
1
100
AcDbSymbolTableRecord
100
AcDbBlockTableRecord
  2
CDWK_PTTYP10
340
0
 70
     0
280
     1
281
     1
  0
BLOCK_RECORD
  5
A1
330
1
100
AcDbSymbolTableRecord
100
AcDbBlockTableRecord
  2
CDWK_PTTYP11
340
0
 70
     0
280
     1
281
     1
  0
BLOCK_RECORD
  5
A6
330
1
100
AcDbSymbolTableRecord
100
AcDbBlockTableRecord
  2
CDWK_PTTYP12
340
0
 70
     0
280
     1
281
     1
  0
BLOCK_RECORD
  5
AB
330
1
100
AcDbSymbolTableRecord
100
AcDbBlockTableRecord
  2
CDWK_PTTYP13
340
0
 70
     0
280
     1
281
     1
  0
BLOCK_RECORD
  5
B1
330
1
100
AcDbSymbolTableRecord
100
AcDbBlockTableRecord
  2
CDWK_PTTYP16
340
0
 70
     0
280
     1
281
     1
  0
BLOCK_RECORD
  5
B8
330
1
100
AcDbSymbolTableRecord
100
AcDbBlockTableRecord
  2
CDWK_PTTYP17
340
0
 70
     0
280
     1
281
     1
  0
BLOCK_RECORD
  5
BD
330
1
100
AcDbSymbolTableRecord
100
AcDbBlockTableRecord
  2
CDWK_PTTYP18
340
0
 70
     0
280
     1
281
     1
  0
BLOCK_RECORD
  5
C2
330
1
100
AcDbSymbolTableRecord
100
AcDbBlockTableRecord
  2
CDWK_PTTYP19
340
0
 70
     0
280
     1
281
     1
  0
BLOCK_RECORD
  5
C8
330
1
100
AcDbSymbolTableRecord
100
AcDbBlockTableRecord
  2
CDWK_PTTYP20
340
0
 70
     0
280
     1
281
     1
  0
BLOCK_RECORD
  5
CD
330
1
100
AcDbSymbolTableRecord
100
AcDbBlockTableRecord
  2
CDWK_PTTYP21
340
0
 70
     0
280
     1
281
     1
  0
BLOCK_RECORD
  5
D2
330
1
100
AcDbSymbolTableRecord
100
AcDbBlockTableRecord
  2
CDWK_PTTYP25
340
0
 70
     0
280
     1
281
     1
  0
BLOCK_RECORD
  5
D9
330
1
100
AcDbSymbolTableRecord
100
AcDbBlockTableRecord
  2
CDWK_PTTYP26
340
0
 70
     0
280
     1
281
     1
  0
BLOCK_RECORD
  5
E0
330
1
100
AcDbSymbolTableRecord
100
AcDbBlockTableRecord
  2
CDWK_PTTYP27
340
0
 70
     0
280
     1
281
     1
  0
BLOCK_RECORD
  5
E8
330
1
100
AcDbSymbolTableRecord
100
AcDbBlockTableRecord
  2
CDWK_PTTYP28
340
0
 70
     0
280
     1
281
     1
  0
BLOCK_RECORD
  5
EF
330
1
100
AcDbSymbolTableRecord
100
AcDbBlockTableRecord
  2
CDWK_PTTYP29
340
0
 70
     0
280
     1
281
     1
  0
BLOCK_RECORD
  5
F5
330
1
100
AcDbSymbolTableRecord
100
AcDbBlockTableRecord
  2
CDWK_PTTYP30
340
0
 70
     0
280
     1
281
     1
  0
BLOCK_RECORD
  5
FC
330
1
100
AcDbSymbolTableRecord
100
AcDbBlockTableRecord
  2
CDWK_PTTYP31
340
0
 70
     0
280
     1
281
     1
  0
BLOCK_RECORD
  5
104
330
1
100
AcDbSymbolTableRecord
100
AcDbBlockTableRecord
  2
CDWK_PTTYP32
340
0
 70
     0
280
     1
281
     1
  0
BLOCK_RECORD
  5
10D
330
1
100
AcDbSymbolTableRecord
100
AcDbBlockTableRecord
  2
CDWK_PTTYP33
340
0
 70
     0
280
     1
281
     1
  0
BLOCK_RECORD
  5
113
330
1
100
AcDbSymbolTableRecord
100
AcDbBlockTableRecord
  2
CDWK_PTTYP34
340
0
 70
     0
280
     1
281
     1
  0
BLOCK_RECORD
  5
119
330
1
100
AcDbSymbolTableRecord
100
AcDbBlockTableRecord
  2
CDWK_PTTYP35
340
0
 70
     0
280
     1
281
     1
  0
BLOCK_RECORD
  5
11F
330
1
100
AcDbSymbolTableRecord
100
AcDbBlockTableRecord
  2
CDWK_PTTYP36
340
0
 70
     0
280
     1
281
     1
  0
BLOCK_RECORD
  5
127
330
1
100
AcDbSymbolTableRecord
100
AcDbBlockTableRecord
  2
CDWK_PTTYP37
340
0
 70
     0
280
     1
281
     1
  0
BLOCK_RECORD
  5
12C
330
1
100
AcDbSymbolTableRecord
100
AcDbBlockTableRecord
  2
CDWK_PTTYP38
340
0
 70
     0
280
     1
281
     1
  0
BLOCK_RECORD
  5
132
330
1
100
AcDbSymbolTableRecord
100
AcDbBlockTableRecord
  2
CDWK_PTTYP41
340
0
 70
     0
280
     1
281
     1
  0
BLOCK_RECORD
  5
13C
330
1
100
AcDbSymbolTableRecord
100
AcDbBlockTableRecord
  2
CDWK_PTTYP42
340
0
 70
     0
280
     1
281
     1
  0
BLOCK_RECORD
  5
145
330
1
100
AcDbSymbolTableRecord
100
AcDbBlockTableRecord
  2
CDWK_PTTYP43
340
0
 70
     0
280
     1
281
     1
  0
BLOCK_RECORD
  5
14B
330
1
100
AcDbSymbolTableRecord
100
AcDbBlockTableRecord
  2
CDWK_PTTYP44
340
0
 70
     0
280
     1
281
     1
  0
BLOCK_RECORD
  5
154
330
1
100
AcDbSymbolTableRecord
100
AcDbBlockTableRecord
  2
CDWK_PTTYP45
340
0
 70
     0
280
     1
281
     1
  0
BLOCK_RECORD
  5
159
330
1
100
AcDbSymbolTableRecord
100
AcDbBlockTableRecord
  2
CDWK_PTTYP46
340
0
 70
     0
280
     1
281
     1
  0
BLOCK_RECORD
  5
15E
330
1
100
AcDbSymbolTableRecord
100
AcDbBlockTableRecord
  2
CDWK_PTTYP47
340
0
 70
     0
280
     1
281
     1
  0
BLOCK_RECORD
  5
167
330
1
100
AcDbSymbolTableRecord
100
AcDbBlockTableRecord
  2
CDWK_PTTYP48
340
0
 70
     0
280
     1
281
     1
  0
BLOCK_RECORD
  5
16C
330
1
100
AcDbSymbolTableRecord
100
AcDbBlockTableRecord
  2
CDWK_PTTYP49
340
0
 70
     0
280
     1
281
     1
  0
BLOCK_RECORD
  5
173
330
1
100
AcDbSymbolTableRecord
100
AcDbBlockTableRecord
  2
CDWK_PTTYP50
340
0
 70
     0
280
     1
281
     1
  0
BLOCK_RECORD
  5
17D
330
1
100
AcDbSymbolTableRecord
100
AcDbBlockTableRecord
  2
CDWK_PTTYP51
340
0
 70
     0
280
     1
281
     1
  0
BLOCK_RECORD
  5
182
330
1
100
AcDbSymbolTableRecord
100
AcDbBlockTableRecord
  2
CDWK_PTTYP52
340
0
 70
     0
280
     1
281
     1
  0
BLOCK_RECORD
  5
188
330
1
100
AcDbSymbolTableRecord
100
AcDbBlockTableRecord
  2
cw-dimension-symbol1
340
0
 70
     0
280
     1
281
     0
  0
BLOCK_RECORD
  5
18F
330
1
100
AcDbSymbolTableRecord
100
AcDbBlockTableRecord
  2
cw-dimension-symbol2
340
0
 70
     0
280
     1
281
     0
  0
BLOCK_RECORD
  5
194
330
1
100
AcDbSymbolTableRecord
100
AcDbBlockTableRecord
  2
cw-dimension-symbol3
340
0
 70
     0
280
     1
281
     0
  0
BLOCK_RECORD
  5
199
330
1
100
AcDbSymbolTableRecord
100
AcDbBlockTableRecord
  2
cw-dimension-symbol5
340
0
 70
     0
280
     1
281
     0
  0
BLOCK_RECORD
  5
1A0
330
1
100
AcDbSymbolTableRecord
100
AcDbBlockTableRecord
  2
cw-dimension-symbol6
340
0
 70
     0
280
     1
281
     0
  0
BLOCK_RECORD
  5
1A6
330
1
100
AcDbSymbolTableRecord
100
AcDbBlockTableRecord
  2
cw-dimension-symbol11
340
0
 70
     0
280
     1
281
     0
  0
BLOCK_RECORD
  5
1AC
330
1
100
AcDbSymbolTableRecord
100
AcDbBlockTableRecord
  2
cw-dimension-symbol13
340
0
 70
     0
280
     1
281
     0
  0
BLOCK_RECORD
  5
1B2
330
1
100
AcDbSymbolTableRecord
100
AcDbBlockTableRecord
  2
cw-dimension-symbol15
340
0
 70
     0
280
     1
281
     0
  0
BLOCK_RECORD
  5
1B9
330
1
100
AcDbSymbolTableRecord
100
AcDbBlockTableRecord
  2
cw-dimension-symbol16
340
0
 70
     0
280
     1
281
     0
  0
BLOCK_RECORD
  5
1C0
330
1
100
AcDbSymbolTableRecord
100
AcDbBlockTableRecord
  2
cw-dimension-symbol17
340
0
 70
     0
280
     1
281
     0
  0
BLOCK_RECORD
  5
1C7
330
1
100
AcDbSymbolTableRecord
100
AcDbBlockTableRecord
  2
cw-dimension-symbol18
340
0
 70
     0
280
     1
281
     0
  0
BLOCK_RECORD
  5
1CE
330
1
100
AcDbSymbolTableRecord
100
AcDbBlockTableRecord
  2
cw-dimension-symbol19
340
0
 70
     0
280
     1
281
     0
  0
BLOCK_RECORD
  5
1D1
330
1
100
AcDbSymbolTableRecord
100
AcDbBlockTableRecord
  2
cw-dimension-symbol20
340
0
 70
     0
280
     1
281
     0
  0
BLOCK_RECORD
  5
1D8
330
1
100
AcDbSymbolTableRecord
100
AcDbBlockTableRecord
  2
cw-dimension-symbol21
340
0
 70
     0
280
     1
281
     0
  0
BLOCK_RECORD
  5
1DF
330
1
100
AcDbSymbolTableRecord
100
AcDbBlockTableRecord
  2
cw-line-extremity0
340
0
 70
     0
280
     1
281
     0
  0
BLOCK_RECORD
  5
1E3
330
1
100
AcDbSymbolTableRecord
100
AcDbBlockTableRecord
  2
cw-line-extremity2
340
0
 70
     0
280
     1
281
     0
  0
BLOCK_RECORD
  5
1E8
330
1
100
AcDbSymbolTableRecord
100
AcDbBlockTableRecord
  2
cw-line-extremity3
340
0
 70
     0
280
     1
281
     0
  0
BLOCK_RECORD
  5
1ED
330
1
100
AcDbSymbolTableRecord
100
AcDbBlockTableRecord
  2
cw-line-extremity301
340
0
 70
     0
280
     1
281
     0
  0
BLOCK_RECORD
  5
1EF
330
1
100
AcDbSymbolTableRecord
100
AcDbBlockTableRecord
  2
cw-line-extremity4
340
0
102
{BLKREFS
331
311
331
313
331
315
331
317
102
}
 70
     0
280
     1
281
     0
  0
BLOCK_RECORD
  5
1F1
330
1
100
AcDbSymbolTableRecord
100
AcDbBlockTableRecord
  2
cw-line-extremity5
340
0
 70
     0
280
     1
281
     0
  0
BLOCK_RECORD
  5
1F3
330
1
100
AcDbSymbolTableRecord
100
AcDbBlockTableRecord
  2
cw-line-extremity6
340
0
 70
     0
280
     1
281
     0
  0
BLOCK_RECORD
  5
1F5
330
1
100
AcDbSymbolTableRecord
100
AcDbBlockTableRecord
  2
cw-line-extremity9
340
0
 70
     0
280
     1
281
     0
  0
BLOCK_RECORD
  5
1F7
330
1
100
AcDbSymbolTableRecord
100
AcDbBlockTableRecord
  2
cw-line-extremity10
340
0
 70
     0
280
     1
281
     0
  0
BLOCK_RECORD
  5
1F9
330
1
100
AcDbSymbolTableRecord
100
AcDbBlockTableRecord
  2
cw-line-extremity1
340
0
 70
     0
280
     1
281
     0
  0
BLOCK_RECORD
  5
1B
330
1
100
AcDbSymbolTableRecord
100
AcDbBlockTableRecord
  2
*Paper_Space69
340
1E
 70
     0
280
     1
281
     0
  0
ENDTAB
  0
ENDSEC
  0
SECTION
  2
BLOCKS
  0
BLOCK
  5
20
330
1F
100
AcDbEntity
  8
0
100
AcDbBlockBegin
  2
*Model_Space
 70
     0
 10
0.0
 20
0.0
 30
0.0
  3
*Model_Space
  1

  0
ENDBLK
  5
21
330
1F
100
AcDbEntity
  8
0
100
AcDbBlockEnd
  0
BLOCK
  5
213
330
211
100
AcDbEntity
 67
     1
  8
0
100
AcDbBlockBegin
  2
*Paper_Space
 70
     0
 10
0.0
 20
0.0
 30
0.0
  3
*Paper_Space
  1

  0
ENDBLK
  5
214
330
211
100
AcDbEntity
 67
     1
  8
0
100
AcDbBlockEnd
  0
BLOCK
  5
6F
330
6A
100
AcDbEntity
  8
0
100
AcDbBlockBegin
  2
CDWK_PTTYP1
 70
     0
 10
0.0
 20
0.0
 30
0.0
  3
CDWK_PTTYP1
  1

  0
LINE
  5
6B
330
6A
100
AcDbEntity
  8
0
  6
Continuous
 62
     0
370
    -2
390
5F
100
AcDbLine
 10
-0.5
 20
0.5
 30
0.0
 11
0.5
 21
0.5
 31
0.0
  0
LINE
  5
6C
330
6A
100
AcDbEntity
  8
0
  6
Continuous
 62
     0
370
    -2
390
5F
100
AcDbLine
 10
0.5
 20
0.5
 30
0.0
 11
0.5
 21
-0.5
 31
0.0
  0
LINE
  5
6D
330
6A
100
AcDbEntity
  8
0
  6
Continuous
 62
     0
370
    -2
390
5F
100
AcDbLine
 10
0.5
 20
-0.5
 30
0.0
 11
-0.5
 21
-0.5
 31
0.0
  0
LINE
  5
6E
330
6A
100
AcDbEntity
  8
0
  6
Continuous
 62
     0
370
    -2
390
5F
100
AcDbLine
 10
-0.5
 20
-0.5
 30
0.0
 11
-0.5
 21
0.5
 31
0.0
  0
ENDBLK
  5
70
330
6A
100
AcDbEntity
  8
0
100
AcDbBlockEnd
  0
BLOCK
  5
74
330
71
100
AcDbEntity
  8
0
100
AcDbBlockBegin
  2
CDWK_PTTYP2
 70
     0
 10
0.0
 20
0.0
 30
0.0
  3
CDWK_PTTYP2
  1

  0
LINE
  5
72
330
71
100
AcDbEntity
  8
0
  6
Continuous
 62
     0
370
    -2
390
5F
100
AcDbLine
 10
0.0
 20
0.5
 30
0.0
 11
0.0
 21
-0.5
 31
0.0
  0
LINE
  5
73
330
71
100
AcDbEntity
  8
0
  6
Continuous
 62
     0
370
    -2
390
5F
100
AcDbLine
 10
0.5
 20
0.0
 30
0.0
 11
-0.5
 21
0.0
 31
0.0
  0
ENDBLK
  5
75
330
71
100
AcDbEntity
  8
0
100
AcDbBlockEnd
  0
BLOCK
  5
78
330
76
100
AcDbEntity
  8
0
100
AcDbBlockBegin
  2
CDWK_PTTYP4
 70
     0
 10
0.0
 20
0.0
 30
0.0
  3
CDWK_PTTYP4
  1

  0
HATCH
  5
77
330
76
100
AcDbEntity
  8
0
  6
Continuous
 62
     0
370
    -2
390
5F
100
AcDbHatch
 10
0.0
 20
0.0
 30
0.0
210
0.0
220
0.0
230
1.0
  2
SOLID
 70
     1
 71
     0
 91
        1
 92
        1
 93
        1
 72
     2
 10
0.0
 20
0.0
 40
0.5
 50
0.0
 51
360.0
 73
     1
 97
        0
 75
     0
 76
     1
 98
        0
  0
ENDBLK
  5
79
330
76
100
AcDbEntity
  8
0
100
AcDbBlockEnd
  0
BLOCK
  5
81
330
7A
100
AcDbEntity
  8
0
100
AcDbBlockBegin
  2
CDWK_PTTYP5
 70
     0
 10
0.0
 20
0.0
 30
0.0
  3
CDWK_PTTYP5
  1

  0
LINE
  5
7B
330
7A
100
AcDbEntity
  8
0
  6
Continuous
 62
     0
370
    -2
390
5F
100
AcDbLine
 10
-0.5
 20
0.5
 30
0.0
 11
0.5
 21
0.5
 31
0.0
  0
LINE
  5
7C
330
7A
100
AcDbEntity
  8
0
  6
Continuous
 62
     0
370
    -2
390
5F
100
AcDbLine
 10
0.5
 20
0.5
 30
0.0
 11
0.5
 21
-0.5
 31
0.0
  0
LINE
  5
7D
330
7A
100
AcDbEntity
  8
0
  6
Continuous
 62
     0
370
    -2
390
5F
100
AcDbLine
 10
0.5
 20
-0.5
 30
0.0
 11
-0.5
 21
-0.5
 31
0.0
  0
LINE
  5
7E
330
7A
100
AcDbEntity
  8
0
  6
Continuous
 62
     0
370
    -2
390
5F
100
AcDbLine
 10
-0.5
 20
-0.5
 30
0.0
 11
-0.5
 21
0.5
 31
0.0
  0
HATCH
  5
7F
330
7A
100
AcDbEntity
  8
0
  6
Continuous
 62
     0
370
    -2
390
5F
100
AcDbHatch
 10
0.0
 20
0.0
 30
0.0
210
0.0
220
0.0
230
1.0
  2
SOLID
 70
     1
 71
     0
 91
        1
 92
        3
 72
     0
 73
     1
 93
        4
 10
-0.5
 20
0.0
 10
0.0
 20
0.0
 10
0.0
 20
-0.5
 10
-0.5
 20
-0.5
 97
        0
 75
     0
 76
     1
 98
        0
  0
HATCH
  5
80
330
7A
100
AcDbEntity
  8
0
  6
Continuous
 62
     0
370
    -2
390
5F
100
AcDbHatch
 10
0.0
 20
0.0
 30
0.0
210
0.0
220
0.0
230
1.0
  2
SOLID
 70
     1
 71
     0
 91
        1
 92
        3
 72
     0
 73
     1
 93
        4
 10
0.0
 20
0.0
 10
0.5
 20
0.0
 10
0.5
 20
0.5
 10
0.0
 20
0.5
 97
        0
 75
     0
 76
     1
 98
        0
  0
ENDBLK
  5
82
330
7A
100
AcDbEntity
  8
0
100
AcDbBlockEnd
  0
BLOCK
  5
89
330
83
100
AcDbEntity
  8
0
100
AcDbBlockBegin
  2
CDWK_PTTYP6
 70
     0
 10
0.0
 20
0.0
 30
0.0
  3
CDWK_PTTYP6
  1

  0
LINE
  5
84
330
83
100
AcDbEntity
  8
0
  6
Continuous
 62
     0
370
    -2
390
5F
100
AcDbLine
 10
-0.5
 20
0.5
 30
0.0
 11
0.5
 21
0.5
 31
0.0
  0
LINE
  5
85
330
83
100
AcDbEntity
  8
0
  6
Continuous
 62
     0
370
    -2
390
5F
100
AcDbLine
 10
0.5
 20
0.5
 30
0.0
 11
0.5
 21
-0.5
 31
0.0
  0
LINE
  5
86
330
83
100
AcDbEntity
  8
0
  6
Continuous
 62
     0
370
    -2
390
5F
100
AcDbLine
 10
0.5
 20
-0.5
 30
0.0
 11
-0.5
 21
-0.5
 31
0.0
  0
LINE
  5
87
330
83
100
AcDbEntity
  8
0
  6
Continuous
 62
     0
370
    -2
390
5F
100
AcDbLine
 10
-0.5
 20
-0.5
 30
0.0
 11
-0.5
 21
0.5
 31
0.0
  0
HATCH
  5
88
330
83
100
AcDbEntity
  8
0
  6
Continuous
 62
     0
370
    -2
390
5F
100
AcDbHatch
 10
0.0
 20
0.0
 30
0.0
210
0.0
220
0.0
230
1.0
  2
SOLID
 70
     1
 71
     0
 91
        1
 92
        3
 72
     0
 73
     1
 93
        3
 10
-0.5
 20
-0.5
 10
-0.5
 20
0.5
 10
0.5
 20
0.5
 97
        0
 75
     0
 76
     1
 98
        0
  0
ENDBLK
  5
8A
330
83
100
AcDbEntity
  8
0
100
AcDbBlockEnd
  0
BLOCK
  5
92
330
8B
100
AcDbEntity
  8
0
100
AcDbBlockBegin
  2
CDWK_PTTYP7
 70
     0
 10
0.0
 20
0.0
 30
0.0
  3
CDWK_PTTYP7
  1

  0
LINE
  5
8C
330
8B
100
AcDbEntity
  8
0
  6
Continuous
 62
     0
370
    -2
390
5F
100
AcDbLine
 10
-0.5
 20
0.5
 30
0.0
 11
0.5
 21
0.5
 31
0.0
  0
LINE
  5
8D
330
8B
100
AcDbEntity
  8
0
  6
Continuous
 62
     0
370
    -2
390
5F
100
AcDbLine
 10
0.5
 20
0.5
 30
0.0
 11
0.5
 21
-0.5
 31
0.0
  0
LINE
  5
8E
330
8B
100
AcDbEntity
  8
0
  6
Continuous
 62
     0
370
    -2
390
5F
100
AcDbLine
 10
0.5
 20
-0.5
 30
0.0
 11
-0.5
 21
-0.5
 31
0.0
  0
LINE
  5
8F
330
8B
100
AcDbEntity
  8
0
  6
Continuous
 62
     0
370
    -2
390
5F
100
AcDbLine
 10
-0.5
 20
-0.5
 30
0.0
 11
-0.5
 21
0.5
 31
0.0
  0
LINE
  5
90
330
8B
100
AcDbEntity
  8
0
  6
Continuous
 62
     0
370
    -2
390
5F
100
AcDbLine
 10
0.0
 20
0.5
 30
0.0
 11
0.0
 21
-0.5
 31
0.0
  0
LINE
  5
91
330
8B
100
AcDbEntity
  8
0
  6
Continuous
 62
     0
370
    -2
390
5F
100
AcDbLine
 10
0.5
 20
0.0
 30
0.0
 11
-0.5
 21
0.0
 31
0.0
  0
ENDBLK
  5
93
330
8B
100
AcDbEntity
  8
0
100
AcDbBlockEnd
  0
BLOCK
  5
96
330
94
100
AcDbEntity
  8
0
100
AcDbBlockBegin
  2
CDWK_PTTYP8
 70
     0
 10
0.0
 20
0.0
 30
0.0
  3
CDWK_PTTYP8
  1

  0
HATCH
  5
95
330
94
100
AcDbEntity
  8
0
  6
Continuous
 62
     0
370
    -2
390
5F
100
AcDbHatch
 10
0.0
 20
0.0
 30
0.0
210
0.0
220
0.0
230
1.0
  2
SOLID
 70
     1
 71
     0
 91
        1
 92
        3
 72
     0
 73
     1
 93
        4
 10
0.5
 20
0.5
 10
0.5
 20
-0.5
 10
-0.5
 20
-0.5
 10
-0.5
 20
0.5
 97
        0
 75
     0
 76
     1
 98
        0
  0
ENDBLK
  5
97
330
94
100
AcDbEntity
  8
0
100
AcDbBlockEnd
  0
BLOCK
  5
9B
330
98
100
AcDbEntity
  8
0
100
AcDbBlockBegin
  2
CDWK_PTTYP9
 70
     0
 10
0.0
 20
0.0
 30
0.0
  3
CDWK_PTTYP9
  1

  0
CIRCLE
  5
99
330
98
100
AcDbEntity
  8
0
  6
Continuous
 62
     0
370
    -2
390
5F
100
AcDbCircle
 10
0.0
 20
0.0
 30
0.0
 40
0.1666666666666667
  0
CIRCLE
  5
9A
330
98
100
AcDbEntity
  8
0
  6
Continuous
 62
     0
370
    -2
390
5F
100
AcDbCircle
 10
0.0
 20
0.0
 30
0.0
 40
0.5
  0
ENDBLK
  5
9C
330
98
100
AcDbEntity
  8
0
100
AcDbBlockEnd
  0
BLOCK
  5
9F
330
9D
100
AcDbEntity
  8
0
100
AcDbBlockBegin
  2
CDWK_PTTYP10
 70
     0
 10
0.0
 20
0.0
 30
0.0
  3
CDWK_PTTYP10
  1

  0
CIRCLE
  5
9E
330
9D
100
AcDbEntity
  8
0
  6
Continuous
 62
     0
370
    -2
390
5F
100
AcDbCircle
 10
0.0
 20
0.0
 30
0.0
 40
0.5
  0
ENDBLK
  5
A0
330
9D
100
AcDbEntity
  8
0
100
AcDbBlockEnd
  0
BLOCK
  5
A4
330
A1
100
AcDbEntity
  8
0
100
AcDbBlockBegin
  2
CDWK_PTTYP11
 70
     0
 10
0.0
 20
0.0
 30
0.0
  3
CDWK_PTTYP11
  1

  0
CIRCLE
  5
A2
330
A1
100
AcDbEntity
  8
0
  6
Continuous
 62
     0
370
    -2
390
5F
100
AcDbCircle
 10
0.0
 20
0.0
 30
0.0
 40
0.25
  0
CIRCLE
  5
A3
330
A1
100
AcDbEntity
  8
0
  6
Continuous
 62
     0
370
    -2
390
5F
100
AcDbCircle
 10
0.0
 20
0.0
 30
0.0
 40
0.5
  0
ENDBLK
  5
A5
330
A1
100
AcDbEntity
  8
0
100
AcDbBlockEnd
  0
BLOCK
  5
A9
330
A6
100
AcDbEntity
  8
0
100
AcDbBlockBegin
  2
CDWK_PTTYP12
 70
     0
 10
0.0
 20
0.0
 30
0.0
  3
CDWK_PTTYP12
  1

  0
CIRCLE
  5
A7
330
A6
100
AcDbEntity
  8
0
  6
Continuous
 62
     0
370
    -2
390
5F
100
AcDbCircle
 10
0.25
 20
0.0
 30
0.0
 40
0.25
  0
CIRCLE
  5
A8
330
A6
100
AcDbEntity
  8
0
  6
Continuous
 62
     0
370
    -2
390
5F
100
AcDbCircle
 10
0.0
 20
0.0
 30
0.0
 40
0.5
  0
ENDBLK
  5
AA
330
A6
100
AcDbEntity
  8
0
100
AcDbBlockEnd
  0
BLOCK
  5
AF
330
AB
100
AcDbEntity
  8
0
100
AcDbBlockBegin
  2
CDWK_PTTYP13
 70
     0
 10
0.0
 20
0.0
 30
0.0
  3
CDWK_PTTYP13
  1

  0
CIRCLE
  5
AC
330
AB
100
AcDbEntity
  8
0
  6
Continuous
 62
     0
370
    -2
390
5F
100
AcDbCircle
 10
-0.25
 20
0.0
 30
0.0
 40
0.25
  0
CIRCLE
  5
AD
330
AB
100
AcDbEntity
  8
0
  6
Continuous
 62
     0
370
    -2
390
5F
100
AcDbCircle
 10
0.25
 20
0.0
 30
0.0
 40
0.25
  0
CIRCLE
  5
AE
330
AB
100
AcDbEntity
  8
0
  6
Continuous
 62
     0
370
    -2
390
5F
100
AcDbCircle
 10
0.0
 20
0.0
 30
0.0
 40
0.5
  0
ENDBLK
  5
B0
330
AB
100
AcDbEntity
  8
0
100
AcDbBlockEnd
  0
BLOCK
  5
B6
330
B1
100
AcDbEntity
  8
0
100
AcDbBlockBegin
  2
CDWK_PTTYP16
 70
     0
 10
0.0
 20
0.0
 30
0.0
  3
CDWK_PTTYP16
  1

  0
LINE
  5
B2
330
B1
100
AcDbEntity
  8
0
  6
Continuous
 62
     0
370
    -2
390
5F
100
AcDbLine
 10
-0.5
 20
-0.289
 30
0.0
 11
0.5
 21
-0.289
 31
0.0
  0
LINE
  5
B3
330
B1
100
AcDbEntity
  8
0
  6
Continuous
 62
     0
370
    -2
390
5F
100
AcDbLine
 10
0.5
 20
-0.289
 30
0.0
 11
0.0
 21
0.577
 31
0.0
  0
LINE
  5
B4
330
B1
100
AcDbEntity
  8
0
  6
Continuous
 62
     0
370
    -2
390
5F
100
AcDbLine
 10
0.0
 20
0.577
 30
0.0
 11
-0.5
 21
-0.289
 31
0.0
  0
CIRCLE
  5
B5
330
B1
100
AcDbEntity
  8
0
  6
Continuous
 62
     0
370
    -2
390
5F
100
AcDbCircle
 10
0.0
 20
0.0
 30
0.0
 40
0.289
  0
ENDBLK
  5
B7
330
B1
100
AcDbEntity
  8
0
100
AcDbBlockEnd
  0
BLOCK
  5
BB
330
B8
100
AcDbEntity
  8
0
100
AcDbBlockBegin
  2
CDWK_PTTYP17
 70
     0
 10
0.0
 20
0.0
 30
0.0
  3
CDWK_PTTYP17
  1

  0
CIRCLE
  5
B9
330
B8
100
AcDbEntity
  8
0
  6
Continuous
 62
     0
370
    -2
390
5F
100
AcDbCircle
 10
0.0
 20
0.0
 30
0.0
 40
0.5
  0
HATCH
  5
BA
330
B8
100
AcDbEntity
  8
0
  6
Continuous
 62
     0
370
    -2
390
5F
100
AcDbHatch
 10
0.0
 20
0.0
 30
0.0
210
0.0
220
0.0
230
1.0
  2
SOLID
 70
     1
 71
     0
 91
        1
 92
        1
 93
        1
 72
     2
 10
0.0
 20
0.0
 40
0.25
 50
0.0
 51
360.0
 73
     1
 97
        0
 75
     0
 76
     1
 98
        0
  0
ENDBLK
  5
BC
330
B8
100
AcDbEntity
  8
0
100
AcDbBlockEnd
  0
BLOCK
  5
C0
330
BD
100
AcDbEntity
  8
0
100
AcDbBlockBegin
  2
CDWK_PTTYP18
 70
     0
 10
0.0
 20
0.0
 30
0.0
  3
CDWK_PTTYP18
  1

  0
CIRCLE
  5
BE
330
BD
100
AcDbEntity
  8
0
  6
Continuous
 62
     0
370
    -2
390
5F
100
AcDbCircle
 10
0.0
 20
0.0
 30
0.0
 40
0.5
  0
CIRCLE
  5
BF
330
BD
100
AcDbEntity
  8
0
  6
Continuous
 62
     0
370
    -2
390
5F
100
AcDbCircle
 10
0.0
 20
0.0
 30
0.0
 40
0.208
  0
ENDBLK
  5
C1
330
BD
100
AcDbEntity
  8
0
100
AcDbBlockEnd
  0
BLOCK
  5
C6
330
C2
100
AcDbEntity
  8
0
100
AcDbBlockBegin
  2
CDWK_PTTYP19
 70
     0
 10
0.0
 20
0.0
 30
0.0
  3
CDWK_PTTYP19
  1

  0
CIRCLE
  5
C3
330
C2
100
AcDbEntity
  8
0
  6
Continuous
 62
     0
370
    -2
390
5F
100
AcDbCircle
 10
0.0
 20
0.0
 30
0.0
 40
0.25
  0
CIRCLE
  5
C4
330
C2
100
AcDbEntity
  8
0
  6
Continuous
 62
     0
370
    -2
390
5F
100
AcDbCircle
 10
0.0
 20
0.0
 30
0.0
 40
0.35
  0
LINE
  5
C5
330
C2
100
AcDbEntity
  8
0
  6
Continuous
 62
     0
370
    -2
390
5F
100
AcDbLine
 10
-0.25
 20
0.0
 30
0.0
 11
0.25
 21
0.0
 31
0.0
  0
ENDBLK
  5
C7
330
C2
100
AcDbEntity
  8
0
100
AcDbBlockEnd
  0
BLOCK
  5
CB
330
C8
100
AcDbEntity
  8
0
100
AcDbBlockBegin
  2
CDWK_PTTYP20
 70
     0
 10
0.0
 20
0.0
 30
0.0
  3
CDWK_PTTYP20
  1

  0
CIRCLE
  5
C9
330
C8
100
AcDbEntity
  8
0
  6
Continuous
 62
     0
370
    -2
390
5F
100
AcDbCircle
 10
0.0
 20
0.0
 30
0.0
 40
0.3333333333333333
  0
CIRCLE
  5
CA
330
C8
100
AcDbEntity
  8
0
  6
Continuous
 62
     0
370
    -2
390
5F
100
AcDbCircle
 10
0.0
 20
0.0
 30
0.0
 40
0.5
  0
ENDBLK
  5
CC
330
C8
100
AcDbEntity
  8
0
100
AcDbBlockEnd
  0
BLOCK
  5
D0
330
CD
100
AcDbEntity
  8
0
100
AcDbBlockBegin
  2
CDWK_PTTYP21
 70
     0
 10
0.0
 20
0.0
 30
0.0
  3
CDWK_PTTYP21
  1

  0
CIRCLE
  5
CE
330
CD
100
AcDbEntity
  8
0
  6
Continuous
 62
     0
370
    -2
390
5F
100
AcDbCircle
 10
0.0
 20
0.0
 30
0.0
 40
0.5
  0
LINE
  5
CF
330
CD
100
AcDbEntity
  8
0
  6
Continuous
 62
     0
370
    -2
390
5F
100
AcDbLine
 10
-0.5
 20
0.0
 30
0.0
 11
0.5
 21
0.0
 31
0.0
  0
ENDBLK
  5
D1
330
CD
100
AcDbEntity
  8
0
100
AcDbBlockEnd
  0
BLOCK
  5
D7
330
D2
100
AcDbEntity
  8
0
100
AcDbBlockBegin
  2
CDWK_PTTYP25
 70
     0
 10
0.0
 20
0.0
 30
0.0
  3
CDWK_PTTYP25
  1

  0
LINE
  5
D3
330
D2
100
AcDbEntity
  8
0
  6
Continuous
 62
     0
370
    -2
390
5F
100
AcDbLine
 10
0.0
 20
0.5
 30
0.0
 11
-0.4330127018922193
 21
-0.25
 31
0.0
  0
LINE
  5
D4
330
D2
100
AcDbEntity
  8
0
  6
Continuous
 62
     0
370
    -2
390
5F
100
AcDbLine
 10
-0.4330127018922193
 20
-0.25
 30
0.0
 11
0.4330127018922193
 21
-0.25
 31
0.0
  0
LINE
  5
D5
330
D2
100
AcDbEntity
  8
0
  6
Continuous
 62
     0
370
    -2
390
5F
100
AcDbLine
 10
0.4330127018922193
 20
-0.25
 30
0.0
 11
0.0
 21
0.5
 31
0.0
  0
CIRCLE
  5
D6
330
D2
100
AcDbEntity
  8
0
  6
Continuous
 62
     0
370
    -2
390
5F
100
AcDbCircle
 10
0.0
 20
0.0
 30
0.0
 40
0.5
  0
ENDBLK
  5
D8
330
D2
100
AcDbEntity
  8
0
100
AcDbBlockEnd
  0
BLOCK
  5
DE
330
D9
100
AcDbEntity
  8
0
100
AcDbBlockBegin
  2
CDWK_PTTYP26
 70
     0
 10
0.0
 20
0.0
 30
0.0
  3
CDWK_PTTYP26
  1

  0
LINE
  5
DA
330
D9
100
AcDbEntity
  8
0
  6
Continuous
 62
     0
370
    -2
390
5F
100
AcDbLine
 10
-0.5
 20
-0.289
 30
0.0
 11
0.5
 21
-0.289
 31
0.0
  0
LINE
  5
DB
330
D9
100
AcDbEntity
  8
0
  6
Continuous
 62
     0
370
    -2
390
5F
100
AcDbLine
 10
0.5
 20
-0.289
 30
0.0
 11
0.0
 21
0.577
 31
0.0
  0
LINE
  5
DC
330
D9
100
AcDbEntity
  8
0
  6
Continuous
 62
     0
370
    -2
390
5F
100
AcDbLine
 10
0.0
 20
0.577
 30
0.0
 11
-0.5
 21
-0.289
 31
0.0
  0
CIRCLE
  5
DD
330
D9
100
AcDbEntity
  8
0
  6
Continuous
 62
     0
370
    -2
390
5F
100
AcDbCircle
 10
0.0
 20
0.0
 30
0.0
 40
0.125
  0
ENDBLK
  5
DF
330
D9
100
AcDbEntity
  8
0
100
AcDbBlockEnd
  0
BLOCK
  5
E6
330
E0
100
AcDbEntity
  8
0
100
AcDbBlockBegin
  2
CDWK_PTTYP27
 70
     0
 10
0.0
 20
0.0
 30
0.0
  3
CDWK_PTTYP27
  1

  0
LINE
  5
E1
330
E0
100
AcDbEntity
  8
0
  6
Continuous
 62
     0
370
    -2
390
5F
100
AcDbLine
 10
0.0
 20
0.5
 30
0.0
 11
-0.4330127018922193
 21
-0.25
 31
0.0
  0
LINE
  5
E2
330
E0
100
AcDbEntity
  8
0
  6
Continuous
 62
     0
370
    -2
390
5F
100
AcDbLine
 10
-0.4330127018922193
 20
-0.25
 30
0.0
 11
0.4330127018922193
 21
-0.25
 31
0.0
  0
LINE
  5
E3
330
E0
100
AcDbEntity
  8
0
  6
Continuous
 62
     0
370
    -2
390
5F
100
AcDbLine
 10
0.4330127018922193
 20
-0.25
 30
0.0
 11
0.0
 21
0.5
 31
0.0
  0
CIRCLE
  5
E4
330
E0
100
AcDbEntity
  8
0
  6
Continuous
 62
     0
370
    -2
390
5F
100
AcDbCircle
 10
0.0
 20
0.0
 30
0.0
 40
0.125
  0
CIRCLE
  5
E5
330
E0
100
AcDbEntity
  8
0
  6
Continuous
 62
     0
370
    -2
390
5F
100
AcDbCircle
 10
0.0
 20
0.0
 30
0.0
 40
0.5
  0
ENDBLK
  5
E7
330
E0
100
AcDbEntity
  8
0
100
AcDbBlockEnd
  0
BLOCK
  5
ED
330
E8
100
AcDbEntity
  8
0
100
AcDbBlockBegin
  2
CDWK_PTTYP28
 70
     0
 10
0.0
 20
0.0
 30
0.0
  3
CDWK_PTTYP28
  1

  0
LINE
  5
E9
330
E8
100
AcDbEntity
  8
0
  6
Continuous
 62
     0
370
    -2
390
5F
100
AcDbLine
 10
-0.5
 20
0.5
 30
0.0
 11
0.5
 21
0.5
 31
0.0
  0
LINE
  5
EA
330
E8
100
AcDbEntity
  8
0
  6
Continuous
 62
     0
370
    -2
390
5F
100
AcDbLine
 10
0.5
 20
0.5
 30
0.0
 11
-0.5
 21
-0.5
 31
0.0
  0
LINE
  5
EB
330
E8
100
AcDbEntity
  8
0
  6
Continuous
 62
     0
370
    -2
390
5F
100
AcDbLine
 10
0.5
 20
-0.5
 30
0.0
 11
-0.5
 21
-0.5
 31
0.0
  0
LINE
  5
EC
330
E8
100
AcDbEntity
  8
0
  6
Continuous
 62
     0
370
    -2
390
5F
100
AcDbLine
 10
-0.5
 20
0.5
 30
0.0
 11
0.5
 21
-0.5
 31
0.0
  0
ENDBLK
  5
EE
330
E8
100
AcDbEntity
  8
0
100
AcDbBlockEnd
  0
BLOCK
  5
F3
330
EF
100
AcDbEntity
  8
0
100
AcDbBlockBegin
  2
CDWK_PTTYP29
 70
     0
 10
0.0
 20
0.0
 30
0.0
  3
CDWK_PTTYP29
  1

  0
CIRCLE
  5
F0
330
EF
100
AcDbEntity
  8
0
  6
Continuous
 62
     0
370
    -2
390
5F
100
AcDbCircle
 10
0.0
 20
0.0
 30
0.0
 40
0.2
  0
CIRCLE
  5
F1
330
EF
100
AcDbEntity
  8
0
  6
Continuous
 62
     0
370
    -2
390
5F
100
AcDbCircle
 10
0.0
 20
0.0
 30
0.0
 40
0.35
  0
CIRCLE
  5
F2
330
EF
100
AcDbEntity
  8
0
  6
Continuous
 62
     0
370
    -2
390
5F
100
AcDbCircle
 10
0.0
 20
0.0
 30
0.0
 40
0.5
  0
ENDBLK
  5
F4
330
EF
100
AcDbEntity
  8
0
100
AcDbBlockEnd
  0
BLOCK
  5
FA
330
F5
100
AcDbEntity
  8
0
100
AcDbBlockBegin
  2
CDWK_PTTYP30
 70
     0
 10
0.0
 20
0.0
 30
0.0
  3
CDWK_PTTYP30
  1

  0
LINE
  5
F6
330
F5
100
AcDbEntity
  8
0
  6
Continuous
 62
     0
370
    -2
390
5F
100
AcDbLine
 10
-0.5
 20
0.5
 30
0.0
 11
-0.1
 21
0.1
 31
0.0
  0
LINE
  5
F7
330
F5
100
AcDbEntity
  8
0
  6
Continuous
 62
     0
370
    -2
390
5F
100
AcDbLine
 10
0.5
 20
0.5
 30
0.0
 11
0.1
 21
0.1
 31
0.0
  0
LINE
  5
F8
330
F5
100
AcDbEntity
  8
0
  6
Continuous
 62
     0
370
    -2
390
5F
100
AcDbLine
 10
0.5
 20
-0.5
 30
0.0
 11
0.1
 21
-0.1
 31
0.0
  0
LINE
  5
F9
330
F5
100
AcDbEntity
  8
0
  6
Continuous
 62
     0
370
    -2
390
5F
100
AcDbLine
 10
-0.5
 20
-0.5
 30
0.0
 11
-0.1
 21
-0.1
 31
0.0
  0
ENDBLK
  5
FB
330
F5
100
AcDbEntity
  8
0
100
AcDbBlockEnd
  0
BLOCK
  5
102
330
FC
100
AcDbEntity
  8
0
100
AcDbBlockBegin
  2
CDWK_PTTYP31
 70
     0
 10
0.0
 20
0.0
 30
0.0
  3
CDWK_PTTYP31
  1

  0
LINE
  5
FD
330
FC
100
AcDbEntity
  8
0
  6
Continuous
 62
     0
370
    -2
390
5F
100
AcDbLine
 10
-0.5
 20
0.0
 30
0.0
 11
-0.1
 21
0.0
 31
0.0
  0
LINE
  5
FE
330
FC
100
AcDbEntity
  8
0
  6
Continuous
 62
     0
370
    -2
390
5F
100
AcDbLine
 10
0.1
 20
0.0
 30
0.0
 11
0.5
 21
0.0
 31
0.0
  0
LINE
  5
FF
330
FC
100
AcDbEntity
  8
0
  6
Continuous
 62
     0
370
    -2
390
5F
100
AcDbLine
 10
0.0
 20
0.5
 30
0.0
 11
0.0
 21
0.1
 31
0.0
  0
LINE
  5
100
330
FC
100
AcDbEntity
  8
0
  6
Continuous
 62
     0
370
    -2
390
5F
100
AcDbLine
 10
0.0
 20
-0.1
 30
0.0
 11
0.0
 21
-0.5
 31
0.0
  0
CIRCLE
  5
101
330
FC
100
AcDbEntity
  8
0
  6
Continuous
 62
     0
370
    -2
390
5F
100
AcDbCircle
 10
0.0
 20
0.0
 30
0.0
 40
0.1
  0
ENDBLK
  5
103
330
FC
100
AcDbEntity
  8
0
100
AcDbBlockEnd
  0
BLOCK
  5
10B
330
104
100
AcDbEntity
  8
0
100
AcDbBlockBegin
  2
CDWK_PTTYP32
 70
     0
 10
0.0
 20
0.0
 30
0.0
  3
CDWK_PTTYP32
  1

  0
CIRCLE
  5
105
330
104
100
AcDbEntity
  8
0
  6
Continuous
 62
     0
370
    -2
390
5F
100
AcDbCircle
 10
0.0
 20
0.0
 30
0.0
 40
0.2
  0
CIRCLE
  5
106
330
104
100
AcDbEntity
  8
0
  6
Continuous
 62
     0
370
    -2
390
5F
100
AcDbCircle
 10
0.0
 20
0.0
 30
0.0
 40
0.5
  0
LINE
  5
107
330
104
100
AcDbEntity
  8
0
  6
Continuous
 62
     0
370
    -2
390
5F
100
AcDbLine
 10
0.1414213562373095
 20
0.1414213562373095
 30
0.0
 11
0.3535533905932738
 21
0.3535533905932738
 31
0.0
  0
LINE
  5
108
330
104
100
AcDbEntity
  8
0
  6
Continuous
 62
     0
370
    -2
390
5F
100
AcDbLine
 10
-0.1414213562373095
 20
0.1414213562373095
 30
0.0
 11
-0.3535533905932738
 21
0.3535533905932738
 31
0.0
  0
LINE
  5
109
330
104
100
AcDbEntity
  8
0
  6
Continuous
 62
     0
370
    -2
390
5F
100
AcDbLine
 10
0.1414213562373095
 20
-0.1414213562373095
 30
0.0
 11
0.3535533905932738
 21
-0.3535533905932738
 31
0.0
  0
LINE
  5
10A
330
104
100
AcDbEntity
  8
0
  6
Continuous
 62
     0
370
    -2
390
5F
100
AcDbLine
 10
-0.1414213562373095
 20
-0.1414213562373095
 30
0.0
 11
-0.3535533905932738
 21
-0.3535533905932738
 31
0.0
  0
ENDBLK
  5
10C
330
104
100
AcDbEntity
  8
0
100
AcDbBlockEnd
  0
BLOCK
  5
111
330
10D
100
AcDbEntity
  8
0
100
AcDbBlockBegin
  2
CDWK_PTTYP33
 70
     0
 10
0.0
 20
0.0
 30
0.0
  3
CDWK_PTTYP33
  1

  0
LINE
  5
10E
330
10D
100
AcDbEntity
  8
0
  6
Continuous
 62
     0
370
    -2
390
5F
100
AcDbLine
 10
0.0
 20
-0.5
 30
0.0
 11
0.0
 21
0.5
 31
0.0
  0
LINE
  5
10F
330
10D
100
AcDbEntity
  8
0
  6
Continuous
 62
     0
370
    -2
390
5F
100
AcDbLine
 10
0.5
 20
0.0
 30
0.0
 11
-0.5
 21
0.0
 31
0.0
  0
CIRCLE
  5
110
330
10D
100
AcDbEntity
  8
0
  6
Continuous
 62
     0
370
    -2
390
5F
100
AcDbCircle
 10
0.0
 20
0.0
 30
0.0
 40
0.5
  0
ENDBLK
  5
112
330
10D
100
AcDbEntity
  8
0
100
AcDbBlockEnd
  0
BLOCK
  5
117
330
113
100
AcDbEntity
  8
0
100
AcDbBlockBegin
  2
CDWK_PTTYP34
 70
     0
 10
0.0
 20
0.0
 30
0.0
  3
CDWK_PTTYP34
  1

  0
CIRCLE
  5
114
330
113
100
AcDbEntity
  8
0
  6
Continuous
 62
     0
370
    -2
390
5F
100
AcDbCircle
 10
0.0
 20
0.0
 30
0.0
 40
0.5
  0
LINE
  5
115
330
113
100
AcDbEntity
  8
0
  6
Continuous
 62
     0
370
    -2
390
5F
100
AcDbLine
 10
-0.4
 20
-0.3
 30
0.0
 11
0.3
 21
0.4
 31
0.0
  0
LINE
  5
116
330
113
100
AcDbEntity
  8
0
  6
Continuous
 62
     0
370
    -2
390
5F
100
AcDbLine
 10
-0.3
 20
-0.4
 30
0.0
 11
0.4
 21
0.3
 31
0.0
  0
ENDBLK
  5
118
330
113
100
AcDbEntity
  8
0
100
AcDbBlockEnd
  0
BLOCK
  5
11D
330
119
100
AcDbEntity
  8
0
100
AcDbBlockBegin
  2
CDWK_PTTYP35
 70
     0
 10
0.0
 20
0.0
 30
0.0
  3
CDWK_PTTYP35
  1

  0
LINE
  5
11A
330
119
100
AcDbEntity
  8
0
  6
Continuous
 62
     0
370
    -2
390
5F
100
AcDbLine
 10
0.0
 20
0.2
 30
0.0
 11
0.0
 21
0.5
 31
0.0
  0
LINE
  5
11B
330
119
100
AcDbEntity
  8
0
  6
Continuous
 62
     0
370
    -2
390
5F
100
AcDbLine
 10
0.0
 20
-0.2
 30
0.0
 11
0.0
 21
-0.5
 31
0.0
  0
CIRCLE
  5
11C
330
119
100
AcDbEntity
  8
0
  6
Continuous
 62
     0
370
    -2
390
5F
100
AcDbCircle
 10
0.0
 20
0.0
 30
0.0
 40
0.2
  0
ENDBLK
  5
11E
330
119
100
AcDbEntity
  8
0
100
AcDbBlockEnd
  0
BLOCK
  5
125
330
11F
100
AcDbEntity
  8
0
100
AcDbBlockBegin
  2
CDWK_PTTYP36
 70
     0
 10
0.0
 20
0.0
 30
0.0
  3
CDWK_PTTYP36
  1

  0
LINE
  5
120
330
11F
100
AcDbEntity
  8
0
  6
Continuous
 62
     0
370
    -2
390
5F
100
AcDbLine
 10
-0.5
 20
0.2
 30
0.0
 11
0.5
 21
0.2
 31
0.0
  0
LINE
  5
121
330
11F
100
AcDbEntity
  8
0
  6
Continuous
 62
     0
370
    -2
390
5F
100
AcDbLine
 10
0.5
 20
0.2
 30
0.0
 11
0.5
 21
-0.2
 31
0.0
  0
LINE
  5
122
330
11F
100
AcDbEntity
  8
0
  6
Continuous
 62
     0
370
    -2
390
5F
100
AcDbLine
 10
0.5
 20
-0.2
 30
0.0
 11
-0.5
 21
-0.2
 31
0.0
  0
LINE
  5
123
330
11F
100
AcDbEntity
  8
0
  6
Continuous
 62
     0
370
    -2
390
5F
100
AcDbLine
 10
-0.5
 20
-0.2
 30
0.0
 11
-0.5
 21
0.2
 31
0.0
  0
HATCH
  5
124
330
11F
100
AcDbEntity
  8
0
  6
Continuous
 62
     0
370
    -2
390
5F
100
AcDbHatch
 10
0.0
 20
0.0
 30
0.0
210
0.0
220
0.0
230
1.0
  2
SOLID
 70
     1
 71
     0
 91
        1
 92
        3
 72
     0
 73
     1
 93
        3
 10
-0.5
 20
-0.2
 10
0.5
 20
-0.2
 10
0.5
 20
0.2
 97
        0
 75
     0
 76
     1
 98
        0
  0
ENDBLK
  5
126
330
11F
100
AcDbEntity
  8
0
100
AcDbBlockEnd
  0
BLOCK
  5
12A
330
127
100
AcDbEntity
  8
0
100
AcDbBlockBegin
  2
CDWK_PTTYP37
 70
     0
 10
0.0
 20
0.0
 30
0.0
  3
CDWK_PTTYP37
  1

  0
HATCH
  5
128
330
127
100
AcDbEntity
  8
0
  6
Continuous
 62
     0
370
    -2
390
5F
100
AcDbHatch
 10
0.0
 20
0.0
 30
0.0
210
0.0
220
0.0
230
1.0
  2
SOLID
 70
     1
 71
     0
 91
        1
 92
        3
 72
     0
 73
     1
 93
      202
 10
-0.3535533905932738
 20
-0.3535533905932738
 10
-0.3485533905932738
 20
-0.3535533905932737
 10
-0.3435533905932738
 20
-0.3584836591895546
 10
-0.3385533905932738
 20
-0.3632782236961988
 10
-0.3335533905932738
 20
-0.367942389128785
 10
-0.3285533905932738
 20
-0.372481054046687
 10
-0.3235533905932738
 20
-0.3768987523588579
 10
-0.3185533905932738
 20
-0.3811996897107819
 10
-0.3135533905932738
 20
-0.3853877752881235
 10
-0.3085533905932737
 20
-0.3894666497242888
 10
-0.3035533905932737
 20
-0.3934397096803965
 10
-0.2985533905932737
 20
-0.3973101295704999
 10
-0.2935533905932737
 20
-0.4010808808273714
 10
-0.2885533905932737
 20
-0.4047547490409382
 10
-0.2835533905932737
 20
-0.4083343492496384
 10
-0.2785533905932737
 20
-0.4118221396222626
 10
-0.2735533905932737
 20
-0.4152204337324827
 10
-0.2685533905932737
 20
-0.4185314115988474
 10
-0.2635533905932737
 20
-0.4217571296384408
 10
-0.2585533905932737
 20
-0.4248995296617653
 10
-0.2535533905932737
 20
-0.4279604470190231
 10
-0.2485533905932737
 20
-0.4309416179932669
 10
-0.2435533905932737
 20
-0.4338446865234004
 10
-0.2385533905932737
 20
-0.4366712103293738
 10
-0.2335533905932737
 20
-0.439422666502825
 10
-0.2285533905932737
 20
-0.4421004566186126
 10
-0.2235533905932737
 20
-0.4447059114159811
 10
-0.2185533905932737
 20
-0.4472402950923041
 10
-0.2135533905932737
 20
-0.4497048092473372
 10
-0.2085533905932737
 20
-0.4521005965115692
 10
-0.2035533905932737
 20
-0.4544287438884664
 10
-0.1985533905932736
 20
-0.456690285837111
 10
-0.1935533905932736
 20
-0.45888620711884
 10
-0.1885533905932736
 20
-0.4610174454289638
 10
-0.1835533905932736
 20
-0.4630848938324164
 10
-0.1785533905932736
 20
-0.4650894030202291
 10
-0.1735533905932736
 20
-0.4670317834019928
 10
-0.1685533905932736
 20
-0.46891280704794
 10
-0.1635533905932736
 20
-0.4707332094929264
 10
-0.1585533905932736
 20
-0.4724936914133818
 10
-0.1535533905932736
 20
-0.4741949201872336
 10
-0.1485533905932736
 20
-0.4758375313458466
 10
-0.1435533905932736
 20
-0.4774221299261716
 10
-0.1385533905932736
 20
-0.4789492917305286
 10
-0.1335533905932736
 20
-0.4804195645007682
 10
-0.1285533905932736
 20
-0.4818334690129366
 10
-0.1235533905932736
 20
-0.4831915000980183
 10
-0.1185533905932736
 20
-0.4844941275938295
 10
-0.1135533905932736
 20
-0.4857417972326848
 10
-0.1085533905932736
 20
-0.4869349314690531
 10
-0.1035533905932736
 20
-0.4880739302510473
 10
-0.0985533905932736
 20
-0.489159171739258
 10
-0.0935533905932736
 20
-0.4901910129761353
 10
-0.0885533905932736
 20
-0.4911697905088447
 10
-0.0835533905932735
 20
-0.4920958209682695
 10
-0.0785533905932735
 20
-0.4929694016065986
 10
-0.0735533905932735
 20
-0.4937908107957261
 10
-0.0685533905932735
 20
-0.494560308488493
 10
-0.0635533905932735
 20
-0.4952781366446192
 10
-0.0585533905932735
 20
-0.4959445196230107
 10
-0.0535533905932735
 20
-0.4965596645419678
 10
-0.0485533905932735
 20
-0.4971237616086806
 10
-0.0435533905932735
 20
-0.4976369844192622
 10
-0.0385533905932735
 20
-0.4980994902304456
 10
-0.0335533905932735
 20
-0.4985114202039533
 10
-0.0285533905932735
 20
-0.4988728996244386
 10
-0.0235533905932735
 20
-0.4991840380917923
 10
-0.0185533905932735
 20
-0.49944492968851
 10
-0.0135533905932735
 20
-0.4996556531227215
 10
-0.0085533905932735
 20
-0.4998162718473921
 10
-0.0035533905932735
 20
-0.4999268341561182
 10
0.0014466094067265
 20
-0.499987373255857
 10
0.0064466094067265
 20
-0.4999979073168451
 10
0.0114466094067265
 20
-0.4999584394998819
 10
0.0164466094067265
 20
-0.4998689579610739
 10
0.0214466094067265
 20
-0.4997294358340547
 10
0.0264466094067265
 20
-0.4995398311896213
 10
0.0314466094067265
 20
-0.4993000869726422
 10
0.0364466094067265
 20
-0.4990101309160174
 10
0.0414466094067265
 20
-0.4986698754313855
 10
0.0464466094067265
 20
-0.498279217476192
 10
0.0514466094067265
 20
-0.4978380383966446
 10
0.0564466094067265
 20
-0.497346203745994
 10
0.0614466094067265
 20
-0.4968035630774849
 10
0.0664466094067264
 20
-0.4962099497112257
 10
0.0714466094067265
 20
-0.4955651804741228
 10
0.0764466094067265
 20
-0.4948690554119167
 10
0.0814466094067265
 20
-0.4941213574722463
 10
0.0864466094067265
 20
-0.4933218521575424
 10
0.0914466094067265
 20
-0.4924702871464235
 10
0.0964466094067265
 20
-0.4915663918821278
 10
0.1014466094067265
 20
-0.4906098771263643
 10
0.1064466094067265
 20
-0.4896004344768079
 10
0.1114466094067265
 20
-0.4885377358462822
 10
0.1164466094067265
 20
-0.4874214329014929
 10
0.1214466094067265
 20
-0.4862511564589613
 10
0.1264466094067265
 20
-0.4850265158355881
 10
0.1314466094067265
 20
-0.4837470981510305
 10
0.1364466094067265
 20
-0.482412467578809
 10
0.1414466094067265
 20
-0.4810221645427664
 10
0.1464466094067265
 20
-0.4795757048551781
 10
0.1514466094067265
 20
-0.4780725787924608
 10
0.1564466094067265
 20
-0.4765122501040308
 10
0.1614466094067265
 20
-0.4748941549494363
 10
0.1664466094067265
 20
-0.4732177007584056
 10
0.1714466094067265
 20
-0.4714822650079264
 10
0.1764466094067265
 20
-0.4696871939098801
 10
0.1814466094067266
 20
-0.4678318010021017
 10
0.1864466094067266
 20
-0.4659153656350076
 10
0.1914466094067266
 20
-0.4639371313451162
 10
0.1964466094067266
 20
-0.4618963041058764
 10
0.2014466094067266
 20
-0.4597920504451997
 10
0.2064466094067266
 20
-0.4576234954179405
 10
0.2114466094067266
 20
-0.4553897204202862
 10
0.2164466094067266
 20
-0.4530897608315588
 10
0.2214466094067266
 20
-0.45072260346729
 10
0.2264466094067266
 20
-0.4482871838255748
 10
0.2314466094067266
 20
-0.4457823831065977
 10
0.2364466094067266
 20
-0.4432070249828292
 10
0.2414466094067266
 20
-0.4405598720946596
 10
0.2464466094067266
 20
-0.4378396222431172
 10
0.2514466094067266
 20
-0.4350449042477435
 10
0.2564466094067266
 20
-0.4321742734336012
 10
0.2614466094067266
 20
-0.4292262067066663
 10
0.2664466094067266
 20
-0.4261990971714118
 10
0.2714466094067266
 20
-0.4230912482380831
 10
0.2764466094067266
 20
-0.4199008671598476
 10
0.2814466094067266
 20
-0.4166260579314797
 10
0.2864466094067266
 20
-0.4132648134712868
 10
0.2914466094067266
 20
-0.4098150069963156
 10
0.2964466094067266
 20
-0.4062743824871597
 10
0.3014466094067266
 20
-0.4026405441224911
 10
0.3064466094067266
 20
-0.3989109445442534
 10
0.3114466094067266
 20
-0.3950828717916294
 10
0.3164466094067266
 20
-0.391153434714632
 10
0.3214466094067266
 20
-0.3871195466454601
 10
0.3264466094067267
 20
-0.3829779070663467
 10
0.3314466094067267
 20
-0.3787249809648844
 10
0.3364466094067267
 20
-0.3743569755097196
 10
0.3414466094067267
 20
-0.3698698136084067
 10
0.3464466094067267
 20
-0.3652591038217257
 10
0.3514466094067267
 20
-0.3605201060004601
 10
0.3564466094067267
 20
-0.3556476918757041
 10
0.3614466094067267
 20
-0.3506362996645505
 10
0.3664466094067267
 20
-0.34547988153926
 10
0.3714466094067267
 20
-0.3401718425359658
 10
0.3764466094067267
 20
-0.334704969129899
 10
0.3814466094067267
 20
-0.3290713452523318
 10
0.3864466094067267
 20
-0.3232622529342269
 10
0.3914466094067267
 20
-0.3172680539828188
 10
0.3964466094067267
 20
-0.3110780480586465
 10
0.4014466094067267
 20
-0.304680301118911
 10
0.4064466094067267
 20
-0.2980614362775617
 10
0.4114466094067267
 20
-0.291206376478565
 10
0.4164466094067267
 20
-0.2840980246459106
 10
0.4214466094067267
 20
-0.276716861635935
 10
0.4264466094067267
 20
-0.2690404345439063
 10
0.4314466094067267
 20
-0.2610426963649944
 10
0.4364466094067267
 20
-0.2526931404518915
 10
0.4414466094067268
 20
-0.2439556458403291
 10
0.4464466094067268
 20
-0.2347869056044327
 10
0.4514466094067268
 20
-0.2251342376211081
 10
0.4564466094067268
 20
-0.2149324518428296
 10
0.4614466094067268
 20
-0.2040992228331676
 10
0.4664466094067268
 20
-0.1925279893081412
 10
0.4714466094067268
 20
-0.1800765408735088
 10
0.4764466094067268
 20
-0.1665475742210051
 10
0.4814466094067268
 20
-0.1516529867323223
 10
0.4864466094067268
 20
-0.1349413290684758
 10
0.4914466094067268
 20
-0.1156274024472547
 10
0.4964466094067268
 20
-0.0920881648347501
 10
0.5
 20
0.0
 10
0.495
 20
0.0
 10
0.49
 20
0.0705336798983295
 10
0.485
 20
0.0994987437106621
 10
0.48
 20
0.1215524578114322
 10
0.475
 20
0.14
 10
0.47
 20
0.15612494995996
 10
0.465
 20
0.1705872210923199
 10
0.46
 20
0.1837797594948911
 10
0.455
 20
0.1959591794226544
 10
0.45
 20
0.2073041244162789
 10
0.445
 20
0.2179449471770338
 10
0.4399999999999999
 20
0.2279802623035601
 10
0.4349999999999999
 20
0.2374868417407584
 10
0.4299999999999999
 20
0.2465258607124211
 10
0.4249999999999999
 20
0.2551470164434615
 10
0.4199999999999999
 20
0.2633913438213186
 10
0.4149999999999999
 20
0.2712931993250108
 10
0.4099999999999999
 20
0.2788816953476869
 10
0.4049999999999999
 20
0.2861817604250838
 10
0.3999999999999999
 20
0.2932149382279151
 10
0.3949999999999999
 20
0.3000000000000002
 10
0.3899999999999999
 20
0.3065534211193868
 10
0.3849999999999999
 20
0.3128897569432404
 10
0.3799999999999999
 20
0.3190219428189855
 10
0.3749999999999999
 20
0.3249615361854385
 10
0.3699999999999999
 20
0.330718913883074
 10
0.3649999999999999
 20
0.3363034344160049
 10
0.3599999999999999
 20
0.3417235724968357
 10
0.3549999999999999
 20
0.3469870314579496
 10
0.3535533905932738
 20
0.3535533905932738
 97
        0
 75
     0
 76
     1
 98
        0
  0
CIRCLE
  5
129
330
127
100
AcDbEntity
  8
0
  6
Continuous
 62
     0
370
    -2
390
5F
100
AcDbCircle
 10
0.0
 20
0.0
 30
0.0
 40
0.5
  0
ENDBLK
  5
12B
330
127
100
AcDbEntity
  8
0
100
AcDbBlockEnd
  0
BLOCK
  5
130
330
12C
100
AcDbEntity
  8
0
100
AcDbBlockBegin
  2
CDWK_PTTYP38
 70
     0
 10
0.0
 20
0.0
 30
0.0
  3
CDWK_PTTYP38
  1

  0
HATCH
  5
12D
330
12C
100
AcDbEntity
  8
0
  6
Continuous
 62
     0
370
    -2
390
5F
100
AcDbHatch
 10
0.0
 20
0.0
 30
0.0
210
0.0
220
0.0
230
1.0
  2
SOLID
 70
     1
 71
     0
 91
        1
 92
        3
 72
     0
 73
     1
 93
      102
 10
0.0
 20
0.0
 10
0.0
 20
0.5
 10
0.005
 20
0.5
 10
0.01
 20
0.4999749993749688
 10
0.015
 20
0.4998999899979995
 10
0.02
 20
0.4997749493522059
 10
0.025
 20
0.4995998398718718
 10
0.03
 20
0.4993746088859545
 10
0.035
 20
0.4990991885387112
 10
0.04
 20
0.4987734956871706
 10
0.045
 20
0.4983974317750845
 10
0.05
 20
0.4979708826829135
 10
0.055
 20
0.49749371855331
 10
0.06
 20
0.4969657935914704
 10
0.065
 20
0.4963869458396343
 10
0.07
 20
0.4957569969249047
 10
0.075
 20
0.4950757517794626
 10
0.08
 20
0.4943429983321297
 10
0.085
 20
0.4935585071701227
 10
0.09
 20
0.4927220311697053
 10
0.095
 20
0.4918333050943175
 10
0.1
 20
0.4908920451586071
 10
0.105
 20
0.4898979485566356
 10
0.11
 20
0.4888506929523574
 10
0.115
 20
0.4877499359302879
 10
0.12
 20
0.4865953144040744
 10
0.125
 20
0.4853864439804639
 10
0.13
 20
0.4841229182759271
 10
0.135
 20
0.4828043081829325
 10
0.14
 20
0.4814301610825811
 10
0.145
 20
0.48
 10
0.15
 20
0.478513322698543
 10
0.1550000000000001
 20
0.4769696007084728
 10
0.1600000000000001
 20
0.4753682782853731
 10
0.1650000000000001
 20
0.4737087712930804
 10
0.1700000000000001
 20
0.4719904660054056
 10
0.1750000000000001
 20
0.4702127178203498
 10
0.1800000000000001
 20
0.4683748498798799
 10
0.1850000000000001
 20
0.466476151587624
 10
0.1900000000000001
 20
0.4645158770160606
 10
0.1950000000000001
 20
0.4624932431938871
 10
0.2000000000000001
 20
0.460407428263272
 10
0.2050000000000001
 20
0.4582575694955839
 10
0.2100000000000001
 20
0.4560427611529427
 10
0.2150000000000001
 20
0.4537620521815371
 10
0.2200000000000001
 20
0.4514144437210665
 10
0.2250000000000001
 20
0.4489988864128729
 10
0.2300000000000001
 20
0.4465142774872937
 10
0.2350000000000001
 20
0.4439594576084622
 10
0.2400000000000001
 20
0.4413332074521472
 10
0.2450000000000001
 20
0.4386342439892261
 10
0.2500000000000001
 20
0.4358612164439502
 10
0.2550000000000001
 20
0.4330127018922192
 10
0.2600000000000001
 20
0.4300872004605577
 10
0.2650000000000001
 20
0.4270831300812524
 10
0.2700000000000001
 20
0.423998820753077
 10
0.2750000000000001
 20
0.4208325082500162
 10
0.2800000000000001
 20
0.4175823272122516
 10
0.2850000000000001
 20
0.4142463035441595
 10
0.2900000000000001
 20
0.4108223460329293
 10
0.2950000000000002
 20
0.4073082370883259
 10
0.3000000000000002
 20
0.403701622488689
 10
0.3050000000000002
 20
0.3999999999999999
 10
0.3100000000000002
 20
0.3962007067131506
 10
0.3150000000000002
 20
0.3923009049186605
 10
0.3200000000000002
 20
0.3882975663070783
 10
0.3250000000000002
 20
0.3841874542459708
 10
0.3300000000000002
 20
0.3799671038392664
 10
0.3350000000000002
 20
0.3756327994198588
 10
0.3400000000000002
 20
0.3711805490593491
 10
0.3450000000000002
 20
0.366606055596467
 10
0.3500000000000002
 20
0.3619046835839512
 10
0.3550000000000002
 20
0.3570714214271423
 10
0.3600000000000002
 20
0.3521008378291649
 10
0.3650000000000002
 20
0.3469870314579492
 10
0.3700000000000002
 20
0.3417235724968353
 10
0.3750000000000002
 20
0.3363034344160045
 10
0.3800000000000002
 20
0.3307189138830736
 10
0.3850000000000002
 20
0.3249615361854382
 10
0.3900000000000002
 20
0.3190219428189851
 10
0.3950000000000002
 20
0.31288975694324
 10
0.4000000000000002
 20
0.3065534211193863
 10
0.4050000000000002
 20
0.2999999999999997
 10
0.4100000000000003
 20
0.2932149382279147
 10
0.4150000000000003
 20
0.2861817604250834
 10
0.4200000000000003
 20
0.2788816953476864
 10
0.4250000000000003
 20
0.2712931993250103
 10
0.4300000000000003
 20
0.263391343821318
 10
0.4350000000000003
 20
0.255147016443461
 10
0.4400000000000003
 20
0.2465258607124206
 10
0.4450000000000003
 20
0.2374868417407578
 10
0.4500000000000003
 20
0.2279802623035594
 10
0.4550000000000003
 20
0.2179449471770331
 10
0.4600000000000003
 20
0.2073041244162782
 10
0.4650000000000003
 20
0.1959591794226536
 10
0.4700000000000003
 20
0.1837797594948903
 10
0.4750000000000003
 20
0.170587221092319
 10
0.4800000000000003
 20
0.156124949959959
 10
0.4850000000000003
 20
0.1399999999999989
 10
0.4900000000000003
 20
0.1215524578114309
 10
0.4950000000000003
 20
0.0994987437106604
 10
0.5
 20
0.0
 97
        0
 75
     0
 76
     1
 98
        0
  0
HATCH
  5
12E
330
12C
100
AcDbEntity
  8
0
  6
Continuous
 62
     0
370
    -2
390
5F
100
AcDbHatch
 10
0.0
 20
0.0
 30
0.0
210
0.0
220
0.0
230
1.0
  2
SOLID
 70
     1
 71
     0
 91
        1
 92
        3
 72
     0
 73
     1
 93
      102
 10
0.0
 20
0.0
 10
-0.5
 20
0.0
 10
-0.495
 20
0.0
 10
-0.49
 20
-0.0705336798983295
 10
-0.485
 20
-0.0994987437106621
 10
-0.48
 20
-0.1215524578114322
 10
-0.475
 20
-0.14
 10
-0.47
 20
-0.15612494995996
 10
-0.465
 20
-0.1705872210923199
 10
-0.46
 20
-0.1837797594948911
 10
-0.455
 20
-0.1959591794226544
 10
-0.45
 20
-0.2073041244162789
 10
-0.445
 20
-0.2179449471770338
 10
-0.4399999999999999
 20
-0.2279802623035601
 10
-0.4349999999999999
 20
-0.2374868417407584
 10
-0.4299999999999999
 20
-0.2465258607124211
 10
-0.4249999999999999
 20
-0.2551470164434615
 10
-0.4199999999999999
 20
-0.2633913438213186
 10
-0.4149999999999999
 20
-0.2712931993250108
 10
-0.4099999999999999
 20
-0.2788816953476869
 10
-0.4049999999999999
 20
-0.2861817604250838
 10
-0.3999999999999999
 20
-0.2932149382279151
 10
-0.3949999999999999
 20
-0.3000000000000002
 10
-0.3899999999999999
 20
-0.3065534211193868
 10
-0.3849999999999999
 20
-0.3128897569432404
 10
-0.3799999999999999
 20
-0.3190219428189855
 10
-0.3749999999999999
 20
-0.3249615361854385
 10
-0.3699999999999999
 20
-0.330718913883074
 10
-0.3649999999999999
 20
-0.3363034344160049
 10
-0.3599999999999999
 20
-0.3417235724968357
 10
-0.3549999999999999
 20
-0.3469870314579496
 10
-0.3499999999999999
 20
-0.3521008378291652
 10
-0.3449999999999999
 20
-0.3570714214271427
 10
-0.3399999999999999
 20
-0.3619046835839516
 10
-0.3349999999999999
 20
-0.3666060555964674
 10
-0.3299999999999998
 20
-0.3711805490593494
 10
-0.3249999999999998
 20
-0.3756327994198591
 10
-0.3199999999999998
 20
-0.3799671038392667
 10
-0.3149999999999998
 20
-0.3841874542459711
 10
-0.3099999999999998
 20
-0.3882975663070786
 10
-0.3049999999999998
 20
-0.3923009049186608
 10
-0.2999999999999998
 20
-0.3962007067131507
 10
-0.2949999999999998
 20
-0.4000000000000001
 10
-0.2899999999999998
 20
-0.4037016224886891
 10
-0.2849999999999998
 20
-0.4073082370883261
 10
-0.2799999999999998
 20
-0.4108223460329296
 10
-0.2749999999999998
 20
-0.4142463035441597
 10
-0.2699999999999998
 20
-0.4175823272122518
 10
-0.2649999999999998
 20
-0.4208325082500164
 10
-0.2599999999999998
 20
-0.4239988207530773
 10
-0.2549999999999998
 20
-0.4270831300812526
 10
-0.2499999999999998
 20
-0.4300872004605579
 10
-0.2449999999999998
 20
-0.4330127018922195
 10
-0.2399999999999998
 20
-0.4358612164439503
 10
-0.2349999999999998
 20
-0.4386342439892263
 10
-0.2299999999999998
 20
-0.4413332074521473
 10
-0.2249999999999998
 20
-0.4439594576084624
 10
-0.2199999999999998
 20
-0.4465142774872939
 10
-0.2149999999999997
 20
-0.4489988864128731
 10
-0.2099999999999997
 20
-0.4514144437210667
 10
-0.2049999999999997
 20
-0.4537620521815372
 10
-0.1999999999999997
 20
-0.4560427611529429
 10
-0.1949999999999997
 20
-0.4582575694955841
 10
-0.1899999999999997
 20
-0.4604074282632722
 10
-0.1849999999999997
 20
-0.4624932431938872
 10
-0.1799999999999997
 20
-0.4645158770160608
 10
-0.1749999999999997
 20
-0.4664761515876241
 10
-0.1699999999999997
 20
-0.46837484987988
 10
-0.1649999999999997
 20
-0.47021271782035
 10
-0.1599999999999997
 20
-0.4719904660054058
 10
-0.1549999999999997
 20
-0.4737087712930805
 10
-0.1499999999999997
 20
-0.4753682782853733
 10
-0.1449999999999997
 20
-0.4769696007084729
 10
-0.1399999999999997
 20
-0.4785133226985431
 10
-0.1349999999999997
 20
-0.4800000000000001
 10
-0.1299999999999997
 20
-0.4814301610825812
 10
-0.1249999999999997
 20
-0.4828043081829325
 10
-0.1199999999999997
 20
-0.4841229182759272
 10
-0.1149999999999997
 20
-0.485386443980464
 10
-0.1099999999999997
 20
-0.4865953144040744
 10
-0.1049999999999996
 20
-0.487749935930288
 10
-0.0999999999999996
 20
-0.4888506929523574
 10
-0.0949999999999996
 20
-0.4898979485566357
 10
-0.0899999999999996
 20
-0.4908920451586072
 10
-0.0849999999999996
 20
-0.4918333050943176
 10
-0.0799999999999996
 20
-0.4927220311697053
 10
-0.0749999999999996
 20
-0.4935585071701227
 10
-0.0699999999999996
 20
-0.4943429983321298
 10
-0.0649999999999996
 20
-0.4950757517794626
 10
-0.0599999999999996
 20
-0.4957569969249048
 10
-0.0549999999999996
 20
-0.4963869458396343
 10
-0.0499999999999996
 20
-0.4969657935914705
 10
-0.0449999999999996
 20
-0.49749371855331
 10
-0.0399999999999996
 20
-0.4979708826829135
 10
-0.0349999999999996
 20
-0.4983974317750846
 10
-0.0299999999999996
 20
-0.4987734956871706
 10
-0.0249999999999996
 20
-0.4990991885387112
 10
-0.0199999999999996
 20
-0.4993746088859545
 10
-0.0149999999999996
 20
-0.4995998398718719
 10
-0.0099999999999996
 20
-0.499774949352206
 10
-0.0049999999999996
 20
-0.4998999899979995
 10
0.0
 20
-0.5
 97
        0
 75
     0
 76
     1
 98
        0
  0
CIRCLE
  5
12F
330
12C
100
AcDbEntity
  8
0
  6
Continuous
 62
     0
370
    -2
390
5F
100
AcDbCircle
 10
0.0
 20
0.0
 30
0.0
 40
0.5
  0
ENDBLK
  5
131
330
12C
100
AcDbEntity
  8
0
100
AcDbBlockEnd
  0
BLOCK
  5
13A
330
132
100
AcDbEntity
  8
0
100
AcDbBlockBegin
  2
CDWK_PTTYP41
 70
     0
 10
0.0
 20
0.0
 30
0.0
  3
CDWK_PTTYP41
  1

  0
LINE
  5
133
330
132
100
AcDbEntity
  8
0
  6
Continuous
 62
     0
370
    -2
390
5F
100
AcDbLine
 10
-0.5
 20
0.5
 30
0.0
 11
0.5
 21
0.5
 31
0.0
  0
LINE
  5
134
330
132
100
AcDbEntity
  8
0
  6
Continuous
 62
     0
370
    -2
390
5F
100
AcDbLine
 10
0.5
 20
0.5
 30
0.0
 11
0.5
 21
-0.5
 31
0.0
  0
LINE
  5
135
330
132
100
AcDbEntity
  8
0
  6
Continuous
 62
     0
370
    -2
390
5F
100
AcDbLine
 10
0.5
 20
-0.5
 30
0.0
 11
-0.5
 21
-0.5
 31
0.0
  0
LINE
  5
136
330
132
100
AcDbEntity
  8
0
  6
Continuous
 62
     0
370
    -2
390
5F
100
AcDbLine
 10
-0.5
 20
-0.5
 30
0.0
 11
-0.5
 21
0.5
 31
0.0
  0
LINE
  5
137
330
132
100
AcDbEntity
  8
0
  6
Continuous
 62
     0
370
    -2
390
5F
100
AcDbLine
 10
-0.375
 20
0.25
 30
0.0
 11
0.375
 21
0.25
 31
0.0
  0
LINE
  5
138
330
132
100
AcDbEntity
  8
0
  6
Continuous
 62
     0
370
    -2
390
5F
100
AcDbLine
 10
-0.375
 20
0.0
 30
0.0
 11
0.375
 21
0.0
 31
0.0
  0
LINE
  5
139
330
132
100
AcDbEntity
  8
0
  6
Continuous
 62
     0
370
    -2
390
5F
100
AcDbLine
 10
-0.375
 20
-0.25
 30
0.0
 11
0.375
 21
-0.25
 31
0.0
  0
ENDBLK
  5
13B
330
132
100
AcDbEntity
  8
0
100
AcDbBlockEnd
  0
BLOCK
  5
143
330
13C
100
AcDbEntity
  8
0
100
AcDbBlockBegin
  2
CDWK_PTTYP42
 70
     0
 10
0.0
 20
0.0
 30
0.0
  3
CDWK_PTTYP42
  1

  0
LINE
  5
13D
330
13C
100
AcDbEntity
  8
0
  6
Continuous
 62
     0
370
    -2
390
5F
100
AcDbLine
 10
-0.5
 20
0.5
 30
0.0
 11
0.5
 21
0.5
 31
0.0
  0
LINE
  5
13E
330
13C
100
AcDbEntity
  8
0
  6
Continuous
 62
     0
370
    -2
390
5F
100
AcDbLine
 10
0.5
 20
0.5
 30
0.0
 11
0.5
 21
-0.5
 31
0.0
  0
LINE
  5
13F
330
13C
100
AcDbEntity
  8
0
  6
Continuous
 62
     0
370
    -2
390
5F
100
AcDbLine
 10
0.5
 20
-0.5
 30
0.0
 11
-0.5
 21
-0.5
 31
0.0
  0
LINE
  5
140
330
13C
100
AcDbEntity
  8
0
  6
Continuous
 62
     0
370
    -2
390
5F
100
AcDbLine
 10
-0.5
 20
-0.5
 30
0.0
 11
-0.5
 21
0.5
 31
0.0
  0
LINE
  5
141
330
13C
100
AcDbEntity
  8
0
  6
Continuous
 62
     0
370
    -2
390
5F
100
AcDbLine
 10
-0.375
 20
0.125
 30
0.0
 11
0.375
 21
0.125
 31
0.0
  0
LINE
  5
142
330
13C
100
AcDbEntity
  8
0
  6
Continuous
 62
     0
370
    -2
390
5F
100
AcDbLine
 10
-0.375
 20
-0.125
 30
0.0
 11
0.375
 21
-0.125
 31
0.0
  0
ENDBLK
  5
144
330
13C
100
AcDbEntity
  8
0
100
AcDbBlockEnd
  0
BLOCK
  5
149
330
145
100
AcDbEntity
  8
0
100
AcDbBlockBegin
  2
CDWK_PTTYP43
 70
     0
 10
0.0
 20
0.0
 30
0.0
  3
CDWK_PTTYP43
  1

  0
CIRCLE
  5
146
330
145
100
AcDbEntity
  8
0
  6
Continuous
 62
     0
370
    -2
390
5F
100
AcDbCircle
 10
0.0
 20
0.0
 30
0.0
 40
0.5
  0
LINE
  5
147
330
145
100
AcDbEntity
  8
0
  6
Continuous
 62
     0
370
    -2
390
5F
100
AcDbLine
 10
-0.375
 20
0.166
 30
0.0
 11
0.375
 21
0.166
 31
0.0
  0
LINE
  5
148
330
145
100
AcDbEntity
  8
0
  6
Continuous
 62
     0
370
    -2
390
5F
100
AcDbLine
 10
-0.375
 20
-0.166
 30
0.0
 11
0.375
 21
-0.166
 31
0.0
  0
ENDBLK
  5
14A
330
145
100
AcDbEntity
  8
0
100
AcDbBlockEnd
  0
BLOCK
  5
152
330
14B
100
AcDbEntity
  8
0
100
AcDbBlockBegin
  2
CDWK_PTTYP44
 70
     0
 10
0.0
 20
0.0
 30
0.0
  3
CDWK_PTTYP44
  1

  0
CIRCLE
  5
14C
330
14B
100
AcDbEntity
  8
0
  6
Continuous
 62
     0
370
    -2
390
5F
100
AcDbCircle
 10
0.0
 20
0.0
 30
0.0
 40
0.5
  0
LINE
  5
14D
330
14B
100
AcDbEntity
  8
0
  6
Continuous
 62
     0
370
    -2
390
5F
100
AcDbLine
 10
-0.375
 20
0.333
 30
0.0
 11
0.375
 21
0.333
 31
0.0
  0
LINE
  5
14E
330
14B
100
AcDbEntity
  8
0
  6
Continuous
 62
     0
370
    -2
390
5F
100
AcDbLine
 10
-0.375
 20
0.166
 30
0.0
 11
0.375
 21
0.166
 31
0.0
  0
LINE
  5
14F
330
14B
100
AcDbEntity
  8
0
  6
Continuous
 62
     0
370
    -2
390
5F
100
AcDbLine
 10
-0.375
 20
0.0
 30
0.0
 11
0.375
 21
0.0
 31
0.0
  0
LINE
  5
150
330
14B
100
AcDbEntity
  8
0
  6
Continuous
 62
     0
370
    -2
390
5F
100
AcDbLine
 10
-0.375
 20
-0.166
 30
0.0
 11
0.375
 21
-0.166
 31
0.0
  0
LINE
  5
151
330
14B
100
AcDbEntity
  8
0
  6
Continuous
 62
     0
370
    -2
390
5F
100
AcDbLine
 10
-0.375
 20
-0.333
 30
0.0
 11
0.375
 21
-0.333
 31
0.0
  0
ENDBLK
  5
153
330
14B
100
AcDbEntity
  8
0
100
AcDbBlockEnd
  0
BLOCK
  5
157
330
154
100
AcDbEntity
  8
0
100
AcDbBlockBegin
  2
CDWK_PTTYP45
 70
     0
 10
0.0
 20
0.0
 30
0.0
  3
CDWK_PTTYP45
  1

  0
ELLIPSE
  5
155
330
154
100
AcDbEntity
  8
0
  6
Continuous
 62
     0
370
    -2
390
5F
100
AcDbEllipse
 10
0.0
 20
0.0
 30
0.0
 11
0.5
 21
0.0
 31
0.0
210
0.0
220
0.0
230
1.0
 40
0.82
 41
0.0
 42
6.283185307179586
  0
CIRCLE
  5
156
330
154
100
AcDbEntity
  8
0
  6
Continuous
 62
     0
370
    -2
390
5F
100
AcDbCircle
 10
-0.235
 20
0.0
 30
0.0
 40
0.26
  0
ENDBLK
  5
158
330
154
100
AcDbEntity
  8
0
100
AcDbBlockEnd
  0
BLOCK
  5
15C
330
159
100
AcDbEntity
  8
0
100
AcDbBlockBegin
  2
CDWK_PTTYP46
 70
     0
 10
0.0
 20
0.0
 30
0.0
  3
CDWK_PTTYP46
  1

  0
ELLIPSE
  5
15A
330
159
100
AcDbEntity
  8
0
  6
Continuous
 62
     0
370
    -2
390
5F
100
AcDbEllipse
 10
0.0
 20
0.0
 30
0.0
 11
0.5
 21
0.0
 31
0.0
210
0.0
220
0.0
230
1.0
 40
0.82
 41
0.0
 42
6.283185307179586
  0
CIRCLE
  5
15B
330
159
100
AcDbEntity
  8
0
  6
Continuous
 62
     0
370
    -2
390
5F
100
AcDbCircle
 10
0.0
 20
0.15
 30
0.0
 40
0.26
  0
ENDBLK
  5
15D
330
159
100
AcDbEntity
  8
0
100
AcDbBlockEnd
  0
BLOCK
  5
164
330
15E
100
AcDbEntity
  8
0
100
AcDbBlockBegin
  2
CDWK_PTTYP47
 70
     0
 10
0.0
 20
0.0
 30
0.0
  3
CDWK_PTTYP47
  1

  0
LINE
  5
15F
330
15E
100
AcDbEntity
  8
0
  6
Continuous
 62
     0
370
    -2
390
5F
100
AcDbLine
 10
-0.5
 20
0.166
 30
0.0
 11
0.5
 21
0.166
 31
0.0
  0
LINE
  5
160
330
15E
100
AcDbEntity
  8
0
  6
Continuous
 62
     0
370
    -2
390
5F
100
AcDbLine
 10
0.5
 20
0.166
 30
0.0
 11
0.5
 21
-0.166
 31
0.0
  0
LINE
  5
161
330
15E
100
AcDbEntity
  8
0
  6
Continuous
 62
     0
370
    -2
390
5F
100
AcDbLine
 10
0.5
 20
-0.166
 30
0.0
 11
-0.5
 21
-0.166
 31
0.0
  0
LINE
  5
162
330
15E
100
AcDbEntity
  8
0
  6
Continuous
 62
     0
370
    -2
390
5F
100
AcDbLine
 10
-0.5
 20
-0.166
 30
0.0
 11
-0.5
 21
0.166
 31
0.0
  0
CIRCLE
  5
163
330
15E
100
AcDbEntity
  8
0
  6
Continuous
 62
     0
370
    -2
390
5F
100
AcDbCircle
 10
0.0
 20
-0.313
 30
0.0
 40
0.4
  0
ENDBLK
  5
165
330
15E
100
AcDbEntity
  8
0
100
AcDbBlockEnd
  0
BLOCK
  5
16A
330
167
100
AcDbEntity
  8
0
100
AcDbBlockBegin
  2
CDWK_PTTYP48
 70
     0
 10
0.0
 20
0.0
 30
0.0
  3
CDWK_PTTYP48
  1

  0
CIRCLE
  5
168
330
167
100
AcDbEntity
  8
0
  6
CADWORK_3
 62
     0
 48
0.1
370
    -2
390
5F
100
AcDbCircle
 10
0.0
 20
0.0
 30
0.0
 40
0.5
  0
CIRCLE
  5
169
330
167
100
AcDbEntity
  8
0
  6
Continuous
 62
     0
370
    -2
390
5F
100
AcDbCircle
 10
0.0
 20
0.0
 30
0.0
 40
0.25
  0
ENDBLK
  5
16B
330
167
100
AcDbEntity
  8
0
100
AcDbBlockEnd
  0
BLOCK
  5
171
330
16C
100
AcDbEntity
  8
0
100
AcDbBlockBegin
  2
CDWK_PTTYP49
 70
     0
 10
0.0
 20
0.0
 30
0.0
  3
CDWK_PTTYP49
  1

  0
LINE
  5
16D
330
16C
100
AcDbEntity
  8
0
  6
Continuous
 62
     0
370
    -2
390
5F
100
AcDbLine
 10
-0.5
 20
0.166
 30
0.0
 11
0.5
 21
0.166
 31
0.0
  0
LINE
  5
16E
330
16C
100
AcDbEntity
  8
0
  6
Continuous
 62
     0
370
    -2
390
5F
100
AcDbLine
 10
0.5
 20
0.166
 30
0.0
 11
0.5
 21
-0.166
 31
0.0
  0
LINE
  5
16F
330
16C
100
AcDbEntity
  8
0
  6
Continuous
 62
     0
370
    -2
390
5F
100
AcDbLine
 10
0.5
 20
-0.166
 30
0.0
 11
-0.5
 21
-0.166
 31
0.0
  0
LINE
  5
170
330
16C
100
AcDbEntity
  8
0
  6
Continuous
 62
     0
370
    -2
390
5F
100
AcDbLine
 10
-0.5
 20
-0.166
 30
0.0
 11
-0.5
 21
0.166
 31
0.0
  0
ENDBLK
  5
172
330
16C
100
AcDbEntity
  8
0
100
AcDbBlockEnd
  0
BLOCK
  5
17B
330
173
100
AcDbEntity
  8
0
100
AcDbBlockBegin
  2
CDWK_PTTYP50
 70
     0
 10
0.0
 20
0.0
 30
0.0
  3
CDWK_PTTYP50
  1

  0
LINE
  5
174
330
173
100
AcDbEntity
  8
0
  6
Continuous
 62
     0
370
    -2
390
5F
100
AcDbLine
 10
-0.5
 20
0.166
 30
0.0
 11
0.5
 21
0.166
 31
0.0
  0
LINE
  5
175
330
173
100
AcDbEntity
  8
0
  6
Continuous
 62
     0
370
    -2
390
5F
100
AcDbLine
 10
0.5
 20
0.166
 30
0.0
 11
0.5
 21
-0.166
 31
0.0
  0
LINE
  5
176
330
173
100
AcDbEntity
  8
0
  6
Continuous
 62
     0
370
    -2
390
5F
100
AcDbLine
 10
0.5
 20
-0.166
 30
0.0
 11
-0.5
 21
-0.166
 31
0.0
  0
LINE
  5
177
330
173
100
AcDbEntity
  8
0
  6
Continuous
 62
     0
370
    -2
390
5F
100
AcDbLine
 10
-0.5
 20
-0.166
 30
0.0
 11
-0.5
 21
0.166
 31
0.0
  0
LINE
  5
178
330
173
100
AcDbEntity
  8
0
  6
Continuous
 62
     0
370
    -2
390
5F
100
AcDbLine
 10
-0.25
 20
-0.166
 30
0.0
 11
-0.25
 21
0.166
 31
0.0
  0
LINE
  5
179
330
173
100
AcDbEntity
  8
0
  6
Continuous
 62
     0
370
    -2
390
5F
100
AcDbLine
 10
0.0
 20
-0.166
 30
0.0
 11
0.0
 21
0.166
 31
0.0
  0
LINE
  5
17A
330
173
100
AcDbEntity
  8
0
  6
Continuous
 62
     0
370
    -2
390
5F
100
AcDbLine
 10
0.25
 20
-0.166
 30
0.0
 11
0.25
 21
0.166
 31
0.0
  0
ENDBLK
  5
17C
330
173
100
AcDbEntity
  8
0
100
AcDbBlockEnd
  0
BLOCK
  5
180
330
17D
100
AcDbEntity
  8
0
100
AcDbBlockBegin
  2
CDWK_PTTYP51
 70
     0
 10
0.0
 20
0.0
 30
0.0
  3
CDWK_PTTYP51
  1

  0
SPLINE
  5
17E
330
17D
100
AcDbEntity
  8
0
  6
Continuous
 62
     0
370
    -2
390
5F
100
AcDbSpline
210
0.0
220
0.0
230
1.0
 70
  1064
 71
     3
 72
    12
 73
     8
 74
     6
 42
0.0000000001
 43
0.0000000001
 44
0.0000000001
 40
0.0
 40
0.0
 40
0.0
 40
0.0
 40
0.1690118339052032
 40
0.5175774661755118
 40
0.8011704844252565
 40
0.9154070810132151
 40
0.975822310881188
 40
0.975822310881188
 40
0.975822310881188
 40
0.975822310881188
 10
-0.5
 20
-0.077
 30
0.0
 10
-0.443824324006723
 20
-0.0900581618560981
 30
0.0
 10
-0.2717933876546281
 20
-0.1300471387828842
 30
0.0
 10
-0.0276699186086479
 20
-0.0006977790990417
 30
0.0
 10
0.2303349729129116
 20
0.0817803270207037
 30
0.0
 10
0.3686157174766292
 20
0.0066250198607167
 30
0.0
 10
0.4216533294581816
 20
-0.0168719667726145
 30
0.0
 10
0.44
 20
-0.025
 30
0.0
 11
-0.5
 21
-0.077
 31
0.0
 11
-0.333
 21
-0.103
 31
0.0
 11
0.0
 21
0.0
 31
0.0
 11
0.28
 21
0.045
 31
0.0
 11
0.385
 21
0.0
 31
0.0
 11
0.44
 21
-0.025
 31
0.0
  0
HATCH
  5
17F
330
17D
100
AcDbEntity
  8
0
  6
Continuous
 62
     0
370
    -2
390
5F
100
AcDbHatch
 10
0.0
 20
0.0
 30
0.0
210
0.0
220
0.0
230
1.0
  2
SOLID
 70
     1
 71
     0
 91
        1
 92
        3
 72
     0
 73
     1
 93
        3
 10
0.365
 20
-0.05
 10
0.5
 20
-0.042
 10
0.395
 20
0.045
 97
        0
 75
     0
 76
     1
 98
        0
  0
ENDBLK
  5
181
330
17D
100
AcDbEntity
  8
0
100
AcDbBlockEnd
  0
BLOCK
  5
186
330
182
100
AcDbEntity
  8
0
100
AcDbBlockBegin
  2
CDWK_PTTYP52
 70
     0
 10
0.0
 20
0.0
 30
0.0
  3
CDWK_PTTYP52
  1

  0
LINE
  5
183
330
182
100
AcDbEntity
  8
0
  6
Continuous
 62
     0
370
    -2
390
5F
100
AcDbLine
 10
-0.5
 20
-0.289
 30
0.0
 11
0.5
 21
-0.289
 31
0.0
  0
LINE
  5
184
330
182
100
AcDbEntity
  8
0
  6
Continuous
 62
     0
370
    -2
390
5F
100
AcDbLine
 10
0.5
 20
-0.289
 30
0.0
 11
0.0
 21
0.577
 31
0.0
  0
LINE
  5
185
330
182
100
AcDbEntity
  8
0
  6
Continuous
 62
     0
370
    -2
390
5F
100
AcDbLine
 10
0.0
 20
0.577
 30
0.0
 11
-0.5
 21
-0.289
 31
0.0
  0
ENDBLK
  5
187
330
182
100
AcDbEntity
  8
0
100
AcDbBlockEnd
  0
BLOCK
  5
18D
330
188
100
AcDbEntity
  8
0
100
AcDbBlockBegin
  2
cw-dimension-symbol1
 70
     0
 10
0.0
 20
0.0
 30
0.0
  3
cw-dimension-symbol1
  1

  0
LINE
  5
189
330
188
100
AcDbEntity
  8
0
  6
Continuous
 62
     0
370
    -2
390
5F
100
AcDbLine
 10
0.0
 20
0.0
 30
0.0
 11
-1.0
 21
0.25
 31
0.0
  0
LINE
  5
18A
330
188
100
AcDbEntity
  8
0
  6
Continuous
 62
     0
370
    -2
390
5F
100
AcDbLine
 10
0.0
 20
0.0
 30
0.0
 11
-1.0
 21
-0.25
 31
0.0
  0
LINE
  5
18B
330
188
100
AcDbEntity
  8
0
  6
Continuous
 62
     0
370
    -2
390
5F
100
AcDbLine
 10
-1.0
 20
0.25
 30
0.0
 11
-1.0
 21
-0.25
 31
0.0
  0
LINE
  5
18C
330
188
100
AcDbEntity
  8
0
  6
Continuous
 62
     0
370
    -2
390
5F
100
AcDbLine
 10
0.0
 20
0.0
 30
0.0
 11
-1.0
 21
0.0
 31
0.0
  0
ENDBLK
  5
18E
330
188
100
AcDbEntity
  8
0
100
AcDbBlockEnd
  0
BLOCK
  5
192
330
18F
100
AcDbEntity
  8
0
100
AcDbBlockBegin
  2
cw-dimension-symbol2
 70
     0
 10
0.0
 20
0.0
 30
0.0
  3
cw-dimension-symbol2
  1

  0
LINE
  5
190
330
18F
100
AcDbEntity
  8
0
  6
Continuous
 62
     0
370
    -2
390
5F
100
AcDbLine
 10
-1.0
 20
0.0
 30
0.0
 11
1.0
 21
0.0
 31
0.0
  0
LINE
  5
191
330
18F
100
AcDbEntity
  8
0
  6
Continuous
 62
     0
370
    -2
390
5F
100
AcDbLine
 10
-0.5
 20
-0.5
 30
0.0
 11
0.5
 21
0.5
 31
0.0
  0
ENDBLK
  5
193
330
18F
100
AcDbEntity
  8
0
100
AcDbBlockEnd
  0
BLOCK
  5
197
330
194
100
AcDbEntity
  8
0
100
AcDbBlockBegin
  2
cw-dimension-symbol3
 70
     0
 10
0.0
 20
0.0
 30
0.0
  3
cw-dimension-symbol3
  1

  0
LINE
  5
195
330
194
100
AcDbEntity
  8
0
  6
Continuous
 62
     0
370
    -2
390
5F
100
AcDbLine
 10
-1.0
 20
0.0
 30
0.0
 11
1.0
 21
0.0
 31
0.0
  0
CIRCLE
  5
196
330
194
100
AcDbEntity
  8
0
  6
Continuous
 62
     0
370
    -2
390
5F
100
AcDbCircle
 10
0.0
 20
0.0
 30
0.0
 40
0.25
  0
ENDBLK
  5
198
330
194
100
AcDbEntity
  8
0
100
AcDbBlockEnd
  0
BLOCK
  5
19E
330
199
100
AcDbEntity
  8
0
100
AcDbBlockBegin
  2
cw-dimension-symbol5
 70
     0
 10
0.0
 20
0.0
 30
0.0
  3
cw-dimension-symbol5
  1

  0
HATCH
  5
19A
330
199
100
AcDbEntity
  8
0
  6
Continuous
 62
     0
370
    -2
390
5F
100
AcDbHatch
 10
0.0
 20
0.0
 30
0.0
210
0.0
220
0.0
230
1.0
  2
SOLID
 70
     1
 71
     0
 91
        1
 92
        3
 72
     0
 73
     1
 93
        3
 10
0.0
 20
0.0
 10
-1.0
 20
0.25
 10
-1.0
 20
-0.25
 97
        0
 75
     0
 76
     1
 98
        0
  0
LINE
  5
19B
330
199
100
AcDbEntity
  8
0
  6
Continuous
 62
     0
370
    -2
390
5F
100
AcDbLine
 10
0.0
 20
0.0
 30
0.0
 11
-1.0
 21
0.25
 31
0.0
  0
LINE
  5
19C
330
199
100
AcDbEntity
  8
0
  6
Continuous
 62
     0
370
    -2
390
5F
100
AcDbLine
 10
-1.0
 20
0.25
 30
0.0
 11
-1.0
 21
-0.25
 31
0.0
  0
LINE
  5
19D
330
199
100
AcDbEntity
  8
0
  6
Continuous
 62
     0
370
    -2
390
5F
100
AcDbLine
 10
-1.0
 20
-0.25
 30
0.0
 11
0.0
 21
0.0
 31
0.0
  0
ENDBLK
  5
19F
330
199
100
AcDbEntity
  8
0
100
AcDbBlockEnd
  0
BLOCK
  5
1A4
330
1A0
100
AcDbEntity
  8
0
100
AcDbBlockBegin
  2
cw-dimension-symbol6
 70
     0
 10
0.0
 20
0.0
 30
0.0
  3
cw-dimension-symbol6
  1

  0
LINE
  5
1A1
330
1A0
100
AcDbEntity
  8
0
  6
Continuous
 62
     0
370
    -2
390
5F
100
AcDbLine
 10
0.0
 20
0.0
 30
0.0
 11
-1.0
 21
0.25
 31
0.0
  0
LINE
  5
1A2
330
1A0
100
AcDbEntity
  8
0
  6
Continuous
 62
     0
370
    -2
390
5F
100
AcDbLine
 10
0.0
 20
0.0
 30
0.0
 11
-1.0
 21
-0.25
 31
0.0
  0
LINE
  5
1A3
330
1A0
100
AcDbEntity
  8
0
  6
Continuous
 62
     0
370
    -2
390
5F
100
AcDbLine
 10
0.0
 20
0.0
 30
0.0
 11
-1.0
 21
0.0
 31
0.0
  0
ENDBLK
  5
1A5
330
1A0
100
AcDbEntity
  8
0
100
AcDbBlockEnd
  0
BLOCK
  5
1AA
330
1A6
100
AcDbEntity
  8
0
100
AcDbBlockBegin
  2
cw-dimension-symbol11
 70
     0
 10
0.0
 20
0.0
 30
0.0
  3
cw-dimension-symbol11
  1

  0
LINE
  5
1A7
330
1A6
100
AcDbEntity
  8
0
  6
Continuous
 62
     0
370
    -2
390
5F
100
AcDbLine
 10
-1.0
 20
1.0
 30
0.0
 11
1.0
 21
1.0
 31
0.0
  0
LINE
  5
1A8
330
1A6
100
AcDbEntity
  8
0
  6
Continuous
 62
     0
370
    -2
390
5F
100
AcDbLine
 10
0.0
 20
0.0
 30
0.0
 11
-1.0
 21
1.0
 31
0.0
  0
LINE
  5
1A9
330
1A6
100
AcDbEntity
  8
0
  6
Continuous
 62
     0
370
    -2
390
5F
100
AcDbLine
 10
0.0
 20
0.0
 30
0.0
 11
1.0
 21
1.0
 31
0.0
  0
ENDBLK
  5
1AB
330
1A6
100
AcDbEntity
  8
0
100
AcDbBlockEnd
  0
BLOCK
  5
1B0
330
1AC
100
AcDbEntity
  8
0
100
AcDbBlockBegin
  2
cw-dimension-symbol13
 70
     0
 10
0.0
 20
0.0
 30
0.0
  3
cw-dimension-symbol13
  1

  0
LINE
  5
1AD
330
1AC
100
AcDbEntity
  8
0
  6
Continuous
 62
     0
370
    -2
390
5F
100
AcDbLine
 10
-1.0
 20
-1.0
 30
0.0
 11
1.0
 21
-1.0
 31
0.0
  0
LINE
  5
1AE
330
1AC
100
AcDbEntity
  8
0
  6
Continuous
 62
     0
370
    -2
390
5F
100
AcDbLine
 10
0.0
 20
0.0
 30
0.0
 11
-1.0
 21
-1.0
 31
0.0
  0
LINE
  5
1AF
330
1AC
100
AcDbEntity
  8
0
  6
Continuous
 62
     0
370
    -2
390
5F
100
AcDbLine
 10
0.0
 20
0.0
 30
0.0
 11
1.0
 21
-1.0
 31
0.0
  0
ENDBLK
  5
1B1
330
1AC
100
AcDbEntity
  8
0
100
AcDbBlockEnd
  0
BLOCK
  5
1B7
330
1B2
100
AcDbEntity
  8
0
100
AcDbBlockBegin
  2
cw-dimension-symbol15
 70
     0
 10
0.0
 20
0.0
 30
0.0
  3
cw-dimension-symbol15
  1

  0
HATCH
  5
1B3
330
1B2
100
AcDbEntity
  8
0
  6
Continuous
 62
     0
370
    -2
390
5F
100
AcDbHatch
 10
0.0
 20
0.0
 30
0.0
210
0.0
220
0.0
230
1.0
  2
SOLID
 70
     1
 71
     0
 91
        1
 92
        3
 72
     0
 73
     1
 93
        3
 10
0.0
 20
0.0
 10
-1.0
 20
1.0
 10
1.0
 20
1.0
 97
        0
 75
     0
 76
     1
 98
        0
  0
LINE
  5
1B4
330
1B2
100
AcDbEntity
  8
0
  6
Continuous
 62
     0
370
    -2
390
5F
100
AcDbLine
 10
0.0
 20
0.0
 30
0.0
 11
-1.0
 21
1.0
 31
0.0
  0
LINE
  5
1B5
330
1B2
100
AcDbEntity
  8
0
  6
Continuous
 62
     0
370
    -2
390
5F
100
AcDbLine
 10
-1.0
 20
1.0
 30
0.0
 11
1.0
 21
1.0
 31
0.0
  0
LINE
  5
1B6
330
1B2
100
AcDbEntity
  8
0
  6
Continuous
 62
     0
370
    -2
390
5F
100
AcDbLine
 10
1.0
 20
1.0
 30
0.0
 11
0.0
 21
0.0
 31
0.0
  0
ENDBLK
  5
1B8
330
1B2
100
AcDbEntity
  8
0
100
AcDbBlockEnd
  0
BLOCK
  5
1BE
330
1B9
100
AcDbEntity
  8
0
100
AcDbBlockBegin
  2
cw-dimension-symbol16
 70
     0
 10
0.0
 20
0.0
 30
0.0
  3
cw-dimension-symbol16
  1

  0
HATCH
  5
1BA
330
1B9
100
AcDbEntity
  8
0
  6
Continuous
 62
     0
370
    -2
390
5F
100
AcDbHatch
 10
0.0
 20
0.0
 30
0.0
210
0.0
220
0.0
230
1.0
  2
SOLID
 70
     1
 71
     0
 91
        1
 92
        3
 72
     0
 73
     1
 93
        3
 10
0.0
 20
0.0
 10
-1.0
 20
-1.0
 10
1.0
 20
-1.0
 97
        0
 75
     0
 76
     1
 98
        0
  0
LINE
  5
1BB
330
1B9
100
AcDbEntity
  8
0
  6
Continuous
 62
     0
370
    -2
390
5F
100
AcDbLine
 10
0.0
 20
0.0
 30
0.0
 11
-1.0
 21
-1.0
 31
0.0
  0
LINE
  5
1BC
330
1B9
100
AcDbEntity
  8
0
  6
Continuous
 62
     0
370
    -2
390
5F
100
AcDbLine
 10
-1.0
 20
-1.0
 30
0.0
 11
1.0
 21
-1.0
 31
0.0
  0
LINE
  5
1BD
330
1B9
100
AcDbEntity
  8
0
  6
Continuous
 62
     0
370
    -2
390
5F
100
AcDbLine
 10
1.0
 20
-1.0
 30
0.0
 11
0.0
 21
0.0
 31
0.0
  0
ENDBLK
  5
1BF
330
1B9
100
AcDbEntity
  8
0
100
AcDbBlockEnd
  0
BLOCK
  5
1C5
330
1C0
100
AcDbEntity
  8
0
100
AcDbBlockBegin
  2
cw-dimension-symbol17
 70
     0
 10
0.0
 20
0.0
 30
0.0
  3
cw-dimension-symbol17
  1

  0
LINE
  5
1C1
330
1C0
100
AcDbEntity
  8
0
  6
Continuous
 62
     0
370
    -2
390
5F
100
AcDbLine
 10
0.0
 20
0.0
 30
0.0
 11
1.0
 21
1.0
 31
0.0
  0
LINE
  5
1C2
330
1C0
100
AcDbEntity
  8
0
  6
Continuous
 62
     0
370
    -2
390
5F
100
AcDbLine
 10
1.0
 20
1.0
 30
0.0
 11
-1.0
 21
1.0
 31
0.0
  0
LINE
  5
1C3
330
1C0
100
AcDbEntity
  8
0
  6
Continuous
 62
     0
370
    -2
390
5F
100
AcDbLine
 10
-1.0
 20
1.0
 30
0.0
 11
0.0
 21
0.0
 31
0.0
  0
HATCH
  5
1C4
330
1C0
100
AcDbEntity
  8
0
  6
Continuous
 62
     0
370
    -2
390
5F
100
AcDbHatch
 10
0.0
 20
0.0
 30
0.0
210
0.0
220
0.0
230
1.0
  2
SOLID
 70
     1
 71
     0
 91
        1
 92
        3
 72
     0
 73
     1
 93
        3
 10
0.0
 20
0.0
 10
-1.0
 20
1.0
 10
0.0
 20
1.0
 97
        0
 75
     0
 76
     1
 98
        0
  0
ENDBLK
  5
1C6
330
1C0
100
AcDbEntity
  8
0
100
AcDbBlockEnd
  0
BLOCK
  5
1CC
330
1C7
100
AcDbEntity
  8
0
100
AcDbBlockBegin
  2
cw-dimension-symbol18
 70
     0
 10
0.0
 20
0.0
 30
0.0
  3
cw-dimension-symbol18
  1

  0
LINE
  5
1C8
330
1C7
100
AcDbEntity
  8
0
  6
Continuous
 62
     0
370
    -2
390
5F
100
AcDbLine
 10
0.0
 20
0.0
 30
0.0
 11
1.0
 21
-1.0
 31
0.0
  0
LINE
  5
1C9
330
1C7
100
AcDbEntity
  8
0
  6
Continuous
 62
     0
370
    -2
390
5F
100
AcDbLine
 10
1.0
 20
-1.0
 30
0.0
 11
-1.0
 21
-1.0
 31
0.0
  0
LINE
  5
1CA
330
1C7
100
AcDbEntity
  8
0
  6
Continuous
 62
     0
370
    -2
390
5F
100
AcDbLine
 10
-1.0
 20
-1.0
 30
0.0
 11
0.0
 21
0.0
 31
0.0
  0
HATCH
  5
1CB
330
1C7
100
AcDbEntity
  8
0
  6
Continuous
 62
     0
370
    -2
390
5F
100
AcDbHatch
 10
0.0
 20
0.0
 30
0.0
210
0.0
220
0.0
230
1.0
  2
SOLID
 70
     1
 71
     0
 91
        1
 92
        3
 72
     0
 73
     1
 93
        3
 10
0.0
 20
0.0
 10
-1.0
 20
-1.0
 10
0.0
 20
-1.0
 97
        0
 75
     0
 76
     1
 98
        0
  0
ENDBLK
  5
1CD
330
1C7
100
AcDbEntity
  8
0
100
AcDbBlockEnd
  0
BLOCK
  5
1CF
330
1CE
100
AcDbEntity
  8
0
100
AcDbBlockBegin
  2
cw-dimension-symbol19
 70
     0
 10
0.0
 20
0.0
 30
0.0
  3
cw-dimension-symbol19
  1

  0
ENDBLK
  5
1D0
330
1CE
100
AcDbEntity
  8
0
100
AcDbBlockEnd
  0
BLOCK
  5
1D6
330
1D1
100
AcDbEntity
  8
0
100
AcDbBlockBegin
  2
cw-dimension-symbol20
 70
     0
 10
0.0
 20
0.0
 30
0.0
  3
cw-dimension-symbol20
  1

  0
LINE
  5
1D2
330
1D1
100
AcDbEntity
  8
0
  6
Continuous
 62
     0
370
    -2
390
5F
100
AcDbLine
 10
0.0
 20
0.0
 30
0.0
 11
0.0
 21
2.0
 31
0.0
  0
LINE
  5
1D3
330
1D1
100
AcDbEntity
  8
0
  6
Continuous
 62
     0
370
    -2
390
5F
100
AcDbLine
 10
0.0
 20
0.0
 30
0.0
 11
-1.0
 21
0.33
 31
0.0
  0
LINE
  5
1D4
330
1D1
100
AcDbEntity
  8
0
  6
Continuous
 62
     0
370
    -2
390
5F
100
AcDbLine
 10
0.0
 20
0.0
 30
0.0
 11
1.0
 21
0.33
 31
0.0
  0
LINE
  5
1D5
330
1D1
100
AcDbEntity
  8
0
  6
Continuous
 62
     0
370
    -2
390
5F
100
AcDbLine
 10
0.0
 20
2.0
 30
0.0
 11
4.15
 21
2.0
 31
0.0
  0
ENDBLK
  5
1D7
330
1D1
100
AcDbEntity
  8
0
100
AcDbBlockEnd
  0
BLOCK
  5
1DD
330
1D8
100
AcDbEntity
  8
0
100
AcDbBlockBegin
  2
cw-dimension-symbol21
 70
     0
 10
0.0
 20
0.0
 30
0.0
  3
cw-dimension-symbol21
  1

  0
LINE
  5
1D9
330
1D8
100
AcDbEntity
  8
0
  6
Continuous
 62
     0
370
    -2
390
5F
100
AcDbLine
 10
0.0
 20
0.0
 30
0.0
 11
0.0
 21
-2.0
 31
0.0
  0
LINE
  5
1DA
330
1D8
100
AcDbEntity
  8
0
  6
Continuous
 62
     0
370
    -2
390
5F
100
AcDbLine
 10
0.0
 20
0.0
 30
0.0
 11
-1.0
 21
-0.33
 31
0.0
  0
LINE
  5
1DB
330
1D8
100
AcDbEntity
  8
0
  6
Continuous
 62
     0
370
    -2
390
5F
100
AcDbLine
 10
0.0
 20
0.0
 30
0.0
 11
1.0
 21
-0.33
 31
0.0
  0
LINE
  5
1DC
330
1D8
100
AcDbEntity
  8
0
  6
Continuous
 62
     0
370
    -2
390
5F
100
AcDbLine
 10
0.0
 20
-2.0
 30
0.0
 11
4.15
 21
-2.0
 31
0.0
  0
ENDBLK
  5
1DE
330
1D8
100
AcDbEntity
  8
0
100
AcDbBlockEnd
  0
BLOCK
  5
20F
330
1DF
100
AcDbEntity
  8
0
100
AcDbBlockBegin
  2
cw-line-extremity0
 70
     0
 10
0.0
 20
0.0
 30
0.0
  3
cw-line-extremity0
  1

  0
LINE
  5
1E0
330
1DF
100
AcDbEntity
  8
0
  6
Continuous
 62
     0
370
    -2
390
5F
100
AcDbLine
 10
0.0
 20
0.0
 30
0.0
 11
10.0
 21
2.5
 31
0.0
  0
LINE
  5
1E1
330
1DF
100
AcDbEntity
  8
0
  6
Continuous
 62
     0
370
    -2
390
5F
100
AcDbLine
 10
0.0
 20
0.0
 30
0.0
 11
10.0
 21
-2.5
 31
0.0
  0
LINE
  5
1E2
330
1DF
100
AcDbEntity
  8
0
  6
Continuous
 62
     0
370
    -2
390
5F
100
AcDbLine
 10
10.0
 20
2.5
 30
0.0
 11
10.0
 21
-2.5
 31
0.0
  0
ENDBLK
  5
210
330
1DF
100
AcDbEntity
  8
0
100
AcDbBlockEnd
  0
BLOCK
  5
20D
330
1E3
100
AcDbEntity
  8
0
100
AcDbBlockBegin
  2
cw-line-extremity2
 70
     0
 10
0.0
 20
0.0
 30
0.0
  3
cw-line-extremity2
  1

  0
HATCH
  5
1E4
330
1E3
100
AcDbEntity
  8
0
  6
Continuous
 62
     0
370
     0
390
5F
100
AcDbHatch
 10
0.0
 20
0.0
 30
0.0
210
0.0
220
0.0
230
1.0
  2
SOLID
 70
     1
 71
     0
 91
        1
 92
        3
 72
     0
 73
     1
 93
        3
 10
0.0
 20
0.0
 10
10.0
 20
2.5
 10
10.0
 20
-2.5
 97
        0
 75
     0
 76
     1
 98
        0
  0
LINE
  5
1E5
330
1E3
100
AcDbEntity
  8
0
  6
Continuous
 62
     0
370
    -2
390
5F
100
AcDbLine
 10
0.0
 20
0.0
 30
0.0
 11
10.0
 21
2.5
 31
0.0
  0
LINE
  5
1E6
330
1E3
100
AcDbEntity
  8
0
  6
Continuous
 62
     0
370
    -2
390
5F
100
AcDbLine
 10
10.0
 20
2.5
 30
0.0
 11
10.0
 21
-2.5
 31
0.0
  0
LINE
  5
1E7
330
1E3
100
AcDbEntity
  8
0
  6
Continuous
 62
     0
370
    -2
390
5F
100
AcDbLine
 10
10.0
 20
-2.5
 30
0.0
 11
0.0
 21
0.0
 31
0.0
  0
ENDBLK
  5
20E
330
1E3
100
AcDbEntity
  8
0
100
AcDbBlockEnd
  0
BLOCK
  5
20B
330
1E8
100
AcDbEntity
  8
0
100
AcDbBlockBegin
  2
cw-line-extremity3
 70
     0
 10
0.0
 20
0.0
 30
0.0
  3
cw-line-extremity3
  1

  0
HATCH
  5
1E9
330
1E8
100
AcDbEntity
  8
0
  6
Continuous
 62
     0
370
     0
390
5F
100
AcDbHatch
 10
0.0
 20
0.0
 30
0.0
210
0.0
220
0.0
230
1.0
  2
SOLID
 70
     1
 71
     0
 91
        1
 92
        3
 72
     0
 73
     1
 93
        3
 10
0.0
 20
0.0
 10
10.0
 20
2.5
 10
10.0
 20
-2.5
 97
        0
 75
     0
 76
     1
 98
        0
  0
LINE
  5
1EA
330
1E8
100
AcDbEntity
  8
0
  6
Continuous
 62
     0
370
    -2
390
5F
100
AcDbLine
 10
0.0
 20
0.0
 30
0.0
 11
10.0
 21
2.5
 31
0.0
  0
LINE
  5
1EB
330
1E8
100
AcDbEntity
  8
0
  6
Continuous
 62
     0
370
    -2
390
5F
100
AcDbLine
 10
10.0
 20
2.5
 30
0.0
 11
10.0
 21
-2.5
 31
0.0
  0
LINE
  5
1EC
330
1E8
100
AcDbEntity
  8
0
  6
Continuous
 62
     0
370
    -2
390
5F
100
AcDbLine
 10
10.0
 20
-2.5
 30
0.0
 11
0.0
 21
0.0
 31
0.0
  0
ENDBLK
  5
20C
330
1E8
100
AcDbEntity
  8
0
100
AcDbBlockEnd
  0
BLOCK
  5
209
330
1ED
100
AcDbEntity
  8
0
100
AcDbBlockBegin
  2
cw-line-extremity301
 70
     0
 10
0.0
 20
0.0
 30
0.0
  3
cw-line-extremity301
  1

  0
LINE
  5
1EE
330
1ED
100
AcDbEntity
  8
0
  6
Continuous
 62
     0
370
    -2
390
5F
100
AcDbLine
 10
0.0
 20
6.66665
 30
0.0
 11
0.0
 21
-6.66665
 31
0.0
  0
ENDBLK
  5
20A
330
1ED
100
AcDbEntity
  8
0
100
AcDbBlockEnd
  0
BLOCK
  5
207
330
1EF
100
AcDbEntity
  8
0
100
AcDbBlockBegin
  2
cw-line-extremity4
 70
     0
 10
0.0
 20
0.0
 30
0.0
  3
cw-line-extremity4
  1

  0
HATCH
  5
1F0
330
1EF
100
AcDbEntity
  8
0
  6
Continuous
 62
     0
370
     5
390
5F
100
AcDbHatch
 10
0.0
 20
0.0
 30
0.0
210
0.0
220
0.0
230
1.0
  2
SOLID
 70
     1
 71
     0
 91
        1
 92
        1
 93
        1
 72
     2
 10
0.0
 20
0.0
 40
2.5
 50
0.0
 51
360.0
 73
     1
 97
        0
 75
     0
 76
     1
 98
        0
  0
ENDBLK
  5
208
330
1EF
100
AcDbEntity
  8
0
100
AcDbBlockEnd
  0
BLOCK
  5
205
330
1F1
100
AcDbEntity
  8
0
100
AcDbBlockBegin
  2
cw-line-extremity5
 70
     0
 10
0.0
 20
0.0
 30
0.0
  3
cw-line-extremity5
  1

  0
LINE
  5
1F2
330
1F1
100
AcDbEntity
  8
0
  6
Continuous
 62
     0
370
    -2
390
5F
100
AcDbLine
 10
0.0
 20
0.0
 30
0.0
 11
-2.5
 21
0.0
 31
0.0
  0
ENDBLK
  5
206
330
1F1
100
AcDbEntity
  8
0
100
AcDbBlockEnd
  0
BLOCK
  5
203
330
1F3
100
AcDbEntity
  8
0
100
AcDbBlockBegin
  2
cw-line-extremity6
 70
     0
 10
0.0
 20
0.0
 30
0.0
  3
cw-line-extremity6
  1

  0
LINE
  5
1F4
330
1F3
100
AcDbEntity
  8
0
  6
Continuous
 62
     0
370
    18
390
5F
100
AcDbLine
 10
0.0
 20
2.5
 30
0.0
 11
0.0
 21
-2.5
 31
0.0
  0
ENDBLK
  5
204
330
1F3
100
AcDbEntity
  8
0
100
AcDbBlockEnd
  0
BLOCK
  5
201
330
1F5
100
AcDbEntity
  8
0
100
AcDbBlockBegin
  2
cw-line-extremity9
 70
     0
 10
0.0
 20
0.0
 30
0.0
  3
cw-line-extremity9
  1

  0
LINE
  5
1F6
330
1F5
100
AcDbEntity
  8
0
  6
Continuous
 62
     0
370
    18
390
5F
100
AcDbLine
 10
-2.5
 20
-2.5
 30
0.0
 11
2.5
 21
2.5
 31
0.0
  0
ENDBLK
  5
202
330
1F5
100
AcDbEntity
  8
0
100
AcDbBlockEnd
  0
BLOCK
  5
1FF
330
1F7
100
AcDbEntity
  8
0
100
AcDbBlockBegin
  2
cw-line-extremity10
 70
     0
 10
0.0
 20
0.0
 30
0.0
  3
cw-line-extremity10
  1

  0
CIRCLE
  5
1F8
330
1F7
100
AcDbEntity
  8
0
  6
Continuous
 62
     0
370
    -2
390
5F
100
AcDbCircle
 10
0.0
 20
0.0
 30
0.0
 40
2.5
  0
ENDBLK
  5
200
330
1F7
100
AcDbEntity
  8
0
100
AcDbBlockEnd
  0
BLOCK
  5
1FD
330
1F9
100
AcDbEntity
  8
0
100
AcDbBlockBegin
  2
cw-line-extremity1
 70
     0
 10
0.0
 20
0.0
 30
0.0
  3
cw-line-extremity1
  1

  0
LINE
  5
1FA
330
1F9
100
AcDbEntity
  8
0
  6
Continuous
 62
     0
370
    -2
390
5F
100
AcDbLine
 10
0.0
 20
0.0
 30
0.0
 11
0.0
 21
2.5
 31
0.0
  0
LINE
  5
1FB
330
1F9
100
AcDbEntity
  8
0
  6
Continuous
 62
     0
370
    -2
390
5F
100
AcDbLine
 10
0.0
 20
2.5
 30
0.0
 11
1.25
 21
3.75
 31
0.0
  0
LINE
  5
1FC
330
1F9
100
AcDbEntity
  8
0
  6
Continuous
 62
     0
370
    -2
390
5F
100
AcDbLine
 10
1.25
 20
3.75
 30
0.0
 11
3.75
 21
3.75
 31
0.0
  0
ENDBLK
  5
1FE
330
1F9
100
AcDbEntity
  8
0
100
AcDbBlockEnd
  0
BLOCK
  5
1C
330
1B
100
AcDbEntity
  8
0
100
AcDbBlockBegin
  2
*Paper_Space69
 70
     0
 10
0.0
 20
0.0
 30
0.0
  3
*Paper_Space69
  1

  0
ENDBLK
  5
1D
330
1B
100
AcDbEntity
  8
0
100
AcDbBlockEnd
  0
ENDSEC
  0
SECTION
  2
ENTITIES
  0
HATCH
  5
21A
330
1F
100
AcDbEntity
  8
Ech.1_5
  6
Continuous
 62
   254
420
 16643007
440
 33554687
370
    20
390
5F
100
AcDbHatch
 10
0.0
 20
0.0
 30
0.0
210
0.0
220
0.0
230
1.0
  2
SOLID
 70
     1
 71
     0
 91
        1
 92
        3
 72
     1
 73
     1
 93
        4
 10
23488.19395201408
 20
-12807.17493195022
 42
0.0
 10
23386.84627873524
 20
-12807.17201279279
 42
0.0
 10
23386.84627873524
 20
-12952.17465253515
 42
0.0
 10
23423.16596453608
 20
-12952.17706827322
 42
0.2231289289016151
 97
        0
 75
     0
 76
     1
 98
        0
  0
LWPOLYLINE
  5
21B
330
1F
100
AcDbEntity
  8
Ech.1_5
  6
Continuous
 62
   190
370
    15
390
5F
100
AcDbPolyline
 90
        5
 70
     0
 43
0.0
 10
23488.19395201408
 20
-12807.17493195022
 10
23386.84627873524
 20
-12807.17201279279
 10
23386.84627873524
 20
-12952.17465253515
 10
23423.16596453608
 20
-12952.17706827322
 42
0.2231289289016149
 10
23488.19395201408
 20
-12807.17493195022
  0
LWPOLYLINE
  5
21C
330
1F
100
AcDbEntity
  8
Ech.1_5
  6
Continuous
 62
   190
370
    15
390
5F
100
AcDbPolyline
 90
        5
 70
     0
 43
0.0
 10
9116.32829549663
 20
-12018.78313514858
 10
31769.28913838763
 20
-12018.78313514858
 10
31769.28913838763
 20
-14457.30704422377
 10
9116.32829549663
 20
-14457.30704422377
 10
9116.32829549663
 20
-12018.78313514858
  0
HATCH
  5
21D
330
1F
100
AcDbEntity
  8
Ech.1_5
  6
Continuous
 62
   254
420
 16643007
440
 33554687
370
     5
390
5F
100
AcDbHatch
 10
0.0
 20
0.0
 30
0.0
210
0.0
220
0.0
230
1.0
  2
SOLID
 70
     1
 71
     0
 91
        1
 92
        3
 72
     1
 73
     1
 93
        4
 10
23423.16400252972
 20
-12952.17875518353
 42
0.0
 10
23179.43713797864
 20
-12952.17288780289
 42
0.1190666906644697
 10
23257.57128301094
 20
-12992.17476878175
 42
0.0
 10
23345.02793161018
 20
-12992.17687417727
 42
0.1190666906644966
 97
        0
 75
     0
 76
     1
 98
        0
  0
HATCH
  5
21E
330
1F
100
AcDbEntity
  8
Ech.1_5
  6
Continuous
 62
   190
440
 33554687
370
    15
390
5F
100
AcDbHatch
 10
0.0
 20
0.0
 30
0.0
210
0.0
220
0.0
230
1.0
  2
CwHatchPattern_201
 70
     0
 71
     0
 91
        1
 92
        3
 72
     1
 73
     1
 93
        4
 10
23423.16400252972
 20
-12952.17875518353
 42
0.0
 10
23179.43713797864
 20
-12952.17288780289
 42
0.1190666906644697
 10
23257.57128301094
 20
-12992.17476878175
 42
0.0
 10
23345.02793161018
 20
-12992.17687417727
 42
0.1190666906644966
 97
        0
 75
     0
 76
     2
 52
179.9986206848879
 41
0.800000011920929
 77
     0
 78
    29
 53
179.9986206848879
 43
23424.05679053572
 44
-12952.17877667614
 45
-0.0009629436193815
 46
-40.00000058445569
 79
     2
 49
1.785576012515664
 49
-4.881092144267143
 53
269.9986206848939
 43
23429.83053230409
 44
-12957.76373173468
 45
13.33333225658612
 46
-0.0003209811744705
 79
     2
 49
1.081851975349366
 49
-38.91814862069708
 53
269.9986206848939
 43
23423.16320007673
 44
-12985.51208773235
 45
13.33333225658612
 46
-0.0003209811744705
 79
     2
 49
1.081851975349366
 49
-38.91814862069708
 53
284.9310852845042
 43
23416.65603936289
 44
-12960.27533840547
 45
13.33310066389472
 46
-40.00012978613406
 79
     2
 49
24.63855589387649
 49
-182.3504360668426
 53
255.0661560852836
 43
23416.33824360477
 44
-12960.27533075499
 45
13.33502654189071
 46
39.99948778857286
 79
     2
 49
24.63855589387649
 49
-182.3504360668426
 53
195.2537400086194
 43
23422.27121452372
 44
-12952.17873369092
 45
13.33333183801559
 46
-0.0003213385850948
 79
     2
 49
1.812163976016103
 49
-150.2112296553139
 53
344.7435089905629
 43
23424.05679053572
 44
-12952.17877667614
 45
13.33333183807537
 46
-0.0003188483031677
 79
     2
 49
1.812163976016103
 49
-150.2112296553139
 53
195.2537400086194
 43
23419.13748299739
 44
-12991.70184839582
 45
13.33333183801559
 46
-0.0003213385850948
 79
     2
 49
1.812163976016103
 49
-150.2112296553139
 53
164.7435013611565
 43
23415.60358741876
 44
-12992.17857378483
 45
-13.33333183803279
 46
0.0003206237464511
 79
     2
 49
1.812163976016103
 49
-150.2112296553139
 53
210.9623772461693
 43
23420.52289489744
 44
-12952.65550361487
 45
13.33333456052893
 46
-0.0003208926574463
 79
     2
 49
1.740947987749397
 49
-76.00507467992713
 53
329.0348603089212
 43
23425.81495105844
 44
-12952.65563101367
 45
13.33333456050326
 46
-0.0003219575228676
 79
     2
 49
1.740947987749397
 49
-76.00507467992713
 53
210.9623772461693
 43
23420.63035250172
 44
-12990.80617051479
 45
13.33333456052893
 46
-0.0003208926574463
 79
     2
 49
1.740947987749397
 49
-76.00507467992713
 53
149.0348641236066
 43
23413.85528687529
 44
-12991.7017212344
 45
-13.33333456052466
 46
0.0003210698051805
 79
     2
 49
1.740947987749397
 49
-76.00507467992713
 53
224.9986206848909
 43
23419.03002539316
 44
-12953.55117970777
 45
13.33333577257676
 46
-0.0003209812597998
 79
     2
 49
1.480515978940069
 49
-55.08802877497715
 53
314.9986206848969
 43
23427.29791358312
 44
-12953.55137874552
 45
13.33333577257676
 46
-0.0003209812584156
 79
     2
 49
1.480515978940069
 49
-55.08802877497715
 53
224.9986206848909
 43
23421.67725784515
 44
-12989.75931688696
 45
13.33333577257676
 46
-0.0003209812597998
 79
     2
 49
1.480515978940069
 49
-55.08802877497715
 53
134.998620684885
 43
23412.36246002023
 44
-12990.80597147694
 45
-13.33333577257676
 46
0.0003209812611839
 79
     2
 49
1.480515978940069
 49
-55.08802877497715
 53
236.3085533936319
 43
23417.98311611579
 44
-12954.59803452759
 45
13.33333420100667
 46
-0.0003194718407839
 79
     2
 49
1.552916073097528
 49
-46.52109978379457
 53
303.6886841614586
 43
23428.34477245616
 44
-12954.59828396986
 45
13.33333420091249
 46
-0.0003233783221992
 79
     2
 49
1.552916073097528
 49
-46.52109978379457
 53
236.3085533936319
 43
23422.53869290549
 44
-12988.46723097675
 45
13.33333420100667
 46
-0.0003194718407839
 79
     2
 49
1.552916073097528
 49
-46.52109978379457
 53
123.688687976144
 43
23411.31560162399
 44
-12989.7590674447
 45
-13.33333420093399
 46
0.0003224906045305
 79
     2
 49
1.552916073097528
 49
-46.52109978379456
 53
251.5636689026661
 43
23417.12168105552
 44
-12955.8901178152
 45
13.33333514748784
 46
-0.0003203128035199
 79
     2
 49
1.974640041211844
 49
-40.18906462474263
 53
288.4335724671216
 43
23429.20614530527
 44
-12955.89040873164
 45
13.33333514745566
 46
-0.0003216496846203
 79
     2
 49
1.974640041211843
 49
-40.18906462474262
 53
251.5636689026661
 43
23423.16317403267
 44
-12986.59393970738
 45
13.33333514748784
 46
-0.0003203128035199
 79
     2
 49
1.974640041211844
 49
-40.18906462474263
 53
108.4335724671098
 43
23410.45423306648
 44
-12988.46694006042
 45
-13.33333514745566
 46
0.0003216496873694
 79
     2
 49
1.974640041211844
 49
-40.18906462474263
 53
263.658425982745
 43
23429.83050626012
 44
-12958.84557989502
 45
13.33526318985834
 46
79.99968422533006
 79
     2
 49
1.438876054270208
 49
-119.2995928421556
 53
276.3388153870427
 43
23416.49717781823
 44
-12958.84525891393
 45
13.33141141520296
 46
-80.00032618792194
 79
     2
 49
1.438876054270208
 49
-119.2995928421555
 53
83.65844124154587
 43
23423.16320007673
 44
-12985.51208773235
 45
-13.33524188463679
 46
-79.99968777672537
 79
     2
 49
1.438876054270208
 49
-119.2995928421555
 53
96.33881538703086
 43
23423.16320007673
 44
-12985.51208773235
 45
-13.33141141518645
 46
80.0003261879247
 79
     2
 49
1.438876054270208
 49
-119.2995928421556
 98
        0
1001
ACAD
1010
23423.16400252972
1020
-12952.17875518353
1030
0.0
  0
LWPOLYLINE
  5
21F
330
1F
100
AcDbEntity
  8
Ech.1_5
  6
Continuous
 62
   190
370
    15
390
5F
100
AcDbPolyline
 90
        5
 70
     0
 43
0.0
 10
23423.16400252972
 20
-12952.17875518353
 10
23179.43713797864
 20
-12952.17288780289
 42
0.1190666906644701
 10
23257.57128301094
 20
-12992.17476878175
 10
23345.02793161018
 20
-12992.17687417727
 42
0.1190666906644777
 10
23423.16400252972
 20
-12952.17875518353
  0
HATCH
  5
220
330
1F
100
AcDbEntity
  8
Ech.1_5
  6
Continuous
 62
   254
420
 16643007
440
 33554687
370
    20
390
5F
100
AcDbHatch
 10
0.0
 20
0.0
 30
0.0
210
0.0
220
0.0
230
1.0
  2
SOLID
 70
     1
 71
     0
 91
        1
 92
        3
 72
     0
 73
     1
 93
        4
 10
22711.56186579391
 20
-13627.84427922768
 10
22751.56186579427
 20
-13627.84427922744
 10
22751.56186579131
 20
-12795.83855037364
 10
22711.56186579095
 20
-12795.83855037369
 97
        0
 75
     0
 76
     1
 98
        0
  0
LWPOLYLINE
  5
221
330
1F
100
AcDbEntity
  8
Ech.1_5
  6
Continuous
 62
   190
370
    15
390
5F
100
AcDbPolyline
 90
        5
 70
     0
 43
0.0
 10
22711.56186579391
 20
-13627.84427922768
 10
22751.56186579427
 20
-13627.84427922744
 10
22751.56186579131
 20
-12795.83855037364
 10
22711.56186579095
 20
-12795.83855037369
 10
22711.56186579391
 20
-13627.84427922768
  0
HATCH
  5
222
330
1F
100
AcDbEntity
  8
Ech.1_5
  6
Continuous
 62
   254
420
 16643007
440
 33554687
370
    20
390
5F
100
AcDbHatch
 10
0.0
 20
0.0
 30
0.0
210
0.0
220
0.0
230
1.0
  2
SOLID
 70
     1
 71
     0
 91
        1
 92
        3
 72
     0
 73
     1
 93
        4
 10
22751.56257004369
 20
-13587.8438214916
 10
22751.56116154916
 20
-13627.84382146715
 10
23585.55752681943
 20
-13627.8638987539
 10
23585.55914459123
 20
-13587.8638987833
 97
        0
 75
     0
 76
     1
 98
        0
  0
LWPOLYLINE
  5
223
330
1F
100
AcDbEntity
  8
Ech.1_5
  6
Continuous
 62
   190
370
    15
390
5F
100
AcDbPolyline
 90
        5
 70
     0
 43
0.0
 10
22751.56257004369
 20
-13587.8438214916
 10
22751.56116154916
 20
-13627.84382146715
 10
23585.55752681943
 20
-13627.8638987539
 10
23585.55914459123
 20
-13587.8638987833
 10
22751.56257004369
 20
-13587.8438214916
  0
LWPOLYLINE
  5
224
330
1F
100
AcDbEntity
  8
Ech.1_5
  6
Continuous
 62
   190
370
    15
390
5F
100
AcDbPolyline
 90
      248
 70
     0
 43
0.0
 10
22718.22853245748
 20
-12795.83855037367
 42
1.140281805119725
 10
22719.95399664334
 20
-12808.94472150763
 10
22743.16973493782
 20
-12802.73237923921
 42
-1.303226186855658
 10
22743.16973493787
 20
-12815.61138817407
 10
22719.95399664334
 20
-12809.39904590582
 42
1.303226186856223
 10
22719.95399664339
 20
-12822.27805484069
 10
22743.16973493787
 20
-12816.06571257226
 42
-1.303226186856223
 10
22743.16973493792
 20
-12828.94472150713
 10
22719.95399664339
 20
-12822.73237923888
 42
1.303226186855658
 10
22719.95399664343
 20
-12835.61138817375
 10
22743.16973493792
 20
-12829.39904590532
 42
-1.303226186855093
 10
22743.16973493797
 20
-12842.27805484019
 10
22719.95399664343
 20
-12836.06571257194
 42
1.303226186855093
 10
22719.95399664348
 20
-12848.94472150681
 10
22743.16973493797
 20
-12842.73237923838
 42
-1.303226186855658
 10
22743.16973493801
 20
-12855.61138817325
 10
22719.95399664348
 20
-12849.399045905
 42
1.303226186856223
 10
22719.95399664353
 20
-12862.27805483987
 10
22743.16973493802
 20
-12856.06571257144
 42
-1.303226186855658
 10
22743.16973493806
 20
-12868.94472150631
 10
22719.95399664353
 20
-12862.73237923806
 42
1.303226186855658
 10
22719.95399664358
 20
-12875.61138817293
 10
22743.16973493806
 20
-12869.3990459045
 42
-1.303226186855093
 10
22743.16973493811
 20
-12882.27805483937
 10
22719.95399664358
 20
-12876.06571257112
 42
1.303226186855658
 10
22719.95399664363
 20
-12888.94472150598
 10
22743.16973493811
 20
-12882.73237923756
 42
-1.303226186855658
 10
22743.16973493816
 20
-12895.61138817243
 10
22719.95399664363
 20
-12889.39904590417
 42
1.303226186856223
 10
22719.95399664368
 20
-12902.27805483904
 10
22743.16973493816
 20
-12896.06571257062
 42
-1.303226186855658
 10
22743.16973493821
 20
-12908.94472150549
 10
22719.95399664368
 20
-12902.73237923723
 42
1.303226186855658
 10
22719.95399664372
 20
-12915.6113881721
 10
22743.16973493821
 20
-12909.39904590368
 42
-1.303226186856223
 10
22743.16973493826
 20
-12922.27805483855
 10
22719.95399664373
 20
-12916.06571257029
 42
1.303226186855658
 10
22719.95399664377
 20
-12928.94472150516
 10
22743.16973493826
 20
-12922.73237923674
 42
-1.303226186855658
 10
22743.1697349383
 20
-12935.61138817161
 10
22719.95399664377
 20
-12929.39904590335
 42
1.303226186855093
 10
22719.95399664382
 20
-12942.27805483822
 10
22743.16973493831
 20
-12936.0657125698
 42
-1.303226186855658
 10
22743.16973493835
 20
-12948.94472150467
 10
22719.95399664382
 20
-12942.73237923641
 42
1.303226186856223
 10
22719.95399664388
 20
-12955.61138817128
 10
22743.16973493835
 20
-12949.39904590286
 42
-1.303226186856223
 10
22743.1697349384
 20
-12962.27805483773
 10
22719.95399664388
 20
-12956.06571256947
 42
1.303226186855658
 10
22719.95399664392
 20
-12968.94472150434
 10
22743.1697349384
 20
-12962.73237923592
 42
-1.303226186855093
 10
22743.16973493846
 20
-12975.61138817079
 10
22719.95399664392
 20
-12969.39904590253
 42
1.303226186855093
 10
22719.95399664397
 20
-12982.2780548374
 10
22743.16973493846
 20
-12976.06571256898
 42
-1.303226186855658
 10
22743.1697349385
 20
-12988.94472150385
 10
22719.95399664397
 20
-12982.73237923559
 42
1.303226186856223
 10
22719.95399664402
 20
-12995.61138817046
 10
22743.1697349385
 20
-12989.39904590204
 42
-1.303226186856223
 10
22743.16973493855
 20
-13002.2780548369
 10
22719.95399664402
 20
-12996.06571256865
 42
1.303226186855658
 10
22719.95399664406
 20
-13008.94472150352
 10
22743.16973493855
 20
-13002.73237923509
 42
-1.303226186855093
 10
22743.1697349386
 20
-13015.61138816996
 10
22719.95399664407
 20
-13009.39904590171
 42
1.303226186855658
 10
22719.95399664412
 20
-13022.27805483658
 10
22743.1697349386
 20
-13016.06571256815
 42
-1.303226186855658
 10
22743.16973493864
 20
-13028.94472150302
 10
22719.95399664412
 20
-13022.73237923477
 42
1.303226186856223
 10
22719.95399664417
 20
-13035.61138816964
 10
22743.16973493865
 20
-13029.39904590121
 42
-1.303226186855658
 10
22743.1697349387
 20
-13042.27805483608
 10
22719.95399664417
 20
-13036.06571256783
 42
1.303226186855658
 10
22719.95399664421
 20
-13048.9447215027
 10
22743.1697349387
 20
-13042.73237923427
 42
-1.303226186856223
 10
22743.16973493875
 20
-13055.61138816914
 10
22719.95399664422
 20
-13049.39904590089
 42
1.303226186855658
 10
22719.95399664426
 20
-13062.27805483576
 10
22743.16973493875
 20
-13056.06571256733
 42
-1.303226186855658
 10
22743.16973493879
 20
-13068.9447215022
 10
22719.95399664426
 20
-13062.73237923394
 42
1.303226186855093
 10
22719.95399664431
 20
-13075.61138816881
 10
22743.1697349388
 20
-13069.39904590039
 42
-1.303226186855658
 10
22743.16973493884
 20
-13082.27805483526
 10
22719.95399664431
 20
-13076.065712567
 42
1.303226186856223
 10
22719.95399664436
 20
-13088.94472150187
 10
22743.16973493884
 20
-13082.73237923345
 42
-1.303226186856223
 10
22743.16973493889
 20
-13095.61138816832
 10
22719.95399664436
 20
-13089.39904590006
 42
1.303226186855658
 10
22719.95399664441
 20
-13102.27805483493
 10
22743.16973493889
 20
-13096.06571256651
 42
-1.303226186855093
 10
22743.16973493894
 20
-13108.94472150138
 10
22719.95399664441
 20
-13102.73237923312
 42
1.303226186855093
 10
22719.95399664446
 20
-13115.61138816799
 10
22743.16973493894
 20
-13109.39904589957
 42
-1.303226186855658
 10
22743.16973493899
 20
-13122.27805483444
 10
22719.95399664446
 20
-13116.06571256618
 42
1.303226186856223
 10
22719.95399664451
 20
-13128.94472150105
 10
22743.16973493899
 20
-13122.73237923263
 42
-1.303226186856223
 10
22743.16973493904
 20
-13135.6113881675
 10
22719.95399664451
 20
-13129.39904589924
 42
1.303226186855658
 10
22719.95399664455
 20
-13142.27805483411
 10
22743.16973493904
 20
-13136.06571256569
 42
-1.303226186855093
 10
22743.16973493909
 20
-13148.94472150056
 10
22719.95399664456
 20
-13142.7323792323
 42
1.303226186855658
 10
22719.9539966446
 20
-13155.61138816717
 10
22743.16973493909
 20
-13149.39904589875
 42
-1.303226186855658
 10
22743.16973493913
 20
-13162.27805483362
 10
22719.9539966446
 20
-13156.06571256536
 42
1.303226186856223
 10
22719.95399664465
 20
-13168.94472150023
 10
22743.16973493914
 20
-13162.73237923181
 42
-1.303226186855658
 10
22743.16973493918
 20
-13175.61138816668
 10
22719.95399664465
 20
-13169.39904589842
 42
1.303226186855658
 10
22719.9539966447
 20
-13182.27805483329
 10
22743.16973493918
 20
-13176.06571256486
 42
-1.303226186856223
 10
22743.16973493923
 20
-13188.94472149973
 10
22719.9539966447
 20
-13182.73237923148
 42
1.303226186855658
 10
22719.95399664475
 20
-13195.61138816635
 10
22743.16973493923
 20
-13189.39904589792
 42
-1.303226186855658
 10
22743.16973493928
 20
-13202.27805483279
 10
22719.95399664475
 20
-13196.06571256454
 42
1.303226186855093
 10
22719.9539966448
 20
-13208.94472149941
 10
22743.16973493929
 20
-13202.73237923098
 42
-1.303226186855658
 10
22743.16973493933
 20
-13215.61138816585
 10
22719.9539966448
 20
-13209.3990458976
 42
1.303226186855658
 10
22719.95399664484
 20
-13222.27805483247
 10
22743.16973493933
 20
-13216.06571256404
 42
-1.303226186856223
 10
22743.16973493938
 20
-13228.94472149891
 10
22719.95399664485
 20
-13222.73237923066
 42
1.303226186855658
 10
22719.95399664489
 20
-13235.61138816553
 10
22743.16973493938
 20
-13229.3990458971
 42
-1.303226186855093
 10
22743.16973493943
 20
-13242.27805483197
 10
22719.95399664489
 20
-13236.06571256372
 42
1.303226186855093
 10
22719.95399664494
 20
-13248.94472149858
 10
22743.16973493943
 20
-13242.73237923016
 42
-1.303226186855658
 10
22743.16973493947
 20
-13255.61138816503
 10
22719.95399664494
 20
-13249.39904589677
 42
1.303226186856223
 10
22719.953996645
 20
-13262.27805483164
 10
22743.16973493947
 20
-13256.06571256322
 42
-1.303226186856223
 10
22743.16973493953
 20
-13268.94472149809
 10
22719.953996645
 20
-13262.73237922983
 42
1.303226186855658
 10
22719.95399664504
 20
-13275.6113881647
 10
22743.16973493953
 20
-13269.39904589628
 42
-1.303226186855093
 10
22743.16973493958
 20
-13282.27805483115
 10
22719.95399664505
 20
-13276.06571256289
 42
1.303226186855658
 10
22719.95399664509
 20
-13288.94472149776
 10
22743.16973493958
 20
-13282.73237922934
 42
-1.303226186855658
 10
22743.16973493962
 20
-13295.61138816421
 10
22719.95399664509
 20
-13289.39904589595
 42
1.303226186856223
 10
22719.95399664514
 20
-13302.27805483082
 10
22743.16973493963
 20
-13296.0657125624
 42
-1.303226186855658
 10
22743.16973493967
 20
-13308.94472149727
 10
22719.95399664514
 20
-13302.73237922901
 42
1.303226186855658
 10
22719.95399664518
 20
-13315.61138816388
 10
22743.16973493967
 20
-13309.39904589546
 42
-1.303226186855093
 10
22743.16973493972
 20
-13322.27805483033
 10
22719.95399664519
 20
-13316.06571256207
 42
1.303226186855658
 10
22719.95399664524
 20
-13328.94472149694
 10
22743.16973493972
 20
-13322.73237922852
 42
-1.303226186855658
 10
22743.16973493977
 20
-13335.61138816339
 10
22719.95399664524
 20
-13329.39904589513
 42
1.303226186855093
 10
22719.95399664529
 20
-13342.27805483
 10
22743.16973493977
 20
-13336.06571256158
 42
-1.303226186855658
 10
22743.16973493982
 20
-13348.94472149645
 10
22719.95399664529
 20
-13342.73237922819
 42
1.303226186855658
 10
22719.95399664533
 20
-13355.61138816306
 10
22743.16973493982
 20
-13349.39904589464
 42
-1.303226186856223
 10
22743.16973493987
 20
-13362.2780548295
 10
22719.95399664534
 20
-13356.06571256125
 42
1.303226186855658
 10
22719.95399664538
 20
-13368.94472149612
 10
22743.16973493987
 20
-13362.73237922769
 42
-1.303226186855093
 10
22743.16973493992
 20
-13375.61138816256
 10
22719.95399664538
 20
-13369.39904589431
 42
1.303226186855093
 10
22719.95399664543
 20
-13382.27805482918
 10
22743.16973493992
 20
-13376.06571256075
 42
-1.303226186855658
 10
22743.16973493996
 20
-13388.94472149562
 10
22719.95399664543
 20
-13382.73237922737
 42
1.303226186856223
 10
22719.95399664548
 20
-13395.61138816224
 10
22743.16973493996
 20
-13389.39904589381
 42
-1.303226186856223
 10
22743.16973494001
 20
-13402.27805482868
 10
22719.95399664548
 20
-13396.06571256043
 42
1.303226186855658
 10
22719.95399664553
 20
-13408.9447214953
 10
22743.16973494001
 20
-13402.73237922687
 42
-1.303226186855093
 10
22743.16973494006
 20
-13415.61138816174
 10
22719.95399664553
 20
-13409.39904589349
 42
1.303226186855658
 10
22719.95399664558
 20
-13422.27805482836
 10
22743.16973494006
 20
-13416.06571255993
 42
-1.303226186855658
 10
22743.16973494011
 20
-13428.9447214948
 10
22719.95399664558
 20
-13422.73237922655
 42
1.303226186856223
 10
22719.95399664563
 20
-13435.61138816141
 10
22743.16973494011
 20
-13429.39904589299
 42
-1.303226186855658
 10
22743.16973494016
 20
-13442.27805482786
 10
22719.95399664563
 20
-13436.0657125596
 42
1.303226186855658
 10
22719.95399664567
 20
-13448.94472149447
 10
22743.16973494016
 20
-13442.73237922605
 42
-1.303226186855093
 10
22743.16973494021
 20
-13455.61138816092
 10
22719.95399664568
 20
-13449.39904589266
 42
1.303226186855658
 10
22719.95399664572
 20
-13462.27805482753
 10
22743.16973494021
 20
-13456.06571255911
 42
-1.303226186855658
 10
22743.16973494025
 20
-13468.94472149398
 10
22719.95399664572
 20
-13462.73237922572
 42
1.303226186855093
 10
22719.95399664577
 20
-13475.61138816059
 10
22743.16973494026
 20
-13469.39904589217
 42
-1.303226186855658
 10
22743.1697349403
 20
-13482.27805482704
 10
22719.95399664577
 20
-13476.06571255878
 42
1.303226186855658
 10
22719.95399664582
 20
-13488.94472149365
 10
22743.1697349403
 20
-13482.73237922523
 42
-1.303226186856223
 10
22743.16973494035
 20
-13495.6113881601
 10
22719.95399664583
 20
-13489.39904589184
 42
1.303226186855658
 10
22719.95399664587
 20
-13502.27805482671
 10
22743.16973494035
 20
-13496.06571255829
 42
-1.303226186855093
 10
22743.16973494041
 20
-13508.94472149316
 10
22719.95399664587
 20
-13502.7323792249
 42
1.303226186855093
 10
22719.95399664592
 20
-13515.61138815977
 10
22743.16973494041
 20
-13509.39904589135
 42
-1.303226186855658
 10
22743.16973494045
 20
-13522.27805482622
 10
22719.95399664592
 20
-13516.06571255796
 42
1.303226186856223
 10
22719.95399664597
 20
-13528.94472149283
 10
22743.16973494045
 20
-13522.73237922441
 42
-1.303226186856223
 10
22743.1697349405
 20
-13535.61138815928
 10
22719.95399664597
 20
-13529.39904589102
 42
1.303226186855658
 10
22719.95399664601
 20
-13542.27805482589
 10
22743.1697349405
 20
-13536.06571255747
 42
-1.303226186855093
 10
22743.16973494055
 20
-13548.94472149233
 10
22719.95399664601
 20
-13542.73237922408
 42
1.303226186855093
 10
22719.95399664607
 20
-13555.61138815895
 10
22743.16973494055
 20
-13549.39904589052
 42
-1.303226186855658
 10
22743.16973494059
 20
-13562.27805482539
 10
22719.95399664607
 20
-13556.06571255714
 42
1.303226186856223
 10
22719.95399664612
 20
-13568.94472149201
 10
22743.1697349406
 20
-13562.73237922358
 42
-1.303226186855658
 10
22743.16973494065
 20
-13575.61138815845
 10
22719.95399664612
 20
-13569.3990458902
 42
1.303226186855658
 10
22719.95399664616
 20
-13582.27805482507
 10
22743.16973494065
 20
-13576.06571255664
 42
-1.303226186855093
 10
22743.1697349407
 20
-13588.94472149151
 10
22719.95399664617
 20
-13582.73237922326
 42
1.303226186855658
 10
22719.95399664621
 20
-13595.61138815813
 10
22743.1697349407
 20
-13589.3990458897
 42
-1.303226186855658
 10
22743.16973494074
 20
-13602.27805482457
 10
22719.95399664621
 20
-13596.06571255632
 42
1.303226186855093
 10
22719.95399664626
 20
-13608.94472149119
 10
22743.16973494075
 20
-13602.73237922276
 42
-1.303226186855658
 10
22743.16973494079
 20
-13615.61138815763
 10
22719.95399664626
 20
-13609.39904588937
 42
1.303226186855658
 10
22719.95399664631
 20
-13622.27805482424
 10
22743.16973494079
 20
-13616.06571255582
 42
-0.8258932006272833
 10
22748.88754921414
 20
-13627.84427922754
  0
LWPOLYLINE
  5
225
330
1F
100
AcDbEntity
  8
Ech.1_5
  6
Continuous
 62
   190
370
    15
390
5F
100
AcDbPolyline
 90
      250
 70
     0
 43
0.0
 10
23585.55897284087
 20
-13594.53060091474
 42
1.140281805119517
 10
23572.45268753316
 20
-13596.25573663112
 10
23578.66446475284
 20
-13619.47175847305
 42
-1.303226186855661
 10
23565.78538730503
 20
-13619.47142667689
 10
23571.99836071809
 20
-13596.25572492657
 42
1.303226186855267
 10
23559.11928327029
 20
-13596.25539313041
 10
23565.33106048995
 20
-13619.47141497234
 42
-1.303226186855267
 10
23552.45198304215
 20
-13619.47108317618
 10
23558.66495645521
 20
-13596.25538142586
 42
1.303226186854531
 10
23545.7858790074
 20
-13596.2550496297
 10
23551.99765622707
 20
-13619.47107147163
 42
-1.303226186855096
 10
23539.11857877926
 20
-13619.47073967547
 10
23545.33155219234
 20
-13596.25503792515
 42
1.303226186855661
 10
23532.45247474452
 20
-13596.254706129
 10
23538.6642519642
 20
-13619.47072797091
 42
-1.303226186855661
 10
23525.78517451639
 20
-13619.47039617476
 10
23531.99814792945
 20
-13596.25469442444
 42
1.303226186855832
 10
23519.11907048165
 20
-13596.25436262828
 10
23525.33084770131
 20
-13619.4703844702
 42
-1.303226186856397
 10
23512.45177025351
 20
-13619.47005267405
 10
23518.66474366657
 20
-13596.25435092372
 42
1.303226186854531
 10
23505.78566621876
 20
-13596.25401912757
 10
23511.99744343843
 20
-13619.47004096949
 42
-1.303226186854531
 10
23499.11836599062
 20
-13619.46970917334
 10
23505.33133940369
 20
-13596.25400742301
 42
1.303226186856397
 10
23492.45226195588
 20
-13596.25367562686
 10
23498.66403917556
 20
-13619.46969746878
 42
-1.303226186855096
 10
23485.78496172775
 20
-13619.46936567262
 10
23491.99793514081
 20
-13596.2536639223
 42
1.303226186856397
 10
23479.11885769301
 20
-13596.25333212615
 10
23485.33063491267
 20
-13619.46935396807
 42
-1.303226186856397
 10
23472.45155746487
 20
-13619.46902217191
 10
23478.66453087793
 20
-13596.25332042159
 42
1.303226186855096
 10
23465.78545343012
 20
-13596.25298862543
 10
23471.99723064979
 20
-13619.46901046736
 42
-1.303226186855661
 10
23459.11815320198
 20
-13619.4686786712
 10
23465.33112661505
 20
-13596.25297692088
 42
1.303226186855267
 10
23452.45204916724
 20
-13596.25264512472
 10
23458.66382638691
 20
-13619.46866696665
 42
-1.303226186855267
 10
23445.78474893911
 20
-13619.4683351705
 10
23451.99772235217
 20
-13596.25263342017
 42
1.303226186855661
 10
23439.11864490436
 20
-13596.25230162402
 10
23445.33042212403
 20
-13619.46832346594
 42
-1.303226186855096
 10
23432.45134467622
 20
-13619.46799166978
 10
23438.66431808929
 20
-13596.25228991946
 42
1.303226186855661
 10
23425.78524064148
 20
-13596.25195812331
 10
23431.99701786115
 20
-13619.46797996522
 42
-1.303226186855661
 10
23419.11794041334
 20
-13619.46764816907
 10
23425.33091382641
 20
-13596.25194641875
 42
1.303226186855832
 10
23412.4518363786
 20
-13596.25161462259
 10
23418.66361359827
 20
-13619.46763646451
 42
-1.303226186856397
 10
23405.78453615047
 20
-13619.46730466836
 10
23411.99750956353
 20
-13596.25160291803
 42
1.303226186854531
 10
23399.11843211572
 20
-13596.25127112188
 10
23405.33020933539
 20
-13619.4672929638
 42
-1.303226186854531
 10
23392.45113188758
 20
-13619.46696116765
 10
23398.66410530065
 20
-13596.25125941732
 42
1.303226186856397
 10
23385.78502785284
 20
-13596.25092762117
 10
23391.99680507251
 20
-13619.46694946309
 42
-1.303226186855096
 10
23379.1177276247
 20
-13619.46661766693
 10
23385.33070103777
 20
-13596.25091591661
 42
1.303226186856397
 10
23372.45162358996
 20
-13596.25058412046
 10
23378.66340080963
 20
-13619.46660596238
 42
-1.303226186856397
 10
23365.78432336183
 20
-13619.46627416623
 10
23371.99729677489
 20
-13596.25057241591
 42
1.303226186855096
 10
23359.11821932708
 20
-13596.25024061975
 10
23365.32999654675
 20
-13619.46626246167
 42
-1.303226186855661
 10
23352.45091909894
 20
-13619.46593066552
 10
23358.66389251201
 20
-13596.25022891519
 42
1.303226186855267
 10
23345.7848150642
 20
-13596.24989711904
 10
23351.99659228387
 20
-13619.46591896096
 42
-1.303226186855267
 10
23339.11751483606
 20
-13619.46558716481
 10
23345.33048824913
 20
-13596.24988541448
 42
1.303226186855661
 10
23332.45141080132
 20
-13596.24955361833
 10
23338.66318802099
 20
-13619.46557546025
 42
-1.303226186855096
 10
23325.78411057318
 20
-13619.46524366409
 10
23331.99708398625
 20
-13596.24954191377
 42
1.303226186855661
 10
23319.11800653844
 20
-13596.24921011762
 10
23325.32978375811
 20
-13619.46523195953
 42
-1.303226186855661
 10
23312.4507063103
 20
-13619.46490016338
 10
23318.66367972337
 20
-13596.24919841306
 42
1.303226186855832
 10
23305.78460227556
 20
-13596.2488666169
 10
23311.99637949523
 20
-13619.46488845882
 42
-1.303226186855267
 10
23299.11730204742
 20
-13619.46455666267
 10
23305.33027546049
 20
-13596.24885491234
 42
1.303226186854531
 10
23292.45119801268
 20
-13596.24852311619
 10
23298.66297523235
 20
-13619.46454495811
 42
-1.303226186854531
 10
23285.78389778454
 20
-13619.46421316196
 10
23291.9968711976
 20
-13596.24851141164
 42
1.303226186856397
 10
23279.1177937498
 20
-13596.24817961548
 10
23285.32957096947
 20
-13619.46420145741
 42
-1.303226186855096
 10
23272.45049352166
 20
-13619.46386966125
 10
23278.66346693473
 20
-13596.24816791093
 42
1.303226186855832
 10
23265.78438948692
 20
-13596.24783611477
 10
23271.99616670659
 20
-13619.46385795669
 42
-1.303226186856397
 10
23259.11708925878
 20
-13619.46352616054
 10
23265.33006267185
 20
-13596.24782441021
 42
1.303226186854531
 10
23252.45098522404
 20
-13596.24749261406
 10
23258.66276244371
 20
-13619.46351445598
 42
-1.303226186854531
 10
23245.7836849959
 20
-13619.46318265983
 10
23251.99665840896
 20
-13596.2474809095
 42
1.303226186855267
 10
23239.11758096116
 20
-13596.24714911335
 10
23245.32935818082
 20
-13619.46317095527
 42
-1.303226186855267
 10
23232.45028073302
 20
-13619.46283915912
 10
23238.66325414609
 20
-13596.24713740879
 42
1.303226186855661
 10
23225.78417669827
 20
-13596.24680561264
 10
23231.99595391795
 20
-13619.46282745455
 42
-1.303226186855661
 10
23219.11687647014
 20
-13619.4624956584
 10
23225.32984988321
 20
-13596.24679390808
 42
1.303226186855096
 10
23212.4507724354
 20
-13596.24646211192
 10
23218.66254965507
 20
-13619.46248395384
 42
-1.303226186855661
 10
23205.78347220726
 20
-13619.46215215769
 10
23211.99644562032
 20
-13596.24645040737
 42
1.303226186855267
 10
23199.11736817252
 20
-13596.24611861121
 10
23205.32914539218
 20
-13619.46214045314
 42
-1.303226186855267
 10
23192.45006794438
 20
-13619.46180865698
 10
23198.66304135745
 20
-13596.24610690666
 42
1.303226186855661
 10
23185.78396390963
 20
-13596.2457751105
 10
23191.99574112931
 20
-13619.46179695243
 42
-1.303226186855096
 10
23179.1166636815
 20
-13619.46146515627
 10
23185.32963709457
 20
-13596.24576340595
 42
1.303226186855661
 10
23172.45055964676
 20
-13596.24543160979
 10
23178.66233686643
 20
-13619.46145345171
 42
-1.303226186855661
 10
23165.78325941862
 20
-13619.46112165556
 10
23171.99623283168
 20
-13596.24541990524
 42
1.303226186855832
 10
23159.11715538388
 20
-13596.24508810908
 10
23165.32893260354
 20
-13619.461109951
 42
-1.303226186856397
 10
23152.44985515574
 20
-13619.46077815485
 10
23158.66282856881
 20
-13596.24507640452
 42
1.303226186854531
 10
23145.78375112099
 20
-13596.24474460837
 10
23151.99552834067
 20
-13619.46076645029
 42
-1.303226186854531
 10
23139.11645089286
 20
-13619.46043465414
 10
23145.32942430592
 20
-13596.24473290381
 42
1.303226186856397
 10
23132.45034685812
 20
-13596.24440110766
 10
23138.66212407778
 20
-13619.46042294958
 42
-1.303226186855832
 10
23125.78304662998
 20
-13619.46009115342
 10
23131.99602004304
 20
-13596.2443894031
 42
1.303226186855661
 10
23119.11694259523
 20
-13596.24405760695
 10
23125.3287198149
 20
-13619.46007944887
 42
-1.303226186856397
 10
23112.4496423671
 20
-13619.45974765271
 10
23118.66261578017
 20
-13596.24404590239
 42
1.303226186855096
 10
23105.78353833235
 20
-13596.24371410623
 10
23111.99531555203
 20
-13619.45973594816
 42
-1.303226186855661
 10
23099.11623810422
 20
-13619.459404152
 10
23105.32921151728
 20
-13596.24370240168
 42
1.303226186855267
 10
23092.45013406948
 20
-13596.24337060552
 10
23098.66191128914
 20
-13619.45939244745
 42
-1.303226186855267
 10
23085.78283384134
 20
-13619.45906065129
 10
23091.9958072544
 20
-13596.24335890097
 42
1.303226186855661
 10
23079.11672980659
 20
-13596.24302710481
 10
23085.32850702626
 20
-13619.45904894674
 42
-1.303226186855096
 10
23072.44942957845
 20
-13619.45871715058
 10
23078.66240299153
 20
-13596.24301540026
 42
1.303226186855661
 10
23065.78332554371
 20
-13596.2426836041
 10
23071.99510276339
 20
-13619.45870544602
 42
-1.303226186855661
 10
23059.11602531558
 20
-13619.45837364987
 10
23065.32899872864
 20
-13596.24267189955
 42
1.303226186855832
 10
23052.44992128084
 20
-13596.24234010339
 10
23058.6616985005
 20
-13619.45836194531
 42
-1.303226186856397
 10
23045.7826210527
 20
-13619.45803014916
 10
23051.99559446576
 20
-13596.24232839883
 42
1.303226186854531
 10
23039.11651701795
 20
-13596.24199660268
 10
23045.32829423762
 20
-13619.4580184446
 42
-1.303226186854531
 10
23032.44921678981
 20
-13619.45768664845
 10
23038.66219020288
 20
-13596.24198489812
 42
1.303226186856397
 10
23025.78311275507
 20
-13596.24165310197
 10
23031.99488997474
 20
-13619.45767494389
 42
-1.303226186855832
 10
23019.11581252694
 20
-13619.45734314773
 10
23025.32878594
 20
-13596.24164139741
 42
1.303226186855661
 10
23012.44970849219
 20
-13596.24130960126
 10
23018.66148571186
 20
-13619.45733144318
 42
-1.303226186856397
 10
23005.78240826406
 20
-13619.45699964702
 10
23011.99538167712
 20
-13596.2412978967
 42
1.303226186855096
 10
22999.11630422931
 20
-13596.24096610054
 10
23005.32808144898
 20
-13619.45698794247
 42
-1.303226186855661
 10
22992.44900400117
 20
-13619.45665614631
 10
22998.66197741424
 20
-13596.24095439599
 42
1.303226186855267
 10
22985.78289996643
 20
-13596.24062259983
 10
22991.9946771861
 20
-13619.45664444176
 42
-1.303226186855267
 10
22979.1155997383
 20
-13619.45631264561
 10
22985.32857315136
 20
-13596.24061089528
 42
1.303226186855661
 10
22972.44949570355
 20
-13596.24027909913
 10
22978.66127292322
 20
-13619.45630094105
 42
-1.303226186855096
 10
22965.78219547541
 20
-13619.45596914489
 10
22971.99516888848
 20
-13596.24026739457
 42
1.303226186855096
 10
22959.11609144067
 20
-13596.23993559841
 10
22965.32786866034
 20
-13619.45595744033
 42
-1.303226186855661
 10
22952.44879121253
 20
-13619.45562564418
 10
22958.6617646256
 20
-13596.23992389385
 42
1.303226186855267
 10
22945.78268717779
 20
-13596.2395920977
 10
22951.99446439746
 20
-13619.45561393962
 42
-1.303226186855267
 10
22939.11538694966
 20
-13619.45528214347
 10
22945.32836036272
 20
-13596.23958039314
 42
1.303226186854531
 10
22932.44928291491
 20
-13596.23924859699
 10
22938.66106013458
 20
-13619.45527043891
 42
-1.303226186854531
 10
22925.78198268677
 20
-13619.45493864276
 10
22931.99495609984
 20
-13596.23923689243
 42
1.303226186856397
 10
22919.11587865203
 20
-13596.23890509628
 10
22925.3276558717
 20
-13619.4549269382
 42
-1.303226186855832
 10
22912.44857842389
 20
-13619.45459514204
 10
22918.66155183696
 20
-13596.23889339172
 42
1.303226186855096
 10
22905.78247438915
 20
-13596.23856159556
 10
22911.99425160882
 20
-13619.45458343749
 42
-1.303226186856397
 10
22899.11517416102
 20
-13619.45425164133
 10
22905.32814757408
 20
-13596.23854989101
 42
1.303226186854531
 10
22892.44907012627
 20
-13596.23821809486
 10
22898.66084734594
 20
-13619.45423993678
 42
-1.303226186854531
 10
22885.78176989813
 20
-13619.45390814063
 10
22891.9947433112
 20
-13596.2382063903
 42
1.303226186856397
 10
22879.11566586339
 20
-13596.23787459415
 10
22885.32744308306
 20
-13619.45389643607
 42
-1.303226186855832
 10
22872.44836563525
 20
-13619.45356463991
 10
22878.66133904832
 20
-13596.23786288959
 42
1.303226186855661
 10
22865.78226160051
 20
-13596.23753109344
 10
22871.99403882018
 20
-13619.45355293535
 42
-1.303226186855661
 10
22859.11496137237
 20
-13619.4532211392
 10
22865.32793478544
 20
-13596.23751938888
 42
1.303226186855096
 10
22852.44885733763
 20
-13596.23718759272
 10
22858.6606345573
 20
-13619.45320943464
 42
-1.303226186855661
 10
22845.78155710949
 20
-13619.45287763849
 10
22851.99453052256
 20
-13596.23717588816
 42
1.303226186855267
 10
22839.11545307475
 20
-13596.23684409201
 10
22845.32723029442
 20
-13619.45286593393
 42
-1.303226186855267
 10
22832.44815284661
 20
-13619.45253413778
 10
22838.66112625968
 20
-13596.23683238745
 42
1.303226186855661
 10
22825.78204881187
 20
-13596.2365005913
 10
22831.99382603154
 20
-13619.45252243322
 42
-1.303226186855096
 10
22819.11474858373
 20
-13619.45219063706
 10
22825.32772199679
 20
-13596.23648888675
 42
1.303226186856397
 10
22812.44864454899
 20
-13596.23615709059
 10
22818.66042176866
 20
-13619.45217893251
 42
-1.303226186855661
 10
22805.78134432085
 20
-13619.45184713636
 10
22811.99431773392
 20
-13596.23614538604
 42
1.303226186855096
 10
22799.1152402861
 20
-13596.23581358988
 10
22805.32701750578
 20
-13619.4518354318
 42
-1.303226186856397
 10
22792.44794005797
 20
-13619.45150363565
 10
22798.66091347104
 20
-13596.23580188532
 42
1.303226186854531
 10
22785.78183602323
 20
-13596.23547008917
 10
22791.9936132429
 20
-13619.45149193109
 42
-1.303226186854531
 10
22779.11453579509
 20
-13619.45116013494
 10
22785.32750920815
 20
-13596.23545838461
 42
1.303226186856397
 10
22772.44843176035
 20
-13596.23512658846
 10
22778.66020898001
 20
-13619.45114843038
 42
-1.303226186855832
 10
22765.78113153221
 20
-13619.45081663422
 10
22771.99410494528
 20
-13596.2351148839
 42
1.303226186855661
 10
22759.11502749746
 20
-13596.23478308775
 10
22765.32680471714
 20
-13619.45080492966
 42
-1.303226186855661
 10
22752.44772726933
 20
-13619.45047313351
 10
22758.6607006824
 20
-13596.23477138319
 42
0.5243294331400152
 10
22751.56186494933
 20
-13587.87511477211
  0
HATCH
  5
226
330
1F
100
AcDbEntity
  8
Ech.1_5
  6
Continuous
 62
   254
420
 16643007
440
 33554687
370
    20
390
5F
100
AcDbHatch
 10
0.0
 20
0.0
 30
0.0
210
0.0
220
0.0
230
1.0
  2
SOLID
 70
     1
 71
     0
 91
        1
 92
        3
 72
     0
 73
     1
 93
        4
 10
23585.56557176509
 20
-13433.84241300462
 10
23585.56557176509
 20
-13373.84637308585
 10
22905.56192662296
 20
-13373.84637308582
 10
22905.56228834309
 20
-13433.84241300462
 97
        0
 75
     0
 76
     1
 98
        0
  0
LWPOLYLINE
  5
227
330
1F
100
AcDbEntity
  8
Ech.1_5
  6
Continuous
 62
   190
370
    15
390
5F
100
AcDbPolyline
 90
        5
 70
     0
 43
0.0
 10
23585.56557176509
 20
-13433.84241300462
 10
23585.56557176509
 20
-13373.84637308585
 10
22905.56192662296
 20
-13373.84637308582
 10
22905.56228834309
 20
-13433.84241300462
 10
23585.56557176509
 20
-13433.84241300462
  0
HATCH
  5
228
330
1F
100
AcDbEntity
  8
Ech.1_5
  6
Continuous
 62
   254
420
 16643007
440
 33554687
370
    20
390
5F
100
AcDbHatch
 10
0.0
 20
0.0
 30
0.0
210
0.0
220
0.0
230
1.0
  2
SOLID
 70
     1
 71
     0
 91
        1
 92
        3
 72
     0
 73
     1
 93
        8
 10
22896.56186579143
 20
-12795.83905197134
 10
22831.35773934709
 20
-12795.83905197204
 10
22814.87223619133
 20
-12813.8164003796
 10
22828.98217620883
 20
-12777.86070036767
 10
22812.49582212748
 20
-12795.83905197222
 10
22751.56186579013
 20
-12795.83905197239
 10
22751.56186579501
 20
-13542.84241299822
 10
22896.56186579632
 20
-13542.84241299711
 97
        0
 75
     0
 76
     1
 98
        0
  0
LWPOLYLINE
  5
229
330
1F
100
AcDbEntity
  8
Ech.1_5
  6
Continuous
 62
   190
370
    15
390
5F
100
AcDbPolyline
 90
        9
 70
     0
 43
0.0
 10
22896.56186579143
 20
-12795.83905197134
 10
22831.35773934709
 20
-12795.83905197204
 10
22814.87223619133
 20
-12813.8164003796
 10
22828.98217620883
 20
-12777.86070036767
 10
22812.49582212748
 20
-12795.83905197222
 10
22751.56186579013
 20
-12795.83905197239
 10
22751.56186579501
 20
-13542.84241299822
 10
22896.56186579632
 20
-13542.84241299711
 10
22896.56186579143
 20
-12795.83905197134
  0
HATCH
  5
22A
330
1F
100
AcDbEntity
  8
Ech.1_5
  6
Continuous
 62
   254
420
 16643007
440
 33554687
370
    20
390
5F
100
AcDbHatch
 10
0.0
 20
0.0
 30
0.0
210
0.0
220
0.0
230
1.0
  2
SOLID
 70
     1
 71
     0
 91
        1
 92
        3
 72
     0
 73
     1
 93
        8
 10
23585.5630356109
 20
-13465.90783148906
 10
23585.56557176509
 20
-13442.8607032046
 10
22950.56697158863
 20
-13442.84241308681
 10
22952.06103647972
 20
-13587.84653340509
 10
23585.55899140469
 20
-13587.86436972972
 10
23585.56237143818
 20
-13484.76974869696
 10
23567.58460036843
 20
-13468.28276156537
 10
23603.53980351358
 20
-13482.39396765969
 97
        0
 75
     0
 76
     1
 98
        0
  0
LWPOLYLINE
  5
22B
330
1F
100
AcDbEntity
  8
Ech.1_5
  6
Continuous
 62
   190
370
    15
390
5F
100
AcDbPolyline
 90
        9
 70
     0
 43
0.0
 10
23585.5630356109
 20
-13465.90783148906
 10
23585.56557176509
 20
-13442.8607032046
 10
22950.56697158863
 20
-13442.84241308681
 10
22952.06103647972
 20
-13587.84653340509
 10
23585.55899140469
 20
-13587.86436972972
 10
23585.56237143818
 20
-13484.76974869696
 10
23567.58460036843
 20
-13468.28276156537
 10
23603.53980351358
 20
-13482.39396765969
 10
23585.5630356109
 20
-13465.90783148906
  0
LWPOLYLINE
  5
22C
330
1F
100
AcDbEntity
  8
Ech.1_5
  6
Continuous
 62
   190
370
    15
390
5F
100
AcDbPolyline
 90
       42
 70
     0
 43
0.0
 10
22872.39519912829
 20
-13317.8424129974
 42
1.140281805119582
 10
22866.1403914543
 20
-13270.33254263584
 10
22781.98334013513
 20
-13292.85228335961
 42
-1.303226186855234
 10
22781.98334013482
 20
-13246.16587596973
 10
22866.14039145428
 20
-13268.68561669237
 42
1.303226186855234
 10
22866.14039145397
 20
-13221.99920930249
 10
22781.9833401348
 20
-13244.51895002626
 42
-1.303226186856047
 10
22781.98334013449
 20
-13197.83254263642
 10
22866.14039145396
 20
-13220.35228335905
 42
1.303226186855234
 10
22866.14039145364
 20
-13173.66587596918
 10
22781.98334013447
 20
-13196.18561669295
 42
-1.303226186855234
 10
22781.98334013416
 20
-13149.49920930307
 10
22866.14039145363
 20
-13172.01895002571
 42
1.303226186855079
 10
22866.14039145331
 20
-13125.33254263584
 10
22781.98334013415
 20
-13147.85228335961
 42
-1.303226186855234
 10
22781.98334013383
 20
-13101.16587596973
 10
22866.14039145331
 20
-13123.68561669237
 42
1.303226186856203
 10
22866.14039145299
 20
-13076.99920930252
 10
22781.98334013383
 20
-13099.51895002626
 42
-1.303226186856203
 10
22781.98334013351
 20
-13052.83254263642
 10
22866.14039145298
 20
-13075.35228335905
 42
1.303226186855234
 10
22866.14039145267
 20
-13028.66587596918
 10
22781.9833401335
 20
-13051.18561669295
 42
-1.303226186855079
 10
22781.98334013318
 20
-13004.49920930307
 10
22866.14039145265
 20
-13027.01895002571
 42
1.303226186855234
 10
22866.14039145234
 20
-12980.33254263584
 10
22781.98334013317
 20
-13002.85228335961
 42
-1.303226186855234
 10
22781.98334013286
 20
-12956.16587596973
 10
22866.14039145233
 20
-12978.68561669237
 42
1.303226186856047
 10
22866.14039145201
 20
-12931.99920930252
 10
22781.98334013284
 20
-12954.51895002629
 42
-1.303226186855234
 10
22781.98334013253
 20
-12907.83254263642
 10
22866.140391452
 20
-12930.35228335905
 42
1.303226186855234
 10
22866.14039145168
 20
-12883.66587596918
 10
22781.98334013252
 20
-12906.18561669295
 42
-1.303226186855234
 10
22781.9833401322
 20
-12859.49920930307
 10
22866.14039145168
 20
-12882.01895002571
 42
1.30322618685539
 10
22866.14039145136
 20
-12835.33254263584
 10
22781.98334013219
 20
-12857.85228335961
 42
-1.303226186856047
 10
22781.98334013188
 20
-12811.16587596976
 10
22866.14039145135
 20
-12833.6856166924
 42
0.7125026632369678
 10
22891.72601123213
 20
-12795.83905197137
  0
LWPOLYLINE
  5
22D
330
1F
100
AcDbEntity
  8
Ech.1_5
  6
Continuous
 62
   190
370
    15
390
5F
100
AcDbPolyline
 90
       20
 70
     0
 43
0.0
 10
22834.89519912948
 20
-13542.8424129976
 42
1.140281805120497
 10
22830.5815386647
 20
-13510.07698516209
 10
22772.54219292737
 20
-13525.60784083356
 42
-1.303226186855877
 10
22772.5421929272
 20
-13493.41031849575
 10
22830.5815386647
 20
-13508.94117416658
 42
1.303226186855425
 10
22830.58153866453
 20
-13476.74365182877
 10
22772.54219292719
 20
-13492.27450750025
 42
-1.303226186855425
 10
22772.54219292702
 20
-13460.07698516244
 10
22830.58153866452
 20
-13475.60784083327
 42
1.303226186855425
 10
22830.58153866434
 20
-13443.41031849546
 10
22772.54219292701
 20
-13458.94117416693
 42
-1.303226186855425
 10
22772.54219292683
 20
-13426.74365182912
 10
22830.58153866434
 20
-13442.27450749998
 42
1.303226186855425
 10
22830.58153866416
 20
-13410.07698516217
 10
22772.54219292683
 20
-13425.60784083362
 42
-1.303226186855651
 10
22772.54219292666
 20
-13393.41031849581
 10
22830.58153866416
 20
-13408.94117416667
 42
1.303226186855877
 10
22830.58153866398
 20
-13376.74365182886
 10
22772.54219292665
 20
-13392.27450750033
 42
-0.8252905193964946
 10
22758.22853246209
 20
-13362.84241299804
  0
LWPOLYLINE
  5
22E
330
1F
100
AcDbEntity
  8
Ech.1_5
  6
Continuous
 62
   190
370
    15
390
5F
100
AcDbPolyline
 90
       52
 70
     0
 43
0.0
 10
23585.56487567225
 20
-13467.02774158939
 42
1.140281805120722
 10
23538.05409437798
 20
-13473.28127700424
 10
23560.57175744082
 20
-13557.44027143517
 42
-1.303226186855692
 10
23513.88463194681
 20
-13557.43892668727
 10
23536.40714310241
 20
-13473.28122956642
 42
1.303226186855069
 10
23489.72001760841
 20
-13473.27988481855
 10
23512.23768067125
 20
-13557.43887924949
 42
-1.303226186856316
 10
23465.55055517724
 20
-13557.43753450162
 10
23488.07306633284
 20
-13473.27983738076
 42
1.303226186855692
 10
23441.38594083884
 20
-13473.27849263286
 10
23463.90360390168
 20
-13557.43748706383
 42
-1.303226186855692
 10
23417.21647840767
 20
-13557.43614231593
 10
23439.73898956327
 20
-13473.27844519507
 42
1.303226186856316
 10
23393.05186406927
 20
-13473.2771004472
 10
23415.56952713212
 20
-13557.43609487814
 42
-1.30322618685549
 10
23368.8824016381
 20
-13557.43475013024
 10
23391.4049127937
 20
-13473.27705300938
 42
1.303226186855069
 10
23344.7177872997
 20
-13473.27570826151
 10
23367.23545036255
 20
-13557.43470269245
 42
-1.303226186854866
 10
23320.54832486853
 20
-13557.43335794458
 10
23343.07083602413
 20
-13473.27566082373
 42
1.303226186855692
 10
23296.38371053013
 20
-13473.27431607583
 10
23318.90137359298
 20
-13557.43331050676
 42
-1.303226186856113
 10
23272.21424809896
 20
-13557.43196575889
 10
23294.73675925457
 20
-13473.27426863804
 42
1.303226186856113
 10
23248.04963376056
 20
-13473.27292389017
 10
23270.56729682341
 20
-13557.4319183211
 42
-1.303226186855692
 10
23223.8801713294
 20
-13557.43057357321
 10
23246.402682485
 20
-13473.27287645235
 42
1.303226186854866
 10
23199.71555699099
 20
-13473.27153170448
 10
23222.23322005384
 20
-13557.43052613542
 42
-1.303226186855069
 10
23175.54609455983
 20
-13557.42918138755
 10
23198.06860571543
 20
-13473.27148426669
 42
1.303226186855692
 10
23151.38148022143
 20
-13473.27013951879
 10
23173.89914328427
 20
-13557.42913394973
 42
-1.303226186856316
 10
23127.21201779026
 20
-13557.42778920186
 10
23149.73452894586
 20
-13473.270092081
 42
1.303226186855692
 10
23103.04740345186
 20
-13473.2687473331
 10
23125.5650665147
 20
-13557.42774176407
 42
-1.303226186855692
 10
23078.87794102069
 20
-13557.42639701617
 10
23101.40045217629
 20
-13473.26869989531
 42
1.303226186855069
 10
23054.71332668229
 20
-13473.26735514744
 10
23077.23098974513
 20
-13557.42634957838
 42
-1.303226186855069
 10
23030.54386425112
 20
-13557.42500483051
 10
23053.06637540672
 20
-13473.26730770966
 42
1.303226186855692
 10
23006.37924991272
 20
-13473.26596296176
 10
23028.89691297556
 20
-13557.42495739269
 42
-1.303226186856113
 10
22982.20978748155
 20
-13557.42361264482
 10
23004.73229863715
 20
-13473.26591552397
 42
1.303226186855692
 10
22958.04517314315
 20
-13473.26457077607
 10
22980.56283620599
 20
-13557.42356520703
 42
-0.5831002436687861
 10
22950.56282194969
 20
-13586.91009743015
  0
HATCH
  5
22F
330
1F
100
AcDbEntity
  8
Ech.1_5
  6
Continuous
 62
    33
420
 12426362
440
 33554687
370
    20
390
5F
100
AcDbHatch
 10
0.0
 20
0.0
 30
0.0
210
0.0
220
0.0
230
1.0
  2
SOLID
 70
     1
 71
     0
 91
        1
 92
        3
 72
     0
 73
     1
 93
        4
 10
23445.86808930956
 20
-13587.85862146785
 10
23445.87319510255
 20
-13442.85862155772
 10
23490.87319507465
 20
-13442.8602061142
 10
23490.86808928166
 20
-13587.86020602427
 97
        0
 75
     0
 76
     1
 98
        0
  0
LWPOLYLINE
  5
230
330
1F
100
AcDbEntity
  8
Ech.1_5
  6
Continuous
 62
     7
370
    20
390
5F
100
AcDbPolyline
 90
        5
 70
     0
 43
0.0
 10
23445.86808930956
 20
-13587.85862146785
 10
23445.87319510255
 20
-13442.85862155772
 10
23490.87319507465
 20
-13442.8602061142
 10
23490.86808928166
 20
-13587.86020602427
 10
23445.86808930956
 20
-13587.85862146785
  0
HATCH
  5
231
330
1F
100
AcDbEntity
  8
Ech.1_5
  6
Continuous
 62
    33
420
 12426362
440
 33554687
370
    20
390
5F
100
AcDbHatch
 10
0.0
 20
0.0
 30
0.0
210
0.0
220
0.0
230
1.0
  2
SOLID
 70
     1
 71
     0
 91
        1
 92
        3
 72
     0
 73
     1
 93
        4
 10
22950.56186579469
 20
-13442.84241299688
 10
22950.56186579566
 20
-13587.84241299688
 10
22905.56186579566
 20
-13587.84241299723
 10
22905.56186579469
 20
-13442.84241299723
 97
        0
 75
     0
 76
     1
 98
        0
  0
LWPOLYLINE
  5
232
330
1F
100
AcDbEntity
  8
Ech.1_5
  6
Continuous
 62
     7
370
    20
390
5F
100
AcDbPolyline
 90
        5
 70
     0
 43
0.0
 10
22950.56186579469
 20
-13442.84241299688
 10
22950.56186579566
 20
-13587.84241299688
 10
22905.56186579566
 20
-13587.84241299723
 10
22905.56186579469
 20
-13442.84241299723
 10
22950.56186579469
 20
-13442.84241299688
  0
HATCH
  5
233
330
1F
100
AcDbEntity
  8
Ech.1_5
  6
Continuous
 62
    33
420
 12426362
440
 33554687
370
    20
390
5F
100
AcDbHatch
 10
0.0
 20
0.0
 30
0.0
210
0.0
220
0.0
230
1.0
  2
SOLID
 70
     1
 71
     0
 91
        1
 92
        3
 72
     0
 73
     1
 93
        4
 10
22751.56186579495
 20
-13317.84241299822
 10
22896.56186579495
 20
-13317.84241299723
 10
22896.56186579524
 20
-13362.84241299723
 10
22751.56186579524
 20
-13362.84241299822
 97
        0
 75
     0
 76
     1
 98
        0
  0
LWPOLYLINE
  5
234
330
1F
100
AcDbEntity
  8
Ech.1_5
  6
Continuous
 62
     7
370
    20
390
5F
100
AcDbPolyline
 90
        5
 70
     0
 43
0.0
 10
22751.56186579495
 20
-13317.84241299822
 10
22896.56186579495
 20
-13317.84241299723
 10
22896.56186579524
 20
-13362.84241299723
 10
22751.56186579524
 20
-13362.84241299822
 10
22751.56186579495
 20
-13317.84241299822
  0
HATCH
  5
235
330
1F
100
AcDbEntity
  8
Ech.1_5
  6
Continuous
 62
    33
420
 12426362
440
 33554687
370
    20
390
5F
100
AcDbHatch
 10
0.0
 20
0.0
 30
0.0
210
0.0
220
0.0
230
1.0
  2
SOLID
 70
     1
 71
     0
 91
        1
 92
        3
 72
     0
 73
     1
 93
        4
 10
22751.56186579187
 20
-12890.53069780105
 10
22896.56186579187
 20
-12890.53069780006
 10
22896.56186579217
 20
-12935.53069780006
 10
22751.56186579217
 20
-12935.53069780105
 97
        0
 75
     0
 76
     1
 98
        0
  0
LWPOLYLINE
  5
236
330
1F
100
AcDbEntity
  8
Ech.1_5
  6
Continuous
 62
     7
370
    20
390
5F
100
AcDbPolyline
 90
        5
 70
     0
 43
0.0
 10
22751.56186579187
 20
-12890.53069780105
 10
22896.56186579187
 20
-12890.53069780006
 10
22896.56186579217
 20
-12935.53069780006
 10
22751.56186579217
 20
-12935.53069780105
 10
22751.56186579187
 20
-12890.53069780105
  0
HATCH
  5
237
330
1F
100
AcDbEntity
  8
Ech.1_5
  6
Continuous
 62
    33
420
 12426362
440
 33554687
370
    20
390
5F
100
AcDbHatch
 10
0.0
 20
0.0
 30
0.0
210
0.0
220
0.0
230
1.0
  2
SOLID
 70
     1
 71
     0
 91
        1
 92
        3
 72
     0
 73
     1
 93
        4
 10
22751.56186579151
 20
-13542.84241299822
 10
22896.56186579151
 20
-13542.84241299723
 10
22896.56186579181
 20
-13587.84241299723
 10
22751.56186579181
 20
-13587.84241299822
 97
        0
 75
     0
 76
     1
 98
        0
  0
LWPOLYLINE
  5
238
330
1F
100
AcDbEntity
  8
Ech.1_5
  6
Continuous
 62
     7
370
    20
390
5F
100
AcDbPolyline
 90
        5
 70
     0
 43
0.0
 10
22751.56186579151
 20
-13542.84241299822
 10
22896.56186579151
 20
-13542.84241299723
 10
22896.56186579181
 20
-13587.84241299723
 10
22751.56186579181
 20
-13587.84241299822
 10
22751.56186579151
 20
-13542.84241299822
  0
HATCH
  5
239
330
1F
100
AcDbEntity
  8
Ech.1_5
  6
Continuous
 62
    33
420
 12426362
440
 33554687
370
    20
390
5F
100
AcDbHatch
 10
0.0
 20
0.0
 30
0.0
210
0.0
220
0.0
230
1.0
  2
SOLID
 70
     1
 71
     0
 91
        1
 92
        3
 72
     0
 73
     1
 93
        4
 10
22896.56186579516
 20
-13362.84241299723
 10
22896.56186579613
 20
-13542.84241299723
 10
22851.56186579613
 20
-13542.84241299752
 10
22851.56186579516
 20
-13362.84241299752
 97
        0
 75
     0
 76
     1
 98
        0
  0
LWPOLYLINE
  5
23A
330
1F
100
AcDbEntity
  8
Ech.1_5
  6
Continuous
 62
     7
370
    20
390
5F
100
AcDbPolyline
 90
        5
 70
     0
 43
0.0
 10
22896.56186579516
 20
-13362.84241299723
 10
22896.56186579613
 20
-13542.84241299723
 10
22851.56186579613
 20
-13542.84241299752
 10
22851.56186579516
 20
-13362.84241299752
 10
22896.56186579516
 20
-13362.84241299723
  0
HATCH
  5
23C
330
1F
100
AcDbEntity
  8
Ech.1_5
  6
Continuous
 62
   254
420
 14407639
440
 33554687
370
     5
390
5F
100
AcDbHatch
 10
0.0
 20
0.0
 30
0.0
210
0.0
220
0.0
230
1.0
  2
SOLID
 70
     1
 71
     0
 91
        1
 92
        3
 72
     0
 73
     1
 93
        4
 10
22711.56186579095
 20
-12795.83855037369
 10
22698.5618657913
 20
-12795.83855037369
 10
22698.56186579363
 20
-13627.84427922773
 10
22711.56186579399
 20
-13627.84427922768
 97
        0
 75
     0
 76
     1
 98
        0
  0
HATCH
  5
23D
330
1F
100
AcDbEntity
  8
Ech.1_5
  6
Continuous
 62
   190
440
 33554687
370
    15
390
23B
100
AcDbHatch
 10
0.0
 20
0.0
 30
0.0
210
0.0
220
0.0
230
1.0
  2
CwHatchPattern_84
 70
     0
 71
     0
 91
        1
 92
        3
 72
     0
 73
     1
 93
        4
 10
22711.56186579095
 20
-12795.83855037369
 10
22698.5618657913
 20
-12795.83855037369
 10
22698.56186579363
 20
-13627.84427922773
 10
22711.56186579399
 20
-13627.84427922768
 97
        0
 75
     0
 76
     2
 52
0.0
 41
1.0
 77
     0
 78
     2
 53
0.0
 43
0.0
 44
0.0
 45
0.0
 46
70.0
 79
     2
 49
0.0
 49
-70.0
 53
0.0
 43
35.0
 44
35.0
 45
0.0
 46
70.0
 79
     2
 49
0.0
 49
-70.0
 98
        0
1001
ACAD
1010
0.0
1020
0.0
1030
0.0
  0
LWPOLYLINE
  5
23E
330
1F
100
AcDbEntity
  8
Ech.1_5
  6
Continuous
 62
   190
370
    15
390
5F
100
AcDbPolyline
 90
        5
 70
     0
 43
0.0
 10
22711.56186579095
 20
-12795.83855037369
 10
22698.5618657913
 20
-12795.83855037369
 10
22698.56186579363
 20
-13627.84427922773
 10
22711.56186579399
 20
-13627.84427922768
 10
22711.56186579095
 20
-12795.83855037369
  0
HATCH
  5
23F
330
1F
100
AcDbEntity
  8
Ech.1_5
  6
Continuous
 62
   254
420
 14407639
440
 33554687
370
     5
390
5F
100
AcDbHatch
 10
0.0
 20
0.0
 30
0.0
210
0.0
220
0.0
230
1.0
  2
SOLID
 70
     1
 71
     0
 91
        1
 92
        3
 72
     0
 73
     1
 93
        4
 10
22698.56209467401
 20
-13627.84427922756
 10
22698.56163691326
 20
-13640.84427921953
 10
23585.5572039883
 20
-13640.86411155284
 10
23585.55772976414
 20
-13627.86411156204
 97
        0
 75
     0
 76
     1
 98
        0
  0
HATCH
  5
240
330
1F
100
AcDbEntity
  8
Ech.1_5
  6
Continuous
 62
   190
440
 33554687
370
    15
390
23B
100
AcDbHatch
 10
0.0
 20
0.0
 30
0.0
210
0.0
220
0.0
230
1.0
  2
CwHatchPattern_84
 70
     0
 71
     0
 91
        1
 92
        3
 72
     0
 73
     1
 93
        4
 10
22698.56209467401
 20
-13627.84427922756
 10
22698.56163691326
 20
-13640.84427921953
 10
23585.5572039883
 20
-13640.86411155284
 10
23585.55772976414
 20
-13627.86411156204
 97
        0
 75
     0
 76
     2
 52
0.0
 41
1.0
 77
     0
 78
     2
 53
0.0
 43
0.0
 44
0.0
 45
0.0
 46
70.0
 79
     2
 49
0.0
 49
-70.0
 53
0.0
 43
35.0
 44
35.0
 45
0.0
 46
70.0
 79
     2
 49
0.0
 49
-70.0
 98
        0
1001
ACAD
1010
0.0
1020
0.0
1030
0.0
  0
LWPOLYLINE
  5
241
330
1F
100
AcDbEntity
  8
Ech.1_5
  6
Continuous
 62
   190
370
    15
390
5F
100
AcDbPolyline
 90
        5
 70
     0
 43
0.0
 10
22698.56209467401
 20
-13627.84427922756
 10
22698.56163691326
 20
-13640.84427921953
 10
23585.5572039883
 20
-13640.86411155284
 10
23585.55772976414
 20
-13627.86411156204
 10
22698.56209467401
 20
-13627.84427922756
  0
HATCH
  5
242
330
1F
100
AcDbEntity
  8
Ech.1_5
  6
Continuous
 62
    40
420
 16297258
440
 33554687
370
     5
390
5F
100
AcDbHatch
 10
0.0
 20
0.0
 30
0.0
210
0.0
220
0.0
230
1.0
  2
SOLID
 70
     1
 71
     0
 91
        1
 92
        3
 72
     0
 73
     1
 93
        4
 10
22905.56186579131
 20
-12795.83905197123
 10
22896.56186579131
 20
-12795.83905197134
 10
22896.56186579545
 20
-13587.84241299723
 10
22905.56186579545
 20
-13587.84241299717
 97
        0
 75
     0
 76
     1
 98
        0
  0
HATCH
  5
243
330
1F
100
AcDbEntity
  8
Ech.1_5
  6
Continuous
 62
   190
440
 33554687
370
    15
390
5F
100
AcDbHatch
 10
0.0
 20
0.0
 30
0.0
210
0.0
220
0.0
230
1.0
  2
CwHatchPattern_74
 70
     0
 71
     0
 91
        1
 92
        3
 72
     0
 73
     1
 93
        4
 10
22905.56186579131
 20
-12795.83905197123
 10
22896.56186579131
 20
-12795.83905197134
 10
22896.56186579545
 20
-13587.84241299723
 10
22905.56186579545
 20
-13587.84241299717
 97
        0
 75
     0
 76
     2
 52
0.0
 41
0.6000000238418579
 77
     0
 78
     3
 53
45.00000000000297
 43
0.0
 44
0.0
 45
-0.0000000000043443
 46
42.00000166893005
 79
     0
 53
45.00000000000297
 43
0.0
 44
10.80000042915344
 45
-0.0000000000043443
 46
42.00000166893005
 79
     0
 53
45.00000000000297
 43
0.0
 44
21.60000085830688
 45
-0.0000000000043443
 46
42.00000166893005
 79
     0
 98
        0
1001
ACAD
1010
0.0
1020
0.0
1030
0.0
  0
LWPOLYLINE
  5
244
330
1F
100
AcDbEntity
  8
Ech.1_5
  6
Continuous
 62
   190
370
    15
390
5F
100
AcDbPolyline
 90
        5
 70
     0
 43
0.0
 10
22905.56186579131
 20
-12795.83905197123
 10
22896.56186579131
 20
-12795.83905197134
 10
22896.56186579545
 20
-13587.84241299723
 10
22905.56186579545
 20
-13587.84241299717
 10
22905.56186579131
 20
-12795.83905197123
  0
HATCH
  5
245
330
1F
100
AcDbEntity
  8
Ech.1_5
  6
Continuous
 62
    40
420
 16297258
440
 33554687
370
     5
390
5F
100
AcDbHatch
 10
0.0
 20
0.0
 30
0.0
210
0.0
220
0.0
230
1.0
  2
SOLID
 70
     1
 71
     0
 91
        1
 92
        3
 72
     0
 73
     1
 93
        4
 10
22905.56228834309
 20
-13433.84241300462
 10
22905.56186579469
 20
-13442.84241299723
 10
23585.56517854344
 20
-13442.86747897307
 10
23585.56557176509
 20
-13433.86747897942
 97
        0
 75
     0
 76
     1
 98
        0
  0
HATCH
  5
246
330
1F
100
AcDbEntity
  8
Ech.1_5
  6
Continuous
 62
   190
440
 33554687
370
    15
390
5F
100
AcDbHatch
 10
0.0
 20
0.0
 30
0.0
210
0.0
220
0.0
230
1.0
  2
CwHatchPattern_74
 70
     0
 71
     0
 91
        1
 92
        3
 72
     0
 73
     1
 93
        4
 10
22905.56228834309
 20
-13433.84241300462
 10
22905.56186579469
 20
-13442.84241299723
 10
23585.56517854344
 20
-13442.86747897307
 10
23585.56557176509
 20
-13433.86747897942
 97
        0
 75
     0
 76
     2
 52
0.0
 41
0.6000000238418579
 77
     0
 78
     3
 53
45.00000000000297
 43
0.0
 44
0.0
 45
-0.0000000000043443
 46
42.00000166893005
 79
     0
 53
45.00000000000297
 43
0.0
 44
10.80000042915344
 45
-0.0000000000043443
 46
42.00000166893005
 79
     0
 53
45.00000000000297
 43
0.0
 44
21.60000085830688
 45
-0.0000000000043443
 46
42.00000166893005
 79
     0
 98
        0
1001
ACAD
1010
0.0
1020
0.0
1030
0.0
  0
LWPOLYLINE
  5
247
330
1F
100
AcDbEntity
  8
Ech.1_5
  6
Continuous
 62
   190
370
    15
390
5F
100
AcDbPolyline
 90
        5
 70
     0
 43
0.0
 10
22905.56228834309
 20
-13433.84241300462
 10
22905.56186579469
 20
-13442.84241299723
 10
23585.56517854344
 20
-13442.86747897307
 10
23585.56557176509
 20
-13433.86747897942
 10
22905.56228834309
 20
-13433.84241300462
  0
LWPOLYLINE
  5
248
330
1F
100
AcDbEntity
  8
Ech.1_5
  6
Continuous
 62
     5
370
    40
390
5F
100
AcDbPolyline
 90
        5
 70
     0
 43
0.0
 10
23445.86808930956
 20
-13587.85862146785
 10
23445.87319510255
 20
-13442.85862155772
 10
23490.87319507465
 20
-13442.8602061142
 10
23490.86808928166
 20
-13587.86020602427
 10
23445.86808930956
 20
-13587.85862146785
  0
LWPOLYLINE
  5
249
330
1F
100
AcDbEntity
  8
Ech.1_5
  6
Continuous
 62
   190
370
    15
390
5F
100
AcDbPolyline
 90
        4
 70
     0
 43
0.0
 10
23490.87319507465
 20
-13442.8602061142
 10
23445.86808930948
 20
-13587.85862146785
 10
23490.86808928166
 20
-13587.86020602427
 10
23445.87319510255
 20
-13442.85862155772
  0
LWPOLYLINE
  5
24A
330
1F
100
AcDbEntity
  8
Ech.1_5
  6
Continuous
 62
     5
370
    40
390
5F
100
AcDbPolyline
 90
        5
 70
     0
 43
0.0
 10
22950.56186579469
 20
-13442.84241299688
 10
22950.56186579566
 20
-13587.84241299688
 10
22905.56186579566
 20
-13587.84241299723
 10
22905.56186579469
 20
-13442.84241299723
 10
22950.56186579469
 20
-13442.84241299688
  0
LWPOLYLINE
  5
24B
330
1F
100
AcDbEntity
  8
Ech.1_5
  6
Continuous
 62
   190
370
    15
390
5F
100
AcDbPolyline
 90
        4
 70
     0
 43
0.0
 10
22905.5550759306
 20
-13587.85006617646
 10
22950.56186579477
 20
-13442.84241299688
 10
22905.56186579469
 20
-13442.84241299723
 10
22950.56186579566
 20
-13587.84241299688
  0
LWPOLYLINE
  5
24C
330
1F
100
AcDbEntity
  8
Ech.1_5
  6
Continuous
 62
     5
370
    40
390
5F
100
AcDbPolyline
 90
        5
 70
     0
 43
0.0
 10
22751.56186579495
 20
-13317.84241299822
 10
22896.56186579495
 20
-13317.84241299723
 10
22896.56186579524
 20
-13362.84241299723
 10
22751.56186579524
 20
-13362.84241299822
 10
22751.56186579495
 20
-13317.84241299822
  0
LWPOLYLINE
  5
24D
330
1F
100
AcDbEntity
  8
Ech.1_5
  6
Continuous
 62
   190
370
    15
390
5F
100
AcDbPolyline
 90
        4
 70
     0
 43
0.0
 10
22896.56186579524
 20
-13362.84241299723
 10
22751.56186579495
 20
-13317.8424129981
 10
22751.56186579524
 20
-13362.84241299822
 10
22896.56186579495
 20
-13317.84241299723
  0
LWPOLYLINE
  5
24E
330
1F
100
AcDbEntity
  8
Ech.1_5
  6
Continuous
 62
     5
370
    40
390
5F
100
AcDbPolyline
 90
        5
 70
     0
 43
0.0
 10
22751.56186579187
 20
-12890.53069780105
 10
22896.56186579187
 20
-12890.53069780006
 10
22896.56186579217
 20
-12935.53069780006
 10
22751.56186579217
 20
-12935.53069780105
 10
22751.56186579187
 20
-12890.53069780105
  0
LWPOLYLINE
  5
24F
330
1F
100
AcDbEntity
  8
Ech.1_5
  6
Continuous
 62
   190
370
    15
390
5F
100
AcDbPolyline
 90
        4
 70
     0
 43
0.0
 10
22896.56186579217
 20
-12935.53069780006
 10
22751.56186579187
 20
-12890.53069780093
 10
22751.56186579217
 20
-12935.53069780105
 10
22896.56186579187
 20
-12890.53069780006
  0
LWPOLYLINE
  5
250
330
1F
100
AcDbEntity
  8
Ech.1_5
  6
Continuous
 62
   190
370
    15
390
5F
100
AcDbPolyline
 90
        6
 70
     0
 43
0.0
 10
23031.44862295528
 20
-12795.83905197076
 10
22831.35773934709
 20
-12795.83905197204
 10
22814.87223619133
 20
-12813.8164003796
 10
22828.98217620883
 20
-12777.86070036767
 10
22812.49582212748
 20
-12795.83905197222
 10
22679.49582212748
 20
-12795.83905197262
  0
LWPOLYLINE
  5
251
330
1F
100
AcDbEntity
  8
Ech.1_5
  6
Continuous
 62
     5
370
    40
390
5F
100
AcDbPolyline
 90
        5
 70
     0
 43
0.0
 10
22751.56186579151
 20
-13542.84241299822
 10
22896.56186579151
 20
-13542.84241299723
 10
22896.56186579181
 20
-13587.84241299723
 10
22751.56186579181
 20
-13587.84241299822
 10
22751.56186579151
 20
-13542.84241299822
  0
LWPOLYLINE
  5
252
330
1F
100
AcDbEntity
  8
Ech.1_5
  6
Continuous
 62
   190
370
    15
390
5F
100
AcDbPolyline
 90
        4
 70
     0
 43
0.0
 10
22896.56186579181
 20
-13587.84241299723
 10
22751.56186579151
 20
-13542.8424129981
 10
22751.56186579181
 20
-13587.84241299822
 10
22896.56186579151
 20
-13542.84241299723
  0
LWPOLYLINE
  5
253
330
1F
100
AcDbEntity
  8
Ech.1_5
  6
Continuous
 62
     5
370
    40
390
5F
100
AcDbPolyline
 90
        5
 70
     0
 43
0.0
 10
22896.56186579516
 20
-13362.84241299723
 10
22896.56186579613
 20
-13542.84241299723
 10
22851.56186579613
 20
-13542.84241299752
 10
22851.56186579516
 20
-13362.84241299752
 10
22896.56186579516
 20
-13362.84241299723
  0
LWPOLYLINE
  5
254
330
1F
100
AcDbEntity
  8
Ech.1_5
  6
Continuous
 62
   190
370
    15
390
5F
100
AcDbPolyline
 90
        4
 70
     0
 43
0.0
 10
22851.56186579632
 20
-13542.84241299746
 10
22896.56186579524
 20
-13362.84241299723
 10
22851.56186579516
 20
-13362.84241299752
 10
22896.56186579151
 20
-13542.84241299723
  0
LWPOLYLINE
  5
255
330
1F
100
AcDbEntity
  8
Ech.1_5
  6
Continuous
 62
   190
370
    15
390
5F
100
AcDbPolyline
 90
        6
 70
     0
 43
0.0
 10
23585.56884655308
 20
-13309.16031486662
 10
23585.5630356109
 20
-13465.90783148906
 10
23603.53980351358
 20
-13482.39396765969
 10
23567.58460036843
 20
-13468.28276156537
 10
23585.56237143819
 20
-13484.76974869696
 10
23585.55660114787
 20
-13660.76974860237
  0
LWPOLYLINE
  5
257
330
1F
100
AcDbEntity
  8
Ech.1_5
  6
CADWORK_22
 62
     1
 48
0.6
370
    35
390
5F
100
AcDbPolyline
 90
        5
 70
   128
 43
0.0
 10
23585.55914459123
 20
-13589.3638987833
 10
22873.31713766088
 20
-13589.3638987833
 10
22845.4871761709
 20
-13596.67933073682
 10
22744.41239174486
 20
-13596.67933073682
 10
22744.41239174486
 20
-13563.86039750541
  0
LWPOLYLINE
  5
258
330
1F
100
AcDbEntity
  8
Ech.1_5
 62
     3
370
    70
390
5F
100
AcDbPolyline
 90
        4
 70
     0
 43
0.0
 10
22744.84164355339
 20
-13542.84241299822
 10
22744.84164355339
 20
-13555.83154641827
 10
22739.16103059139
 20
-13559.76627855918
 10
22739.16103059139
 20
-13573.24470856007
  0
LWPOLYLINE
  5
259
330
1F
100
AcDbEntity
  8
Ech.1_5
  6
CADWORK_22
 62
     1
 48
0.6
370
    35
390
5F
100
AcDbPolyline
 90
        3
 70
   128
 43
0.0
 10
22750.06186579013
 20
-12797.33905197239
 10
22750.06186579013
 20
-13589.3438214916
 10
22848.06186579818
 20
-13589.3438214916
  0
LWPOLYLINE
  5
25A
330
1F
100
AcDbEntity
  8
Ech.1_5
  6
Continuous
 62
   190
370
    15
390
5F
100
AcDbPolyline
 90
      136
 70
     0
 43
0.0
 10
22905.56228834309
 20
-13423.84307301817
 42
1.140281805118924
 10
22925.22024750688
 20
-13421.25504756386
 10
22915.90234913868
 20
-13386.43373852661
 42
-1.303226186855451
 10
22935.21958749335
 20
-13386.43373852661
 10
22925.90168912514
 20
-13421.25504756386
 42
1.303226186855451
 10
22945.21892747981
 20
-13421.25504756386
 10
22935.90102911161
 20
-13386.43373852661
 42
-1.303226186855451
 10
22955.21826746627
 20
-13386.43373852661
 10
22945.90036909807
 20
-13421.25504756386
 42
1.303226186855451
 10
22965.21760745273
 20
-13421.25504756386
 10
22955.89970908453
 20
-13386.43373852661
 42
-1.303226186855451
 10
22975.21694743919
 20
-13386.43373852661
 10
22965.89904907099
 20
-13421.25504756386
 42
1.303226186855451
 10
22985.21628742565
 20
-13421.25504756386
 10
22975.89838905745
 20
-13386.43373852661
 42
-1.303226186855451
 10
22995.21562741212
 20
-13386.43373852661
 10
22985.89772904391
 20
-13421.25504756386
 42
1.303226186855451
 10
23005.21496739858
 20
-13421.25504756386
 10
22995.89706903038
 20
-13386.43373852661
 42
-1.303226186855451
 10
23015.21430738504
 20
-13386.43373852661
 10
23005.89640901684
 20
-13421.25504756386
 42
1.303226186855451
 10
23025.2136473715
 20
-13421.25504756386
 10
23015.8957490033
 20
-13386.43373852661
 42
-1.303226186855451
 10
23035.21298735796
 20
-13386.43373852661
 10
23025.89508898976
 20
-13421.25504756386
 42
1.303226186855451
 10
23045.21232734442
 20
-13421.25504756386
 10
23035.89442897622
 20
-13386.43373852661
 42
-1.303226186855451
 10
23055.21166733088
 20
-13386.43373852661
 10
23045.89376896268
 20
-13421.25504756386
 42
1.303226186855451
 10
23065.21100731735
 20
-13421.25504756386
 10
23055.89310894915
 20
-13386.43373852661
 42
-1.303226186855451
 10
23075.21034730381
 20
-13386.43373852661
 10
23065.89244893561
 20
-13421.25504756386
 42
1.303226186855451
 10
23085.20968729027
 20
-13421.25504756386
 10
23075.89178892207
 20
-13386.43373852661
 42
-1.303226186855451
 10
23095.20902727673
 20
-13386.43373852661
 10
23085.89112890853
 20
-13421.25504756386
 42
1.303226186855451
 10
23105.20836726319
 20
-13421.25504756386
 10
23095.89046889499
 20
-13386.43373852661
 42
-1.303226186855451
 10
23115.20770724965
 20
-13386.43373852661
 10
23105.88980888145
 20
-13421.25504756386
 42
1.303226186855451
 10
23125.20704723612
 20
-13421.25504756386
 10
23115.88914886791
 20
-13386.43373852661
 42
-1.303226186855451
 10
23135.20638722258
 20
-13386.43373852661
 10
23125.88848885438
 20
-13421.25504756386
 42
1.303226186855451
 10
23145.20572720904
 20
-13421.25504756386
 10
23135.88782884084
 20
-13386.43373852661
 42
-1.303226186855451
 10
23155.2050671955
 20
-13386.43373852661
 10
23145.8871688273
 20
-13421.25504756386
 42
1.303226186855451
 10
23165.20440718196
 20
-13421.25504756386
 10
23155.88650881376
 20
-13386.43373852661
 42
-1.303226186855451
 10
23175.20374716842
 20
-13386.43373852661
 10
23165.88584880022
 20
-13421.25504756386
 42
1.303226186855451
 10
23185.20308715488
 20
-13421.25504756386
 10
23175.88518878668
 20
-13386.43373852661
 42
-1.303226186855451
 10
23195.20242714135
 20
-13386.43373852661
 10
23185.88452877315
 20
-13421.25504756386
 42
1.303226186855451
 10
23205.20176712781
 20
-13421.25504756386
 10
23195.88386875961
 20
-13386.43373852661
 42
-1.303226186855451
 10
23215.20110711427
 20
-13386.43373852661
 10
23205.88320874607
 20
-13421.25504756386
 42
1.303226186855451
 10
23225.20044710073
 20
-13421.25504756386
 10
23215.88254873253
 20
-13386.43373852661
 42
-1.303226186855451
 10
23235.19978708719
 20
-13386.43373852661
 10
23225.88188871899
 20
-13421.25504756386
 42
1.303226186855451
 10
23245.19912707365
 20
-13421.25504756386
 10
23235.88122870545
 20
-13386.43373852661
 42
-1.303226186855451
 10
23255.19846706012
 20
-13386.43373852661
 10
23245.88056869191
 20
-13421.25504756386
 42
1.303226186855451
 10
23265.19780704658
 20
-13421.25504756386
 10
23255.87990867838
 20
-13386.43373852661
 42
-1.303226186855451
 10
23275.19714703304
 20
-13386.43373852661
 10
23265.87924866484
 20
-13421.25504756386
 42
1.303226186855451
 10
23285.1964870195
 20
-13421.25504756386
 10
23275.8785886513
 20
-13386.43373852661
 42
-1.303226186855451
 10
23295.19582700596
 20
-13386.43373852661
 10
23285.87792863776
 20
-13421.25504756386
 42
1.303226186855451
 10
23305.19516699242
 20
-13421.25504756386
 10
23295.87726862422
 20
-13386.43373852661
 42
-1.303226186855451
 10
23315.19450697889
 20
-13386.43373852661
 10
23305.87660861068
 20
-13421.25504756386
 42
1.303226186855451
 10
23325.19384696535
 20
-13421.25504756386
 10
23315.87594859715
 20
-13386.43373852661
 42
-1.303226186855451
 10
23335.19318695181
 20
-13386.43373852661
 10
23325.87528858361
 20
-13421.25504756386
 42
1.303226186855451
 10
23345.19252693827
 20
-13421.25504756386
 10
23335.87462857007
 20
-13386.43373852661
 42
-1.303226186855451
 10
23355.19186692473
 20
-13386.43373852661
 10
23345.87396855653
 20
-13421.25504756386
 42
1.303226186855451
 10
23365.19120691119
 20
-13421.25504756386
 10
23355.87330854299
 20
-13386.43373852661
 42
-1.303226186855451
 10
23375.19054689765
 20
-13386.43373852661
 10
23365.87264852945
 20
-13421.25504756386
 42
1.303226186855451
 10
23385.18988688412
 20
-13421.25504756386
 10
23375.87198851592
 20
-13386.43373852661
 42
-1.303226186855451
 10
23395.18922687058
 20
-13386.43373852661
 10
23385.87132850238
 20
-13421.25504756386
 42
1.303226186855451
 10
23405.18856685704
 20
-13421.25504756386
 10
23395.87066848884
 20
-13386.43373852661
 42
-1.303226186855451
 10
23415.1879068435
 20
-13386.43373852661
 10
23405.8700084753
 20
-13421.25504756386
 42
1.303226186855451
 10
23425.18724682996
 20
-13421.25504756386
 10
23415.86934846176
 20
-13386.43373852661
 42
-1.303226186855451
 10
23435.18658681642
 20
-13386.43373852661
 10
23425.86868844822
 20
-13421.25504756386
 42
1.303226186855451
 10
23445.18592680289
 20
-13421.25504756386
 10
23435.86802843468
 20
-13386.43373852661
 42
-1.303226186855451
 10
23455.18526678935
 20
-13386.43373852661
 10
23445.86736842115
 20
-13421.25504756386
 42
1.303226186855451
 10
23465.18460677581
 20
-13421.25504756386
 10
23455.86670840761
 20
-13386.43373852661
 42
-1.303226186855451
 10
23475.18394676227
 20
-13386.43373852661
 10
23465.86604839407
 20
-13421.25504756386
 42
1.303226186855451
 10
23485.18328674873
 20
-13421.25504756386
 10
23475.86538838053
 20
-13386.43373852661
 42
-1.303226186855451
 10
23495.18262673519
 20
-13386.43373852661
 10
23485.86472836699
 20
-13421.25504756386
 42
1.303226186855451
 10
23505.18196672166
 20
-13421.25504756386
 10
23495.86406835345
 20
-13386.43373852661
 42
-1.303226186855451
 10
23515.18130670812
 20
-13386.43373852661
 10
23505.86340833992
 20
-13421.25504756386
 42
1.303226186855451
 10
23525.18064669458
 20
-13421.25504756386
 10
23515.86274832638
 20
-13386.43373852661
 42
-1.303226186855451
 10
23535.17998668104
 20
-13386.43373852661
 10
23525.86208831284
 20
-13421.25504756386
 42
1.303226186855451
 10
23545.1793266675
 20
-13421.25504756386
 10
23535.8614282993
 20
-13386.43373852661
 42
-1.303226186855451
 10
23555.17866665396
 20
-13386.43373852661
 10
23545.86076828576
 20
-13421.25504756386
 42
1.303226186855451
 10
23565.17800664042
 20
-13421.25504756386
 10
23555.86010827222
 20
-13386.43373852661
 42
-1.303226186855451
 10
23575.17734662689
 20
-13386.43373852661
 10
23565.85944825869
 20
-13421.25504756386
 42
1.303226186855451
 10
23585.17668661335
 20
-13421.25504756386
 10
23575.85878824515
 20
-13386.43373852661
 42
-0.4946435472816545
 10
23585.56557176509
 20
-13373.84648908438
  0
HATCH
  5
25B
330
1F
100
AcDbEntity
  8
Ech.1_5
  6
Continuous
 62
   254
420
 16643007
440
 33554687
370
    20
390
5F
100
AcDbHatch
 10
0.0
 20
0.0
 30
0.0
210
0.0
220
0.0
230
1.0
  2
SOLID
 70
     1
 71
     0
 91
        1
 92
        3
 72
     0
 73
     1
 93
        4
 10
22965.55796654172
 20
-12795.83905197123
 10
22905.56192662296
 20
-12795.83905197123
 10
22905.56192662296
 20
-13373.84637308582
 10
22965.55796654171
 20
-13373.84635181316
 97
        0
 75
     0
 76
     1
 98
        0
  0
LWPOLYLINE
  5
25C
330
1F
100
AcDbEntity
  8
Ech.1_5
  6
Continuous
 62
   190
370
    15
390
5F
100
AcDbPolyline
 90
        5
 70
     0
 43
0.0
 10
22965.55796654172
 20
-12795.83905197123
 10
22905.56192662296
 20
-12795.83905197123
 10
22905.56192662296
 20
-13373.84637308582
 10
22965.55796654171
 20
-13373.84635181316
 10
22965.55796654172
 20
-12795.83905197123
  0
LWPOLYLINE
  5
25D
330
1F
100
AcDbEntity
  8
Ech.1_5
  6
Continuous
 62
   190
370
    15
390
5F
100
AcDbPolyline
 90
      114
 70
     0
 43
0.0
 10
22915.56126660942
 20
-12795.83905197123
 42
1.140281805119342
 10
22918.14929206372
 20
-12815.49701113503
 10
22952.97060110095
 20
-12806.17911276683
 42
-1.303226186854469
 10
22952.97060110095
 20
-12825.4963511215
 10
22918.14929206372
 20
-12816.17845275327
 42
1.303226186854469
 10
22918.14929206372
 20
-12835.49569110795
 10
22952.97060110095
 20
-12826.17779273975
 42
-1.303226186856433
 10
22952.97060110095
 20
-12845.4950310944
 10
22918.14929206372
 20
-12836.1771327262
 42
1.303226186854469
 10
22918.14929206372
 20
-12855.49437108087
 10
22952.97060110095
 20
-12846.17647271267
 42
-1.303226186856433
 10
22952.97060110095
 20
-12865.49371106732
 10
22918.14929206372
 20
-12856.17581269912
 42
1.303226186854469
 10
22918.14929206372
 20
-12875.4930510538
 10
22952.97060110095
 20
-12866.1751526856
 42
-1.303226186856433
 10
22952.97060110095
 20
-12885.49239104024
 10
22918.14929206372
 20
-12876.17449267204
 42
1.303226186854469
 10
22918.14929206372
 20
-12895.49173102672
 10
22952.97060110095
 20
-12886.17383265852
 42
-1.303226186856433
 10
22952.97060110095
 20
-12905.49107101317
 10
22918.14929206372
 20
-12896.17317264497
 42
1.303226186856432
 10
22918.14929206372
 20
-12915.49041099961
 10
22952.97060110095
 20
-12906.17251263141
 42
-1.303226186854469
 10
22952.97060110095
 20
-12925.48975098609
 10
22918.14929206372
 20
-12916.17185261789
 42
1.303226186856432
 10
22918.14929206372
 20
-12935.48909097254
 10
22952.97060110095
 20
-12926.17119260434
 42
-1.303226186854469
 10
22952.97060110095
 20
-12945.48843095901
 10
22918.14929206372
 20
-12936.17053259081
 42
1.303226186856432
 10
22918.14929206372
 20
-12955.48777094546
 10
22952.97060110095
 20
-12946.16987257726
 42
-1.303226186854469
 10
22952.97060110095
 20
-12965.48711093194
 10
22918.14929206372
 20
-12956.16921256373
 42
1.303226186856432
 10
22918.14929206372
 20
-12975.48645091838
 10
22952.97060110095
 20
-12966.16855255018
 42
-1.303226186854469
 10
22952.97060110095
 20
-12985.48579090486
 10
22918.14929206372
 20
-12976.16789253663
 42
1.303226186854469
 10
22918.14929206372
 20
-12995.48513089131
 10
22952.97060110095
 20
-12986.1672325231
 42
-1.303226186856433
 10
22952.97060110095
 20
-13005.48447087775
 10
22918.14929206372
 20
-12996.16657250955
 42
1.303226186854469
 10
22918.14929206372
 20
-13015.48381086423
 10
22952.97060110095
 20
-13006.16591249603
 42
-1.303226186856433
 10
22952.97060110095
 20
-13025.48315085068
 10
22918.14929206372
 20
-13016.16525248247
 42
1.303226186854469
 10
22918.14929206372
 20
-13035.48249083715
 10
22952.97060110095
 20
-13026.16459246895
 42
-1.303226186856433
 10
22952.97060110095
 20
-13045.4818308236
 10
22918.14929206372
 20
-13036.1639324554
 42
1.303226186854469
 10
22918.14929206372
 20
-13055.48117081008
 10
22952.97060110095
 20
-13046.16327244187
 42
-1.303226186856433
 10
22952.97060110095
 20
-13065.48051079652
 10
22918.14929206372
 20
-13056.16261242832
 42
1.303226186856432
 10
22918.14929206372
 20
-13075.47985078297
 10
22952.97060110095
 20
-13066.16195241477
 42
-1.303226186854469
 10
22952.97060110095
 20
-13085.47919076945
 10
22918.14929206372
 20
-13076.16129240124
 42
1.303226186856432
 10
22918.14929206372
 20
-13095.47853075589
 10
22952.97060110095
 20
-13086.16063238769
 42
-1.303226186854469
 10
22952.97060110095
 20
-13105.47787074237
 10
22918.14929206372
 20
-13096.15997237417
 42
1.303226186856432
 10
22918.14929206372
 20
-13115.47721072882
 10
22952.97060110095
 20
-13106.15931236061
 42
-1.303226186854469
 10
22952.97060110095
 20
-13125.47655071529
 10
22918.14929206372
 20
-13116.15865234709
 42
1.303226186856432
 10
22918.14929206372
 20
-13135.47589070174
 10
22952.97060110095
 20
-13126.15799233354
 42
-1.303226186854469
 10
22952.97060110095
 20
-13145.47523068821
 10
22918.14929206372
 20
-13136.15733231998
 42
1.303226186854469
 10
22918.14929206372
 20
-13155.47457067466
 10
22952.97060110095
 20
-13146.15667230646
 42
-1.303226186856433
 10
22952.97060110095
 20
-13165.47391066111
 10
22918.14929206372
 20
-13156.15601229291
 42
1.303226186854469
 10
22918.14929206372
 20
-13175.47325064758
 10
22952.97060110095
 20
-13166.15535227938
 42
-1.303226186856433
 10
22952.97060110095
 20
-13185.47259063403
 10
22918.14929206372
 20
-13176.15469226583
 42
1.303226186854469
 10
22918.14929206372
 20
-13195.47193062051
 10
22952.97060110095
 20
-13186.15403225231
 42
-1.303226186856433
 10
22952.97060110095
 20
-13205.47127060695
 10
22918.14929206372
 20
-13196.15337223875
 42
1.303226186854469
 10
22918.14929206372
 20
-13215.47061059343
 10
22952.97060110095
 20
-13206.15271222523
 42
-1.303226186856433
 10
22952.97060110095
 20
-13225.46995057988
 10
22918.14929206372
 20
-13216.15205221168
 42
1.303226186856432
 10
22918.14929206372
 20
-13235.46929056633
 10
22952.97060110095
 20
-13226.15139219812
 42
-1.303226186854469
 10
22952.97060110095
 20
-13245.4686305528
 10
22918.14929206372
 20
-13236.1507321846
 42
1.303226186856432
 10
22918.14929206372
 20
-13255.46797053925
 10
22952.97060110095
 20
-13246.15007217105
 42
-1.303226186854469
 10
22952.97060110095
 20
-13265.46731052572
 10
22918.14929206372
 20
-13256.14941215752
 42
1.303226186856432
 10
22918.14929206372
 20
-13275.46665051217
 10
22952.97060110095
 20
-13266.14875214397
 42
-1.303226186854469
 10
22952.97060110095
 20
-13285.46599049865
 10
22918.14929206372
 20
-13276.14809213045
 42
1.303226186856432
 10
22918.14929206372
 20
-13295.46533048509
 10
22952.97060110095
 20
-13286.14743211689
 42
-1.303226186854469
 10
22952.97060110095
 20
-13305.46467047157
 10
22918.14929206372
 20
-13296.14677210334
 42
1.303226186854469
 10
22918.14929206372
 20
-13315.46401045802
 10
22952.97060110095
 20
-13306.14611208982
 42
-1.303226186856433
 10
22952.97060110095
 20
-13325.46335044446
 10
22918.14929206372
 20
-13316.14545207626
 42
1.303226186854469
 10
22918.14929206372
 20
-13335.46269043094
 10
22952.97060110095
 20
-13326.14479206274
 42
-1.303226186856433
 10
22952.97060110095
 20
-13345.46203041739
 10
22918.14929206372
 20
-13336.14413204919
 42
1.303226186854469
 10
22918.14929206372
 20
-13355.46137040386
 10
22952.97060110095
 20
-13346.14347203566
 42
-1.303226186856433
 10
22952.97060110095
 20
-13365.46071039031
 10
22918.14929206372
 20
-13356.14281202211
 42
0.8284970476315923
 10
22909.62277267497
 20
-13373.84637308582
  0
LWPOLYLINE
  5
25E
330
1F
100
AcDbEntity
  8
Ech.1_5
  6
Continuous
 62
   190
370
    15
390
5F
100
AcDbPolyline
 90
        5
 70
     0
 43
0.0
 10
22631.02427687583
 20
-13712.13554285447
 10
23616.02427687583
 20
-13712.13554285447
 10
23616.02427687583
 20
-13945.06557792518
 10
22631.02427687583
 20
-13945.06557792518
 10
22631.02427687583
 20
-13712.13554285447
  0
LWPOLYLINE
  5
25F
330
1F
100
AcDbEntity
  8
Ech.1_5
  6
Continuous
 62
   190
370
    15
390
5F
100
AcDbPolyline
 90
        5
 70
     0
 43
0.0
 10
23616.02427687583
 20
-13807.65250586012
 10
22631.02427687583
 20
-13807.65250586012
 10
22631.02427687583
 20
-13712.13554285447
 10
23616.02427687583
 20
-13712.13554285447
 10
23616.02427687583
 20
-13807.65250586012
  0
LWPOLYLINE
  5
260
330
1F
100
AcDbEntity
  8
Ech.1_5
  6
Continuous
 62
   190
370
    15
390
5F
100
AcDbPolyline
 90
        5
 70
     0
 43
0.0
 10
23616.02427687583
 20
-13829.65250586012
 10
22631.02427687583
 20
-13829.65250586012
 10
22631.02427687583
 20
-13807.65250586012
 10
23616.02427687583
 20
-13807.65250586012
 10
23616.02427687583
 20
-13829.65250586012
  0
LWPOLYLINE
  5
261
330
1F
100
AcDbEntity
  8
Ech.1_5
  6
Continuous
 62
   190
370
    15
390
5F
100
AcDbPolyline
 90
        5
 70
     0
 43
0.0
 10
23616.02427687583
 20
-13886.52365109046
 10
22631.02427687583
 20
-13886.52365109046
 10
22631.02427687583
 20
-13862.79662277972
 10
23616.02427687583
 20
-13862.79662277972
 10
23616.02427687583
 20
-13886.52365109046
  0
LINE
  5
262
330
1F
100
AcDbEntity
  8
Ech.1_5
  6
Continuous
 62
   190
370
    15
390
5F
100
AcDbLine
 10
22819.22883883879
 20
-13807.65250586012
 30
0.0
 11
22819.22883883879
 21
-13829.65250586012
 31
0.0
  0
LINE
  5
263
330
1F
100
AcDbEntity
  8
Ech.1_5
  6
Continuous
 62
   190
370
    15
390
5F
100
AcDbLine
 10
23476.22694146933
 20
-13807.65250586012
 30
0.0
 11
23476.22694146933
 21
-13829.65250586012
 31
0.0
  0
LINE
  5
264
330
1F
100
AcDbEntity
  8
Ech.1_5
  6
Continuous
 62
   190
370
    15
390
5F
100
AcDbLine
 10
22975.38405683414
 20
-13807.65250586012
 30
0.0
 11
22975.38405683414
 21
-13829.65250586012
 31
0.0
  0
LWPOLYLINE
  5
265
330
1F
100
AcDbEntity
  8
Ech.1_5
  6
Continuous
 62
   190
370
    15
390
5F
100
AcDbPolyline
 90
        5
 70
     0
 43
0.0
 10
23616.02427687583
 20
-12590.06557792517
 10
22631.02427687583
 20
-12590.06557792517
 10
22631.02427687583
 20
-13945.06557792518
 10
23616.02427687583
 20
-13945.06557792518
 10
23616.02427687583
 20
-12590.06557792517
  0
HATCH
  5
266
330
1F
100
AcDbEntity
  8
Ech.1_5
  6
Continuous
 62
   254
420
 13882323
440
 33554687
370
     5
390
5F
100
AcDbHatch
 10
0.0
 20
0.0
 30
0.0
210
0.0
220
0.0
230
1.0
  2
SOLID
 70
     1
 71
     0
 91
        1
 92
        3
 72
     0
 73
     1
 93
        4
 10
23058.74751267193
 20
-13346.84635181316
 10
22965.55796654171
 20
-13346.84635181316
 10
22965.55796654171
 20
-13373.84635181316
 10
23058.74751267193
 20
-13373.84635181316
 97
        0
 75
     0
 76
     1
 98
        0
  0
LINE
  5
267
330
1F
100
AcDbEntity
  8
Ech.1_5
  6
Continuous
 62
   190
370
    15
390
5F
100
AcDbLine
 10
22965.55796654171
 20
-13346.84635181316
 30
0.0
 11
23058.74751267193
 21
-13373.84635181316
 31
0.0
  0
LINE
  5
268
330
1F
100
AcDbEntity
  8
Ech.1_5
  6
Continuous
 62
   190
370
    15
390
5F
100
AcDbLine
 10
22965.55796654171
 20
-13373.84635181316
 30
0.0
 11
23058.74751267193
 21
-13346.84635181316
 31
0.0
  0
LWPOLYLINE
  5
269
330
1F
100
AcDbEntity
  8
Ech.1_5
  6
Continuous
 62
     5
370
    40
390
5F
100
AcDbPolyline
 90
        5
 70
     0
 43
0.0
 10
23058.74751267193
 20
-13346.84635181316
 10
22965.55796654171
 20
-13346.84635181316
 10
22965.55796654171
 20
-13373.84635181316
 10
23058.74751267193
 20
-13373.84635181316
 10
23058.74751267193
 20
-13346.84635181316
  0
HATCH
  5
26A
330
1F
100
AcDbEntity
  8
Ech.1_5
  6
Continuous
 62
   254
420
 13882323
440
 33554687
370
     5
390
5F
100
AcDbHatch
 10
0.0
 20
0.0
 30
0.0
210
0.0
220
0.0
230
1.0
  2
SOLID
 70
     1
 71
     0
 91
        1
 92
        3
 72
     0
 73
     1
 93
        4
 10
23448.3731950886
 20
-13373.86682186579
 10
23488.3731950886
 20
-13373.86682186579
 10
23488.3731950886
 20
-13346.86682186579
 10
23448.3731950886
 20
-13346.86682186579
 97
        0
 75
     0
 76
     1
 98
        0
  0
LINE
  5
26B
330
1F
100
AcDbEntity
  8
Ech.1_5
  6
Continuous
 62
   190
370
    15
390
5F
100
AcDbLine
 10
23488.3731950886
 20
-13373.86682186579
 30
0.0
 11
23448.3731950886
 21
-13346.86682186579
 31
0.0
  0
LINE
  5
26C
330
1F
100
AcDbEntity
  8
Ech.1_5
  6
Continuous
 62
   190
370
    15
390
5F
100
AcDbLine
 10
23488.3731950886
 20
-13346.86682186579
 30
0.0
 11
23448.3731950886
 21
-13373.86682186579
 31
0.0
  0
LWPOLYLINE
  5
26D
330
1F
100
AcDbEntity
  8
Ech.1_5
  6
Continuous
 62
     5
370
    40
390
5F
100
AcDbPolyline
 90
        5
 70
     0
 43
0.0
 10
23448.3731950886
 20
-13373.86682186579
 10
23488.3731950886
 20
-13373.86682186579
 10
23488.3731950886
 20
-13346.86682186579
 10
23448.3731950886
 20
-13346.86682186579
 10
23448.3731950886
 20
-13373.86682186579
  0
HATCH
  5
26E
330
1F
100
AcDbEntity
  8
Ech.1_5
  6
Continuous
 62
   254
420
 13882323
440
 33554687
370
    20
390
5F
100
AcDbHatch
 10
0.0
 20
0.0
 30
0.0
210
0.0
220
0.0
230
1.0
  2
SOLID
 70
     1
 71
     0
 91
        1
 92
        3
 72
     0
 73
     1
 93
        4
 10
23018.557966538
 20
-13318.8463516209
 10
23018.557966538
 20
-12795.83915239421
 10
22992.55796653799
 20
-12795.83935494476
 10
22992.557966538
 20
-13318.84635161587
 97
        0
 75
     0
 76
     1
 98
        0
  0
LWPOLYLINE
  5
26F
330
1F
100
AcDbEntity
  8
Ech.1_5
  6
Continuous
 62
     7
370
    20
390
5F
100
AcDbPolyline
 90
        5
 70
     0
 43
0.0
 10
23018.557966538
 20
-13318.8463516209
 10
23018.557966538
 20
-12795.83915239421
 10
22992.55796653799
 20
-12795.83935494476
 10
22992.557966538
 20
-13318.84635161587
 10
23018.557966538
 20
-13318.8463516209
  0
HATCH
  5
270
330
1F
100
AcDbEntity
  8
Ech.1_5
  6
Continuous
 62
   254
420
 13882323
440
 33554687
370
    20
390
5F
100
AcDbHatch
 10
0.0
 20
0.0
 30
0.0
210
0.0
220
0.0
230
1.0
  2
SOLID
 70
     1
 71
     0
 91
        1
 92
        3
 72
     0
 73
     1
 93
        4
 10
22994.36454411803
 20
-13346.84635190385
 10
23585.56744945674
 20
-13346.84635190385
 10
23585.56841332844
 20
-13320.84635190385
 10
22994.36454411805
 20
-13320.84635166543
 97
        0
 75
     0
 76
     1
 98
        0
  0
LWPOLYLINE
  5
271
330
1F
100
AcDbEntity
  8
Ech.1_5
  6
Continuous
 62
     7
370
    20
390
5F
100
AcDbPolyline
 90
        5
 70
     0
 43
0.0
 10
22994.36454411803
 20
-13346.84635190385
 10
23585.56744945674
 20
-13346.84635190385
 10
23585.56841332844
 20
-13320.84635190385
 10
22994.36454411805
 20
-13320.84635166543
 10
22994.36454411803
 20
-13346.84635190385
  0
HATCH
  5
272
330
1F
100
AcDbEntity
  8
Ech.1_5
  6
Continuous
 62
   254
420
 16643007
440
 33554687
370
    20
390
5F
100
AcDbHatch
 10
0.0
 20
0.0
 30
0.0
210
0.0
220
0.0
230
1.0
  2
SOLID
 70
     1
 71
     0
 91
        1
 92
        3
 72
     1
 73
     1
 93
        6
 10
23117.84627873541
 20
-12846.24671212264
 42
0.0880178808063158
 10
23141.35815072356
 20
-12907.16999661318
 42
0.0
 10
23262.84627873712
 20
-12907.16999661225
 42
0.0
 10
23262.84627873565
 20
-12682.16999661237
 42
0.0
 10
23165.34708515987
 20
-12682.16999661304
 42
0.1418396333142638
 10
23117.84627873495
 20
-12774.64168624365
 42
0.0
 97
        0
 75
     0
 76
     1
 98
        0
  0
LWPOLYLINE
  5
273
330
1F
100
AcDbEntity
  8
Ech.1_5
  6
Continuous
 62
   190
370
    15
390
5F
100
AcDbPolyline
 90
        7
 70
     0
 43
0.0
 10
23117.84627873541
 20
-12846.24671212264
 42
0.0880178808063471
 10
23141.35815072356
 20
-12907.16999661318
 10
23262.84627873712
 20
-12907.16999661225
 10
23262.84627873565
 20
-12682.16999661237
 10
23165.34708515987
 20
-12682.16999661304
 42
0.141839633314311
 10
23117.84627873495
 20
-12774.64168624365
 10
23117.84627873541
 20
-12846.24671212264
  0
HATCH
  5
274
330
1F
100
AcDbEntity
  8
Ech.1_5
  6
Continuous
 62
   254
420
 16643007
440
 33554687
370
    20
390
5F
100
AcDbHatch
 10
0.0
 20
0.0
 30
0.0
210
0.0
220
0.0
230
1.0
  2
SOLID
 70
     1
 71
     0
 91
        1
 92
        3
 72
     1
 73
     1
 93
        3
 10
23262.84627873529
 20
-12627.52467056319
 42
0.1529870491887857
 10
23165.34708515987
 20
-12682.16999661304
 42
0.0
 10
23262.84627873565
 20
-12682.16999661237
 42
0.0
 97
        0
 75
     0
 76
     1
 98
        0
  0
LWPOLYLINE
  5
275
330
1F
100
AcDbEntity
  8
Ech.1_5
  6
Continuous
 62
   190
370
    15
390
5F
100
AcDbPolyline
 90
        4
 70
     0
 43
0.0
 10
23262.84627873529
 20
-12627.52467056319
 42
0.1529870491887856
 10
23165.34708515987
 20
-12682.16999661304
 10
23262.84627873565
 20
-12682.16999661237
 10
23262.84627873529
 20
-12627.52467056319
  0
HATCH
  5
276
330
1F
100
AcDbEntity
  8
Ech.1_5
  6
Continuous
 62
    33
420
 12426362
440
 33554687
370
    20
390
5F
100
AcDbHatch
 10
0.0
 20
0.0
 30
0.0
210
0.0
220
0.0
230
1.0
  2
SOLID
 70
     1
 71
     0
 91
        1
 92
        3
 72
     0
 73
     1
 93
        4
 10
23262.84627873596
 20
-12727.16999661237
 10
23217.84627873596
 20
-12727.16999661266
 10
23217.84627873693
 20
-12907.16999661266
 10
23262.84627873693
 20
-12907.16999661237
 97
        0
 75
     0
 76
     1
 98
        0
  0
LWPOLYLINE
  5
277
330
1F
100
AcDbEntity
  8
Ech.1_5
  6
Continuous
 62
     7
370
    20
390
5F
100
AcDbPolyline
 90
        5
 70
     0
 43
0.0
 10
23262.84627873596
 20
-12727.16999661237
 10
23217.84627873596
 20
-12727.16999661266
 10
23217.84627873693
 20
-12907.16999661266
 10
23262.84627873693
 20
-12907.16999661237
 10
23262.84627873596
 20
-12727.16999661237
  0
HATCH
  5
278
330
1F
100
AcDbEntity
  8
Ech.1_5
  6
Continuous
 62
   254
420
 13882323
440
 33554687
370
     5
390
5F
100
AcDbHatch
 10
0.0
 20
0.0
 30
0.0
210
0.0
220
0.0
230
1.0
  2
SOLID
 70
     1
 71
     0
 91
        1
 92
        3
 72
     0
 73
     1
 93
        4
 10
23331.8430495487
 20
-12636.16876837802
 10
23331.8430495487
 20
-12711.17393542831
 10
23358.8430495487
 20
-12711.17393542831
 10
23358.8430495487
 20
-12636.16876837802
 97
        0
 75
     0
 76
     1
 98
        0
  0
LINE
  5
279
330
1F
100
AcDbEntity
  8
Ech.1_5
  6
Continuous
 62
   190
370
    15
390
5F
100
AcDbLine
 10
23331.8430495487
 20
-12711.17393542831
 30
0.0
 11
23358.8430495487
 21
-12636.16876837802
 31
0.0
  0
LINE
  5
27A
330
1F
100
AcDbEntity
  8
Ech.1_5
  6
Continuous
 62
   190
370
    15
390
5F
100
AcDbLine
 10
23358.8430495487
 20
-12711.17393542831
 30
0.0
 11
23331.8430495487
 21
-12636.16876837802
 31
0.0
  0
LWPOLYLINE
  5
27B
330
1F
100
AcDbEntity
  8
Ech.1_5
  6
Continuous
 62
     5
370
    40
390
5F
100
AcDbPolyline
 90
        5
 70
     0
 43
0.0
 10
23331.8430495487
 20
-12636.16876837802
 10
23331.8430495487
 20
-12711.17393542831
 10
23358.8430495487
 20
-12711.17393542831
 10
23358.8430495487
 20
-12636.16876837802
 10
23331.8430495487
 20
-12636.16876837802
  0
HATCH
  5
27C
330
1F
100
AcDbEntity
  8
Ech.1_5
  6
Continuous
 62
   254
420
 13882323
440
 33554687
370
     5
390
5F
100
AcDbHatch
 10
0.0
 20
0.0
 30
0.0
210
0.0
220
0.0
230
1.0
  2
SOLID
 70
     1
 71
     0
 91
        1
 92
        3
 72
     0
 73
     1
 93
        4
 10
23425.03192561273
 20
-12711.17393542831
 10
23331.84237948251
 20
-12711.17393542831
 10
23331.84237948251
 20
-12738.17393542831
 10
23425.03192561273
 20
-12738.17393542831
 97
        0
 75
     0
 76
     1
 98
        0
  0
LINE
  5
27D
330
1F
100
AcDbEntity
  8
Ech.1_5
  6
Continuous
 62
   190
370
    15
390
5F
100
AcDbLine
 10
23331.84237948251
 20
-12711.17393542831
 30
0.0
 11
23425.03192561273
 21
-12738.17393542831
 31
0.0
  0
LINE
  5
27E
330
1F
100
AcDbEntity
  8
Ech.1_5
  6
Continuous
 62
   190
370
    15
390
5F
100
AcDbLine
 10
23331.84237948251
 20
-12738.17393542831
 30
0.0
 11
23425.03192561273
 21
-12711.17393542831
 31
0.0
  0
LWPOLYLINE
  5
27F
330
1F
100
AcDbEntity
  8
Ech.1_5
  6
Continuous
 62
     5
370
    40
390
5F
100
AcDbPolyline
 90
        5
 70
     0
 43
0.0
 10
23425.03192561273
 20
-12711.17393542831
 10
23331.84237948251
 20
-12711.17393542831
 10
23331.84237948251
 20
-12738.17393542831
 10
23425.03192561273
 20
-12738.17393542831
 10
23425.03192561273
 20
-12711.17393542831
  0
ARC
  5
280
330
1F
100
AcDbEntity
  8
Ech.1_5
  6
Continuous
 62
   190
370
    15
390
5F
100
AcDbCircle
 10
23301.30398224316
 20
-12810.44419918194
 30
0.0
 40
186.9185622382325
100
AcDbArc
 50
71.5354884631793
 51
340.2417213388881
  0
LWPOLYLINE
  5
281
330
1F
100
AcDbEntity
  8
Ech.1_5
 62
     3
370
    70
390
5F
100
AcDbPolyline
 90
        4
 70
     0
 43
0.0
 10
22711.40386241303
 20
-12680.8966972079
 10
22698.41472899295
 20
-12680.8966972079
 10
22694.47999685205
 20
-12675.21608424591
 10
22681.00156685114
 20
-12675.21608424591
  0
HATCH
  5
282
330
1F
100
AcDbEntity
  8
Ech.1_5
  6
Continuous
 62
     2
440
 33554687
370
     5
390
5F
100
AcDbHatch
 10
0.0
 20
0.0
 30
0.0
210
0.0
220
0.0
230
1.0
  2
SOLID
 70
     1
 71
     0
 91
        1
 92
        3
 72
     0
 73
     1
 93
        4
 10
22687.36795145424
 20
-12702.93025920856
 10
22687.36795145424
 20
-12712.93025920856
 10
22707.36959920537
 20
-12712.93025920856
 10
22707.36959920537
 20
-12702.93025920856
 97
        0
 75
     0
 76
     1
 98
        0
  0
HATCH
  5
283
330
1F
100
AcDbEntity
  8
Ech.1_5
  6
Continuous
 62
     7
440
 33554687
370
    20
390
5F
100
AcDbHatch
 10
0.0
 20
0.0
 30
0.0
210
0.0
220
0.0
230
1.0
  2
CwHatchPattern_31
 70
     0
 71
     0
 91
        1
 92
        3
 72
     0
 73
     1
 93
        4
 10
22687.36795145424
 20
-12702.93025920856
 10
22687.36795145424
 20
-12712.93025920856
 10
22707.36959920537
 20
-12712.93025920856
 10
22707.36959920537
 20
-12702.93025920856
 97
        0
 75
     0
 76
     2
 52
0.0
 41
0.1500000059604645
 77
     0
 78
     1
 53
45.00000000000297
 43
0.0
 44
0.0
 45
-2.121320427853449
 46
2.12132042785323
 79
     0
 98
        0
1001
ACAD
1010
0.0
1020
0.0
1030
0.0
  0
LWPOLYLINE
  5
284
330
1F
100
AcDbEntity
  8
Ech.1_5
  6
Continuous
 62
     7
370
     5
390
5F
100
AcDbPolyline
 90
        5
 70
     0
 43
0.0
 10
22687.36795145424
 20
-12702.93025920856
 10
22687.36795145424
 20
-12712.93025920856
 10
22707.36959920537
 20
-12712.93025920856
 10
22707.36959920537
 20
-12702.93025920856
 10
22687.36795145424
 20
-12702.93025920856
  0
LWPOLYLINE
  5
285
330
1F
100
AcDbEntity
  8
Ech.1_5
 62
   190
370
    15
390
5F
100
AcDbPolyline
 90
        5
 70
     0
 43
0.0
 10
23479.86951455799
 20
-12648.49251548604
 10
23529.86951455799
 20
-12648.49251548604
 10
23529.86951455799
 20
-12641.07737795213
 10
23479.86951455799
 20
-12641.07737795213
 10
23479.86951455799
 20
-12648.49251548604
  0
LWPOLYLINE
  5
286
330
1F
100
AcDbEntity
  8
Ech.1_5
 62
   190
370
    15
390
5F
100
AcDbPolyline
 90
        5
 70
     0
 43
0.0
 10
23529.86951455799
 20
-12648.49251548604
 10
23579.86951455799
 20
-12648.49251548604
 10
23579.86951455799
 20
-12641.07737795213
 10
23529.86951455799
 20
-12641.07737795213
 10
23529.86951455799
 20
-12648.49251548604
  0
ARC
  5
287
330
1F
100
AcDbEntity
  8
Ech.1_5
  6
Continuous
 62
   190
370
    15
390
5F
100
AcDbCircle
 10
23301.30398224316
 20
-12810.44419918195
 30
0.0
 40
186.9185622382362
100
AcDbArc
 50
22.68304067895793
 51
63.45349645055621
  0
HATCH
  5
288
330
1F
100
AcDbEntity
  8
Ech.1_5
  6
Continuous
 62
   254
420
 13882323
440
 33554687
370
    20
390
5F
100
AcDbHatch
 10
0.0
 20
0.0
 30
0.0
210
0.0
220
0.0
230
1.0
  2
SOLID
 70
     1
 71
     0
 91
        1
 92
        3
 72
     1
 73
     1
 93
        4
 10
23384.8423794788
 20
-12683.17393523604
 42
0.0
 10
23384.8423794788
 20
-12643.23210303903
 42
0.0376218939914605
 10
23358.8423794788
 20
-12632.60190457023
 42
0.0
 10
23358.8423794788
 20
-12683.17393523101
 42
0.0
 97
        0
 75
     0
 76
     1
 98
        0
  0
LWPOLYLINE
  5
289
330
1F
100
AcDbEntity
  8
Ech.1_5
  6
Continuous
 62
     7
370
    20
390
5F
100
AcDbPolyline
 90
        5
 70
     0
 43
0.0
 10
23384.8423794788
 20
-12683.17393523604
 10
23384.8423794788
 20
-12643.23210303903
 42
0.0376218939914609
 10
23358.8423794788
 20
-12632.60190457023
 10
23358.8423794788
 20
-12683.17393523101
 10
23384.8423794788
 20
-12683.17393523604
  0
LWPOLYLINE
  5
28A
330
1F
100
AcDbEntity
  8
Ech.1_5
  6
Continuous
 62
   190
370
    15
390
5F
100
AcDbPolyline
 90
        3
 70
     0
 43
0.0
 10
23330.11182467827
 20
-12625.75890706738
 42
-0.3190686161455902
 10
23319.25501404176
 20
-12629.79489414087
 10
23296.09760227216
 20
-12623.59815957498
  0
HATCH
  5
28B
330
1F
100
AcDbEntity
  8
Ech.1_5
  6
Continuous
 62
   254
420
 16643007
440
 33554687
370
    20
390
5F
100
AcDbHatch
 10
0.0
 20
0.0
 30
0.0
210
0.0
220
0.0
230
1.0
  2
SOLID
 70
     1
 71
     0
 91
        1
 92
        3
 72
     1
 73
     1
 93
        4
 10
23271.84633956375
 20
-12625.86143672299
 42
0.0
 10
23271.84633956375
 20
-12728.17395670096
 42
0.0
 10
23331.84237948251
 20
-12728.17395670096
 42
0.0
 10
23331.84237948251
 20
-12626.03716243101
 42
0.080767359822281
 97
        0
 75
     0
 76
     1
 98
        0
  0
LWPOLYLINE
  5
28C
330
1F
100
AcDbEntity
  8
Ech.1_5
  6
Continuous
 62
   190
370
    15
390
5F
100
AcDbPolyline
 90
        5
 70
     0
 43
0.0
 10
23271.84633956375
 20
-12625.86143672299
 10
23271.84633956375
 20
-12728.17395670096
 10
23331.84237948251
 20
-12728.17395670096
 10
23331.84237948251
 20
-12626.03716243101
 42
0.0807673598222823
 10
23271.84633956375
 20
-12625.86143672299
  0
LWPOLYLINE
  5
28D
330
1F
100
AcDbEntity
  8
Ech.1_5
  6
Continuous
 62
   190
370
    15
390
5F
100
AcDbPolyline
 90
        3
 70
     0
 43
0.0
 10
23480.10315196269
 20
-12755.95194453219
 10
23472.17422182225
 20
-12785.582631179
 42
0.7055598562321747
 10
23487.68500364905
 20
-12796.2786152228
  0
LWPOLYLINE
  5
28E
330
1F
100
AcDbEntity
  8
Ech.1_5
  6
CADWORK_22
 62
     1
 48
0.6
370
    35
390
5F
100
AcDbPolyline
 90
        2
 70
   128
 43
0.0
 10
23116.34627873093
 20
-12783.44055460039
 10
23116.34627873093
 20
-12837.44784376349
  0
LWPOLYLINE
  5
28F
330
1F
100
AcDbEntity
  8
Ech.1_5
  6
Continuous
 62
   190
370
    15
390
5F
100
AcDbPolyline
 90
        3
 70
     0
 43
0.0
 10
23217.84627873712
 20
-12907.1699966126
 10
23240.34627873535
 20
-12817.16999661739
 10
23262.84627873231
 20
-12907.16999661237
  0
LWPOLYLINE
  5
290
330
1F
100
AcDbEntity
  8
Ech.1_5
  6
Continuous
 62
   190
370
    15
390
5F
100
AcDbPolyline
 90
        3
 70
     0
 43
0.0
 10
23262.84627873604
 20
-12727.16999661237
 10
23217.84627873596
 20
-12727.16999661266
 10
23240.34627873535
 20
-12817.16999661739
  0
LINE
  5
291
330
1F
100
AcDbEntity
  8
Ech.1_5
  6
Continuous
 62
   190
370
    15
390
5F
100
AcDbLine
 10
23240.34627873535
 20
-12817.16999661739
 30
0.0
 11
23262.84627873604
 21
-12727.16999661237
 31
0.0
  0
LWPOLYLINE
  5
292
330
1F
100
AcDbEntity
  8
Ech.1_5
  6
Continuous
 62
     5
370
    40
390
5F
100
AcDbPolyline
 90
        4
 70
     0
 43
0.0
 10
23262.84627873596
 20
-12727.16999661237
 10
23262.84627873693
 20
-12907.16999661237
 10
23217.84627873693
 20
-12907.16999661266
 10
23217.84627873596
 20
-12727.16999661266
  0
LINE
  5
293
330
1F
100
AcDbEntity
  8
Ech.1_5
  6
Continuous
 62
     5
370
    40
390
5F
100
AcDbLine
 10
23217.84627873596
 20
-12727.16999661266
 30
0.0
 11
23262.84627873596
 21
-12727.16999661237
 31
0.0
  0
LWPOLYLINE
  5
294
330
1F
100
AcDbEntity
  8
Ech.1_5
  6
Continuous
 62
   190
370
    15
390
5F
100
AcDbPolyline
 90
        3
 70
     0
 43
0.0
 10
23164.4109520763
 20
-12937.71889109255
 10
23190.34627873256
 20
-12929.66999661284
 10
23147.24395183413
 20
-12916.29341240327
  0
LWPOLYLINE
  5
295
330
1F
100
AcDbEntity
  8
Ech.1_5
  6
Continuous
 62
     5
370
    40
390
5F
100
AcDbPolyline
 90
        4
 70
     0
 43
0.0
 10
23141.35815072357
 20
-12907.1699966132
 10
23262.84627873231
 20
-12907.16999661237
 10
23262.84627873261
 20
-12952.16999661237
 10
23179.43377566357
 20
-12952.16999661294
  0
LINE
  5
296
330
1F
100
AcDbEntity
  8
Ech.1_5
  6
Continuous
 62
     5
370
    40
390
5F
100
AcDbLine
 10
23406.85155348176
 20
-12738.16710833491
 30
0.0
 11
23331.84627873582
 21
-12738.16446722172
 31
0.0
  0
LINE
  5
297
330
1F
100
AcDbEntity
  8
Ech.1_5
  6
Continuous
 62
     5
370
    40
390
5F
100
AcDbLine
 10
23331.84694880251
 20
-12713.13517274488
 30
0.0
 11
23331.84694880201
 21
-12638.12989795244
 31
0.0
  0
LWPOLYLINE
  5
298
330
1F
100
AcDbEntity
  8
Ech.1_5
  6
Continuous
 62
     5
370
    40
390
5F
100
AcDbPolyline
 90
        4
 70
     0
 43
0.0
 10
23165.34708515986
 20
-12682.16999661304
 10
23262.84627873575
 20
-12682.16999661237
 10
23262.84627873604
 20
-12727.16999661237
 10
23133.9601562568
 20
-12727.16999661325
  0
HATCH
  5
299
330
1F
100
AcDbEntity
  8
Ech.1_5
  6
Continuous
 62
    40
420
 16297258
440
 33554687
370
     5
390
5F
100
AcDbHatch
 10
0.0
 20
0.0
 30
0.0
210
0.0
220
0.0
230
1.0
  2
SOLID
 70
     1
 71
     0
 91
        1
 92
        3
 72
     0
 73
     1
 93
        4
 10
23487.81963367629
 20
-12798.17795771674
 10
23281.84627873485
 20
-12798.17036521969
 10
23281.84627873485
 20
-12807.17036522787
 10
23488.19400516065
 20
-12807.17797152482
 97
        0
 75
     0
 76
     1
 98
        0
  0
HATCH
  5
29A
330
1F
100
AcDbEntity
  8
Ech.1_5
  6
Continuous
 62
   190
440
 33554687
370
    15
390
5F
100
AcDbHatch
 10
0.0
 20
0.0
 30
0.0
210
0.0
220
0.0
230
1.0
  2
CwHatchPattern_74
 70
     0
 71
     0
 91
        1
 92
        3
 72
     0
 73
     1
 93
        4
 10
23487.81963367629
 20
-12798.17795771674
 10
23281.84627873485
 20
-12798.17036521969
 10
23281.84627873485
 20
-12807.17036522787
 10
23488.19400516065
 20
-12807.17797152482
 97
        0
 75
     0
 76
     2
 52
0.0
 41
0.6000000238418579
 77
     0
 78
     3
 53
45.00000000000297
 43
0.0
 44
0.0
 45
-0.0000000000043443
 46
42.00000166893005
 79
     0
 53
45.00000000000297
 43
0.0
 44
10.80000042915344
 45
-0.0000000000043443
 46
42.00000166893005
 79
     0
 53
45.00000000000297
 43
0.0
 44
21.60000085830688
 45
-0.0000000000043443
 46
42.00000166893005
 79
     0
 98
        0
1001
ACAD
1010
0.0
1020
0.0
1030
0.0
  0
LWPOLYLINE
  5
29B
330
1F
100
AcDbEntity
  8
Ech.1_5
  6
Continuous
 62
   190
370
    15
390
5F
100
AcDbPolyline
 90
        5
 70
     0
 43
0.0
 10
23487.81963367629
 20
-12798.17795771674
 10
23281.84627873485
 20
-12798.17036521969
 10
23281.84627873485
 20
-12807.17036522787
 10
23488.19400516065
 20
-12807.17797152482
 10
23487.81963367629
 20
-12798.17795771674
  0
HATCH
  5
29C
330
1F
100
AcDbEntity
  8
Ech.1_5
  6
Continuous
 62
    40
420
 16297258
440
 33554687
370
     5
390
5F
100
AcDbHatch
 10
0.0
 20
0.0
 30
0.0
210
0.0
220
0.0
230
1.0
  2
SOLID
 70
     1
 71
     0
 91
        1
 92
        3
 72
     1
 73
     1
 93
        4
 10
23271.84627873625
 20
-12952.16999661231
 42
0.0
 10
23271.84627873454
 20
-12625.86144643076
 42
0.0122429865604191
 10
23262.84627873455
 20
-12627.52467056334
 42
0.0
 10
23262.84627873625
 20
-12952.16999661237
 42
0.0
 97
        0
 75
     0
 76
     1
 98
        0
  0
HATCH
  5
29D
330
1F
100
AcDbEntity
  8
Ech.1_5
  6
Continuous
 62
   190
440
 33554687
370
    15
390
5F
100
AcDbHatch
 10
0.0
 20
0.0
 30
0.0
210
0.0
220
0.0
230
1.0
  2
CwHatchPattern_74
 70
     0
 71
     0
 91
        1
 92
        3
 72
     1
 73
     1
 93
        4
 10
23271.84627873625
 20
-12952.16999661231
 42
0.0
 10
23271.84627873454
 20
-12625.86144643076
 42
0.0122429865604191
 10
23262.84627873455
 20
-12627.52467056334
 42
0.0
 10
23262.84627873625
 20
-12952.16999661237
 42
0.0
 97
        0
 75
     0
 76
     2
 52
0.0
 41
0.6000000238418579
 77
     0
 78
     3
 53
45.00000000000297
 43
0.0
 44
0.0
 45
-0.0000000000043443
 46
42.00000166893005
 79
     0
 53
45.00000000000297
 43
0.0
 44
10.80000042915344
 45
-0.0000000000043443
 46
42.00000166893005
 79
     0
 53
45.00000000000297
 43
0.0
 44
21.60000085830688
 45
-0.0000000000043443
 46
42.00000166893005
 79
     0
 98
        0
1001
ACAD
1010
0.0
1020
0.0
1030
0.0
  0
LWPOLYLINE
  5
29E
330
1F
100
AcDbEntity
  8
Ech.1_5
  6
Continuous
 62
   190
370
    15
390
5F
100
AcDbPolyline
 90
        5
 70
     0
 43
0.0
 10
23271.84627873625
 20
-12952.16999661231
 10
23271.84627873454
 20
-12625.86144643076
 42
0.0122429865603473
 10
23262.84627873455
 20
-12627.52467056334
 10
23262.84627873625
 20
-12952.16999661237
 10
23271.84627873625
 20
-12952.16999661231
  0
HATCH
  5
29F
330
1F
100
AcDbEntity
  8
Ech.1_5
  6
Continuous
 62
   254
420
 15656413
440
 33554687
370
    20
390
5F
100
AcDbHatch
 10
0.0
 20
0.0
 30
0.0
210
0.0
220
0.0
230
1.0
  2
SOLID
 70
     1
 71
     0
 91
        1
 92
        1
 93
        2
 72
     1
 10
23117.84627873455
 20
-12846.24671211821
 11
23117.84627873429
 21
-12774.64168624698
 72
     2
 10
23301.30398224319
 20
-12810.44419918194
 40
186.9185622382572
 50
168.9572884311761
 51
191.0427115692315
 73
     1
 97
        0
 75
     0
 76
     1
 98
        0
  0
LWPOLYLINE
  5
2A0
330
1F
100
AcDbEntity
  8
Ech.1_5
  6
Continuous
 62
   190
370
    15
390
5F
100
AcDbPolyline
 90
        3
 70
     0
 43
0.0
 10
23117.84627873455
 20
-12846.24671211821
 10
23117.84627873429
 20
-12774.64168624698
 42
0.0966652462554687
 10
23117.84627873455
 20
-12846.24671211821
  0
HATCH
  5
2A1
330
1F
100
AcDbEntity
  8
Ech.1_5
  6
Continuous
 62
   254
420
 14407639
440
 33554687
370
     5
390
5F
100
AcDbHatch
 10
0.0
 20
0.0
 30
0.0
210
0.0
220
0.0
230
1.0
  2
SOLID
 70
     1
 71
     0
 91
        1
 92
        1
 93
        2
 72
     2
 10
23301.30398224316
 20
-12810.44419918193
 40
186.9185622382358
 50
256.4711238443871
 51
283.5263140030674
 73
     1
 72
     1
 10
23345.02272283699
 20
-12992.17812730241
 11
23257.57711491564
 21
-12992.17617210616
 97
        0
 75
     0
 76
     1
 98
        0
  0
HATCH
  5
2A2
330
1F
100
AcDbEntity
  8
Ech.1_5
  6
Continuous
 62
   190
440
 33554687
370
    15
390
23B
100
AcDbHatch
 10
0.0
 20
0.0
 30
0.0
210
0.0
220
0.0
230
1.0
  2
CwHatchPattern_84
 70
     0
 71
     0
 91
        1
 92
        1
 93
        2
 72
     2
 10
23301.30398224316
 20
-12810.44419918193
 40
186.9185622382358
 50
256.4711238443871
 51
283.5263140030674
 73
     1
 72
     1
 10
23345.02272283699
 20
-12992.17812730241
 11
23257.57711491564
 21
-12992.17617210616
 97
        0
 75
     0
 76
     2
 52
0.0
 41
1.0
 77
     0
 78
     2
 53
0.0
 43
0.0
 44
0.0
 45
0.0
 46
70.0
 79
     2
 49
0.0
 49
-70.0
 53
0.0
 43
35.0
 44
35.0
 45
0.0
 46
70.0
 79
     2
 49
0.0
 49
-70.0
 98
        0
1001
ACAD
1010
0.0
1020
0.0
1030
0.0
  0
LWPOLYLINE
  5
2A3
330
1F
100
AcDbEntity
  8
Ech.1_5
  6
Continuous
 62
   190
370
    15
390
5F
100
AcDbPolyline
 90
        3
 70
     0
 43
0.0
 10
23257.57711491564
 20
-12992.17617210616
 42
0.1186019925398017
 10
23345.02272283699
 20
-12992.17812730241
 10
23257.57711491564
 20
-12992.17617210616
  0
LWPOLYLINE
  5
2A4
330
1F
100
AcDbEntity
  8
Ech.1_5
  6
Continuous
 62
   190
370
    15
390
5F
100
AcDbPolyline
 90
        6
 70
     0
 43
0.0
 10
23445.16235396149
 20
-12921.75398063131
 10
23467.68486511709
 20
-12837.59628351046
 42
1.303226186854446
 10
23420.99773962309
 20
-12837.59493876256
 10
23443.51540268593
 20
-12921.75393319353
 42
-0.0967244998279599
 10
23444.1533581162
 20
-12930.99545268802
 10
23444.4788694174
 20
-12930.60867226717
  0
ARC
  5
2A5
330
1F
100
AcDbEntity
  8
Ech.1_5
  6
Continuous
 62
   190
370
    15
390
5F
100
AcDbCircle
 10
23468.50573654606
 20
-12928.00955688686
 30
0.0
 40
24.1670383948591
100
AcDbArc
 50
164.9983151185259
 51
186.1739846964606
  0
LWPOLYLINE
  5
2A6
330
1F
100
AcDbEntity
  8
Ech.1_5
  6
Continuous
 62
   190
370
    15
390
5F
100
AcDbPolyline
 90
        4
 70
     0
 43
0.0
 10
23423.42323390368
 20
-12951.95546121816
 42
-0.5358248185705925
 10
23396.82827719192
 20
-12921.75258844563
 10
23419.35078834752
 20
-12837.59489132477
 42
0.6204981523882441
 10
23386.84627873524
 20
-12808.97596343408
  0
LWPOLYLINE
  5
2A7
330
1F
100
AcDbEntity
  8
Ech.1_5
  6
Continuous
 62
   190
370
    15
390
5F
100
AcDbPolyline
 90
        3
 70
     0
 43
0.0
 10
23386.84627873524
 20
-12890.60058765727
 10
23395.18132591636
 20
-12921.75254100784
 42
-0.2990932153049656
 10
23386.84627873524
 20
-12946.94838800391
  0
LWPOLYLINE
  5
2A8
330
1F
100
AcDbEntity
  8
Ech.1_5
  6
Continuous
 62
   190
370
    15
390
5F
100
AcDbPolyline
 90
        3
 70
     0
 43
0.0
 10
23488.20079674202
 20
-12807.59294693346
 42
0.4365148658163274
 10
23469.33181639266
 20
-12837.59633094825
 10
23478.2132472245
 20
-12870.79037447889
  0
LWPOLYLINE
  5
2A9
330
1F
100
AcDbEntity
  8
Ech.1_5
  6
Continuous
 62
   190
370
    15
390
5F
100
AcDbPolyline
 90
        4
 70
     0
 43
0.0
 10
23201.17961207028
 20
-12907.16999661275
 42
1.140281805119492
 10
23196.8659516055
 20
-12874.4045687772
 10
23138.82660586817
 20
-12889.9354244487
 42
-0.0985988575547001
 10
23132.3304850137
 20
-12890.35981807618
  0
LWPOLYLINE
  5
2AA
330
1F
100
AcDbEntity
  8
Ech.1_5
  6
Continuous
 62
   190
370
    15
390
5F
100
AcDbPolyline
 90
       14
 70
     0
 43
0.0
 10
23121.90680888872
 20
-12862.93422777444
 42
-0.287430675187147
 10
23138.826605868
 20
-12857.73790211086
 10
23196.8659516055
 20
-12873.26875778173
 42
1.303226186855425
 10
23196.86595160533
 20
-12841.07123544392
 10
23138.82660586799
 20
-12856.60209111539
 42
-1.303226186854247
 10
23138.82660586782
 20
-12824.40456877755
 10
23196.86595160532
 20
-12839.93542444841
 42
1.303226186855425
 10
23196.86595160514
 20
-12807.7379021106
 10
23138.82660586781
 20
-12823.26875778208
 42
-1.303226186855425
 10
23138.82660586763
 20
-12791.07123544427
 10
23196.86595160514
 20
-12806.6020911151
 42
1.303226186856603
 10
23196.86595160496
 20
-12774.40456877732
 10
23138.82660586763
 20
-12789.93542444876
 42
-0.4797041758654547
 10
23117.86202923662
 20
-12774.56107241807
  0
LWPOLYLINE
  5
2AB
330
1F
100
AcDbEntity
  8
Ech.1_5
  6
Continuous
 62
   190
370
    15
390
5F
100
AcDbPolyline
 90
        6
 70
     0
 43
0.0
 10
23119.69589592922
 20
-12766.20561992587
 42
-0.3528951725323973
 10
23138.82660586746
 20
-12757.73790211095
 10
23196.86595160496
 20
-12773.26875778179
 42
1.303226186857055
 10
23196.86595160478
 20
-12741.071235444
 10
23138.82660586745
 20
-12756.60209111545
 42
-0.2522017436417852
 10
23123.44324291043
 20
-12752.96284295908
  0
ARC
  5
2AC
330
1F
100
AcDbEntity
  8
Ech.1_5
  6
Continuous
 62
   190
370
    15
390
5F
100
AcDbCircle
 10
23238.67961206892
 20
-12658.00332994587
 30
0.0
 40
24.16666666667074
100
AcDbArc
 50
270.0000000003967
 51
86.91650886629562
  0
ARC
  5
2AD
330
1F
100
AcDbEntity
  8
Ech.1_5
  6
Continuous
 62
   190
370
    15
390
5F
100
AcDbCircle
 10
23238.6796120686
 20
-12609.66999661255
 30
0.0
 40
24.16666666665887
100
AcDbArc
 50
273.6613427986248
 51
300.9855643761525
  0
LINE
  5
2AE
330
1F
100
AcDbEntity
  8
Ech.1_5
  6
Continuous
 62
   190
370
    15
390
5F
100
AcDbLine
 10
23240.22287134391
 20
-12633.78733743998
 30
0.0
 11
23239.97956361132
 21
-12633.87165151761
 31
0.0
  0
HATCH
  5
2AF
330
1F
100
AcDbEntity
  8
Ech.1_5
  6
Continuous
 62
   254
420
 16643007
440
 33554687
370
    20
390
5F
100
AcDbHatch
 10
0.0
 20
0.0
 30
0.0
210
0.0
220
0.0
230
1.0
  2
SOLID
 70
     1
 71
     0
 91
        1
 92
        3
 72
     1
 73
     1
 93
        4
 10
23473.68600265407
 20
-12738.17395670096
 42
0.0
 10
23386.84237948186
 20
-12738.17395670096
 42
0.0
 10
23386.84237948186
 20
-12798.16999661976
 42
0.0
 10
23487.81910994242
 20
-12798.16999661976
 42
0.0830079705677181
 97
        0
 75
     0
 76
     1
 98
        0
  0
LWPOLYLINE
  5
2B0
330
1F
100
AcDbEntity
  8
Ech.1_5
  6
Continuous
 62
   190
370
    15
390
5F
100
AcDbPolyline
 90
        5
 70
     0
 43
0.0
 10
23473.68600265407
 20
-12738.17395670096
 10
23386.84237948186
 20
-12738.17395670096
 10
23386.84237948186
 20
-12798.16999661976
 10
23487.81910994242
 20
-12798.16999661976
 42
0.0830079705677759
 10
23473.68600265407
 20
-12738.17395670096
  0
HATCH
  5
2B1
330
1F
100
AcDbEntity
  8
Ech.1_5
  6
Continuous
 62
   254
420
 13882323
440
 33554687
370
    20
390
5F
100
AcDbHatch
 10
0.0
 20
0.0
 30
0.0
210
0.0
220
0.0
230
1.0
  2
SOLID
 70
     1
 71
     0
 91
        1
 92
        3
 72
     1
 73
     1
 93
        4
 10
23459.68315909888
 20
-12711.17393551899
 42
0.0436715647091343
 10
23440.0336110155
 20
-12685.17393531259
 42
0.0
 10
23360.64895705885
 20
-12685.17393528057
 42
0.0
 10
23360.64895705883
 20
-12711.17393551899
 42
0.0
 97
        0
 75
     0
 76
     1
 98
        0
  0
LWPOLYLINE
  5
2B2
330
1F
100
AcDbEntity
  8
Ech.1_5
  6
Continuous
 62
     7
370
    20
390
5F
100
AcDbPolyline
 90
        5
 70
     0
 43
0.0
 10
23459.68315909888
 20
-12711.17393551899
 42
0.0436715647090456
 10
23440.0336110155
 20
-12685.17393531259
 10
23360.64895705885
 20
-12685.17393528057
 10
23360.64895705883
 20
-12711.17393551899
 10
23459.68315909888
 20
-12711.17393551899
  0
HATCH
  5
2B3
330
1F
100
AcDbEntity
  8
Ech.1_5
  6
Continuous
 62
    33
420
 12426362
440
 33554687
370
    20
390
5F
100
AcDbHatch
 10
0.0
 20
0.0
 30
0.0
210
0.0
220
0.0
230
1.0
  2
SOLID
 70
     1
 71
     0
 91
        1
 92
        3
 72
     1
 73
     1
 93
        4
 10
23262.84627873604
 20
-12727.16999661237
 42
0.0
 10
23262.84627873575
 20
-12682.16999661237
 42
0.0
 10
23165.34708515986
 20
-12682.16999661304
 42
0.0737799809635321
 10
23133.9601562568
 20
-12727.16999661325
 42
0.0
 97
        0
 75
     0
 76
     1
 98
        0
  0
LWPOLYLINE
  5
2B4
330
1F
100
AcDbEntity
  8
Ech.1_5
  6
Continuous
 62
     7
370
    20
390
5F
100
AcDbPolyline
 90
        5
 70
     0
 43
0.0
 10
23262.84627873604
 20
-12727.16999661237
 10
23262.84627873575
 20
-12682.16999661237
 10
23165.34708515986
 20
-12682.16999661304
 42
0.0737799809634768
 10
23133.9601562568
 20
-12727.16999661325
 10
23262.84627873604
 20
-12727.16999661237
  0
LWPOLYLINE
  5
2B5
330
1F
100
AcDbEntity
  8
Ech.1_5
  6
Continuous
 62
   190
370
    15
390
5F
100
AcDbPolyline
 90
        3
 70
     0
 43
0.0
 10
23262.84627873604
 20
-12727.16999661237
 10
23190.34627873599
 20
-12704.66999661284
 10
23262.84627873575
 20
-12682.16999661237
  0
LWPOLYLINE
  5
2B6
330
1F
100
AcDbEntity
  8
Ech.1_5
  6
Continuous
 62
   190
370
    15
390
5F
100
AcDbPolyline
 90
        3
 70
     0
 43
0.0
 10
23137.06290565364
 20
-12721.20621584569
 10
23190.34627873599
 20
-12704.66999661284
 10
23155.26154332185
 20
-12693.78163045006
  0
LWPOLYLINE
  5
2B7
330
1F
100
AcDbEntity
  8
Ech.1_5
  6
Continuous
 62
   190
370
    15
390
5F
100
AcDbPolyline
 90
       20
 70
     0
 43
0.0
 10
23272.88460460952
 20
-12625.69873135087
 42
0.6453293274817077
 10
23284.43370500451
 20
-12639.79423412732
 10
23319.25501404176
 20
-12630.47633575911
 42
-1.303226186856433
 10
23319.25501404176
 20
-12649.79357411376
 10
23284.43370500451
 20
-12640.47567574559
 42
1.303226186856432
 10
23284.43370500451
 20
-12659.79291410024
 10
23319.25501404176
 20
-12650.47501573204
 42
-1.303226186854469
 10
23319.25501404176
 20
-12669.79225408671
 10
23284.43370500451
 20
-12660.47435571848
 42
1.303226186856432
 10
23284.43370500451
 20
-12679.79159407313
 10
23319.25501404176
 20
-12670.47369570496
 42
-1.303226186856433
 10
23319.25501404176
 20
-12689.79093405961
 10
23284.43370500451
 20
-12680.47303569141
 42
1.303226186854469
 10
23284.43370500451
 20
-12699.79027404608
 10
23319.25501404176
 20
-12690.47237567785
 42
-1.303226186854469
 10
23319.25501404176
 20
-12709.78961403253
 10
23284.43370500451
 20
-12700.47171566433
 42
1.303226186856432
 10
23284.43370500451
 20
-12719.78895401898
 10
23319.25501404176
 20
-12710.47105565081
 42
-0.8284501947455136
 10
23327.78242745403
 20
-12728.17395670096
  0
LWPOLYLINE
  5
2B8
330
1F
100
AcDbEntity
  8
Ech.1_5
  6
Continuous
 62
   190
370
    15
390
5F
100
AcDbPolyline
 90
        3
 70
     0
 43
0.0
 10
23313.22217960327
 20
-12728.17395670096
 10
23284.43370500451
 20
-12720.47039563725
 42
0.4333863851796029
 10
23272.03932712246
 20
-12728.17395670096
  0
LWPOLYLINE
  5
2B9
330
1F
100
AcDbEntity
  8
Ech.1_5
  6
Continuous
 62
   190
370
    15
390
5F
100
AcDbPolyline
 90
       18
 70
     0
 43
0.0
 10
23386.84237948186
 20
-12739.51172807542
 42
-0.6680423978627327
 10
23401.49740029876
 20
-12750.76132214176
 10
23392.17950193056
 20
-12785.582631179
 42
1.303226186855451
 10
23411.49674028522
 20
-12785.582631179
 10
23402.17884191702
 20
-12750.76132214176
 42
-1.303226186855451
 10
23421.49608027169
 20
-12750.76132214176
 10
23412.17818190348
 20
-12785.582631179
 42
1.303226186855451
 10
23431.49542025815
 20
-12785.582631179
 10
23422.17752188995
 20
-12750.76132214176
 42
-1.303226186855451
 10
23441.49476024461
 20
-12750.76132214176
 10
23432.17686187641
 20
-12785.582631179
 42
1.303226186855451
 10
23451.49410023107
 20
-12785.582631179
 10
23442.17620186287
 20
-12750.76132214176
 42
-1.303226186855451
 10
23461.49344021753
 20
-12750.76132214176
 10
23452.17554184933
 20
-12785.582631179
 42
1.303226186855451
 10
23471.49278020399
 20
-12785.582631179
 10
23462.17488183579
 20
-12750.76132214176
 42
-0.5550872666291075
 10
23473.76481905959
 20
-12738.36224114953
  0
LWPOLYLINE
  5
2BA
330
1F
100
AcDbEntity
  8
Ech.1_5
  6
Continuous
 62
   190
370
    15
390
5F
100
AcDbPolyline
 90
        3
 70
     0
 43
0.0
 10
23386.84237948186
 20
-12796.82845127524
 42
0.3393491909907426
 10
23391.4980603123
 20
-12785.582631179
 10
23386.84237948186
 20
-12768.18419061126
  0
LWPOLYLINE
  5
2BB
330
1F
100
AcDbEntity
  8
Ech.1_5
 62
   190
370
    15
390
5F
100
AcDbPolyline
 90
        5
 70
     0
 43
0.0
 10
23461.58946877268
 20
-12614.83570435709
 10
23596.01824775863
 20
-12614.83570435709
 10
23596.01824775863
 20
-12671.55866316894
 10
23461.58946877268
 20
-12671.55866316894
 10
23461.58946877268
 20
-12614.83570435709
  0
HATCH
  5
2BC
330
1F
100
AcDbEntity
  8
Ech.1_5
  6
Continuous
 62
   190
440
 33554687
370
    15
390
5F
100
AcDbHatch
 10
0.0
 20
0.0
 30
0.0
210
0.0
220
0.0
230
1.0
  2
SOLID
 70
     1
 71
     0
 91
        1
 92
        3
 72
     0
 73
     1
 93
        4
 10
23479.86951455799
 20
-12648.49251548604
 10
23529.86951455799
 20
-12648.49251548604
 10
23529.86951455799
 20
-12641.07737795213
 10
23479.86951455799
 20
-12641.07737795213
 97
        0
 75
     0
 76
     1
 98
        0
  0
HATCH
  5
2BD
330
1F
100
AcDbEntity
  8
Ech.1_5
  6
Continuous
 62
    33
420
 12426362
440
 33554687
370
     5
390
5F
100
AcDbHatch
 10
0.0
 20
0.0
 30
0.0
210
0.0
220
0.0
230
1.0
  2
SOLID
 70
     1
 71
     0
 91
        1
 92
        3
 72
     0
 73
     1
 93
        4
 10
23271.84633956376
 20
-12728.17395670096
 10
23271.84633956376
 20
-12788.16999661976
 10
23331.84237948256
 20
-12788.16999661976
 10
23331.84237948256
 20
-12728.17395670096
 97
        0
 75
     0
 76
     1
 98
        0
  0
LINE
  5
2BE
330
1F
100
AcDbEntity
  8
Ech.1_5
  6
Continuous
 62
   190
370
    15
390
5F
100
AcDbLine
 10
23271.84633956376
 20
-12788.16999661976
 30
0.0
 11
23331.84237948256
 21
-12728.17395670096
 31
0.0
  0
LINE
  5
2BF
330
1F
100
AcDbEntity
  8
Ech.1_5
  6
Continuous
 62
   190
370
    15
390
5F
100
AcDbLine
 10
23331.84237948256
 20
-12788.16999661976
 30
0.0
 11
23271.84633956376
 21
-12728.17395670096
 31
0.0
  0
LWPOLYLINE
  5
2C0
330
1F
100
AcDbEntity
  8
Ech.1_5
  6
Continuous
 62
     5
370
    40
390
5F
100
AcDbPolyline
 90
        5
 70
     0
 43
0.0
 10
23271.84633956376
 20
-12728.17395670096
 10
23271.84633956376
 20
-12788.16999661976
 10
23331.84237948256
 20
-12788.16999661976
 10
23331.84237948256
 20
-12728.17395670096
 10
23271.84633956376
 20
-12728.17395670096
  0
HATCH
  5
2C1
330
1F
100
AcDbEntity
  8
Ech.1_5
  6
Continuous
 62
    33
420
 12426362
440
 33554687
370
     5
390
5F
100
AcDbHatch
 10
0.0
 20
0.0
 30
0.0
210
0.0
220
0.0
230
1.0
  2
SOLID
 70
     1
 71
     0
 91
        1
 92
        3
 72
     0
 73
     1
 93
        4
 10
23271.84633956376
 20
-12728.17395670096
 10
23271.84633956376
 20
-12788.16999661976
 10
23331.84237948256
 20
-12788.16999661976
 10
23331.84237948256
 20
-12728.17395670096
 97
        0
 75
     0
 76
     1
 98
        0
  0
LINE
  5
2C2
330
1F
100
AcDbEntity
  8
Ech.1_5
  6
Continuous
 62
   190
370
    15
390
5F
100
AcDbLine
 10
23271.84633956376
 20
-12788.16999661976
 30
0.0
 11
23331.84237948256
 21
-12728.17395670096
 31
0.0
  0
LINE
  5
2C3
330
1F
100
AcDbEntity
  8
Ech.1_5
  6
Continuous
 62
   190
370
    15
390
5F
100
AcDbLine
 10
23331.84237948256
 20
-12788.16999661976
 30
0.0
 11
23271.84633956376
 21
-12728.17395670096
 31
0.0
  0
LWPOLYLINE
  5
2C4
330
1F
100
AcDbEntity
  8
Ech.1_5
  6
Continuous
 62
     5
370
    40
390
5F
100
AcDbPolyline
 90
        5
 70
     0
 43
0.0
 10
23271.84633956376
 20
-12728.17395670096
 10
23271.84633956376
 20
-12788.16999661976
 10
23331.84237948256
 20
-12788.16999661976
 10
23331.84237948256
 20
-12728.17395670096
 10
23271.84633956376
 20
-12728.17395670096
  0
HATCH
  5
2C5
330
1F
100
AcDbEntity
  8
Ech.1_5
  6
Continuous
 62
    33
420
 12426362
440
 33554687
370
     5
390
5F
100
AcDbHatch
 10
0.0
 20
0.0
 30
0.0
210
0.0
220
0.0
230
1.0
  2
SOLID
 70
     1
 71
     0
 91
        1
 92
        3
 72
     0
 73
     1
 93
        4
 10
23281.8462787345
 20
-12807.16999661229
 10
23281.84627873489
 20
-12879.67017958556
 10
23341.84627873505
 20
-12879.67100897025
 10
23341.84627873466
 20
-12807.16999661194
 97
        0
 75
     0
 76
     1
 98
        0
  0
LINE
  5
2C6
330
1F
100
AcDbEntity
  8
Ech.1_5
  6
Continuous
 62
   190
370
    15
390
5F
100
AcDbLine
 10
23281.84627873489
 20
-12879.67017958556
 30
0.0
 11
23341.84627873466
 21
-12807.16999661194
 31
0.0
  0
LINE
  5
2C7
330
1F
100
AcDbEntity
  8
Ech.1_5
  6
Continuous
 62
   190
370
    15
390
5F
100
AcDbLine
 10
23341.84627873505
 20
-12879.67100897025
 30
0.0
 11
23281.8462787345
 21
-12807.16999661229
 31
0.0
  0
LWPOLYLINE
  5
2C8
330
1F
100
AcDbEntity
  8
Ech.1_5
  6
Continuous
 62
     5
370
    40
390
5F
100
AcDbPolyline
 90
        5
 70
     0
 43
0.0
 10
23281.8462787345
 20
-12807.16999661229
 10
23281.84627873489
 20
-12879.67017958556
 10
23341.84627873505
 20
-12879.67100897025
 10
23341.84627873466
 20
-12807.16999661194
 10
23281.8462787345
 20
-12807.16999661229
  0
HATCH
  5
2C9
330
1F
100
AcDbEntity
  8
Ech.1_5
  6
Continuous
 62
    33
420
 12426362
440
 33554687
370
     5
390
5F
100
AcDbHatch
 10
0.0
 20
0.0
 30
0.0
210
0.0
220
0.0
230
1.0
  2
SOLID
 70
     1
 71
     0
 91
        1
 92
        3
 72
     0
 73
     1
 93
        4
 10
23271.84627873587
 20
-12879.66999527785
 10
23271.84627873626
 20
-12952.17017825112
 10
23331.84627873626
 20
-12952.17100763581
 10
23331.84627873587
 20
-12879.6699952775
 97
        0
 75
     0
 76
     1
 98
        0
  0
LINE
  5
2CA
330
1F
100
AcDbEntity
  8
Ech.1_5
  6
Continuous
 62
   190
370
    15
390
5F
100
AcDbLine
 10
23271.84627873626
 20
-12952.17017825112
 30
0.0
 11
23331.84627873587
 21
-12879.6699952775
 31
0.0
  0
LINE
  5
2CB
330
1F
100
AcDbEntity
  8
Ech.1_5
  6
Continuous
 62
   190
370
    15
390
5F
100
AcDbLine
 10
23331.84627873626
 20
-12952.17100763581
 30
0.0
 11
23271.84627873587
 21
-12879.66999527785
 31
0.0
  0
LWPOLYLINE
  5
2CC
330
1F
100
AcDbEntity
  8
Ech.1_5
  6
Continuous
 62
     5
370
    40
390
5F
100
AcDbPolyline
 90
        5
 70
     0
 43
0.0
 10
23271.84627873587
 20
-12879.66999527785
 10
23271.84627873626
 20
-12952.17017825112
 10
23331.84627873626
 20
-12952.17100763581
 10
23331.84627873587
 20
-12879.6699952775
 10
23271.84627873587
 20
-12879.66999527785
  0
HATCH
  5
2CD
330
1F
100
AcDbEntity
  8
Ech.1_5
  6
Continuous
 62
   254
420
 13882323
440
 33554687
370
     5
390
5F
100
AcDbHatch
 10
0.0
 20
0.0
 30
0.0
210
0.0
220
0.0
230
1.0
  2
SOLID
 70
     1
 71
     0
 91
        1
 92
        3
 72
     0
 73
     1
 93
        4
 10
23341.84627873599
 20
-12932.16935988468
 10
23341.84627873599
 20
-12883.98976360637
 10
23331.84627873626
 20
-12883.98976360637
 10
23331.84627873626
 20
-12932.16935988468
 97
        0
 75
     0
 76
     1
 98
        0
  0
LINE
  5
2CE
330
1F
100
AcDbEntity
  8
Ech.1_5
  6
Continuous
 62
   190
370
    15
390
5F
100
AcDbLine
 10
23341.84627873599
 20
-12883.98976360637
 30
0.0
 11
23331.84627873626
 21
-12932.16935988468
 31
0.0
  0
LINE
  5
2CF
330
1F
100
AcDbEntity
  8
Ech.1_5
  6
Continuous
 62
   190
370
    15
390
5F
100
AcDbLine
 10
23331.84627873626
 20
-12883.98976360637
 30
0.0
 11
23341.84627873599
 21
-12932.16935988468
 31
0.0
  0
LWPOLYLINE
  5
2D0
330
1F
100
AcDbEntity
  8
Ech.1_5
  6
Continuous
 62
   190
370
    20
390
5F
100
AcDbPolyline
 90
        5
 70
     0
 43
0.0
 10
23341.84627873599
 20
-12932.16935988468
 10
23341.84627873599
 20
-12883.98976360637
 10
23331.84627873626
 20
-12883.98976360637
 10
23331.84627873626
 20
-12932.16935988468
 10
23341.84627873599
 20
-12932.16935988468
  0
HATCH
  5
2D1
330
1F
100
AcDbEntity
  8
Ech.1_5
  6
Continuous
 62
     2
440
 33554687
370
     5
390
5F
100
AcDbHatch
 10
0.0
 20
0.0
 30
0.0
210
0.0
220
0.0
230
1.0
  2
SOLID
 70
     1
 71
     0
 91
        1
 92
        3
 72
     0
 73
     1
 93
        4
 10
23331.84627873626
 20
-12952.17100763581
 10
23341.84627873626
 20
-12952.17100763581
 10
23341.84627873626
 20
-12932.16935988468
 10
23331.84627873626
 20
-12932.16935988468
 97
        0
 75
     0
 76
     1
 98
        0
  0
HATCH
  5
2D2
330
1F
100
AcDbEntity
  8
Ech.1_5
  6
Continuous
 62
     7
440
 33554687
370
    20
390
5F
100
AcDbHatch
 10
0.0
 20
0.0
 30
0.0
210
0.0
220
0.0
230
1.0
  2
CwHatchPattern_31
 70
     0
 71
     0
 91
        1
 92
        3
 72
     0
 73
     1
 93
        4
 10
23331.84627873626
 20
-12952.17100763581
 10
23341.84627873626
 20
-12952.17100763581
 10
23341.84627873626
 20
-12932.16935988468
 10
23331.84627873626
 20
-12932.16935988468
 97
        0
 75
     0
 76
     2
 52
0.0
 41
0.1500000059604645
 77
     0
 78
     1
 53
45.00000000000297
 43
0.0
 44
0.0
 45
-2.121320427853449
 46
2.12132042785323
 79
     0
 98
        0
1001
ACAD
1010
0.0
1020
0.0
1030
0.0
  0
LWPOLYLINE
  5
2D3
330
1F
100
AcDbEntity
  8
Ech.1_5
  6
Continuous
 62
     7
370
     5
390
5F
100
AcDbPolyline
 90
        5
 70
     0
 43
0.0
 10
23331.84627873626
 20
-12952.17100763581
 10
23341.84627873626
 20
-12952.17100763581
 10
23341.84627873626
 20
-12932.16935988468
 10
23331.84627873626
 20
-12932.16935988468
 10
23331.84627873626
 20
-12952.17100763581
  0
HATCH
  5
2D4
330
1F
100
AcDbEntity
  8
Ech.1_5
  6
Continuous
 62
    33
420
 12426362
440
 33554687
370
     5
390
5F
100
AcDbHatch
 10
0.0
 20
0.0
 30
0.0
210
0.0
220
0.0
230
1.0
  2
SOLID
 70
     1
 71
     0
 91
        1
 92
        3
 72
     0
 73
     1
 93
        4
 10
23341.84627873485
 20
-12807.16999661218
 10
23341.84627873525
 20
-12952.17298151551
 10
23386.84627873524
 20
-12952.1738109002
 10
23386.84627873485
 20
-12807.16999661183
 97
        0
 75
     0
 76
     1
 98
        0
  0
LINE
  5
2D5
330
1F
100
AcDbEntity
  8
Ech.1_5
  6
Continuous
 62
   190
370
    15
390
5F
100
AcDbLine
 10
23341.84627873525
 20
-12952.17298151551
 30
0.0
 11
23386.84627873485
 21
-12807.16999661183
 31
0.0
  0
LINE
  5
2D6
330
1F
100
AcDbEntity
  8
Ech.1_5
  6
Continuous
 62
   190
370
    15
390
5F
100
AcDbLine
 10
23386.84627873524
 20
-12952.1738109002
 30
0.0
 11
23341.84627873485
 21
-12807.16999661218
 31
0.0
  0
LWPOLYLINE
  5
2D7
330
1F
100
AcDbEntity
  8
Ech.1_5
  6
Continuous
 62
     5
370
    40
390
5F
100
AcDbPolyline
 90
        5
 70
     0
 43
0.0
 10
23341.84627873485
 20
-12807.16999661218
 10
23341.84627873525
 20
-12952.17298151551
 10
23386.84627873524
 20
-12952.1738109002
 10
23386.84627873485
 20
-12807.16999661183
 10
23341.84627873485
 20
-12807.16999661218
  0
HATCH
  5
2D8
330
1F
100
AcDbEntity
  8
Ech.1_5
  6
Continuous
 62
   254
420
 13882323
440
 33554687
370
     5
390
5F
100
AcDbHatch
 10
0.0
 20
0.0
 30
0.0
210
0.0
220
0.0
230
1.0
  2
SOLID
 70
     1
 71
     0
 91
        1
 92
        3
 72
     0
 73
     1
 93
        4
 10
23341.84237948187
 20
-12758.1756044521
 10
23331.84237948256
 20
-12758.1756044521
 10
23331.84237948256
 20
-12798.16999661976
 10
23341.84237948187
 20
-12798.16999661976
 97
        0
 75
     0
 76
     1
 98
        0
  0
LINE
  5
2D9
330
1F
100
AcDbEntity
  8
Ech.1_5
  6
Continuous
 62
   190
370
    15
390
5F
100
AcDbLine
 10
23331.84237948256
 20
-12758.1756044521
 30
0.0
 11
23341.84237948187
 21
-12798.16999661976
 31
0.0
  0
LINE
  5
2DA
330
1F
100
AcDbEntity
  8
Ech.1_5
  6
Continuous
 62
   190
370
    15
390
5F
100
AcDbLine
 10
23331.84237948256
 20
-12798.16999661976
 30
0.0
 11
23341.84237948187
 21
-12758.1756044521
 31
0.0
  0
LWPOLYLINE
  5
2DB
330
1F
100
AcDbEntity
  8
Ech.1_5
  6
Continuous
 62
   190
370
    20
390
5F
100
AcDbPolyline
 90
        5
 70
     0
 43
0.0
 10
23341.84237948187
 20
-12758.1756044521
 10
23331.84237948256
 20
-12758.1756044521
 10
23331.84237948256
 20
-12798.16999661976
 10
23341.84237948187
 20
-12798.16999661976
 10
23341.84237948187
 20
-12758.1756044521
  0
HATCH
  5
2DC
330
1F
100
AcDbEntity
  8
Ech.1_5
  6
Continuous
 62
    33
420
 12426362
440
 33554687
370
     5
390
5F
100
AcDbHatch
 10
0.0
 20
0.0
 30
0.0
210
0.0
220
0.0
230
1.0
  2
SOLID
 70
     1
 71
     0
 91
        1
 92
        3
 72
     0
 73
     1
 93
        4
 10
23386.84237948186
 20
-12798.17082600446
 10
23386.8423794817
 20
-12738.17395670096
 10
23341.8423794817
 20
-12738.17395670096
 10
23341.84237948187
 20
-12798.16999661976
 97
        0
 75
     0
 76
     1
 98
        0
  0
LINE
  5
2DD
330
1F
100
AcDbEntity
  8
Ech.1_5
  6
Continuous
 62
   190
370
    15
390
5F
100
AcDbLine
 10
23386.8423794817
 20
-12738.17395670096
 30
0.0
 11
23341.84237948187
 21
-12798.16999661976
 31
0.0
  0
LINE
  5
2DE
330
1F
100
AcDbEntity
  8
Ech.1_5
  6
Continuous
 62
   190
370
    15
390
5F
100
AcDbLine
 10
23341.8423794817
 20
-12738.17395670096
 30
0.0
 11
23386.84237948186
 21
-12798.17082600446
 31
0.0
  0
LWPOLYLINE
  5
2DF
330
1F
100
AcDbEntity
  8
Ech.1_5
  6
Continuous
 62
     5
370
    40
390
5F
100
AcDbPolyline
 90
        5
 70
     0
 43
0.0
 10
23386.84237948186
 20
-12798.17082600446
 10
23386.8423794817
 20
-12738.17395670096
 10
23341.8423794817
 20
-12738.17395670096
 10
23341.84237948187
 20
-12798.16999661976
 10
23386.84237948186
 20
-12798.17082600446
  0
LWPOLYLINE
  5
2E0
330
1F
100
AcDbEntity
  8
Ech.1_5
  6
CADWORK_22
 62
     1
 48
0.6
370
    35
390
5F
100
AcDbPolyline
 90
        4
 70
   128
 43
0.0
 10
23421.38214328961
 20
-12953.69148239844
 10
23341.84627873525
 20
-12953.69148239844
 10
23341.84627873485
 20
-12941.44896211335
 10
23342.23471946122
 20
-12889.20029061518
  0
HATCH
  5
2E1
330
1F
100
AcDbEntity
  8
Ech.1_5
  6
Continuous
 62
     2
440
 33554687
370
     5
390
5F
100
AcDbHatch
 10
0.0
 20
0.0
 30
0.0
210
0.0
220
0.0
230
1.0
  2
SOLID
 70
     1
 71
     0
 91
        1
 92
        3
 72
     0
 73
     1
 93
        4
 10
23331.84627873626
 20
-12758.1756044521
 10
23341.84627873626
 20
-12758.1756044521
 10
23341.84627873626
 20
-12738.17395670096
 10
23331.84627873626
 20
-12738.17395670096
 97
        0
 75
     0
 76
     1
 98
        0
  0
HATCH
  5
2E2
330
1F
100
AcDbEntity
  8
Ech.1_5
  6
Continuous
 62
     7
440
 33554687
370
    20
390
5F
100
AcDbHatch
 10
0.0
 20
0.0
 30
0.0
210
0.0
220
0.0
230
1.0
  2
CwHatchPattern_31
 70
     0
 71
     0
 91
        1
 92
        3
 72
     0
 73
     1
 93
        4
 10
23331.84627873626
 20
-12758.1756044521
 10
23341.84627873626
 20
-12758.1756044521
 10
23341.84627873626
 20
-12738.17395670096
 10
23331.84627873626
 20
-12738.17395670096
 97
        0
 75
     0
 76
     2
 52
0.0
 41
0.1500000059604645
 77
     0
 78
     1
 53
45.00000000000297
 43
0.0
 44
0.0
 45
-2.121320427853449
 46
2.12132042785323
 79
     0
 98
        0
1001
ACAD
1010
0.0
1020
0.0
1030
0.0
  0
LWPOLYLINE
  5
2E3
330
1F
100
AcDbEntity
  8
Ech.1_5
  6
Continuous
 62
     7
370
     5
390
5F
100
AcDbPolyline
 90
        5
 70
     0
 43
0.0
 10
23331.84627873626
 20
-12758.1756044521
 10
23341.84627873626
 20
-12758.1756044521
 10
23341.84627873626
 20
-12738.17395670096
 10
23331.84627873626
 20
-12738.17395670096
 10
23331.84627873626
 20
-12758.1756044521
  0
LWPOLYLINE
  5
2E4
330
1F
100
AcDbEntity
  8
Ech.1_5
  6
CADWORK_22
 62
   140
420
  1483507
 48
0.6
370
    35
390
5F
100
AcDbPolyline
 90
        3
 70
   128
 43
0.0
 38
2500.0
 10
23332.49193304227
 20
-12626.29252217378
 10
23332.49193304227
 20
-12736.164508323
 10
23332.49193304227
 20
-12796.89188032123
  0
LWPOLYLINE
  5
2E5
330
1F
100
AcDbEntity
  8
Ech.1_5
  6
CADWORK_22
 62
   140
420
  1483507
 48
0.6
370
    35
390
5F
100
AcDbPolyline
 90
        3
 70
   128
 43
0.0
 38
2500.0
 10
23473.76481905959
 20
-12738.36224114953
 10
23340.34627874041
 20
-12738.17395670096
 10
23340.34627874041
 20
-12796.89188032123
  0
HATCH
  5
2E6
330
1F
100
AcDbEntity
  8
Ech.1_5
  6
Continuous
 62
   254
420
 13882323
440
 33554687
370
     5
390
5F
100
AcDbHatch
 10
0.0
 20
0.0
 30
0.0
210
0.0
220
0.0
230
1.0
  2
SOLID
 70
     1
 71
     0
 91
        1
 92
        3
 72
     0
 73
     1
 93
        4
 10
22965.557966538
 20
-12893.03069780007
 10
22965.557966538
 20
-12933.03069780007
 10
22992.557966538
 20
-12933.03069780007
 10
22992.557966538
 20
-12893.03069780007
 97
        0
 75
     0
 76
     1
 98
        0
  0
LINE
  5
2E7
330
1F
100
AcDbEntity
  8
Ech.1_5
  6
Continuous
 62
   190
370
    15
390
5F
100
AcDbLine
 10
22965.557966538
 20
-12933.03069780007
 30
0.0
 11
22992.557966538
 21
-12893.03069780007
 31
0.0
  0
LINE
  5
2E8
330
1F
100
AcDbEntity
  8
Ech.1_5
  6
Continuous
 62
   190
370
    15
390
5F
100
AcDbLine
 10
22992.557966538
 20
-12933.03069780007
 30
0.0
 11
22965.557966538
 21
-12893.03069780007
 31
0.0
  0
LWPOLYLINE
  5
2E9
330
1F
100
AcDbEntity
  8
Ech.1_5
  6
Continuous
 62
     5
370
    40
390
5F
100
AcDbPolyline
 90
        5
 70
     0
 43
0.0
 10
22965.557966538
 20
-12893.03069780007
 10
22965.557966538
 20
-12933.03069780007
 10
22992.557966538
 20
-12933.03069780007
 10
22992.557966538
 20
-12893.03069780007
 10
22965.557966538
 20
-12893.03069780007
  0
HATCH
  5
2EA
330
1F
100
AcDbEntity
  8
Ech.1_5
  6
Continuous
 62
   254
420
 13882323
440
 33554687
370
     5
390
5F
100
AcDbHatch
 10
0.0
 20
0.0
 30
0.0
210
0.0
220
0.0
230
1.0
  2
SOLID
 70
     1
 71
     0
 91
        1
 92
        3
 72
     0
 73
     1
 93
        4
 10
22965.5586366079
 20
-13271.84118476287
 10
22965.5586366079
 20
-13346.84635181316
 10
22992.5586366079
 20
-13346.84635181316
 10
22992.5586366079
 20
-13271.84118476287
 97
        0
 75
     0
 76
     1
 98
        0
  0
LINE
  5
2EB
330
1F
100
AcDbEntity
  8
Ech.1_5
  6
Continuous
 62
   190
370
    15
390
5F
100
AcDbLine
 10
22965.5586366079
 20
-13346.84635181316
 30
0.0
 11
22992.5586366079
 21
-13271.84118476287
 31
0.0
  0
LINE
  5
2EC
330
1F
100
AcDbEntity
  8
Ech.1_5
  6
Continuous
 62
   190
370
    15
390
5F
100
AcDbLine
 10
22992.5586366079
 20
-13346.84635181316
 30
0.0
 11
22965.5586366079
 21
-13271.84118476287
 31
0.0
  0
LWPOLYLINE
  5
2ED
330
1F
100
AcDbEntity
  8
Ech.1_5
  6
Continuous
 62
     5
370
    40
390
5F
100
AcDbPolyline
 90
        5
 70
     0
 43
0.0
 10
22965.5586366079
 20
-13271.84118476287
 10
22965.5586366079
 20
-13346.84635181316
 10
22992.5586366079
 20
-13346.84635181316
 10
22992.5586366079
 20
-13271.84118476287
 10
22965.5586366079
 20
-13271.84118476287
  0
LWPOLYLINE
  5
2EE
330
1F
100
AcDbEntity
  8
Ech.1_5
  6
CADWORK_22
 62
   140
420
  1483507
 48
0.6
370
    35
390
5F
100
AcDbPolyline
 90
        5
 70
   128
 43
0.0
 38
2500.0
 10
23585.56884655308
 20
-13372.36195072766
 10
23074.54002111944
 20
-13372.36195072766
 10
23050.0234699831
 20
-13365.18712019206
 10
22972.63887834044
 20
-13365.18712019206
 10
22972.63887834044
 20
-13262.30432446588
  0
LWPOLYLINE
  5
2EF
330
1F
100
AcDbEntity
  8
Ech.1_5
  6
CADWORK_22
 62
   140
420
  1483507
 48
0.6
370
    35
390
5F
100
AcDbPolyline
 90
        3
 70
   128
 43
0.0
 38
2500.0
 10
22967.06186579131
 20
-12795.83955356972
 10
22967.06186579131
 20
-13371.83692470785
 10
23050.31238696541
 20
-13371.83692470785
  0
ARC
  5
2F0
330
1F
100
AcDbEntity
  8
Ech.1_5
  6
Continuous
 62
   190
370
    15
390
5F
100
AcDbCircle
 10
22935.01956930236
 20
-13440.30107130835
 30
0.0
 40
186.9185622382325
100
AcDbArc
 50
71.5354884631793
 51
340.2417213388881
  0
ARC
  5
2F1
330
1F
100
AcDbEntity
  8
Ech.1_5
  6
Continuous
 62
   190
370
    15
390
5F
100
AcDbCircle
 10
22935.01956930236
 20
-13440.30107130835
 30
0.0
 40
186.9185622382312
100
AcDbArc
 50
340.2417213388875
 51
136.6654435865736
  0
HATCH
  5
2F2
330
1F
100
AcDbEntity
  8
Ech.1_5
  6
Continuous
 62
    33
420
 12426362
440
 33554687
370
    20
390
5F
100
AcDbHatch
 10
0.0
 20
0.0
 30
0.0
210
0.0
220
0.0
230
1.0
  2
SOLID
 70
     1
 71
     0
 91
        1
 92
        3
 72
     1
 73
     1
 93
        4
 10
23262.84627873261
 20
-12952.16999661237
 42
0.0
 10
23262.84627873231
 20
-12907.16999661237
 42
0.0
 10
23141.35815072357
 20
-12907.1699966132
 42
0.0793367823823092
 10
23179.43377566357
 20
-12952.16999661294
 42
0.0
 97
        0
 75
     0
 76
     1
 98
        0
  0
LWPOLYLINE
  5
2F3
330
1F
100
AcDbEntity
  8
Ech.1_5
  6
Continuous
 62
     7
370
    20
390
5F
100
AcDbPolyline
 90
        5
 70
     0
 43
0.0
 10
23262.84627873261
 20
-12952.16999661237
 10
23262.84627873231
 20
-12907.16999661237
 10
23141.35815072357
 20
-12907.1699966132
 42
0.0793367823822617
 10
23179.43377566357
 20
-12952.16999661294
 10
23262.84627873261
 20
-12952.16999661237
  0
LWPOLYLINE
  5
2F4
330
1F
100
AcDbEntity
  8
Ech.1_5
  6
CADWORK_22
 62
     1
 48
0.6
370
    35
390
5F
100
AcDbPolyline
 90
        4
 70
   128
 43
0.0
 10
23179.43377566357
 20
-12953.69148239844
 10
23331.84627873567
 20
-12953.69148239844
 10
23331.84627873606
 20
-12941.44896211335
 10
23331.4578380097
 20
-12889.20029061518
  0
LWPOLYLINE
  5
2F5
330
1F
100
AcDbEntity
  8
Ech.1_5
  6
Continuous
 62
   190
370
    15
390
5F
100
AcDbPolyline
 90
        3
 70
     0
 43
0.0
 10
23262.84627873261
 20
-12952.16999661237
 10
23190.34627873256
 20
-12929.66999661284
 10
23262.84627873231
 20
-12907.16999661237
  0
HATCH
  5
2F6
330
1F
100
AcDbEntity
  8
Ech.1_5
  6
Continuous
 62
   158
420
    12131
440
 33554687
370
    20
390
5F
100
AcDbHatch
 10
0.0
 20
0.0
 30
0.0
210
0.0
220
0.0
230
1.0
  2
SOLID
 70
     1
 71
     0
 91
        1
 92
        3
 72
     0
 73
     1
 93
        8
 10
22696.98256159946
 20
-13928.7775344314
 10
22696.98256159946
 20
-13925.8315969114
 10
22696.00243871946
 20
-13925.8315969114
 10
22696.00243871946
 20
-13925.3888709514
 10
22698.55577019946
 20
-13925.3888709514
 10
22698.50565027946
 20
-13925.8315969114
 10
22697.47540747946
 20
-13925.8315969114
 10
22697.47540747946
 20
-13928.7775344314
 97
        0
 75
     0
 76
     1
 98
        0
  0
HATCH
  5
2F7
330
1F
100
AcDbEntity
  8
Ech.1_5
  6
Continuous
 62
   158
420
    12131
440
 33554687
370
    20
390
5F
100
AcDbHatch
 10
0.0
 20
0.0
 30
0.0
210
0.0
220
0.0
230
1.0
  2
SOLID
 70
     1
 71
     0
 91
        1
 92
        3
 72
     0
 73
     1
 93
        4
 10
22699.34098227946
 20
-13928.7775344314
 10
22699.34098227946
 20
-13925.3888709514
 10
22699.88116363946
 20
-13925.3888709514
 10
22699.88116363946
 20
-13928.7775344314
 97
        0
 75
     0
 76
     1
 98
        0
  0
HATCH
  5
2F8
330
1F
100
AcDbEntity
  8
Ech.1_5
  6
Continuous
 62
   158
420
    12131
440
 33554687
370
    20
390
5F
100
AcDbHatch
 10
0.0
 20
0.0
 30
0.0
210
0.0
220
0.0
230
1.0
  2
SOLID
 70
     1
 71
     0
 91
        1
 92
        3
 72
     0
 73
     1
 93
        8
 10
22701.64928303946
 20
-13928.7775344314
 10
22701.64928303946
 20
-13925.8315969114
 10
22700.66637571946
 20
-13925.8315969114
 10
22700.66637571946
 20
-13925.3888709514
 10
22703.22249163946
 20
-13925.3888709514
 10
22703.17237171946
 20
-13925.8315969114
 10
22702.18946439946
 20
-13925.8315969114
 10
22702.18946439946
 20
-13928.7775344314
 97
        0
 75
     0
 76
     1
 98
        0
  0
HATCH
  5
2F9
330
1F
100
AcDbEntity
  8
Ech.1_5
  6
Continuous
 62
   158
420
    12131
440
 33554687
370
    20
390
5F
100
AcDbHatch
 10
0.0
 20
0.0
 30
0.0
210
0.0
220
0.0
230
1.0
  2
SOLID
 70
     1
 71
     0
 91
        1
 92
        3
 72
     0
 73
     1
 93
       32
 10
22705.13818635946
 20
-13928.8276543514
 10
22704.89037119946
 20
-13928.8276543514
 10
22704.49776515946
 20
-13928.7274145114
 10
22704.20261451946
 20
-13928.5798391914
 10
22704.00770371946
 20
-13928.3348084714
 10
22703.95758379946
 20
-13928.2373530714
 10
22703.91024831947
 20
-13928.08977775141
 10
22703.86012839946
 20
-13927.7946271114
 10
22703.86012839946
 20
-13925.3888709514
 10
22704.35018983946
 20
-13925.3888709514
 10
22704.35018983946
 20
-13927.4020210714
 10
22704.35018983946
 20
-13927.7946271114
 10
22704.40030975946
 20
-13927.99232235139
 10
22704.59800499947
 20
-13928.2373530714
 10
22704.74279587947
 20
-13928.3348084714
 10
22704.99061103947
 20
-13928.3849283914
 10
22705.13818635946
 20
-13928.3849283914
 10
22705.33309715946
 20
-13928.3849283914
 10
22705.57812787946
 20
-13928.28747299139
 10
22705.72570319947
 20
-13928.1872331514
 10
22705.82315859947
 20
-13928.03965783139
 10
22705.87327851946
 20
-13927.7472916314
 10
22705.87327851946
 20
-13925.3888709514
 10
22706.41345987946
 20
-13925.3888709514
 10
22706.41345987946
 20
-13927.5495963914
 10
22706.41345987946
 20
-13927.89208251139
 10
22706.31600447946
 20
-13928.2373530714
 10
22706.21854907946
 20
-13928.43504831139
 10
22706.11830923946
 20
-13928.48238379139
 10
22706.02085383946
 20
-13928.5798391914
 10
22705.82315859947
 20
-13928.7274145114
 10
22705.43055255946
 20
-13928.8276543514
 97
        0
 75
     0
 76
     1
 98
        0
  0
HATCH
  5
2FA
330
1F
100
AcDbEntity
  8
Ech.1_5
  6
Continuous
 62
   158
420
    12131
440
 33554687
370
    20
390
5F
100
AcDbHatch
 10
0.0
 20
0.0
 30
0.0
210
0.0
220
0.0
230
1.0
  2
SOLID
 70
     1
 71
     0
 91
        1
 92
        3
 72
     0
 73
     1
 93
        8
 10
22708.18157927946
 20
-13928.7775344314
 10
22708.18157927946
 20
-13925.8315969114
 10
22707.19867195946
 20
-13925.8315969114
 10
22707.19867195946
 20
-13925.3888709514
 10
22709.75478787946
 20
-13925.3888709514
 10
22709.70466795946
 20
-13925.8315969114
 10
22708.72176063946
 20
-13925.8315969114
 10
22708.72176063946
 20
-13928.7775344314
 97
        0
 75
     0
 76
     1
 98
        0
  0
HATCH
  5
2FB
330
1F
100
AcDbEntity
  8
Ech.1_5
  6
Continuous
 62
   158
420
    12131
440
 33554687
370
    20
390
5F
100
AcDbHatch
 10
0.0
 20
0.0
 30
0.0
210
0.0
220
0.0
230
1.0
  2
SOLID
 70
     1
 71
     0
 91
        1
 92
        3
 72
     0
 73
     1
 93
        8
 10
22688.24220443946
 20
-13935.7024367114
 10
22688.24220443946
 20
-13932.75649919141
 10
22687.25929711946
 20
-13932.75649919141
 10
22687.25929711946
 20
-13932.31377323141
 10
22689.86274851946
 20
-13932.31377323141
 10
22689.76529311946
 20
-13932.75649919141
 10
22688.78238579947
 20
-13932.75649919141
 10
22688.78238579947
 20
-13935.7024367114
 97
        0
 75
     0
 76
     1
 98
        0
  0
HATCH
  5
2FC
330
1F
100
AcDbEntity
  8
Ech.1_5
  6
Continuous
 62
   158
420
    12131
440
 33554687
370
    20
390
5F
100
AcDbHatch
 10
0.0
 20
0.0
 30
0.0
210
0.0
220
0.0
230
1.0
  2
SOLID
 70
     1
 71
     0
 91
        1
 92
        3
 72
     0
 73
     1
 93
       12
 10
22690.59784067946
 20
-13935.7024367114
 10
22690.59784067946
 20
-13932.31377323141
 10
22692.71123063946
 20
-13932.31377323141
 10
22692.61377523946
 20
-13932.75649919141
 10
22691.13802203946
 20
-13932.75649919141
 10
22691.13802203946
 20
-13933.73940651141
 10
22692.36596007946
 20
-13933.73940651141
 10
22692.36596007946
 20
-13934.13201255139
 10
22691.13802203946
 20
-13934.13201255139
 10
22691.13802203946
 20
-13935.2123752714
 10
22692.76135055946
 20
-13935.2123752714
 10
22692.76135055946
 20
-13935.7024367114
 97
        0
 75
     0
 76
     1
 98
        0
  0
HATCH
  5
2FD
330
1F
100
AcDbEntity
  8
Ech.1_5
  6
Continuous
 62
   158
420
    12131
440
 33554687
370
    20
390
5F
100
AcDbHatch
 10
0.0
 20
0.0
 30
0.0
210
0.0
220
0.0
230
1.0
  2
SOLID
 70
     1
 71
     0
 91
        1
 92
        3
 72
     0
 73
     1
 93
       38
 10
22695.11698679946
 20
-13935.75255663141
 10
22694.77450067946
 20
-13935.7024367114
 10
22694.18419939946
 20
-13935.4574059914
 10
22693.74147343946
 20
-13935.01468003141
 10
22693.54656263947
 20
-13934.3770432714
 10
22693.49644271946
 20
-13934.0317727114
 10
22693.54656263947
 20
-13933.63916667142
 10
22693.79159335946
 20
-13933.0015299114
 10
22694.23431931946
 20
-13932.5114684714
 10
22694.82183615946
 20
-13932.26365331139
 10
22695.11698679946
 20
-13932.26365331139
 10
22695.41213743947
 20
-13932.26365331139
 10
22695.90219887946
 20
-13932.41122863139
 10
22696.09989411946
 20
-13932.5114684714
 10
22695.80474347946
 20
-13932.9040745114
 10
22695.65716815946
 20
-13932.75649919141
 10
22695.31468203946
 20
-13932.6562593514
 10
22695.16710671946
 20
-13932.6562593514
 10
22695.01953139946
 20
-13932.6562593514
 10
22694.72438075946
 20
-13932.75649919141
 10
22694.47935003946
 20
-13932.9040745114
 10
22694.28165479946
 20
-13933.0989853114
 10
22694.23431931946
 20
-13933.2465606314
 10
22694.13407947946
 20
-13933.3941359514
 10
22694.08674399946
 20
-13933.78674199141
 10
22694.08674399946
 20
-13934.0317727114
 10
22694.08674399946
 20
-13934.3770432714
 10
22694.23431931946
 20
-13934.8197692314
 10
22694.38189463946
 20
-13934.9645601114
 10
22694.52946995946
 20
-13935.16225535141
 10
22694.96941147946
 20
-13935.30983067141
 10
22695.16710671946
 20
-13935.30983067141
 10
22695.36201751946
 20
-13935.30983067141
 10
22695.75740799947
 20
-13935.2123752714
 10
22695.90219887946
 20
-13935.11213543139
 10
22696.15001403946
 20
-13935.4574059914
 10
22695.95231879946
 20
-13935.6049813114
 10
22695.41213743947
 20
-13935.7024367114
 97
        0
 75
     0
 76
     1
 98
        0
  0
HATCH
  5
2FE
330
1F
100
AcDbEntity
  8
Ech.1_5
  6
Continuous
 62
   158
420
    12131
440
 33554687
370
    20
390
5F
100
AcDbHatch
 10
0.0
 20
0.0
 30
0.0
210
0.0
220
0.0
230
1.0
  2
SOLID
 70
     1
 71
     0
 91
        1
 92
        3
 72
     0
 73
     1
 93
       12
 10
22696.83777071947
 20
-13935.7024367114
 10
22696.83777071947
 20
-13932.31377323141
 10
22697.37795207946
 20
-13932.31377323141
 10
22697.37795207946
 20
-13933.68928659139
 10
22698.89825631946
 20
-13933.68928659139
 10
22698.89825631946
 20
-13932.31377323141
 10
22699.39110219946
 20
-13932.31377323141
 10
22699.39110219946
 20
-13935.7024367114
 10
22698.89825631946
 20
-13935.7024367114
 10
22698.89825631946
 20
-13934.13201255139
 10
22697.37795207946
 20
-13934.13201255139
 10
22697.37795207946
 20
-13935.7024367114
 97
        0
 75
     0
 76
     1
 98
        0
  0
HATCH
  5
2FF
330
1F
100
AcDbEntity
  8
Ech.1_5
  6
Continuous
 62
   158
420
    12131
440
 33554687
370
    20
390
5F
100
AcDbHatch
 10
0.0
 20
0.0
 30
0.0
210
0.0
220
0.0
230
1.0
  2
SOLID
 70
     1
 71
     0
 91
        1
 92
        3
 72
     0
 73
     1
 93
       18
 10
22700.56892031946
 20
-13935.7024367114
 10
22700.56892031946
 20
-13932.31377323141
 10
22701.15922159946
 20
-13932.31377323141
 10
22702.23958431946
 20
-13934.13201255139
 10
22702.58207043946
 20
-13934.71952939141
 10
22702.68231027946
 20
-13934.9645601114
 10
22702.63219035947
 20
-13934.4744986714
 10
22702.63219035947
 20
-13933.9844372314
 10
22702.63219035947
 20
-13932.31377323141
 10
22703.12225179946
 20
-13932.31377323141
 10
22703.12225179946
 20
-13935.7024367114
 10
22702.58207043946
 20
-13935.7024367114
 10
22701.50170771946
 20
-13933.88419739139
 10
22701.25667699946
 20
-13933.5417112714
 10
22701.01164627946
 20
-13933.0015299114
 10
22701.06176619946
 20
-13933.29668055141
 10
22701.06176619946
 20
-13933.9844372314
 10
22701.10910167946
 20
-13935.7024367114
 97
        0
 75
     0
 76
     1
 98
        0
  0
HATCH
  5
300
330
1F
100
AcDbEntity
  8
Ech.1_5
  6
Continuous
 62
   158
420
    12131
440
 33554687
370
    20
390
5F
100
AcDbHatch
 10
0.0
 20
0.0
 30
0.0
210
0.0
220
0.0
230
1.0
  2
SOLID
 70
     1
 71
     0
 91
        1
 92
        3
 72
     0
 73
     1
 93
       56
 10
22705.67836771946
 20
-13935.75255663141
 10
22705.67836771946
 20
-13935.35995059139
 10
22705.87327851946
 20
-13935.35995059139
 10
22706.11830923946
 20
-13935.2597107514
 10
22706.31600447946
 20
-13935.16225535141
 10
22706.46357979946
 20
-13934.9645601114
 10
22706.51091527946
 20
-13934.86710471141
 10
22706.61115511946
 20
-13934.57195407141
 10
22706.61115511946
 20
-13934.08189263141
 10
22706.61115511946
 20
-13933.73940651141
 10
22706.56103519946
 20
-13933.29668055141
 10
22706.46357979946
 20
-13933.0989853114
 10
22706.41345987946
 20
-13933.0015299114
 10
22706.21854907946
 20
-13932.85395459139
 10
22706.02085383946
 20
-13932.75649919141
 10
22705.77582311946
 20
-13932.6562593514
 10
22705.62824779946
 20
-13932.6562593514
 10
22705.38321707946
 20
-13932.70637927139
 10
22705.08806643946
 20
-13932.8038346714
 10
22704.94049111947
 20
-13932.9514099914
 10
22704.79291579946
 20
-13933.14910523139
 10
22704.69546039946
 20
-13933.63916667142
 10
22704.69546039946
 20
-13933.93431731141
 10
22704.69546039946
 20
-13934.2795878714
 10
22704.84303571946
 20
-13934.8197692314
 10
22704.94049111947
 20
-13935.01468003141
 10
22705.13818635946
 20
-13935.2123752714
 10
22705.43055255946
 20
-13935.35995059139
 10
22705.67836771946
 20
-13935.35995059139
 10
22705.67836771946
 20
-13935.75255663141
 10
22705.33309715946
 20
-13935.7024367114
 10
22704.89037119946
 20
-13935.6049813114
 10
22704.64534047947
 20
-13935.4072860714
 10
22704.54788507946
 20
-13935.30983067141
 10
22704.35018983946
 20
-13935.01468003141
 10
22704.15527903946
 20
-13934.3770432714
 10
22704.10515911946
 20
-13933.9844372314
 10
22704.15527903946
 20
-13933.59183119141
 10
22704.35018983946
 20
-13932.9514099914
 10
22704.64534047947
 20
-13932.6089238714
 10
22704.89037119946
 20
-13932.41122863139
 10
22705.28297723946
 20
-13932.26365331139
 10
22705.62824779946
 20
-13932.26365331139
 10
22706.07097375947
 20
-13932.26365331139
 10
22706.51091527946
 20
-13932.4613485514
 10
22706.75873043946
 20
-13932.6562593514
 10
22706.85618583946
 20
-13932.8038346714
 10
22707.05109663946
 20
-13933.0015299114
 10
22707.19867195946
 20
-13933.63916667142
 10
22707.19867195946
 20
-13934.0317727114
 10
22707.19867195946
 20
-13934.42437875142
 10
22707.05109663946
 20
-13935.01468003141
 10
22706.85618583946
 20
-13935.2123752714
 10
22706.75873043946
 20
-13935.35995059139
 10
22706.51091527946
 20
-13935.5548613914
 10
22706.07097375947
 20
-13935.7024367114
 97
        0
 75
     0
 76
     1
 98
        0
  0
HATCH
  5
301
330
1F
100
AcDbEntity
  8
Ech.1_5
  6
Continuous
 62
   158
420
    12131
440
 33554687
370
    20
390
5F
100
AcDbHatch
 10
0.0
 20
0.0
 30
0.0
210
0.0
220
0.0
230
1.0
  2
SOLID
 70
     1
 71
     0
 91
        1
 92
        3
 72
     0
 73
     1
 93
        6
 10
22708.23169919946
 20
-13935.7024367114
 10
22708.23169919946
 20
-13932.31377323141
 10
22708.72176063946
 20
-13932.31377323141
 10
22708.72176063946
 20
-13935.2597107514
 10
22710.19472939946
 20
-13935.2597107514
 10
22710.14739391946
 20
-13935.7024367114
 97
        0
 75
     0
 76
     1
 98
        0
  0
HATCH
  5
302
330
1F
100
AcDbEntity
  8
Ech.1_5
  6
Continuous
 62
   158
420
    12131
440
 33554687
370
    20
390
5F
100
AcDbHatch
 10
0.0
 20
0.0
 30
0.0
210
0.0
220
0.0
230
1.0
  2
SOLID
 70
     1
 71
     0
 91
        1
 92
        3
 72
     0
 73
     1
 93
       56
 10
22711.91551331946
 20
-13935.75255663141
 10
22711.96284879946
 20
-13935.35995059139
 10
22712.11042411946
 20
-13935.35995059139
 10
22712.35545483946
 20
-13935.2597107514
 10
22712.55315007946
 20
-13935.16225535141
 10
22712.70072539946
 20
-13934.9645601114
 10
22712.75084531946
 20
-13934.86710471141
 10
22712.84830071946
 20
-13934.57195407141
 10
22712.89563619946
 20
-13934.08189263141
 10
22712.89563619946
 20
-13933.73940651141
 10
22712.79818079947
 20
-13933.29668055141
 10
22712.70072539946
 20
-13933.0989853114
 10
22712.65060547946
 20
-13933.0015299114
 10
22712.50303015946
 20
-13932.85395459139
 10
22712.25799943946
 20
-13932.75649919141
 10
22712.01296871946
 20
-13932.6562593514
 10
22711.86539339946
 20
-13932.6562593514
 10
22711.67048259946
 20
-13932.70637927139
 10
22711.32521203946
 20
-13932.8038346714
 10
22711.17763671946
 20
-13932.9514099914
 10
22711.03006139946
 20
-13933.14910523139
 10
22710.93260599946
 20
-13933.63916667142
 10
22710.93260599946
 20
-13933.93431731141
 10
22710.93260599946
 20
-13934.2795878714
 10
22711.08018131946
 20
-13934.8197692314
 10
22711.17763671946
 20
-13935.01468003141
 10
22711.37533195946
 20
-13935.2123752714
 10
22711.67048259946
 20
-13935.35995059139
 10
22711.96284879946
 20
-13935.35995059139
 10
22711.91551331946
 20
-13935.75255663141
 10
22711.57024275946
 20
-13935.7024367114
 10
22711.17763671946
 20
-13935.6049813114
 10
22710.93260599946
 20
-13935.4072860714
 10
22710.78503067946
 20
-13935.30983067141
 10
22710.58733543946
 20
-13935.01468003141
 10
22710.39242463946
 20
-13934.3770432714
 10
22710.34230471947
 20
-13933.9844372314
 10
22710.39242463946
 20
-13933.59183119141
 10
22710.58733543946
 20
-13932.9514099914
 10
22710.88248607946
 20
-13932.6089238714
 10
22711.12751679946
 20
-13932.41122863139
 10
22711.52290727946
 20
-13932.26365331139
 10
22711.91551331946
 20
-13932.26365331139
 10
22712.30811935946
 20
-13932.26365331139
 10
22712.75084531946
 20
-13932.4613485514
 10
22712.99587603946
 20
-13932.6562593514
 10
22713.09333143946
 20
-13932.8038346714
 10
22713.29102667946
 20
-13933.0015299114
 10
22713.43860199946
 20
-13933.63916667142
 10
22713.48593747947
 20
-13934.0317727114
 10
22713.43860199946
 20
-13934.42437875142
 10
22713.29102667946
 20
-13935.01468003141
 10
22713.14345135946
 20
-13935.2123752714
 10
22712.99587603946
 20
-13935.35995059139
 10
22712.75084531946
 20
-13935.5548613914
 10
22712.30811935946
 20
-13935.7024367114
 97
        0
 75
     0
 76
     1
 98
        0
  0
HATCH
  5
303
330
1F
100
AcDbEntity
  8
Ech.1_5
  6
Continuous
 62
   158
420
    12131
440
 33554687
370
    20
390
5F
100
AcDbHatch
 10
0.0
 20
0.0
 30
0.0
210
0.0
220
0.0
230
1.0
  2
SOLID
 70
     1
 71
     0
 91
        1
 92
        3
 72
     0
 73
     1
 93
       46
 10
22715.94181355946
 20
-13935.75255663141
 10
22715.54920751946
 20
-13935.7024367114
 10
22714.95890623947
 20
-13935.4574059914
 10
22714.71387551946
 20
-13935.2597107514
 10
22714.61642011946
 20
-13935.16225535141
 10
22714.41872487946
 20
-13934.86710471141
 10
22714.27114955946
 20
-13934.3770432714
 10
22714.22381407947
 20
-13933.9844372314
 10
22714.27114955946
 20
-13933.49159135141
 10
22714.46884479946
 20
-13932.9514099914
 10
22714.71387551946
 20
-13932.6562593514
 10
22714.86145083946
 20
-13932.5588039514
 10
22715.10648155946
 20
-13932.41122863139
 10
22715.59932743946
 20
-13932.26365331139
 10
22715.84435815946
 20
-13932.26365331139
 10
22716.13950879946
 20
-13932.26365331139
 10
22716.67969015946
 20
-13932.4613485514
 10
22716.92472087946
 20
-13932.6562593514
 10
22716.67969015946
 20
-13932.9514099914
 10
22716.48199491946
 20
-13932.85395459139
 10
22716.13950879946
 20
-13932.70637927139
 10
22715.89169363946
 20
-13932.70637927139
 10
22715.69678283946
 20
-13932.70637927139
 10
22715.40163219946
 20
-13932.75649919141
 10
22715.20672139946
 20
-13932.9040745114
 10
22715.00902615946
 20
-13933.0516498314
 10
22714.95890623947
 20
-13933.14910523139
 10
22714.86145083946
 20
-13933.5417112714
 10
22714.81133091946
 20
-13934.0317727114
 10
22714.81133091946
 20
-13934.42437875142
 10
22715.00902615946
 20
-13934.86710471141
 10
22715.20672139946
 20
-13935.11213543139
 10
22715.30417679947
 20
-13935.16225535141
 10
22715.45175211946
 20
-13935.2123752714
 10
22715.79423823946
 20
-13935.30983067141
 10
22715.94181355946
 20
-13935.35995059139
 10
22716.13950879946
 20
-13935.30983067141
 10
22716.43187499946
 20
-13935.2597107514
 10
22716.53211483947
 20
-13935.2123752714
 10
22716.53211483947
 20
-13934.3269233514
 10
22715.79423823946
 20
-13934.3269233514
 10
22715.69678283946
 20
-13933.88419739139
 10
22717.02217627946
 20
-13933.88419739139
 10
22717.02217627946
 20
-13935.4574059914
 10
22716.77714555946
 20
-13935.6049813114
 10
22716.23696419946
 20
-13935.7024367114
 97
        0
 75
     0
 76
     1
 98
        0
  0
HATCH
  5
304
330
1F
100
AcDbEntity
  8
Ech.1_5
  6
Continuous
 62
   158
420
    12131
440
 33554687
370
    20
390
5F
100
AcDbHatch
 10
0.0
 20
0.0
 30
0.0
210
0.0
220
0.0
230
1.0
  2
SOLID
 70
     1
 71
     0
 91
        1
 92
        3
 72
     0
 73
     1
 93
        4
 10
22718.05520351946
 20
-13935.7024367114
 10
22718.05520351946
 20
-13932.31377323141
 10
22718.54526495946
 20
-13932.31377323141
 10
22718.54526495946
 20
-13935.7024367114
 97
        0
 75
     0
 76
     1
 98
        0
  0
HATCH
  5
305
330
1F
100
AcDbEntity
  8
Ech.1_5
  6
Continuous
 62
   158
420
    12131
440
 33554687
370
    20
390
5F
100
AcDbHatch
 10
0.0
 20
0.0
 30
0.0
210
0.0
220
0.0
230
1.0
  2
SOLID
 70
     1
 71
     0
 91
        1
 92
        3
 72
     0
 73
     1
 93
       64
 10
22722.86671583946
 20
-13936.4403133114
 10
22722.67180503946
 20
-13936.39019339141
 10
22722.37665439946
 20
-13936.29273799139
 10
22721.59144231946
 20
-13935.85001203139
 10
22721.29629167946
 20
-13935.75255663141
 10
22721.29629167946
 20
-13935.35995059139
 10
22721.54132239947
 20
-13935.2597107514
 10
22721.73623319946
 20
-13935.16225535141
 10
22721.88380851946
 20
-13934.9645601114
 10
22721.93392843946
 20
-13934.86710471141
 10
22722.08150375946
 20
-13934.57195407141
 10
22722.08150375946
 20
-13934.08189263141
 10
22722.08150375946
 20
-13933.73940651141
 10
22721.98404835946
 20
-13933.29668055141
 10
22721.83647303946
 20
-13933.0015299114
 10
22721.63877779946
 20
-13932.85395459139
 10
22721.44386699946
 20
-13932.75649919141
 10
22721.19605183946
 20
-13932.6562593514
 10
22721.05126095946
 20
-13932.6562593514
 10
22720.85356571946
 20
-13932.70637927139
 10
22720.55841507946
 20
-13932.8038346714
 10
22720.36350427946
 20
-13932.9514099914
 10
22720.21592895946
 20
-13933.14910523139
 10
22720.11568911946
 20
-13933.63916667142
 10
22720.11568911946
 20
-13933.93431731141
 10
22720.11568911946
 20
-13934.22946795141
 10
22720.21592895946
 20
-13934.7696493114
 10
22720.41083975946
 20
-13935.0647999514
 10
22720.55841507946
 20
-13935.2123752714
 10
22720.75611031946
 20
-13935.30983067141
 10
22721.00114103946
 20
-13935.35995059139
 10
22721.29629167946
 20
-13935.35995059139
 10
22721.29629167946
 20
-13935.75255663141
 10
22720.75611031946
 20
-13935.7024367114
 10
22720.36350427946
 20
-13935.6049813114
 10
22720.11568911946
 20
-13935.4072860714
 10
22720.01823371946
 20
-13935.30983067141
 10
22719.77320299946
 20
-13935.01468003141
 10
22719.57550775947
 20
-13934.3770432714
 10
22719.57550775947
 20
-13933.9844372314
 10
22719.57550775947
 20
-13933.59183119141
 10
22719.77320299946
 20
-13932.9514099914
 10
22720.06835363946
 20
-13932.6089238714
 10
22720.31338435946
 20
-13932.41122863139
 10
22720.75611031946
 20
-13932.26365331139
 10
22721.09859643946
 20
-13932.26365331139
 10
22721.29629167946
 20
-13932.26365331139
 10
22721.63877779946
 20
-13932.36389315139
 10
22722.08150375946
 20
-13932.5588039514
 10
22722.32653447946
 20
-13932.8038346714
 10
22722.47410979946
 20
-13933.0015299114
 10
22722.62168511947
 20
-13933.63916667142
 10
22722.67180503946
 20
-13934.0317727114
 10
22722.62168511947
 20
-13934.42437875142
 10
22722.47410979946
 20
-13935.01468003141
 10
22722.32653447946
 20
-13935.2123752714
 10
22722.13162367946
 20
-13935.4574059914
 10
22721.93392843946
 20
-13935.5548613914
 10
22722.27919899947
 20
-13935.7024367114
 10
22722.71914051946
 20
-13935.9975873514
 10
22722.96417123946
 20
-13936.09504275141
 10
22723.06441107946
 20
-13936.09504275141
 10
22723.25932187946
 20
-13936.09504275141
 10
22723.11174655947
 20
-13936.4403133114
 97
        0
 75
     0
 76
     1
 98
        0
  0
HATCH
  5
306
330
1F
100
AcDbEntity
  8
Ech.1_5
  6
Continuous
 62
   158
420
    12131
440
 33554687
370
    20
390
5F
100
AcDbHatch
 10
0.0
 20
0.0
 30
0.0
210
0.0
220
0.0
230
1.0
  2
SOLID
 70
     1
 71
     0
 91
        1
 92
        3
 72
     0
 73
     1
 93
       32
 10
22724.83253047946
 20
-13935.75255663141
 10
22724.58749975947
 20
-13935.75255663141
 10
22724.19210927947
 20
-13935.6523167914
 10
22723.94707855946
 20
-13935.5075259114
 10
22723.75216775946
 20
-13935.30983067141
 10
22723.70204783946
 20
-13935.16225535141
 10
22723.60459243946
 20
-13935.0647999514
 10
22723.55447251946
 20
-13934.71952939141
 10
22723.55447251946
 20
-13932.31377323141
 10
22724.09465387946
 20
-13932.31377323141
 10
22724.09465387946
 20
-13934.3269233514
 10
22724.09465387946
 20
-13934.71952939141
 10
22724.14477379946
 20
-13934.91722463139
 10
22724.29234911946
 20
-13935.11213543139
 10
22724.48725991946
 20
-13935.2597107514
 10
22724.73229063946
 20
-13935.30983067141
 10
22724.83253047946
 20
-13935.30983067141
 10
22725.07756119946
 20
-13935.30983067141
 10
22725.32259191946
 20
-13935.2123752714
 10
22725.47016723947
 20
-13935.11213543139
 10
22725.56762263946
 20
-13934.9645601114
 10
22725.61774255946
 20
-13934.67219391141
 10
22725.61774255946
 20
-13932.31377323141
 10
22726.15792391946
 20
-13932.31377323141
 10
22726.15792391946
 20
-13934.4744986714
 10
22726.15792391946
 20
-13934.8197692314
 10
22726.06046851946
 20
-13935.16225535141
 10
22725.91289319946
 20
-13935.35995059139
 10
22725.81543779947
 20
-13935.4574059914
 10
22725.76531787946
 20
-13935.5075259114
 10
22725.52028715946
 20
-13935.6049813114
 10
22725.17501659946
 20
-13935.75255663141
 97
        0
 75
     0
 76
     1
 98
        0
  0
HATCH
  5
307
330
1F
100
AcDbEntity
  8
Ech.1_5
  6
Continuous
 62
   158
420
    12131
440
 33554687
370
    20
390
5F
100
AcDbHatch
 10
0.0
 20
0.0
 30
0.0
210
0.0
220
0.0
230
1.0
  2
SOLID
 70
     1
 71
     0
 91
        1
 92
        3
 72
     0
 73
     1
 93
       12
 10
22727.28840655946
 20
-13935.7024367114
 10
22727.28840655946
 20
-13932.31377323141
 10
22729.39901207946
 20
-13932.31377323141
 10
22729.30155667946
 20
-13932.75649919141
 10
22727.77846799946
 20
-13932.75649919141
 10
22727.77846799946
 20
-13933.73940651141
 10
22729.05652595946
 20
-13933.73940651141
 10
22729.05652595946
 20
-13934.13201255139
 10
22727.82858791946
 20
-13934.13201255139
 10
22727.82858791946
 20
-13935.2123752714
 10
22729.44913199946
 20
-13935.2123752714
 10
22729.44913199946
 20
-13935.7024367114
 97
        0
 75
     0
 76
     1
 98
        0
  0
HATCH
  5
308
330
1F
100
AcDbEntity
  8
Ech.1_5
  6
Continuous
 62
   136
420
    33651
440
 33554687
370
    20
390
5F
100
AcDbHatch
 10
0.0
 20
0.0
 30
0.0
210
0.0
220
0.0
230
1.0
  2
SOLID
 70
     1
 71
     0
 91
        1
 92
        3
 72
     0
 73
     1
 93
       15
 10
22711.03006139946
 20
-13910.55615907141
 10
22711.03006139946
 20
-13908.34531371141
 10
22712.45569467946
 20
-13908.34531371141
 10
22712.79818079947
 20
-13908.34531371141
 10
22713.33836215946
 20
-13908.4928890314
 10
22713.63351279946
 20
-13908.69058427139
 10
22713.73096819946
 20
-13908.83815959139
 10
22713.87854351947
 20
-13909.13052579141
 10
22713.87854351947
 20
-13909.3783409514
 10
22713.87854351947
 20
-13909.67070715141
 10
22713.73096819946
 20
-13909.96585779141
 10
22713.58339287946
 20
-13910.1635530314
 10
22713.33836215946
 20
-13910.3584638314
 10
22712.89563619946
 20
-13910.50603915139
 10
22712.65060547946
 20
-13910.55615907141
 97
        0
 75
     0
 76
     1
 98
        0
  0
HATCH
  5
309
330
1F
100
AcDbEntity
  8
Ech.1_5
  6
Continuous
 62
   136
420
    33651
440
 33554687
370
    20
390
5F
100
AcDbHatch
 10
0.0
 20
0.0
 30
0.0
210
0.0
220
0.0
230
1.0
  2
SOLID
 70
     1
 71
     0
 91
        1
 92
        3
 72
     0
 73
     1
 93
       16
 10
22711.03006139946
 20
-13906.57719431141
 10
22711.03006139946
 20
-13904.5640441914
 10
22712.11042411946
 20
-13904.5640441914
 10
22712.30811935946
 20
-13904.5640441914
 10
22712.70072539946
 20
-13904.71161951141
 10
22712.94575611946
 20
-13904.8591948314
 10
22713.04321151946
 20
-13905.0067701514
 10
22713.14345135946
 20
-13905.2016809514
 10
22713.19078683946
 20
-13905.39937619141
 10
22713.19078683946
 20
-13905.4968315914
 10
22713.14345135946
 20
-13905.74186231141
 10
22713.04321151946
 20
-13906.0370129514
 10
22712.94575611946
 20
-13906.2347081914
 10
22712.75084531946
 20
-13906.4296189914
 10
22712.30811935946
 20
-13906.52985883139
 10
22712.11042411946
 20
-13906.57719431141
 97
        0
 75
     0
 76
     1
 98
        0
  0
HATCH
  5
30A
330
1F
100
AcDbEntity
  8
Ech.1_5
  6
Continuous
 62
   136
420
    33651
440
 33554687
370
    20
390
5F
100
AcDbHatch
 10
0.0
 20
0.0
 30
0.0
210
0.0
220
0.0
230
1.0
  2
SOLID
 70
     1
 71
     0
 91
        1
 92
        3
 72
     0
 73
     1
 93
        3
 10
22721.19605183946
 20
-13908.59034443138
 10
22722.47410979946
 20
-13904.71161951141
 10
22723.75216775946
 20
-13908.59034443138
 97
        0
 75
     0
 76
     1
 98
        0
  0
HATCH
  5
30B
330
1F
100
AcDbEntity
  8
Ech.1_5
  6
Continuous
 62
   158
420
    12131
440
 33554687
370
    20
390
5F
100
AcDbHatch
 10
0.0
 20
0.0
 30
0.0
210
0.0
220
0.0
230
1.0
  2
SOLID
 70
     1
 71
     0
 91
        3
 92
        3
 72
     0
 73
     1
 93
       25
 10
22688.14196459946
 20
-13917.5311812714
 10
22691.09068655946
 20
-13916.3032432314
 10
22694.62692535947
 20
-13915.41779131141
 10
22697.62298279946
 20
-13914.97506535141
 10
22701.20655707946
 20
-13914.7300346314
 10
22705.38321707946
 20
-13914.78015455141
 10
22707.78897323946
 20
-13914.9277298714
 10
22707.78897323946
 20
-13899.25968599141
 10
22710.98272591946
 20
-13898.4243539914
 10
22713.38848207946
 20
-13897.0488406314
 10
22713.83120803946
 20
-13896.5587791914
 10
22713.92866343946
 20
-13896.4112038714
 10
22713.97878335946
 20
-13896.21350863139
 10
22713.87854351947
 20
-13896.01859783139
 10
22713.68363271946
 20
-13895.7735671114
 10
22712.99587603946
 20
-13895.4282965514
 10
22711.27509211946
 20
-13894.9855705914
 10
22709.35939739946
 20
-13894.7906597914
 10
22707.10121655946
 20
-13894.64308447139
 10
22702.92734099946
 20
-13894.64308447139
 10
22697.42528755946
 20
-13895.03569051141
 10
22691.77844323946
 20
-13896.06593331139
 10
22688.18973207085
 20
-13897.24778266916
 10
22687.35675251947
 20
-13897.68926183141
 10
22687.35675251947
 20
-13918.02124271141
 97
        0
 92
        3
 72
     0
 73
     1
 93
       53
 10
22704.40030975946
 20
-13912.4217338714
 10
22703.56497775947
 20
-13912.4718537914
 10
22702.53473495946
 20
-13912.37439839141
 10
22700.86407095946
 20
-13911.6365217914
 10
22699.68625283946
 20
-13910.3584638314
 10
22698.99849615946
 20
-13908.59034443138
 10
22698.94837623946
 20
-13907.56010163141
 10
22698.99849615946
 20
-13906.52985883139
 10
22699.68625283946
 20
-13904.76173943139
 10
22700.86407095946
 20
-13903.4335615514
 10
22702.53473495946
 20
-13902.69846939141
 10
22703.56497775947
 20
-13902.64834947139
 10
22704.40030975946
 20
-13902.69846939141
 10
22705.77582311946
 20
-13903.1384109114
 10
22706.21854907946
 20
-13903.53380139139
 10
22706.41345987946
 20
-13903.92640743141
 10
22706.41345987946
 20
-13904.31901347139
 10
22706.26588455946
 20
-13904.6141641114
 10
22706.07097375947
 20
-13904.8591948314
 10
22705.77582311946
 20
-13905.0067701514
 10
22705.57812787946
 20
-13905.0067701514
 10
22705.38321707946
 20
-13905.0067701514
 10
22704.99061103947
 20
-13904.90653031141
 10
22704.30285435946
 20
-13904.6141641114
 10
22703.56497775947
 20
-13904.5640441914
 10
22703.22249163946
 20
-13904.5640441914
 10
22702.68231027946
 20
-13904.71161951141
 10
22702.23958431946
 20
-13904.95665023139
 10
22701.84697827946
 20
-13905.25180087141
 10
22701.40425231947
 20
-13905.88943763141
 10
22701.06176619946
 20
-13906.96980035141
 10
22701.01164627946
 20
-13907.6102215514
 10
22701.06176619946
 20
-13908.1977383914
 10
22701.40425231947
 20
-13909.2307656314
 10
22701.84697827946
 20
-13909.8684023914
 10
22702.23958431946
 20
-13910.1635530314
 10
22702.68231027946
 20
-13910.40858375141
 10
22703.22249163946
 20
-13910.50603915139
 10
22703.56497775947
 20
-13910.55615907141
 10
22704.30285435946
 20
-13910.4587036714
 10
22705.03794651946
 20
-13910.1635530314
 10
22705.48067247946
 20
-13910.01597771141
 10
22705.67836771946
 20
-13909.96585779141
 10
22705.77582311946
 20
-13909.96585779141
 10
22705.97073391946
 20
-13910.01597771141
 10
22706.21854907946
 20
-13910.1635530314
 10
22706.41345987946
 20
-13910.4587036714
 10
22706.56103519946
 20
-13910.7538543114
 10
22706.56103519946
 20
-13910.89864519141
 10
22706.51091527946
 20
-13911.0963404314
 10
22706.36612439946
 20
-13911.4889464714
 10
22706.07097375947
 20
-13911.83421703139
 10
22705.62824779946
 20
-13912.0291278314
 97
        0
 92
        3
 72
     0
 73
     1
 93
       37
 10
22693.49644271946
 20
-13912.22682307141
 10
22693.15395659946
 20
-13912.37439839141
 10
22692.71123063946
 20
-13912.37439839141
 10
22692.36596007946
 20
-13912.22682307141
 10
22692.12092935946
 20
-13911.97900791141
 10
22691.92601855946
 20
-13911.58640187139
 10
22691.92601855946
 20
-13903.6312567914
 10
22692.07359387946
 20
-13903.2859862314
 10
22692.36596007946
 20
-13902.99362003141
 10
22692.76135055946
 20
-13902.7959247914
 10
22693.00638127946
 20
-13902.7959247914
 10
22696.39504475946
 20
-13902.7959247914
 10
22696.58995555947
 20
-13902.7959247914
 10
22696.93522611947
 20
-13902.94350011139
 10
22697.18025683946
 20
-13903.2386507514
 10
22697.27771223946
 20
-13903.53380139139
 10
22697.27771223946
 20
-13903.87628751139
 10
22697.18025683946
 20
-13904.22155807141
 10
22697.03268151946
 20
-13904.4164688714
 10
22696.88510619946
 20
-13904.51392427139
 10
22696.58995555947
 20
-13904.6141641114
 10
22696.39504475946
 20
-13904.6614995914
 10
22693.93916867946
 20
-13904.6614995914
 10
22693.93916867946
 20
-13906.57719431141
 10
22696.00243871946
 20
-13906.57719431141
 10
22696.24746943946
 20
-13906.62731423141
 10
22696.58995555947
 20
-13906.7247696314
 10
22696.83777071947
 20
-13907.0199202714
 10
22696.98256159946
 20
-13907.31507091139
 10
22696.98256159946
 20
-13907.6575570314
 10
22696.83777071947
 20
-13908.0028275914
 10
22696.58995555947
 20
-13908.2478583114
 10
22696.24746943946
 20
-13908.39543363139
 10
22696.00243871946
 20
-13908.44276911139
 10
22693.93916867946
 20
-13908.44276911139
 10
22693.93916867946
 20
-13911.58640187139
 10
22693.79159335946
 20
-13911.97900791141
 97
        0
 75
     0
 76
     1
 98
        0
  0
HATCH
  5
30C
330
1F
100
AcDbEntity
  8
Ech.1_5
  6
Continuous
 62
   136
420
    33651
440
 33554687
370
    20
390
5F
100
AcDbHatch
 10
0.0
 20
0.0
 30
0.0
210
0.0
220
0.0
230
1.0
  2
SOLID
 70
     1
 71
     0
 91
        3
 92
        3
 72
     0
 73
     1
 93
       18
 10
22707.87588438822
 20
-13919.4942114714
 10
22710.93260599946
 20
-13919.4942114714
 10
22716.18684427946
 20
-13918.9066946314
 10
22720.46095967947
 20
-13917.6787565914
 10
22723.79950323946
 20
-13916.1556679114
 10
22726.25537931946
 20
-13914.48500391141
 10
22727.92604331946
 20
-13912.96191523142
 10
22729.20410127946
 20
-13911.4388265514
 10
22729.44913199946
 20
-13910.89864519141
 10
22729.44913199946
 20
-13890.6641197114
 10
22729.10386143946
 20
-13891.1569655914
 10
22726.74822519946
 20
-13893.21745119141
 10
22723.01429115946
 20
-13895.5257519514
 10
22719.62562767946
 20
-13897.0488406314
 10
22715.49908759946
 20
-13898.27677867139
 10
22710.58733543946
 20
-13899.11211067141
 10
22707.78897323946
 20
-13899.25968599141
 10
22707.78897323946
 20
-13919.4942114714
 97
        0
 92
        3
 72
     0
 73
     1
 93
       30
 10
22715.59932743946
 20
-13910.89864519141
 10
22715.30417679947
 20
-13911.39149107139
 10
22714.66375559946
 20
-13911.88155251139
 10
22713.53605739946
 20
-13912.2741585514
 10
22712.84830071946
 20
-13912.2741585514
 10
22710.09727399946
 20
-13912.2741585514
 10
22709.90236319946
 20
-13912.2741585514
 10
22709.50697271946
 20
-13912.12658323141
 10
22709.21460651946
 20
-13911.88155251139
 10
22709.06703119946
 20
-13911.5390663914
 10
22709.06703119946
 20
-13903.5811368714
 10
22709.16448659946
 20
-13903.2859862314
 10
22709.26194199946
 20
-13903.1384109114
 10
22709.50697271946
 20
-13902.94350011139
 10
22709.85224327946
 20
-13902.7959247914
 10
22712.65060547946
 20
-13902.7959247914
 10
22713.19078683946
 20
-13902.8460447114
 10
22714.07623875946
 20
-13903.1384109114
 10
22714.76399543946
 20
-13903.77883211141
 10
22715.15660147946
 20
-13904.6141641114
 10
22715.15660147946
 20
-13905.4968315914
 10
22715.00902615946
 20
-13906.08713287139
 10
22714.71387551946
 20
-13906.57719431141
 10
22714.22381407947
 20
-13906.96980035141
 10
22713.92866343946
 20
-13907.11737567141
 10
22714.37138939946
 20
-13907.21761551141
 10
22715.10648155946
 20
-13907.6102215514
 10
22715.64666291946
 20
-13908.1977383914
 10
22715.94181355946
 20
-13908.98573491141
 10
22715.94181355946
 20
-13910.06609763141
 97
        0
 92
        3
 72
     0
 73
     1
 93
       35
 10
22725.17501659946
 20
-13912.2741585514
 10
22724.92998587946
 20
-13912.0792477514
 10
22724.78241055946
 20
-13911.83421703139
 10
22724.73229063946
 20
-13911.6866417114
 10
22724.33968459946
 20
-13910.40858375141
 10
22720.60853499946
 20
-13910.40858375141
 10
22720.21592895946
 20
-13911.6866417114
 10
22720.16580903946
 20
-13911.83421703139
 10
22720.01823371946
 20
-13912.0792477514
 10
22719.77320299946
 20
-13912.2741585514
 10
22719.42793243946
 20
-13912.37439839141
 10
22719.03532639946
 20
-13912.37439839141
 10
22718.69284027946
 20
-13912.22682307141
 10
22718.44780955946
 20
-13911.97900791141
 10
22718.30023423946
 20
-13911.6365217914
 10
22718.25011431946
 20
-13911.4388265514
 10
22718.30023423946
 20
-13911.14646035141
 10
22718.34756971947
 20
-13910.99888503141
 10
22721.05126095946
 20
-13903.72871219139
 10
22721.14871635946
 20
-13903.53380139139
 10
22721.39374707946
 20
-13903.1384109114
 10
22721.78635311946
 20
-13902.7959247914
 10
22722.22907907946
 20
-13902.64834947139
 10
22722.71914051946
 20
-13902.64834947139
 10
22723.16186647946
 20
-13902.7959247914
 10
22723.55447251946
 20
-13903.09107543139
 10
22723.79950323946
 20
-13903.53380139139
 10
22723.89974307946
 20
-13903.72871219139
 10
22726.50041003947
 20
-13910.99888503141
 10
22726.60064987946
 20
-13911.29403567141
 10
22726.60064987946
 20
-13911.6866417114
 10
22726.45307455946
 20
-13912.0291278314
 10
22726.20804383946
 20
-13912.22682307141
 10
22725.86277327946
 20
-13912.37439839141
 10
22725.52028715946
 20
-13912.37439839141
 97
        0
 75
     0
 76
     1
 98
        0
  0
HATCH
  5
30D
330
1F
100
AcDbEntity
  8
Ech.1_5
  6
Continuous
 62
   158
420
    12131
440
 33554687
370
    20
390
5F
100
AcDbHatch
 10
0.0
 20
0.0
 30
0.0
210
0.0
220
0.0
230
1.0
  2
SOLID
 70
     1
 71
     0
 91
        1
 92
        3
 72
     0
 73
     1
 93
        4
 10
22687.65190315947
 20
-13928.7775344314
 10
22687.65190315947
 20
-13925.3888709514
 10
22688.14196459946
 20
-13925.3888709514
 10
22688.14196459946
 20
-13928.7775344314
 97
        0
 75
     0
 76
     1
 98
        0
  0
HATCH
  5
30E
330
1F
100
AcDbEntity
  8
Ech.1_5
  6
Continuous
 62
   158
420
    12131
440
 33554687
370
    20
390
5F
100
AcDbHatch
 10
0.0
 20
0.0
 30
0.0
210
0.0
220
0.0
230
1.0
  2
SOLID
 70
     1
 71
     0
 91
        1
 92
        3
 72
     0
 73
     1
 93
       18
 10
22689.36990263946
 20
-13928.7775344314
 10
22689.36990263946
 20
-13925.3888709514
 10
22689.96020391947
 20
-13925.3888709514
 10
22691.04056663946
 20
-13927.2071102714
 10
22691.38583719946
 20
-13927.7946271114
 10
22691.48329259946
 20
-13927.99232235139
 10
22691.43317267946
 20
-13927.5495963914
 10
22691.43317267946
 20
-13927.1068704314
 10
22691.38583719946
 20
-13925.3888709514
 10
22691.87589863946
 20
-13925.3888709514
 10
22691.87589863946
 20
-13928.7775344314
 10
22691.38583719946
 20
-13928.7775344314
 10
22690.30547447946
 20
-13926.9592951114
 10
22690.05765931946
 20
-13926.6168089914
 10
22689.81262859946
 20
-13926.07662763141
 10
22689.81262859946
 20
-13926.3717782714
 10
22689.86274851946
 20
-13927.0094150314
 10
22689.86274851946
 20
-13928.7775344314
 97
        0
 75
     0
 76
     1
 98
        0
  0
HATCH
  5
30F
330
1F
100
AcDbEntity
  8
Ech.1_5
  6
Continuous
 62
   158
420
    12131
440
 33554687
370
    20
390
5F
100
AcDbHatch
 10
0.0
 20
0.0
 30
0.0
210
0.0
220
0.0
230
1.0
  2
SOLID
 70
     1
 71
     0
 91
        1
 92
        3
 72
     0
 73
     1
 93
       62
 10
22693.98928859946
 20
-13928.8276543514
 10
22693.69413795946
 20
-13928.8276543514
 10
22693.05371675946
 20
-13928.68007903141
 10
22692.76135055946
 20
-13928.53250371141
 10
22692.95626135946
 20
-13928.08977775141
 10
22693.25141199946
 20
-13928.2373530714
 10
22693.79159335946
 20
-13928.3849283914
 10
22694.03662407946
 20
-13928.3849283914
 10
22694.23431931946
 20
-13928.3849283914
 10
22694.47935003946
 20
-13928.3348084714
 10
22694.57680543946
 20
-13928.28747299139
 10
22694.72438075946
 20
-13928.13989767139
 10
22694.82183615946
 20
-13928.03965783139
 10
22694.82183615946
 20
-13927.9422024314
 10
22694.82183615946
 20
-13927.7472916314
 10
22694.77450067946
 20
-13927.5997163114
 10
22694.62692535947
 20
-13927.45214099141
 10
22694.33177471947
 20
-13927.3519011514
 10
22694.18419939946
 20
-13927.30456567141
 10
22693.69413795946
 20
-13927.15699035141
 10
22693.54656263947
 20
-13927.1068704314
 10
22693.20129207946
 20
-13926.9592951114
 10
22693.00638127946
 20
-13926.71426439141
 10
22692.90614143946
 20
-13926.4692336714
 10
22692.90614143946
 20
-13926.27153843141
 10
22692.90614143946
 20
-13926.1740830314
 10
22692.95626135946
 20
-13925.9791722314
 10
22693.05371675946
 20
-13925.78147699141
 10
22693.15395659946
 20
-13925.63390167142
 10
22693.39898731947
 20
-13925.48632635141
 10
22693.84171327946
 20
-13925.29141555141
 10
22694.13407947946
 20
-13925.29141555141
 10
22694.47935003946
 20
-13925.29141555141
 10
22695.06965131946
 20
-13925.48632635141
 10
22695.31468203946
 20
-13925.63390167142
 10
22695.06965131946
 20
-13926.0265077114
 10
22694.87195607946
 20
-13925.87893239141
 10
22694.38189463946
 20
-13925.7313570714
 10
22694.13407947946
 20
-13925.7313570714
 10
22693.98928859946
 20
-13925.7313570714
 10
22693.74147343946
 20
-13925.78147699141
 10
22693.59389811946
 20
-13925.87893239141
 10
22693.54656263947
 20
-13925.9791722314
 10
22693.49644271946
 20
-13926.07662763141
 10
22693.44632279946
 20
-13926.1740830314
 10
22693.44632279946
 20
-13926.27153843141
 10
22693.74147343946
 20
-13926.6168089914
 10
22694.03662407946
 20
-13926.71426439141
 10
22694.47935003946
 20
-13926.81171979139
 10
22694.67426083946
 20
-13926.86183971141
 10
22695.06965131946
 20
-13927.05953495139
 10
22695.16710671946
 20
-13927.15699035141
 10
22695.26456211946
 20
-13927.25444575139
 10
22695.41213743947
 20
-13927.5997163114
 10
22695.41213743947
 20
-13927.7472916314
 10
22695.41213743947
 20
-13927.89208251139
 10
22695.31468203946
 20
-13928.13989767139
 10
22695.21444219946
 20
-13928.3849283914
 10
22695.01953139946
 20
-13928.5798391914
 10
22694.87195607946
 20
-13928.6299591114
 10
22694.67426083946
 20
-13928.7274145114
 10
22694.23431931946
 20
-13928.8276543514
 97
        0
 75
     0
 76
     1
 98
        0
  0
LWPOLYLINE
  5
310
330
1F
100
AcDbEntity
  8
Ech.1_5
  6
Continuous
 62
   190
370
    15
390
5F
100
AcDbPolyline
 90
        3
 70
     0
 43
0.0
 10
23438.27059486983
 20
-13405.53933639983
 10
23366.23142960696
 20
-13266.34192345628
 10
23346.23142960696
 20
-13266.34192345628
  0
INSERT
  5
311
330
1F
100
AcDbEntity
  8
Ech.1_5
 62
   190
370
    15
100
AcDbBlockReference
  2
cw-line-extremity4
 10
23438.27059486983
 20
-13405.53933639983
 30
0.0
 50
117.3630271235463
  0
LWPOLYLINE
  5
312
330
1F
100
AcDbEntity
  8
Ech.1_5
  6
Continuous
 62
   190
370
    15
390
5F
100
AcDbPolyline
 90
        3
 70
     0
 43
0.0
 10
22827.12139717154
 20
-13336.59351102418
 10
23090.119293906
 20
-13096.93704173234
 10
23110.119293906
 20
-13096.93704173234
  0
INSERT
  5
313
330
1F
100
AcDbEntity
  8
Ech.1_5
 62
   190
370
    15
100
AcDbBlockReference
  2
cw-line-extremity4
 10
22827.12139717154
 20
-13336.59351102418
 30
0.0
 50
42.34130379857113
  0
LWPOLYLINE
  5
314
330
1F
100
AcDbEntity
  8
Ech.1_5
  6
Continuous
 62
   190
370
    15
390
5F
100
AcDbPolyline
 90
        3
 70
     0
 43
0.0
 10
22972.39859933998
 20
-13312.08822108975
 10
23090.119293906
 20
-13208.40381782359
 10
23110.119293906
 20
-13208.40381782359
  0
INSERT
  5
315
330
1F
100
AcDbEntity
  8
Ech.1_5
 62
   190
370
    15
100
AcDbBlockReference
  2
cw-line-extremity4
 10
22972.39859933998
 20
-13312.08822108975
 30
0.0
 50
41.37250707203033
  0
LWPOLYLINE
  5
316
330
1F
100
AcDbEntity
  8
Ech.1_5
  6
Continuous
 62
   190
370
    15
390
5F
100
AcDbPolyline
 90
        3
 70
     0
 43
0.0
 10
23373.60635279112
 20
-13406.49970029733
 10
23314.19192325821
 20
-13297.44857031473
 10
23294.19192325821
 20
-13297.44857031473
  0
INSERT
  5
317
330
1F
100
AcDbEntity
  8
Ech.1_5
 62
   190
370
    15
100
AcDbBlockReference
  2
cw-line-extremity4
 10
23373.60635279112
 20
-13406.49970029733
 30
0.0
 50
118.5829152937929
  0
MTEXT
  5
319
330
1F
100
AcDbEntity
  8
Ech.1_5
  6
Continuous
 62
     4
420
    65535
390
5F
100
AcDbMText
 10
23225.80549915173
 20
-13811.34143865525
 30
0.0
 40
12.5
 41
488.342884635189
 46
0.0
 71
     2
 72
     1
  1
{\fArial|b0|i0;\W1.000000;\H12.500000;\c16711848;Vue en coupe horizontale}
  7
arial-
 73
     1
 44
1.07999975538982
  0
MTEXT
  5
31A
330
1F
100
AcDbEntity
  8
Ech.1_5
  6
Continuous
 62
     4
420
    65535
390
5F
100
AcDbMText
 10
23546.12560917258
 20
-13811.1742621626
 30
0.0
 40
12.5
 41
127.2973354065034
 46
0.0
 71
     2
 72
     1
  1
{\fArial|b0|i0;\W1.000000;\H12.500000;\c16711848;Ech 1/5 }
  7
arial-
 73
     1
 44
1.07999975538982
  0
MTEXT
  5
31B
330
1F
100
AcDbEntity
  8
Ech.1_5
  6
Continuous
 62
     4
420
    65535
390
5F
100
AcDbMText
 10
22897.30644783646
 20
-13810.90250586012
 30
0.0
 40
12.5
 41
143.6552179953505
 46
0.0
 71
     2
 72
     1
  1
{\fArial|b0|i0;\W1.000000;\H12.500000;\c16711848;ME08-12}
  7
arial-
 73
     1
 44
1.07999975538982
  0
MTEXT
  5
31D
330
1F
100
AcDbEntity
  8
Ech.1_5
  6
Continuous
 62
   200
420
 11010303
390
5F
100
AcDbMText
 10
23123.52427687583
 20
-13833.92162319696
 30
0.0
 40
8.75
 41
976.25
 46
0.0
 71
     2
 72
     1
  3
{\fArial|b0|i1;\W1.000000;\H8.750000;\c16711848; Il est rappelé à l'utilisateur qui consulte le site et utilise les informations qu'il contient, qu'il doit les utiliser sous sa seule responsabilité en vérifiant leur pertinence, leur cohérence et leur
  1
 non obsolescence.}
  7
arial-i
 73
     1
 44
1.07999975538982
  0
MTEXT
  5
31F
330
1F
100
AcDbEntity
  8
Ech.1_5
  6
Continuous
 62
   200
420
 11010303
390
5F
100
AcDbMText
 10
23123.52427687583
 20
-13720.26054285447
 30
0.0
 40
16.25
 41
968.75
 46
0.0
 71
     2
 72
     1
  1
{\fArial|b1|i0;\W1.000000;\H16.250000;\c16711848;MUR EXTERIEUR TYPE 8: Isolant en âme et en doublage intérieur et extérieur}
  7
arial-b
 73
     1
 44
1.07999975538982
  0
MTEXT
  5
320
330
1F
100
AcDbEntity
  8
Ech.1_5
  6
Continuous
 62
     4
420
    65535
390
5F
100
AcDbMText
 10
23123.52427687583
 20
-13751.61750601271
 30
0.0
 40
16.25
 41
968.75
 46
0.0
 71
     2
 72
     1
  1
{\fArial|b0|i0;\W1.000000;\H16.250000;\c16711848;Détail d'angle entrant}
  7
arial-
 73
     1
 44
1.07999975538982
  0
MTEXT
  5
321
330
1F
100
AcDbEntity
  8
Ech.1_5
  6
Continuous
 62
   200
420
 11010303
390
5F
100
AcDbMText
 10
23123.52427687583
 20
-13783.27750586012
 30
0.0
 40
16.25
 41
968.75
 46
0.0
 71
     2
 72
     1
  1
{\fArial|b0|i0;\W1.000000;\H16.250000;\c16711848;En cas de préfabrication des murs en lot S ou SE}
  7
arial-
 73
     1
 44
1.07999975538982
  0
MTEXT
  5
322
330
1F
100
AcDbEntity
  8
Ech.1_5
  6
Continuous
 62
     4
420
    65535
390
5F
100
AcDbMText
 10
22723.54248153399
 20
-12699.88151987831
 30
0.0
 40
13.75
 41
193.8487666624569
 46
0.0
 71
     1
 72
     1
  1
{\fArial|b0|i0;\W1.000000;\H13.750000;\c16711848;Calfeutrement}
  7
arial-
 73
     1
 44
1.07999975538982
 90
        3
 63
     9
421
 13158600
 45
1.5
441
 33554687
  0
MTEXT
  5
323
330
1F
100
AcDbEntity
  8
Ech.1_5
  6
Continuous
 62
     4
420
    65535
390
5F
100
AcDbMText
 10
22671.53955129078
 20
-12645.46131059058
 30
0.0
 40
13.75
 41
231.0892037716512
 46
0.0
 71
     1
 72
     1
  1
{\fArial|b1|i0;\W1.000000;\H13.750000;\c16711848;COMPLEMENT LEGENDE}
  7
arial-b
 73
     1
 44
1.07999975538982
 90
        3
 63
     9
421
 13158600
 45
1.5
441
 33554687
  0
MTEXT
  5
324
330
1F
100
AcDbEntity
  8
Ech.1_5
  6
Continuous
 62
     4
420
    65535
390
5F
100
AcDbMText
 10
22721.64480787003
 20
-12672.14987021571
 30
0.0
 40
13.75
 41
193.8487666624569
 46
0.0
 71
     1
 72
     1
  1
{\fArial|b0|i0;\W1.000000;\H13.750000;\c16711848;Bande adhésive}
  7
arial-
 73
     1
 44
1.07999975538982
 90
        3
 63
     9
421
 13158600
 45
1.5
441
 33554687
  0
MTEXT
  5
325
330
1F
100
AcDbEntity
  8
Ech.1_5
  6
Continuous
 62
     4
420
    65535
390
5F
100
AcDbMText
 10
23116.99429390601
 20
-13069.15070793589
 30
0.0
 40
13.75
 41
242.4160861638811
 46
0.0
 71
     1
 72
     1
  3
{\fArial|b0|i0;\W1.000000;\H13.750000;\c16711848;Montant non nécessaire}\P{\fArial|b0|i0;\W1.000000;\H13.750000;\c16711848;structurellement mais sert}\P{\fArial|b0|i0;\W1.000000;\H13.750000;\c16711848;à la fixation du tasseau}\P{\fArial|b0|i0;\W1.000
  1
000;\H13.750000;\c16711848;support de bardage}
  7
arial-
 73
     1
 44
1.07999975538982
 90
        3
 63
     9
421
 13158600
 45
1.5
441
 33554687
  0
MTEXT
  5
326
330
1F
100
AcDbEntity
  8
Ech.1_5
  6
Continuous
 62
     4
420
    65535
390
5F
100
AcDbMText
 10
23116.99429390601
 20
-13200.34210783968
 30
0.0
 40
13.75
 41
253.9957632896185
 46
0.0
 71
     1
 72
     1
  1
{\fArial|b0|i0;\W1.000000;\H13.750000;\c16711848;Si discontinuité du pare-pluie}\P{\fArial|b0|i0;\W1.000000;\H13.750000;\c16711848;recouvrement sous tasseaux}
  7
arial-
 73
     1
 44
1.07999975538982
 90
        3
 63
     9
421
 13158600
 45
1.5
441
 33554687
  0
MTEXT
  5
327
330
1F
100
AcDbEntity
  8
Ech.1_5
  6
Continuous
 62
     7
390
5F
100
AcDbMText
 10
23339.35642960696
 20
-13261.20896828785
 30
0.0
 40
13.75
 41
195.8294116869001
 46
0.0
 71
     3
 72
     1
  1
{\fArial|b0|i0;\W1.000000;\H13.750000;\c16711848;Tasseaux horizontaux}
  7
arial-
 73
     1
 44
1.07999975538982
  0
MTEXT
  5
328
330
1F
100
AcDbEntity
  8
Ech.1_5
  6
Continuous
 62
     7
390
5F
100
AcDbMText
 10
23287.31692325821
 20
-13292.3156151463
 30
0.0
 40
13.75
 41
195.8294116869001
 46
0.0
 71
     3
 72
     1
  1
{\fArial|b0|i0;\W1.000000;\H13.750000;\c16711848;Isolant extérieur}
  7
arial-
 73
     1
 44
1.07999975538982
  0
TEXT
  5
329
330
1F
100
AcDbEntity
  8
Ech.1_5
  6
Continuous
 62
   190
390
5F
100
AcDbText
 10
22684.06315141272
 20
-13823.61244068506
 30
0.0
 40
12.5
  1
30/01/2023
  7
arial-
100
AcDbText
  0
TEXT
  5
32A
330
1F
100
AcDbEntity
  8
Ech.1_5
  6
Continuous
 62
   190
390
5F
100
AcDbText
 10
23477.18322243429
 20
-12659.70121039982
 30
0.0
 40
8.0
  1
0
  7
arial-
100
AcDbText
  0
TEXT
  5
32B
330
1F
100
AcDbEntity
  8
Ech.1_5
  6
Continuous
 62
   190
390
5F
100
AcDbText
 10
23194.83437500468
 20
-13024.57933106061
 30
0.0
 40
15.0
  1
%%UVariante préfabriquée
  7
arial-
100
AcDbText
  0
TEXT
  5
32C
330
1F
100
AcDbEntity
  8
Ech.1_5
  6
Continuous
 62
   190
390
5F
100
AcDbText
 10
23491.16380718372
 20
-12631.49137487014
 30
0.0
 40
8.0
  1
Echelle en mm
  7
arial-
100
AcDbText
  0
TEXT
  5
32D
330
1F
100
AcDbEntity
  8
Ech.1_5
  6
Continuous
 62
   190
390
5F
100
AcDbText
 10
23563.78028032701
 20
-12659.70121039982
 30
0.0
 40
8.0
  1
100
  7
arial-
100
AcDbText
  0
TEXT
  5
32E
330
1F
100
AcDbEntity
  8
Ech.1_5
  6
Continuous
 62
   190
390
5F
100
AcDbText
 10
23525.03984876113
 20
-12659.70121039982
 30
0.0
 40
8.0
  1
50
  7
arial-
100
AcDbText
  0
TEXT
  5
32F
330
1F
100
AcDbEntity
  8
Ech.1_5
  6
Continuous
 62
   190
390
5F
100
AcDbText
 10
23013.97518172202
 20
-13878.87115339746
 30
0.0
 40
12.0
  1
catalogue-bois-construction.fr
  7
arial-i
100
AcDbText
  0
VIEWPORT
  5
217
330
211
100
AcDbEntity
 67
     1
  8
0
  6
Continuous
390
5F
100
AcDbViewport
 10
98.8
 20
135.8
 30
0.0
 40
209.0608
 41
287.3528000000001
 68
     1
 69
     1
 12
128.5
 22
97.5
 13
0.0
 23
0.0
 14
10.0
 24
10.0
 15
10.0
 25
10.0
 16
0.0
 26
0.0
 36
1.0
 17
0.0
 27
0.0
 37
0.0
 42
50.0
 43
0.0
 44
0.0
 45
222.18
 50
0.0
 51
0.0
 72
   100
 90
   557152
  1

281
     0
 71
     1
 74
     0
110
0.0
120
0.0
130
0.0
111
1.0
121
0.0
131
0.0
112
0.0
122
1.0
132
0.0
 79
     0
146
0.0
170
     0
 61
     5
348
2F
292
     1
282
     1
141
0.0
142
0.0
 63
   256
361
218
  0
VIEWPORT
  5
219
330
211
100
AcDbEntity
 67
     1
  8
0
  6
Continuous
 60
     1
390
5F
100
AcDbViewport
 10
98.8
 20
135.8
 30
0.0
 40
197.6
 41
271.6
 68
     2
 69
     2
 12
23123.52427687583
 22
-13267.56557792518
 13
0.0
 23
0.0
 14
10.0
 24
10.0
 15
10.0
 25
10.0
 16
0.0
 26
0.0
 36
1.0
 17
0.0
 27
0.0
 37
0.0
 42
50.0
 43
0.0
 44
0.0
 45
1358.0
 50
0.0
 51
0.0
 72
   100
 90
   557152
  1

281
     0
 71
     1
 74
     0
110
0.0
120
0.0
130
0.0
111
1.0
121
0.0
131
0.0
112
0.0
122
1.0
132
0.0
 79
     0
146
0.0
170
     0
 61
     5
348
2F
292
     1
282
     1
141
0.0
142
0.0
 63
   256
  0
ENDSEC
  0
SECTION
  2
OBJECTS
  0
DICTIONARY
  5
C
330
0
100
AcDbDictionary
281
     1
  3
ACAD_DETAILVIEWSTYLE
350
337
  3
ACAD_GROUP
350
D
  3
ACAD_IMAGE_VARS
350
60
  3
ACAD_LAYOUT
350
1A
  3
ACAD_MATERIAL
350
43
  3
ACAD_MLEADERSTYLE
350
5B
  3
ACAD_MLINESTYLE
350
17
  3
ACAD_PLOTSETTINGS
350
19
  3
ACAD_PLOTSTYLENAME
350
E
  3
ACAD_SCALELIST
350
47
  3
ACAD_SECTIONVIEWSTYLE
350
338
  3
ACAD_TABLESTYLE
350
59
  3
ACAD_VISUALSTYLE
350
2A
  3
ACAD_WIPEOUT_VARS
350
61
  3
ACDB_RECOMPOSE_DATA
350
334
  3
AcDbVariableDictionary
350
330
  0
SUN
  5
5D
330
29
100
AcDbSun
 90
        1
290
     0
 63
     7
421
 16777215
 40
1.0
291
     1
 91
  2455826
 92
 54000000
292
     0
 70
     2
 71
   256
280
     1
  0
SUN
  5
218
330
217
100
AcDbSun
 90
        1
290
     0
 63
     7
421
 16777215
 40
1.0
291
     1
 91
  2455826
 92
 54000000
292
     0
 70
     2
 71
   256
280
     1
  0
DICTIONARY
  5
337
102
{ACAD_REACTORS
330
C
102
}
330
C
100
AcDbDictionary
281
     1
  0
DICTIONARY
  5
D
102
{ACAD_REACTORS
330
C
102
}
330
C
100
AcDbDictionary
281
     1
  0
RASTERVARIABLES
  5
60
102
{ACAD_REACTORS
330
C
102
}
330
C
100
AcDbRasterVariables
 90
        0
 70
     0
 71
     1
 72
     1
  0
DICTIONARY
  5
1A
102
{ACAD_REACTORS
330
C
102
}
330
C
100
AcDbDictionary
281
     1
  3
CompleteLayout
350
1E
  3
Model
350
22
  3
PrintFrame_291
350
212
  0
DICTIONARY
  5
43
102
{ACAD_REACTORS
330
C
102
}
330
C
100
AcDbDictionary
281
     1
  3
ByBlock
350
45
  3
ByLayer
350
44
  3
Global
350
46
  0
DICTIONARY
  5
5B
102
{ACAD_REACTORS
330
C
102
}
330
C
100
AcDbDictionary
281
     1
  3
Standard
350
5C
  0
DICTIONARY
  5
17
102
{ACAD_REACTORS
330
C
102
}
330
C
100
AcDbDictionary
281
     1
  3
Standard
350
18
  0
DICTIONARY
  5
19
102
{ACAD_REACTORS
330
C
102
}
330
C
100
AcDbDictionary
281
     1
  3
PlotSettings_
350
215
  0
ACDBDICTIONARYWDFLT
  5
E
102
{ACAD_REACTORS
330
C
102
}
330
C
100
AcDbDictionary
281
     1
  3
flat
350
5F
  3
Normal
350
F
  3
round
350
23B
100
AcDbDictionaryWithDefault
340
F
  0
DICTIONARY
  5
47
102
{ACAD_REACTORS
330
C
102
}
330
C
100
AcDbDictionary
281
     1
  3
A0
350
48
  3
A1
350
49
  3
A2
350
4A
  3
A3
350
4B
  3
A4
350
4C
  3
A5
350
4D
  3
A6
350
4E
  3
A7
350
4F
  3
A8
350
50
  3
A9
350
51
  3
B0
350
52
  3
B1
350
53
  3
B2
350
54
  3
B3
350
55
  3
B4
350
56
  3
B5
350
57
  3
B6
350
58
  0
DICTIONARY
  5
338
102
{ACAD_REACTORS
330
C
102
}
330
C
100
AcDbDictionary
281
     1
  0
DICTIONARY
  5
59
102
{ACAD_REACTORS
330
C
102
}
330
C
100
AcDbDictionary
281
     1
  3
Standard
350
5A
  0
DICTIONARY
  5
2A
102
{ACAD_REACTORS
330
C
102
}
330
C
100
AcDbDictionary
281
     1
  3
2dWireframe
350
2F
  3
Basic
350
32
  3
Brighten
350
36
  3
ColorChange
350
3A
  3
Conceptual
350
34
  3
Dim
350
35
  3
EdgeColorOff
350
3D
  3
Facepattern
350
39
  3
Flat
350
2B
  3
FlatWithEdges
350
2C
  3
Gouraud
350
2D
  3
GouraudWithEdges
350
2E
  3
Hidden
350
31
  3
JitterOff
350
3B
  3
Linepattern
350
38
  3
OverhangOff
350
3C
  3
Realistic
350
33
  3
Shaded
350
42
  3
Shaded with edges
350
41
  3
Shades of Gray
350
3E
  3
Sketchy
350
3F
  3
Thicken
350
37
  3
Wireframe
350
30
  3
X-Ray
350
40
  0
WIPEOUTVARIABLES
  5
61
102
{ACAD_REACTORS
330
C
102
}
330
C
100
AcDbWipeoutVariables
 70
     0
  0
XRECORD
  5
334
102
{ACAD_REACTORS
330
C
102
}
330
C
100
AcDbXrecord
280
     1
 90
        1
330
5A
  0
DICTIONARY
  5
330
102
{ACAD_REACTORS
330
C
102
}
330
C
100
AcDbDictionary
281
     1
  3
CANNOSCALE
350
331
  3
CENTEREXE
350
33A
  3
CENTERLTYPEFILE
350
33B
  3
CMLEADERSTYLE
350
336
  3
CTABLESTYLE
350
335
  3
WIPEOUTFRAME
350
339
  0
LAYOUT
  5
1E
102
{ACAD_REACTORS
330
1A
102
}
330
1A
100
AcDbPlotSettings
  1

  2
none_device
  4

  6

 40
0.0
 41
0.0
 42
0.0
 43
0.0
 44
0.0
 45
0.0
 46
0.0
 47
0.0
 48
0.0
 49
0.0
140
0.0
141
0.0
142
1.0
143
1.0
 70
   688
 72
     1
 73
     0
 74
     5
  7

 75
    16
 76
     0
 77
     2
 78
   300
147
1.0
148
0.0
149
0.0
100
AcDbLayout
  1
CompleteLayout
 70
     1
 71
     1
 10
0.0
 20
0.0
 11
420.0
 21
297.0
 12
0.0
 22
0.0
 32
0.0
 14
1.000000000000000E+20
 24
1.000000000000000E+20
 34
1.000000000000000E+20
 15
-1.000000000000000E+20
 25
-1.000000000000000E+20
 35
-1.000000000000000E+20
146
0.0
 13
0.0
 23
0.0
 33
0.0
 16
1.0
 26
0.0
 36
0.0
 17
0.0
 27
1.0
 37
0.0
 76
     0
330
1B
  0
LAYOUT
  5
22
102
{ACAD_REACTORS
330
1A
102
}
330
1A
100
AcDbPlotSettings
  1

  2
none_device
  4
Letter_(8.50_x_11.00_Inches)
  6

 40
6.35
 41
6.35
 42
6.35000508
 43
6.35000508
 44
215.9
 45
279.4
 46
0.0
 47
0.0
 48
0.0
 49
0.0
140
0.0
141
0.0
142
1.0
143
1.0
 70
  1712
 72
     1
 73
     0
 74
     0
  7

 75
     0
 76
     0
 77
     2
 78
   300
147
1.0
148
0.0
149
0.0
100
AcDbLayout
  1
Model
 70
     1
 71
     0
 10
0.0
 20
0.0
 11
420.0
 21
297.0
 12
0.0
 22
0.0
 32
0.0
 14
9116.32829549663
 24
-14457.30704422377
 34
0.0
 15
31769.28913838763
 25
-12018.78313514858
 35
2500.0
146
0.0
 13
0.0
 23
0.0
 33
0.0
 16
1.0
 26
0.0
 36
0.0
 17
0.0
 27
1.0
 37
0.0
 76
     0
330
1F
331
29
  0
LAYOUT
  5
212
102
{ACAD_REACTORS
330
1A
102
}
330
1A
100
AcDbPlotSettings
  1
PlotSettings_
  2
Custom Device
  4
Custom_210.000000x297.000000_12.700000_12.700000_6.200000_6.200000
  6

 40
6.2
 41
12.7
 42
6.2
 43
12.7
 44
210.0
 45
297.0
 46
0.0000000000000142
 47
0.0
 48
0.0
 49
0.0
140
197.6
141
271.6
142
1.0
143
1.0
 70
   756
 72
     1
 73
     0
 74
     4
  7

 75
     0
 76
     0
 77
     2
 78
   300
147
1.0
148
0.0
149
0.0
100
AcDbLayout
  1
PrintFrame_291
 70
     0
 71
     2
 10
-20.0
 20
-7.5
 11
277.0
 21
202.5
 12
0.0
 22
0.0
 32
0.0
 14
-5.730400000000003
 24
-7.876400000000018
 34
0.0
 15
203.3304
 25
279.4764
 35
0.0
146
0.0
 13
0.0
 23
0.0
 33
0.0
 16
1.0
 26
0.0
 36
0.0
 17
0.0
 27
1.0
 37
0.0
 76
     0
330
211
331
217
1001
PLOTTRANSPARENCY
1071
        1
1000
layout-user-created
1070
     1
1000
layout-line-weight-scale
1042
1.0
  0
MATERIAL
  5
45
102
{ACAD_REACTORS
330
43
102
}
330
43
100
AcDbMaterial
  1
ByBlock
 72
     1
 94
      127
  0
MATERIAL
  5
44
102
{ACAD_REACTORS
330
43
102
}
330
43
100
AcDbMaterial
  1
ByLayer
 72
     1
 94
      127
  0
MATERIAL
  5
46
102
{ACAD_REACTORS
330
43
102
}
330
43
100
AcDbMaterial
  1
Global
 72
     1
 94
      127
  0
MLEADERSTYLE
  5
5C
102
{ACAD_REACTORS
330
5B
102
}
330
5B
100
AcDbMLeaderStyle
179
     2
170
     2
171
     1
172
     0
 90
        2
 40
0.0
 41
0.0
173
     1
 91
-1056964608
340
14
 92
       -2
290
     1
 42
2.0
291
     1
 43
8.0
  3
Standard
341
0
 44
4.0
300

342
11
174
     1
178
     6
175
     1
176
     0
 93
-1056964608
 45
4.0
292
     0
297
     0
 46
4.0
343
0
 94
-1056964608
 47
1.0
 49
1.0
140
1.0
293
     1
141
0.0
294
     1
177
     0
142
1.0
295
     0
296
     0
143
3.75
271
     0
272
     9
273
     9
298
     0
  0
MLINESTYLE
  5
18
102
{ACAD_REACTORS
330
17
102
}
330
17
100
AcDbMlineStyle
  2
Standard
 70
     0
  3

 62
   256
 51
90.0
 52
90.0
 71
     2
 49
0.5
 62
   256
  6
BYLAYER
 49
-0.5
 62
   256
  6
BYLAYER
  0
PLOTSETTINGS
  5
215
102
{ACAD_REACTORS
330
19
102
}
330
19
100
AcDbPlotSettings
  1
PlotSettings_
  2
Custom Device
  4
Custom_210.000000x297.000000_12.700000_12.700000_6.200000_6.200000
  6

 40
6.2
 41
12.7
 42
6.2
 43
12.7
 44
210.0
 45
297.0
 46
0.0000000000000142
 47
0.0
 48
0.0
 49
0.0
140
197.6
141
271.6
142
1.0
143
1.0
 70
   756
 72
     1
 73
     0
 74
     4
  7

 75
     0
 76
     0
 77
     2
 78
   300
147
1.0
148
0.0
149
0.0
1001
PLOTTRANSPARENCY
1071
        1
1000
layout-user-created
1070
     1
1000
layout-line-weight-scale
1042
1.0
  0
ACDBPLACEHOLDER
  5
5F
102
{ACAD_REACTORS
330
E
102
}
330
E
  0
ACDBPLACEHOLDER
  5
F
102
{ACAD_REACTORS
330
E
102
}
330
E
  0
ACDBPLACEHOLDER
  5
23B
102
{ACAD_REACTORS
330
E
102
}
330
E
  0
SCALE
  5
48
102
{ACAD_REACTORS
330
47
102
}
330
47
100
AcDbScale
 70
     0
300
1:1
140
1.0
141
1.0
290
     1
  0
SCALE
  5
49
102
{ACAD_REACTORS
330
47
102
}
330
47
100
AcDbScale
 70
     0
300
1:2
140
1.0
141
2.0
290
     0
  0
SCALE
  5
4A
102
{ACAD_REACTORS
330
47
102
}
330
47
100
AcDbScale
 70
     0
300
1:4
140
1.0
141
4.0
290
     0
  0
SCALE
  5
4B
102
{ACAD_REACTORS
330
47
102
}
330
47
100
AcDbScale
 70
     0
300
1:5
140
1.0
141
5.0
290
     0
  0
SCALE
  5
4C
102
{ACAD_REACTORS
330
47
102
}
330
47
100
AcDbScale
 70
     0
300
1:8
140
1.0
141
8.0
290
     0
  0
SCALE
  5
4D
102
{ACAD_REACTORS
330
47
102
}
330
47
100
AcDbScale
 70
     0
300
1:10
140
1.0
141
10.0
290
     0
  0
SCALE
  5
4E
102
{ACAD_REACTORS
330
47
102
}
330
47
100
AcDbScale
 70
     0
300
1:16
140
1.0
141
16.0
290
     0
  0
SCALE
  5
4F
102
{ACAD_REACTORS
330
47
102
}
330
47
100
AcDbScale
 70
     0
300
1:20
140
1.0
141
20.0
290
     0
  0
SCALE
  5
50
102
{ACAD_REACTORS
330
47
102
}
330
47
100
AcDbScale
 70
     0
300
1:30
140
1.0
141
30.0
290
     0
  0
SCALE
  5
51
102
{ACAD_REACTORS
330
47
102
}
330
47
100
AcDbScale
 70
     0
300
1:40
140
1.0
141
40.0
290
     0
  0
SCALE
  5
52
102
{ACAD_REACTORS
330
47
102
}
330
47
100
AcDbScale
 70
     0
300
1:50
140
1.0
141
50.0
290
     0
  0
SCALE
  5
53
102
{ACAD_REACTORS
330
47
102
}
330
47
100
AcDbScale
 70
     0
300
1:100
140
1.0
141
100.0
290
     0
  0
SCALE
  5
54
102
{ACAD_REACTORS
330
47
102
}
330
47
100
AcDbScale
 70
     0
300
2:1
140
2.0
141
1.0
290
     0
  0
SCALE
  5
55
102
{ACAD_REACTORS
330
47
102
}
330
47
100
AcDbScale
 70
     0
300
4:1
140
4.0
141
1.0
290
     0
  0
SCALE
  5
56
102
{ACAD_REACTORS
330
47
102
}
330
47
100
AcDbScale
 70
     0
300
8:1
140
8.0
141
1.0
290
     0
  0
SCALE
  5
57
102
{ACAD_REACTORS
330
47
102
}
330
47
100
AcDbScale
 70
     0
300
10:1
140
10.0
141
1.0
290
     0
  0
SCALE
  5
58
102
{ACAD_REACTORS
330
47
102
}
330
47
100
AcDbScale
 70
     0
300
100:1
140
100.0
141
1.0
290
     0
  0
TABLESTYLE
  5
5A
102
{ACAD_REACTORS
330
59
102
}
102
{ACAD_XDICTIONARY
360
332
102
}
330
59
100
AcDbTableStyle
  3
Standard
 70
     0
 71
     0
 40
0.06
 41
0.06
280
     0
281
     0
  7
Standard
140
4.5
170
     2
 62
     0
 63
   257
283
     0
 90
        4
 91
        0
  1

274
    -2
284
     1
 64
     0
275
    -2
285
     1
 65
     0
276
    -2
286
     1
 66
     0
277
    -2
287
     1
 67
     0
278
    -2
288
     1
 68
     0
279
    -2
289
     1
 69
     0
  7
Standard
140
6.0
170
     5
 62
     0
 63
   257
283
     0
 90
        4
 91
        0
  1

274
    -2
284
     1
 64
     0
275
    -2
285
     1
 65
     0
276
    -2
286
     1
 66
     0
277
    -2
287
     1
 67
     0
278
    -2
288
     1
 68
     0
279
    -2
289
     1
 69
     0
  7
Standard
140
4.5
170
     5
 62
     0
 63
   257
283
     0
 90
        4
 91
        0
  1

274
    -2
284
     1
 64
     0
275
    -2
285
     1
 65
     0
276
    -2
286
     1
 66
     0
277
    -2
287
     1
 67
     0
278
    -2
288
     1
 68
     0
279
    -2
289
     1
 69
     0
  0
VISUALSTYLE
  5
2F
102
{ACAD_REACTORS
330
2A
102
}
330
2A
100
AcDbVisualStyle
  2
2dWireframe
 70
     4
177
     3
291
     0
 70
    58
 90
        0
176
     1
 90
        2
176
     1
 90
        0
176
     1
 90
        0
176
     1
 40
0.6
176
     1
 40
30.0
176
     1
 62
     7
420
 16777215
176
     1
 90
        1
176
     1
 90
        4
176
     1
 62
     7
176
     1
 62
   257
176
     1
 90
        1
176
     1
 90
        1
176
     1
 40
1.0
176
     1
 90
        0
176
     1
 62
   257
176
     1
 40
1.0
176
     1
 90
        1
176
     1
 90
        6
176
     1
 90
        2
176
     1
 62
     7
176
     1
 90
        5
176
     1
 90
        0
176
     1
 90
        0
176
     1
290
     0
176
     1
 90
        1
176
     1
 40
0.0
176
     1
 90
        0
176
     1
290
     1
176
     1
290
     1
176
     1
290
     0
176
     1
290
     0
176
     1
290
     0
176
     1
290
     0
176
     1
290
     0
176
     1
290
     0
176
     1
290
     0
176
     1
 90
       50
176
     1
 40
0.0
176
     1
 40
1.0
176
     1
 90
        0
176
     1
 62
    18
420
        0
176
     1
 90
       50
176
     1
 90
        3
176
     1
 62
     5
420
      255
176
     1
290
     0
176
     1
 90
       50
176
     1
 90
       50
176
     1
 90
       50
176
     1
290
     0
176
     1
 90
       50
176
     1
 62
   256
176
     0
 40
1.0
176
     0
 90
        2
176
     1
  1
strokes_ogs.tif
176
     1
290
     0
176
     1
 40
1.0
176
     1
 40
1.0
176
     1
  0
VISUALSTYLE
  5
32
102
{ACAD_REACTORS
330
2A
102
}
330
2A
100
AcDbVisualStyle
  2
Basic
 70
     7
177
     3
291
     1
 70
    58
 90
        1
176
     1
 90
        0
176
     1
 90
        1
176
     1
 90
        0
176
     1
 40
0.6
176
     1
 40
30.0
176
     1
 62
     7
420
 16777215
176
     1
 90
        0
176
     1
 90
        4
176
     1
 62
     7
176
     1
 62
   257
176
     1
 90
        1
176
     1
 90
        1
176
     1
 40
1.0
176
     1
 90
        8
176
     1
 62
     7
176
     1
 40
1.0
176
     1
 90
        1
176
     1
 90
        6
176
     1
 90
        2
176
     1
 62
     7
176
     1
 90
        5
176
     1
 90
        0
176
     1
 90
        0
176
     1
290
     0
176
     1
 90
        1
176
     1
 40
0.0
176
     1
 90
        0
176
     1
290
     0
176
     1
290
     1
176
     1
290
     1
176
     1
290
     0
176
     1
290
     0
176
     1
290
     0
176
     1
290
     0
176
     1
290
     0
176
     1
290
     0
176
     1
 90
       50
176
     1
 40
0.0
176
     1
 40
1.0
176
     1
 90
        0
176
     1
 62
    18
420
        0
176
     1
 90
       50
176
     1
 90
        3
176
     1
 62
     5
420
      255
176
     1
290
     0
176
     1
 90
       50
176
     1
 90
       50
176
     1
 90
       50
176
     1
290
     0
176
     1
 90
       50
176
     1
 62
   256
176
     0
 40
1.0
176
     0
 90
        2
176
     1
  1
strokes_ogs.tif
176
     1
290
     0
176
     1
 40
1.0
176
     1
 40
1.0
176
     1
  0
VISUALSTYLE
  5
36
102
{ACAD_REACTORS
330
2A
102
}
330
2A
100
AcDbVisualStyle
  2
Brighten
 70
    12
177
     3
291
     1
 70
    58
 90
        2
176
     1
 90
        2
176
     1
 90
        0
176
     1
 90
        0
176
     1
 40
0.6
176
     1
 40
30.0
176
     1
 62
     7
420
 16777215
176
     1
 90
        1
176
     1
 90
        4
176
     1
 62
     7
176
     1
 62
   257
176
     1
 90
        1
176
     1
 90
        1
176
     1
 40
1.0
176
     1
 90
        8
176
     1
 62
     7
176
     1
 40
1.0
176
     1
 90
        1
176
     1
 90
        6
176
     1
 90
        2
176
     1
 62
     7
176
     1
 90
        5
176
     1
 90
        0
176
     1
 90
        0
176
     1
290
     0
176
     1
 90
        1
176
     1
 40
50.0
176
     1
 90
        0
176
     1
290
     0
176
     1
290
     1
176
     1
290
     1
176
     1
290
     0
176
     1
290
     0
176
     1
290
     0
176
     1
290
     0
176
     1
290
     0
176
     1
290
     0
176
     1
 90
       50
176
     1
 40
0.0
176
     1
 40
1.0
176
     1
 90
        0
176
     1
 62
    18
420
        0
176
     1
 90
       50
176
     1
 90
        3
176
     1
 62
     5
420
      255
176
     1
290
     0
176
     1
 90
       50
176
     1
 90
       50
176
     1
 90
       50
176
     1
290
     0
176
     1
 90
       50
176
     1
 62
   256
176
     0
 40
1.0
176
     0
 90
        2
176
     1
  1
strokes_ogs.tif
176
     1
290
     0
176
     1
 40
1.0
176
     1
 40
1.0
176
     1
  0
VISUALSTYLE
  5
3A
102
{ACAD_REACTORS
330
2A
102
}
330
2A
100
AcDbVisualStyle
  2
ColorChange
 70
    16
177
     3
291
     1
 70
    58
 90
        2
176
     1
 90
        2
176
     1
 90
        3
176
     1
 90
        0
176
     1
 40
0.6
176
     1
 40
30.0
176
     1
 62
     8
420
  8421504
176
     1
 90
        1
176
     1
 90
        4
176
     1
 62
     7
176
     1
 62
   257
176
     1
 90
        1
176
     1
 90
        1
176
     1
 40
1.0
176
     1
 90
        8
176
     1
 62
     8
420
  8421504
176
     1
 40
1.0
176
     1
 90
        1
176
     1
 90
        6
176
     1
 90
        2
176
     1
 62
     7
176
     1
 90
        5
176
     1
 90
        0
176
     1
 90
        0
176
     1
290
     0
176
     1
 90
        1
176
     1
 40
0.0
176
     1
 90
        0
176
     1
290
     0
176
     1
290
     1
176
     1
290
     1
176
     1
290
     0
176
     1
290
     0
176
     1
290
     0
176
     1
290
     0
176
     1
290
     0
176
     1
290
     0
176
     1
 90
       50
176
     1
 40
0.0
176
     1
 40
1.0
176
     1
 90
        0
176
     1
 62
    18
420
        0
176
     1
 90
       50
176
     1
 90
        3
176
     1
 62
     5
420
      255
176
     1
290
     0
176
     1
 90
       50
176
     1
 90
       50
176
     1
 90
       50
176
     1
290
     0
176
     1
 90
       50
176
     1
 62
   256
176
     0
 40
1.0
176
     0
 90
        2
176
     1
  1
strokes_ogs.tif
176
     1
290
     0
176
     1
 40
1.0
176
     1
 40
1.0
176
     1
  0
VISUALSTYLE
  5
34
102
{ACAD_REACTORS
330
2A
102
}
330
2A
100
AcDbVisualStyle
  2
Conceptual
 70
     9
177
     3
291
     0
 70
    58
 90
        3
176
     1
 90
        2
176
     1
 90
        0
176
     1
 90
        0
176
     1
 40
0.6
176
     1
 40
30.0
176
     1
 62
     7
420
 16777215
176
     1
 90
        2
176
     1
 90
        2
176
     1
 62
     7
176
     1
 62
   257
176
     1
 90
        1
176
     1
 90
        1
176
     1
 40
179.0
176
     1
 90
        8
176
     1
 62
     7
176
     1
 40
1.0
176
     1
 90
        1
176
     1
 90
        6
176
     1
 90
        2
176
     1
 62
     7
176
     1
 90
        3
176
     1
 90
        0
176
     1
 90
        0
176
     1
290
     0
176
     1
 90
        1
176
     1
 40
0.0
176
     1
 90
        0
176
     1
290
     0
176
     1
290
     1
176
     1
290
     1
176
     1
290
     0
176
     1
290
     0
176
     1
290
     0
176
     1
290
     0
176
     1
290
     0
176
     1
290
     0
176
     1
 90
       50
176
     1
 40
0.0
176
     1
 40
1.0
176
     1
 90
        0
176
     1
 62
    18
420
        0
176
     1
 90
       50
176
     1
 90
        3
176
     1
 62
     5
420
      255
176
     1
290
     0
176
     1
 90
       50
176
     1
 90
       50
176
     1
 90
       50
176
     1
290
     0
176
     1
 90
       50
176
     1
 62
   256
176
     0
 40
1.0
176
     0
 90
        2
176
     1
  1
strokes_ogs.tif
176
     1
290
     0
176
     1
 40
1.0
176
     1
 40
1.0
176
     1
  0
VISUALSTYLE
  5
35
102
{ACAD_REACTORS
330
2A
102
}
330
2A
100
AcDbVisualStyle
  2
Dim
 70
    11
177
     3
291
     1
 70
    58
 90
        2
176
     1
 90
        2
176
     1
 90
        0
176
     1
 90
        0
176
     1
 40
0.6
176
     1
 40
30.0
176
     1
 62
     7
420
 16777215
176
     1
 90
        1
176
     1
 90
        4
176
     1
 62
     7
176
     1
 62
   257
176
     1
 90
        1
176
     1
 90
        1
176
     1
 40
1.0
176
     1
 90
        8
176
     1
 62
     7
176
     1
 40
1.0
176
     1
 90
        1
176
     1
 90
        6
176
     1
 90
        2
176
     1
 62
     7
176
     1
 90
        5
176
     1
 90
        0
176
     1
 90
        0
176
     1
290
     0
176
     1
 90
        1
176
     1
 40
-50.0
176
     1
 90
        0
176
     1
290
     0
176
     1
290
     1
176
     1
290
     1
176
     1
290
     0
176
     1
290
     0
176
     1
290
     0
176
     1
290
     0
176
     1
290
     0
176
     1
290
     0
176
     1
 90
       50
176
     1
 40
0.0
176
     1
 40
1.0
176
     1
 90
        0
176
     1
 62
    18
420
        0
176
     1
 90
       50
176
     1
 90
        3
176
     1
 62
     5
420
      255
176
     1
290
     0
176
     1
 90
       50
176
     1
 90
       50
176
     1
 90
       50
176
     1
290
     0
176
     1
 90
       50
176
     1
 62
   256
176
     0
 40
1.0
176
     0
 90
        2
176
     1
  1
strokes_ogs.tif
176
     1
290
     0
176
     1
 40
1.0
176
     1
 40
1.0
176
     1
  0
VISUALSTYLE
  5
3D
102
{ACAD_REACTORS
330
2A
102
}
330
2A
100
AcDbVisualStyle
  2
EdgeColorOff
 70
    22
177
     3
291
     1
 70
    58
 90
        2
176
     0
 90
        2
176
     0
 90
        0
176
     0
 90
        0
176
     0
 40
0.6
176
     0
 40
30.0
176
     0
 62
     7
420
 16777215
176
     0
 90
        1
176
     0
 90
        4
176
     0
 62
     7
176
     0
 62
   257
176
     0
 90
        1
176
     0
 90
        1
176
     0
 40
1.0
176
     0
 90
        8
176
     2
 62
     7
176
     0
 40
1.0
176
     0
 90
        1
176
     0
 90
        6
176
     0
 90
        2
176
     0
 62
     7
176
     0
 90
        5
176
     0
 90
        0
176
     0
 90
        0
176
     0
290
     0
176
     0
 90
        1
176
     0
 40
0.0
176
     0
 90
        0
176
     0
290
     0
176
     0
290
     1
176
     0
290
     1
176
     0
290
     0
176
     0
290
     0
176
     0
290
     0
176
     0
290
     0
176
     0
290
     0
176
     0
290
     0
176
     0
 90
       50
176
     0
 40
0.0
176
     0
 40
1.0
176
     0
 90
        0
176
     0
 62
    18
420
        0
176
     0
 90
       50
176
     0
 90
        3
176
     0
 62
     5
420
      255
176
     0
290
     0
176
     0
 90
       50
176
     0
 90
       50
176
     0
 90
       50
176
     0
290
     0
176
     0
 90
       50
176
     0
 62
   256
176
     0
 40
1.0
176
     0
 90
        2
176
     0
  1
strokes_ogs.tif
176
     0
290
     0
176
     0
 40
1.0
176
     0
 40
1.0
176
     0
  0
VISUALSTYLE
  5
39
102
{ACAD_REACTORS
330
2A
102
}
330
2A
100
AcDbVisualStyle
  2
Facepattern
 70
    15
177
     3
291
     1
 70
    58
 90
        2
176
     1
 90
        2
176
     1
 90
        0
176
     1
 90
        0
176
     1
 40
0.6
176
     1
 40
30.0
176
     1
 62
     7
420
 16777215
176
     1
 90
        1
176
     1
 90
        4
176
     1
 62
     7
176
     1
 62
   257
176
     1
 90
        1
176
     1
 90
        1
176
     1
 40
1.0
176
     1
 90
        8
176
     1
 62
     7
176
     1
 40
1.0
176
     1
 90
        1
176
     1
 90
        6
176
     1
 90
        2
176
     1
 62
     7
176
     1
 90
        5
176
     1
 90
        0
176
     1
 90
        0
176
     1
290
     0
176
     1
 90
        1
176
     1
 40
0.0
176
     1
 90
        0
176
     1
290
     0
176
     1
290
     1
176
     1
290
     1
176
     1
290
     0
176
     1
290
     0
176
     1
290
     0
176
     1
290
     0
176
     1
290
     0
176
     1
290
     0
176
     1
 90
       50
176
     1
 40
0.0
176
     1
 40
1.0
176
     1
 90
        0
176
     1
 62
    18
420
        0
176
     1
 90
       50
176
     1
 90
        3
176
     1
 62
     5
420
      255
176
     1
290
     0
176
     1
 90
       50
176
     1
 90
       50
176
     1
 90
       50
176
     1
290
     0
176
     1
 90
       50
176
     1
 62
   256
176
     0
 40
1.0
176
     0
 90
        2
176
     1
  1
strokes_ogs.tif
176
     1
290
     0
176
     1
 40
1.0
176
     1
 40
1.0
176
     1
  0
VISUALSTYLE
  5
2B
102
{ACAD_REACTORS
330
2A
102
}
330
2A
100
AcDbVisualStyle
  2
Flat
 70
     0
177
     3
291
     1
 70
    58
 90
        2
176
     1
 90
        1
176
     1
 90
        1
176
     1
 90
        2
176
     1
 40
0.6
176
     1
 40
30.0
176
     1
 62
     7
420
 16777215
176
     1
 90
        0
176
     1
 90
        0
176
     1
 62
     7
176
     1
 62
   257
176
     1
 90
        1
176
     1
 90
        1
176
     1
 40
1.0
176
     1
 90
        8
176
     1
 62
     7
176
     1
 40
1.0
176
     1
 90
        1
176
     1
 90
        6
176
     1
 90
        2
176
     1
 62
     7
176
     1
 90
        5
176
     1
 90
        0
176
     1
 90
        0
176
     1
290
     0
176
     1
 90
       13
176
     1
 40
0.0
176
     1
 90
        0
176
     1
290
     0
176
     1
290
     1
176
     1
290
     1
176
     1
290
     0
176
     1
290
     0
176
     1
290
     0
176
     1
290
     0
176
     1
290
     0
176
     1
290
     0
176
     1
 90
       50
176
     1
 40
0.0
176
     1
 40
1.0
176
     1
 90
        0
176
     1
 62
    18
420
        0
176
     1
 90
       50
176
     1
 90
        3
176
     1
 62
     5
420
      255
176
     1
290
     0
176
     1
 90
       50
176
     1
 90
       50
176
     1
 90
       50
176
     1
290
     0
176
     1
 90
       50
176
     1
 62
   256
176
     0
 40
1.0
176
     0
 90
        2
176
     1
  1
strokes_ogs.tif
176
     1
290
     0
176
     1
 40
1.0
176
     1
 40
1.0
176
     1
  0
VISUALSTYLE
  5
2C
102
{ACAD_REACTORS
330
2A
102
}
330
2A
100
AcDbVisualStyle
  2
FlatWithEdges
 70
     1
177
     3
291
     1
 70
    58
 90
        2
176
     1
 90
        1
176
     1
 90
        1
176
     1
 90
        2
176
     1
 40
0.6
176
     1
 40
30.0
176
     1
 62
     7
420
 16777215
176
     1
 90
        1
176
     1
 90
        0
176
     1
 62
     7
176
     1
 62
   257
176
     1
 90
        1
176
     1
 90
        1
176
     1
 40
1.0
176
     1
 90
        0
176
     1
 62
   257
176
     1
 40
1.0
176
     1
 90
        1
176
     1
 90
        6
176
     1
 90
        2
176
     1
 62
     7
176
     1
 90
        5
176
     1
 90
        0
176
     1
 90
        0
176
     1
290
     0
176
     1
 90
       13
176
     1
 40
0.0
176
     1
 90
        0
176
     1
290
     0
176
     1
290
     1
176
     1
290
     1
176
     1
290
     0
176
     1
290
     0
176
     1
290
     0
176
     1
290
     0
176
     1
290
     0
176
     1
290
     0
176
     1
 90
       50
176
     1
 40
0.0
176
     1
 40
1.0
176
     1
 90
        0
176
     1
 62
    18
420
        0
176
     1
 90
       50
176
     1
 90
        3
176
     1
 62
     5
420
      255
176
     1
290
     0
176
     1
 90
       50
176
     1
 90
       50
176
     1
 90
       50
176
     1
290
     0
176
     1
 90
       50
176
     1
 62
   256
176
     0
 40
1.0
176
     0
 90
        2
176
     1
  1
strokes_ogs.tif
176
     1
290
     0
176
     1
 40
1.0
176
     1
 40
1.0
176
     1
  0
VISUALSTYLE
  5
2D
102
{ACAD_REACTORS
330
2A
102
}
330
2A
100
AcDbVisualStyle
  2
Gouraud
 70
     2
177
     3
291
     1
 70
    58
 90
        2
176
     1
 90
        2
176
     1
 90
        1
176
     1
 90
        2
176
     1
 40
0.6
176
     1
 40
30.0
176
     1
 62
     7
420
 16777215
176
     1
 90
        0
176
     1
 90
        0
176
     1
 62
     7
176
     1
 62
   257
176
     1
 90
        1
176
     1
 90
        1
176
     1
 40
1.0
176
     1
 90
        0
176
     1
 62
     7
176
     1
 40
1.0
176
     1
 90
        1
176
     1
 90
        6
176
     1
 90
        2
176
     1
 62
     7
176
     1
 90
        5
176
     1
 90
        0
176
     1
 90
        0
176
     1
290
     0
176
     1
 90
       13
176
     1
 40
0.0
176
     1
 90
        0
176
     1
290
     0
176
     1
290
     1
176
     1
290
     1
176
     1
290
     0
176
     1
290
     0
176
     1
290
     0
176
     1
290
     0
176
     1
290
     0
176
     1
290
     0
176
     1
 90
       50
176
     1
 40
0.0
176
     1
 40
1.0
176
     1
 90
        0
176
     1
 62
    18
420
        0
176
     1
 90
       50
176
     1
 90
        3
176
     1
 62
     5
420
      255
176
     1
290
     0
176
     1
 90
       50
176
     1
 90
       50
176
     1
 90
       50
176
     1
290
     0
176
     1
 90
       50
176
     1
 62
   256
176
     0
 40
1.0
176
     0
 90
        2
176
     1
  1
strokes_ogs.tif
176
     1
290
     0
176
     1
 40
1.0
176
     1
 40
1.0
176
     1
  0
VISUALSTYLE
  5
2E
102
{ACAD_REACTORS
330
2A
102
}
330
2A
100
AcDbVisualStyle
  2
GouraudWithEdges
 70
     3
177
     3
291
     1
 70
    58
 90
        2
176
     1
 90
        2
176
     1
 90
        1
176
     1
 90
        2
176
     1
 40
0.6
176
     1
 40
30.0
176
     1
 62
     7
420
 16777215
176
     1
 90
        1
176
     1
 90
        0
176
     1
 62
     7
176
     1
 62
   257
176
     1
 90
        1
176
     1
 90
        1
176
     1
 40
1.0
176
     1
 90
        0
176
     1
 62
   257
176
     1
 40
1.0
176
     1
 90
        1
176
     1
 90
        6
176
     1
 90
        2
176
     1
 62
     7
176
     1
 90
        5
176
     1
 90
        0
176
     1
 90
        0
176
     1
290
     0
176
     1
 90
       13
176
     1
 40
0.0
176
     1
 90
        0
176
     1
290
     0
176
     1
290
     1
176
     1
290
     1
176
     1
290
     0
176
     1
290
     0
176
     1
290
     0
176
     1
290
     0
176
     1
290
     0
176
     1
290
     0
176
     1
 90
       50
176
     1
 40
0.0
176
     1
 40
1.0
176
     1
 90
        0
176
     1
 62
    18
420
        0
176
     1
 90
       50
176
     1
 90
        3
176
     1
 62
     5
420
      255
176
     1
290
     0
176
     1
 90
       50
176
     1
 90
       50
176
     1
 90
       50
176
     1
290
     0
176
     1
 90
       50
176
     1
 62
   256
176
     0
 40
1.0
176
     0
 90
        2
176
     1
  1
strokes_ogs.tif
176
     1
290
     0
176
     1
 40
1.0
176
     1
 40
1.0
176
     1
  0
VISUALSTYLE
  5
31
102
{ACAD_REACTORS
330
2A
102
}
330
2A
100
AcDbVisualStyle
  2
Hidden
 70
     6
177
     3
291
     0
 70
    58
 90
        1
176
     1
 90
        2
176
     1
 90
        2
176
     1
 90
        0
176
     1
 40
0.6
176
     1
 40
30.0
176
     1
 62
     7
420
 16777215
176
     1
 90
        2
176
     1
 90
        2
176
     1
 62
     7
176
     1
 62
   257
176
     1
 90
        2
176
     1
 90
        1
176
     1
 40
40.0
176
     1
 90
        0
176
     1
 62
   257
176
     1
 40
1.0
176
     1
 90
        1
176
     1
 90
        6
176
     1
 90
        2
176
     1
 62
     7
176
     1
 90
        3
176
     1
 90
        0
176
     1
 90
        0
176
     1
290
     0
176
     1
 90
        1
176
     1
 40
0.0
176
     1
 90
        0
176
     1
290
     0
176
     1
290
     1
176
     1
290
     1
176
     1
290
     0
176
     1
290
     0
176
     1
290
     0
176
     1
290
     0
176
     1
290
     0
176
     1
290
     0
176
     1
 90
       50
176
     1
 40
0.0
176
     1
 40
1.0
176
     1
 90
        0
176
     1
 62
    18
420
        0
176
     1
 90
       50
176
     1
 90
        3
176
     1
 62
     5
420
      255
176
     1
290
     0
176
     1
 90
       50
176
     1
 90
       50
176
     1
 90
       50
176
     1
290
     0
176
     1
 90
       50
176
     1
 62
   256
176
     0
 40
1.0
176
     0
 90
        2
176
     1
  1
strokes_ogs.tif
176
     1
290
     0
176
     1
 40
1.0
176
     1
 40
1.0
176
     1
  0
VISUALSTYLE
  5
3B
102
{ACAD_REACTORS
330
2A
102
}
330
2A
100
AcDbVisualStyle
  2
JitterOff
 70
    20
177
     3
291
     1
 70
    58
 90
        2
176
     0
 90
        2
176
     0
 90
        0
176
     0
 90
        0
176
     0
 40
0.6
176
     0
 40
30.0
176
     0
 62
     7
420
 16777215
176
     0
 90
        1
176
     0
 90
        4
176
     0
 62
     7
176
     0
 62
   257
176
     0
 90
        1
176
     0
 90
        1
176
     0
 40
1.0
176
     0
 90
       10
176
     2
 62
     7
176
     0
 40
1.0
176
     0
 90
        1
176
     0
 90
        6
176
     0
 90
        2
176
     0
 62
     7
176
     0
 90
        5
176
     0
 90
        0
176
     0
 90
        0
176
     0
290
     0
176
     0
 90
        1
176
     0
 40
0.0
176
     0
 90
        0
176
     0
290
     0
176
     0
290
     1
176
     0
290
     1
176
     0
290
     0
176
     0
290
     0
176
     0
290
     0
176
     0
290
     0
176
     0
290
     0
176
     0
290
     0
176
     0
 90
       50
176
     0
 40
0.0
176
     0
 40
1.0
176
     0
 90
        0
176
     0
 62
    18
420
        0
176
     0
 90
       50
176
     0
 90
        3
176
     0
 62
     5
420
      255
176
     0
290
     0
176
     0
 90
       50
176
     0
 90
       50
176
     0
 90
       50
176
     0
290
     0
176
     0
 90
       50
176
     0
 62
   256
176
     0
 40
1.0
176
     0
 90
        2
176
     0
  1
strokes_ogs.tif
176
     0
290
     0
176
     0
 40
1.0
176
     0
 40
1.0
176
     0
  0
VISUALSTYLE
  5
38
102
{ACAD_REACTORS
330
2A
102
}
330
2A
100
AcDbVisualStyle
  2
Linepattern
 70
    14
177
     3
291
     1
 70
    58
 90
        2
176
     1
 90
        2
176
     1
 90
        0
176
     1
 90
        0
176
     1
 40
0.6
176
     1
 40
30.0
176
     1
 62
     7
420
 16777215
176
     1
 90
        1
176
     1
 90
        4
176
     1
 62
     7
176
     1
 62
   257
176
     1
 90
        7
176
     1
 90
        7
176
     1
 40
1.0
176
     1
 90
        8
176
     1
 62
     7
176
     1
 40
1.0
176
     1
 90
        1
176
     1
 90
        6
176
     1
 90
        2
176
     1
 62
     7
176
     1
 90
        5
176
     1
 90
        0
176
     1
 90
        0
176
     1
290
     0
176
     1
 90
        1
176
     1
 40
0.0
176
     1
 90
        0
176
     1
290
     0
176
     1
290
     1
176
     1
290
     1
176
     1
290
     0
176
     1
290
     0
176
     1
290
     0
176
     1
290
     0
176
     1
290
     0
176
     1
290
     0
176
     1
 90
       50
176
     1
 40
0.0
176
     1
 40
1.0
176
     1
 90
        0
176
     1
 62
    18
420
        0
176
     1
 90
       50
176
     1
 90
        3
176
     1
 62
     5
420
      255
176
     1
290
     0
176
     1
 90
       50
176
     1
 90
       50
176
     1
 90
       50
176
     1
290
     0
176
     1
 90
       50
176
     1
 62
   256
176
     0
 40
1.0
176
     0
 90
        2
176
     1
  1
strokes_ogs.tif
176
     1
290
     0
176
     1
 40
1.0
176
     1
 40
1.0
176
     1
  0
VISUALSTYLE
  5
3C
102
{ACAD_REACTORS
330
2A
102
}
330
2A
100
AcDbVisualStyle
  2
OverhangOff
 70
    21
177
     3
291
     1
 70
    58
 90
        2
176
     0
 90
        2
176
     0
 90
        0
176
     0
 90
        0
176
     0
 40
0.6
176
     0
 40
30.0
176
     0
 62
     7
420
 16777215
176
     0
 90
        1
176
     0
 90
        4
176
     0
 62
     7
176
     0
 62
   257
176
     0
 90
        1
176
     0
 90
        1
176
     0
 40
1.0
176
     0
 90
        9
176
     2
 62
     7
176
     0
 40
1.0
176
     0
 90
        1
176
     0
 90
        6
176
     0
 90
        2
176
     0
 62
     7
176
     0
 90
        5
176
     0
 90
        0
176
     0
 90
        0
176
     0
290
     0
176
     0
 90
        1
176
     0
 40
0.0
176
     0
 90
        0
176
     0
290
     0
176
     0
290
     1
176
     0
290
     1
176
     0
290
     0
176
     0
290
     0
176
     0
290
     0
176
     0
290
     0
176
     0
290
     0
176
     0
290
     0
176
     0
 90
       50
176
     0
 40
0.0
176
     0
 40
1.0
176
     0
 90
        0
176
     0
 62
    18
420
        0
176
     0
 90
       50
176
     0
 90
        3
176
     0
 62
     5
420
      255
176
     0
290
     0
176
     0
 90
       50
176
     0
 90
       50
176
     0
 90
       50
176
     0
290
     0
176
     0
 90
       50
176
     0
 62
   256
176
     0
 40
1.0
176
     0
 90
        2
176
     0
  1
strokes_ogs.tif
176
     0
290
     0
176
     0
 40
1.0
176
     0
 40
1.0
176
     0
  0
VISUALSTYLE
  5
33
102
{ACAD_REACTORS
330
2A
102
}
330
2A
100
AcDbVisualStyle
  2
Realistic
 70
     8
177
     3
291
     0
 70
    58
 90
        2
176
     1
 90
        3
176
     1
 90
        0
176
     1
 90
        2
176
     1
 40
0.6
176
     1
 40
30.0
176
     1
 62
     7
420
 16777215
176
     1
 90
        0
176
     1
 90
        0
176
     1
 62
     7
176
     1
 62
   257
176
     1
 90
        1
176
     1
 90
        1
176
     1
 40
1.0
176
     1
 90
        8
176
     1
 62
   257
176
     1
 40
1.0
176
     1
 90
        1
176
     1
 90
        6
176
     1
 90
        2
176
     1
 62
     7
176
     1
 90
        3
176
     1
 90
        0
176
     1
 90
        0
176
     1
290
     0
176
     1
 90
       13
176
     1
 40
0.0
176
     1
 90
        0
176
     1
290
     0
176
     1
290
     1
176
     1
290
     1
176
     1
290
     0
176
     1
290
     0
176
     1
290
     0
176
     1
290
     0
176
     1
290
     0
176
     1
290
     0
176
     1
 90
       50
176
     1
 40
0.0
176
     1
 40
1.0
176
     1
 90
        0
176
     1
 62
    18
420
        0
176
     1
 90
       50
176
     1
 90
        3
176
     1
 62
     5
420
      255
176
     1
290
     0
176
     1
 90
       50
176
     1
 90
       50
176
     1
 90
       50
176
     1
290
     0
176
     1
 90
       50
176
     1
 62
   256
176
     0
 40
1.0
176
     0
 90
        2
176
     1
  1
strokes_ogs.tif
176
     1
290
     0
176
     1
 40
1.0
176
     1
 40
1.0
176
     1
  0
VISUALSTYLE
  5
42
102
{ACAD_REACTORS
330
2A
102
}
330
2A
100
AcDbVisualStyle
  2
Shaded
 70
    27
177
     3
291
     0
 70
    58
 90
        2
176
     1
 90
        2
176
     1
 90
        1
176
     1
 90
        2
176
     1
 40
0.6
176
     1
 40
30.0
176
     1
 62
     7
420
 16777215
176
     1
 90
        0
176
     1
 90
        4
176
     1
 62
     7
176
     1
 62
   257
176
     1
 90
        1
176
     1
 90
        1
176
     1
 40
1.0
176
     1
 90
        8
176
     1
 62
   257
176
     1
 40
1.0
176
     1
 90
        1
176
     1
 90
        6
176
     1
 90
        2
176
     1
 62
     8
420
  7895160
176
     1
 90
        3
176
     1
 90
        0
176
     1
 90
        0
176
     1
290
     0
176
     1
 90
        5
176
     1
 40
0.0
176
     1
 90
        0
176
     1
290
     0
176
     1
290
     1
176
     1
290
     1
176
     1
290
     0
176
     1
290
     0
176
     1
290
     0
176
     1
290
     0
176
     1
290
     0
176
     1
290
     0
176
     1
 90
       50
176
     1
 40
0.0
176
     1
 40
1.0
176
     1
 90
        0
176
     1
 62
    18
420
        0
176
     1
 90
       50
176
     1
 90
        3
176
     1
 62
     5
420
      255
176
     1
290
     0
176
     1
 90
       50
176
     1
 90
       50
176
     1
 90
       50
176
     1
290
     0
176
     1
 90
       50
176
     1
 62
   256
176
     0
 40
1.0
176
     0
 90
        2
176
     1
  1
strokes_ogs.tif
176
     1
290
     0
176
     1
 40
1.0
176
     1
 40
1.0
176
     1
  0
VISUALSTYLE
  5
41
102
{ACAD_REACTORS
330
2A
102
}
330
2A
100
AcDbVisualStyle
  2
Shaded with edges
 70
    26
177
     3
291
     0
 70
    58
 90
        2
176
     1
 90
        2
176
     1
 90
        1
176
     1
 90
        2
176
     1
 40
0.6
176
     1
 40
30.0
176
     1
 62
     7
420
 16777215
176
     1
 90
        1
176
     1
 90
       10
176
     1
 62
     7
176
     1
 62
   257
176
     1
 90
        2
176
     1
 90
        1
176
     1
 40
1.0
176
     1
 90
        8
176
     1
 62
   257
176
     1
 40
1.0
176
     1
 90
        1
176
     1
 90
        6
176
     1
 90
        2
176
     1
 62
     7
176
     1
 90
        3
176
     1
 90
        0
176
     1
 90
        0
176
     1
290
     0
176
     1
 90
        5
176
     1
 40
0.0
176
     1
 90
        0
176
     1
290
     0
176
     1
290
     1
176
     1
290
     1
176
     1
290
     0
176
     1
290
     0
176
     1
290
     0
176
     1
290
     0
176
     1
290
     0
176
     1
290
     0
176
     1
 90
       50
176
     1
 40
0.0
176
     1
 40
1.0
176
     1
 90
        0
176
     1
 62
    18
420
        0
176
     1
 90
       50
176
     1
 90
        3
176
     1
 62
     5
420
      255
176
     1
290
     0
176
     1
 90
       50
176
     1
 90
       50
176
     1
 90
       50
176
     1
290
     0
176
     1
 90
       50
176
     1
 62
   256
176
     0
 40
1.0
176
     0
 90
        2
176
     1
  1
strokes_ogs.tif
176
     1
290
     0
176
     1
 40
1.0
176
     1
 40
1.0
176
     1
  0
VISUALSTYLE
  5
3E
102
{ACAD_REACTORS
330
2A
102
}
330
2A
100
AcDbVisualStyle
  2
Shades of Gray
 70
    23
177
     3
291
     0
 70
    58
 90
        2
176
     1
 90
        2
176
     1
 90
        3
176
     1
 90
        0
176
     1
 40
0.6
176
     1
 40
30.0
176
     1
 62
     7
420
 16777215
176
     1
 90
        2
176
     1
 90
        2
176
     1
 62
     7
176
     1
 62
     7
176
     1
 90
        1
176
     1
 90
        1
176
     1
 40
40.0
176
     1
 90
        8
176
     1
 62
     7
176
     1
 40
1.0
176
     1
 90
        1
176
     1
 90
        6
176
     1
 90
        2
176
     1
 62
     7
176
     1
 90
        3
176
     1
 90
        0
176
     1
 90
        0
176
     1
290
     0
176
     1
 90
        1
176
     1
 40
0.0
176
     1
 90
        0
176
     1
290
     0
176
     1
290
     1
176
     1
290
     1
176
     1
290
     0
176
     1
290
     0
176
     1
290
     0
176
     1
290
     0
176
     1
290
     0
176
     1
290
     0
176
     1
 90
       50
176
     1
 40
0.0
176
     1
 40
1.0
176
     1
 90
        0
176
     1
 62
    18
420
        0
176
     1
 90
       50
176
     1
 90
        3
176
     1
 62
     5
420
      255
176
     1
290
     0
176
     1
 90
       50
176
     1
 90
       50
176
     1
 90
       50
176
     1
290
     0
176
     1
 90
       50
176
     1
 62
   256
176
     0
 40
1.0
176
     0
 90
        2
176
     1
  1
strokes_ogs.tif
176
     1
290
     0
176
     1
 40
1.0
176
     1
 40
1.0
176
     1
  0
VISUALSTYLE
  5
3F
102
{ACAD_REACTORS
330
2A
102
}
330
2A
100
AcDbVisualStyle
  2
Sketchy
 70
    24
177
     3
291
     0
 70
    58
 90
        1
176
     1
 90
        2
176
     1
 90
        2
176
     1
 90
        0
176
     1
 40
0.6
176
     1
 40
30.0
176
     1
 62
     7
420
 16777215
176
     1
 90
        2
176
     1
 90
        2
176
     1
 62
     7
176
     1
 62
     7
176
     1
 90
        1
176
     1
 90
        1
176
     1
 40
40.0
176
     1
 90
       11
176
     1
 62
     7
176
     1
 40
1.0
176
     1
 90
        1
176
     1
 90
        6
176
     1
 90
        2
176
     1
 62
     7
176
     1
 90
        6
176
     1
 90
        0
176
     1
 90
        0
176
     1
290
     0
176
     1
 90
        1
176
     1
 40
0.0
176
     1
 90
        0
176
     1
290
     0
176
     1
290
     1
176
     1
290
     1
176
     1
290
     0
176
     1
290
     0
176
     1
290
     0
176
     1
290
     0
176
     1
290
     0
176
     1
290
     0
176
     1
 90
       50
176
     1
 40
0.0
176
     1
 40
1.0
176
     1
 90
        0
176
     1
 62
    18
420
        0
176
     1
 90
       50
176
     1
 90
        3
176
     1
 62
     5
420
      255
176
     1
290
     0
176
     1
 90
       50
176
     1
 90
       50
176
     1
 90
       50
176
     1
290
     0
176
     1
 90
       50
176
     1
 62
   256
176
     0
 40
1.0
176
     0
 90
        2
176
     1
  1
strokes_ogs.tif
176
     1
290
     0
176
     1
 40
1.0
176
     1
 40
1.0
176
     1
  0
VISUALSTYLE
  5
37
102
{ACAD_REACTORS
330
2A
102
}
330
2A
100
AcDbVisualStyle
  2
Thicken
 70
    13
177
     3
291
     1
 70
    58
 90
        2
176
     1
 90
        2
176
     1
 90
        0
176
     1
 90
        0
176
     1
 40
0.6
176
     1
 40
30.0
176
     1
 62
     7
420
 16777215
176
     1
 90
        1
176
     1
 90
        4
176
     1
 62
     7
176
     1
 62
   257
176
     1
 90
        1
176
     1
 90
        1
176
     1
 40
1.0
176
     1
 90
       12
176
     1
 62
     7
176
     1
 40
1.0
176
     1
 90
        1
176
     1
 90
        6
176
     1
 90
        2
176
     1
 62
     7
176
     1
 90
        5
176
     1
 90
        0
176
     1
 90
        0
176
     1
290
     0
176
     1
 90
        1
176
     1
 40
0.0
176
     1
 90
        0
176
     1
290
     0
176
     1
290
     1
176
     1
290
     1
176
     1
290
     0
176
     1
290
     0
176
     1
290
     0
176
     1
290
     0
176
     1
290
     0
176
     1
290
     0
176
     1
 90
       50
176
     1
 40
0.0
176
     1
 40
1.0
176
     1
 90
        0
176
     1
 62
    18
420
        0
176
     1
 90
       50
176
     1
 90
        3
176
     1
 62
     5
420
      255
176
     1
290
     0
176
     1
 90
       50
176
     1
 90
       50
176
     1
 90
       50
176
     1
290
     0
176
     1
 90
       50
176
     1
 62
   256
176
     0
 40
1.0
176
     0
 90
        2
176
     1
  1
strokes_ogs.tif
176
     1
290
     0
176
     1
 40
1.0
176
     1
 40
1.0
176
     1
  0
VISUALSTYLE
  5
30
102
{ACAD_REACTORS
330
2A
102
}
330
2A
100
AcDbVisualStyle
  2
Wireframe
 70
     5
177
     3
291
     0
 70
    58
 90
        0
176
     1
 90
        2
176
     1
 90
        0
176
     1
 90
        0
176
     1
 40
0.6
176
     1
 40
30.0
176
     1
 62
     7
420
 16777215
176
     1
 90
        1
176
     1
 90
        4
176
     1
 62
     7
176
     1
 62
   257
176
     1
 90
        1
176
     1
 90
        1
176
     1
 40
1.0
176
     1
 90
        0
176
     1
 62
   257
176
     1
 40
1.0
176
     1
 90
        1
176
     1
 90
        6
176
     1
 90
        2
176
     1
 62
     7
176
     1
 90
        3
176
     1
 90
        0
176
     1
 90
        0
176
     1
290
     0
176
     1
 90
        1
176
     1
 40
0.0
176
     1
 90
        0
176
     1
290
     0
176
     1
290
     1
176
     1
290
     1
176
     1
290
     0
176
     1
290
     0
176
     1
290
     0
176
     1
290
     0
176
     1
290
     0
176
     1
290
     0
176
     1
 90
       50
176
     1
 40
0.0
176
     1
 40
1.0
176
     1
 90
        0
176
     1
 62
    18
420
        0
176
     1
 90
       50
176
     1
 90
        3
176
     1
 62
     5
420
      255
176
     1
290
     0
176
     1
 90
       50
176
     1
 90
       50
176
     1
 90
       50
176
     1
290
     0
176
     1
 90
       50
176
     1
 62
   256
176
     0
 40
1.0
176
     0
 90
        2
176
     1
  1
strokes_ogs.tif
176
     1
290
     0
176
     1
 40
1.0
176
     1
 40
1.0
176
     1
  0
VISUALSTYLE
  5
40
102
{ACAD_REACTORS
330
2A
102
}
330
2A
100
AcDbVisualStyle
  2
X-Ray
 70
    25
177
     3
291
     0
 70
    58
 90
        2
176
     1
 90
        2
176
     1
 90
        1
176
     1
 90
        1
176
     1
 40
0.5
176
     1
 40
30.0
176
     1
 62
     7
420
 16777215
176
     1
 90
        1
176
     1
 90
        0
176
     1
 62
     7
176
     1
 62
   257
176
     1
 90
        1
176
     1
 90
        1
176
     1
 40
1.0
176
     1
 90
        8
176
     1
 62
     7
176
     1
 40
1.0
176
     1
 90
        1
176
     1
 90
        6
176
     1
 90
        2
176
     1
 62
     7
176
     1
 90
        3
176
     1
 90
        0
176
     1
 90
        0
176
     1
290
     0
176
     1
 90
       13
176
     1
 40
0.0
176
     1
 90
        0
176
     1
290
     0
176
     1
290
     1
176
     1
290
     1
176
     1
290
     0
176
     1
290
     0
176
     1
290
     0
176
     1
290
     0
176
     1
290
     0
176
     1
290
     0
176
     1
 90
       50
176
     1
 40
0.0
176
     1
 40
1.0
176
     1
 90
        0
176
     1
 62
    18
420
        0
176
     1
 90
       50
176
     1
 90
        3
176
     1
 62
     5
420
      255
176
     1
290
     0
176
     1
 90
       50
176
     1
 90
       50
176
     1
 90
       50
176
     1
290
     0
176
     1
 90
       50
176
     1
 62
   256
176
     0
 40
1.0
176
     0
 90
        2
176
     1
  1
strokes_ogs.tif
176
     1
290
     0
176
     1
 40
1.0
176
     1
 40
1.0
176
     1
  0
DICTIONARYVAR
  5
331
102
{ACAD_REACTORS
330
330
102
}
330
330
100
DictionaryVariables
280
     0
  1
1:1
  0
DICTIONARYVAR
  5
33A
102
{ACAD_REACTORS
330
330
102
}
330
330
100
DictionaryVariables
280
     0
  1
3.500000
  0
DICTIONARYVAR
  5
33B
102
{ACAD_REACTORS
330
330
102
}
330
330
100
DictionaryVariables
280
     0
  1
acadiso.lin
  0
DICTIONARYVAR
  5
336
102
{ACAD_REACTORS
330
330
102
}
330
330
100
DictionaryVariables
280
     0
  1
Standard
  0
DICTIONARYVAR
  5
335
102
{ACAD_REACTORS
330
330
102
}
330
330
100
DictionaryVariables
280
     0
  1
Standard
  0
DICTIONARYVAR
  5
339
102
{ACAD_REACTORS
330
330
102
}
330
330
100
DictionaryVariables
280
     0
  1
0
  0
DICTIONARY
  5
332
330
5A
100
AcDbDictionary
280
     1
281
     1
  3
ACAD_ROUNDTRIP_2008_TABLESTYLE_CELLSTYLEMAP
360
333
  0
CELLSTYLEMAP
  5
333
102
{ACAD_REACTORS
330
332
102
}
330
332
100
AcDbCellStyleMap
 90
        3
300
CELLSTYLE
  1
TABLEFORMAT_BEGIN
 90
        5
170
     1
 91
        0
 92
    32768
 62
   257
 93
        1
300
CONTENTFORMAT
  1
CONTENTFORMAT_BEGIN
 90
        0
 91
        0
 92
        4
 93
        0
300

 40
0.0
140
1.0
 94
        5
 62
     0
340
11
144
6.0
309
CONTENTFORMAT_END
171
     1
301
MARGIN
  1
CELLMARGIN_BEGIN
 40
1.5
 40
1.5
 40
1.5
 40
1.5
 40
1.5
 40
1.5
309
CELLMARGIN_END
 94
        6
 95
        1
302
GRIDFORMAT
  1
GRIDFORMAT_BEGIN
 90
        0
 91
        1
 62
     0
 92
       -2
340
14
 93
        0
 40
0.045
309
GRIDFORMAT_END
 95
        2
302
GRIDFORMAT
  1
GRIDFORMAT_BEGIN
 90
        0
 91
        1
 62
     0
 92
       -2
340
14
 93
        0
 40
0.045
309
GRIDFORMAT_END
 95
        4
302
GRIDFORMAT
  1
GRIDFORMAT_BEGIN
 90
        0
 91
        1
 62
     0
 92
       -2
340
14
 93
        0
 40
0.045
309
GRIDFORMAT_END
 95
        8
302
GRIDFORMAT
  1
GRIDFORMAT_BEGIN
 90
        0
 91
        1
 62
     0
 92
       -2
340
14
 93
        0
 40
0.045
309
GRIDFORMAT_END
 95
       16
302
GRIDFORMAT
  1
GRIDFORMAT_BEGIN
 90
        0
 91
        1
 62
     0
 92
       -2
340
14
 93
        0
 40
0.045
309
GRIDFORMAT_END
 95
       32
302
GRIDFORMAT
  1
GRIDFORMAT_BEGIN
 90
        0
 91
        1
 62
     0
 92
       -2
340
14
 93
        0
 40
0.045
309
GRIDFORMAT_END
309
TABLEFORMAT_END
  1
CELLSTYLE_BEGIN
 90
        1
 91
        1
300
_TITLE
309
CELLSTYLE_END
300
CELLSTYLE
  1
TABLEFORMAT_BEGIN
 90
        5
170
     1
 91
        0
 92
        0
 62
   257
 93
        1
300
CONTENTFORMAT
  1
CONTENTFORMAT_BEGIN
 90
        0
 91
        0
 92
        4
 93
        0
300

 40
0.0
140
1.0
 94
        5
 62
     0
340
11
144
4.5
309
CONTENTFORMAT_END
171
     1
301
MARGIN
  1
CELLMARGIN_BEGIN
 40
1.5
 40
1.5
 40
1.5
 40
1.5
 40
1.5
 40
1.5
309
CELLMARGIN_END
 94
        6
 95
        1
302
GRIDFORMAT
  1
GRIDFORMAT_BEGIN
 90
        0
 91
        1
 62
     0
 92
       -2
340
14
 93
        0
 40
0.045
309
GRIDFORMAT_END
 95
        2
302
GRIDFORMAT
  1
GRIDFORMAT_BEGIN
 90
        0
 91
        1
 62
     0
 92
       -2
340
14
 93
        0
 40
0.045
309
GRIDFORMAT_END
 95
        4
302
GRIDFORMAT
  1
GRIDFORMAT_BEGIN
 90
        0
 91
        1
 62
     0
 92
       -2
340
14
 93
        0
 40
0.045
309
GRIDFORMAT_END
 95
        8
302
GRIDFORMAT
  1
GRIDFORMAT_BEGIN
 90
        0
 91
        1
 62
     0
 92
       -2
340
14
 93
        0
 40
0.045
309
GRIDFORMAT_END
 95
       16
302
GRIDFORMAT
  1
GRIDFORMAT_BEGIN
 90
        0
 91
        1
 62
     0
 92
       -2
340
14
 93
        0
 40
0.045
309
GRIDFORMAT_END
 95
       32
302
GRIDFORMAT
  1
GRIDFORMAT_BEGIN
 90
        0
 91
        1
 62
     0
 92
       -2
340
14
 93
        0
 40
0.045
309
GRIDFORMAT_END
309
TABLEFORMAT_END
  1
CELLSTYLE_BEGIN
 90
        2
 91
        1
300
_HEADER
309
CELLSTYLE_END
300
CELLSTYLE
  1
TABLEFORMAT_BEGIN
 90
        5
170
     1
 91
        0
 92
        0
 62
   257
 93
        1
300
CONTENTFORMAT
  1
CONTENTFORMAT_BEGIN
 90
        0
 91
        0
 92
        4
 93
        0
300

 40
0.0
140
1.0
 94
        2
 62
     0
340
11
144
4.5
309
CONTENTFORMAT_END
171
     1
301
MARGIN
  1
CELLMARGIN_BEGIN
 40
1.5
 40
1.5
 40
1.5
 40
1.5
 40
1.5
 40
1.5
309
CELLMARGIN_END
 94
        6
 95
        1
302
GRIDFORMAT
  1
GRIDFORMAT_BEGIN
 90
        0
 91
        1
 62
     0
 92
       -2
340
14
 93
        0
 40
0.045
309
GRIDFORMAT_END
 95
        2
302
GRIDFORMAT
  1
GRIDFORMAT_BEGIN
 90
        0
 91
        1
 62
     0
 92
       -2
340
14
 93
        0
 40
0.045
309
GRIDFORMAT_END
 95
        4
302
GRIDFORMAT
  1
GRIDFORMAT_BEGIN
 90
        0
 91
        1
 62
     0
 92
       -2
340
14
 93
        0
 40
0.045
309
GRIDFORMAT_END
 95
        8
302
GRIDFORMAT
  1
GRIDFORMAT_BEGIN
 90
        0
 91
        1
 62
     0
 92
       -2
340
14
 93
        0
 40
0.045
309
GRIDFORMAT_END
 95
       16
302
GRIDFORMAT
  1
GRIDFORMAT_BEGIN
 90
        0
 91
        1
 62
     0
 92
       -2
340
14
 93
        0
 40
0.045
309
GRIDFORMAT_END
 95
       32
302
GRIDFORMAT
  1
GRIDFORMAT_BEGIN
 90
        0
 91
        1
 62
     0
 92
       -2
340
14
 93
        0
 40
0.045
309
GRIDFORMAT_END
309
TABLEFORMAT_END
  1
CELLSTYLE_BEGIN
 90
        3
 91
        2
300
_DATA
309
CELLSTYLE_END
  0
ENDSEC
  0
EOF
