  0
SECTION
  2
HEADER
  9
$ACADVER
  1
AC1027
  9
$ACADMAINTVER
 70
   105
  9
$DWGCODEPAGE
  3
ANSI_1252
  9
$LASTSAVEDBY
  1
mezergues
  9
$REQUIREDVERSIONS
160
                 0
  9
$INSBASE
 10
0.0
 20
0.0
 30
0.0
  9
$EXTMIN
 10
9116.32829549663
 20
-14457.30704422377
 30
0.0
  9
$EXTMAX
 10
31769.28913838763
 20
-12018.78313514858
 30
2500.0
  9
$LIMMIN
 10
0.0
 20
0.0
  9
$LIMMAX
 10
420.0
 20
297.0
  9
$ORTHOMODE
 70
     0
  9
$REGENMODE
 70
     1
  9
$FILLMODE
 70
     1
  9
$QTEXTMODE
 70
     0
  9
$MIRRTEXT
 70
     1
  9
$LTSCALE
 40
5.0
  9
$ATTMODE
 70
     1
  9
$TEXTSIZE
 40
2.5
  9
$TRACEWID
 40
1.0
  9
$TEXTSTYLE
  7
Standard
  9
$CLAYER
  8
0
  9
$CELTYPE
  6
Continuous
  9
$CECOLOR
 62
   256
  9
$CELTSCALE
 40
1.0
  9
$DISPSILH
 70
     0
  9
$DIMSCALE
 40
1.0
  9
$DIMASZ
 40
2.5
  9
$DIMEXO
 40
0.625
  9
$DIMDLI
 40
3.75
  9
$DIMRND
 40
0.0
  9
$DIMDLE
 40
0.0
  9
$DIMEXE
 40
1.25
  9
$DIMTP
 40
0.0
  9
$DIMTM
 40
0.0
  9
$DIMTXT
 40
2.5
  9
$DIMCEN
 40
2.5
  9
$DIMTSZ
 40
0.0
  9
$DIMTOL
 70
     0
  9
$DIMLIM
 70
     0
  9
$DIMTIH
 70
     0
  9
$DIMTOH
 70
     0
  9
$DIMSE1
 70
     0
  9
$DIMSE2
 70
     0
  9
$DIMTAD
 70
     1
  9
$DIMZIN
 70
     8
  9
$DIMBLK
  1

  9
$DIMASO
 70
     1
  9
$DIMSHO
 70
     1
  9
$DIMPOST
  1

  9
$DIMAPOST
  1

  9
$DIMALT
 70
     0
  9
$DIMALTD
 70
     3
  9
$DIMALTF
 40
0.03937007874016
  9
$DIMLFAC
 40
1.0
  9
$DIMTOFL
 70
     1
  9
$DIMTVP
 40
0.0
  9
$DIMTIX
 70
     0
  9
$DIMSOXD
 70
     1
  9
$DIMSAH
 70
     0
  9
$DIMBLK1
  1

  9
$DIMBLK2
  1

  9
$DIMSTYLE
  2
ISO-25
  9
$DIMCLRD
 70
     0
  9
$DIMCLRE
 70
     0
  9
$DIMCLRT
 70
     0
  9
$DIMTFAC
 40
1.0
  9
$DIMGAP
 40
0.625
  9
$DIMJUST
 70
     0
  9
$DIMSD1
 70
     0
  9
$DIMSD2
 70
     0
  9
$DIMTOLJ
 70
     0
  9
$DIMTZIN
 70
     8
  9
$DIMALTZ
 70
     0
  9
$DIMALTTZ
 70
     0
  9
$DIMUPT
 70
     0
  9
$DIMDEC
 70
     2
  9
$DIMTDEC
 70
     2
  9
$DIMALTU
 70
     2
  9
$DIMALTTD
 70
     3
  9
$DIMTXSTY
  7
Standard
  9
$DIMAUNIT
 70
     0
  9
$DIMADEC
 70
     0
  9
$DIMALTRND
 40
0.0
  9
$DIMAZIN
 70
     0
  9
$DIMDSEP
 70
    44
  9
$DIMATFIT
 70
     3
  9
$DIMFRAC
 70
     0
  9
$DIMLDRBLK
  1

  9
$DIMLUNIT
 70
     2
  9
$DIMLWD
 70
    -2
  9
$DIMLWE
 70
    -2
  9
$DIMTMOVE
 70
     2
  9
$DIMFXL
 40
1.0
  9
$DIMFXLON
 70
     0
  9
$DIMJOGANG
 40
0.7853981633974483
  9
$DIMTFILL
 70
     0
  9
$DIMTFILLCLR
 70
     0
  9
$DIMARCSYM
 70
     0
  9
$DIMLTYPE
  6

  9
$DIMLTEX1
  6

  9
$DIMLTEX2
  6

  9
$DIMTXTDIRECTION
 70
     0
  9
$LUNITS
 70
     2
  9
$LUPREC
 70
     4
  9
$SKETCHINC
 40
1.0
  9
$FILLETRAD
 40
0.0
  9
$AUNITS
 70
     0
  9
$AUPREC
 70
     0
  9
$MENU
  1
.
  9
$ELEVATION
 40
0.0
  9
$PELEVATION
 40
0.0
  9
$THICKNESS
 40
0.0
  9
$LIMCHECK
 70
     0
  9
$CHAMFERA
 40
0.0
  9
$CHAMFERB
 40
0.0
  9
$CHAMFERC
 40
0.0
  9
$CHAMFERD
 40
0.0
  9
$SKPOLY
 70
     0
  9
$TDCREATE
 40
2459978.673512639
  9
$TDUCREATE
 40
2459978.631845972
  9
$TDUPDATE
 40
2459978.673515312
  9
$TDUUPDATE
 40
2459978.631848646
  9
$TDINDWG
 40
0.0000000116
  9
$TDUSRTIMER
 40
0.0000000116
  9
$USRTIMER
 70
     1
  9
$ANGBASE
 50
0.0
  9
$ANGDIR
 70
     0
  9
$PDMODE
 70
     0
  9
$PDSIZE
 40
0.0
  9
$PLINEWID
 40
0.0
  9
$SPLFRAME
 70
     0
  9
$SPLINETYPE
 70
     6
  9
$SPLINESEGS
 70
     8
  9
$HANDSEED
  5
2F9
  9
$SURFTAB1
 70
     6
  9
$SURFTAB2
 70
     6
  9
$SURFTYPE
 70
     6
  9
$SURFU
 70
     6
  9
$SURFV
 70
     6
  9
$UCSBASE
  2

  9
$UCSNAME
  2

  9
$UCSORG
 10
0.0
 20
0.0
 30
0.0
  9
$UCSXDIR
 10
1.0
 20
0.0
 30
0.0
  9
$UCSYDIR
 10
0.0
 20
1.0
 30
0.0
  9
$UCSORTHOREF
  2

  9
$UCSORTHOVIEW
 70
     0
  9
$UCSORGTOP
 10
0.0
 20
0.0
 30
0.0
  9
$UCSORGBOTTOM
 10
0.0
 20
0.0
 30
0.0
  9
$UCSORGLEFT
 10
0.0
 20
0.0
 30
0.0
  9
$UCSORGRIGHT
 10
0.0
 20
0.0
 30
0.0
  9
$UCSORGFRONT
 10
0.0
 20
0.0
 30
0.0
  9
$UCSORGBACK
 10
0.0
 20
0.0
 30
0.0
  9
$PUCSBASE
  2

  9
$PUCSNAME
  2

  9
$PUCSORG
 10
0.0
 20
0.0
 30
0.0
  9
$PUCSXDIR
 10
1.0
 20
0.0
 30
0.0
  9
$PUCSYDIR
 10
0.0
 20
1.0
 30
0.0
  9
$PUCSORTHOREF
  2

  9
$PUCSORTHOVIEW
 70
     0
  9
$PUCSORGTOP
 10
0.0
 20
0.0
 30
0.0
  9
$PUCSORGBOTTOM
 10
0.0
 20
0.0
 30
0.0
  9
$PUCSORGLEFT
 10
0.0
 20
0.0
 30
0.0
  9
$PUCSORGRIGHT
 10
0.0
 20
0.0
 30
0.0
  9
$PUCSORGFRONT
 10
0.0
 20
0.0
 30
0.0
  9
$PUCSORGBACK
 10
0.0
 20
0.0
 30
0.0
  9
$USERI1
 70
     0
  9
$USERI2
 70
     0
  9
$USERI3
 70
     0
  9
$USERI4
 70
     0
  9
$USERI5
 70
     0
  9
$USERR1
 40
0.0
  9
$USERR2
 40
0.0
  9
$USERR3
 40
0.0
  9
$USERR4
 40
0.0
  9
$USERR5
 40
0.0
  9
$WORLDVIEW
 70
     1
  9
$SHADEDGE
 70
     3
  9
$SHADEDIF
 70
    70
  9
$TILEMODE
 70
     1
  9
$MAXACTVP
 70
    64
  9
$PINSBASE
 10
0.0
 20
0.0
 30
0.0
  9
$PLIMCHECK
 70
     0
  9
$PEXTMIN
 10
-5.730400000000003
 20
-7.876400000000018
 30
0.0
  9
$PEXTMAX
 10
203.3304
 20
279.4764
 30
0.0
  9
$PLIMMIN
 10
-20.0
 20
-7.5
  9
$PLIMMAX
 10
277.0
 20
202.5
  9
$UNITMODE
 70
     0
  9
$VISRETAIN
 70
     1
  9
$PLINEGEN
 70
     0
  9
$PSLTSCALE
 70
     0
  9
$TREEDEPTH
 70
  3020
  9
$CMLSTYLE
  2
Standard
  9
$CMLJUST
 70
     0
  9
$CMLSCALE
 40
20.0
  9
$PROXYGRAPHICS
 70
     1
  9
$MEASUREMENT
 70
     1
  9
$CELWEIGHT
370
    -1
  9
$ENDCAPS
280
     0
  9
$JOINSTYLE
280
     0
  9
$LWDISPLAY
290
     0
  9
$INSUNITS
 70
     4
  9
$HYPERLINKBASE
  1

  9
$STYLESHEET
  1

  9
$XEDIT
290
     1
  9
$CEPSNTYPE
380
     3
  9
$CEPSNID
390
5F
  9
$PSTYLEMODE
290
     0
  9
$FINGERPRINTGUID
  2
{2170c6b0-fff3-4ad8-bdb0-ce06e340ad11}
  9
$VERSIONGUID
  2
{FAEB1C32-E019-11D5-929B-00C0DF256EC4}
  9
$EXTNAMES
290
     1
  9
$PSVPSCALE
 40
0.0
  9
$OLESTARTUP
290
     0
  9
$SORTENTS
280
   127
  9
$INDEXCTL
280
     0
  9
$HIDETEXT
280
     1
  9
$XCLIPFRAME
280
     2
  9
$HALOGAP
280
     0
  9
$OBSCOLOR
 70
   257
  9
$OBSLTYPE
280
     0
  9
$INTERSECTIONDISPLAY
280
     0
  9
$INTERSECTIONCOLOR
 70
   257
  9
$DIMASSOC
280
     2
  9
$PROJECTNAME
  1

  9
$CAMERADISPLAY
290
     0
  9
$LENSLENGTH
 40
50.0
  9
$CAMERAHEIGHT
 40
0.0
  9
$STEPSPERSEC
 40
2.0
  9
$STEPSIZE
 40
6.0
  9
$3DDWFPREC
 40
2.0
  9
$PSOLWIDTH
 40
5.0
  9
$PSOLHEIGHT
 40
80.0
  9
$LOFTANG1
 40
1.570796326794897
  9
$LOFTANG2
 40
1.570796326794897
  9
$LOFTMAG1
 40
0.0
  9
$LOFTMAG2
 40
0.0
  9
$LOFTPARAM
 70
     7
  9
$LOFTNORMALS
280
     1
  9
$LATITUDE
 40
37.795
  9
$LONGITUDE
 40
-122.394
  9
$NORTHDIRECTION
 40
0.0
  9
$TIMEZONE
 70
 -8000
  9
$LIGHTGLYPHDISPLAY
280
     1
  9
$TILEMODELIGHTSYNCH
280
     1
  9
$CMATERIAL
347
44
  9
$SOLIDHIST
280
     0
  9
$SHOWHIST
280
     1
  9
$DWFFRAME
280
     2
  9
$DGNFRAME
280
     2
  9
$REALWORLDSCALE
290
     1
  9
$INTERFERECOLOR
 62
   256
  9
$CSHADOW
280
     0
  9
$SHADOWPLANELOCATION
 40
0.0
  0
ENDSEC
  0
SECTION
  2
CLASSES
  0
CLASS
  1
ACDBDICTIONARYWDFLT
  2
AcDbDictionaryWithDefault
  3
ObjectDBX Classes
 90
        0
 91
        3
280
     0
281
     0
  0
CLASS
  1
VISUALSTYLE
  2
AcDbVisualStyle
  3
ObjectDBX Classes
 90
     4095
 91
        3
280
     0
281
     0
  0
CLASS
  1
MATERIAL
  2
AcDbMaterial
  3
ObjectDBX Classes
 90
     1153
 91
        3
280
     0
281
     0
  0
CLASS
  1
SCALE
  2
AcDbScale
  3
ObjectDBX Classes
 90
     1153
 91
        3
280
     0
281
     0
  0
CLASS
  1
TABLESTYLE
  2
AcDbTableStyle
  3
ObjectDBX Classes
 90
     4095
 91
        3
280
     0
281
     0
  0
CLASS
  1
MLEADERSTYLE
  2
AcDbMLeaderStyle
  3
ACDB_MLEADERSTYLE_CLASS
 90
     4095
 91
        3
280
     0
281
     0
  0
CLASS
  1
SUN
  2
AcDbSun
  3
SCENEOE
 90
     1153
 91
        3
280
     0
281
     0
  0
CLASS
  1
RASTERVARIABLES
  2
AcDbRasterVariables
  3
ISM
 90
        0
 91
        3
280
     0
281
     0
  0
CLASS
  1
WIPEOUTVARIABLES
  2
AcDbWipeoutVariables
  3
WipeOut|AutoCAD Express Tool|expresstools@autodesk.com
 90
        0
 91
        3
280
     0
281
     0
  0
CLASS
  1
PLOTSETTINGS
  2
AcDbPlotSettings
  3
ObjectDBX Classes
 90
        0
 91
        3
280
     0
281
     0
  0
CLASS
  1
DICTIONARYVAR
  2
AcDbDictionaryVar
  3
ObjectDBX Classes
 90
        0
 91
        3
280
     0
281
     0
  0
CLASS
  1
CELLSTYLEMAP
  2
AcDbCellStyleMap
  3
ObjectDBX Classes
 90
     1152
 91
        3
280
     0
281
     0
  0
ENDSEC
  0
SECTION
  2
TABLES
  0
TABLE
  2
VPORT
  5
8
330
0
100
AcDbSymbolTable
 70
     1
  0
VPORT
  5
29
330
8
100
AcDbSymbolTableRecord
100
AcDbViewportTableRecord
  2
*Active
 70
     0
 10
0.0
 20
0.0
 11
1.0
 21
1.0
 12
20442.80871694214
 22
-13238.04508968617
 13
0.0
 23
0.0
 14
10.0
 24
10.0
 15
10.0
 25
10.0
 16
0.0
 26
0.0
 36
1.0
 17
0.0
 27
0.0
 37
0.0
 40
2487.294387256689
 41
9.289620150364728
 42
50.0
 43
0.0
 44
0.0
 50
0.0
 51
0.0
 71
     0
 72
   100
 73
     1
 74
     3
 75
     0
 76
     0
 77
     0
 78
     0
281
     0
 65
     1
110
0.0
120
0.0
130
0.0
111
1.0
121
0.0
131
0.0
112
0.0
122
1.0
132
0.0
 79
     0
146
0.0
348
2F
 60
     3
 61
     5
292
     1
282
     1
141
0.0
142
0.0
 63
   250
361
5D
  0
ENDTAB
  0
TABLE
  2
LTYPE
  5
5
330
0
100
AcDbSymbolTable
 70
     3
  0
LTYPE
  5
14
330
5
100
AcDbSymbolTableRecord
100
AcDbLinetypeTableRecord
  2
ByBlock
 70
     0
  3

 72
    65
 73
     0
 40
0.0
  0
LTYPE
  5
15
330
5
100
AcDbSymbolTableRecord
100
AcDbLinetypeTableRecord
  2
ByLayer
 70
     0
  3

 72
    65
 73
     0
 40
0.0
  0
LTYPE
  5
16
330
5
100
AcDbSymbolTableRecord
100
AcDbLinetypeTableRecord
  2
Continuous
 70
     0
  3
Solid line
 72
    65
 73
     0
 40
0.0
  0
LTYPE
  5
166
330
5
100
AcDbSymbolTableRecord
100
AcDbLinetypeTableRecord
  2
CADWORK_3
 70
     0
  3

 72
    65
 73
     2
 40
4.0
 49
2.0
 74
     0
 49
-2.0
 74
     0
  0
LTYPE
  5
245
330
5
100
AcDbSymbolTableRecord
100
AcDbLinetypeTableRecord
  2
CADWORK_22
 70
     0
  3

 72
    65
 73
     0
 40
0.0
  0
ENDTAB
  0
TABLE
  2
LAYER
  5
2
330
0
100
AcDbSymbolTable
 70
     4
  0
LAYER
  5
10
330
2
100
AcDbSymbolTableRecord
100
AcDbLayerTableRecord
  2
0
 70
     0
 62
     7
  6
Continuous
370
    -3
390
F
347
46
348
0
  0
LAYER
  5
67
330
2
100
AcDbSymbolTableRecord
100
AcDbLayerTableRecord
  2
Ech.1_5
 70
     0
 62
     7
  6
Continuous
370
    -3
390
F
347
46
348
0
  0
LAYER
  5
68
330
2
100
AcDbSymbolTableRecord
100
AcDbLayerTableRecord
  2
ECH_1_5
 70
     0
 62
     7
  6
Continuous
370
    -3
390
F
347
46
348
0
  0
LAYER
  5
69
330
2
100
AcDbSymbolTableRecord
100
AcDbLayerTableRecord
  2
0_
 70
     0
 62
     7
  6
Continuous
370
    -3
390
F
347
46
348
0
  0
ENDTAB
  0
TABLE
  2
STYLE
  5
3
330
0
100
AcDbSymbolTable
 70
     9
  0
STYLE
  5
11
330
3
100
AcDbSymbolTableRecord
100
AcDbTextStyleTableRecord
  2
Standard
 70
     0
 40
0.0
 41
1.0
 50
0.0
 71
     0
 42
2.5
  3
txt
  4

  0
STYLE
  5
62
330
3
100
AcDbSymbolTableRecord
100
AcDbTextStyleTableRecord
  2
CwStyleShx
 70
     0
 40
1.0
 41
1.0
 50
0.0
 71
     0
 42
2.5
  3

  4

  0
STYLE
  5
63
330
3
100
AcDbSymbolTableRecord
100
AcDbTextStyleTableRecord
  2
CwStyleShx16
 70
     0
 40
1.0
 41
1.0
 50
0.0
 71
     0
 42
2.5
  3

  4

  0
STYLE
  5
64
330
3
100
AcDbSymbolTableRecord
100
AcDbTextStyleTableRecord
  2
MONOTXT
 70
     0
 40
0.0
 41
1.0
 50
0.0
 71
     0
 42
2.5
  3
MONOTXT
  4

  0
STYLE
  5
65
330
3
100
AcDbSymbolTableRecord
100
AcDbTextStyleTableRecord
  2
SYMAP
 70
     0
 40
1.0
 41
1.0
 50
0.0
 71
     0
 42
2.5
  3
SYMAP
  4

  0
STYLE
  5
66
330
3
100
AcDbSymbolTableRecord
100
AcDbTextStyleTableRecord
  2
CwStyleTtf
 70
     0
 40
1.0
 41
1.0
 50
0.0
 71
     0
 42
2.5
  3
arial.ttf
  4

  0
STYLE
  5
2C9
330
3
100
AcDbSymbolTableRecord
100
AcDbTextStyleTableRecord
  2
arial-
 70
     0
 40
1.0
 41
1.0
 50
0.0
 71
     0
 42
2.5
  3
arial.ttf
  4

1001
ACAD
1000
Arial
1071
        0
  0
STYLE
  5
2D3
330
3
100
AcDbSymbolTableRecord
100
AcDbTextStyleTableRecord
  2
arial-i
 70
     0
 40
1.0
 41
1.0
 50
0.0
 71
     0
 42
2.5
  3
ariali.ttf
  4

1001
ACAD
1000
Arial
1071
 16777216
  0
STYLE
  5
2D5
330
3
100
AcDbSymbolTableRecord
100
AcDbTextStyleTableRecord
  2
arial-b
 70
     0
 40
1.0
 41
1.0
 50
0.0
 71
     0
 42
2.5
  3
arialbd.ttf
  4

1001
ACAD
1000
Arial
1071
 33554432
  0
ENDTAB
  0
TABLE
  2
VIEW
  5
6
330
0
100
AcDbSymbolTable
 70
     0
  0
ENDTAB
  0
TABLE
  2
UCS
  5
7
330
0
100
AcDbSymbolTable
 70
     0
  0
ENDTAB
  0
TABLE
  2
APPID
  5
9
330
0
100
AcDbSymbolTable
 70
     3
  0
APPID
  5
12
330
9
100
AcDbSymbolTableRecord
100
AcDbRegAppTableRecord
  2
ACAD
 70
     0
  0
APPID
  5
5E
330
9
100
AcDbSymbolTableRecord
100
AcDbRegAppTableRecord
  2
Cadwork
 70
     0
  0
APPID
  5
216
330
9
100
AcDbSymbolTableRecord
100
AcDbRegAppTableRecord
  2
PLOTTRANSPARENCY
 70
     0
  0
ENDTAB
  0
TABLE
  2
DIMSTYLE
  5
A
330
0
100
AcDbSymbolTable
 70
     1
100
AcDbDimStyleTable
  0
DIMSTYLE
105
27
330
A
100
AcDbSymbolTableRecord
100
AcDbDimStyleTableRecord
  2
ISO-25
 70
     0
 41
2.5
 42
0.625
 43
3.75
 44
1.25
 73
     0
 74
     0
 77
     1
 78
     8
140
2.5
141
2.5
143
0.03937007874016
147
0.625
171
     3
172
     1
178
     0
271
     2
272
     2
274
     3
278
    44
283
     0
284
     8
340
11
  0
ENDTAB
  0
TABLE
  2
BLOCK_RECORD
  5
1
330
0
100
AcDbSymbolTable
 70
    69
  0
BLOCK_RECORD
  5
1F
330
1
100
AcDbSymbolTableRecord
100
AcDbBlockTableRecord
  2
*Model_Space
340
22
 70
     0
280
     1
281
     0
  0
BLOCK_RECORD
  5
211
330
1
100
AcDbSymbolTableRecord
100
AcDbBlockTableRecord
  2
*Paper_Space
340
212
 70
     0
280
     1
281
     0
  0
BLOCK_RECORD
  5
6A
330
1
100
AcDbSymbolTableRecord
100
AcDbBlockTableRecord
  2
CDWK_PTTYP1
340
0
 70
     0
280
     1
281
     1
  0
BLOCK_RECORD
  5
71
330
1
100
AcDbSymbolTableRecord
100
AcDbBlockTableRecord
  2
CDWK_PTTYP2
340
0
 70
     0
280
     1
281
     1
  0
BLOCK_RECORD
  5
76
330
1
100
AcDbSymbolTableRecord
100
AcDbBlockTableRecord
  2
CDWK_PTTYP4
340
0
 70
     0
280
     1
281
     1
  0
BLOCK_RECORD
  5
7A
330
1
100
AcDbSymbolTableRecord
100
AcDbBlockTableRecord
  2
CDWK_PTTYP5
340
0
 70
     0
280
     1
281
     1
  0
BLOCK_RECORD
  5
83
330
1
100
AcDbSymbolTableRecord
100
AcDbBlockTableRecord
  2
CDWK_PTTYP6
340
0
 70
     0
280
     1
281
     1
  0
BLOCK_RECORD
  5
8B
330
1
100
AcDbSymbolTableRecord
100
AcDbBlockTableRecord
  2
CDWK_PTTYP7
340
0
 70
     0
280
     1
281
     1
  0
BLOCK_RECORD
  5
94
330
1
100
AcDbSymbolTableRecord
100
AcDbBlockTableRecord
  2
CDWK_PTTYP8
340
0
 70
     0
280
     1
281
     1
  0
BLOCK_RECORD
  5
98
330
1
100
AcDbSymbolTableRecord
100
AcDbBlockTableRecord
  2
CDWK_PTTYP9
340
0
 70
     0
280
     1
281
     1
  0
BLOCK_RECORD
  5
9D
330
1
100
AcDbSymbolTableRecord
100
AcDbBlockTableRecord
  2
CDWK_PTTYP10
340
0
 70
     0
280
     1
281
     1
  0
BLOCK_RECORD
  5
A1
330
1
100
AcDbSymbolTableRecord
100
AcDbBlockTableRecord
  2
CDWK_PTTYP11
340
0
 70
     0
280
     1
281
     1
  0
BLOCK_RECORD
  5
A6
330
1
100
AcDbSymbolTableRecord
100
AcDbBlockTableRecord
  2
CDWK_PTTYP12
340
0
 70
     0
280
     1
281
     1
  0
BLOCK_RECORD
  5
AB
330
1
100
AcDbSymbolTableRecord
100
AcDbBlockTableRecord
  2
CDWK_PTTYP13
340
0
 70
     0
280
     1
281
     1
  0
BLOCK_RECORD
  5
B1
330
1
100
AcDbSymbolTableRecord
100
AcDbBlockTableRecord
  2
CDWK_PTTYP16
340
0
 70
     0
280
     1
281
     1
  0
BLOCK_RECORD
  5
B8
330
1
100
AcDbSymbolTableRecord
100
AcDbBlockTableRecord
  2
CDWK_PTTYP17
340
0
 70
     0
280
     1
281
     1
  0
BLOCK_RECORD
  5
BD
330
1
100
AcDbSymbolTableRecord
100
AcDbBlockTableRecord
  2
CDWK_PTTYP18
340
0
 70
     0
280
     1
281
     1
  0
BLOCK_RECORD
  5
C2
330
1
100
AcDbSymbolTableRecord
100
AcDbBlockTableRecord
  2
CDWK_PTTYP19
340
0
 70
     0
280
     1
281
     1
  0
BLOCK_RECORD
  5
C8
330
1
100
AcDbSymbolTableRecord
100
AcDbBlockTableRecord
  2
CDWK_PTTYP20
340
0
 70
     0
280
     1
281
     1
  0
BLOCK_RECORD
  5
CD
330
1
100
AcDbSymbolTableRecord
100
AcDbBlockTableRecord
  2
CDWK_PTTYP21
340
0
 70
     0
280
     1
281
     1
  0
BLOCK_RECORD
  5
D2
330
1
100
AcDbSymbolTableRecord
100
AcDbBlockTableRecord
  2
CDWK_PTTYP25
340
0
 70
     0
280
     1
281
     1
  0
BLOCK_RECORD
  5
D9
330
1
100
AcDbSymbolTableRecord
100
AcDbBlockTableRecord
  2
CDWK_PTTYP26
340
0
 70
     0
280
     1
281
     1
  0
BLOCK_RECORD
  5
E0
330
1
100
AcDbSymbolTableRecord
100
AcDbBlockTableRecord
  2
CDWK_PTTYP27
340
0
 70
     0
280
     1
281
     1
  0
BLOCK_RECORD
  5
E8
330
1
100
AcDbSymbolTableRecord
100
AcDbBlockTableRecord
  2
CDWK_PTTYP28
340
0
 70
     0
280
     1
281
     1
  0
BLOCK_RECORD
  5
EF
330
1
100
AcDbSymbolTableRecord
100
AcDbBlockTableRecord
  2
CDWK_PTTYP29
340
0
 70
     0
280
     1
281
     1
  0
BLOCK_RECORD
  5
F5
330
1
100
AcDbSymbolTableRecord
100
AcDbBlockTableRecord
  2
CDWK_PTTYP30
340
0
 70
     0
280
     1
281
     1
  0
BLOCK_RECORD
  5
FC
330
1
100
AcDbSymbolTableRecord
100
AcDbBlockTableRecord
  2
CDWK_PTTYP31
340
0
 70
     0
280
     1
281
     1
  0
BLOCK_RECORD
  5
104
330
1
100
AcDbSymbolTableRecord
100
AcDbBlockTableRecord
  2
CDWK_PTTYP32
340
0
 70
     0
280
     1
281
     1
  0
BLOCK_RECORD
  5
10D
330
1
100
AcDbSymbolTableRecord
100
AcDbBlockTableRecord
  2
CDWK_PTTYP33
340
0
 70
     0
280
     1
281
     1
  0
BLOCK_RECORD
  5
113
330
1
100
AcDbSymbolTableRecord
100
AcDbBlockTableRecord
  2
CDWK_PTTYP34
340
0
 70
     0
280
     1
281
     1
  0
BLOCK_RECORD
  5
119
330
1
100
AcDbSymbolTableRecord
100
AcDbBlockTableRecord
  2
CDWK_PTTYP35
340
0
 70
     0
280
     1
281
     1
  0
BLOCK_RECORD
  5
11F
330
1
100
AcDbSymbolTableRecord
100
AcDbBlockTableRecord
  2
CDWK_PTTYP36
340
0
 70
     0
280
     1
281
     1
  0
BLOCK_RECORD
  5
127
330
1
100
AcDbSymbolTableRecord
100
AcDbBlockTableRecord
  2
CDWK_PTTYP37
340
0
 70
     0
280
     1
281
     1
  0
BLOCK_RECORD
  5
12C
330
1
100
AcDbSymbolTableRecord
100
AcDbBlockTableRecord
  2
CDWK_PTTYP38
340
0
 70
     0
280
     1
281
     1
  0
BLOCK_RECORD
  5
132
330
1
100
AcDbSymbolTableRecord
100
AcDbBlockTableRecord
  2
CDWK_PTTYP41
340
0
 70
     0
280
     1
281
     1
  0
BLOCK_RECORD
  5
13C
330
1
100
AcDbSymbolTableRecord
100
AcDbBlockTableRecord
  2
CDWK_PTTYP42
340
0
 70
     0
280
     1
281
     1
  0
BLOCK_RECORD
  5
145
330
1
100
AcDbSymbolTableRecord
100
AcDbBlockTableRecord
  2
CDWK_PTTYP43
340
0
 70
     0
280
     1
281
     1
  0
BLOCK_RECORD
  5
14B
330
1
100
AcDbSymbolTableRecord
100
AcDbBlockTableRecord
  2
CDWK_PTTYP44
340
0
 70
     0
280
     1
281
     1
  0
BLOCK_RECORD
  5
154
330
1
100
AcDbSymbolTableRecord
100
AcDbBlockTableRecord
  2
CDWK_PTTYP45
340
0
 70
     0
280
     1
281
     1
  0
BLOCK_RECORD
  5
159
330
1
100
AcDbSymbolTableRecord
100
AcDbBlockTableRecord
  2
CDWK_PTTYP46
340
0
 70
     0
280
     1
281
     1
  0
BLOCK_RECORD
  5
15E
330
1
100
AcDbSymbolTableRecord
100
AcDbBlockTableRecord
  2
CDWK_PTTYP47
340
0
 70
     0
280
     1
281
     1
  0
BLOCK_RECORD
  5
167
330
1
100
AcDbSymbolTableRecord
100
AcDbBlockTableRecord
  2
CDWK_PTTYP48
340
0
 70
     0
280
     1
281
     1
  0
BLOCK_RECORD
  5
16C
330
1
100
AcDbSymbolTableRecord
100
AcDbBlockTableRecord
  2
CDWK_PTTYP49
340
0
 70
     0
280
     1
281
     1
  0
BLOCK_RECORD
  5
173
330
1
100
AcDbSymbolTableRecord
100
AcDbBlockTableRecord
  2
CDWK_PTTYP50
340
0
 70
     0
280
     1
281
     1
  0
BLOCK_RECORD
  5
17D
330
1
100
AcDbSymbolTableRecord
100
AcDbBlockTableRecord
  2
CDWK_PTTYP51
340
0
 70
     0
280
     1
281
     1
  0
BLOCK_RECORD
  5
182
330
1
100
AcDbSymbolTableRecord
100
AcDbBlockTableRecord
  2
CDWK_PTTYP52
340
0
 70
     0
280
     1
281
     1
  0
BLOCK_RECORD
  5
188
330
1
100
AcDbSymbolTableRecord
100
AcDbBlockTableRecord
  2
cw-dimension-symbol1
340
0
 70
     0
280
     1
281
     0
  0
BLOCK_RECORD
  5
18F
330
1
100
AcDbSymbolTableRecord
100
AcDbBlockTableRecord
  2
cw-dimension-symbol2
340
0
 70
     0
280
     1
281
     0
  0
BLOCK_RECORD
  5
194
330
1
100
AcDbSymbolTableRecord
100
AcDbBlockTableRecord
  2
cw-dimension-symbol3
340
0
 70
     0
280
     1
281
     0
  0
BLOCK_RECORD
  5
199
330
1
100
AcDbSymbolTableRecord
100
AcDbBlockTableRecord
  2
cw-dimension-symbol5
340
0
 70
     0
280
     1
281
     0
  0
BLOCK_RECORD
  5
1A0
330
1
100
AcDbSymbolTableRecord
100
AcDbBlockTableRecord
  2
cw-dimension-symbol6
340
0
 70
     0
280
     1
281
     0
  0
BLOCK_RECORD
  5
1A6
330
1
100
AcDbSymbolTableRecord
100
AcDbBlockTableRecord
  2
cw-dimension-symbol11
340
0
 70
     0
280
     1
281
     0
  0
BLOCK_RECORD
  5
1AC
330
1
100
AcDbSymbolTableRecord
100
AcDbBlockTableRecord
  2
cw-dimension-symbol13
340
0
 70
     0
280
     1
281
     0
  0
BLOCK_RECORD
  5
1B2
330
1
100
AcDbSymbolTableRecord
100
AcDbBlockTableRecord
  2
cw-dimension-symbol15
340
0
 70
     0
280
     1
281
     0
  0
BLOCK_RECORD
  5
1B9
330
1
100
AcDbSymbolTableRecord
100
AcDbBlockTableRecord
  2
cw-dimension-symbol16
340
0
 70
     0
280
     1
281
     0
  0
BLOCK_RECORD
  5
1C0
330
1
100
AcDbSymbolTableRecord
100
AcDbBlockTableRecord
  2
cw-dimension-symbol17
340
0
 70
     0
280
     1
281
     0
  0
BLOCK_RECORD
  5
1C7
330
1
100
AcDbSymbolTableRecord
100
AcDbBlockTableRecord
  2
cw-dimension-symbol18
340
0
 70
     0
280
     1
281
     0
  0
BLOCK_RECORD
  5
1CE
330
1
100
AcDbSymbolTableRecord
100
AcDbBlockTableRecord
  2
cw-dimension-symbol19
340
0
 70
     0
280
     1
281
     0
  0
BLOCK_RECORD
  5
1D1
330
1
100
AcDbSymbolTableRecord
100
AcDbBlockTableRecord
  2
cw-dimension-symbol20
340
0
 70
     0
280
     1
281
     0
  0
BLOCK_RECORD
  5
1D8
330
1
100
AcDbSymbolTableRecord
100
AcDbBlockTableRecord
  2
cw-dimension-symbol21
340
0
 70
     0
280
     1
281
     0
  0
BLOCK_RECORD
  5
1DF
330
1
100
AcDbSymbolTableRecord
100
AcDbBlockTableRecord
  2
cw-line-extremity0
340
0
 70
     0
280
     1
281
     0
  0
BLOCK_RECORD
  5
1E3
330
1
100
AcDbSymbolTableRecord
100
AcDbBlockTableRecord
  2
cw-line-extremity2
340
0
 70
     0
280
     1
281
     0
  0
BLOCK_RECORD
  5
1E8
330
1
100
AcDbSymbolTableRecord
100
AcDbBlockTableRecord
  2
cw-line-extremity3
340
0
 70
     0
280
     1
281
     0
  0
BLOCK_RECORD
  5
1ED
330
1
100
AcDbSymbolTableRecord
100
AcDbBlockTableRecord
  2
cw-line-extremity301
340
0
 70
     0
280
     1
281
     0
  0
BLOCK_RECORD
  5
1EF
330
1
100
AcDbSymbolTableRecord
100
AcDbBlockTableRecord
  2
cw-line-extremity4
340
0
102
{BLKREFS
331
29E
331
2A0
331
2A2
331
2A4
331
2A6
331
2A8
331
2AA
331
2AC
331
2AE
331
2B0
331
2B2
331
2B4
331
2B6
331
2B8
331
2BA
331
2BC
331
2BE
331
2C0
331
2C2
331
2C4
331
2C6
331
2C8
102
}
 70
     0
280
     1
281
     0
  0
BLOCK_RECORD
  5
1F1
330
1
100
AcDbSymbolTableRecord
100
AcDbBlockTableRecord
  2
cw-line-extremity5
340
0
 70
     0
280
     1
281
     0
  0
BLOCK_RECORD
  5
1F3
330
1
100
AcDbSymbolTableRecord
100
AcDbBlockTableRecord
  2
cw-line-extremity6
340
0
 70
     0
280
     1
281
     0
  0
BLOCK_RECORD
  5
1F5
330
1
100
AcDbSymbolTableRecord
100
AcDbBlockTableRecord
  2
cw-line-extremity9
340
0
 70
     0
280
     1
281
     0
  0
BLOCK_RECORD
  5
1F7
330
1
100
AcDbSymbolTableRecord
100
AcDbBlockTableRecord
  2
cw-line-extremity10
340
0
 70
     0
280
     1
281
     0
  0
BLOCK_RECORD
  5
1F9
330
1
100
AcDbSymbolTableRecord
100
AcDbBlockTableRecord
  2
cw-line-extremity1
340
0
 70
     0
280
     1
281
     0
  0
BLOCK_RECORD
  5
1B
330
1
100
AcDbSymbolTableRecord
100
AcDbBlockTableRecord
  2
*Paper_Space69
340
1E
 70
     0
280
     1
281
     0
  0
ENDTAB
  0
ENDSEC
  0
SECTION
  2
BLOCKS
  0
BLOCK
  5
20
330
1F
100
AcDbEntity
  8
0
100
AcDbBlockBegin
  2
*Model_Space
 70
     0
 10
0.0
 20
0.0
 30
0.0
  3
*Model_Space
  1

  0
ENDBLK
  5
21
330
1F
100
AcDbEntity
  8
0
100
AcDbBlockEnd
  0
BLOCK
  5
213
330
211
100
AcDbEntity
 67
     1
  8
0
100
AcDbBlockBegin
  2
*Paper_Space
 70
     0
 10
0.0
 20
0.0
 30
0.0
  3
*Paper_Space
  1

  0
ENDBLK
  5
214
330
211
100
AcDbEntity
 67
     1
  8
0
100
AcDbBlockEnd
  0
BLOCK
  5
6F
330
6A
100
AcDbEntity
  8
0
100
AcDbBlockBegin
  2
CDWK_PTTYP1
 70
     0
 10
0.0
 20
0.0
 30
0.0
  3
CDWK_PTTYP1
  1

  0
LINE
  5
6B
330
6A
100
AcDbEntity
  8
0
  6
Continuous
 62
     0
370
    -2
390
5F
100
AcDbLine
 10
-0.5
 20
0.5
 30
0.0
 11
0.5
 21
0.5
 31
0.0
  0
LINE
  5
6C
330
6A
100
AcDbEntity
  8
0
  6
Continuous
 62
     0
370
    -2
390
5F
100
AcDbLine
 10
0.5
 20
0.5
 30
0.0
 11
0.5
 21
-0.5
 31
0.0
  0
LINE
  5
6D
330
6A
100
AcDbEntity
  8
0
  6
Continuous
 62
     0
370
    -2
390
5F
100
AcDbLine
 10
0.5
 20
-0.5
 30
0.0
 11
-0.5
 21
-0.5
 31
0.0
  0
LINE
  5
6E
330
6A
100
AcDbEntity
  8
0
  6
Continuous
 62
     0
370
    -2
390
5F
100
AcDbLine
 10
-0.5
 20
-0.5
 30
0.0
 11
-0.5
 21
0.5
 31
0.0
  0
ENDBLK
  5
70
330
6A
100
AcDbEntity
  8
0
100
AcDbBlockEnd
  0
BLOCK
  5
74
330
71
100
AcDbEntity
  8
0
100
AcDbBlockBegin
  2
CDWK_PTTYP2
 70
     0
 10
0.0
 20
0.0
 30
0.0
  3
CDWK_PTTYP2
  1

  0
LINE
  5
72
330
71
100
AcDbEntity
  8
0
  6
Continuous
 62
     0
370
    -2
390
5F
100
AcDbLine
 10
0.0
 20
0.5
 30
0.0
 11
0.0
 21
-0.5
 31
0.0
  0
LINE
  5
73
330
71
100
AcDbEntity
  8
0
  6
Continuous
 62
     0
370
    -2
390
5F
100
AcDbLine
 10
0.5
 20
0.0
 30
0.0
 11
-0.5
 21
0.0
 31
0.0
  0
ENDBLK
  5
75
330
71
100
AcDbEntity
  8
0
100
AcDbBlockEnd
  0
BLOCK
  5
78
330
76
100
AcDbEntity
  8
0
100
AcDbBlockBegin
  2
CDWK_PTTYP4
 70
     0
 10
0.0
 20
0.0
 30
0.0
  3
CDWK_PTTYP4
  1

  0
HATCH
  5
77
330
76
100
AcDbEntity
  8
0
  6
Continuous
 62
     0
370
    -2
390
5F
100
AcDbHatch
 10
0.0
 20
0.0
 30
0.0
210
0.0
220
0.0
230
1.0
  2
SOLID
 70
     1
 71
     0
 91
        1
 92
        1
 93
        1
 72
     2
 10
0.0
 20
0.0
 40
0.5
 50
0.0
 51
360.0
 73
     1
 97
        0
 75
     0
 76
     1
 98
        0
  0
ENDBLK
  5
79
330
76
100
AcDbEntity
  8
0
100
AcDbBlockEnd
  0
BLOCK
  5
81
330
7A
100
AcDbEntity
  8
0
100
AcDbBlockBegin
  2
CDWK_PTTYP5
 70
     0
 10
0.0
 20
0.0
 30
0.0
  3
CDWK_PTTYP5
  1

  0
LINE
  5
7B
330
7A
100
AcDbEntity
  8
0
  6
Continuous
 62
     0
370
    -2
390
5F
100
AcDbLine
 10
-0.5
 20
0.5
 30
0.0
 11
0.5
 21
0.5
 31
0.0
  0
LINE
  5
7C
330
7A
100
AcDbEntity
  8
0
  6
Continuous
 62
     0
370
    -2
390
5F
100
AcDbLine
 10
0.5
 20
0.5
 30
0.0
 11
0.5
 21
-0.5
 31
0.0
  0
LINE
  5
7D
330
7A
100
AcDbEntity
  8
0
  6
Continuous
 62
     0
370
    -2
390
5F
100
AcDbLine
 10
0.5
 20
-0.5
 30
0.0
 11
-0.5
 21
-0.5
 31
0.0
  0
LINE
  5
7E
330
7A
100
AcDbEntity
  8
0
  6
Continuous
 62
     0
370
    -2
390
5F
100
AcDbLine
 10
-0.5
 20
-0.5
 30
0.0
 11
-0.5
 21
0.5
 31
0.0
  0
HATCH
  5
7F
330
7A
100
AcDbEntity
  8
0
  6
Continuous
 62
     0
370
    -2
390
5F
100
AcDbHatch
 10
0.0
 20
0.0
 30
0.0
210
0.0
220
0.0
230
1.0
  2
SOLID
 70
     1
 71
     0
 91
        1
 92
        3
 72
     0
 73
     1
 93
        4
 10
-0.5
 20
0.0
 10
0.0
 20
0.0
 10
0.0
 20
-0.5
 10
-0.5
 20
-0.5
 97
        0
 75
     0
 76
     1
 98
        0
  0
HATCH
  5
80
330
7A
100
AcDbEntity
  8
0
  6
Continuous
 62
     0
370
    -2
390
5F
100
AcDbHatch
 10
0.0
 20
0.0
 30
0.0
210
0.0
220
0.0
230
1.0
  2
SOLID
 70
     1
 71
     0
 91
        1
 92
        3
 72
     0
 73
     1
 93
        4
 10
0.0
 20
0.0
 10
0.5
 20
0.0
 10
0.5
 20
0.5
 10
0.0
 20
0.5
 97
        0
 75
     0
 76
     1
 98
        0
  0
ENDBLK
  5
82
330
7A
100
AcDbEntity
  8
0
100
AcDbBlockEnd
  0
BLOCK
  5
89
330
83
100
AcDbEntity
  8
0
100
AcDbBlockBegin
  2
CDWK_PTTYP6
 70
     0
 10
0.0
 20
0.0
 30
0.0
  3
CDWK_PTTYP6
  1

  0
LINE
  5
84
330
83
100
AcDbEntity
  8
0
  6
Continuous
 62
     0
370
    -2
390
5F
100
AcDbLine
 10
-0.5
 20
0.5
 30
0.0
 11
0.5
 21
0.5
 31
0.0
  0
LINE
  5
85
330
83
100
AcDbEntity
  8
0
  6
Continuous
 62
     0
370
    -2
390
5F
100
AcDbLine
 10
0.5
 20
0.5
 30
0.0
 11
0.5
 21
-0.5
 31
0.0
  0
LINE
  5
86
330
83
100
AcDbEntity
  8
0
  6
Continuous
 62
     0
370
    -2
390
5F
100
AcDbLine
 10
0.5
 20
-0.5
 30
0.0
 11
-0.5
 21
-0.5
 31
0.0
  0
LINE
  5
87
330
83
100
AcDbEntity
  8
0
  6
Continuous
 62
     0
370
    -2
390
5F
100
AcDbLine
 10
-0.5
 20
-0.5
 30
0.0
 11
-0.5
 21
0.5
 31
0.0
  0
HATCH
  5
88
330
83
100
AcDbEntity
  8
0
  6
Continuous
 62
     0
370
    -2
390
5F
100
AcDbHatch
 10
0.0
 20
0.0
 30
0.0
210
0.0
220
0.0
230
1.0
  2
SOLID
 70
     1
 71
     0
 91
        1
 92
        3
 72
     0
 73
     1
 93
        3
 10
-0.5
 20
-0.5
 10
-0.5
 20
0.5
 10
0.5
 20
0.5
 97
        0
 75
     0
 76
     1
 98
        0
  0
ENDBLK
  5
8A
330
83
100
AcDbEntity
  8
0
100
AcDbBlockEnd
  0
BLOCK
  5
92
330
8B
100
AcDbEntity
  8
0
100
AcDbBlockBegin
  2
CDWK_PTTYP7
 70
     0
 10
0.0
 20
0.0
 30
0.0
  3
CDWK_PTTYP7
  1

  0
LINE
  5
8C
330
8B
100
AcDbEntity
  8
0
  6
Continuous
 62
     0
370
    -2
390
5F
100
AcDbLine
 10
-0.5
 20
0.5
 30
0.0
 11
0.5
 21
0.5
 31
0.0
  0
LINE
  5
8D
330
8B
100
AcDbEntity
  8
0
  6
Continuous
 62
     0
370
    -2
390
5F
100
AcDbLine
 10
0.5
 20
0.5
 30
0.0
 11
0.5
 21
-0.5
 31
0.0
  0
LINE
  5
8E
330
8B
100
AcDbEntity
  8
0
  6
Continuous
 62
     0
370
    -2
390
5F
100
AcDbLine
 10
0.5
 20
-0.5
 30
0.0
 11
-0.5
 21
-0.5
 31
0.0
  0
LINE
  5
8F
330
8B
100
AcDbEntity
  8
0
  6
Continuous
 62
     0
370
    -2
390
5F
100
AcDbLine
 10
-0.5
 20
-0.5
 30
0.0
 11
-0.5
 21
0.5
 31
0.0
  0
LINE
  5
90
330
8B
100
AcDbEntity
  8
0
  6
Continuous
 62
     0
370
    -2
390
5F
100
AcDbLine
 10
0.0
 20
0.5
 30
0.0
 11
0.0
 21
-0.5
 31
0.0
  0
LINE
  5
91
330
8B
100
AcDbEntity
  8
0
  6
Continuous
 62
     0
370
    -2
390
5F
100
AcDbLine
 10
0.5
 20
0.0
 30
0.0
 11
-0.5
 21
0.0
 31
0.0
  0
ENDBLK
  5
93
330
8B
100
AcDbEntity
  8
0
100
AcDbBlockEnd
  0
BLOCK
  5
96
330
94
100
AcDbEntity
  8
0
100
AcDbBlockBegin
  2
CDWK_PTTYP8
 70
     0
 10
0.0
 20
0.0
 30
0.0
  3
CDWK_PTTYP8
  1

  0
HATCH
  5
95
330
94
100
AcDbEntity
  8
0
  6
Continuous
 62
     0
370
    -2
390
5F
100
AcDbHatch
 10
0.0
 20
0.0
 30
0.0
210
0.0
220
0.0
230
1.0
  2
SOLID
 70
     1
 71
     0
 91
        1
 92
        3
 72
     0
 73
     1
 93
        4
 10
0.5
 20
0.5
 10
0.5
 20
-0.5
 10
-0.5
 20
-0.5
 10
-0.5
 20
0.5
 97
        0
 75
     0
 76
     1
 98
        0
  0
ENDBLK
  5
97
330
94
100
AcDbEntity
  8
0
100
AcDbBlockEnd
  0
BLOCK
  5
9B
330
98
100
AcDbEntity
  8
0
100
AcDbBlockBegin
  2
CDWK_PTTYP9
 70
     0
 10
0.0
 20
0.0
 30
0.0
  3
CDWK_PTTYP9
  1

  0
CIRCLE
  5
99
330
98
100
AcDbEntity
  8
0
  6
Continuous
 62
     0
370
    -2
390
5F
100
AcDbCircle
 10
0.0
 20
0.0
 30
0.0
 40
0.1666666666666667
  0
CIRCLE
  5
9A
330
98
100
AcDbEntity
  8
0
  6
Continuous
 62
     0
370
    -2
390
5F
100
AcDbCircle
 10
0.0
 20
0.0
 30
0.0
 40
0.5
  0
ENDBLK
  5
9C
330
98
100
AcDbEntity
  8
0
100
AcDbBlockEnd
  0
BLOCK
  5
9F
330
9D
100
AcDbEntity
  8
0
100
AcDbBlockBegin
  2
CDWK_PTTYP10
 70
     0
 10
0.0
 20
0.0
 30
0.0
  3
CDWK_PTTYP10
  1

  0
CIRCLE
  5
9E
330
9D
100
AcDbEntity
  8
0
  6
Continuous
 62
     0
370
    -2
390
5F
100
AcDbCircle
 10
0.0
 20
0.0
 30
0.0
 40
0.5
  0
ENDBLK
  5
A0
330
9D
100
AcDbEntity
  8
0
100
AcDbBlockEnd
  0
BLOCK
  5
A4
330
A1
100
AcDbEntity
  8
0
100
AcDbBlockBegin
  2
CDWK_PTTYP11
 70
     0
 10
0.0
 20
0.0
 30
0.0
  3
CDWK_PTTYP11
  1

  0
CIRCLE
  5
A2
330
A1
100
AcDbEntity
  8
0
  6
Continuous
 62
     0
370
    -2
390
5F
100
AcDbCircle
 10
0.0
 20
0.0
 30
0.0
 40
0.25
  0
CIRCLE
  5
A3
330
A1
100
AcDbEntity
  8
0
  6
Continuous
 62
     0
370
    -2
390
5F
100
AcDbCircle
 10
0.0
 20
0.0
 30
0.0
 40
0.5
  0
ENDBLK
  5
A5
330
A1
100
AcDbEntity
  8
0
100
AcDbBlockEnd
  0
BLOCK
  5
A9
330
A6
100
AcDbEntity
  8
0
100
AcDbBlockBegin
  2
CDWK_PTTYP12
 70
     0
 10
0.0
 20
0.0
 30
0.0
  3
CDWK_PTTYP12
  1

  0
CIRCLE
  5
A7
330
A6
100
AcDbEntity
  8
0
  6
Continuous
 62
     0
370
    -2
390
5F
100
AcDbCircle
 10
0.25
 20
0.0
 30
0.0
 40
0.25
  0
CIRCLE
  5
A8
330
A6
100
AcDbEntity
  8
0
  6
Continuous
 62
     0
370
    -2
390
5F
100
AcDbCircle
 10
0.0
 20
0.0
 30
0.0
 40
0.5
  0
ENDBLK
  5
AA
330
A6
100
AcDbEntity
  8
0
100
AcDbBlockEnd
  0
BLOCK
  5
AF
330
AB
100
AcDbEntity
  8
0
100
AcDbBlockBegin
  2
CDWK_PTTYP13
 70
     0
 10
0.0
 20
0.0
 30
0.0
  3
CDWK_PTTYP13
  1

  0
CIRCLE
  5
AC
330
AB
100
AcDbEntity
  8
0
  6
Continuous
 62
     0
370
    -2
390
5F
100
AcDbCircle
 10
-0.25
 20
0.0
 30
0.0
 40
0.25
  0
CIRCLE
  5
AD
330
AB
100
AcDbEntity
  8
0
  6
Continuous
 62
     0
370
    -2
390
5F
100
AcDbCircle
 10
0.25
 20
0.0
 30
0.0
 40
0.25
  0
CIRCLE
  5
AE
330
AB
100
AcDbEntity
  8
0
  6
Continuous
 62
     0
370
    -2
390
5F
100
AcDbCircle
 10
0.0
 20
0.0
 30
0.0
 40
0.5
  0
ENDBLK
  5
B0
330
AB
100
AcDbEntity
  8
0
100
AcDbBlockEnd
  0
BLOCK
  5
B6
330
B1
100
AcDbEntity
  8
0
100
AcDbBlockBegin
  2
CDWK_PTTYP16
 70
     0
 10
0.0
 20
0.0
 30
0.0
  3
CDWK_PTTYP16
  1

  0
LINE
  5
B2
330
B1
100
AcDbEntity
  8
0
  6
Continuous
 62
     0
370
    -2
390
5F
100
AcDbLine
 10
-0.5
 20
-0.289
 30
0.0
 11
0.5
 21
-0.289
 31
0.0
  0
LINE
  5
B3
330
B1
100
AcDbEntity
  8
0
  6
Continuous
 62
     0
370
    -2
390
5F
100
AcDbLine
 10
0.5
 20
-0.289
 30
0.0
 11
0.0
 21
0.577
 31
0.0
  0
LINE
  5
B4
330
B1
100
AcDbEntity
  8
0
  6
Continuous
 62
     0
370
    -2
390
5F
100
AcDbLine
 10
0.0
 20
0.577
 30
0.0
 11
-0.5
 21
-0.289
 31
0.0
  0
CIRCLE
  5
B5
330
B1
100
AcDbEntity
  8
0
  6
Continuous
 62
     0
370
    -2
390
5F
100
AcDbCircle
 10
0.0
 20
0.0
 30
0.0
 40
0.289
  0
ENDBLK
  5
B7
330
B1
100
AcDbEntity
  8
0
100
AcDbBlockEnd
  0
BLOCK
  5
BB
330
B8
100
AcDbEntity
  8
0
100
AcDbBlockBegin
  2
CDWK_PTTYP17
 70
     0
 10
0.0
 20
0.0
 30
0.0
  3
CDWK_PTTYP17
  1

  0
CIRCLE
  5
B9
330
B8
100
AcDbEntity
  8
0
  6
Continuous
 62
     0
370
    -2
390
5F
100
AcDbCircle
 10
0.0
 20
0.0
 30
0.0
 40
0.5
  0
HATCH
  5
BA
330
B8
100
AcDbEntity
  8
0
  6
Continuous
 62
     0
370
    -2
390
5F
100
AcDbHatch
 10
0.0
 20
0.0
 30
0.0
210
0.0
220
0.0
230
1.0
  2
SOLID
 70
     1
 71
     0
 91
        1
 92
        1
 93
        1
 72
     2
 10
0.0
 20
0.0
 40
0.25
 50
0.0
 51
360.0
 73
     1
 97
        0
 75
     0
 76
     1
 98
        0
  0
ENDBLK
  5
BC
330
B8
100
AcDbEntity
  8
0
100
AcDbBlockEnd
  0
BLOCK
  5
C0
330
BD
100
AcDbEntity
  8
0
100
AcDbBlockBegin
  2
CDWK_PTTYP18
 70
     0
 10
0.0
 20
0.0
 30
0.0
  3
CDWK_PTTYP18
  1

  0
CIRCLE
  5
BE
330
BD
100
AcDbEntity
  8
0
  6
Continuous
 62
     0
370
    -2
390
5F
100
AcDbCircle
 10
0.0
 20
0.0
 30
0.0
 40
0.5
  0
CIRCLE
  5
BF
330
BD
100
AcDbEntity
  8
0
  6
Continuous
 62
     0
370
    -2
390
5F
100
AcDbCircle
 10
0.0
 20
0.0
 30
0.0
 40
0.208
  0
ENDBLK
  5
C1
330
BD
100
AcDbEntity
  8
0
100
AcDbBlockEnd
  0
BLOCK
  5
C6
330
C2
100
AcDbEntity
  8
0
100
AcDbBlockBegin
  2
CDWK_PTTYP19
 70
     0
 10
0.0
 20
0.0
 30
0.0
  3
CDWK_PTTYP19
  1

  0
CIRCLE
  5
C3
330
C2
100
AcDbEntity
  8
0
  6
Continuous
 62
     0
370
    -2
390
5F
100
AcDbCircle
 10
0.0
 20
0.0
 30
0.0
 40
0.25
  0
CIRCLE
  5
C4
330
C2
100
AcDbEntity
  8
0
  6
Continuous
 62
     0
370
    -2
390
5F
100
AcDbCircle
 10
0.0
 20
0.0
 30
0.0
 40
0.35
  0
LINE
  5
C5
330
C2
100
AcDbEntity
  8
0
  6
Continuous
 62
     0
370
    -2
390
5F
100
AcDbLine
 10
-0.25
 20
0.0
 30
0.0
 11
0.25
 21
0.0
 31
0.0
  0
ENDBLK
  5
C7
330
C2
100
AcDbEntity
  8
0
100
AcDbBlockEnd
  0
BLOCK
  5
CB
330
C8
100
AcDbEntity
  8
0
100
AcDbBlockBegin
  2
CDWK_PTTYP20
 70
     0
 10
0.0
 20
0.0
 30
0.0
  3
CDWK_PTTYP20
  1

  0
CIRCLE
  5
C9
330
C8
100
AcDbEntity
  8
0
  6
Continuous
 62
     0
370
    -2
390
5F
100
AcDbCircle
 10
0.0
 20
0.0
 30
0.0
 40
0.3333333333333333
  0
CIRCLE
  5
CA
330
C8
100
AcDbEntity
  8
0
  6
Continuous
 62
     0
370
    -2
390
5F
100
AcDbCircle
 10
0.0
 20
0.0
 30
0.0
 40
0.5
  0
ENDBLK
  5
CC
330
C8
100
AcDbEntity
  8
0
100
AcDbBlockEnd
  0
BLOCK
  5
D0
330
CD
100
AcDbEntity
  8
0
100
AcDbBlockBegin
  2
CDWK_PTTYP21
 70
     0
 10
0.0
 20
0.0
 30
0.0
  3
CDWK_PTTYP21
  1

  0
CIRCLE
  5
CE
330
CD
100
AcDbEntity
  8
0
  6
Continuous
 62
     0
370
    -2
390
5F
100
AcDbCircle
 10
0.0
 20
0.0
 30
0.0
 40
0.5
  0
LINE
  5
CF
330
CD
100
AcDbEntity
  8
0
  6
Continuous
 62
     0
370
    -2
390
5F
100
AcDbLine
 10
-0.5
 20
0.0
 30
0.0
 11
0.5
 21
0.0
 31
0.0
  0
ENDBLK
  5
D1
330
CD
100
AcDbEntity
  8
0
100
AcDbBlockEnd
  0
BLOCK
  5
D7
330
D2
100
AcDbEntity
  8
0
100
AcDbBlockBegin
  2
CDWK_PTTYP25
 70
     0
 10
0.0
 20
0.0
 30
0.0
  3
CDWK_PTTYP25
  1

  0
LINE
  5
D3
330
D2
100
AcDbEntity
  8
0
  6
Continuous
 62
     0
370
    -2
390
5F
100
AcDbLine
 10
0.0
 20
0.5
 30
0.0
 11
-0.4330127018922193
 21
-0.25
 31
0.0
  0
LINE
  5
D4
330
D2
100
AcDbEntity
  8
0
  6
Continuous
 62
     0
370
    -2
390
5F
100
AcDbLine
 10
-0.4330127018922193
 20
-0.25
 30
0.0
 11
0.4330127018922193
 21
-0.25
 31
0.0
  0
LINE
  5
D5
330
D2
100
AcDbEntity
  8
0
  6
Continuous
 62
     0
370
    -2
390
5F
100
AcDbLine
 10
0.4330127018922193
 20
-0.25
 30
0.0
 11
0.0
 21
0.5
 31
0.0
  0
CIRCLE
  5
D6
330
D2
100
AcDbEntity
  8
0
  6
Continuous
 62
     0
370
    -2
390
5F
100
AcDbCircle
 10
0.0
 20
0.0
 30
0.0
 40
0.5
  0
ENDBLK
  5
D8
330
D2
100
AcDbEntity
  8
0
100
AcDbBlockEnd
  0
BLOCK
  5
DE
330
D9
100
AcDbEntity
  8
0
100
AcDbBlockBegin
  2
CDWK_PTTYP26
 70
     0
 10
0.0
 20
0.0
 30
0.0
  3
CDWK_PTTYP26
  1

  0
LINE
  5
DA
330
D9
100
AcDbEntity
  8
0
  6
Continuous
 62
     0
370
    -2
390
5F
100
AcDbLine
 10
-0.5
 20
-0.289
 30
0.0
 11
0.5
 21
-0.289
 31
0.0
  0
LINE
  5
DB
330
D9
100
AcDbEntity
  8
0
  6
Continuous
 62
     0
370
    -2
390
5F
100
AcDbLine
 10
0.5
 20
-0.289
 30
0.0
 11
0.0
 21
0.577
 31
0.0
  0
LINE
  5
DC
330
D9
100
AcDbEntity
  8
0
  6
Continuous
 62
     0
370
    -2
390
5F
100
AcDbLine
 10
0.0
 20
0.577
 30
0.0
 11
-0.5
 21
-0.289
 31
0.0
  0
CIRCLE
  5
DD
330
D9
100
AcDbEntity
  8
0
  6
Continuous
 62
     0
370
    -2
390
5F
100
AcDbCircle
 10
0.0
 20
0.0
 30
0.0
 40
0.125
  0
ENDBLK
  5
DF
330
D9
100
AcDbEntity
  8
0
100
AcDbBlockEnd
  0
BLOCK
  5
E6
330
E0
100
AcDbEntity
  8
0
100
AcDbBlockBegin
  2
CDWK_PTTYP27
 70
     0
 10
0.0
 20
0.0
 30
0.0
  3
CDWK_PTTYP27
  1

  0
LINE
  5
E1
330
E0
100
AcDbEntity
  8
0
  6
Continuous
 62
     0
370
    -2
390
5F
100
AcDbLine
 10
0.0
 20
0.5
 30
0.0
 11
-0.4330127018922193
 21
-0.25
 31
0.0
  0
LINE
  5
E2
330
E0
100
AcDbEntity
  8
0
  6
Continuous
 62
     0
370
    -2
390
5F
100
AcDbLine
 10
-0.4330127018922193
 20
-0.25
 30
0.0
 11
0.4330127018922193
 21
-0.25
 31
0.0
  0
LINE
  5
E3
330
E0
100
AcDbEntity
  8
0
  6
Continuous
 62
     0
370
    -2
390
5F
100
AcDbLine
 10
0.4330127018922193
 20
-0.25
 30
0.0
 11
0.0
 21
0.5
 31
0.0
  0
CIRCLE
  5
E4
330
E0
100
AcDbEntity
  8
0
  6
Continuous
 62
     0
370
    -2
390
5F
100
AcDbCircle
 10
0.0
 20
0.0
 30
0.0
 40
0.125
  0
CIRCLE
  5
E5
330
E0
100
AcDbEntity
  8
0
  6
Continuous
 62
     0
370
    -2
390
5F
100
AcDbCircle
 10
0.0
 20
0.0
 30
0.0
 40
0.5
  0
ENDBLK
  5
E7
330
E0
100
AcDbEntity
  8
0
100
AcDbBlockEnd
  0
BLOCK
  5
ED
330
E8
100
AcDbEntity
  8
0
100
AcDbBlockBegin
  2
CDWK_PTTYP28
 70
     0
 10
0.0
 20
0.0
 30
0.0
  3
CDWK_PTTYP28
  1

  0
LINE
  5
E9
330
E8
100
AcDbEntity
  8
0
  6
Continuous
 62
     0
370
    -2
390
5F
100
AcDbLine
 10
-0.5
 20
0.5
 30
0.0
 11
0.5
 21
0.5
 31
0.0
  0
LINE
  5
EA
330
E8
100
AcDbEntity
  8
0
  6
Continuous
 62
     0
370
    -2
390
5F
100
AcDbLine
 10
0.5
 20
0.5
 30
0.0
 11
-0.5
 21
-0.5
 31
0.0
  0
LINE
  5
EB
330
E8
100
AcDbEntity
  8
0
  6
Continuous
 62
     0
370
    -2
390
5F
100
AcDbLine
 10
0.5
 20
-0.5
 30
0.0
 11
-0.5
 21
-0.5
 31
0.0
  0
LINE
  5
EC
330
E8
100
AcDbEntity
  8
0
  6
Continuous
 62
     0
370
    -2
390
5F
100
AcDbLine
 10
-0.5
 20
0.5
 30
0.0
 11
0.5
 21
-0.5
 31
0.0
  0
ENDBLK
  5
EE
330
E8
100
AcDbEntity
  8
0
100
AcDbBlockEnd
  0
BLOCK
  5
F3
330
EF
100
AcDbEntity
  8
0
100
AcDbBlockBegin
  2
CDWK_PTTYP29
 70
     0
 10
0.0
 20
0.0
 30
0.0
  3
CDWK_PTTYP29
  1

  0
CIRCLE
  5
F0
330
EF
100
AcDbEntity
  8
0
  6
Continuous
 62
     0
370
    -2
390
5F
100
AcDbCircle
 10
0.0
 20
0.0
 30
0.0
 40
0.2
  0
CIRCLE
  5
F1
330
EF
100
AcDbEntity
  8
0
  6
Continuous
 62
     0
370
    -2
390
5F
100
AcDbCircle
 10
0.0
 20
0.0
 30
0.0
 40
0.35
  0
CIRCLE
  5
F2
330
EF
100
AcDbEntity
  8
0
  6
Continuous
 62
     0
370
    -2
390
5F
100
AcDbCircle
 10
0.0
 20
0.0
 30
0.0
 40
0.5
  0
ENDBLK
  5
F4
330
EF
100
AcDbEntity
  8
0
100
AcDbBlockEnd
  0
BLOCK
  5
FA
330
F5
100
AcDbEntity
  8
0
100
AcDbBlockBegin
  2
CDWK_PTTYP30
 70
     0
 10
0.0
 20
0.0
 30
0.0
  3
CDWK_PTTYP30
  1

  0
LINE
  5
F6
330
F5
100
AcDbEntity
  8
0
  6
Continuous
 62
     0
370
    -2
390
5F
100
AcDbLine
 10
-0.5
 20
0.5
 30
0.0
 11
-0.1
 21
0.1
 31
0.0
  0
LINE
  5
F7
330
F5
100
AcDbEntity
  8
0
  6
Continuous
 62
     0
370
    -2
390
5F
100
AcDbLine
 10
0.5
 20
0.5
 30
0.0
 11
0.1
 21
0.1
 31
0.0
  0
LINE
  5
F8
330
F5
100
AcDbEntity
  8
0
  6
Continuous
 62
     0
370
    -2
390
5F
100
AcDbLine
 10
0.5
 20
-0.5
 30
0.0
 11
0.1
 21
-0.1
 31
0.0
  0
LINE
  5
F9
330
F5
100
AcDbEntity
  8
0
  6
Continuous
 62
     0
370
    -2
390
5F
100
AcDbLine
 10
-0.5
 20
-0.5
 30
0.0
 11
-0.1
 21
-0.1
 31
0.0
  0
ENDBLK
  5
FB
330
F5
100
AcDbEntity
  8
0
100
AcDbBlockEnd
  0
BLOCK
  5
102
330
FC
100
AcDbEntity
  8
0
100
AcDbBlockBegin
  2
CDWK_PTTYP31
 70
     0
 10
0.0
 20
0.0
 30
0.0
  3
CDWK_PTTYP31
  1

  0
LINE
  5
FD
330
FC
100
AcDbEntity
  8
0
  6
Continuous
 62
     0
370
    -2
390
5F
100
AcDbLine
 10
-0.5
 20
0.0
 30
0.0
 11
-0.1
 21
0.0
 31
0.0
  0
LINE
  5
FE
330
FC
100
AcDbEntity
  8
0
  6
Continuous
 62
     0
370
    -2
390
5F
100
AcDbLine
 10
0.1
 20
0.0
 30
0.0
 11
0.5
 21
0.0
 31
0.0
  0
LINE
  5
FF
330
FC
100
AcDbEntity
  8
0
  6
Continuous
 62
     0
370
    -2
390
5F
100
AcDbLine
 10
0.0
 20
0.5
 30
0.0
 11
0.0
 21
0.1
 31
0.0
  0
LINE
  5
100
330
FC
100
AcDbEntity
  8
0
  6
Continuous
 62
     0
370
    -2
390
5F
100
AcDbLine
 10
0.0
 20
-0.1
 30
0.0
 11
0.0
 21
-0.5
 31
0.0
  0
CIRCLE
  5
101
330
FC
100
AcDbEntity
  8
0
  6
Continuous
 62
     0
370
    -2
390
5F
100
AcDbCircle
 10
0.0
 20
0.0
 30
0.0
 40
0.1
  0
ENDBLK
  5
103
330
FC
100
AcDbEntity
  8
0
100
AcDbBlockEnd
  0
BLOCK
  5
10B
330
104
100
AcDbEntity
  8
0
100
AcDbBlockBegin
  2
CDWK_PTTYP32
 70
     0
 10
0.0
 20
0.0
 30
0.0
  3
CDWK_PTTYP32
  1

  0
CIRCLE
  5
105
330
104
100
AcDbEntity
  8
0
  6
Continuous
 62
     0
370
    -2
390
5F
100
AcDbCircle
 10
0.0
 20
0.0
 30
0.0
 40
0.2
  0
CIRCLE
  5
106
330
104
100
AcDbEntity
  8
0
  6
Continuous
 62
     0
370
    -2
390
5F
100
AcDbCircle
 10
0.0
 20
0.0
 30
0.0
 40
0.5
  0
LINE
  5
107
330
104
100
AcDbEntity
  8
0
  6
Continuous
 62
     0
370
    -2
390
5F
100
AcDbLine
 10
0.1414213562373095
 20
0.1414213562373095
 30
0.0
 11
0.3535533905932738
 21
0.3535533905932738
 31
0.0
  0
LINE
  5
108
330
104
100
AcDbEntity
  8
0
  6
Continuous
 62
     0
370
    -2
390
5F
100
AcDbLine
 10
-0.1414213562373095
 20
0.1414213562373095
 30
0.0
 11
-0.3535533905932738
 21
0.3535533905932738
 31
0.0
  0
LINE
  5
109
330
104
100
AcDbEntity
  8
0
  6
Continuous
 62
     0
370
    -2
390
5F
100
AcDbLine
 10
0.1414213562373095
 20
-0.1414213562373095
 30
0.0
 11
0.3535533905932738
 21
-0.3535533905932738
 31
0.0
  0
LINE
  5
10A
330
104
100
AcDbEntity
  8
0
  6
Continuous
 62
     0
370
    -2
390
5F
100
AcDbLine
 10
-0.1414213562373095
 20
-0.1414213562373095
 30
0.0
 11
-0.3535533905932738
 21
-0.3535533905932738
 31
0.0
  0
ENDBLK
  5
10C
330
104
100
AcDbEntity
  8
0
100
AcDbBlockEnd
  0
BLOCK
  5
111
330
10D
100
AcDbEntity
  8
0
100
AcDbBlockBegin
  2
CDWK_PTTYP33
 70
     0
 10
0.0
 20
0.0
 30
0.0
  3
CDWK_PTTYP33
  1

  0
LINE
  5
10E
330
10D
100
AcDbEntity
  8
0
  6
Continuous
 62
     0
370
    -2
390
5F
100
AcDbLine
 10
0.0
 20
-0.5
 30
0.0
 11
0.0
 21
0.5
 31
0.0
  0
LINE
  5
10F
330
10D
100
AcDbEntity
  8
0
  6
Continuous
 62
     0
370
    -2
390
5F
100
AcDbLine
 10
0.5
 20
0.0
 30
0.0
 11
-0.5
 21
0.0
 31
0.0
  0
CIRCLE
  5
110
330
10D
100
AcDbEntity
  8
0
  6
Continuous
 62
     0
370
    -2
390
5F
100
AcDbCircle
 10
0.0
 20
0.0
 30
0.0
 40
0.5
  0
ENDBLK
  5
112
330
10D
100
AcDbEntity
  8
0
100
AcDbBlockEnd
  0
BLOCK
  5
117
330
113
100
AcDbEntity
  8
0
100
AcDbBlockBegin
  2
CDWK_PTTYP34
 70
     0
 10
0.0
 20
0.0
 30
0.0
  3
CDWK_PTTYP34
  1

  0
CIRCLE
  5
114
330
113
100
AcDbEntity
  8
0
  6
Continuous
 62
     0
370
    -2
390
5F
100
AcDbCircle
 10
0.0
 20
0.0
 30
0.0
 40
0.5
  0
LINE
  5
115
330
113
100
AcDbEntity
  8
0
  6
Continuous
 62
     0
370
    -2
390
5F
100
AcDbLine
 10
-0.4
 20
-0.3
 30
0.0
 11
0.3
 21
0.4
 31
0.0
  0
LINE
  5
116
330
113
100
AcDbEntity
  8
0
  6
Continuous
 62
     0
370
    -2
390
5F
100
AcDbLine
 10
-0.3
 20
-0.4
 30
0.0
 11
0.4
 21
0.3
 31
0.0
  0
ENDBLK
  5
118
330
113
100
AcDbEntity
  8
0
100
AcDbBlockEnd
  0
BLOCK
  5
11D
330
119
100
AcDbEntity
  8
0
100
AcDbBlockBegin
  2
CDWK_PTTYP35
 70
     0
 10
0.0
 20
0.0
 30
0.0
  3
CDWK_PTTYP35
  1

  0
LINE
  5
11A
330
119
100
AcDbEntity
  8
0
  6
Continuous
 62
     0
370
    -2
390
5F
100
AcDbLine
 10
0.0
 20
0.2
 30
0.0
 11
0.0
 21
0.5
 31
0.0
  0
LINE
  5
11B
330
119
100
AcDbEntity
  8
0
  6
Continuous
 62
     0
370
    -2
390
5F
100
AcDbLine
 10
0.0
 20
-0.2
 30
0.0
 11
0.0
 21
-0.5
 31
0.0
  0
CIRCLE
  5
11C
330
119
100
AcDbEntity
  8
0
  6
Continuous
 62
     0
370
    -2
390
5F
100
AcDbCircle
 10
0.0
 20
0.0
 30
0.0
 40
0.2
  0
ENDBLK
  5
11E
330
119
100
AcDbEntity
  8
0
100
AcDbBlockEnd
  0
BLOCK
  5
125
330
11F
100
AcDbEntity
  8
0
100
AcDbBlockBegin
  2
CDWK_PTTYP36
 70
     0
 10
0.0
 20
0.0
 30
0.0
  3
CDWK_PTTYP36
  1

  0
LINE
  5
120
330
11F
100
AcDbEntity
  8
0
  6
Continuous
 62
     0
370
    -2
390
5F
100
AcDbLine
 10
-0.5
 20
0.2
 30
0.0
 11
0.5
 21
0.2
 31
0.0
  0
LINE
  5
121
330
11F
100
AcDbEntity
  8
0
  6
Continuous
 62
     0
370
    -2
390
5F
100
AcDbLine
 10
0.5
 20
0.2
 30
0.0
 11
0.5
 21
-0.2
 31
0.0
  0
LINE
  5
122
330
11F
100
AcDbEntity
  8
0
  6
Continuous
 62
     0
370
    -2
390
5F
100
AcDbLine
 10
0.5
 20
-0.2
 30
0.0
 11
-0.5
 21
-0.2
 31
0.0
  0
LINE
  5
123
330
11F
100
AcDbEntity
  8
0
  6
Continuous
 62
     0
370
    -2
390
5F
100
AcDbLine
 10
-0.5
 20
-0.2
 30
0.0
 11
-0.5
 21
0.2
 31
0.0
  0
HATCH
  5
124
330
11F
100
AcDbEntity
  8
0
  6
Continuous
 62
     0
370
    -2
390
5F
100
AcDbHatch
 10
0.0
 20
0.0
 30
0.0
210
0.0
220
0.0
230
1.0
  2
SOLID
 70
     1
 71
     0
 91
        1
 92
        3
 72
     0
 73
     1
 93
        3
 10
-0.5
 20
-0.2
 10
0.5
 20
-0.2
 10
0.5
 20
0.2
 97
        0
 75
     0
 76
     1
 98
        0
  0
ENDBLK
  5
126
330
11F
100
AcDbEntity
  8
0
100
AcDbBlockEnd
  0
BLOCK
  5
12A
330
127
100
AcDbEntity
  8
0
100
AcDbBlockBegin
  2
CDWK_PTTYP37
 70
     0
 10
0.0
 20
0.0
 30
0.0
  3
CDWK_PTTYP37
  1

  0
HATCH
  5
128
330
127
100
AcDbEntity
  8
0
  6
Continuous
 62
     0
370
    -2
390
5F
100
AcDbHatch
 10
0.0
 20
0.0
 30
0.0
210
0.0
220
0.0
230
1.0
  2
SOLID
 70
     1
 71
     0
 91
        1
 92
        3
 72
     0
 73
     1
 93
      202
 10
-0.3535533905932738
 20
-0.3535533905932738
 10
-0.3485533905932738
 20
-0.3535533905932737
 10
-0.3435533905932738
 20
-0.3584836591895546
 10
-0.3385533905932738
 20
-0.3632782236961988
 10
-0.3335533905932738
 20
-0.367942389128785
 10
-0.3285533905932738
 20
-0.372481054046687
 10
-0.3235533905932738
 20
-0.3768987523588579
 10
-0.3185533905932738
 20
-0.3811996897107819
 10
-0.3135533905932738
 20
-0.3853877752881235
 10
-0.3085533905932737
 20
-0.3894666497242888
 10
-0.3035533905932737
 20
-0.3934397096803965
 10
-0.2985533905932737
 20
-0.3973101295704999
 10
-0.2935533905932737
 20
-0.4010808808273714
 10
-0.2885533905932737
 20
-0.4047547490409382
 10
-0.2835533905932737
 20
-0.4083343492496384
 10
-0.2785533905932737
 20
-0.4118221396222626
 10
-0.2735533905932737
 20
-0.4152204337324827
 10
-0.2685533905932737
 20
-0.4185314115988474
 10
-0.2635533905932737
 20
-0.4217571296384408
 10
-0.2585533905932737
 20
-0.4248995296617653
 10
-0.2535533905932737
 20
-0.4279604470190231
 10
-0.2485533905932737
 20
-0.4309416179932669
 10
-0.2435533905932737
 20
-0.4338446865234004
 10
-0.2385533905932737
 20
-0.4366712103293738
 10
-0.2335533905932737
 20
-0.439422666502825
 10
-0.2285533905932737
 20
-0.4421004566186126
 10
-0.2235533905932737
 20
-0.4447059114159811
 10
-0.2185533905932737
 20
-0.4472402950923041
 10
-0.2135533905932737
 20
-0.4497048092473372
 10
-0.2085533905932737
 20
-0.4521005965115692
 10
-0.2035533905932737
 20
-0.4544287438884664
 10
-0.1985533905932736
 20
-0.456690285837111
 10
-0.1935533905932736
 20
-0.45888620711884
 10
-0.1885533905932736
 20
-0.4610174454289638
 10
-0.1835533905932736
 20
-0.4630848938324164
 10
-0.1785533905932736
 20
-0.4650894030202291
 10
-0.1735533905932736
 20
-0.4670317834019928
 10
-0.1685533905932736
 20
-0.46891280704794
 10
-0.1635533905932736
 20
-0.4707332094929264
 10
-0.1585533905932736
 20
-0.4724936914133818
 10
-0.1535533905932736
 20
-0.4741949201872336
 10
-0.1485533905932736
 20
-0.4758375313458466
 10
-0.1435533905932736
 20
-0.4774221299261716
 10
-0.1385533905932736
 20
-0.4789492917305286
 10
-0.1335533905932736
 20
-0.4804195645007682
 10
-0.1285533905932736
 20
-0.4818334690129366
 10
-0.1235533905932736
 20
-0.4831915000980183
 10
-0.1185533905932736
 20
-0.4844941275938295
 10
-0.1135533905932736
 20
-0.4857417972326848
 10
-0.1085533905932736
 20
-0.4869349314690531
 10
-0.1035533905932736
 20
-0.4880739302510473
 10
-0.0985533905932736
 20
-0.489159171739258
 10
-0.0935533905932736
 20
-0.4901910129761353
 10
-0.0885533905932736
 20
-0.4911697905088447
 10
-0.0835533905932735
 20
-0.4920958209682695
 10
-0.0785533905932735
 20
-0.4929694016065986
 10
-0.0735533905932735
 20
-0.4937908107957261
 10
-0.0685533905932735
 20
-0.494560308488493
 10
-0.0635533905932735
 20
-0.4952781366446192
 10
-0.0585533905932735
 20
-0.4959445196230107
 10
-0.0535533905932735
 20
-0.4965596645419678
 10
-0.0485533905932735
 20
-0.4971237616086806
 10
-0.0435533905932735
 20
-0.4976369844192622
 10
-0.0385533905932735
 20
-0.4980994902304456
 10
-0.0335533905932735
 20
-0.4985114202039533
 10
-0.0285533905932735
 20
-0.4988728996244386
 10
-0.0235533905932735
 20
-0.4991840380917923
 10
-0.0185533905932735
 20
-0.49944492968851
 10
-0.0135533905932735
 20
-0.4996556531227215
 10
-0.0085533905932735
 20
-0.4998162718473921
 10
-0.0035533905932735
 20
-0.4999268341561182
 10
0.0014466094067265
 20
-0.499987373255857
 10
0.0064466094067265
 20
-0.4999979073168451
 10
0.0114466094067265
 20
-0.4999584394998819
 10
0.0164466094067265
 20
-0.4998689579610739
 10
0.0214466094067265
 20
-0.4997294358340547
 10
0.0264466094067265
 20
-0.4995398311896213
 10
0.0314466094067265
 20
-0.4993000869726422
 10
0.0364466094067265
 20
-0.4990101309160174
 10
0.0414466094067265
 20
-0.4986698754313855
 10
0.0464466094067265
 20
-0.498279217476192
 10
0.0514466094067265
 20
-0.4978380383966446
 10
0.0564466094067265
 20
-0.497346203745994
 10
0.0614466094067265
 20
-0.4968035630774849
 10
0.0664466094067264
 20
-0.4962099497112257
 10
0.0714466094067265
 20
-0.4955651804741228
 10
0.0764466094067265
 20
-0.4948690554119167
 10
0.0814466094067265
 20
-0.4941213574722463
 10
0.0864466094067265
 20
-0.4933218521575424
 10
0.0914466094067265
 20
-0.4924702871464235
 10
0.0964466094067265
 20
-0.4915663918821278
 10
0.1014466094067265
 20
-0.4906098771263643
 10
0.1064466094067265
 20
-0.4896004344768079
 10
0.1114466094067265
 20
-0.4885377358462822
 10
0.1164466094067265
 20
-0.4874214329014929
 10
0.1214466094067265
 20
-0.4862511564589613
 10
0.1264466094067265
 20
-0.4850265158355881
 10
0.1314466094067265
 20
-0.4837470981510305
 10
0.1364466094067265
 20
-0.482412467578809
 10
0.1414466094067265
 20
-0.4810221645427664
 10
0.1464466094067265
 20
-0.4795757048551781
 10
0.1514466094067265
 20
-0.4780725787924608
 10
0.1564466094067265
 20
-0.4765122501040308
 10
0.1614466094067265
 20
-0.4748941549494363
 10
0.1664466094067265
 20
-0.4732177007584056
 10
0.1714466094067265
 20
-0.4714822650079264
 10
0.1764466094067265
 20
-0.4696871939098801
 10
0.1814466094067266
 20
-0.4678318010021017
 10
0.1864466094067266
 20
-0.4659153656350076
 10
0.1914466094067266
 20
-0.4639371313451162
 10
0.1964466094067266
 20
-0.4618963041058764
 10
0.2014466094067266
 20
-0.4597920504451997
 10
0.2064466094067266
 20
-0.4576234954179405
 10
0.2114466094067266
 20
-0.4553897204202862
 10
0.2164466094067266
 20
-0.4530897608315588
 10
0.2214466094067266
 20
-0.45072260346729
 10
0.2264466094067266
 20
-0.4482871838255748
 10
0.2314466094067266
 20
-0.4457823831065977
 10
0.2364466094067266
 20
-0.4432070249828292
 10
0.2414466094067266
 20
-0.4405598720946596
 10
0.2464466094067266
 20
-0.4378396222431172
 10
0.2514466094067266
 20
-0.4350449042477435
 10
0.2564466094067266
 20
-0.4321742734336012
 10
0.2614466094067266
 20
-0.4292262067066663
 10
0.2664466094067266
 20
-0.4261990971714118
 10
0.2714466094067266
 20
-0.4230912482380831
 10
0.2764466094067266
 20
-0.4199008671598476
 10
0.2814466094067266
 20
-0.4166260579314797
 10
0.2864466094067266
 20
-0.4132648134712868
 10
0.2914466094067266
 20
-0.4098150069963156
 10
0.2964466094067266
 20
-0.4062743824871597
 10
0.3014466094067266
 20
-0.4026405441224911
 10
0.3064466094067266
 20
-0.3989109445442534
 10
0.3114466094067266
 20
-0.3950828717916294
 10
0.3164466094067266
 20
-0.391153434714632
 10
0.3214466094067266
 20
-0.3871195466454601
 10
0.3264466094067267
 20
-0.3829779070663467
 10
0.3314466094067267
 20
-0.3787249809648844
 10
0.3364466094067267
 20
-0.3743569755097196
 10
0.3414466094067267
 20
-0.3698698136084067
 10
0.3464466094067267
 20
-0.3652591038217257
 10
0.3514466094067267
 20
-0.3605201060004601
 10
0.3564466094067267
 20
-0.3556476918757041
 10
0.3614466094067267
 20
-0.3506362996645505
 10
0.3664466094067267
 20
-0.34547988153926
 10
0.3714466094067267
 20
-0.3401718425359658
 10
0.3764466094067267
 20
-0.334704969129899
 10
0.3814466094067267
 20
-0.3290713452523318
 10
0.3864466094067267
 20
-0.3232622529342269
 10
0.3914466094067267
 20
-0.3172680539828188
 10
0.3964466094067267
 20
-0.3110780480586465
 10
0.4014466094067267
 20
-0.304680301118911
 10
0.4064466094067267
 20
-0.2980614362775617
 10
0.4114466094067267
 20
-0.291206376478565
 10
0.4164466094067267
 20
-0.2840980246459106
 10
0.4214466094067267
 20
-0.276716861635935
 10
0.4264466094067267
 20
-0.2690404345439063
 10
0.4314466094067267
 20
-0.2610426963649944
 10
0.4364466094067267
 20
-0.2526931404518915
 10
0.4414466094067268
 20
-0.2439556458403291
 10
0.4464466094067268
 20
-0.2347869056044327
 10
0.4514466094067268
 20
-0.2251342376211081
 10
0.4564466094067268
 20
-0.2149324518428296
 10
0.4614466094067268
 20
-0.2040992228331676
 10
0.4664466094067268
 20
-0.1925279893081412
 10
0.4714466094067268
 20
-0.1800765408735088
 10
0.4764466094067268
 20
-0.1665475742210051
 10
0.4814466094067268
 20
-0.1516529867323223
 10
0.4864466094067268
 20
-0.1349413290684758
 10
0.4914466094067268
 20
-0.1156274024472547
 10
0.4964466094067268
 20
-0.0920881648347501
 10
0.5
 20
0.0
 10
0.495
 20
0.0
 10
0.49
 20
0.0705336798983295
 10
0.485
 20
0.0994987437106621
 10
0.48
 20
0.1215524578114322
 10
0.475
 20
0.14
 10
0.47
 20
0.15612494995996
 10
0.465
 20
0.1705872210923199
 10
0.46
 20
0.1837797594948911
 10
0.455
 20
0.1959591794226544
 10
0.45
 20
0.2073041244162789
 10
0.445
 20
0.2179449471770338
 10
0.4399999999999999
 20
0.2279802623035601
 10
0.4349999999999999
 20
0.2374868417407584
 10
0.4299999999999999
 20
0.2465258607124211
 10
0.4249999999999999
 20
0.2551470164434615
 10
0.4199999999999999
 20
0.2633913438213186
 10
0.4149999999999999
 20
0.2712931993250108
 10
0.4099999999999999
 20
0.2788816953476869
 10
0.4049999999999999
 20
0.2861817604250838
 10
0.3999999999999999
 20
0.2932149382279151
 10
0.3949999999999999
 20
0.3000000000000002
 10
0.3899999999999999
 20
0.3065534211193868
 10
0.3849999999999999
 20
0.3128897569432404
 10
0.3799999999999999
 20
0.3190219428189855
 10
0.3749999999999999
 20
0.3249615361854385
 10
0.3699999999999999
 20
0.330718913883074
 10
0.3649999999999999
 20
0.3363034344160049
 10
0.3599999999999999
 20
0.3417235724968357
 10
0.3549999999999999
 20
0.3469870314579496
 10
0.3535533905932738
 20
0.3535533905932738
 97
        0
 75
     0
 76
     1
 98
        0
  0
CIRCLE
  5
129
330
127
100
AcDbEntity
  8
0
  6
Continuous
 62
     0
370
    -2
390
5F
100
AcDbCircle
 10
0.0
 20
0.0
 30
0.0
 40
0.5
  0
ENDBLK
  5
12B
330
127
100
AcDbEntity
  8
0
100
AcDbBlockEnd
  0
BLOCK
  5
130
330
12C
100
AcDbEntity
  8
0
100
AcDbBlockBegin
  2
CDWK_PTTYP38
 70
     0
 10
0.0
 20
0.0
 30
0.0
  3
CDWK_PTTYP38
  1

  0
HATCH
  5
12D
330
12C
100
AcDbEntity
  8
0
  6
Continuous
 62
     0
370
    -2
390
5F
100
AcDbHatch
 10
0.0
 20
0.0
 30
0.0
210
0.0
220
0.0
230
1.0
  2
SOLID
 70
     1
 71
     0
 91
        1
 92
        3
 72
     0
 73
     1
 93
      102
 10
0.0
 20
0.0
 10
0.0
 20
0.5
 10
0.005
 20
0.5
 10
0.01
 20
0.4999749993749688
 10
0.015
 20
0.4998999899979995
 10
0.02
 20
0.4997749493522059
 10
0.025
 20
0.4995998398718718
 10
0.03
 20
0.4993746088859545
 10
0.035
 20
0.4990991885387112
 10
0.04
 20
0.4987734956871706
 10
0.045
 20
0.4983974317750845
 10
0.05
 20
0.4979708826829135
 10
0.055
 20
0.49749371855331
 10
0.06
 20
0.4969657935914704
 10
0.065
 20
0.4963869458396343
 10
0.07
 20
0.4957569969249047
 10
0.075
 20
0.4950757517794626
 10
0.08
 20
0.4943429983321297
 10
0.085
 20
0.4935585071701227
 10
0.09
 20
0.4927220311697053
 10
0.095
 20
0.4918333050943175
 10
0.1
 20
0.4908920451586071
 10
0.105
 20
0.4898979485566356
 10
0.11
 20
0.4888506929523574
 10
0.115
 20
0.4877499359302879
 10
0.12
 20
0.4865953144040744
 10
0.125
 20
0.4853864439804639
 10
0.13
 20
0.4841229182759271
 10
0.135
 20
0.4828043081829325
 10
0.14
 20
0.4814301610825811
 10
0.145
 20
0.48
 10
0.15
 20
0.478513322698543
 10
0.1550000000000001
 20
0.4769696007084728
 10
0.1600000000000001
 20
0.4753682782853731
 10
0.1650000000000001
 20
0.4737087712930804
 10
0.1700000000000001
 20
0.4719904660054056
 10
0.1750000000000001
 20
0.4702127178203498
 10
0.1800000000000001
 20
0.4683748498798799
 10
0.1850000000000001
 20
0.466476151587624
 10
0.1900000000000001
 20
0.4645158770160606
 10
0.1950000000000001
 20
0.4624932431938871
 10
0.2000000000000001
 20
0.460407428263272
 10
0.2050000000000001
 20
0.4582575694955839
 10
0.2100000000000001
 20
0.4560427611529427
 10
0.2150000000000001
 20
0.4537620521815371
 10
0.2200000000000001
 20
0.4514144437210665
 10
0.2250000000000001
 20
0.4489988864128729
 10
0.2300000000000001
 20
0.4465142774872937
 10
0.2350000000000001
 20
0.4439594576084622
 10
0.2400000000000001
 20
0.4413332074521472
 10
0.2450000000000001
 20
0.4386342439892261
 10
0.2500000000000001
 20
0.4358612164439502
 10
0.2550000000000001
 20
0.4330127018922192
 10
0.2600000000000001
 20
0.4300872004605577
 10
0.2650000000000001
 20
0.4270831300812524
 10
0.2700000000000001
 20
0.423998820753077
 10
0.2750000000000001
 20
0.4208325082500162
 10
0.2800000000000001
 20
0.4175823272122516
 10
0.2850000000000001
 20
0.4142463035441595
 10
0.2900000000000001
 20
0.4108223460329293
 10
0.2950000000000002
 20
0.4073082370883259
 10
0.3000000000000002
 20
0.403701622488689
 10
0.3050000000000002
 20
0.3999999999999999
 10
0.3100000000000002
 20
0.3962007067131506
 10
0.3150000000000002
 20
0.3923009049186605
 10
0.3200000000000002
 20
0.3882975663070783
 10
0.3250000000000002
 20
0.3841874542459708
 10
0.3300000000000002
 20
0.3799671038392664
 10
0.3350000000000002
 20
0.3756327994198588
 10
0.3400000000000002
 20
0.3711805490593491
 10
0.3450000000000002
 20
0.366606055596467
 10
0.3500000000000002
 20
0.3619046835839512
 10
0.3550000000000002
 20
0.3570714214271423
 10
0.3600000000000002
 20
0.3521008378291649
 10
0.3650000000000002
 20
0.3469870314579492
 10
0.3700000000000002
 20
0.3417235724968353
 10
0.3750000000000002
 20
0.3363034344160045
 10
0.3800000000000002
 20
0.3307189138830736
 10
0.3850000000000002
 20
0.3249615361854382
 10
0.3900000000000002
 20
0.3190219428189851
 10
0.3950000000000002
 20
0.31288975694324
 10
0.4000000000000002
 20
0.3065534211193863
 10
0.4050000000000002
 20
0.2999999999999997
 10
0.4100000000000003
 20
0.2932149382279147
 10
0.4150000000000003
 20
0.2861817604250834
 10
0.4200000000000003
 20
0.2788816953476864
 10
0.4250000000000003
 20
0.2712931993250103
 10
0.4300000000000003
 20
0.263391343821318
 10
0.4350000000000003
 20
0.255147016443461
 10
0.4400000000000003
 20
0.2465258607124206
 10
0.4450000000000003
 20
0.2374868417407578
 10
0.4500000000000003
 20
0.2279802623035594
 10
0.4550000000000003
 20
0.2179449471770331
 10
0.4600000000000003
 20
0.2073041244162782
 10
0.4650000000000003
 20
0.1959591794226536
 10
0.4700000000000003
 20
0.1837797594948903
 10
0.4750000000000003
 20
0.170587221092319
 10
0.4800000000000003
 20
0.156124949959959
 10
0.4850000000000003
 20
0.1399999999999989
 10
0.4900000000000003
 20
0.1215524578114309
 10
0.4950000000000003
 20
0.0994987437106604
 10
0.5
 20
0.0
 97
        0
 75
     0
 76
     1
 98
        0
  0
HATCH
  5
12E
330
12C
100
AcDbEntity
  8
0
  6
Continuous
 62
     0
370
    -2
390
5F
100
AcDbHatch
 10
0.0
 20
0.0
 30
0.0
210
0.0
220
0.0
230
1.0
  2
SOLID
 70
     1
 71
     0
 91
        1
 92
        3
 72
     0
 73
     1
 93
      102
 10
0.0
 20
0.0
 10
-0.5
 20
0.0
 10
-0.495
 20
0.0
 10
-0.49
 20
-0.0705336798983295
 10
-0.485
 20
-0.0994987437106621
 10
-0.48
 20
-0.1215524578114322
 10
-0.475
 20
-0.14
 10
-0.47
 20
-0.15612494995996
 10
-0.465
 20
-0.1705872210923199
 10
-0.46
 20
-0.1837797594948911
 10
-0.455
 20
-0.1959591794226544
 10
-0.45
 20
-0.2073041244162789
 10
-0.445
 20
-0.2179449471770338
 10
-0.4399999999999999
 20
-0.2279802623035601
 10
-0.4349999999999999
 20
-0.2374868417407584
 10
-0.4299999999999999
 20
-0.2465258607124211
 10
-0.4249999999999999
 20
-0.2551470164434615
 10
-0.4199999999999999
 20
-0.2633913438213186
 10
-0.4149999999999999
 20
-0.2712931993250108
 10
-0.4099999999999999
 20
-0.2788816953476869
 10
-0.4049999999999999
 20
-0.2861817604250838
 10
-0.3999999999999999
 20
-0.2932149382279151
 10
-0.3949999999999999
 20
-0.3000000000000002
 10
-0.3899999999999999
 20
-0.3065534211193868
 10
-0.3849999999999999
 20
-0.3128897569432404
 10
-0.3799999999999999
 20
-0.3190219428189855
 10
-0.3749999999999999
 20
-0.3249615361854385
 10
-0.3699999999999999
 20
-0.330718913883074
 10
-0.3649999999999999
 20
-0.3363034344160049
 10
-0.3599999999999999
 20
-0.3417235724968357
 10
-0.3549999999999999
 20
-0.3469870314579496
 10
-0.3499999999999999
 20
-0.3521008378291652
 10
-0.3449999999999999
 20
-0.3570714214271427
 10
-0.3399999999999999
 20
-0.3619046835839516
 10
-0.3349999999999999
 20
-0.3666060555964674
 10
-0.3299999999999998
 20
-0.3711805490593494
 10
-0.3249999999999998
 20
-0.3756327994198591
 10
-0.3199999999999998
 20
-0.3799671038392667
 10
-0.3149999999999998
 20
-0.3841874542459711
 10
-0.3099999999999998
 20
-0.3882975663070786
 10
-0.3049999999999998
 20
-0.3923009049186608
 10
-0.2999999999999998
 20
-0.3962007067131507
 10
-0.2949999999999998
 20
-0.4000000000000001
 10
-0.2899999999999998
 20
-0.4037016224886891
 10
-0.2849999999999998
 20
-0.4073082370883261
 10
-0.2799999999999998
 20
-0.4108223460329296
 10
-0.2749999999999998
 20
-0.4142463035441597
 10
-0.2699999999999998
 20
-0.4175823272122518
 10
-0.2649999999999998
 20
-0.4208325082500164
 10
-0.2599999999999998
 20
-0.4239988207530773
 10
-0.2549999999999998
 20
-0.4270831300812526
 10
-0.2499999999999998
 20
-0.4300872004605579
 10
-0.2449999999999998
 20
-0.4330127018922195
 10
-0.2399999999999998
 20
-0.4358612164439503
 10
-0.2349999999999998
 20
-0.4386342439892263
 10
-0.2299999999999998
 20
-0.4413332074521473
 10
-0.2249999999999998
 20
-0.4439594576084624
 10
-0.2199999999999998
 20
-0.4465142774872939
 10
-0.2149999999999997
 20
-0.4489988864128731
 10
-0.2099999999999997
 20
-0.4514144437210667
 10
-0.2049999999999997
 20
-0.4537620521815372
 10
-0.1999999999999997
 20
-0.4560427611529429
 10
-0.1949999999999997
 20
-0.4582575694955841
 10
-0.1899999999999997
 20
-0.4604074282632722
 10
-0.1849999999999997
 20
-0.4624932431938872
 10
-0.1799999999999997
 20
-0.4645158770160608
 10
-0.1749999999999997
 20
-0.4664761515876241
 10
-0.1699999999999997
 20
-0.46837484987988
 10
-0.1649999999999997
 20
-0.47021271782035
 10
-0.1599999999999997
 20
-0.4719904660054058
 10
-0.1549999999999997
 20
-0.4737087712930805
 10
-0.1499999999999997
 20
-0.4753682782853733
 10
-0.1449999999999997
 20
-0.4769696007084729
 10
-0.1399999999999997
 20
-0.4785133226985431
 10
-0.1349999999999997
 20
-0.4800000000000001
 10
-0.1299999999999997
 20
-0.4814301610825812
 10
-0.1249999999999997
 20
-0.4828043081829325
 10
-0.1199999999999997
 20
-0.4841229182759272
 10
-0.1149999999999997
 20
-0.485386443980464
 10
-0.1099999999999997
 20
-0.4865953144040744
 10
-0.1049999999999996
 20
-0.487749935930288
 10
-0.0999999999999996
 20
-0.4888506929523574
 10
-0.0949999999999996
 20
-0.4898979485566357
 10
-0.0899999999999996
 20
-0.4908920451586072
 10
-0.0849999999999996
 20
-0.4918333050943176
 10
-0.0799999999999996
 20
-0.4927220311697053
 10
-0.0749999999999996
 20
-0.4935585071701227
 10
-0.0699999999999996
 20
-0.4943429983321298
 10
-0.0649999999999996
 20
-0.4950757517794626
 10
-0.0599999999999996
 20
-0.4957569969249048
 10
-0.0549999999999996
 20
-0.4963869458396343
 10
-0.0499999999999996
 20
-0.4969657935914705
 10
-0.0449999999999996
 20
-0.49749371855331
 10
-0.0399999999999996
 20
-0.4979708826829135
 10
-0.0349999999999996
 20
-0.4983974317750846
 10
-0.0299999999999996
 20
-0.4987734956871706
 10
-0.0249999999999996
 20
-0.4990991885387112
 10
-0.0199999999999996
 20
-0.4993746088859545
 10
-0.0149999999999996
 20
-0.4995998398718719
 10
-0.0099999999999996
 20
-0.499774949352206
 10
-0.0049999999999996
 20
-0.4998999899979995
 10
0.0
 20
-0.5
 97
        0
 75
     0
 76
     1
 98
        0
  0
CIRCLE
  5
12F
330
12C
100
AcDbEntity
  8
0
  6
Continuous
 62
     0
370
    -2
390
5F
100
AcDbCircle
 10
0.0
 20
0.0
 30
0.0
 40
0.5
  0
ENDBLK
  5
131
330
12C
100
AcDbEntity
  8
0
100
AcDbBlockEnd
  0
BLOCK
  5
13A
330
132
100
AcDbEntity
  8
0
100
AcDbBlockBegin
  2
CDWK_PTTYP41
 70
     0
 10
0.0
 20
0.0
 30
0.0
  3
CDWK_PTTYP41
  1

  0
LINE
  5
133
330
132
100
AcDbEntity
  8
0
  6
Continuous
 62
     0
370
    -2
390
5F
100
AcDbLine
 10
-0.5
 20
0.5
 30
0.0
 11
0.5
 21
0.5
 31
0.0
  0
LINE
  5
134
330
132
100
AcDbEntity
  8
0
  6
Continuous
 62
     0
370
    -2
390
5F
100
AcDbLine
 10
0.5
 20
0.5
 30
0.0
 11
0.5
 21
-0.5
 31
0.0
  0
LINE
  5
135
330
132
100
AcDbEntity
  8
0
  6
Continuous
 62
     0
370
    -2
390
5F
100
AcDbLine
 10
0.5
 20
-0.5
 30
0.0
 11
-0.5
 21
-0.5
 31
0.0
  0
LINE
  5
136
330
132
100
AcDbEntity
  8
0
  6
Continuous
 62
     0
370
    -2
390
5F
100
AcDbLine
 10
-0.5
 20
-0.5
 30
0.0
 11
-0.5
 21
0.5
 31
0.0
  0
LINE
  5
137
330
132
100
AcDbEntity
  8
0
  6
Continuous
 62
     0
370
    -2
390
5F
100
AcDbLine
 10
-0.375
 20
0.25
 30
0.0
 11
0.375
 21
0.25
 31
0.0
  0
LINE
  5
138
330
132
100
AcDbEntity
  8
0
  6
Continuous
 62
     0
370
    -2
390
5F
100
AcDbLine
 10
-0.375
 20
0.0
 30
0.0
 11
0.375
 21
0.0
 31
0.0
  0
LINE
  5
139
330
132
100
AcDbEntity
  8
0
  6
Continuous
 62
     0
370
    -2
390
5F
100
AcDbLine
 10
-0.375
 20
-0.25
 30
0.0
 11
0.375
 21
-0.25
 31
0.0
  0
ENDBLK
  5
13B
330
132
100
AcDbEntity
  8
0
100
AcDbBlockEnd
  0
BLOCK
  5
143
330
13C
100
AcDbEntity
  8
0
100
AcDbBlockBegin
  2
CDWK_PTTYP42
 70
     0
 10
0.0
 20
0.0
 30
0.0
  3
CDWK_PTTYP42
  1

  0
LINE
  5
13D
330
13C
100
AcDbEntity
  8
0
  6
Continuous
 62
     0
370
    -2
390
5F
100
AcDbLine
 10
-0.5
 20
0.5
 30
0.0
 11
0.5
 21
0.5
 31
0.0
  0
LINE
  5
13E
330
13C
100
AcDbEntity
  8
0
  6
Continuous
 62
     0
370
    -2
390
5F
100
AcDbLine
 10
0.5
 20
0.5
 30
0.0
 11
0.5
 21
-0.5
 31
0.0
  0
LINE
  5
13F
330
13C
100
AcDbEntity
  8
0
  6
Continuous
 62
     0
370
    -2
390
5F
100
AcDbLine
 10
0.5
 20
-0.5
 30
0.0
 11
-0.5
 21
-0.5
 31
0.0
  0
LINE
  5
140
330
13C
100
AcDbEntity
  8
0
  6
Continuous
 62
     0
370
    -2
390
5F
100
AcDbLine
 10
-0.5
 20
-0.5
 30
0.0
 11
-0.5
 21
0.5
 31
0.0
  0
LINE
  5
141
330
13C
100
AcDbEntity
  8
0
  6
Continuous
 62
     0
370
    -2
390
5F
100
AcDbLine
 10
-0.375
 20
0.125
 30
0.0
 11
0.375
 21
0.125
 31
0.0
  0
LINE
  5
142
330
13C
100
AcDbEntity
  8
0
  6
Continuous
 62
     0
370
    -2
390
5F
100
AcDbLine
 10
-0.375
 20
-0.125
 30
0.0
 11
0.375
 21
-0.125
 31
0.0
  0
ENDBLK
  5
144
330
13C
100
AcDbEntity
  8
0
100
AcDbBlockEnd
  0
BLOCK
  5
149
330
145
100
AcDbEntity
  8
0
100
AcDbBlockBegin
  2
CDWK_PTTYP43
 70
     0
 10
0.0
 20
0.0
 30
0.0
  3
CDWK_PTTYP43
  1

  0
CIRCLE
  5
146
330
145
100
AcDbEntity
  8
0
  6
Continuous
 62
     0
370
    -2
390
5F
100
AcDbCircle
 10
0.0
 20
0.0
 30
0.0
 40
0.5
  0
LINE
  5
147
330
145
100
AcDbEntity
  8
0
  6
Continuous
 62
     0
370
    -2
390
5F
100
AcDbLine
 10
-0.375
 20
0.166
 30
0.0
 11
0.375
 21
0.166
 31
0.0
  0
LINE
  5
148
330
145
100
AcDbEntity
  8
0
  6
Continuous
 62
     0
370
    -2
390
5F
100
AcDbLine
 10
-0.375
 20
-0.166
 30
0.0
 11
0.375
 21
-0.166
 31
0.0
  0
ENDBLK
  5
14A
330
145
100
AcDbEntity
  8
0
100
AcDbBlockEnd
  0
BLOCK
  5
152
330
14B
100
AcDbEntity
  8
0
100
AcDbBlockBegin
  2
CDWK_PTTYP44
 70
     0
 10
0.0
 20
0.0
 30
0.0
  3
CDWK_PTTYP44
  1

  0
CIRCLE
  5
14C
330
14B
100
AcDbEntity
  8
0
  6
Continuous
 62
     0
370
    -2
390
5F
100
AcDbCircle
 10
0.0
 20
0.0
 30
0.0
 40
0.5
  0
LINE
  5
14D
330
14B
100
AcDbEntity
  8
0
  6
Continuous
 62
     0
370
    -2
390
5F
100
AcDbLine
 10
-0.375
 20
0.333
 30
0.0
 11
0.375
 21
0.333
 31
0.0
  0
LINE
  5
14E
330
14B
100
AcDbEntity
  8
0
  6
Continuous
 62
     0
370
    -2
390
5F
100
AcDbLine
 10
-0.375
 20
0.166
 30
0.0
 11
0.375
 21
0.166
 31
0.0
  0
LINE
  5
14F
330
14B
100
AcDbEntity
  8
0
  6
Continuous
 62
     0
370
    -2
390
5F
100
AcDbLine
 10
-0.375
 20
0.0
 30
0.0
 11
0.375
 21
0.0
 31
0.0
  0
LINE
  5
150
330
14B
100
AcDbEntity
  8
0
  6
Continuous
 62
     0
370
    -2
390
5F
100
AcDbLine
 10
-0.375
 20
-0.166
 30
0.0
 11
0.375
 21
-0.166
 31
0.0
  0
LINE
  5
151
330
14B
100
AcDbEntity
  8
0
  6
Continuous
 62
     0
370
    -2
390
5F
100
AcDbLine
 10
-0.375
 20
-0.333
 30
0.0
 11
0.375
 21
-0.333
 31
0.0
  0
ENDBLK
  5
153
330
14B
100
AcDbEntity
  8
0
100
AcDbBlockEnd
  0
BLOCK
  5
157
330
154
100
AcDbEntity
  8
0
100
AcDbBlockBegin
  2
CDWK_PTTYP45
 70
     0
 10
0.0
 20
0.0
 30
0.0
  3
CDWK_PTTYP45
  1

  0
ELLIPSE
  5
155
330
154
100
AcDbEntity
  8
0
  6
Continuous
 62
     0
370
    -2
390
5F
100
AcDbEllipse
 10
0.0
 20
0.0
 30
0.0
 11
0.5
 21
0.0
 31
0.0
210
0.0
220
0.0
230
1.0
 40
0.82
 41
0.0
 42
6.283185307179586
  0
CIRCLE
  5
156
330
154
100
AcDbEntity
  8
0
  6
Continuous
 62
     0
370
    -2
390
5F
100
AcDbCircle
 10
-0.235
 20
0.0
 30
0.0
 40
0.26
  0
ENDBLK
  5
158
330
154
100
AcDbEntity
  8
0
100
AcDbBlockEnd
  0
BLOCK
  5
15C
330
159
100
AcDbEntity
  8
0
100
AcDbBlockBegin
  2
CDWK_PTTYP46
 70
     0
 10
0.0
 20
0.0
 30
0.0
  3
CDWK_PTTYP46
  1

  0
ELLIPSE
  5
15A
330
159
100
AcDbEntity
  8
0
  6
Continuous
 62
     0
370
    -2
390
5F
100
AcDbEllipse
 10
0.0
 20
0.0
 30
0.0
 11
0.5
 21
0.0
 31
0.0
210
0.0
220
0.0
230
1.0
 40
0.82
 41
0.0
 42
6.283185307179586
  0
CIRCLE
  5
15B
330
159
100
AcDbEntity
  8
0
  6
Continuous
 62
     0
370
    -2
390
5F
100
AcDbCircle
 10
0.0
 20
0.15
 30
0.0
 40
0.26
  0
ENDBLK
  5
15D
330
159
100
AcDbEntity
  8
0
100
AcDbBlockEnd
  0
BLOCK
  5
164
330
15E
100
AcDbEntity
  8
0
100
AcDbBlockBegin
  2
CDWK_PTTYP47
 70
     0
 10
0.0
 20
0.0
 30
0.0
  3
CDWK_PTTYP47
  1

  0
LINE
  5
15F
330
15E
100
AcDbEntity
  8
0
  6
Continuous
 62
     0
370
    -2
390
5F
100
AcDbLine
 10
-0.5
 20
0.166
 30
0.0
 11
0.5
 21
0.166
 31
0.0
  0
LINE
  5
160
330
15E
100
AcDbEntity
  8
0
  6
Continuous
 62
     0
370
    -2
390
5F
100
AcDbLine
 10
0.5
 20
0.166
 30
0.0
 11
0.5
 21
-0.166
 31
0.0
  0
LINE
  5
161
330
15E
100
AcDbEntity
  8
0
  6
Continuous
 62
     0
370
    -2
390
5F
100
AcDbLine
 10
0.5
 20
-0.166
 30
0.0
 11
-0.5
 21
-0.166
 31
0.0
  0
LINE
  5
162
330
15E
100
AcDbEntity
  8
0
  6
Continuous
 62
     0
370
    -2
390
5F
100
AcDbLine
 10
-0.5
 20
-0.166
 30
0.0
 11
-0.5
 21
0.166
 31
0.0
  0
CIRCLE
  5
163
330
15E
100
AcDbEntity
  8
0
  6
Continuous
 62
     0
370
    -2
390
5F
100
AcDbCircle
 10
0.0
 20
-0.313
 30
0.0
 40
0.4
  0
ENDBLK
  5
165
330
15E
100
AcDbEntity
  8
0
100
AcDbBlockEnd
  0
BLOCK
  5
16A
330
167
100
AcDbEntity
  8
0
100
AcDbBlockBegin
  2
CDWK_PTTYP48
 70
     0
 10
0.0
 20
0.0
 30
0.0
  3
CDWK_PTTYP48
  1

  0
CIRCLE
  5
168
330
167
100
AcDbEntity
  8
0
  6
CADWORK_3
 62
     0
 48
0.1
370
    -2
390
5F
100
AcDbCircle
 10
0.0
 20
0.0
 30
0.0
 40
0.5
  0
CIRCLE
  5
169
330
167
100
AcDbEntity
  8
0
  6
Continuous
 62
     0
370
    -2
390
5F
100
AcDbCircle
 10
0.0
 20
0.0
 30
0.0
 40
0.25
  0
ENDBLK
  5
16B
330
167
100
AcDbEntity
  8
0
100
AcDbBlockEnd
  0
BLOCK
  5
171
330
16C
100
AcDbEntity
  8
0
100
AcDbBlockBegin
  2
CDWK_PTTYP49
 70
     0
 10
0.0
 20
0.0
 30
0.0
  3
CDWK_PTTYP49
  1

  0
LINE
  5
16D
330
16C
100
AcDbEntity
  8
0
  6
Continuous
 62
     0
370
    -2
390
5F
100
AcDbLine
 10
-0.5
 20
0.166
 30
0.0
 11
0.5
 21
0.166
 31
0.0
  0
LINE
  5
16E
330
16C
100
AcDbEntity
  8
0
  6
Continuous
 62
     0
370
    -2
390
5F
100
AcDbLine
 10
0.5
 20
0.166
 30
0.0
 11
0.5
 21
-0.166
 31
0.0
  0
LINE
  5
16F
330
16C
100
AcDbEntity
  8
0
  6
Continuous
 62
     0
370
    -2
390
5F
100
AcDbLine
 10
0.5
 20
-0.166
 30
0.0
 11
-0.5
 21
-0.166
 31
0.0
  0
LINE
  5
170
330
16C
100
AcDbEntity
  8
0
  6
Continuous
 62
     0
370
    -2
390
5F
100
AcDbLine
 10
-0.5
 20
-0.166
 30
0.0
 11
-0.5
 21
0.166
 31
0.0
  0
ENDBLK
  5
172
330
16C
100
AcDbEntity
  8
0
100
AcDbBlockEnd
  0
BLOCK
  5
17B
330
173
100
AcDbEntity
  8
0
100
AcDbBlockBegin
  2
CDWK_PTTYP50
 70
     0
 10
0.0
 20
0.0
 30
0.0
  3
CDWK_PTTYP50
  1

  0
LINE
  5
174
330
173
100
AcDbEntity
  8
0
  6
Continuous
 62
     0
370
    -2
390
5F
100
AcDbLine
 10
-0.5
 20
0.166
 30
0.0
 11
0.5
 21
0.166
 31
0.0
  0
LINE
  5
175
330
173
100
AcDbEntity
  8
0
  6
Continuous
 62
     0
370
    -2
390
5F
100
AcDbLine
 10
0.5
 20
0.166
 30
0.0
 11
0.5
 21
-0.166
 31
0.0
  0
LINE
  5
176
330
173
100
AcDbEntity
  8
0
  6
Continuous
 62
     0
370
    -2
390
5F
100
AcDbLine
 10
0.5
 20
-0.166
 30
0.0
 11
-0.5
 21
-0.166
 31
0.0
  0
LINE
  5
177
330
173
100
AcDbEntity
  8
0
  6
Continuous
 62
     0
370
    -2
390
5F
100
AcDbLine
 10
-0.5
 20
-0.166
 30
0.0
 11
-0.5
 21
0.166
 31
0.0
  0
LINE
  5
178
330
173
100
AcDbEntity
  8
0
  6
Continuous
 62
     0
370
    -2
390
5F
100
AcDbLine
 10
-0.25
 20
-0.166
 30
0.0
 11
-0.25
 21
0.166
 31
0.0
  0
LINE
  5
179
330
173
100
AcDbEntity
  8
0
  6
Continuous
 62
     0
370
    -2
390
5F
100
AcDbLine
 10
0.0
 20
-0.166
 30
0.0
 11
0.0
 21
0.166
 31
0.0
  0
LINE
  5
17A
330
173
100
AcDbEntity
  8
0
  6
Continuous
 62
     0
370
    -2
390
5F
100
AcDbLine
 10
0.25
 20
-0.166
 30
0.0
 11
0.25
 21
0.166
 31
0.0
  0
ENDBLK
  5
17C
330
173
100
AcDbEntity
  8
0
100
AcDbBlockEnd
  0
BLOCK
  5
180
330
17D
100
AcDbEntity
  8
0
100
AcDbBlockBegin
  2
CDWK_PTTYP51
 70
     0
 10
0.0
 20
0.0
 30
0.0
  3
CDWK_PTTYP51
  1

  0
SPLINE
  5
17E
330
17D
100
AcDbEntity
  8
0
  6
Continuous
 62
     0
370
    -2
390
5F
100
AcDbSpline
210
0.0
220
0.0
230
1.0
 70
  1064
 71
     3
 72
    12
 73
     8
 74
     6
 42
0.0000000001
 43
0.0000000001
 44
0.0000000001
 40
0.0
 40
0.0
 40
0.0
 40
0.0
 40
0.1690118339052032
 40
0.5175774661755118
 40
0.8011704844252565
 40
0.9154070810132151
 40
0.975822310881188
 40
0.975822310881188
 40
0.975822310881188
 40
0.975822310881188
 10
-0.5
 20
-0.077
 30
0.0
 10
-0.443824324006723
 20
-0.0900581618560981
 30
0.0
 10
-0.2717933876546281
 20
-0.1300471387828842
 30
0.0
 10
-0.0276699186086479
 20
-0.0006977790990417
 30
0.0
 10
0.2303349729129116
 20
0.0817803270207037
 30
0.0
 10
0.3686157174766292
 20
0.0066250198607167
 30
0.0
 10
0.4216533294581816
 20
-0.0168719667726145
 30
0.0
 10
0.44
 20
-0.025
 30
0.0
 11
-0.5
 21
-0.077
 31
0.0
 11
-0.333
 21
-0.103
 31
0.0
 11
0.0
 21
0.0
 31
0.0
 11
0.28
 21
0.045
 31
0.0
 11
0.385
 21
0.0
 31
0.0
 11
0.44
 21
-0.025
 31
0.0
  0
HATCH
  5
17F
330
17D
100
AcDbEntity
  8
0
  6
Continuous
 62
     0
370
    -2
390
5F
100
AcDbHatch
 10
0.0
 20
0.0
 30
0.0
210
0.0
220
0.0
230
1.0
  2
SOLID
 70
     1
 71
     0
 91
        1
 92
        3
 72
     0
 73
     1
 93
        3
 10
0.365
 20
-0.05
 10
0.5
 20
-0.042
 10
0.395
 20
0.045
 97
        0
 75
     0
 76
     1
 98
        0
  0
ENDBLK
  5
181
330
17D
100
AcDbEntity
  8
0
100
AcDbBlockEnd
  0
BLOCK
  5
186
330
182
100
AcDbEntity
  8
0
100
AcDbBlockBegin
  2
CDWK_PTTYP52
 70
     0
 10
0.0
 20
0.0
 30
0.0
  3
CDWK_PTTYP52
  1

  0
LINE
  5
183
330
182
100
AcDbEntity
  8
0
  6
Continuous
 62
     0
370
    -2
390
5F
100
AcDbLine
 10
-0.5
 20
-0.289
 30
0.0
 11
0.5
 21
-0.289
 31
0.0
  0
LINE
  5
184
330
182
100
AcDbEntity
  8
0
  6
Continuous
 62
     0
370
    -2
390
5F
100
AcDbLine
 10
0.5
 20
-0.289
 30
0.0
 11
0.0
 21
0.577
 31
0.0
  0
LINE
  5
185
330
182
100
AcDbEntity
  8
0
  6
Continuous
 62
     0
370
    -2
390
5F
100
AcDbLine
 10
0.0
 20
0.577
 30
0.0
 11
-0.5
 21
-0.289
 31
0.0
  0
ENDBLK
  5
187
330
182
100
AcDbEntity
  8
0
100
AcDbBlockEnd
  0
BLOCK
  5
18D
330
188
100
AcDbEntity
  8
0
100
AcDbBlockBegin
  2
cw-dimension-symbol1
 70
     0
 10
0.0
 20
0.0
 30
0.0
  3
cw-dimension-symbol1
  1

  0
LINE
  5
189
330
188
100
AcDbEntity
  8
0
  6
Continuous
 62
     0
370
    -2
390
5F
100
AcDbLine
 10
0.0
 20
0.0
 30
0.0
 11
-1.0
 21
0.25
 31
0.0
  0
LINE
  5
18A
330
188
100
AcDbEntity
  8
0
  6
Continuous
 62
     0
370
    -2
390
5F
100
AcDbLine
 10
0.0
 20
0.0
 30
0.0
 11
-1.0
 21
-0.25
 31
0.0
  0
LINE
  5
18B
330
188
100
AcDbEntity
  8
0
  6
Continuous
 62
     0
370
    -2
390
5F
100
AcDbLine
 10
-1.0
 20
0.25
 30
0.0
 11
-1.0
 21
-0.25
 31
0.0
  0
LINE
  5
18C
330
188
100
AcDbEntity
  8
0
  6
Continuous
 62
     0
370
    -2
390
5F
100
AcDbLine
 10
0.0
 20
0.0
 30
0.0
 11
-1.0
 21
0.0
 31
0.0
  0
ENDBLK
  5
18E
330
188
100
AcDbEntity
  8
0
100
AcDbBlockEnd
  0
BLOCK
  5
192
330
18F
100
AcDbEntity
  8
0
100
AcDbBlockBegin
  2
cw-dimension-symbol2
 70
     0
 10
0.0
 20
0.0
 30
0.0
  3
cw-dimension-symbol2
  1

  0
LINE
  5
190
330
18F
100
AcDbEntity
  8
0
  6
Continuous
 62
     0
370
    -2
390
5F
100
AcDbLine
 10
-1.0
 20
0.0
 30
0.0
 11
1.0
 21
0.0
 31
0.0
  0
LINE
  5
191
330
18F
100
AcDbEntity
  8
0
  6
Continuous
 62
     0
370
    -2
390
5F
100
AcDbLine
 10
-0.5
 20
-0.5
 30
0.0
 11
0.5
 21
0.5
 31
0.0
  0
ENDBLK
  5
193
330
18F
100
AcDbEntity
  8
0
100
AcDbBlockEnd
  0
BLOCK
  5
197
330
194
100
AcDbEntity
  8
0
100
AcDbBlockBegin
  2
cw-dimension-symbol3
 70
     0
 10
0.0
 20
0.0
 30
0.0
  3
cw-dimension-symbol3
  1

  0
LINE
  5
195
330
194
100
AcDbEntity
  8
0
  6
Continuous
 62
     0
370
    -2
390
5F
100
AcDbLine
 10
-1.0
 20
0.0
 30
0.0
 11
1.0
 21
0.0
 31
0.0
  0
CIRCLE
  5
196
330
194
100
AcDbEntity
  8
0
  6
Continuous
 62
     0
370
    -2
390
5F
100
AcDbCircle
 10
0.0
 20
0.0
 30
0.0
 40
0.25
  0
ENDBLK
  5
198
330
194
100
AcDbEntity
  8
0
100
AcDbBlockEnd
  0
BLOCK
  5
19E
330
199
100
AcDbEntity
  8
0
100
AcDbBlockBegin
  2
cw-dimension-symbol5
 70
     0
 10
0.0
 20
0.0
 30
0.0
  3
cw-dimension-symbol5
  1

  0
HATCH
  5
19A
330
199
100
AcDbEntity
  8
0
  6
Continuous
 62
     0
370
    -2
390
5F
100
AcDbHatch
 10
0.0
 20
0.0
 30
0.0
210
0.0
220
0.0
230
1.0
  2
SOLID
 70
     1
 71
     0
 91
        1
 92
        3
 72
     0
 73
     1
 93
        3
 10
0.0
 20
0.0
 10
-1.0
 20
0.25
 10
-1.0
 20
-0.25
 97
        0
 75
     0
 76
     1
 98
        0
  0
LINE
  5
19B
330
199
100
AcDbEntity
  8
0
  6
Continuous
 62
     0
370
    -2
390
5F
100
AcDbLine
 10
0.0
 20
0.0
 30
0.0
 11
-1.0
 21
0.25
 31
0.0
  0
LINE
  5
19C
330
199
100
AcDbEntity
  8
0
  6
Continuous
 62
     0
370
    -2
390
5F
100
AcDbLine
 10
-1.0
 20
0.25
 30
0.0
 11
-1.0
 21
-0.25
 31
0.0
  0
LINE
  5
19D
330
199
100
AcDbEntity
  8
0
  6
Continuous
 62
     0
370
    -2
390
5F
100
AcDbLine
 10
-1.0
 20
-0.25
 30
0.0
 11
0.0
 21
0.0
 31
0.0
  0
ENDBLK
  5
19F
330
199
100
AcDbEntity
  8
0
100
AcDbBlockEnd
  0
BLOCK
  5
1A4
330
1A0
100
AcDbEntity
  8
0
100
AcDbBlockBegin
  2
cw-dimension-symbol6
 70
     0
 10
0.0
 20
0.0
 30
0.0
  3
cw-dimension-symbol6
  1

  0
LINE
  5
1A1
330
1A0
100
AcDbEntity
  8
0
  6
Continuous
 62
     0
370
    -2
390
5F
100
AcDbLine
 10
0.0
 20
0.0
 30
0.0
 11
-1.0
 21
0.25
 31
0.0
  0
LINE
  5
1A2
330
1A0
100
AcDbEntity
  8
0
  6
Continuous
 62
     0
370
    -2
390
5F
100
AcDbLine
 10
0.0
 20
0.0
 30
0.0
 11
-1.0
 21
-0.25
 31
0.0
  0
LINE
  5
1A3
330
1A0
100
AcDbEntity
  8
0
  6
Continuous
 62
     0
370
    -2
390
5F
100
AcDbLine
 10
0.0
 20
0.0
 30
0.0
 11
-1.0
 21
0.0
 31
0.0
  0
ENDBLK
  5
1A5
330
1A0
100
AcDbEntity
  8
0
100
AcDbBlockEnd
  0
BLOCK
  5
1AA
330
1A6
100
AcDbEntity
  8
0
100
AcDbBlockBegin
  2
cw-dimension-symbol11
 70
     0
 10
0.0
 20
0.0
 30
0.0
  3
cw-dimension-symbol11
  1

  0
LINE
  5
1A7
330
1A6
100
AcDbEntity
  8
0
  6
Continuous
 62
     0
370
    -2
390
5F
100
AcDbLine
 10
-1.0
 20
1.0
 30
0.0
 11
1.0
 21
1.0
 31
0.0
  0
LINE
  5
1A8
330
1A6
100
AcDbEntity
  8
0
  6
Continuous
 62
     0
370
    -2
390
5F
100
AcDbLine
 10
0.0
 20
0.0
 30
0.0
 11
-1.0
 21
1.0
 31
0.0
  0
LINE
  5
1A9
330
1A6
100
AcDbEntity
  8
0
  6
Continuous
 62
     0
370
    -2
390
5F
100
AcDbLine
 10
0.0
 20
0.0
 30
0.0
 11
1.0
 21
1.0
 31
0.0
  0
ENDBLK
  5
1AB
330
1A6
100
AcDbEntity
  8
0
100
AcDbBlockEnd
  0
BLOCK
  5
1B0
330
1AC
100
AcDbEntity
  8
0
100
AcDbBlockBegin
  2
cw-dimension-symbol13
 70
     0
 10
0.0
 20
0.0
 30
0.0
  3
cw-dimension-symbol13
  1

  0
LINE
  5
1AD
330
1AC
100
AcDbEntity
  8
0
  6
Continuous
 62
     0
370
    -2
390
5F
100
AcDbLine
 10
-1.0
 20
-1.0
 30
0.0
 11
1.0
 21
-1.0
 31
0.0
  0
LINE
  5
1AE
330
1AC
100
AcDbEntity
  8
0
  6
Continuous
 62
     0
370
    -2
390
5F
100
AcDbLine
 10
0.0
 20
0.0
 30
0.0
 11
-1.0
 21
-1.0
 31
0.0
  0
LINE
  5
1AF
330
1AC
100
AcDbEntity
  8
0
  6
Continuous
 62
     0
370
    -2
390
5F
100
AcDbLine
 10
0.0
 20
0.0
 30
0.0
 11
1.0
 21
-1.0
 31
0.0
  0
ENDBLK
  5
1B1
330
1AC
100
AcDbEntity
  8
0
100
AcDbBlockEnd
  0
BLOCK
  5
1B7
330
1B2
100
AcDbEntity
  8
0
100
AcDbBlockBegin
  2
cw-dimension-symbol15
 70
     0
 10
0.0
 20
0.0
 30
0.0
  3
cw-dimension-symbol15
  1

  0
HATCH
  5
1B3
330
1B2
100
AcDbEntity
  8
0
  6
Continuous
 62
     0
370
    -2
390
5F
100
AcDbHatch
 10
0.0
 20
0.0
 30
0.0
210
0.0
220
0.0
230
1.0
  2
SOLID
 70
     1
 71
     0
 91
        1
 92
        3
 72
     0
 73
     1
 93
        3
 10
0.0
 20
0.0
 10
-1.0
 20
1.0
 10
1.0
 20
1.0
 97
        0
 75
     0
 76
     1
 98
        0
  0
LINE
  5
1B4
330
1B2
100
AcDbEntity
  8
0
  6
Continuous
 62
     0
370
    -2
390
5F
100
AcDbLine
 10
0.0
 20
0.0
 30
0.0
 11
-1.0
 21
1.0
 31
0.0
  0
LINE
  5
1B5
330
1B2
100
AcDbEntity
  8
0
  6
Continuous
 62
     0
370
    -2
390
5F
100
AcDbLine
 10
-1.0
 20
1.0
 30
0.0
 11
1.0
 21
1.0
 31
0.0
  0
LINE
  5
1B6
330
1B2
100
AcDbEntity
  8
0
  6
Continuous
 62
     0
370
    -2
390
5F
100
AcDbLine
 10
1.0
 20
1.0
 30
0.0
 11
0.0
 21
0.0
 31
0.0
  0
ENDBLK
  5
1B8
330
1B2
100
AcDbEntity
  8
0
100
AcDbBlockEnd
  0
BLOCK
  5
1BE
330
1B9
100
AcDbEntity
  8
0
100
AcDbBlockBegin
  2
cw-dimension-symbol16
 70
     0
 10
0.0
 20
0.0
 30
0.0
  3
cw-dimension-symbol16
  1

  0
HATCH
  5
1BA
330
1B9
100
AcDbEntity
  8
0
  6
Continuous
 62
     0
370
    -2
390
5F
100
AcDbHatch
 10
0.0
 20
0.0
 30
0.0
210
0.0
220
0.0
230
1.0
  2
SOLID
 70
     1
 71
     0
 91
        1
 92
        3
 72
     0
 73
     1
 93
        3
 10
0.0
 20
0.0
 10
-1.0
 20
-1.0
 10
1.0
 20
-1.0
 97
        0
 75
     0
 76
     1
 98
        0
  0
LINE
  5
1BB
330
1B9
100
AcDbEntity
  8
0
  6
Continuous
 62
     0
370
    -2
390
5F
100
AcDbLine
 10
0.0
 20
0.0
 30
0.0
 11
-1.0
 21
-1.0
 31
0.0
  0
LINE
  5
1BC
330
1B9
100
AcDbEntity
  8
0
  6
Continuous
 62
     0
370
    -2
390
5F
100
AcDbLine
 10
-1.0
 20
-1.0
 30
0.0
 11
1.0
 21
-1.0
 31
0.0
  0
LINE
  5
1BD
330
1B9
100
AcDbEntity
  8
0
  6
Continuous
 62
     0
370
    -2
390
5F
100
AcDbLine
 10
1.0
 20
-1.0
 30
0.0
 11
0.0
 21
0.0
 31
0.0
  0
ENDBLK
  5
1BF
330
1B9
100
AcDbEntity
  8
0
100
AcDbBlockEnd
  0
BLOCK
  5
1C5
330
1C0
100
AcDbEntity
  8
0
100
AcDbBlockBegin
  2
cw-dimension-symbol17
 70
     0
 10
0.0
 20
0.0
 30
0.0
  3
cw-dimension-symbol17
  1

  0
LINE
  5
1C1
330
1C0
100
AcDbEntity
  8
0
  6
Continuous
 62
     0
370
    -2
390
5F
100
AcDbLine
 10
0.0
 20
0.0
 30
0.0
 11
1.0
 21
1.0
 31
0.0
  0
LINE
  5
1C2
330
1C0
100
AcDbEntity
  8
0
  6
Continuous
 62
     0
370
    -2
390
5F
100
AcDbLine
 10
1.0
 20
1.0
 30
0.0
 11
-1.0
 21
1.0
 31
0.0
  0
LINE
  5
1C3
330
1C0
100
AcDbEntity
  8
0
  6
Continuous
 62
     0
370
    -2
390
5F
100
AcDbLine
 10
-1.0
 20
1.0
 30
0.0
 11
0.0
 21
0.0
 31
0.0
  0
HATCH
  5
1C4
330
1C0
100
AcDbEntity
  8
0
  6
Continuous
 62
     0
370
    -2
390
5F
100
AcDbHatch
 10
0.0
 20
0.0
 30
0.0
210
0.0
220
0.0
230
1.0
  2
SOLID
 70
     1
 71
     0
 91
        1
 92
        3
 72
     0
 73
     1
 93
        3
 10
0.0
 20
0.0
 10
-1.0
 20
1.0
 10
0.0
 20
1.0
 97
        0
 75
     0
 76
     1
 98
        0
  0
ENDBLK
  5
1C6
330
1C0
100
AcDbEntity
  8
0
100
AcDbBlockEnd
  0
BLOCK
  5
1CC
330
1C7
100
AcDbEntity
  8
0
100
AcDbBlockBegin
  2
cw-dimension-symbol18
 70
     0
 10
0.0
 20
0.0
 30
0.0
  3
cw-dimension-symbol18
  1

  0
LINE
  5
1C8
330
1C7
100
AcDbEntity
  8
0
  6
Continuous
 62
     0
370
    -2
390
5F
100
AcDbLine
 10
0.0
 20
0.0
 30
0.0
 11
1.0
 21
-1.0
 31
0.0
  0
LINE
  5
1C9
330
1C7
100
AcDbEntity
  8
0
  6
Continuous
 62
     0
370
    -2
390
5F
100
AcDbLine
 10
1.0
 20
-1.0
 30
0.0
 11
-1.0
 21
-1.0
 31
0.0
  0
LINE
  5
1CA
330
1C7
100
AcDbEntity
  8
0
  6
Continuous
 62
     0
370
    -2
390
5F
100
AcDbLine
 10
-1.0
 20
-1.0
 30
0.0
 11
0.0
 21
0.0
 31
0.0
  0
HATCH
  5
1CB
330
1C7
100
AcDbEntity
  8
0
  6
Continuous
 62
     0
370
    -2
390
5F
100
AcDbHatch
 10
0.0
 20
0.0
 30
0.0
210
0.0
220
0.0
230
1.0
  2
SOLID
 70
     1
 71
     0
 91
        1
 92
        3
 72
     0
 73
     1
 93
        3
 10
0.0
 20
0.0
 10
-1.0
 20
-1.0
 10
0.0
 20
-1.0
 97
        0
 75
     0
 76
     1
 98
        0
  0
ENDBLK
  5
1CD
330
1C7
100
AcDbEntity
  8
0
100
AcDbBlockEnd
  0
BLOCK
  5
1CF
330
1CE
100
AcDbEntity
  8
0
100
AcDbBlockBegin
  2
cw-dimension-symbol19
 70
     0
 10
0.0
 20
0.0
 30
0.0
  3
cw-dimension-symbol19
  1

  0
ENDBLK
  5
1D0
330
1CE
100
AcDbEntity
  8
0
100
AcDbBlockEnd
  0
BLOCK
  5
1D6
330
1D1
100
AcDbEntity
  8
0
100
AcDbBlockBegin
  2
cw-dimension-symbol20
 70
     0
 10
0.0
 20
0.0
 30
0.0
  3
cw-dimension-symbol20
  1

  0
LINE
  5
1D2
330
1D1
100
AcDbEntity
  8
0
  6
Continuous
 62
     0
370
    -2
390
5F
100
AcDbLine
 10
0.0
 20
0.0
 30
0.0
 11
0.0
 21
2.0
 31
0.0
  0
LINE
  5
1D3
330
1D1
100
AcDbEntity
  8
0
  6
Continuous
 62
     0
370
    -2
390
5F
100
AcDbLine
 10
0.0
 20
0.0
 30
0.0
 11
-1.0
 21
0.33
 31
0.0
  0
LINE
  5
1D4
330
1D1
100
AcDbEntity
  8
0
  6
Continuous
 62
     0
370
    -2
390
5F
100
AcDbLine
 10
0.0
 20
0.0
 30
0.0
 11
1.0
 21
0.33
 31
0.0
  0
LINE
  5
1D5
330
1D1
100
AcDbEntity
  8
0
  6
Continuous
 62
     0
370
    -2
390
5F
100
AcDbLine
 10
0.0
 20
2.0
 30
0.0
 11
4.15
 21
2.0
 31
0.0
  0
ENDBLK
  5
1D7
330
1D1
100
AcDbEntity
  8
0
100
AcDbBlockEnd
  0
BLOCK
  5
1DD
330
1D8
100
AcDbEntity
  8
0
100
AcDbBlockBegin
  2
cw-dimension-symbol21
 70
     0
 10
0.0
 20
0.0
 30
0.0
  3
cw-dimension-symbol21
  1

  0
LINE
  5
1D9
330
1D8
100
AcDbEntity
  8
0
  6
Continuous
 62
     0
370
    -2
390
5F
100
AcDbLine
 10
0.0
 20
0.0
 30
0.0
 11
0.0
 21
-2.0
 31
0.0
  0
LINE
  5
1DA
330
1D8
100
AcDbEntity
  8
0
  6
Continuous
 62
     0
370
    -2
390
5F
100
AcDbLine
 10
0.0
 20
0.0
 30
0.0
 11
-1.0
 21
-0.33
 31
0.0
  0
LINE
  5
1DB
330
1D8
100
AcDbEntity
  8
0
  6
Continuous
 62
     0
370
    -2
390
5F
100
AcDbLine
 10
0.0
 20
0.0
 30
0.0
 11
1.0
 21
-0.33
 31
0.0
  0
LINE
  5
1DC
330
1D8
100
AcDbEntity
  8
0
  6
Continuous
 62
     0
370
    -2
390
5F
100
AcDbLine
 10
0.0
 20
-2.0
 30
0.0
 11
4.15
 21
-2.0
 31
0.0
  0
ENDBLK
  5
1DE
330
1D8
100
AcDbEntity
  8
0
100
AcDbBlockEnd
  0
BLOCK
  5
20F
330
1DF
100
AcDbEntity
  8
0
100
AcDbBlockBegin
  2
cw-line-extremity0
 70
     0
 10
0.0
 20
0.0
 30
0.0
  3
cw-line-extremity0
  1

  0
LINE
  5
1E0
330
1DF
100
AcDbEntity
  8
0
  6
Continuous
 62
     0
370
    -2
390
5F
100
AcDbLine
 10
0.0
 20
0.0
 30
0.0
 11
10.0
 21
2.5
 31
0.0
  0
LINE
  5
1E1
330
1DF
100
AcDbEntity
  8
0
  6
Continuous
 62
     0
370
    -2
390
5F
100
AcDbLine
 10
0.0
 20
0.0
 30
0.0
 11
10.0
 21
-2.5
 31
0.0
  0
LINE
  5
1E2
330
1DF
100
AcDbEntity
  8
0
  6
Continuous
 62
     0
370
    -2
390
5F
100
AcDbLine
 10
10.0
 20
2.5
 30
0.0
 11
10.0
 21
-2.5
 31
0.0
  0
ENDBLK
  5
210
330
1DF
100
AcDbEntity
  8
0
100
AcDbBlockEnd
  0
BLOCK
  5
20D
330
1E3
100
AcDbEntity
  8
0
100
AcDbBlockBegin
  2
cw-line-extremity2
 70
     0
 10
0.0
 20
0.0
 30
0.0
  3
cw-line-extremity2
  1

  0
HATCH
  5
1E4
330
1E3
100
AcDbEntity
  8
0
  6
Continuous
 62
     0
370
     0
390
5F
100
AcDbHatch
 10
0.0
 20
0.0
 30
0.0
210
0.0
220
0.0
230
1.0
  2
SOLID
 70
     1
 71
     0
 91
        1
 92
        3
 72
     0
 73
     1
 93
        3
 10
0.0
 20
0.0
 10
10.0
 20
2.5
 10
10.0
 20
-2.5
 97
        0
 75
     0
 76
     1
 98
        0
  0
LINE
  5
1E5
330
1E3
100
AcDbEntity
  8
0
  6
Continuous
 62
     0
370
    -2
390
5F
100
AcDbLine
 10
0.0
 20
0.0
 30
0.0
 11
10.0
 21
2.5
 31
0.0
  0
LINE
  5
1E6
330
1E3
100
AcDbEntity
  8
0
  6
Continuous
 62
     0
370
    -2
390
5F
100
AcDbLine
 10
10.0
 20
2.5
 30
0.0
 11
10.0
 21
-2.5
 31
0.0
  0
LINE
  5
1E7
330
1E3
100
AcDbEntity
  8
0
  6
Continuous
 62
     0
370
    -2
390
5F
100
AcDbLine
 10
10.0
 20
-2.5
 30
0.0
 11
0.0
 21
0.0
 31
0.0
  0
ENDBLK
  5
20E
330
1E3
100
AcDbEntity
  8
0
100
AcDbBlockEnd
  0
BLOCK
  5
20B
330
1E8
100
AcDbEntity
  8
0
100
AcDbBlockBegin
  2
cw-line-extremity3
 70
     0
 10
0.0
 20
0.0
 30
0.0
  3
cw-line-extremity3
  1

  0
HATCH
  5
1E9
330
1E8
100
AcDbEntity
  8
0
  6
Continuous
 62
     0
370
     0
390
5F
100
AcDbHatch
 10
0.0
 20
0.0
 30
0.0
210
0.0
220
0.0
230
1.0
  2
SOLID
 70
     1
 71
     0
 91
        1
 92
        3
 72
     0
 73
     1
 93
        3
 10
0.0
 20
0.0
 10
10.0
 20
2.5
 10
10.0
 20
-2.5
 97
        0
 75
     0
 76
     1
 98
        0
  0
LINE
  5
1EA
330
1E8
100
AcDbEntity
  8
0
  6
Continuous
 62
     0
370
    -2
390
5F
100
AcDbLine
 10
0.0
 20
0.0
 30
0.0
 11
10.0
 21
2.5
 31
0.0
  0
LINE
  5
1EB
330
1E8
100
AcDbEntity
  8
0
  6
Continuous
 62
     0
370
    -2
390
5F
100
AcDbLine
 10
10.0
 20
2.5
 30
0.0
 11
10.0
 21
-2.5
 31
0.0
  0
LINE
  5
1EC
330
1E8
100
AcDbEntity
  8
0
  6
Continuous
 62
     0
370
    -2
390
5F
100
AcDbLine
 10
10.0
 20
-2.5
 30
0.0
 11
0.0
 21
0.0
 31
0.0
  0
ENDBLK
  5
20C
330
1E8
100
AcDbEntity
  8
0
100
AcDbBlockEnd
  0
BLOCK
  5
209
330
1ED
100
AcDbEntity
  8
0
100
AcDbBlockBegin
  2
cw-line-extremity301
 70
     0
 10
0.0
 20
0.0
 30
0.0
  3
cw-line-extremity301
  1

  0
LINE
  5
1EE
330
1ED
100
AcDbEntity
  8
0
  6
Continuous
 62
     0
370
    -2
390
5F
100
AcDbLine
 10
0.0
 20
6.66665
 30
0.0
 11
0.0
 21
-6.66665
 31
0.0
  0
ENDBLK
  5
20A
330
1ED
100
AcDbEntity
  8
0
100
AcDbBlockEnd
  0
BLOCK
  5
207
330
1EF
100
AcDbEntity
  8
0
100
AcDbBlockBegin
  2
cw-line-extremity4
 70
     0
 10
0.0
 20
0.0
 30
0.0
  3
cw-line-extremity4
  1

  0
HATCH
  5
1F0
330
1EF
100
AcDbEntity
  8
0
  6
Continuous
 62
     0
370
     5
390
5F
100
AcDbHatch
 10
0.0
 20
0.0
 30
0.0
210
0.0
220
0.0
230
1.0
  2
SOLID
 70
     1
 71
     0
 91
        1
 92
        1
 93
        1
 72
     2
 10
0.0
 20
0.0
 40
2.5
 50
0.0
 51
360.0
 73
     1
 97
        0
 75
     0
 76
     1
 98
        0
  0
ENDBLK
  5
208
330
1EF
100
AcDbEntity
  8
0
100
AcDbBlockEnd
  0
BLOCK
  5
205
330
1F1
100
AcDbEntity
  8
0
100
AcDbBlockBegin
  2
cw-line-extremity5
 70
     0
 10
0.0
 20
0.0
 30
0.0
  3
cw-line-extremity5
  1

  0
LINE
  5
1F2
330
1F1
100
AcDbEntity
  8
0
  6
Continuous
 62
     0
370
    -2
390
5F
100
AcDbLine
 10
0.0
 20
0.0
 30
0.0
 11
-2.5
 21
0.0
 31
0.0
  0
ENDBLK
  5
206
330
1F1
100
AcDbEntity
  8
0
100
AcDbBlockEnd
  0
BLOCK
  5
203
330
1F3
100
AcDbEntity
  8
0
100
AcDbBlockBegin
  2
cw-line-extremity6
 70
     0
 10
0.0
 20
0.0
 30
0.0
  3
cw-line-extremity6
  1

  0
LINE
  5
1F4
330
1F3
100
AcDbEntity
  8
0
  6
Continuous
 62
     0
370
    18
390
5F
100
AcDbLine
 10
0.0
 20
2.5
 30
0.0
 11
0.0
 21
-2.5
 31
0.0
  0
ENDBLK
  5
204
330
1F3
100
AcDbEntity
  8
0
100
AcDbBlockEnd
  0
BLOCK
  5
201
330
1F5
100
AcDbEntity
  8
0
100
AcDbBlockBegin
  2
cw-line-extremity9
 70
     0
 10
0.0
 20
0.0
 30
0.0
  3
cw-line-extremity9
  1

  0
LINE
  5
1F6
330
1F5
100
AcDbEntity
  8
0
  6
Continuous
 62
     0
370
    18
390
5F
100
AcDbLine
 10
-2.5
 20
-2.5
 30
0.0
 11
2.5
 21
2.5
 31
0.0
  0
ENDBLK
  5
202
330
1F5
100
AcDbEntity
  8
0
100
AcDbBlockEnd
  0
BLOCK
  5
1FF
330
1F7
100
AcDbEntity
  8
0
100
AcDbBlockBegin
  2
cw-line-extremity10
 70
     0
 10
0.0
 20
0.0
 30
0.0
  3
cw-line-extremity10
  1

  0
CIRCLE
  5
1F8
330
1F7
100
AcDbEntity
  8
0
  6
Continuous
 62
     0
370
    -2
390
5F
100
AcDbCircle
 10
0.0
 20
0.0
 30
0.0
 40
2.5
  0
ENDBLK
  5
200
330
1F7
100
AcDbEntity
  8
0
100
AcDbBlockEnd
  0
BLOCK
  5
1FD
330
1F9
100
AcDbEntity
  8
0
100
AcDbBlockBegin
  2
cw-line-extremity1
 70
     0
 10
0.0
 20
0.0
 30
0.0
  3
cw-line-extremity1
  1

  0
LINE
  5
1FA
330
1F9
100
AcDbEntity
  8
0
  6
Continuous
 62
     0
370
    -2
390
5F
100
AcDbLine
 10
0.0
 20
0.0
 30
0.0
 11
0.0
 21
2.5
 31
0.0
  0
LINE
  5
1FB
330
1F9
100
AcDbEntity
  8
0
  6
Continuous
 62
     0
370
    -2
390
5F
100
AcDbLine
 10
0.0
 20
2.5
 30
0.0
 11
1.25
 21
3.75
 31
0.0
  0
LINE
  5
1FC
330
1F9
100
AcDbEntity
  8
0
  6
Continuous
 62
     0
370
    -2
390
5F
100
AcDbLine
 10
1.25
 20
3.75
 30
0.0
 11
3.75
 21
3.75
 31
0.0
  0
ENDBLK
  5
1FE
330
1F9
100
AcDbEntity
  8
0
100
AcDbBlockEnd
  0
BLOCK
  5
1C
330
1B
100
AcDbEntity
  8
0
100
AcDbBlockBegin
  2
*Paper_Space69
 70
     0
 10
0.0
 20
0.0
 30
0.0
  3
*Paper_Space69
  1

  0
ENDBLK
  5
1D
330
1B
100
AcDbEntity
  8
0
100
AcDbBlockEnd
  0
ENDSEC
  0
SECTION
  2
ENTITIES
  0
LWPOLYLINE
  5
21A
330
1F
100
AcDbEntity
  8
Ech.1_5
  6
Continuous
 62
   190
370
    15
390
5F
100
AcDbPolyline
 90
        5
 70
     0
 43
0.0
 10
9116.32829549663
 20
-12018.78313514858
 10
31769.28913838763
 20
-12018.78313514858
 10
31769.28913838763
 20
-14457.30704422377
 10
9116.32829549663
 20
-14457.30704422377
 10
9116.32829549663
 20
-12018.78313514858
  0
HATCH
  5
21B
330
1F
100
AcDbEntity
  8
Ech.1_5
  6
Continuous
 62
   254
420
 16643007
440
 33554687
370
    20
390
5F
100
AcDbHatch
 10
0.0
 20
0.0
 30
0.0
210
0.0
220
0.0
230
1.0
  2
SOLID
 70
     1
 71
     0
 91
        1
 92
        3
 72
     0
 73
     1
 93
        4
 10
11573.57233185553
 20
-12669.79899007356
 10
11573.57233185553
 20
-13190.82763376856
 10
11613.57233185553
 20
-13190.82761958586
 10
11613.57233185553
 20
-12669.79874891087
 97
        0
 75
     0
 76
     1
 98
        0
  0
LWPOLYLINE
  5
21C
330
1F
100
AcDbEntity
  8
Ech.1_5
  6
Continuous
 62
   190
370
    15
390
5F
100
AcDbPolyline
 90
        5
 70
     0
 43
0.0
 10
11573.57233185553
 20
-12669.79899007356
 10
11573.57233185553
 20
-13190.82763376856
 10
11613.57233185553
 20
-13190.82761958586
 10
11613.57233185553
 20
-12669.79874891087
 10
11573.57233185553
 20
-12669.79899007356
  0
HATCH
  5
21D
330
1F
100
AcDbEntity
  8
Ech.1_5
  6
Continuous
 62
   254
420
 16643007
440
 33554687
370
    20
390
5F
100
AcDbHatch
 10
0.0
 20
0.0
 30
0.0
210
0.0
220
0.0
230
1.0
  2
SOLID
 70
     1
 71
     0
 91
        1
 92
        3
 72
     0
 73
     1
 93
        4
 10
11253.00627063878
 20
-13305.21673031292
 10
11853.00811304026
 20
-13305.21673031292
 10
11853.00811304026
 20
-13345.21673031292
 10
11253.00627063878
 20
-13345.21673031292
 97
        0
 75
     0
 76
     1
 98
        0
  0
LWPOLYLINE
  5
21E
330
1F
100
AcDbEntity
  8
Ech.1_5
  6
Continuous
 62
   190
370
    15
390
5F
100
AcDbPolyline
 90
        5
 70
     0
 43
0.0
 10
11253.00627063878
 20
-13305.21673031292
 10
11853.00811304026
 20
-13305.21673031292
 10
11853.00811304026
 20
-13345.21673031292
 10
11253.00627063878
 20
-13345.21673031292
 10
11253.00627063878
 20
-13305.21673031292
  0
LWPOLYLINE
  5
21F
330
1F
100
AcDbEntity
  8
Ech.1_5
  6
Continuous
 62
   190
370
    15
390
5F
100
AcDbPolyline
 90
      156
 70
     0
 43
0.0
 10
11606.90566518886
 20
-13190.82761958586
 42
1.14028180512011
 10
11605.18020100302
 20
-13177.72144845162
 10
11581.96446270804
 20
-13183.93379072009
 42
-1.303226186855706
 10
11581.96446270804
 20
-13171.05478178496
 10
11605.18020100302
 20
-13177.26712405343
 42
1.303226186855534
 10
11605.18020100302
 20
-13164.38811511829
 10
11581.96446270804
 20
-13170.60045738676
 42
-1.303226186854969
 10
11581.96446270804
 20
-13157.72144845162
 10
11605.18020100302
 20
-13163.93379072009
 42
1.30322618685627
 10
11605.18020100302
 20
-13151.05478178496
 10
11581.96446270804
 20
-13157.26712405343
 42
-1.303226186854969
 10
11581.96446270804
 20
-13144.38811511829
 10
11605.18020100302
 20
-13150.60045738675
 42
1.30322618685627
 10
11605.18020100302
 20
-13137.72144845162
 10
11581.96446270804
 20
-13143.93379072009
 42
-1.303226186855706
 10
11581.96446270804
 20
-13131.05478178496
 10
11605.18020100302
 20
-13137.26712405343
 42
1.303226186855534
 10
11605.18020100302
 20
-13124.38811511829
 10
11581.96446270804
 20
-13130.60045738675
 42
-1.303226186855706
 10
11581.96446270804
 20
-13117.72144845162
 10
11605.18020100302
 20
-13123.93379072009
 42
1.303226186855534
 10
11605.18020100302
 20
-13111.05478178495
 10
11581.96446270804
 20
-13117.26712405343
 42
-1.303226186854969
 10
11581.96446270804
 20
-13104.38811511829
 10
11605.18020100302
 20
-13110.60045738675
 42
1.30322618685627
 10
11605.18020100302
 20
-13097.72144845162
 10
11581.96446270804
 20
-13103.93379072009
 42
-1.303226186854969
 10
11581.96446270804
 20
-13091.05478178495
 10
11605.18020100302
 20
-13097.26712405342
 42
1.30322618685627
 10
11605.18020100302
 20
-13084.38811511829
 10
11581.96446270804
 20
-13090.60045738675
 42
-1.303226186855706
 10
11581.96446270804
 20
-13077.72144845162
 10
11605.18020100302
 20
-13083.93379072009
 42
1.303226186855534
 10
11605.18020100302
 20
-13071.05478178495
 10
11581.96446270804
 20
-13077.26712405342
 42
-1.303226186855706
 10
11581.96446270804
 20
-13064.38811511829
 10
11605.18020100302
 20
-13070.60045738675
 42
1.303226186855534
 10
11605.18020100302
 20
-13057.72144845162
 10
11581.96446270804
 20
-13063.93379072009
 42
-1.303226186854969
 10
11581.96446270804
 20
-13051.05478178495
 10
11605.18020100302
 20
-13057.26712405342
 42
1.30322618685627
 10
11605.18020100302
 20
-13044.38811511829
 10
11581.96446270804
 20
-13050.60045738675
 42
-1.303226186854969
 10
11581.96446270804
 20
-13037.72144845162
 10
11605.18020100302
 20
-13043.93379072008
 42
1.30322618685627
 10
11605.18020100302
 20
-13031.05478178495
 10
11581.96446270804
 20
-13037.26712405342
 42
-1.303226186855706
 10
11581.96446270804
 20
-13024.38811511829
 10
11605.18020100302
 20
-13030.60045738675
 42
1.303226186855534
 10
11605.18020100302
 20
-13017.72144845162
 10
11581.96446270804
 20
-13023.93379072008
 42
-1.303226186855706
 10
11581.96446270804
 20
-13011.05478178495
 10
11605.18020100302
 20
-13017.26712405342
 42
1.303226186855534
 10
11605.18020100302
 20
-13004.38811511828
 10
11581.96446270804
 20
-13010.60045738675
 42
-1.303226186854969
 10
11581.96446270804
 20
-12997.72144845162
 10
11605.18020100302
 20
-13003.93379072008
 42
1.30322618685627
 10
11605.18020100302
 20
-12991.05478178495
 10
11581.96446270804
 20
-12997.26712405342
 42
-1.303226186854969
 10
11581.96446270804
 20
-12984.38811511828
 10
11605.18020100302
 20
-12990.60045738675
 42
1.30322618685627
 10
11605.18020100302
 20
-12977.72144845162
 10
11581.96446270804
 20
-12983.93379072008
 42
-1.303226186855706
 10
11581.96446270804
 20
-12971.05478178495
 10
11605.18020100302
 20
-12977.26712405342
 42
1.303226186855534
 10
11605.18020100302
 20
-12964.38811511828
 10
11581.96446270804
 20
-12970.60045738675
 42
-1.303226186855706
 10
11581.96446270804
 20
-12957.72144845162
 10
11605.18020100302
 20
-12963.93379072008
 42
1.303226186855534
 10
11605.18020100302
 20
-12951.05478178494
 10
11581.96446270804
 20
-12957.26712405342
 42
-1.303226186854969
 10
11581.96446270804
 20
-12944.38811511828
 10
11605.18020100302
 20
-12950.60045738675
 42
1.30322618685627
 10
11605.18020100302
 20
-12937.72144845162
 10
11581.96446270804
 20
-12943.93379072008
 42
-1.303226186854969
 10
11581.96446270804
 20
-12931.05478178494
 10
11605.18020100302
 20
-12937.26712405341
 42
1.30322618685627
 10
11605.18020100302
 20
-12924.38811511828
 10
11581.96446270804
 20
-12930.60045738675
 42
-1.303226186855706
 10
11581.96446270804
 20
-12917.72144845162
 10
11605.18020100302
 20
-12923.93379072008
 42
1.303226186855534
 10
11605.18020100302
 20
-12911.05478178494
 10
11581.96446270804
 20
-12917.26712405341
 42
-1.303226186855706
 10
11581.96446270804
 20
-12904.38811511828
 10
11605.18020100302
 20
-12910.60045738675
 42
1.303226186855534
 10
11605.18020100302
 20
-12897.72144845161
 10
11581.96446270804
 20
-12903.93379072008
 42
-1.303226186854969
 10
11581.96446270804
 20
-12891.05478178494
 10
11605.18020100302
 20
-12897.26712405341
 42
1.30322618685627
 10
11605.18020100302
 20
-12884.38811511828
 10
11581.96446270804
 20
-12890.60045738675
 42
-1.303226186854969
 10
11581.96446270804
 20
-12877.72144845161
 10
11605.18020100302
 20
-12883.93379072008
 42
1.30322618685627
 10
11605.18020100302
 20
-12871.05478178494
 10
11581.96446270804
 20
-12877.26712405341
 42
-1.303226186855706
 10
11581.96446270804
 20
-12864.38811511828
 10
11605.18020100302
 20
-12870.60045738675
 42
1.303226186855534
 10
11605.18020100302
 20
-12857.72144845161
 10
11581.96446270804
 20
-12863.93379072008
 42
-1.303226186855706
 10
11581.96446270804
 20
-12851.05478178494
 10
11605.18020100302
 20
-12857.26712405341
 42
1.303226186855534
 10
11605.18020100302
 20
-12844.38811511827
 10
11581.96446270804
 20
-12850.60045738675
 42
-1.303226186854969
 10
11581.96446270804
 20
-12837.72144845161
 10
11605.18020100302
 20
-12843.93379072008
 42
1.30322618685627
 10
11605.18020100302
 20
-12831.05478178494
 10
11581.96446270804
 20
-12837.26712405341
 42
-1.303226186854969
 10
11581.96446270804
 20
-12824.38811511827
 10
11605.18020100302
 20
-12830.60045738674
 42
1.30322618685627
 10
11605.18020100302
 20
-12817.72144845161
 10
11581.96446270804
 20
-12823.93379072008
 42
-1.303226186855706
 10
11581.96446270804
 20
-12811.05478178494
 10
11605.18020100302
 20
-12817.26712405341
 42
1.303226186855534
 10
11605.18020100302
 20
-12804.38811511827
 10
11581.96446270804
 20
-12810.60045738674
 42
-1.303226186855706
 10
11581.96446270804
 20
-12797.72144845161
 10
11605.18020100302
 20
-12803.93379072008
 42
1.303226186855534
 10
11605.18020100302
 20
-12791.05478178494
 10
11581.96446270804
 20
-12797.26712405341
 42
-1.303226186854969
 10
11581.96446270804
 20
-12784.38811511827
 10
11605.18020100302
 20
-12790.60045738674
 42
1.30322618685627
 10
11605.18020100302
 20
-12777.72144845161
 10
11581.96446270804
 20
-12783.93379072008
 42
-1.303226186854969
 10
11581.96446270804
 20
-12771.05478178494
 10
11605.18020100302
 20
-12777.2671240534
 42
1.30322618685627
 10
11605.18020100302
 20
-12764.38811511827
 10
11581.96446270804
 20
-12770.60045738674
 42
-1.303226186855706
 10
11581.96446270804
 20
-12757.72144845161
 10
11605.18020100302
 20
-12763.93379072008
 42
1.303226186855534
 10
11605.18020100302
 20
-12751.05478178494
 10
11581.96446270804
 20
-12757.2671240534
 42
-1.303226186855706
 10
11581.96446270804
 20
-12744.38811511827
 10
11605.18020100302
 20
-12750.60045738674
 42
1.303226186855534
 10
11605.18020100302
 20
-12737.7214484516
 10
11581.96446270804
 20
-12743.93379072008
 42
-1.303226186854969
 10
11581.96446270804
 20
-12731.05478178494
 10
11605.18020100302
 20
-12737.2671240534
 42
1.30322618685627
 10
11605.18020100302
 20
-12724.38811511827
 10
11581.96446270804
 20
-12730.60045738674
 42
-1.303226186854969
 10
11581.96446270804
 20
-12717.7214484516
 10
11605.18020100302
 20
-12723.93379072007
 42
1.30322618685627
 10
11605.18020100302
 20
-12711.05478178494
 10
11581.96446270804
 20
-12717.2671240534
 42
-1.303226186855706
 10
11581.96446270804
 20
-12704.38811511827
 10
11605.18020100302
 20
-12710.60045738674
 42
1.303226186855534
 10
11605.18020100302
 20
-12697.7214484516
 10
11581.96446270804
 20
-12703.93379072007
 42
-1.303226186855706
 10
11581.96446270804
 20
-12691.05478178494
 10
11605.18020100302
 20
-12697.2671240534
 42
1.303226186855534
 10
11605.18020100302
 20
-12684.38811511826
 10
11581.96446270804
 20
-12690.60045738674
 42
-1.303226186854969
 10
11581.96446270804
 20
-12677.7214484516
 10
11605.18020100302
 20
-12683.93379072007
 42
1.30322618685627
 10
11605.18020100302
 20
-12671.05478178494
 10
11581.96446270804
 20
-12677.2671240534
 42
-0.542261181397051
 10
11573.65218588211
 20
-12669.79886126205
  0
LWPOLYLINE
  5
220
330
1F
100
AcDbEntity
  8
Ech.1_5
  6
Continuous
 62
   190
370
    15
390
5F
100
AcDbPolyline
 90
      180
 70
     0
 43
0.0
 10
11253.00627063878
 20
-13338.55006364625
 42
1.140281805119796
 10
11266.11244177302
 20
-13336.82459946041
 10
11259.90009950455
 20
-13313.60886116543
 42
-1.303226186855902
 10
11272.77910843968
 20
-13313.60886116543
 10
11266.56676617121
 20
-13336.82459946041
 42
1.303226186855902
 10
11279.44577510635
 20
-13336.82459946041
 10
11273.23343283788
 20
-13313.60886116543
 42
-1.303226186855902
 10
11286.11244177302
 20
-13313.60886116543
 10
11279.90009950455
 20
-13336.82459946041
 42
1.303226186855902
 10
11292.77910843968
 20
-13336.82459946041
 10
11286.56676617121
 20
-13313.60886116543
 42
-1.303226186855902
 10
11299.44577510635
 20
-13313.60886116543
 10
11293.23343283788
 20
-13336.82459946041
 42
1.303226186855902
 10
11306.11244177302
 20
-13336.82459946041
 10
11299.90009950455
 20
-13313.60886116543
 42
-1.303226186855902
 10
11312.77910843968
 20
-13313.60886116543
 10
11306.56676617122
 20
-13336.82459946041
 42
1.303226186855902
 10
11319.44577510635
 20
-13336.82459946041
 10
11313.23343283788
 20
-13313.60886116543
 42
-1.303226186855902
 10
11326.11244177302
 20
-13313.60886116543
 10
11319.90009950455
 20
-13336.82459946041
 42
1.303226186855902
 10
11332.77910843968
 20
-13336.82459946041
 10
11326.56676617122
 20
-13313.60886116543
 42
-1.303226186855902
 10
11339.44577510635
 20
-13313.60886116543
 10
11333.23343283789
 20
-13336.82459946041
 42
1.303226186855902
 10
11346.11244177302
 20
-13336.82459946041
 10
11339.90009950455
 20
-13313.60886116543
 42
-1.303226186855902
 10
11352.77910843968
 20
-13313.60886116543
 10
11346.56676617122
 20
-13336.82459946041
 42
1.303226186855902
 10
11359.44577510635
 20
-13336.82459946041
 10
11353.23343283789
 20
-13313.60886116543
 42
-1.303226186855902
 10
11366.11244177302
 20
-13313.60886116543
 10
11359.90009950455
 20
-13336.82459946041
 42
1.303226186855902
 10
11372.77910843969
 20
-13336.82459946041
 10
11366.56676617122
 20
-13313.60886116543
 42
-1.303226186855902
 10
11379.44577510635
 20
-13313.60886116543
 10
11373.23343283789
 20
-13336.82459946041
 42
1.303226186855902
 10
11386.11244177302
 20
-13336.82459946041
 10
11379.90009950455
 20
-13313.60886116543
 42
-1.303226186855902
 10
11392.77910843969
 20
-13313.60886116543
 10
11386.56676617122
 20
-13336.82459946041
 42
1.303226186855902
 10
11399.44577510636
 20
-13336.82459946041
 10
11393.23343283789
 20
-13313.60886116543
 42
-1.303226186855902
 10
11406.11244177302
 20
-13313.60886116543
 10
11399.90009950455
 20
-13336.82459946041
 42
1.303226186855902
 10
11412.77910843969
 20
-13336.82459946041
 10
11406.56676617122
 20
-13313.60886116543
 42
-1.303226186855902
 10
11419.44577510636
 20
-13313.60886116543
 10
11413.23343283789
 20
-13336.82459946041
 42
1.303226186855902
 10
11426.11244177302
 20
-13336.82459946041
 10
11419.90009950455
 20
-13313.60886116543
 42
-1.303226186855902
 10
11432.77910843969
 20
-13313.60886116543
 10
11426.56676617122
 20
-13336.82459946041
 42
1.303226186855902
 10
11439.44577510636
 20
-13336.82459946041
 10
11433.23343283789
 20
-13313.60886116543
 42
-1.303226186855902
 10
11446.11244177302
 20
-13313.60886116543
 10
11439.90009950456
 20
-13336.82459946041
 42
1.303226186855902
 10
11452.77910843969
 20
-13336.82459946041
 10
11446.56676617122
 20
-13313.60886116543
 42
-1.303226186855902
 10
11459.44577510636
 20
-13313.60886116543
 10
11453.23343283789
 20
-13336.82459946041
 42
1.303226186855902
 10
11466.11244177302
 20
-13336.82459946041
 10
11459.90009950456
 20
-13313.60886116543
 42
-1.303226186855902
 10
11472.77910843969
 20
-13313.60886116543
 10
11466.56676617123
 20
-13336.82459946041
 42
1.303226186855902
 10
11479.44577510636
 20
-13336.82459946041
 10
11473.23343283789
 20
-13313.60886116543
 42
-1.303226186855902
 10
11486.11244177302
 20
-13313.60886116543
 10
11479.90009950456
 20
-13336.82459946041
 42
1.303226186855902
 10
11492.77910843969
 20
-13336.82459946041
 10
11486.56676617123
 20
-13313.60886116543
 42
-1.303226186855902
 10
11499.44577510636
 20
-13313.60886116543
 10
11493.23343283789
 20
-13336.82459946041
 42
1.303226186855902
 10
11506.11244177303
 20
-13336.82459946041
 10
11499.90009950456
 20
-13313.60886116543
 42
-1.303226186855902
 10
11512.77910843969
 20
-13313.60886116543
 10
11506.56676617123
 20
-13336.82459946041
 42
1.303226186855902
 10
11519.44577510636
 20
-13336.82459946041
 10
11513.23343283789
 20
-13313.60886116543
 42
-1.303226186855902
 10
11526.11244177303
 20
-13313.60886116543
 10
11519.90009950456
 20
-13336.82459946041
 42
1.303226186855902
 10
11532.7791084397
 20
-13336.82459946041
 10
11526.56676617123
 20
-13313.60886116543
 42
-1.303226186855902
 10
11539.44577510636
 20
-13313.60886116543
 10
11533.23343283789
 20
-13336.82459946041
 42
1.303226186855902
 10
11546.11244177303
 20
-13336.82459946041
 10
11539.90009950456
 20
-13313.60886116543
 42
-1.303226186855902
 10
11552.7791084397
 20
-13313.60886116543
 10
11546.56676617123
 20
-13336.82459946041
 42
1.303226186855902
 10
11559.44577510636
 20
-13336.82459946041
 10
11553.23343283789
 20
-13313.60886116543
 42
-1.303226186855902
 10
11566.11244177303
 20
-13313.60886116543
 10
11559.90009950456
 20
-13336.82459946041
 42
1.303226186855902
 10
11572.7791084397
 20
-13336.82459946041
 10
11566.56676617123
 20
-13313.60886116543
 42
-1.303226186855902
 10
11579.44577510636
 20
-13313.60886116543
 10
11573.2334328379
 20
-13336.82459946041
 42
1.303226186855902
 10
11586.11244177303
 20
-13336.82459946041
 10
11579.90009950456
 20
-13313.60886116543
 42
-1.303226186855902
 10
11592.7791084397
 20
-13313.60886116543
 10
11586.56676617123
 20
-13336.82459946041
 42
1.303226186855902
 10
11599.44577510636
 20
-13336.82459946041
 10
11593.2334328379
 20
-13313.60886116543
 42
-1.303226186855902
 10
11606.11244177303
 20
-13313.60886116543
 10
11599.90009950456
 20
-13336.82459946041
 42
1.303226186855902
 10
11612.7791084397
 20
-13336.82459946041
 10
11606.56676617123
 20
-13313.60886116543
 42
-1.303226186855902
 10
11619.44577510636
 20
-13313.60886116543
 10
11613.2334328379
 20
-13336.82459946041
 42
1.303226186855902
 10
11626.11244177303
 20
-13336.82459946041
 10
11619.90009950456
 20
-13313.60886116543
 42
-1.303226186855902
 10
11632.7791084397
 20
-13313.60886116543
 10
11626.56676617123
 20
-13336.82459946041
 42
1.303226186855902
 10
11639.44577510637
 20
-13336.82459946041
 10
11633.2334328379
 20
-13313.60886116543
 42
-1.303226186855902
 10
11646.11244177303
 20
-13313.60886116543
 10
11639.90009950456
 20
-13336.82459946041
 42
1.303226186855902
 10
11652.7791084397
 20
-13336.82459946041
 10
11646.56676617123
 20
-13313.60886116543
 42
-1.303226186855902
 10
11659.44577510637
 20
-13313.60886116543
 10
11653.2334328379
 20
-13336.82459946041
 42
1.303226186855902
 10
11666.11244177304
 20
-13336.82459946041
 10
11659.90009950456
 20
-13313.60886116543
 42
-1.303226186855902
 10
11672.7791084397
 20
-13313.60886116543
 10
11666.56676617123
 20
-13336.82459946041
 42
1.303226186855902
 10
11679.44577510637
 20
-13336.82459946041
 10
11673.2334328379
 20
-13313.60886116543
 42
-1.303226186855902
 10
11686.11244177304
 20
-13313.60886116543
 10
11679.90009950457
 20
-13336.82459946041
 42
1.303226186855902
 10
11692.7791084397
 20
-13336.82459946041
 10
11686.56676617123
 20
-13313.60886116543
 42
-1.303226186855902
 10
11699.44577510637
 20
-13313.60886116543
 10
11693.2334328379
 20
-13336.82459946041
 42
1.303226186855902
 10
11706.11244177304
 20
-13336.82459946041
 10
11699.90009950457
 20
-13313.60886116543
 42
-1.303226186855902
 10
11712.7791084397
 20
-13313.60886116543
 10
11706.56676617124
 20
-13336.82459946041
 42
1.303226186855902
 10
11719.44577510637
 20
-13336.82459946041
 10
11713.2334328379
 20
-13313.60886116543
 42
-1.303226186855902
 10
11726.11244177304
 20
-13313.60886116543
 10
11719.90009950457
 20
-13336.82459946041
 42
1.303226186855902
 10
11732.7791084397
 20
-13336.82459946041
 10
11726.56676617124
 20
-13313.60886116543
 42
-1.303226186855902
 10
11739.44577510637
 20
-13313.60886116543
 10
11733.2334328379
 20
-13336.82459946041
 42
1.303226186855902
 10
11746.11244177304
 20
-13336.82459946041
 10
11739.90009950457
 20
-13313.60886116543
 42
-1.303226186855902
 10
11752.7791084397
 20
-13313.60886116543
 10
11746.56676617124
 20
-13336.82459946041
 42
1.303226186855902
 10
11759.44577510637
 20
-13336.82459946041
 10
11753.2334328379
 20
-13313.60886116543
 42
-1.303226186855902
 10
11766.11244177304
 20
-13313.60886116543
 10
11759.90009950457
 20
-13336.82459946041
 42
1.303226186855902
 10
11772.77910843971
 20
-13336.82459946041
 10
11766.56676617124
 20
-13313.60886116543
 42
-1.303226186855902
 10
11779.44577510637
 20
-13313.60886116543
 10
11773.2334328379
 20
-13336.82459946041
 42
1.303226186855902
 10
11786.11244177304
 20
-13336.82459946041
 10
11779.90009950457
 20
-13313.60886116543
 42
-1.303226186855902
 10
11792.77910843971
 20
-13313.60886116543
 10
11786.56676617124
 20
-13336.82459946041
 42
1.303226186855902
 10
11799.44577510637
 20
-13336.82459946041
 10
11793.2334328379
 20
-13313.60886116543
 42
-1.303226186855902
 10
11806.11244177304
 20
-13313.60886116543
 10
11799.90009950457
 20
-13336.82459946041
 42
1.303226186855902
 10
11812.77910843971
 20
-13336.82459946041
 10
11806.56676617124
 20
-13313.60886116543
 42
-1.303226186855902
 10
11819.44577510637
 20
-13313.60886116543
 10
11813.23343283791
 20
-13336.82459946041
 42
1.303226186855902
 10
11826.11244177304
 20
-13336.82459946041
 10
11819.90009950457
 20
-13313.60886116543
 42
-1.303226186855902
 10
11832.77910843971
 20
-13313.60886116543
 10
11826.56676617124
 20
-13336.82459946041
 42
1.303226186855902
 10
11839.44577510637
 20
-13336.82459946041
 10
11833.23343283791
 20
-13313.60886116543
 42
-1.303226186855902
 10
11846.11244177304
 20
-13313.60886116543
 10
11839.90009950458
 20
-13336.82459946041
 42
1.303226186855902
 10
11852.77910843971
 20
-13336.82459946041
 10
11846.56676617124
 20
-13313.60886116543
 42
-0.4932315095674578
 10
11853.00811304026
 20
-13305.2167305675
  0
HATCH
  5
221
330
1F
100
AcDbEntity
  8
Ech.1_5
  6
Continuous
 62
   254
420
 16643007
440
 33554687
370
     5
390
5F
100
AcDbHatch
 10
0.0
 20
0.0
 30
0.0
210
0.0
220
0.0
230
1.0
  2
SOLID
 70
     1
 71
     0
 91
        1
 92
        3
 72
     0
 73
     1
 93
       12
 10
11428.57233185553
 20
-12669.79874891087
 10
11428.57233185553
 20
-13190.82767313862
 10
11471.81328835395
 20
-13190.82734010372
 10
11488.29879150986
 20
-13172.84999169634
 10
11474.18885149205
 20
-13208.80569170815
 10
11490.67520557356
 20
-13190.82734010372
 10
11573.57233185553
 20
-13190.82732549022
 10
11573.57233185553
 20
-12669.7987200275
 10
11490.67520557356
 20
-12669.79814899065
 10
11474.18885149205
 20
-12687.77650059507
 10
11488.29879150986
 20
-12651.82080058326
 10
11471.81328835395
 20
-12669.79814899067
 97
        0
 75
     0
 76
     1
 98
        0
  0
HATCH
  5
222
330
1F
100
AcDbEntity
  8
Ech.1_5
  6
Continuous
 62
   190
440
 33554687
370
    15
390
5F
100
AcDbHatch
 10
0.0
 20
0.0
 30
0.0
210
0.0
220
0.0
230
1.0
  2
CwHatchPattern_201
 70
     0
 71
     0
 91
        1
 92
        3
 72
     0
 73
     1
 93
       12
 10
11428.57233185553
 20
-12669.79874891087
 10
11428.57233185553
 20
-13190.82767313862
 10
11471.81328835395
 20
-13190.82734010372
 10
11488.29879150986
 20
-13172.84999169634
 10
11474.18885149205
 20
-13208.80569170815
 10
11490.67520557356
 20
-13190.82734010372
 10
11573.57233185553
 20
-13190.82732549022
 10
11573.57233185553
 20
-12669.7987200275
 10
11490.67520557356
 20
-12669.79814899065
 10
11474.18885149205
 20
-12687.77650059507
 10
11488.29879150986
 20
-12651.82080058326
 10
11471.81328835395
 20
-12669.79814899067
 97
        0
 75
     0
 76
     2
 52
270.0
 41
2.900000095367432
 77
     0
 78
    29
 53
270.0
 43
11428.57233185553
 44
-12666.56239232998
 45
145.0000047683716
 46
0.0000000000000089
 79
     2
 49
6.472713161775587
 49
-17.69395934117938
 53
0.0000000000059286
 43
11448.81729044518
 44
-12645.63209066833
 45
-0.0000000000050012
 46
48.33333031336451
 79
     2
 49
3.921713481170173
 49
-141.0782912872014
 53
0.0000000000059286
 43
11549.40566455308
 44
-12669.79874891087
 45
-0.0000000000050012
 46
48.33333031336451
 79
     2
 49
3.921713481170173
 49
-141.0782912872014
 53
14.93246459961628
 43
11457.9230144833
 44
-12693.38940924543
 45
144.9993095038583
 46
48.33598144378939
 79
     2
 49
89.31476672155326
 49
-661.0203426301995
 53
345.0675354003956
 43
11457.9230144833
 44
-12694.54141888968
 45
-144.9993095038683
 46
48.33598144375938
 79
     2
 49
89.31476672155327
 49
-661.0203426301996
 53
285.2551193237315
 43
11428.57233185553
 44
-12673.03510549176
 45
0.0000012956450522
 46
48.33332879607747
 79
     2
 49
6.569094531198019
 49
-544.5157172931704
 53
74.74488830567492
 43
11428.57233185553
 44
-12666.56239232998
 45
-0.0000077316270883
 46
48.33332879607688
 79
     2
 49
6.569094531198019
 49
-544.5157172931704
 53
285.2551193237315
 43
11571.84389866652
 44
-12684.39143342129
 45
0.0000012956450522
 46
48.33332879607747
 79
     2
 49
6.569094531198019
 49
-544.5157172931704
 53
254.7448806762685
 43
11573.5723366239
 44
-12697.20176351823
 45
0.0000012956450574
 46
-48.33332879607747
 79
     2
 49
6.569094531198019
 49
-544.5157172931704
 53
300.9637565612813
 43
11430.30077543065
 44
-12679.372722643
 45
-0.0000003210802765
 46
48.33333866514959
 79
     2
 49
6.310936569088454
 49
-275.5184006697027
 53
59.03623962403325
 43
11430.30077543065
 44
-12660.1890187088
 45
0.0000035390569452
 46
48.33333866514947
 79
     2
 49
6.310936569088454
 49
-275.5184006697027
 53
300.9637565612813
 43
11568.59693601244
 44
-12678.97985953527
 45
-0.0000003210802765
 46
48.33333866514959
 79
     2
 49
6.310936569088454
 49
-275.5184006697027
 53
239.0362434387187
 43
11571.84389866652
 44
-12703.53939471382
 45
-0.0000003210802688
 46
-48.33333866514959
 79
     2
 49
6.310936569088454
 49
-275.5184006697027
 53
315.000000000003
 43
11433.54773160273
 44
-12684.78429652901
 45
-0.0000000000025036
 46
48.33334305883081
 79
     2
 49
5.366870520176406
 49
-199.6941079006228
 53
45.0000000000089
 43
11433.54773160273
 44
-12654.81320129273
 45
-0.0000000000075108
 46
48.33334305883081
 79
     2
 49
5.366870520176406
 49
-199.6941079006228
 53
315.000000000003
 43
11564.80200018437
 44
-12675.18491895372
 45
-0.0000000000025036
 46
48.33334305883081
 79
     2
 49
5.366870520176406
 49
-199.6941079006228
 53
224.999999999997
 43
11568.59693601244
 44
-12708.95097032837
 45
-0.000000000002483
 46
-48.33334305883081
 79
     2
 49
5.366870520176406
 49
-199.6941079006228
 53
326.3099327087439
 43
11437.34267175214
 44
-12688.57925137097
 45
-0.0000054715094032
 46
48.33333736175739
 79
     2
 49
5.629320866217142
 49
-168.6389897490858
 53
33.69006347657064
 43
11437.34267175214
 44
-12651.01824645077
 45
0.0000086894859947
 46
48.33333736175692
 79
     2
 49
5.629320866217142
 49
-168.6389897490858
 53
326.3099327087439
 43
11560.11811350232
 44
-12672.06232956089
 45
-0.0000054715094032
 46
48.33333736175739
 79
     2
 49
5.629320866217142
 49
-168.6389897490858
 53
213.690067291256
 43
11564.80200018437
 44
-12712.74592344179
 45
-0.000005471509411
 46
-48.33333736175739
 79
     2
 49
5.629320866217142
 49
-168.6389897490858
 53
341.5650482177782
 43
11442.02654892724
 44
-12691.7018407638
 45
-0.0000024231020286
 46
48.3333407928251
 79
     2
 49
7.158070278124811
 49
-145.6853618847208
 53
18.43495178223369
 43
11442.02654892724
 44
-12647.89565705794
 45
0.0000024230920373
 46
48.3333407928251
 79
     2
 49
7.15807027812481
 49
-145.6853618847208
 53
341.5650482177782
 43
11553.32737803425
 44
-12669.79874891087
 45
-0.0000024231020286
 46
48.3333407928251
 79
     2
 49
7.158070278124811
 49
-145.6853618847208
 53
198.4349517822218
 43
11560.11811350232
 44
-12715.86849727781
 45
-0.0000024231020311
 46
-48.3333407928251
 79
     2
 49
7.158070278124811
 49
-145.6853618847208
 53
353.6598052978571
 43
11452.73899009807
 44
-12645.63209066833
 45
-290.0000241734639
 46
48.33334860488388
 79
     2
 49
5.215925790533547
 49
-432.4610318302621
 53
6.340194702154776
 43
11452.73899009807
 44
-12693.96540715341
 45
290.0000241734539
 46
48.33334860494382
 79
     2
 49
5.215925790533546
 49
-432.461031830262
 53
173.659820556658
 43
11549.40566455308
 44
-12669.79874891087
 45
290.0000370454129
 46
-48.33327137314422
 79
     2
 49
5.215925790533547
 49
-432.4610318302621
 53
186.3401947021429
 43
11549.40566455308
 44
-12669.79874891087
 45
-290.0000241734639
 46
-48.33334860488391
 79
     2
 49
5.215925790533547
 49
-432.4610318302621
 98
        0
1001
ACAD
1010
11428.57233185553
1020
-12669.79874891087
1030
0.0
  0
LWPOLYLINE
  5
223
330
1F
100
AcDbEntity
  8
Ech.1_5
  6
Continuous
 62
   190
370
    15
390
5F
100
AcDbPolyline
 90
       13
 70
     0
 43
0.0
 10
11428.57233185553
 20
-12669.79874891087
 10
11428.57233185553
 20
-13190.82767313862
 10
11471.81328835395
 20
-13190.82734010372
 10
11488.29879150986
 20
-13172.84999169634
 10
11474.18885149205
 20
-13208.80569170815
 10
11490.67520557356
 20
-13190.82734010372
 10
11573.57233185553
 20
-13190.82732549022
 10
11573.57233185553
 20
-12669.7987200275
 10
11490.67520557356
 20
-12669.79814899065
 10
11474.18885149205
 20
-12687.77650059507
 10
11488.29879150986
 20
-12651.82080058326
 10
11471.81328835395
 20
-12669.79814899067
 10
11428.57233185553
 20
-12669.79874891087
  0
HATCH
  5
224
330
1F
100
AcDbEntity
  8
Ech.1_5
  6
Continuous
 62
   254
420
 16643007
440
 33554687
370
     5
390
5F
100
AcDbHatch
 10
0.0
 20
0.0
 30
0.0
210
0.0
220
0.0
230
1.0
  2
SOLID
 70
     1
 71
     0
 91
        1
 92
        3
 72
     0
 73
     1
 93
       12
 10
11853.00811304027
 20
-13345.21673031292
 10
11253.00627063878
 20
-13345.21673031292
 10
11253.00564758935
 20
-13412.5068941649
 10
11270.98399919377
 20
-13428.99324824644
 10
11235.02829918197
 20
-13414.88330822864
 10
11253.00564758936
 20
-13431.36881138449
 10
11253.00655226493
 20
-13490.21673031292
 10
11853.00834250377
 20
-13490.21673031292
 10
11853.00659229881
 20
-13431.36881138449
 10
11835.02924389142
 20
-13414.88330822858
 10
11870.98494390322
 20
-13428.99324824638
 10
11853.0065922988
 20
-13412.50689416484
 97
        0
 75
     0
 76
     1
 98
        0
  0
HATCH
  5
225
330
1F
100
AcDbEntity
  8
Ech.1_5
  6
Continuous
 62
   190
440
 33554687
370
    15
390
5F
100
AcDbHatch
 10
0.0
 20
0.0
 30
0.0
210
0.0
220
0.0
230
1.0
  2
CwHatchPattern_201
 70
     0
 71
     0
 91
        1
 92
        3
 72
     0
 73
     1
 93
       12
 10
11853.00811304027
 20
-13345.21673031292
 10
11253.00627063878
 20
-13345.21673031292
 10
11253.00564758935
 20
-13412.5068941649
 10
11270.98399919377
 20
-13428.99324824644
 10
11235.02829918197
 20
-13414.88330822864
 10
11253.00564758936
 20
-13431.36881138449
 10
11253.00655226493
 20
-13490.21673031292
 10
11853.00834250377
 20
-13490.21673031292
 10
11853.00659229881
 20
-13431.36881138449
 10
11835.02924389142
 20
-13414.88330822858
 10
11870.98494390322
 20
-13428.99324824638
 10
11853.0065922988
 20
-13412.50689416484
 97
        0
 75
     0
 76
     2
 52
180.0
 41
2.900000095367432
 77
     0
 78
    29
 53
180.0
 43
11856.24446962116
 44
-13345.21673031292
 45
-0.0000000000000178
 46
-145.0000047683716
 79
     2
 49
6.472713161775587
 49
-17.69395934117938
 53
270.0000000000059
 43
11877.17477128281
 44
-13365.46168890257
 45
48.33333031336451
 46
0.0000000000049708
 79
     2
 49
3.921713481170173
 49
-141.0782912872014
 53
270.0000000000059
 43
11853.00811304027
 44
-13466.05006301047
 45
48.33333031336451
 46
0.0000000000049708
 79
     2
 49
3.921713481170173
 49
-141.0782912872014
 53
284.9324645996163
 43
11829.41745270571
 44
-13374.56741294068
 45
48.3359814437894
 46
-144.9993095038583
 79
     2
 49
89.31476672155326
 49
-661.0203426301995
 53
255.0675354003955
 43
11828.26544306146
 44
-13374.56741294068
 45
48.33598144375944
 46
144.9993095038682
 79
     2
 49
89.31476672155327
 49
-661.0203426301996
 53
195.2551193237314
 43
11849.77175645938
 44
-13345.21673031292
 45
48.33332879607747
 46
-0.0000012956450728
 79
     2
 49
6.569094531198019
 49
-544.5157172931704
 53
344.744888305675
 43
11856.24446962116
 44
-13345.21673031292
 45
48.33332879607688
 46
0.0000077316270986
 79
     2
 49
6.569094531198019
 49
-544.5157172931704
 53
195.2551193237314
 43
11838.41542852985
 44
-13488.48829712391
 45
48.33332879607747
 46
-0.0000012956450728
 79
     2
 49
6.569094531198019
 49
-544.5157172931704
 53
164.7448806762685
 43
11825.6050984329
 44
-13490.21673508129
 45
-48.33332879607747
 46
-0.0000012956450599
 79
     2
 49
6.569094531198019
 49
-544.5157172931704
 53
210.9637565612813
 43
11843.43413930814
 44
-13346.94517388804
 45
48.33333866514959
 46
0.0000003210802688
 79
     2
 49
6.310936569088454
 49
-275.5184006697027
 53
329.0362396240333
 43
11862.61784324234
 44
-13346.94517388804
 45
48.33333866514947
 46
-0.0000035390569323
 79
     2
 49
6.310936569088454
 49
-275.5184006697027
 53
210.9637565612813
 43
11843.82700241587
 44
-13485.24133446983
 45
48.33333866514959
 46
0.0000003210802688
 79
     2
 49
6.310936569088454
 49
-275.5184006697027
 53
149.0362434387187
 43
11819.26746723732
 44
-13488.48829712391
 45
-48.33333866514959
 46
0.0000003210802791
 79
     2
 49
6.310936569088454
 49
-275.5184006697027
 53
225.0000000000029
 43
11838.02256542212
 44
-13350.19213006011
 45
48.33334305883081
 46
0.000000000002483
 79
     2
 49
5.366870520176406
 49
-199.6941079006228
 53
315.0000000000089
 43
11867.99366065841
 44
-13350.19213006011
 45
48.33334305883081
 46
0.0000000000075005
 79
     2
 49
5.366870520176406
 49
-199.6941079006228
 53
225.0000000000029
 43
11847.62194299741
 44
-13481.44639864175
 45
48.33334305883081
 46
0.000000000002483
 79
     2
 49
5.366870520176406
 49
-199.6941079006228
 53
134.999999999997
 43
11813.85589162277
 44
-13485.24133446983
 45
-48.33334305883081
 46
0.0000000000024933
 79
     2
 49
5.366870520176406
 49
-199.6941079006228
 53
236.309932708744
 43
11834.22761058016
 44
-13353.98707020952
 45
48.33333736175739
 46
0.0000054715094084
 79
     2
 49
5.629320866217141
 49
-168.6389897490858
 53
303.6900634765706
 43
11871.78861550037
 44
-13353.98707020952
 45
48.33333736175692
 46
-0.000008689486023
 79
     2
 49
5.629320866217142
 49
-168.6389897490858
 53
236.309932708744
 43
11850.74453239024
 44
-13476.7625119597
 45
48.33333736175739
 46
0.0000054715094084
 79
     2
 49
5.629320866217141
 49
-168.6389897490858
 53
123.690067291256
 43
11810.06093850934
 44
-13481.44639864175
 45
-48.33333736175739
 46
0.0000054715094187
 79
     2
 49
5.629320866217142
 49
-168.6389897490858
 53
251.5650482177782
 43
11831.10502118734
 44
-13358.67094738463
 45
48.3333407928251
 46
0.0000024231020286
 79
     2
 49
7.158070278124811
 49
-145.6853618847208
 53
288.4349517822337
 43
11874.9112048932
 44
-13358.67094738463
 45
48.3333407928251
 46
-0.0000024230920476
 79
     2
 49
7.158070278124811
 49
-145.6853618847208
 53
251.5650482177782
 43
11853.00811304027
 44
-13469.97177649164
 45
48.3333407928251
 46
0.0000024231020286
 79
     2
 49
7.158070278124811
 49
-145.6853618847208
 53
108.4349517822219
 43
11806.93836467333
 44
-13476.7625119597
 45
-48.3333407928251
 46
0.0000024231020311
 79
     2
 49
7.158070278124811
 49
-145.6853618847208
 53
263.6598052978571
 43
11877.17477128281
 44
-13369.38338855546
 45
48.33334860488393
 46
290.0000241734639
 79
     2
 49
5.215925790533547
 49
-432.4610318302621
 53
276.3401947021548
 43
11828.84145479772
 44
-13369.38338855546
 45
48.33334860494384
 46
-290.0000241734539
 79
     2
 49
5.215925790533546
 49
-432.461031830262
 53
83.65982055665796
 43
11853.00811304027
 44
-13466.05006301047
 45
-48.33327137314428
 46
-290.0000370454129
 79
     2
 49
5.215925790533547
 49
-432.4610318302621
 53
96.34019470214294
 43
11853.00811304027
 44
-13466.05006301047
 45
-48.33334860488386
 46
290.0000241734639
 79
     2
 49
5.215925790533547
 49
-432.4610318302621
 98
        0
1001
ACAD
1010
11853.00811304027
1020
-13345.21673031292
1030
0.0
  0
LWPOLYLINE
  5
226
330
1F
100
AcDbEntity
  8
Ech.1_5
  6
Continuous
 62
   190
370
    15
390
5F
100
AcDbPolyline
 90
       13
 70
     0
 43
0.0
 10
11853.00811304027
 20
-13345.21673031292
 10
11253.00627063878
 20
-13345.21673031292
 10
11253.00564758935
 20
-13412.5068941649
 10
11270.98399919377
 20
-13428.99324824644
 10
11235.02829918197
 20
-13414.88330822864
 10
11253.00564758936
 20
-13431.36881138449
 10
11253.00655226493
 20
-13490.21673031292
 10
11853.00834250377
 20
-13490.21673031292
 10
11853.00659229881
 20
-13431.36881138449
 10
11835.02924389142
 20
-13414.88330822858
 10
11870.98494390322
 20
-13428.99324824638
 10
11853.0065922988
 20
-13412.50689416484
 10
11853.00811304027
 20
-13345.21673031292
  0
HATCH
  5
227
330
1F
100
AcDbEntity
  8
Ech.1_5
  6
Continuous
 62
   254
420
 16643007
440
 33554687
370
    20
390
5F
100
AcDbHatch
 10
0.0
 20
0.0
 30
0.0
210
0.0
220
0.0
230
1.0
  2
SOLID
 70
     1
 71
     0
 91
        1
 92
        3
 72
     0
 73
     1
 93
        4
 10
11253.00655226493
 20
-13499.21673031292
 10
11253.00691398508
 20
-13559.21277023169
 10
11853.00836377643
 20
-13559.21277023169
 10
11853.00834250377
 20
-13499.21673031292
 97
        0
 75
     0
 76
     1
 98
        0
  0
LWPOLYLINE
  5
228
330
1F
100
AcDbEntity
  8
Ech.1_5
  6
Continuous
 62
   190
370
    15
390
5F
100
AcDbPolyline
 90
        5
 70
     0
 43
0.0
 10
11253.00655226493
 20
-13499.21673031292
 10
11253.00691398508
 20
-13559.21277023169
 10
11853.00836377643
 20
-13559.21277023169
 10
11853.00834250377
 20
-13499.21673031292
 10
11253.00655226493
 20
-13499.21673031292
  0
HATCH
  5
229
330
1F
100
AcDbEntity
  8
Ech.1_5
  6
Continuous
 62
   254
420
 16643007
440
 33554687
370
    20
390
5F
100
AcDbHatch
 10
0.0
 20
0.0
 30
0.0
210
0.0
220
0.0
230
1.0
  2
SOLID
 70
     1
 71
     0
 91
        1
 92
        3
 72
     0
 73
     1
 93
        4
 10
11419.57233185553
 20
-12669.79874891087
 10
11359.57629193677
 20
-12669.79911063103
 10
11359.57629193677
 20
-13190.82764085852
 10
11419.57233185553
 20
-13190.82761958586
 97
        0
 75
     0
 76
     1
 98
        0
  0
LWPOLYLINE
  5
22A
330
1F
100
AcDbEntity
  8
Ech.1_5
  6
Continuous
 62
   190
370
    15
390
5F
100
AcDbPolyline
 90
        5
 70
     0
 43
0.0
 10
11419.57233185553
 20
-12669.79874891087
 10
11359.57629193677
 20
-12669.79911063103
 10
11359.57629193677
 20
-13190.82764085852
 10
11419.57233185553
 20
-13190.82761958586
 10
11419.57233185553
 20
-12669.79874891087
  0
LWPOLYLINE
  5
22B
330
1F
100
AcDbEntity
  8
Ech.1_5
  6
Continuous
 62
   190
370
    15
390
5F
100
AcDbPolyline
 90
      104
 70
     0
 43
0.0
 10
11409.57629193677
 20
-13190.82764085852
 42
1.1402818051211
 10
11406.98809565801
 20
-13171.16838415719
 10
11372.16448821553
 20
-13180.48689755987
 42
-1.30322618685663
 10
11372.16448821553
 20
-13161.16838415719
 10
11406.98809565801
 20
-13170.48689755987
 42
1.30322618685663
 10
11406.98809565801
 20
-13151.16838415719
 10
11372.16448821553
 20
-13160.48689755987
 42
-1.30322618685663
 10
11372.16448821553
 20
-13141.16838415719
 10
11406.98809565801
 20
-13150.48689755987
 42
1.30322618685663
 10
11406.98809565801
 20
-13131.16838415719
 10
11372.16448821553
 20
-13140.48689755987
 42
-1.30322618685663
 10
11372.16448821553
 20
-13121.16838415719
 10
11406.98809565801
 20
-13130.48689755987
 42
1.30322618685663
 10
11406.98809565801
 20
-13111.16838415719
 10
11372.16448821553
 20
-13120.48689755987
 42
-1.30322618685663
 10
11372.16448821553
 20
-13101.16838415719
 10
11406.98809565801
 20
-13110.48689755987
 42
1.30322618685663
 10
11406.98809565801
 20
-13091.16838415719
 10
11372.16448821553
 20
-13100.48689755987
 42
-1.30322618685663
 10
11372.16448821553
 20
-13081.16838415719
 10
11406.98809565801
 20
-13090.48689755987
 42
1.30322618685663
 10
11406.98809565801
 20
-13071.16838415719
 10
11372.16448821553
 20
-13080.48689755987
 42
-1.30322618685663
 10
11372.16448821553
 20
-13061.16838415719
 10
11406.98809565801
 20
-13070.48689755987
 42
1.30322618685663
 10
11406.98809565801
 20
-13051.16838415719
 10
11372.16448821553
 20
-13060.48689755987
 42
-1.30322618685663
 10
11372.16448821553
 20
-13041.16838415719
 10
11406.98809565801
 20
-13050.48689755987
 42
1.30322618685663
 10
11406.98809565801
 20
-13031.16838415719
 10
11372.16448821553
 20
-13040.48689755987
 42
-1.30322618685663
 10
11372.16448821553
 20
-13021.16838415719
 10
11406.98809565801
 20
-13030.48689755987
 42
1.30322618685663
 10
11406.98809565801
 20
-13011.16838415719
 10
11372.16448821553
 20
-13020.48689755987
 42
-1.30322618685663
 10
11372.16448821553
 20
-13001.16838415719
 10
11406.98809565801
 20
-13010.48689755987
 42
1.30322618685663
 10
11406.98809565801
 20
-12991.16838415719
 10
11372.16448821553
 20
-13000.48689755987
 42
-1.30322618685663
 10
11372.16448821553
 20
-12981.16838415719
 10
11406.98809565801
 20
-12990.48689755987
 42
1.30322618685663
 10
11406.98809565801
 20
-12971.16838415719
 10
11372.16448821553
 20
-12980.48689755987
 42
-1.30322618685663
 10
11372.16448821553
 20
-12961.16838415719
 10
11406.98809565801
 20
-12970.48689755987
 42
1.30322618685663
 10
11406.98809565801
 20
-12951.16838415719
 10
11372.16448821553
 20
-12960.48689755987
 42
-1.30322618685663
 10
11372.16448821553
 20
-12941.16838415719
 10
11406.98809565801
 20
-12950.48689755987
 42
1.30322618685663
 10
11406.98809565801
 20
-12931.16838415719
 10
11372.16448821553
 20
-12940.48689755987
 42
-1.30322618685663
 10
11372.16448821553
 20
-12921.16838415719
 10
11406.98809565801
 20
-12930.48689755987
 42
1.30322618685663
 10
11406.98809565801
 20
-12911.16838415719
 10
11372.16448821553
 20
-12920.48689755987
 42
-1.30322618685663
 10
11372.16448821553
 20
-12901.16838415719
 10
11406.98809565801
 20
-12910.48689755987
 42
1.303226186854667
 10
11406.98809565801
 20
-12891.16838415716
 10
11372.16448821553
 20
-12900.48689755987
 42
-1.303226186854667
 10
11372.16448821553
 20
-12881.16838415716
 10
11406.98809565801
 20
-12890.48689755987
 42
1.303226186854667
 10
11406.98809565801
 20
-12871.16838415716
 10
11372.16448821553
 20
-12880.48689755987
 42
-1.303226186854667
 10
11372.16448821553
 20
-12861.16838415716
 10
11406.98809565801
 20
-12870.48689755987
 42
1.303226186854667
 10
11406.98809565801
 20
-12851.16838415716
 10
11372.16448821553
 20
-12860.48689755987
 42
-1.303226186854667
 10
11372.16448821553
 20
-12841.16838415716
 10
11406.98809565801
 20
-12850.48689755987
 42
1.303226186854667
 10
11406.98809565801
 20
-12831.16838415716
 10
11372.16448821553
 20
-12840.48689755987
 42
-1.303226186854667
 10
11372.16448821553
 20
-12821.16838415716
 10
11406.98809565801
 20
-12830.48689755987
 42
1.303226186854667
 10
11406.98809565801
 20
-12811.16838415716
 10
11372.16448821553
 20
-12820.48689755987
 42
-1.303226186854667
 10
11372.16448821553
 20
-12801.16838415716
 10
11406.98809565801
 20
-12810.48689755987
 42
1.303226186854667
 10
11406.98809565801
 20
-12791.16838415716
 10
11372.16448821553
 20
-12800.48689755987
 42
-1.303226186854667
 10
11372.16448821553
 20
-12781.16838415716
 10
11406.98809565801
 20
-12790.48689755987
 42
1.303226186854667
 10
11406.98809565801
 20
-12771.16838415716
 10
11372.16448821553
 20
-12780.48689755987
 42
-1.303226186854667
 10
11372.16448821553
 20
-12761.16838415716
 10
11406.98809565801
 20
-12770.48689755987
 42
1.303226186854667
 10
11406.98809565801
 20
-12751.16838415716
 10
11372.16448821553
 20
-12760.48689755987
 42
-1.303226186854667
 10
11372.16448821553
 20
-12741.16838415716
 10
11406.98809565801
 20
-12750.48689755987
 42
1.303226186854667
 10
11406.98809565801
 20
-12731.16838415716
 10
11372.16448821553
 20
-12740.48689755987
 42
-1.303226186854667
 10
11372.16448821553
 20
-12721.16838415716
 10
11406.98809565801
 20
-12730.48689755987
 42
1.303226186854667
 10
11406.98809565801
 20
-12711.16838415716
 10
11372.16448821553
 20
-12720.48689755987
 42
-1.303226186854667
 10
11372.16448821553
 20
-12701.16838415716
 10
11406.98809565801
 20
-12710.48689755987
 42
1.303226186854667
 10
11406.98809565801
 20
-12691.16838415716
 10
11372.16448821553
 20
-12700.48689755987
 42
-1.303226186854667
 10
11372.16448821553
 20
-12681.16838415716
 10
11406.98809565801
 20
-12690.48689755987
 42
1.303226186854667
 10
11406.98809565801
 20
-12671.16838415716
 10
11372.16448821553
 20
-12680.48689755987
 42
-0.5256021922916647
 10
11359.62937185501
 20
-12669.7986700683
  0
HATCH
  5
22C
330
1F
100
AcDbEntity
  8
Ech.1_5
  6
Continuous
 62
   254
420
 15656413
440
 33554687
370
    20
390
5F
100
AcDbHatch
 10
0.0
 20
0.0
 30
0.0
210
0.0
220
0.0
230
1.0
  2
SOLID
 70
     1
 71
     0
 91
        1
 92
        3
 72
     0
 73
     1
 93
        4
 10
11573.57233185553
 20
-12746.73344277504
 10
11613.57233185553
 20
-12746.73344277504
 10
11613.57233185553
 20
-12791.73344277504
 10
11573.57233185553
 20
-12791.73344277504
 97
        0
 75
     0
 76
     1
 98
        0
  0
LWPOLYLINE
  5
22D
330
1F
100
AcDbEntity
  8
Ech.1_5
  6
Continuous
 62
   190
370
    15
390
5F
100
AcDbPolyline
 90
        5
 70
     0
 43
0.0
 10
11573.57233185553
 20
-12746.73344277504
 10
11613.57233185553
 20
-12746.73344277504
 10
11613.57233185553
 20
-12791.73344277504
 10
11573.57233185553
 20
-12791.73344277504
 10
11573.57233185553
 20
-12746.73344277504
  0
HATCH
  5
22E
330
1F
100
AcDbEntity
  8
Ech.1_5
  6
Continuous
 62
   254
420
 15656413
440
 33554687
370
    20
390
5F
100
AcDbHatch
 10
0.0
 20
0.0
 30
0.0
210
0.0
220
0.0
230
1.0
  2
SOLID
 70
     1
 71
     0
 91
        1
 92
        3
 72
     0
 73
     1
 93
        4
 10
11573.57233185553
 20
-13051.56467200325
 10
11613.57233185553
 20
-13051.56467200325
 10
11613.57233185553
 20
-13096.56467200325
 10
11573.57233185553
 20
-13096.56467200325
 97
        0
 75
     0
 76
     1
 98
        0
  0
LWPOLYLINE
  5
22F
330
1F
100
AcDbEntity
  8
Ech.1_5
  6
Continuous
 62
   190
370
    15
390
5F
100
AcDbPolyline
 90
        5
 70
     0
 43
0.0
 10
11573.57233185553
 20
-13051.56467200325
 10
11613.57233185553
 20
-13051.56467200325
 10
11613.57233185553
 20
-13096.56467200325
 10
11573.57233185553
 20
-13096.56467200325
 10
11573.57233185553
 20
-13051.56467200325
  0
LINE
  5
230
330
1F
100
AcDbEntity
  8
Ech.1_5
  6
Continuous
 62
     7
370
    18
390
5F
100
AcDbLine
 10
11419.57629193677
 20
-12669.7986700683
 30
0.0
 11
11419.57629193677
 21
-13190.82764085852
 31
0.0
  0
LINE
  5
231
330
1F
100
AcDbEntity
  8
Ech.1_5
  6
Continuous
 62
     0
370
    20
390
5F
100
AcDbLine
 10
11573.57233185553
 20
-12669.7987200275
 30
0.0
 11
11573.57233185553
 21
-13190.82732549022
 31
0.0
  0
LWPOLYLINE
  5
232
330
1F
100
AcDbEntity
  8
Ech.1_5
  6
Continuous
 62
   190
370
    15
390
5F
100
AcDbPolyline
 90
        6
 70
     0
 43
0.0
 10
11302.66775483497
 20
-12669.79945373641
 10
11471.81328835395
 20
-12669.79814899067
 10
11488.29879150986
 20
-12651.82080058326
 10
11474.18885149205
 20
-12687.77650059507
 10
11490.67520557356
 20
-12669.79814899065
 10
11646.5296720476
 20
-12669.79814899065
  0
LINE
  5
233
330
1F
100
AcDbEntity
  8
Ech.1_5
  6
Continuous
 62
   190
370
    15
390
5F
100
AcDbLine
 10
11573.57233185553
 20
-13190.82734010372
 30
0.0
 11
11573.57233185553
 21
-12669.79814899065
 31
0.0
  0
LWPOLYLINE
  5
234
330
1F
100
AcDbEntity
  8
Ech.1_5
  6
ByBlock
 62
     0
370
    20
390
5F
100
AcDbPolyline
 90
        3
 70
   128
 43
0.0
 10
11424.75329696028
 20
-13026.08581937492
 42
1.0
 10
11427.25329696028
 20
-13026.08581937492
 42
1.0
 10
11424.75329696028
 20
-13026.08581937492
  0
LINE
  5
235
330
1F
100
AcDbEntity
  8
Ech.1_5
  6
ByBlock
 62
     0
370
    20
390
5F
100
AcDbLine
 10
11423.50329696028
 20
-13026.08581937492
 30
0.0
 11
11421.00329696028
 21
-13026.08581937492
 31
0.0
  0
LINE
  5
236
330
1F
100
AcDbEntity
  8
Ech.1_5
  6
Continuous
 62
   190
370
    15
390
5F
100
AcDbLine
 10
11613.57233185553
 20
-12746.73344277504
 30
0.0
 11
11573.57233185553
 21
-12791.73344277504
 31
0.0
  0
LINE
  5
237
330
1F
100
AcDbEntity
  8
Ech.1_5
  6
Continuous
 62
   190
370
    15
390
5F
100
AcDbLine
 10
11613.57233185553
 20
-12791.73344277504
 30
0.0
 11
11573.57233185553
 21
-12746.73344277504
 31
0.0
  0
LWPOLYLINE
  5
238
330
1F
100
AcDbEntity
  8
Ech.1_5
  6
Continuous
 62
   190
370
    15
390
5F
100
AcDbPolyline
 90
        5
 70
     0
 43
0.0
 10
11573.57233185553
 20
-12746.73344277504
 10
11613.57233185553
 20
-12746.73344277504
 10
11613.57233185553
 20
-12791.73344277504
 10
11573.57233185553
 20
-12791.73344277504
 10
11573.57233185553
 20
-12746.73344277504
  0
HATCH
  5
23A
330
1F
100
AcDbEntity
  8
Ech.1_5
  6
Continuous
 62
   254
420
 14407639
440
 33554687
370
     5
390
5F
100
AcDbHatch
 10
0.0
 20
0.0
 30
0.0
210
0.0
220
0.0
230
1.0
  2
SOLID
 70
     1
 71
     0
 91
        1
 92
        3
 72
     0
 73
     1
 93
        4
 10
11613.57233185553
 20
-12669.79886126205
 10
11626.57233185553
 20
-12669.79886126205
 10
11626.57233185553
 20
-13190.82776395759
 10
11613.57233185553
 20
-13190.82776395759
 97
        0
 75
     0
 76
     1
 98
        0
  0
HATCH
  5
23B
330
1F
100
AcDbEntity
  8
Ech.1_5
  6
Continuous
 62
   190
440
 33554687
370
    15
390
239
100
AcDbHatch
 10
0.0
 20
0.0
 30
0.0
210
0.0
220
0.0
230
1.0
  2
CwHatchPattern_84
 70
     0
 71
     0
 91
        1
 92
        3
 72
     0
 73
     1
 93
        4
 10
11613.57233185553
 20
-12669.79886126205
 10
11626.57233185553
 20
-12669.79886126205
 10
11626.57233185553
 20
-13190.82776395759
 10
11613.57233185553
 20
-13190.82776395759
 97
        0
 75
     0
 76
     2
 52
0.0
 41
1.0
 77
     0
 78
     2
 53
0.0
 43
0.0
 44
0.0
 45
0.0
 46
70.0
 79
     2
 49
0.0
 49
-70.0
 53
0.0
 43
35.0
 44
35.0
 45
0.0
 46
70.0
 79
     2
 49
0.0
 49
-70.0
 98
        0
1001
ACAD
1010
0.0
1020
0.0
1030
0.0
  0
LWPOLYLINE
  5
23C
330
1F
100
AcDbEntity
  8
Ech.1_5
  6
Continuous
 62
   190
370
    15
390
5F
100
AcDbPolyline
 90
        5
 70
     0
 43
0.0
 10
11613.57233185553
 20
-12669.79886126205
 10
11626.57233185553
 20
-12669.79886126205
 10
11626.57233185553
 20
-13190.82776395759
 10
11613.57233185553
 20
-13190.82776395759
 10
11613.57233185553
 20
-12669.79886126205
  0
LWPOLYLINE
  5
23D
330
1F
100
AcDbEntity
  8
Ech.1_5
  6
Continuous
 62
     5
370
    40
390
5F
100
AcDbPolyline
 90
        5
 70
     0
 43
0.0
 10
11573.57233185553
 20
-12746.73344277504
 10
11613.57233185553
 20
-12746.73344277504
 10
11613.57233185553
 20
-12791.73344277504
 10
11573.57233185553
 20
-12791.73344277504
 10
11573.57233185553
 20
-12746.73344277504
  0
LWPOLYLINE
  5
23E
330
1F
100
AcDbEntity
  8
Ech.1_5
  6
Continuous
 62
     5
370
    40
390
5F
100
AcDbPolyline
 90
        5
 70
     0
 43
0.0
 10
11573.57233185553
 20
-13051.56467200325
 10
11613.57233185553
 20
-13051.56467200325
 10
11613.57233185553
 20
-13096.56467200325
 10
11573.57233185553
 20
-13096.56467200325
 10
11573.57233185553
 20
-13051.56467200325
  0
HATCH
  5
23F
330
1F
100
AcDbEntity
  8
Ech.1_5
  6
Continuous
 62
    40
420
 16297258
440
 33554687
370
     5
390
5F
100
AcDbHatch
 10
0.0
 20
0.0
 30
0.0
210
0.0
220
0.0
230
1.0
  2
SOLID
 70
     1
 71
     0
 91
        1
 92
        3
 72
     0
 73
     1
 93
        4
 10
11419.57233185553
 20
-12669.79874891087
 10
11428.57233185553
 20
-12669.79874891087
 10
11428.57233185553
 20
-13190.82788564036
 10
11419.57233185553
 20
-13190.82788564036
 97
        0
 75
     0
 76
     1
 98
        0
  0
HATCH
  5
240
330
1F
100
AcDbEntity
  8
Ech.1_5
  6
Continuous
 62
   190
440
 33554687
370
    15
390
5F
100
AcDbHatch
 10
0.0
 20
0.0
 30
0.0
210
0.0
220
0.0
230
1.0
  2
CwHatchPattern_74
 70
     0
 71
     0
 91
        1
 92
        3
 72
     0
 73
     1
 93
        4
 10
11419.57233185553
 20
-12669.79874891087
 10
11428.57233185553
 20
-12669.79874891087
 10
11428.57233185553
 20
-13190.82788564036
 10
11419.57233185553
 20
-13190.82788564036
 97
        0
 75
     0
 76
     2
 52
0.0
 41
0.6000000238418579
 77
     0
 78
     3
 53
45.00000000000297
 43
0.0
 44
0.0
 45
-0.0000000000043443
 46
42.00000166893005
 79
     0
 53
45.00000000000297
 43
0.0
 44
10.80000042915344
 45
-0.0000000000043443
 46
42.00000166893005
 79
     0
 53
45.00000000000297
 43
0.0
 44
21.60000085830688
 45
-0.0000000000043443
 46
42.00000166893005
 79
     0
 98
        0
1001
ACAD
1010
0.0
1020
0.0
1030
0.0
  0
LWPOLYLINE
  5
241
330
1F
100
AcDbEntity
  8
Ech.1_5
  6
Continuous
 62
   190
370
    15
390
5F
100
AcDbPolyline
 90
        5
 70
     0
 43
0.0
 10
11419.57233185553
 20
-12669.79874891087
 10
11428.57233185553
 20
-12669.79874891087
 10
11428.57233185553
 20
-13190.82788564036
 10
11419.57233185553
 20
-13190.82788564036
 10
11419.57233185553
 20
-12669.79874891087
  0
LINE
  5
242
330
1F
100
AcDbEntity
  8
Ech.1_5
  6
Continuous
 62
   190
370
    15
390
5F
100
AcDbLine
 10
11613.57233185553
 20
-13051.56467200325
 30
0.0
 11
11573.57233185553
 21
-13096.56467200325
 31
0.0
  0
LINE
  5
243
330
1F
100
AcDbEntity
  8
Ech.1_5
  6
Continuous
 62
   190
370
    15
390
5F
100
AcDbLine
 10
11613.57233185553
 20
-13096.56467200325
 30
0.0
 11
11573.57233185553
 21
-13051.56467200325
 31
0.0
  0
LWPOLYLINE
  5
244
330
1F
100
AcDbEntity
  8
Ech.1_5
  6
Continuous
 62
   190
370
    15
390
5F
100
AcDbPolyline
 90
        5
 70
     0
 43
0.0
 10
11573.57233185553
 20
-13051.56467200325
 10
11613.57233185553
 20
-13051.56467200325
 10
11613.57233185553
 20
-13096.56467200325
 10
11573.57233185553
 20
-13096.56467200325
 10
11573.57233185553
 20
-13051.56467200325
  0
LWPOLYLINE
  5
246
330
1F
100
AcDbEntity
  8
Ech.1_5
  6
CADWORK_22
 62
     1
 48
0.6
370
    35
390
5F
100
AcDbPolyline
 90
        2
 70
   128
 43
0.0
 10
11575.07233185553
 20
-12669.79814899065
 10
11575.07233185553
 20
-13190.82734010372
  0
LWPOLYLINE
  5
247
330
1F
100
AcDbEntity
  8
Ech.1_5
  6
Continuous
 62
   190
370
    15
390
5F
100
AcDbPolyline
 90
        6
 70
     0
 43
0.0
 10
11275.95529114923
 20
-13190.82790202366
 10
11471.81328835395
 20
-13190.82734010372
 10
11488.29879150986
 20
-13172.84999169634
 10
11474.18885149205
 20
-13208.80569170815
 10
11490.67520557356
 20
-13190.82734010372
 10
11646.11542950015
 20
-13190.82734010372
  0
HATCH
  5
248
330
1F
100
AcDbEntity
  8
Ech.1_5
  6
Continuous
 62
    33
420
 12426362
440
 33554687
370
    20
390
5F
100
AcDbHatch
 10
0.0
 20
0.0
 30
0.0
210
0.0
220
0.0
230
1.0
  2
SOLID
 70
     1
 71
     0
 91
        1
 92
        3
 72
     0
 73
     1
 93
        4
 10
11298.00783203278
 20
-13490.22112617811
 10
11298.00851414978
 20
-13345.21893644642
 10
11343.00851414978
 20
-13345.21893644642
 10
11343.00783203278
 20
-13490.22112617811
 97
        0
 75
     0
 76
     1
 98
        0
  0
LWPOLYLINE
  5
249
330
1F
100
AcDbEntity
  8
Ech.1_5
  6
Continuous
 62
     7
370
    20
390
5F
100
AcDbPolyline
 90
        5
 70
     0
 43
0.0
 10
11298.00783203278
 20
-13490.22112617811
 10
11298.00851414978
 20
-13345.21893644642
 10
11343.00851414978
 20
-13345.21893644642
 10
11343.00783203278
 20
-13490.22112617811
 10
11298.00783203278
 20
-13490.22112617811
  0
HATCH
  5
24A
330
1F
100
AcDbEntity
  8
Ech.1_5
  6
Continuous
 62
    33
420
 12426362
440
 33554687
370
    20
390
5F
100
AcDbHatch
 10
0.0
 20
0.0
 30
0.0
210
0.0
220
0.0
230
1.0
  2
SOLID
 70
     1
 71
     0
 91
        1
 92
        3
 72
     0
 73
     1
 93
        4
 10
11713.31694430552
 20
-13490.21892824554
 10
11713.31694430552
 20
-13345.21893644642
 10
11758.31694430552
 20
-13345.21893644642
 10
11758.31694430552
 20
-13490.21892824554
 97
        0
 75
     0
 76
     1
 98
        0
  0
LWPOLYLINE
  5
24B
330
1F
100
AcDbEntity
  8
Ech.1_5
  6
Continuous
 62
     7
370
    20
390
5F
100
AcDbPolyline
 90
        5
 70
     0
 43
0.0
 10
11713.31694430552
 20
-13490.21892824554
 10
11713.31694430552
 20
-13345.21893644642
 10
11758.31694430552
 20
-13345.21893644642
 10
11758.31694430552
 20
-13490.21892824554
 10
11713.31694430552
 20
-13490.21892824554
  0
LWPOLYLINE
  5
24C
330
1F
100
AcDbEntity
  8
Ech.1_5
  6
Continuous
 62
   190
370
    15
390
5F
100
AcDbPolyline
 90
        4
 70
     0
 43
0.0
 10
11343.00851414978
 20
-13490.22205672856
 10
11298.00851414978
 20
-13345.21893644642
 10
11343.00851414978
 20
-13345.21893644642
 10
11298.00851414978
 20
-13490.22205672856
  0
LWPOLYLINE
  5
24D
330
1F
100
AcDbEntity
  8
Ech.1_5
  6
Continuous
 62
   190
370
    15
390
5F
100
AcDbPolyline
 90
        4
 70
     0
 43
0.0
 10
11758.31762642253
 20
-13490.21985879599
 10
11713.31762642253
 20
-13345.21893644642
 10
11758.31762642253
 20
-13345.21893644642
 10
11713.31762642253
 20
-13490.21985879599
  0
LWPOLYLINE
  5
24E
330
1F
100
AcDbEntity
  8
Ech.1_5
  6
Continuous
 62
     5
370
    40
390
5F
100
AcDbPolyline
 90
        5
 70
     0
 43
0.0
 10
11713.31762642253
 20
-13490.21673031292
 10
11713.31762642253
 20
-13345.21893644642
 10
11758.31762642253
 20
-13345.21893644642
 10
11758.31762642253
 20
-13490.21673031292
 10
11713.31762642253
 20
-13490.21673031292
  0
LWPOLYLINE
  5
24F
330
1F
100
AcDbEntity
  8
Ech.1_5
  6
Continuous
 62
   190
370
    15
390
5F
100
AcDbPolyline
 90
        6
 70
     0
 43
0.0
 10
11253.00772295931
 20
-13626.36881136854
 10
11253.00564758936
 20
-13431.36881138449
 10
11235.02829918197
 20
-13414.88330822864
 10
11270.98399919377
 20
-13428.99324824644
 10
11253.00564758935
 20
-13412.5068941649
 10
11253.00671351442
 20
-13272.50689416816
  0
LWPOLYLINE
  5
250
330
1F
100
AcDbEntity
  8
Ech.1_5
  6
Continuous
 62
   190
370
    15
390
5F
100
AcDbPolyline
 90
        6
 70
     0
 43
0.0
 10
11853.00963403058
 20
-13624.09755931929
 10
11853.00659229881
 20
-13431.36881138449
 10
11835.02924389142
 20
-13414.88330822858
 10
11870.98494390322
 20
-13428.99324824638
 10
11853.0065922988
 20
-13412.50689416484
 10
11853.0099319086
 20
-13272.23564216786
  0
LWPOLYLINE
  5
251
330
1F
100
AcDbEntity
  8
Ech.1_5
  6
Continuous
 62
     5
370
    40
390
5F
100
AcDbPolyline
 90
        5
 70
     0
 43
0.0
 10
11298.00851414978
 20
-13490.21673031292
 10
11298.00851414978
 20
-13345.21893644642
 10
11343.00851414978
 20
-13345.21893644642
 10
11343.00851414978
 20
-13490.21673031292
 10
11298.00851414978
 20
-13490.21673031292
  0
HATCH
  5
252
330
1F
100
AcDbEntity
  8
Ech.1_5
  6
Continuous
 62
   254
420
 14407639
440
 33554687
370
     5
390
5F
100
AcDbHatch
 10
0.0
 20
0.0
 30
0.0
210
0.0
220
0.0
230
1.0
  2
SOLID
 70
     1
 71
     0
 91
        1
 92
        3
 72
     0
 73
     1
 93
        4
 10
11253.00627063878
 20
-13305.21673031292
 10
11253.00627063878
 20
-13292.21673031292
 10
11853.00733199938
 20
-13292.21673031292
 10
11853.00733199938
 20
-13305.21673031292
 97
        0
 75
     0
 76
     1
 98
        0
  0
HATCH
  5
253
330
1F
100
AcDbEntity
  8
Ech.1_5
  6
Continuous
 62
   190
440
 33554687
370
    15
390
239
100
AcDbHatch
 10
0.0
 20
0.0
 30
0.0
210
0.0
220
0.0
230
1.0
  2
CwHatchPattern_84
 70
     0
 71
     0
 91
        1
 92
        3
 72
     0
 73
     1
 93
        4
 10
11253.00627063878
 20
-13305.21673031292
 10
11253.00627063878
 20
-13292.21673031292
 10
11853.00733199938
 20
-13292.21673031292
 10
11853.00733199938
 20
-13305.21673031292
 97
        0
 75
     0
 76
     2
 52
0.0
 41
1.0
 77
     0
 78
     2
 53
0.0
 43
0.0
 44
0.0
 45
0.0
 46
70.0
 79
     2
 49
0.0
 49
-70.0
 53
0.0
 43
35.0
 44
35.0
 45
0.0
 46
70.0
 79
     2
 49
0.0
 49
-70.0
 98
        0
1001
ACAD
1010
0.0
1020
0.0
1030
0.0
  0
LWPOLYLINE
  5
254
330
1F
100
AcDbEntity
  8
Ech.1_5
  6
Continuous
 62
   190
370
    15
390
5F
100
AcDbPolyline
 90
        5
 70
     0
 43
0.0
 10
11253.00627063878
 20
-13305.21673031292
 10
11253.00627063878
 20
-13292.21673031292
 10
11853.00733199938
 20
-13292.21673031292
 10
11853.00733199938
 20
-13305.21673031292
 10
11253.00627063878
 20
-13305.21673031292
  0
HATCH
  5
255
330
1F
100
AcDbEntity
  8
Ech.1_5
  6
Continuous
 62
    40
420
 16297258
440
 33554687
370
     5
390
5F
100
AcDbHatch
 10
0.0
 20
0.0
 30
0.0
210
0.0
220
0.0
230
1.0
  2
SOLID
 70
     1
 71
     0
 91
        1
 92
        3
 72
     0
 73
     1
 93
        4
 10
11253.00655226493
 20
-13499.21673031292
 10
11253.00655226493
 20
-13490.21673031292
 10
11853.00834250377
 20
-13490.21673031292
 10
11853.00834250377
 20
-13499.21673031292
 97
        0
 75
     0
 76
     1
 98
        0
  0
HATCH
  5
256
330
1F
100
AcDbEntity
  8
Ech.1_5
  6
Continuous
 62
   190
440
 33554687
370
    15
390
5F
100
AcDbHatch
 10
0.0
 20
0.0
 30
0.0
210
0.0
220
0.0
230
1.0
  2
CwHatchPattern_74
 70
     0
 71
     0
 91
        1
 92
        3
 72
     0
 73
     1
 93
        4
 10
11253.00655226493
 20
-13499.21673031292
 10
11253.00655226493
 20
-13490.21673031292
 10
11853.00834250377
 20
-13490.21673031292
 10
11853.00834250377
 20
-13499.21673031292
 97
        0
 75
     0
 76
     2
 52
0.0
 41
0.6000000238418579
 77
     0
 78
     3
 53
45.00000000000297
 43
0.0
 44
0.0
 45
-0.0000000000043443
 46
42.00000166893005
 79
     0
 53
45.00000000000297
 43
0.0
 44
10.80000042915344
 45
-0.0000000000043443
 46
42.00000166893005
 79
     0
 53
45.00000000000297
 43
0.0
 44
21.60000085830688
 45
-0.0000000000043443
 46
42.00000166893005
 79
     0
 98
        0
1001
ACAD
1010
0.0
1020
0.0
1030
0.0
  0
LWPOLYLINE
  5
257
330
1F
100
AcDbEntity
  8
Ech.1_5
  6
Continuous
 62
   190
370
    15
390
5F
100
AcDbPolyline
 90
        5
 70
     0
 43
0.0
 10
11253.00655226493
 20
-13499.21673031292
 10
11253.00655226493
 20
-13490.21673031292
 10
11853.00834250377
 20
-13490.21673031292
 10
11853.00834250377
 20
-13499.21673031292
 10
11253.00655226493
 20
-13499.21673031292
  0
LWPOLYLINE
  5
258
330
1F
100
AcDbEntity
  8
Ech.1_5
  6
CADWORK_22
 62
     1
 48
0.6
370
    35
390
5F
100
AcDbPolyline
 90
        2
 70
   128
 43
0.0
 10
11253.00627063878
 20
-13343.71673031292
 10
11853.00811304026
 20
-13343.71673031292
  0
LWPOLYLINE
  5
259
330
1F
100
AcDbEntity
  8
Ech.1_5
 62
   190
370
    15
390
5F
100
AcDbPolyline
 90
        5
 70
     0
 43
0.0
 10
11693.60424172842
 20
-13157.32751041765
 10
11828.03302071437
 20
-13157.32751041765
 10
11828.03302071437
 20
-13214.0504692295
 10
11693.60424172842
 20
-13214.0504692295
 10
11693.60424172842
 20
-13157.32751041765
  0
HATCH
  5
25A
330
1F
100
AcDbEntity
  8
Ech.1_5
  6
Continuous
 62
   190
440
 33554687
370
    15
390
5F
100
AcDbHatch
 10
0.0
 20
0.0
 30
0.0
210
0.0
220
0.0
230
1.0
  2
SOLID
 70
     1
 71
     0
 91
        1
 92
        3
 72
     0
 73
     1
 93
        4
 10
11711.88428751373
 20
-13190.9843215466
 10
11761.88428751373
 20
-13190.9843215466
 10
11761.88428751373
 20
-13183.56918401269
 10
11711.88428751373
 20
-13183.56918401269
 97
        0
 75
     0
 76
     1
 98
        0
  0
LWPOLYLINE
  5
25B
330
1F
100
AcDbEntity
  8
Ech.1_5
 62
   190
370
    15
390
5F
100
AcDbPolyline
 90
        5
 70
     0
 43
0.0
 10
11711.88428751373
 20
-13190.9843215466
 10
11761.88428751373
 20
-13190.9843215466
 10
11761.88428751373
 20
-13183.56918401269
 10
11711.88428751373
 20
-13183.56918401269
 10
11711.88428751373
 20
-13190.9843215466
  0
LWPOLYLINE
  5
25C
330
1F
100
AcDbEntity
  8
Ech.1_5
 62
   190
370
    15
390
5F
100
AcDbPolyline
 90
        5
 70
     0
 43
0.0
 10
11761.88428751373
 20
-13190.9843215466
 10
11811.88428751373
 20
-13190.9843215466
 10
11811.88428751373
 20
-13183.56918401269
 10
11761.88428751373
 20
-13183.56918401269
 10
11761.88428751373
 20
-13190.9843215466
  0
HATCH
  5
25D
330
1F
100
AcDbEntity
  8
Ech.1_5
  6
Continuous
 62
    33
420
 12426362
440
 33554687
370
    20
390
5F
100
AcDbHatch
 10
0.0
 20
0.0
 30
0.0
210
0.0
220
0.0
230
1.0
  2
SOLID
 70
     1
 71
     0
 91
        1
 92
        3
 72
     0
 73
     1
 93
        4
 10
11359.57629193677
 20
-12715.32673234927
 10
11419.57233185553
 20
-12715.32673234927
 10
11419.57233185553
 20
-12760.32673234927
 10
11359.57629193677
 20
-12760.32673234927
 97
        0
 75
     0
 76
     1
 98
        0
  0
LWPOLYLINE
  5
25E
330
1F
100
AcDbEntity
  8
Ech.1_5
  6
Continuous
 62
     7
370
    20
390
5F
100
AcDbPolyline
 90
        5
 70
     0
 43
0.0
 10
11359.57629193677
 20
-12715.32673234927
 10
11419.57233185553
 20
-12715.32673234927
 10
11419.57233185553
 20
-12760.32673234927
 10
11359.57629193677
 20
-12760.32673234927
 10
11359.57629193677
 20
-12715.32673234927
  0
LINE
  5
25F
330
1F
100
AcDbEntity
  8
Ech.1_5
  6
Continuous
 62
   190
370
    15
390
5F
100
AcDbLine
 10
11419.57233185553
 20
-12715.32673234927
 30
0.0
 11
11359.57629193677
 21
-12760.32673234927
 31
0.0
  0
LINE
  5
260
330
1F
100
AcDbEntity
  8
Ech.1_5
  6
Continuous
 62
   190
370
    15
390
5F
100
AcDbLine
 10
11419.57233185553
 20
-12760.32673234927
 30
0.0
 11
11359.57629193677
 21
-12715.32673234927
 31
0.0
  0
LWPOLYLINE
  5
261
330
1F
100
AcDbEntity
  8
Ech.1_5
  6
Continuous
 62
   190
370
    15
390
5F
100
AcDbPolyline
 90
        5
 70
     0
 43
0.0
 10
11359.57629193677
 20
-12715.32673234927
 10
11419.57233185553
 20
-12715.32673234927
 10
11419.57233185553
 20
-12760.32673234927
 10
11359.57629193677
 20
-12760.32673234927
 10
11359.57629193677
 20
-12715.32673234927
  0
LWPOLYLINE
  5
262
330
1F
100
AcDbEntity
  8
Ech.1_5
  6
Continuous
 62
     5
370
    40
390
5F
100
AcDbPolyline
 90
        5
 70
     0
 43
0.0
 10
11359.57629193677
 20
-12715.32673234927
 10
11419.57233185553
 20
-12715.32673234927
 10
11419.57233185553
 20
-12760.32673234927
 10
11359.57629193677
 20
-12760.32673234927
 10
11359.57629193677
 20
-12715.32673234927
  0
HATCH
  5
263
330
1F
100
AcDbEntity
  8
Ech.1_5
  6
Continuous
 62
    33
420
 12426362
440
 33554687
370
    20
390
5F
100
AcDbHatch
 10
0.0
 20
0.0
 30
0.0
210
0.0
220
0.0
230
1.0
  2
SOLID
 70
     1
 71
     0
 91
        1
 92
        3
 72
     0
 73
     1
 93
        4
 10
11359.57629193677
 20
-13012.79530114542
 10
11419.57233185553
 20
-13012.79530114542
 10
11419.57233185553
 20
-13057.79530114542
 10
11359.57629193677
 20
-13057.79530114542
 97
        0
 75
     0
 76
     1
 98
        0
  0
LWPOLYLINE
  5
264
330
1F
100
AcDbEntity
  8
Ech.1_5
  6
Continuous
 62
     7
370
    20
390
5F
100
AcDbPolyline
 90
        5
 70
     0
 43
0.0
 10
11359.57629193677
 20
-13012.79530114542
 10
11419.57233185553
 20
-13012.79530114542
 10
11419.57233185553
 20
-13057.79530114542
 10
11359.57629193677
 20
-13057.79530114542
 10
11359.57629193677
 20
-13012.79530114542
  0
LINE
  5
265
330
1F
100
AcDbEntity
  8
Ech.1_5
  6
Continuous
 62
   190
370
    15
390
5F
100
AcDbLine
 10
11419.57233185553
 20
-13012.79530114542
 30
0.0
 11
11359.57629193677
 21
-13057.79530114542
 31
0.0
  0
LINE
  5
266
330
1F
100
AcDbEntity
  8
Ech.1_5
  6
Continuous
 62
   190
370
    15
390
5F
100
AcDbLine
 10
11419.57233185553
 20
-13057.79530114542
 30
0.0
 11
11359.57629193677
 21
-13012.79530114542
 31
0.0
  0
LWPOLYLINE
  5
267
330
1F
100
AcDbEntity
  8
Ech.1_5
  6
Continuous
 62
   190
370
    15
390
5F
100
AcDbPolyline
 90
        5
 70
     0
 43
0.0
 10
11359.57629193677
 20
-13012.79530114542
 10
11419.57233185553
 20
-13012.79530114542
 10
11419.57233185553
 20
-13057.79530114542
 10
11359.57629193677
 20
-13057.79530114542
 10
11359.57629193677
 20
-13012.79530114542
  0
LWPOLYLINE
  5
268
330
1F
100
AcDbEntity
  8
Ech.1_5
  6
Continuous
 62
     5
370
    40
390
5F
100
AcDbPolyline
 90
        5
 70
     0
 43
0.0
 10
11359.57629193677
 20
-13012.79530114542
 10
11419.57233185553
 20
-13012.79530114542
 10
11419.57233185553
 20
-13057.79530114542
 10
11359.57629193677
 20
-13057.79530114542
 10
11359.57629193677
 20
-13012.79530114542
  0
LWPOLYLINE
  5
269
330
1F
100
AcDbEntity
  8
Ech.1_5
  6
Continuous
 62
   190
370
    15
390
5F
100
AcDbPolyline
 90
      120
 70
     0
 43
0.0
 10
11853.00834250377
 20
-13509.21607029936
 42
1.140281805118924
 10
11833.35038333997
 20
-13511.80409575368
 10
11842.66828170818
 20
-13546.62540479092
 42
-1.303226186855451
 10
11823.35104335352
 20
-13546.62540479092
 10
11832.66894172172
 20
-13511.80409575368
 42
1.303226186855451
 10
11813.35170336705
 20
-13511.80409575368
 10
11822.66960173526
 20
-13546.62540479092
 42
-1.303226186855451
 10
11803.3523633806
 20
-13546.62540479092
 10
11812.6702617488
 20
-13511.80409575368
 42
1.303226186855451
 10
11793.35302339413
 20
-13511.80409575368
 10
11802.67092176234
 20
-13546.62540479092
 42
-1.303226186855451
 10
11783.35368340767
 20
-13546.62540479092
 10
11792.67158177587
 20
-13511.80409575368
 42
1.303226186855451
 10
11773.35434342121
 20
-13511.80409575368
 10
11782.67224178941
 20
-13546.62540479092
 42
-1.303226186855451
 10
11763.35500343475
 20
-13546.62540479092
 10
11772.67290180295
 20
-13511.80409575368
 42
1.303226186855451
 10
11753.35566344829
 20
-13511.80409575368
 10
11762.67356181649
 20
-13546.62540479092
 42
-1.303226186855451
 10
11743.35632346183
 20
-13546.62540479092
 10
11752.67422183003
 20
-13511.80409575368
 42
1.303226186855451
 10
11733.35698347537
 20
-13511.80409575368
 10
11742.67488184357
 20
-13546.62540479092
 42
-1.303226186855451
 10
11723.35764348891
 20
-13546.62540479092
 10
11732.67554185711
 20
-13511.80409575368
 42
1.303226186855451
 10
11713.35830350245
 20
-13511.80409575368
 10
11722.67620187065
 20
-13546.62540479092
 42
-1.303226186855451
 10
11703.35896351599
 20
-13546.62540479092
 10
11712.67686188419
 20
-13511.80409575368
 42
1.303226186855451
 10
11693.35962352953
 20
-13511.80409575368
 10
11702.67752189773
 20
-13546.62540479092
 42
-1.303226186855451
 10
11683.36028354306
 20
-13546.62540479092
 10
11692.67818191127
 20
-13511.80409575368
 42
1.303226186855451
 10
11673.3609435566
 20
-13511.80409575368
 10
11682.67884192481
 20
-13546.62540479092
 42
-1.303226186855451
 10
11663.36160357015
 20
-13546.62540479092
 10
11672.67950193835
 20
-13511.80409575368
 42
1.303226186855451
 10
11653.36226358368
 20
-13511.80409575368
 10
11662.68016195189
 20
-13546.62540479092
 42
-1.303226186855451
 10
11643.36292359723
 20
-13546.62540479092
 10
11652.68082196543
 20
-13511.80409575368
 42
1.303226186855451
 10
11633.36358361076
 20
-13511.80409575368
 10
11642.68148197897
 20
-13546.62540479092
 42
-1.303226186855451
 10
11623.3642436243
 20
-13546.62540479092
 10
11632.6821419925
 20
-13511.80409575368
 42
1.303226186855451
 10
11613.36490363784
 20
-13511.80409575368
 10
11622.68280200604
 20
-13546.62540479092
 42
-1.303226186855451
 10
11603.36556365138
 20
-13546.62540479092
 10
11612.68346201958
 20
-13511.80409575368
 42
1.303226186855451
 10
11593.36622366492
 20
-13511.80409575368
 10
11602.68412203312
 20
-13546.62540479092
 42
-1.303226186855451
 10
11583.36688367846
 20
-13546.62540479092
 10
11592.68478204666
 20
-13511.80409575368
 42
1.303226186855451
 10
11573.367543692
 20
-13511.80409575368
 10
11582.6854420602
 20
-13546.62540479092
 42
-1.303226186855451
 10
11563.36820370554
 20
-13546.62540479092
 10
11572.68610207374
 20
-13511.80409575368
 42
1.303226186855451
 10
11553.36886371908
 20
-13511.80409575368
 10
11562.68676208728
 20
-13546.62540479092
 42
-1.303226186855451
 10
11543.36952373262
 20
-13546.62540479092
 10
11552.68742210082
 20
-13511.80409575368
 42
1.303226186855451
 10
11533.37018374616
 20
-13511.80409575368
 10
11542.68808211436
 20
-13546.62540479092
 42
-1.303226186855451
 10
11523.37084375969
 20
-13546.62540479092
 10
11532.6887421279
 20
-13511.80409575368
 42
1.303226186855451
 10
11513.37150377323
 20
-13511.80409575368
 10
11522.68940214144
 20
-13546.62540479092
 42
-1.303226186855451
 10
11503.37216378677
 20
-13546.62540479092
 10
11512.69006215498
 20
-13511.80409575368
 42
1.303226186855451
 10
11493.37282380031
 20
-13511.80409575368
 10
11502.69072216852
 20
-13546.62540479092
 42
-1.303226186855451
 10
11483.37348381386
 20
-13546.62540479092
 10
11492.69138218206
 20
-13511.80409575368
 42
1.303226186855451
 10
11473.37414382739
 20
-13511.80409575368
 10
11482.69204219559
 20
-13546.62540479092
 42
-1.303226186855451
 10
11463.37480384093
 20
-13546.62540479092
 10
11472.69270220913
 20
-13511.80409575368
 42
1.303226186855451
 10
11453.37546385447
 20
-13511.80409575368
 10
11462.69336222267
 20
-13546.62540479092
 42
-1.303226186855451
 10
11443.37612386801
 20
-13546.62540479092
 10
11452.69402223621
 20
-13511.80409575368
 42
1.303226186855451
 10
11433.37678388155
 20
-13511.80409575368
 10
11442.69468224975
 20
-13546.62540479092
 42
-1.303226186855451
 10
11423.37744389509
 20
-13546.62540479092
 10
11432.69534226329
 20
-13511.80409575368
 42
1.303226186855451
 10
11413.37810390863
 20
-13511.80409575368
 10
11422.69600227683
 20
-13546.62540479092
 42
-1.303226186855451
 10
11403.37876392217
 20
-13546.62540479092
 10
11412.69666229037
 20
-13511.80409575368
 42
1.303226186855451
 10
11393.37942393571
 20
-13511.80409575368
 10
11402.69732230391
 20
-13546.62540479092
 42
-1.303226186855451
 10
11383.38008394925
 20
-13546.62540479092
 10
11392.69798231745
 20
-13511.80409575368
 42
1.303226186855451
 10
11373.38074396279
 20
-13511.80409575368
 10
11382.69864233099
 20
-13546.62540479092
 42
-1.303226186855451
 10
11363.38140397632
 20
-13546.62540479092
 10
11372.69930234452
 20
-13511.80409575368
 42
1.303226186855451
 10
11353.38206398986
 20
-13511.80409575368
 10
11362.69996235807
 20
-13546.62540479092
 42
-1.303226186855451
 10
11343.3827240034
 20
-13546.62540479092
 10
11352.70062237161
 20
-13511.80409575368
 42
1.303226186855451
 10
11333.38338401694
 20
-13511.80409575368
 10
11342.70128238515
 20
-13546.62540479092
 42
-1.303226186855451
 10
11323.38404403048
 20
-13546.62540479092
 10
11332.70194239869
 20
-13511.80409575368
 42
1.303226186855451
 10
11313.38470404402
 20
-13511.80409575368
 10
11322.70260241222
 20
-13546.62540479092
 42
-1.303226186855451
 10
11303.38536405756
 20
-13546.62540479092
 10
11312.70326242576
 20
-13511.80409575368
 42
1.303226186855451
 10
11293.3860240711
 20
-13511.80409575368
 10
11302.7039224393
 20
-13546.62540479092
 42
-1.303226186855451
 10
11283.38668408464
 20
-13546.62540479092
 10
11292.70458245284
 20
-13511.80409575368
 42
1.303226186855451
 10
11273.38734409818
 20
-13511.80409575368
 10
11282.70524246638
 20
-13546.62540479092
 42
-1.303226186855451
 10
11263.38800411172
 20
-13546.62540479092
 10
11272.70590247992
 20
-13511.80409575368
 42
1.303226186855451
 10
11253.38866412526
 20
-13511.80409575368
 10
11262.70656249346
 20
-13546.62540479092
 42
-0.4944327857196802
 10
11253.00655226493
 20
-13559.21268456471
  0
LWPOLYLINE
  5
26A
330
1F
100
AcDbEntity
  8
Ech.1_5
  6
Continuous
 62
   190
370
    15
390
5F
100
AcDbPolyline
 90
        5
 70
     0
 43
0.0
 10
10982.22301775954
 20
-13712.13554285447
 10
11967.22301775954
 20
-13712.13554285447
 10
11967.22301775954
 20
-13945.06557792518
 10
10982.22301775954
 20
-13945.06557792518
 10
10982.22301775954
 20
-13712.13554285447
  0
LWPOLYLINE
  5
26B
330
1F
100
AcDbEntity
  8
Ech.1_5
  6
Continuous
 62
   190
370
    15
390
5F
100
AcDbPolyline
 90
        5
 70
     0
 43
0.0
 10
11967.22301775954
 20
-13807.65250586012
 10
10982.22301775954
 20
-13807.65250586012
 10
10982.22301775954
 20
-13712.13554285447
 10
11967.22301775954
 20
-13712.13554285447
 10
11967.22301775954
 20
-13807.65250586012
  0
LWPOLYLINE
  5
26C
330
1F
100
AcDbEntity
  8
Ech.1_5
  6
Continuous
 62
   190
370
    15
390
5F
100
AcDbPolyline
 90
        5
 70
     0
 43
0.0
 10
11967.22301775954
 20
-13829.65250586012
 10
10982.22301775954
 20
-13829.65250586012
 10
10982.22301775954
 20
-13807.65250586012
 10
11967.22301775954
 20
-13807.65250586012
 10
11967.22301775954
 20
-13829.65250586012
  0
LWPOLYLINE
  5
26D
330
1F
100
AcDbEntity
  8
Ech.1_5
  6
Continuous
 62
   190
370
    15
390
5F
100
AcDbPolyline
 90
        5
 70
     0
 43
0.0
 10
11967.22301775954
 20
-13886.52365109046
 10
10982.22301775954
 20
-13886.52365109046
 10
10982.22301775954
 20
-13862.79662277972
 10
11967.22301775954
 20
-13862.79662277972
 10
11967.22301775954
 20
-13886.52365109046
  0
LINE
  5
26E
330
1F
100
AcDbEntity
  8
Ech.1_5
  6
Continuous
 62
   190
370
    15
390
5F
100
AcDbLine
 10
11170.42757972249
 20
-13807.65250586012
 30
0.0
 11
11170.42757972249
 21
-13829.65250586012
 31
0.0
  0
LINE
  5
26F
330
1F
100
AcDbEntity
  8
Ech.1_5
  6
Continuous
 62
   190
370
    15
390
5F
100
AcDbLine
 10
11827.42568235304
 20
-13807.65250586012
 30
0.0
 11
11827.42568235304
 21
-13829.65250586012
 31
0.0
  0
LINE
  5
270
330
1F
100
AcDbEntity
  8
Ech.1_5
  6
Continuous
 62
   190
370
    15
390
5F
100
AcDbLine
 10
11326.58279771785
 20
-13807.65250586012
 30
0.0
 11
11326.58279771785
 21
-13829.65250586012
 31
0.0
  0
LWPOLYLINE
  5
271
330
1F
100
AcDbEntity
  8
Ech.1_5
  6
Continuous
 62
   190
370
    15
390
5F
100
AcDbPolyline
 90
        5
 70
     0
 43
0.0
 10
11967.22301775954
 20
-12590.06557792517
 10
10982.22301775954
 20
-12590.06557792517
 10
10982.22301775954
 20
-13945.06557792518
 10
11967.22301775954
 20
-13945.06557792518
 10
11967.22301775954
 20
-12590.06557792517
  0
HATCH
  5
272
330
1F
100
AcDbEntity
  8
Ech.1_5
  6
Continuous
 62
   254
420
 13882323
440
 33554687
370
    20
390
5F
100
AcDbHatch
 10
0.0
 20
0.0
 30
0.0
210
0.0
220
0.0
230
1.0
  2
SOLID
 70
     1
 71
     0
 91
        1
 92
        3
 72
     0
 73
     1
 93
        4
 10
11332.57629193677
 20
-13190.82751097455
 10
11359.57629193677
 20
-13190.82764085852
 10
11359.57629193677
 20
-12669.7986700683
 10
11332.57629193677
 20
-12669.79880439737
 97
        0
 75
     0
 76
     1
 98
        0
  0
LWPOLYLINE
  5
273
330
1F
100
AcDbEntity
  8
Ech.1_5
  6
Continuous
 62
   190
370
    15
390
5F
100
AcDbPolyline
 90
        5
 70
     0
 43
0.0
 10
11332.57629193677
 20
-13190.82751097455
 10
11359.57629193677
 20
-13190.82764085852
 10
11359.57629193677
 20
-12669.7986700683
 10
11332.57629193677
 20
-12669.79880439737
 10
11332.57629193677
 20
-13190.82751097455
  0
HATCH
  5
274
330
1F
100
AcDbEntity
  8
Ech.1_5
  6
Continuous
 62
   254
420
 13882323
440
 33554687
370
    20
390
5F
100
AcDbHatch
 10
0.0
 20
0.0
 30
0.0
210
0.0
220
0.0
230
1.0
  2
SOLID
 70
     1
 71
     0
 91
        1
 92
        3
 72
     0
 73
     1
 93
        4
 10
11332.57629193677
 20
-13190.82751097455
 10
11332.57629193677
 20
-12669.79916627949
 10
11306.57629193677
 20
-12669.79903420278
 10
11306.57629193677
 20
-13190.82758468622
 97
        0
 75
     0
 76
     1
 98
        0
  0
LWPOLYLINE
  5
275
330
1F
100
AcDbEntity
  8
Ech.1_5
  6
Continuous
 62
     7
370
    20
390
5F
100
AcDbPolyline
 90
        5
 70
     0
 43
0.0
 10
11332.57629193677
 20
-13190.82751097455
 10
11332.57629193677
 20
-12669.79916627949
 10
11306.57629193677
 20
-12669.79903420278
 10
11306.57629193677
 20
-13190.82758468622
 10
11332.57629193677
 20
-13190.82751097455
  0
LWPOLYLINE
  5
276
330
1F
100
AcDbEntity
  8
Ech.1_5
  6
Continuous
 62
   190
370
    15
390
5F
100
AcDbPolyline
 90
        6
 70
     0
 43
0.0
 10
11275.95529114923
 20
-12669.79937489387
 10
11471.81328835395
 20
-12669.79807014814
 10
11488.29879150986
 20
-12651.8207217407
 10
11474.18885149205
 20
-12687.7764217525
 10
11490.67520557356
 20
-12669.79807014808
 10
11621.53363212884
 20
-12669.79807014808
  0
LWPOLYLINE
  5
277
330
1F
100
AcDbEntity
  8
Ech.1_5
  6
CADWORK_22
 62
   140
420
  1483507
 48
0.6
370
    35
390
5F
100
AcDbPolyline
 90
        2
 70
   128
 43
0.0
 38
2500.0
 10
11358.07233185553
 20
-12669.79874891087
 10
11358.07233185553
 20
-13190.82764085852
  0
HATCH
  5
278
330
1F
100
AcDbEntity
  8
Ech.1_5
  6
Continuous
 62
   254
420
 13882323
440
 33554687
370
     5
390
5F
100
AcDbHatch
 10
0.0
 20
0.0
 30
0.0
210
0.0
220
0.0
230
1.0
  2
SOLID
 70
     1
 71
     0
 91
        1
 92
        3
 72
     0
 73
     1
 93
        4
 10
11300.50792827917
 20
-13586.21277023169
 10
11340.50781496798
 20
-13586.21277023169
 10
11340.50781496798
 20
-13559.21277023169
 10
11300.50781496798
 20
-13559.21277023169
 97
        0
 75
     0
 76
     1
 98
        0
  0
LINE
  5
279
330
1F
100
AcDbEntity
  8
Ech.1_5
  6
Continuous
 62
   190
370
    15
390
5F
100
AcDbLine
 10
11340.50781496798
 20
-13586.21277023169
 30
0.0
 11
11300.50781496798
 21
-13559.21277023169
 31
0.0
  0
LINE
  5
27A
330
1F
100
AcDbEntity
  8
Ech.1_5
  6
Continuous
 62
   190
370
    15
390
5F
100
AcDbLine
 10
11340.50781496798
 20
-13559.21277023169
 30
0.0
 11
11300.50792827917
 21
-13586.21277023169
 31
0.0
  0
LWPOLYLINE
  5
27B
330
1F
100
AcDbEntity
  8
Ech.1_5
  6
Continuous
 62
     5
370
    40
390
5F
100
AcDbPolyline
 90
        5
 70
     0
 43
0.0
 10
11300.50792827917
 20
-13586.21277023169
 10
11340.50781496798
 20
-13586.21277023169
 10
11340.50781496798
 20
-13559.21277023169
 10
11300.50781496798
 20
-13559.21277023169
 10
11300.50792827917
 20
-13586.21277023169
  0
HATCH
  5
27C
330
1F
100
AcDbEntity
  8
Ech.1_5
  6
Continuous
 62
   254
420
 13882323
440
 33554687
370
     5
390
5F
100
AcDbHatch
 10
0.0
 20
0.0
 30
0.0
210
0.0
220
0.0
230
1.0
  2
SOLID
 70
     1
 71
     0
 91
        1
 92
        3
 72
     0
 73
     1
 93
        4
 10
11715.81739867521
 20
-13586.21277023169
 10
11755.81728536402
 20
-13586.21277023169
 10
11755.81728536402
 20
-13559.21277023169
 10
11715.81728536402
 20
-13559.21277023169
 97
        0
 75
     0
 76
     1
 98
        0
  0
LINE
  5
27D
330
1F
100
AcDbEntity
  8
Ech.1_5
  6
Continuous
 62
   190
370
    15
390
5F
100
AcDbLine
 10
11755.81728536402
 20
-13586.21277023169
 30
0.0
 11
11715.81728536402
 21
-13559.21277023169
 31
0.0
  0
LINE
  5
27E
330
1F
100
AcDbEntity
  8
Ech.1_5
  6
Continuous
 62
   190
370
    15
390
5F
100
AcDbLine
 10
11755.81728536402
 20
-13559.21277023169
 30
0.0
 11
11715.81739867521
 21
-13586.21277023169
 31
0.0
  0
LWPOLYLINE
  5
27F
330
1F
100
AcDbEntity
  8
Ech.1_5
  6
Continuous
 62
     5
370
    40
390
5F
100
AcDbPolyline
 90
        5
 70
     0
 43
0.0
 10
11715.81739867521
 20
-13586.21277023169
 10
11755.81728536402
 20
-13586.21277023169
 10
11755.81728536402
 20
-13559.21277023169
 10
11715.81728536402
 20
-13559.21277023169
 10
11715.81739867521
 20
-13586.21277023169
  0
HATCH
  5
280
330
1F
100
AcDbEntity
  8
Ech.1_5
  6
Continuous
 62
   254
420
 13882323
440
 33554687
370
    20
390
5F
100
AcDbHatch
 10
0.0
 20
0.0
 30
0.0
210
0.0
220
0.0
230
1.0
  2
SOLID
 70
     1
 71
     0
 91
        1
 92
        3
 72
     0
 73
     1
 93
        4
 10
11853.00979287238
 20
-13586.21277023169
 10
11253.0066780704
 20
-13586.21277023169
 10
11253.00654599369
 20
-13612.21277023169
 10
11853.00986658403
 20
-13612.21277023169
 97
        0
 75
     0
 76
     1
 98
        0
  0
LWPOLYLINE
  5
281
330
1F
100
AcDbEntity
  8
Ech.1_5
  6
Continuous
 62
     7
370
    20
390
5F
100
AcDbPolyline
 90
        5
 70
     0
 43
0.0
 10
11853.00979287238
 20
-13586.21277023169
 10
11253.0066780704
 20
-13586.21277023169
 10
11253.00654599369
 20
-13612.21277023169
 10
11853.00986658403
 20
-13612.21277023169
 10
11853.00979287238
 20
-13586.21277023169
  0
LWPOLYLINE
  5
282
330
1F
100
AcDbEntity
  8
Ech.1_5
  6
CADWORK_22
 62
   140
420
  1483507
 48
0.6
370
    35
390
5F
100
AcDbPolyline
 90
        2
 70
   128
 43
0.0
 38
2500.0
 10
11253.00655226493
 20
-13560.71673031292
 10
11853.00834250377
 20
-13560.71673031292
  0
HATCH
  5
283
330
1F
100
AcDbEntity
  8
Ech.1_5
  6
Continuous
 62
   158
420
    12131
440
 33554687
370
    20
390
5F
100
AcDbHatch
 10
0.0
 20
0.0
 30
0.0
210
0.0
220
0.0
230
1.0
  2
SOLID
 70
     1
 71
     0
 91
        1
 92
        3
 72
     0
 73
     1
 93
       62
 10
11045.18802948316
 20
-13928.8276543514
 10
11044.89287884317
 20
-13928.8276543514
 10
11044.25245764317
 20
-13928.68007903141
 10
11043.96009144316
 20
-13928.53250371141
 10
11044.15500224317
 20
-13928.08977775141
 10
11044.45015288317
 20
-13928.2373530714
 10
11044.99033424317
 20
-13928.3849283914
 10
11045.23536496317
 20
-13928.3849283914
 10
11045.43306020317
 20
-13928.3849283914
 10
11045.67809092317
 20
-13928.3348084714
 10
11045.77554632317
 20
-13928.28747299139
 10
11045.92312164317
 20
-13928.13989767139
 10
11046.02057704316
 20
-13928.03965783139
 10
11046.02057704316
 20
-13927.9422024314
 10
11046.02057704316
 20
-13927.7472916314
 10
11045.97324156317
 20
-13927.5997163114
 10
11045.82566624317
 20
-13927.45214099141
 10
11045.53051560317
 20
-13927.3519011514
 10
11045.38294028317
 20
-13927.30456567141
 10
11044.89287884317
 20
-13927.15699035141
 10
11044.74530352317
 20
-13927.1068704314
 10
11044.40003296317
 20
-13926.9592951114
 10
11044.20512216317
 20
-13926.71426439141
 10
11044.10488232317
 20
-13926.4692336714
 10
11044.10488232317
 20
-13926.27153843141
 10
11044.10488232317
 20
-13926.1740830314
 10
11044.15500224317
 20
-13925.9791722314
 10
11044.25245764317
 20
-13925.78147699141
 10
11044.35269748317
 20
-13925.63390167142
 10
11044.59772820317
 20
-13925.48632635141
 10
11045.04045416317
 20
-13925.29141555141
 10
11045.33282036317
 20
-13925.29141555141
 10
11045.67809092317
 20
-13925.29141555141
 10
11046.26839220316
 20
-13925.48632635141
 10
11046.51342292317
 20
-13925.63390167142
 10
11046.26839220316
 20
-13926.0265077114
 10
11046.07069696317
 20
-13925.87893239141
 10
11045.58063552317
 20
-13925.7313570714
 10
11045.33282036317
 20
-13925.7313570714
 10
11045.18802948316
 20
-13925.7313570714
 10
11044.94021432317
 20
-13925.78147699141
 10
11044.79263900316
 20
-13925.87893239141
 10
11044.74530352317
 20
-13925.9791722314
 10
11044.69518360317
 20
-13926.07662763141
 10
11044.64506368317
 20
-13926.1740830314
 10
11044.64506368317
 20
-13926.27153843141
 10
11044.94021432317
 20
-13926.6168089914
 10
11045.23536496317
 20
-13926.71426439141
 10
11045.67809092317
 20
-13926.81171979139
 10
11045.87300172316
 20
-13926.86183971141
 10
11046.26839220316
 20
-13927.05953495139
 10
11046.36584760317
 20
-13927.15699035141
 10
11046.46330300317
 20
-13927.25444575139
 10
11046.61087832317
 20
-13927.5997163114
 10
11046.61087832317
 20
-13927.7472916314
 10
11046.61087832317
 20
-13927.89208251139
 10
11046.51342292317
 20
-13928.13989767139
 10
11046.41318308317
 20
-13928.3849283914
 10
11046.21827228316
 20
-13928.5798391914
 10
11046.07069696317
 20
-13928.6299591114
 10
11045.87300172316
 20
-13928.7274145114
 10
11045.43306020317
 20
-13928.8276543514
 97
        0
 75
     0
 76
     1
 98
        0
  0
HATCH
  5
284
330
1F
100
AcDbEntity
  8
Ech.1_5
  6
Continuous
 62
   158
420
    12131
440
 33554687
370
    20
390
5F
100
AcDbHatch
 10
0.0
 20
0.0
 30
0.0
210
0.0
220
0.0
230
1.0
  2
SOLID
 70
     1
 71
     0
 91
        1
 92
        3
 72
     0
 73
     1
 93
        8
 10
11048.18130248316
 20
-13928.7775344314
 10
11048.18130248316
 20
-13925.8315969114
 10
11047.20117960317
 20
-13925.8315969114
 10
11047.20117960317
 20
-13925.3888709514
 10
11049.75451108317
 20
-13925.3888709514
 10
11049.70439116317
 20
-13925.8315969114
 10
11048.67414836317
 20
-13925.8315969114
 10
11048.67414836317
 20
-13928.7775344314
 97
        0
 75
     0
 76
     1
 98
        0
  0
HATCH
  5
285
330
1F
100
AcDbEntity
  8
Ech.1_5
  6
Continuous
 62
   158
420
    12131
440
 33554687
370
    20
390
5F
100
AcDbHatch
 10
0.0
 20
0.0
 30
0.0
210
0.0
220
0.0
230
1.0
  2
SOLID
 70
     1
 71
     0
 91
        1
 92
        3
 72
     0
 73
     1
 93
        4
 10
11050.53972316317
 20
-13928.7775344314
 10
11050.53972316317
 20
-13925.3888709514
 10
11051.07990452317
 20
-13925.3888709514
 10
11051.07990452317
 20
-13928.7775344314
 97
        0
 75
     0
 76
     1
 98
        0
  0
HATCH
  5
286
330
1F
100
AcDbEntity
  8
Ech.1_5
  6
Continuous
 62
   158
420
    12131
440
 33554687
370
    20
390
5F
100
AcDbHatch
 10
0.0
 20
0.0
 30
0.0
210
0.0
220
0.0
230
1.0
  2
SOLID
 70
     1
 71
     0
 91
        1
 92
        3
 72
     0
 73
     1
 93
        8
 10
11052.84802392316
 20
-13928.7775344314
 10
11052.84802392316
 20
-13925.8315969114
 10
11051.86511660317
 20
-13925.8315969114
 10
11051.86511660317
 20
-13925.3888709514
 10
11054.42123252316
 20
-13925.3888709514
 10
11054.37111260316
 20
-13925.8315969114
 10
11053.38820528317
 20
-13925.8315969114
 10
11053.38820528317
 20
-13928.7775344314
 97
        0
 75
     0
 76
     1
 98
        0
  0
HATCH
  5
287
330
1F
100
AcDbEntity
  8
Ech.1_5
  6
Continuous
 62
   158
420
    12131
440
 33554687
370
    20
390
5F
100
AcDbHatch
 10
0.0
 20
0.0
 30
0.0
210
0.0
220
0.0
230
1.0
  2
SOLID
 70
     1
 71
     0
 91
        1
 92
        3
 72
     0
 73
     1
 93
       32
 10
11056.33692724317
 20
-13928.8276543514
 10
11056.08911208317
 20
-13928.8276543514
 10
11055.69650604317
 20
-13928.7274145114
 10
11055.40135540317
 20
-13928.5798391914
 10
11055.20644460317
 20
-13928.3348084714
 10
11055.15632468316
 20
-13928.2373530714
 10
11055.10898920317
 20
-13928.08977775141
 10
11055.05886928317
 20
-13927.7946271114
 10
11055.05886928317
 20
-13925.3888709514
 10
11055.54893072317
 20
-13925.3888709514
 10
11055.54893072317
 20
-13927.4020210714
 10
11055.54893072317
 20
-13927.7946271114
 10
11055.59905064317
 20
-13927.99232235139
 10
11055.79674588317
 20
-13928.2373530714
 10
11055.94153676317
 20
-13928.3348084714
 10
11056.18935192317
 20
-13928.3849283914
 10
11056.33692724317
 20
-13928.3849283914
 10
11056.53183804317
 20
-13928.3849283914
 10
11056.77686876317
 20
-13928.28747299139
 10
11056.92444408317
 20
-13928.1872331514
 10
11057.02189948317
 20
-13928.03965783139
 10
11057.07201940317
 20
-13927.7472916314
 10
11057.07201940317
 20
-13925.3888709514
 10
11057.61220076317
 20
-13925.3888709514
 10
11057.61220076317
 20
-13927.5495963914
 10
11057.61220076317
 20
-13927.89208251139
 10
11057.51474536317
 20
-13928.2373530714
 10
11057.41728996317
 20
-13928.43504831139
 10
11057.31705012317
 20
-13928.48238379139
 10
11057.21959472317
 20
-13928.5798391914
 10
11057.02189948317
 20
-13928.7274145114
 10
11056.62929344317
 20
-13928.8276543514
 97
        0
 75
     0
 76
     1
 98
        0
  0
HATCH
  5
288
330
1F
100
AcDbEntity
  8
Ech.1_5
  6
Continuous
 62
   158
420
    12131
440
 33554687
370
    20
390
5F
100
AcDbHatch
 10
0.0
 20
0.0
 30
0.0
210
0.0
220
0.0
230
1.0
  2
SOLID
 70
     1
 71
     0
 91
        1
 92
        3
 72
     0
 73
     1
 93
        8
 10
11059.38032016317
 20
-13928.7775344314
 10
11059.38032016317
 20
-13925.8315969114
 10
11058.39741284317
 20
-13925.8315969114
 10
11058.39741284317
 20
-13925.3888709514
 10
11060.95352876317
 20
-13925.3888709514
 10
11060.90340884317
 20
-13925.8315969114
 10
11059.92050152317
 20
-13925.8315969114
 10
11059.92050152317
 20
-13928.7775344314
 97
        0
 75
     0
 76
     1
 98
        0
  0
HATCH
  5
289
330
1F
100
AcDbEntity
  8
Ech.1_5
  6
Continuous
 62
   158
420
    12131
440
 33554687
370
    20
390
5F
100
AcDbHatch
 10
0.0
 20
0.0
 30
0.0
210
0.0
220
0.0
230
1.0
  2
SOLID
 70
     1
 71
     0
 91
        1
 92
        3
 72
     0
 73
     1
 93
        8
 10
11039.44094532316
 20
-13935.7024367114
 10
11039.44094532316
 20
-13932.75649919141
 10
11038.45803800317
 20
-13932.75649919141
 10
11038.45803800317
 20
-13932.31377323141
 10
11041.06148940317
 20
-13932.31377323141
 10
11040.96403400317
 20
-13932.75649919141
 10
11039.98112668317
 20
-13932.75649919141
 10
11039.98112668317
 20
-13935.7024367114
 97
        0
 75
     0
 76
     1
 98
        0
  0
HATCH
  5
28A
330
1F
100
AcDbEntity
  8
Ech.1_5
  6
Continuous
 62
   158
420
    12131
440
 33554687
370
    20
390
5F
100
AcDbHatch
 10
0.0
 20
0.0
 30
0.0
210
0.0
220
0.0
230
1.0
  2
SOLID
 70
     1
 71
     0
 91
        1
 92
        3
 72
     0
 73
     1
 93
       12
 10
11041.79658156317
 20
-13935.7024367114
 10
11041.79658156317
 20
-13932.31377323141
 10
11043.90997152317
 20
-13932.31377323141
 10
11043.81251612317
 20
-13932.75649919141
 10
11042.33676292317
 20
-13932.75649919141
 10
11042.33676292317
 20
-13933.73940651141
 10
11043.56470096317
 20
-13933.73940651141
 10
11043.56470096317
 20
-13934.13201255139
 10
11042.33676292317
 20
-13934.13201255139
 10
11042.33676292317
 20
-13935.2123752714
 10
11043.96009144316
 20
-13935.2123752714
 10
11043.96009144316
 20
-13935.7024367114
 97
        0
 75
     0
 76
     1
 98
        0
  0
HATCH
  5
28B
330
1F
100
AcDbEntity
  8
Ech.1_5
  6
Continuous
 62
   158
420
    12131
440
 33554687
370
    20
390
5F
100
AcDbHatch
 10
0.0
 20
0.0
 30
0.0
210
0.0
220
0.0
230
1.0
  2
SOLID
 70
     1
 71
     0
 91
        1
 92
        3
 72
     0
 73
     1
 93
       38
 10
11046.31572768317
 20
-13935.75255663141
 10
11045.97324156317
 20
-13935.7024367114
 10
11045.38294028317
 20
-13935.4574059914
 10
11044.94021432317
 20
-13935.01468003141
 10
11044.74530352317
 20
-13934.3770432714
 10
11044.69518360317
 20
-13934.0317727114
 10
11044.74530352317
 20
-13933.63916667142
 10
11044.99033424317
 20
-13933.0015299114
 10
11045.43306020317
 20
-13932.5114684714
 10
11046.02057704316
 20
-13932.26365331139
 10
11046.31572768317
 20
-13932.26365331139
 10
11046.61087832317
 20
-13932.26365331139
 10
11047.10093976316
 20
-13932.41122863139
 10
11047.29863500316
 20
-13932.5114684714
 10
11047.00348436317
 20
-13932.9040745114
 10
11046.85590904317
 20
-13932.75649919141
 10
11046.51342292317
 20
-13932.6562593514
 10
11046.36584760317
 20
-13932.6562593514
 10
11046.21827228316
 20
-13932.6562593514
 10
11045.92312164317
 20
-13932.75649919141
 10
11045.67809092317
 20
-13932.9040745114
 10
11045.48039568317
 20
-13933.0989853114
 10
11045.43306020317
 20
-13933.2465606314
 10
11045.33282036317
 20
-13933.3941359514
 10
11045.28548488317
 20
-13933.78674199141
 10
11045.28548488317
 20
-13934.0317727114
 10
11045.28548488317
 20
-13934.3770432714
 10
11045.43306020317
 20
-13934.8197692314
 10
11045.58063552317
 20
-13934.9645601114
 10
11045.72821084317
 20
-13935.16225535141
 10
11046.16815236317
 20
-13935.30983067141
 10
11046.36584760317
 20
-13935.30983067141
 10
11046.56075840317
 20
-13935.30983067141
 10
11046.95614888317
 20
-13935.2123752714
 10
11047.10093976316
 20
-13935.11213543139
 10
11047.34875492316
 20
-13935.4574059914
 10
11047.15105968316
 20
-13935.6049813114
 10
11046.61087832317
 20
-13935.7024367114
 97
        0
 75
     0
 76
     1
 98
        0
  0
HATCH
  5
28C
330
1F
100
AcDbEntity
  8
Ech.1_5
  6
Continuous
 62
   158
420
    12131
440
 33554687
370
    20
390
5F
100
AcDbHatch
 10
0.0
 20
0.0
 30
0.0
210
0.0
220
0.0
230
1.0
  2
SOLID
 70
     1
 71
     0
 91
        1
 92
        3
 72
     0
 73
     1
 93
       12
 10
11048.03651160317
 20
-13935.7024367114
 10
11048.03651160317
 20
-13932.31377323141
 10
11048.57669296317
 20
-13932.31377323141
 10
11048.57669296317
 20
-13933.68928659139
 10
11050.09699720317
 20
-13933.68928659139
 10
11050.09699720317
 20
-13932.31377323141
 10
11050.58984308317
 20
-13932.31377323141
 10
11050.58984308317
 20
-13935.7024367114
 10
11050.09699720317
 20
-13935.7024367114
 10
11050.09699720317
 20
-13934.13201255139
 10
11048.57669296317
 20
-13934.13201255139
 10
11048.57669296317
 20
-13935.7024367114
 97
        0
 75
     0
 76
     1
 98
        0
  0
HATCH
  5
28D
330
1F
100
AcDbEntity
  8
Ech.1_5
  6
Continuous
 62
   158
420
    12131
440
 33554687
370
    20
390
5F
100
AcDbHatch
 10
0.0
 20
0.0
 30
0.0
210
0.0
220
0.0
230
1.0
  2
SOLID
 70
     1
 71
     0
 91
        1
 92
        3
 72
     0
 73
     1
 93
       18
 10
11051.76766120316
 20
-13935.7024367114
 10
11051.76766120316
 20
-13932.31377323141
 10
11052.35796248317
 20
-13932.31377323141
 10
11053.43832520317
 20
-13934.13201255139
 10
11053.78081132317
 20
-13934.71952939141
 10
11053.88105116317
 20
-13934.9645601114
 10
11053.83093124317
 20
-13934.4744986714
 10
11053.83093124317
 20
-13933.9844372314
 10
11053.83093124317
 20
-13932.31377323141
 10
11054.32099268317
 20
-13932.31377323141
 10
11054.32099268317
 20
-13935.7024367114
 10
11053.78081132317
 20
-13935.7024367114
 10
11052.70044860317
 20
-13933.88419739139
 10
11052.45541788317
 20
-13933.5417112714
 10
11052.21038716316
 20
-13933.0015299114
 10
11052.26050708317
 20
-13933.29668055141
 10
11052.26050708317
 20
-13933.9844372314
 10
11052.30784256317
 20
-13935.7024367114
 97
        0
 75
     0
 76
     1
 98
        0
  0
HATCH
  5
28E
330
1F
100
AcDbEntity
  8
Ech.1_5
  6
Continuous
 62
   158
420
    12131
440
 33554687
370
    20
390
5F
100
AcDbHatch
 10
0.0
 20
0.0
 30
0.0
210
0.0
220
0.0
230
1.0
  2
SOLID
 70
     1
 71
     0
 91
        1
 92
        3
 72
     0
 73
     1
 93
       56
 10
11056.87710860317
 20
-13935.75255663141
 10
11056.87710860317
 20
-13935.35995059139
 10
11057.07201940317
 20
-13935.35995059139
 10
11057.31705012317
 20
-13935.2597107514
 10
11057.51474536317
 20
-13935.16225535141
 10
11057.66232068317
 20
-13934.9645601114
 10
11057.70965616317
 20
-13934.86710471141
 10
11057.80989600317
 20
-13934.57195407141
 10
11057.80989600317
 20
-13934.08189263141
 10
11057.80989600317
 20
-13933.73940651141
 10
11057.75977608317
 20
-13933.29668055141
 10
11057.66232068317
 20
-13933.0989853114
 10
11057.61220076317
 20
-13933.0015299114
 10
11057.41728996317
 20
-13932.85395459139
 10
11057.21959472317
 20
-13932.75649919141
 10
11056.97456400317
 20
-13932.6562593514
 10
11056.82698868317
 20
-13932.6562593514
 10
11056.58195796317
 20
-13932.70637927139
 10
11056.28680732317
 20
-13932.8038346714
 10
11056.13923200317
 20
-13932.9514099914
 10
11055.99165668317
 20
-13933.14910523139
 10
11055.89420128317
 20
-13933.63916667142
 10
11055.89420128317
 20
-13933.93431731141
 10
11055.89420128317
 20
-13934.2795878714
 10
11056.04177660317
 20
-13934.8197692314
 10
11056.13923200317
 20
-13935.01468003141
 10
11056.33692724317
 20
-13935.2123752714
 10
11056.62929344317
 20
-13935.35995059139
 10
11056.87710860317
 20
-13935.35995059139
 10
11056.87710860317
 20
-13935.75255663141
 10
11056.53183804317
 20
-13935.7024367114
 10
11056.08911208317
 20
-13935.6049813114
 10
11055.84408136317
 20
-13935.4072860714
 10
11055.74662596317
 20
-13935.30983067141
 10
11055.54893072317
 20
-13935.01468003141
 10
11055.35401992316
 20
-13934.3770432714
 10
11055.30390000317
 20
-13933.9844372314
 10
11055.35401992316
 20
-13933.59183119141
 10
11055.54893072317
 20
-13932.9514099914
 10
11055.84408136317
 20
-13932.6089238714
 10
11056.08911208317
 20
-13932.41122863139
 10
11056.48171812317
 20
-13932.26365331139
 10
11056.82698868317
 20
-13932.26365331139
 10
11057.26971464317
 20
-13932.26365331139
 10
11057.70965616317
 20
-13932.4613485514
 10
11057.95747132317
 20
-13932.6562593514
 10
11058.05492672317
 20
-13932.8038346714
 10
11058.24983752317
 20
-13933.0015299114
 10
11058.39741284317
 20
-13933.63916667142
 10
11058.39741284317
 20
-13934.0317727114
 10
11058.39741284317
 20
-13934.42437875142
 10
11058.24983752317
 20
-13935.01468003141
 10
11058.05492672317
 20
-13935.2123752714
 10
11057.95747132317
 20
-13935.35995059139
 10
11057.70965616317
 20
-13935.5548613914
 10
11057.26971464317
 20
-13935.7024367114
 97
        0
 75
     0
 76
     1
 98
        0
  0
HATCH
  5
28F
330
1F
100
AcDbEntity
  8
Ech.1_5
  6
Continuous
 62
   158
420
    12131
440
 33554687
370
    20
390
5F
100
AcDbHatch
 10
0.0
 20
0.0
 30
0.0
210
0.0
220
0.0
230
1.0
  2
SOLID
 70
     1
 71
     0
 91
        1
 92
        3
 72
     0
 73
     1
 93
        6
 10
11059.43044008317
 20
-13935.7024367114
 10
11059.43044008317
 20
-13932.31377323141
 10
11059.92050152317
 20
-13932.31377323141
 10
11059.92050152317
 20
-13935.2597107514
 10
11061.39347028317
 20
-13935.2597107514
 10
11061.34613480316
 20
-13935.7024367114
 97
        0
 75
     0
 76
     1
 98
        0
  0
HATCH
  5
290
330
1F
100
AcDbEntity
  8
Ech.1_5
  6
Continuous
 62
   158
420
    12131
440
 33554687
370
    20
390
5F
100
AcDbHatch
 10
0.0
 20
0.0
 30
0.0
210
0.0
220
0.0
230
1.0
  2
SOLID
 70
     1
 71
     0
 91
        1
 92
        3
 72
     0
 73
     1
 93
       56
 10
11063.11425420317
 20
-13935.75255663141
 10
11063.16158968316
 20
-13935.35995059139
 10
11063.30916500316
 20
-13935.35995059139
 10
11063.55419572317
 20
-13935.2597107514
 10
11063.75189096317
 20
-13935.16225535141
 10
11063.89946628317
 20
-13934.9645601114
 10
11063.94958620317
 20
-13934.86710471141
 10
11064.04704160317
 20
-13934.57195407141
 10
11064.09437708317
 20
-13934.08189263141
 10
11064.09437708317
 20
-13933.73940651141
 10
11063.99692168317
 20
-13933.29668055141
 10
11063.89946628317
 20
-13933.0989853114
 10
11063.84934636317
 20
-13933.0015299114
 10
11063.70177104317
 20
-13932.85395459139
 10
11063.45674032317
 20
-13932.75649919141
 10
11063.21170960317
 20
-13932.6562593514
 10
11063.06413428317
 20
-13932.6562593514
 10
11062.86922348317
 20
-13932.70637927139
 10
11062.52395292317
 20
-13932.8038346714
 10
11062.37637760317
 20
-13932.9514099914
 10
11062.22880228317
 20
-13933.14910523139
 10
11062.13134688316
 20
-13933.63916667142
 10
11062.13134688316
 20
-13933.93431731141
 10
11062.13134688316
 20
-13934.2795878714
 10
11062.27892220317
 20
-13934.8197692314
 10
11062.37637760317
 20
-13935.01468003141
 10
11062.57407284317
 20
-13935.2123752714
 10
11062.86922348317
 20
-13935.35995059139
 10
11063.16158968316
 20
-13935.35995059139
 10
11063.11425420317
 20
-13935.75255663141
 10
11062.76898364317
 20
-13935.7024367114
 10
11062.37637760317
 20
-13935.6049813114
 10
11062.13134688316
 20
-13935.4072860714
 10
11061.98377156317
 20
-13935.30983067141
 10
11061.78607632317
 20
-13935.01468003141
 10
11061.59116552317
 20
-13934.3770432714
 10
11061.54104560317
 20
-13933.9844372314
 10
11061.59116552317
 20
-13933.59183119141
 10
11061.78607632317
 20
-13932.9514099914
 10
11062.08122696316
 20
-13932.6089238714
 10
11062.32625768317
 20
-13932.41122863139
 10
11062.72164816317
 20
-13932.26365331139
 10
11063.11425420317
 20
-13932.26365331139
 10
11063.50686024316
 20
-13932.26365331139
 10
11063.94958620317
 20
-13932.4613485514
 10
11064.19461692317
 20
-13932.6562593514
 10
11064.29207232317
 20
-13932.8038346714
 10
11064.48976756317
 20
-13933.0015299114
 10
11064.63734288316
 20
-13933.63916667142
 10
11064.68467836317
 20
-13934.0317727114
 10
11064.63734288316
 20
-13934.42437875142
 10
11064.48976756317
 20
-13935.01468003141
 10
11064.34219224317
 20
-13935.2123752714
 10
11064.19461692317
 20
-13935.35995059139
 10
11063.94958620317
 20
-13935.5548613914
 10
11063.50686024316
 20
-13935.7024367114
 97
        0
 75
     0
 76
     1
 98
        0
  0
HATCH
  5
291
330
1F
100
AcDbEntity
  8
Ech.1_5
  6
Continuous
 62
   158
420
    12131
440
 33554687
370
    20
390
5F
100
AcDbHatch
 10
0.0
 20
0.0
 30
0.0
210
0.0
220
0.0
230
1.0
  2
SOLID
 70
     1
 71
     0
 91
        1
 92
        3
 72
     0
 73
     1
 93
       46
 10
11067.14055444317
 20
-13935.75255663141
 10
11066.74794840317
 20
-13935.7024367114
 10
11066.15764712317
 20
-13935.4574059914
 10
11065.91261640317
 20
-13935.2597107514
 10
11065.81516100317
 20
-13935.16225535141
 10
11065.61746576316
 20
-13934.86710471141
 10
11065.46989044317
 20
-13934.3770432714
 10
11065.42255496317
 20
-13933.9844372314
 10
11065.46989044317
 20
-13933.49159135141
 10
11065.66758568317
 20
-13932.9514099914
 10
11065.91261640317
 20
-13932.6562593514
 10
11066.06019172317
 20
-13932.5588039514
 10
11066.30522244317
 20
-13932.41122863139
 10
11066.79806832317
 20
-13932.26365331139
 10
11067.04309904317
 20
-13932.26365331139
 10
11067.33824968317
 20
-13932.26365331139
 10
11067.87843104317
 20
-13932.4613485514
 10
11068.12346176317
 20
-13932.6562593514
 10
11067.87843104317
 20
-13932.9514099914
 10
11067.68073580317
 20
-13932.85395459139
 10
11067.33824968317
 20
-13932.70637927139
 10
11067.09043452317
 20
-13932.70637927139
 10
11066.89552372317
 20
-13932.70637927139
 10
11066.60037308317
 20
-13932.75649919141
 10
11066.40546228317
 20
-13932.9040745114
 10
11066.20776704317
 20
-13933.0516498314
 10
11066.15764712317
 20
-13933.14910523139
 10
11066.06019172317
 20
-13933.5417112714
 10
11066.01007180317
 20
-13934.0317727114
 10
11066.01007180317
 20
-13934.42437875142
 10
11066.20776704317
 20
-13934.86710471141
 10
11066.40546228317
 20
-13935.11213543139
 10
11066.50291768317
 20
-13935.16225535141
 10
11066.65049300317
 20
-13935.2123752714
 10
11066.99297912317
 20
-13935.30983067141
 10
11067.14055444317
 20
-13935.35995059139
 10
11067.33824968317
 20
-13935.30983067141
 10
11067.63061588317
 20
-13935.2597107514
 10
11067.73085572317
 20
-13935.2123752714
 10
11067.73085572317
 20
-13934.3269233514
 10
11066.99297912317
 20
-13934.3269233514
 10
11066.89552372317
 20
-13933.88419739139
 10
11068.22091716317
 20
-13933.88419739139
 10
11068.22091716317
 20
-13935.4574059914
 10
11067.97588644317
 20
-13935.6049813114
 10
11067.43570508316
 20
-13935.7024367114
 97
        0
 75
     0
 76
     1
 98
        0
  0
HATCH
  5
292
330
1F
100
AcDbEntity
  8
Ech.1_5
  6
Continuous
 62
   158
420
    12131
440
 33554687
370
    20
390
5F
100
AcDbHatch
 10
0.0
 20
0.0
 30
0.0
210
0.0
220
0.0
230
1.0
  2
SOLID
 70
     1
 71
     0
 91
        1
 92
        3
 72
     0
 73
     1
 93
        4
 10
11069.25394440317
 20
-13935.7024367114
 10
11069.25394440317
 20
-13932.31377323141
 10
11069.74400584317
 20
-13932.31377323141
 10
11069.74400584317
 20
-13935.7024367114
 97
        0
 75
     0
 76
     1
 98
        0
  0
HATCH
  5
293
330
1F
100
AcDbEntity
  8
Ech.1_5
  6
Continuous
 62
   158
420
    12131
440
 33554687
370
    20
390
5F
100
AcDbHatch
 10
0.0
 20
0.0
 30
0.0
210
0.0
220
0.0
230
1.0
  2
SOLID
 70
     1
 71
     0
 91
        1
 92
        3
 72
     0
 73
     1
 93
       64
 10
11074.06545672317
 20
-13936.4403133114
 10
11073.87054592317
 20
-13936.39019339141
 10
11073.57539528317
 20
-13936.29273799139
 10
11072.79018320317
 20
-13935.85001203139
 10
11072.49503256317
 20
-13935.75255663141
 10
11072.49503256317
 20
-13935.35995059139
 10
11072.74006328317
 20
-13935.2597107514
 10
11072.93497408317
 20
-13935.16225535141
 10
11073.08254940317
 20
-13934.9645601114
 10
11073.13266932317
 20
-13934.86710471141
 10
11073.28024464317
 20
-13934.57195407141
 10
11073.28024464317
 20
-13934.08189263141
 10
11073.28024464317
 20
-13933.73940651141
 10
11073.18278924317
 20
-13933.29668055141
 10
11073.03521392317
 20
-13933.0015299114
 10
11072.83751868317
 20
-13932.85395459139
 10
11072.64260788316
 20
-13932.75649919141
 10
11072.39479272316
 20
-13932.6562593514
 10
11072.25000184317
 20
-13932.6562593514
 10
11072.05230660317
 20
-13932.70637927139
 10
11071.75715596317
 20
-13932.8038346714
 10
11071.56224516316
 20
-13932.9514099914
 10
11071.41466984317
 20
-13933.14910523139
 10
11071.31443000316
 20
-13933.63916667142
 10
11071.31443000316
 20
-13933.93431731141
 10
11071.31443000316
 20
-13934.22946795141
 10
11071.41466984317
 20
-13934.7696493114
 10
11071.60958064317
 20
-13935.0647999514
 10
11071.75715596317
 20
-13935.2123752714
 10
11071.95485120317
 20
-13935.30983067141
 10
11072.19988192317
 20
-13935.35995059139
 10
11072.49503256317
 20
-13935.35995059139
 10
11072.49503256317
 20
-13935.75255663141
 10
11071.95485120317
 20
-13935.7024367114
 10
11071.56224516316
 20
-13935.6049813114
 10
11071.31443000316
 20
-13935.4072860714
 10
11071.21697460316
 20
-13935.30983067141
 10
11070.97194388317
 20
-13935.01468003141
 10
11070.77424864317
 20
-13934.3770432714
 10
11070.77424864317
 20
-13933.9844372314
 10
11070.77424864317
 20
-13933.59183119141
 10
11070.97194388317
 20
-13932.9514099914
 10
11071.26709452317
 20
-13932.6089238714
 10
11071.51212524317
 20
-13932.41122863139
 10
11071.95485120317
 20
-13932.26365331139
 10
11072.29733732317
 20
-13932.26365331139
 10
11072.49503256317
 20
-13932.26365331139
 10
11072.83751868317
 20
-13932.36389315139
 10
11073.28024464317
 20
-13932.5588039514
 10
11073.52527536316
 20
-13932.8038346714
 10
11073.67285068316
 20
-13933.0015299114
 10
11073.82042600317
 20
-13933.63916667142
 10
11073.87054592317
 20
-13934.0317727114
 10
11073.82042600317
 20
-13934.42437875142
 10
11073.67285068316
 20
-13935.01468003141
 10
11073.52527536316
 20
-13935.2123752714
 10
11073.33036456317
 20
-13935.4574059914
 10
11073.13266932317
 20
-13935.5548613914
 10
11073.47793988317
 20
-13935.7024367114
 10
11073.91788140317
 20
-13935.9975873514
 10
11074.16291212317
 20
-13936.09504275141
 10
11074.26315196317
 20
-13936.09504275141
 10
11074.45806276317
 20
-13936.09504275141
 10
11074.31048744317
 20
-13936.4403133114
 97
        0
 75
     0
 76
     1
 98
        0
  0
HATCH
  5
294
330
1F
100
AcDbEntity
  8
Ech.1_5
  6
Continuous
 62
   158
420
    12131
440
 33554687
370
    20
390
5F
100
AcDbHatch
 10
0.0
 20
0.0
 30
0.0
210
0.0
220
0.0
230
1.0
  2
SOLID
 70
     1
 71
     0
 91
        1
 92
        3
 72
     0
 73
     1
 93
       32
 10
11076.03127136317
 20
-13935.75255663141
 10
11075.78624064317
 20
-13935.75255663141
 10
11075.39085016317
 20
-13935.6523167914
 10
11075.14581944317
 20
-13935.5075259114
 10
11074.95090864317
 20
-13935.30983067141
 10
11074.90078872317
 20
-13935.16225535141
 10
11074.80333332317
 20
-13935.0647999514
 10
11074.75321340316
 20
-13934.71952939141
 10
11074.75321340316
 20
-13932.31377323141
 10
11075.29339476317
 20
-13932.31377323141
 10
11075.29339476317
 20
-13934.3269233514
 10
11075.29339476317
 20
-13934.71952939141
 10
11075.34351468317
 20
-13934.91722463139
 10
11075.49109000316
 20
-13935.11213543139
 10
11075.68600080317
 20
-13935.2597107514
 10
11075.93103152316
 20
-13935.30983067141
 10
11076.03127136317
 20
-13935.30983067141
 10
11076.27630208317
 20
-13935.30983067141
 10
11076.52133280317
 20
-13935.2123752714
 10
11076.66890812317
 20
-13935.11213543139
 10
11076.76636352317
 20
-13934.9645601114
 10
11076.81648344317
 20
-13934.67219391141
 10
11076.81648344317
 20
-13932.31377323141
 10
11077.35666480317
 20
-13932.31377323141
 10
11077.35666480317
 20
-13934.4744986714
 10
11077.35666480317
 20
-13934.8197692314
 10
11077.25920940316
 20
-13935.16225535141
 10
11077.11163408316
 20
-13935.35995059139
 10
11077.01417868317
 20
-13935.4574059914
 10
11076.96405876317
 20
-13935.5075259114
 10
11076.71902804317
 20
-13935.6049813114
 10
11076.37375748317
 20
-13935.75255663141
 97
        0
 75
     0
 76
     1
 98
        0
  0
HATCH
  5
295
330
1F
100
AcDbEntity
  8
Ech.1_5
  6
Continuous
 62
   158
420
    12131
440
 33554687
370
    20
390
5F
100
AcDbHatch
 10
0.0
 20
0.0
 30
0.0
210
0.0
220
0.0
230
1.0
  2
SOLID
 70
     1
 71
     0
 91
        1
 92
        3
 72
     0
 73
     1
 93
       12
 10
11078.48714744317
 20
-13935.7024367114
 10
11078.48714744317
 20
-13932.31377323141
 10
11080.59775296317
 20
-13932.31377323141
 10
11080.50029756317
 20
-13932.75649919141
 10
11078.97720888317
 20
-13932.75649919141
 10
11078.97720888317
 20
-13933.73940651141
 10
11080.25526684317
 20
-13933.73940651141
 10
11080.25526684317
 20
-13934.13201255139
 10
11079.02732880317
 20
-13934.13201255139
 10
11079.02732880317
 20
-13935.2123752714
 10
11080.64787288317
 20
-13935.2123752714
 10
11080.64787288317
 20
-13935.7024367114
 97
        0
 75
     0
 76
     1
 98
        0
  0
HATCH
  5
296
330
1F
100
AcDbEntity
  8
Ech.1_5
  6
Continuous
 62
   136
420
    33651
440
 33554687
370
    20
390
5F
100
AcDbHatch
 10
0.0
 20
0.0
 30
0.0
210
0.0
220
0.0
230
1.0
  2
SOLID
 70
     1
 71
     0
 91
        1
 92
        3
 72
     0
 73
     1
 93
       15
 10
11062.22880228317
 20
-13910.55615907141
 10
11062.22880228317
 20
-13908.34531371141
 10
11063.65443556317
 20
-13908.34531371141
 10
11063.99692168317
 20
-13908.34531371141
 10
11064.53710304317
 20
-13908.4928890314
 10
11064.83225368317
 20
-13908.69058427139
 10
11064.92970908317
 20
-13908.83815959139
 10
11065.07728440317
 20
-13909.13052579141
 10
11065.07728440317
 20
-13909.3783409514
 10
11065.07728440317
 20
-13909.67070715141
 10
11064.92970908317
 20
-13909.96585779141
 10
11064.78213376317
 20
-13910.1635530314
 10
11064.53710304317
 20
-13910.3584638314
 10
11064.09437708317
 20
-13910.50603915139
 10
11063.84934636317
 20
-13910.55615907141
 97
        0
 75
     0
 76
     1
 98
        0
  0
HATCH
  5
297
330
1F
100
AcDbEntity
  8
Ech.1_5
  6
Continuous
 62
   136
420
    33651
440
 33554687
370
    20
390
5F
100
AcDbHatch
 10
0.0
 20
0.0
 30
0.0
210
0.0
220
0.0
230
1.0
  2
SOLID
 70
     1
 71
     0
 91
        1
 92
        3
 72
     0
 73
     1
 93
       16
 10
11062.22880228317
 20
-13906.57719431141
 10
11062.22880228317
 20
-13904.5640441914
 10
11063.30916500316
 20
-13904.5640441914
 10
11063.50686024316
 20
-13904.5640441914
 10
11063.89946628317
 20
-13904.71161951141
 10
11064.14449700317
 20
-13904.8591948314
 10
11064.24195240316
 20
-13905.0067701514
 10
11064.34219224317
 20
-13905.2016809514
 10
11064.38952772316
 20
-13905.39937619141
 10
11064.38952772316
 20
-13905.4968315914
 10
11064.34219224317
 20
-13905.74186231141
 10
11064.24195240316
 20
-13906.0370129514
 10
11064.14449700317
 20
-13906.2347081914
 10
11063.94958620317
 20
-13906.4296189914
 10
11063.50686024316
 20
-13906.52985883139
 10
11063.30916500316
 20
-13906.57719431141
 97
        0
 75
     0
 76
     1
 98
        0
  0
HATCH
  5
298
330
1F
100
AcDbEntity
  8
Ech.1_5
  6
Continuous
 62
   136
420
    33651
440
 33554687
370
    20
390
5F
100
AcDbHatch
 10
0.0
 20
0.0
 30
0.0
210
0.0
220
0.0
230
1.0
  2
SOLID
 70
     1
 71
     0
 91
        1
 92
        3
 72
     0
 73
     1
 93
        3
 10
11072.39479272316
 20
-13908.59034443138
 10
11073.67285068316
 20
-13904.71161951141
 10
11074.95090864317
 20
-13908.59034443138
 97
        0
 75
     0
 76
     1
 98
        0
  0
HATCH
  5
299
330
1F
100
AcDbEntity
  8
Ech.1_5
  6
Continuous
 62
   158
420
    12131
440
 33554687
370
    20
390
5F
100
AcDbHatch
 10
0.0
 20
0.0
 30
0.0
210
0.0
220
0.0
230
1.0
  2
SOLID
 70
     1
 71
     0
 91
        3
 92
        3
 72
     0
 73
     1
 93
       25
 10
11039.34070548317
 20
-13917.5311812714
 10
11042.28942744317
 20
-13916.3032432314
 10
11045.82566624317
 20
-13915.41779131141
 10
11048.82172368317
 20
-13914.97506535141
 10
11052.40529796317
 20
-13914.7300346314
 10
11056.58195796317
 20
-13914.78015455141
 10
11058.98771412317
 20
-13914.9277298714
 10
11058.98771412317
 20
-13899.25968599141
 10
11062.18146680317
 20
-13898.4243539914
 10
11064.58722296316
 20
-13897.0488406314
 10
11065.02994892317
 20
-13896.5587791914
 10
11065.12740432317
 20
-13896.4112038714
 10
11065.17752424317
 20
-13896.21350863139
 10
11065.07728440317
 20
-13896.01859783139
 10
11064.88237360317
 20
-13895.7735671114
 10
11064.19461692317
 20
-13895.4282965514
 10
11062.47383300317
 20
-13894.9855705914
 10
11060.55813828317
 20
-13894.7906597914
 10
11058.29995744317
 20
-13894.64308447139
 10
11054.12608188317
 20
-13894.64308447139
 10
11048.62402844317
 20
-13895.03569051141
 10
11042.97718412316
 20
-13896.06593331139
 10
11039.38847295456
 20
-13897.24778266916
 10
11038.55549340317
 20
-13897.68926183141
 10
11038.55549340317
 20
-13918.02124271141
 97
        0
 92
        3
 72
     0
 73
     1
 93
       53
 10
11055.59905064317
 20
-13912.4217338714
 10
11054.76371864317
 20
-13912.4718537914
 10
11053.73347584317
 20
-13912.37439839141
 10
11052.06281184317
 20
-13911.6365217914
 10
11050.88499372317
 20
-13910.3584638314
 10
11050.19723704317
 20
-13908.59034443138
 10
11050.14711712317
 20
-13907.56010163141
 10
11050.19723704317
 20
-13906.52985883139
 10
11050.88499372317
 20
-13904.76173943139
 10
11052.06281184317
 20
-13903.4335615514
 10
11053.73347584317
 20
-13902.69846939141
 10
11054.76371864317
 20
-13902.64834947139
 10
11055.59905064317
 20
-13902.69846939141
 10
11056.97456400317
 20
-13903.1384109114
 10
11057.41728996317
 20
-13903.53380139139
 10
11057.61220076317
 20
-13903.92640743141
 10
11057.61220076317
 20
-13904.31901347139
 10
11057.46462544316
 20
-13904.6141641114
 10
11057.26971464317
 20
-13904.8591948314
 10
11056.97456400317
 20
-13905.0067701514
 10
11056.77686876317
 20
-13905.0067701514
 10
11056.58195796316
 20
-13905.0067701514
 10
11056.18935192317
 20
-13904.90653031141
 10
11055.50159524316
 20
-13904.6141641114
 10
11054.76371864317
 20
-13904.5640441914
 10
11054.42123252316
 20
-13904.5640441914
 10
11053.88105116317
 20
-13904.71161951141
 10
11053.43832520317
 20
-13904.95665023139
 10
11053.04571916317
 20
-13905.25180087141
 10
11052.60299320317
 20
-13905.88943763141
 10
11052.26050708317
 20
-13906.96980035141
 10
11052.21038716316
 20
-13907.6102215514
 10
11052.26050708317
 20
-13908.1977383914
 10
11052.60299320317
 20
-13909.2307656314
 10
11053.04571916317
 20
-13909.8684023914
 10
11053.43832520317
 20
-13910.1635530314
 10
11053.88105116317
 20
-13910.40858375141
 10
11054.42123252316
 20
-13910.50603915139
 10
11054.76371864317
 20
-13910.55615907141
 10
11055.50159524316
 20
-13910.4587036714
 10
11056.23668740316
 20
-13910.1635530314
 10
11056.67941336317
 20
-13910.01597771141
 10
11056.87710860317
 20
-13909.96585779141
 10
11056.97456400317
 20
-13909.96585779141
 10
11057.16947480317
 20
-13910.01597771141
 10
11057.41728996317
 20
-13910.1635530314
 10
11057.61220076317
 20
-13910.4587036714
 10
11057.75977608317
 20
-13910.7538543114
 10
11057.75977608317
 20
-13910.89864519141
 10
11057.70965616317
 20
-13911.0963404314
 10
11057.56486528317
 20
-13911.4889464714
 10
11057.26971464317
 20
-13911.83421703139
 10
11056.82698868317
 20
-13912.0291278314
 97
        0
 92
        3
 72
     0
 73
     1
 93
       37
 10
11044.69518360317
 20
-13912.22682307141
 10
11044.35269748317
 20
-13912.37439839141
 10
11043.90997152317
 20
-13912.37439839141
 10
11043.56470096317
 20
-13912.22682307141
 10
11043.31967024317
 20
-13911.97900791141
 10
11043.12475944317
 20
-13911.58640187139
 10
11043.12475944317
 20
-13903.6312567914
 10
11043.27233476317
 20
-13903.2859862314
 10
11043.56470096317
 20
-13902.99362003141
 10
11043.96009144316
 20
-13902.7959247914
 10
11044.20512216317
 20
-13902.7959247914
 10
11047.59378564317
 20
-13902.7959247914
 10
11047.78869644317
 20
-13902.7959247914
 10
11048.13396700317
 20
-13902.94350011139
 10
11048.37899772316
 20
-13903.2386507514
 10
11048.47645312317
 20
-13903.53380139139
 10
11048.47645312317
 20
-13903.87628751139
 10
11048.37899772316
 20
-13904.22155807141
 10
11048.23142240317
 20
-13904.4164688714
 10
11048.08384708317
 20
-13904.51392427139
 10
11047.78869644317
 20
-13904.6141641114
 10
11047.59378564317
 20
-13904.6614995914
 10
11045.13790956316
 20
-13904.6614995914
 10
11045.13790956316
 20
-13906.57719431141
 10
11047.20117960317
 20
-13906.57719431141
 10
11047.44621032317
 20
-13906.62731423141
 10
11047.78869644317
 20
-13906.7247696314
 10
11048.03651160317
 20
-13907.0199202714
 10
11048.18130248316
 20
-13907.31507091139
 10
11048.18130248316
 20
-13907.6575570314
 10
11048.03651160317
 20
-13908.0028275914
 10
11047.78869644317
 20
-13908.2478583114
 10
11047.44621032317
 20
-13908.39543363139
 10
11047.20117960317
 20
-13908.44276911139
 10
11045.13790956316
 20
-13908.44276911139
 10
11045.13790956316
 20
-13911.58640187139
 10
11044.99033424317
 20
-13911.97900791141
 97
        0
 75
     0
 76
     1
 98
        0
  0
HATCH
  5
29A
330
1F
100
AcDbEntity
  8
Ech.1_5
  6
Continuous
 62
   136
420
    33651
440
 33554687
370
    20
390
5F
100
AcDbHatch
 10
0.0
 20
0.0
 30
0.0
210
0.0
220
0.0
230
1.0
  2
SOLID
 70
     1
 71
     0
 91
        3
 92
        3
 72
     0
 73
     1
 93
       18
 10
11059.07462527193
 20
-13919.4942114714
 10
11062.13134688316
 20
-13919.4942114714
 10
11067.38558516317
 20
-13918.9066946314
 10
11071.65970056317
 20
-13917.6787565914
 10
11074.99824412317
 20
-13916.1556679114
 10
11077.45412020317
 20
-13914.48500391141
 10
11079.12478420317
 20
-13912.96191523142
 10
11080.40284216317
 20
-13911.4388265514
 10
11080.64787288317
 20
-13910.89864519141
 10
11080.64787288317
 20
-13890.6641197114
 10
11080.30260232317
 20
-13891.1569655914
 10
11077.94696608317
 20
-13893.21745119141
 10
11074.21303204317
 20
-13895.5257519514
 10
11070.82436856317
 20
-13897.0488406314
 10
11066.69782848316
 20
-13898.27677867139
 10
11061.78607632317
 20
-13899.11211067141
 10
11058.98771412317
 20
-13899.25968599141
 10
11058.98771412317
 20
-13919.4942114714
 97
        0
 92
        3
 72
     0
 73
     1
 93
       30
 10
11066.79806832317
 20
-13910.89864519141
 10
11066.50291768317
 20
-13911.39149107139
 10
11065.86249648317
 20
-13911.88155251139
 10
11064.73479828317
 20
-13912.2741585514
 10
11064.04704160317
 20
-13912.2741585514
 10
11061.29601488317
 20
-13912.2741585514
 10
11061.10110408317
 20
-13912.2741585514
 10
11060.70571360317
 20
-13912.12658323141
 10
11060.41334740317
 20
-13911.88155251139
 10
11060.26577208316
 20
-13911.5390663914
 10
11060.26577208316
 20
-13903.5811368714
 10
11060.36322748317
 20
-13903.2859862314
 10
11060.46068288317
 20
-13903.1384109114
 10
11060.70571360317
 20
-13902.94350011139
 10
11061.05098416317
 20
-13902.7959247914
 10
11063.84934636317
 20
-13902.7959247914
 10
11064.38952772316
 20
-13902.8460447114
 10
11065.27497964317
 20
-13903.1384109114
 10
11065.96273632317
 20
-13903.77883211141
 10
11066.35534236317
 20
-13904.6141641114
 10
11066.35534236317
 20
-13905.4968315914
 10
11066.20776704317
 20
-13906.08713287139
 10
11065.91261640317
 20
-13906.57719431141
 10
11065.42255496317
 20
-13906.96980035141
 10
11065.12740432317
 20
-13907.11737567141
 10
11065.57013028317
 20
-13907.21761551141
 10
11066.30522244317
 20
-13907.6102215514
 10
11066.84540380317
 20
-13908.1977383914
 10
11067.14055444317
 20
-13908.98573491141
 10
11067.14055444317
 20
-13910.06609763141
 97
        0
 92
        3
 72
     0
 73
     1
 93
       35
 10
11076.37375748317
 20
-13912.2741585514
 10
11076.12872676317
 20
-13912.0792477514
 10
11075.98115144317
 20
-13911.83421703139
 10
11075.93103152316
 20
-13911.6866417114
 10
11075.53842548317
 20
-13910.40858375141
 10
11071.80727588317
 20
-13910.40858375141
 10
11071.41466984317
 20
-13911.6866417114
 10
11071.36454992316
 20
-13911.83421703139
 10
11071.21697460316
 20
-13912.0792477514
 10
11070.97194388317
 20
-13912.2741585514
 10
11070.62667332317
 20
-13912.37439839141
 10
11070.23406728316
 20
-13912.37439839141
 10
11069.89158116317
 20
-13912.22682307141
 10
11069.64655044317
 20
-13911.97900791141
 10
11069.49897512317
 20
-13911.6365217914
 10
11069.44885520317
 20
-13911.4388265514
 10
11069.49897512317
 20
-13911.14646035141
 10
11069.54631060317
 20
-13910.99888503141
 10
11072.25000184317
 20
-13903.72871219139
 10
11072.34745724317
 20
-13903.53380139139
 10
11072.59248796317
 20
-13903.1384109114
 10
11072.98509400317
 20
-13902.7959247914
 10
11073.42781996317
 20
-13902.64834947139
 10
11073.91788140317
 20
-13902.64834947139
 10
11074.36060736317
 20
-13902.7959247914
 10
11074.75321340316
 20
-13903.09107543139
 10
11074.99824412317
 20
-13903.53380139139
 10
11075.09848396316
 20
-13903.72871219139
 10
11077.69915092317
 20
-13910.99888503141
 10
11077.79939076317
 20
-13911.29403567141
 10
11077.79939076317
 20
-13911.6866417114
 10
11077.65181544317
 20
-13912.0291278314
 10
11077.40678472317
 20
-13912.22682307141
 10
11077.06151416317
 20
-13912.37439839141
 10
11076.71902804317
 20
-13912.37439839141
 97
        0
 75
     0
 76
     1
 98
        0
  0
HATCH
  5
29B
330
1F
100
AcDbEntity
  8
Ech.1_5
  6
Continuous
 62
   158
420
    12131
440
 33554687
370
    20
390
5F
100
AcDbHatch
 10
0.0
 20
0.0
 30
0.0
210
0.0
220
0.0
230
1.0
  2
SOLID
 70
     1
 71
     0
 91
        1
 92
        3
 72
     0
 73
     1
 93
        4
 10
11038.85064404317
 20
-13928.7775344314
 10
11038.85064404317
 20
-13925.3888709514
 10
11039.34070548317
 20
-13925.3888709514
 10
11039.34070548317
 20
-13928.7775344314
 97
        0
 75
     0
 76
     1
 98
        0
  0
HATCH
  5
29C
330
1F
100
AcDbEntity
  8
Ech.1_5
  6
Continuous
 62
   158
420
    12131
440
 33554687
370
    20
390
5F
100
AcDbHatch
 10
0.0
 20
0.0
 30
0.0
210
0.0
220
0.0
230
1.0
  2
SOLID
 70
     1
 71
     0
 91
        1
 92
        3
 72
     0
 73
     1
 93
       18
 10
11040.56864352317
 20
-13928.7775344314
 10
11040.56864352317
 20
-13925.3888709514
 10
11041.15894480317
 20
-13925.3888709514
 10
11042.23930752317
 20
-13927.2071102714
 10
11042.58457808317
 20
-13927.7946271114
 10
11042.68203348317
 20
-13927.99232235139
 10
11042.63191356317
 20
-13927.5495963914
 10
11042.63191356317
 20
-13927.1068704314
 10
11042.58457808317
 20
-13925.3888709514
 10
11043.07463952317
 20
-13925.3888709514
 10
11043.07463952317
 20
-13928.7775344314
 10
11042.58457808317
 20
-13928.7775344314
 10
11041.50421536317
 20
-13926.9592951114
 10
11041.25640020316
 20
-13926.6168089914
 10
11041.01136948317
 20
-13926.07662763141
 10
11041.01136948317
 20
-13926.3717782714
 10
11041.06148940317
 20
-13927.0094150314
 10
11041.06148940317
 20
-13928.7775344314
 97
        0
 75
     0
 76
     1
 98
        0
  0
LWPOLYLINE
  5
29D
330
1F
100
AcDbEntity
  8
Ech.1_5
  6
Continuous
 62
   190
370
    15
390
5F
100
AcDbPolyline
 90
        3
 70
     0
 43
0.0
 10
11621.38417766283
 20
-12693.65792954854
 10
11685.11663429656
 20
-12693.65792954854
 10
11705.11663429656
 20
-12693.65792954854
  0
INSERT
  5
29E
330
1F
100
AcDbEntity
  8
Ech.1_5
 62
   190
370
    15
100
AcDbBlockReference
  2
cw-line-extremity4
 10
11621.38417766283
 20
-12693.65792954854
 30
0.0
  0
LWPOLYLINE
  5
29F
330
1F
100
AcDbEntity
  8
Ech.1_5
  6
Continuous
 62
   190
370
    15
390
5F
100
AcDbPolyline
 90
        3
 70
     0
 43
0.0
 10
11590.48159688874
 20
-12772.6448550615
 10
11683.29878049209
 20
-12772.6448550615
 10
11703.29878049209
 20
-12772.6448550615
  0
INSERT
  5
2A0
330
1F
100
AcDbEntity
  8
Ech.1_5
 62
   190
370
    15
100
AcDbBlockReference
  2
cw-line-extremity4
 10
11590.48159688874
 20
-12772.6448550615
 30
0.0
  0
LWPOLYLINE
  5
2A1
330
1F
100
AcDbEntity
  8
Ech.1_5
  6
Continuous
 62
   190
370
    15
390
5F
100
AcDbPolyline
 90
        3
 70
     0
 43
0.0
 10
11575.84352632119
 20
-12895.6151169337
 10
11684.66663429656
 20
-12895.6151169337
 10
11704.66663429656
 20
-12895.6151169337
  0
INSERT
  5
2A2
330
1F
100
AcDbEntity
  8
Ech.1_5
 62
   190
370
    15
100
AcDbBlockReference
  2
cw-line-extremity4
 10
11575.84352632119
 20
-12895.6151169337
 30
0.0
  0
LWPOLYLINE
  5
2A3
330
1F
100
AcDbEntity
  8
Ech.1_5
  6
Continuous
 62
   190
370
    15
390
5F
100
AcDbPolyline
 90
        3
 70
     0
 43
0.0
 10
11560.95537213812
 20
-13299.58667497955
 10
11512.59744663
 20
-13243.90121606203
 10
11492.59744663
 20
-13243.90121606203
  0
INSERT
  5
2A4
330
1F
100
AcDbEntity
  8
Ech.1_5
 62
   190
370
    15
100
AcDbBlockReference
  2
cw-line-extremity4
 10
11560.95537213812
 20
-13299.58667497955
 30
0.0
 50
130.9714434383162
  0
LWPOLYLINE
  5
2A5
330
1F
100
AcDbEntity
  8
Ech.1_5
  6
Continuous
 62
   190
370
    15
390
5F
100
AcDbPolyline
 90
        3
 70
     0
 43
0.0
 10
11590.48159688874
 20
-12844.7983084814
 10
11683.29878049209
 20
-12844.7983084814
 10
11703.29878049209
 20
-12844.7983084814
  0
INSERT
  5
2A6
330
1F
100
AcDbEntity
  8
Ech.1_5
 62
   190
370
    15
100
AcDbBlockReference
  2
cw-line-extremity4
 10
11590.48159688874
 20
-12844.7983084814
 30
0.0
  0
LWPOLYLINE
  5
2A7
330
1F
100
AcDbEntity
  8
Ech.1_5
  6
Continuous
 62
   190
370
    15
390
5F
100
AcDbPolyline
 90
        3
 70
     0
 43
0.0
 10
11485.84656811237
 20
-13045.67898172244
 10
11684.66663429656
 20
-13045.67898172244
 10
11704.66663429656
 20
-13045.67898172244
  0
INSERT
  5
2A8
330
1F
100
AcDbEntity
  8
Ech.1_5
 62
   190
370
    15
100
AcDbBlockReference
  2
cw-line-extremity4
 10
11485.84656811237
 20
-13045.67898172244
 30
0.0
  0
LWPOLYLINE
  5
2A9
330
1F
100
AcDbEntity
  8
Ech.1_5
  6
Continuous
 62
   190
370
    15
390
5F
100
AcDbPolyline
 90
        3
 70
     0
 43
0.0
 10
11323.46393664821
 20
-12687.88976222146
 10
11278.56746465913
 20
-12687.88976222146
 10
11258.56746465913
 20
-12687.88976222146
  0
INSERT
  5
2AA
330
1F
100
AcDbEntity
  8
Ech.1_5
 62
   190
370
    15
100
AcDbBlockReference
  2
cw-line-extremity4
 10
11323.46393664821
 20
-12687.88976222146
 30
0.0
 50
180.0
  0
LWPOLYLINE
  5
2AB
330
1F
100
AcDbEntity
  8
Ech.1_5
  6
Continuous
 62
   190
370
    15
390
5F
100
AcDbPolyline
 90
        3
 70
     0
 43
0.0
 10
11358.17659560376
 20
-12858.91078963059
 10
11278.56746465913
 20
-12858.91078963059
 10
11258.56746465913
 20
-12858.91078963059
  0
INSERT
  5
2AC
330
1F
100
AcDbEntity
  8
Ech.1_5
 62
   190
370
    15
100
AcDbBlockReference
  2
cw-line-extremity4
 10
11358.17659560376
 20
-12858.91078963059
 30
0.0
 50
180.0
  0
LWPOLYLINE
  5
2AD
330
1F
100
AcDbEntity
  8
Ech.1_5
  6
Continuous
 62
   190
370
    15
390
5F
100
AcDbPolyline
 90
        3
 70
     0
 43
0.0
 10
11424.64700277448
 20
-13129.17990067951
 10
11278.78081255952
 20
-13129.17990067951
 10
11258.78081255952
 20
-13129.17990067951
  0
INSERT
  5
2AE
330
1F
100
AcDbEntity
  8
Ech.1_5
 62
   190
370
    15
100
AcDbBlockReference
  2
cw-line-extremity4
 10
11424.64700277448
 20
-13129.17990067951
 30
0.0
 50
180.0
  0
LWPOLYLINE
  5
2AF
330
1F
100
AcDbEntity
  8
Ech.1_5
  6
Continuous
 62
   190
370
    15
390
5F
100
AcDbPolyline
 90
        3
 70
     0
 43
0.0
 10
11397.94032019436
 20
-12919.01573762319
 10
11278.56746465913
 20
-12919.01573762319
 10
11258.56746465913
 20
-12919.01573762319
  0
INSERT
  5
2B0
330
1F
100
AcDbEntity
  8
Ech.1_5
 62
   190
370
    15
100
AcDbBlockReference
  2
cw-line-extremity4
 10
11397.94032019436
 20
-12919.01573762319
 30
0.0
 50
180.0
  0
LWPOLYLINE
  5
2B1
330
1F
100
AcDbEntity
  8
Ech.1_5
  6
Continuous
 62
   190
370
    15
390
5F
100
AcDbPolyline
 90
        3
 70
     0
 43
0.0
 10
11387.29366924045
 20
-13034.06642119287
 10
11278.56746465913
 20
-13034.06642119287
 10
11258.56746465913
 20
-13034.06642119287
  0
INSERT
  5
2B2
330
1F
100
AcDbEntity
  8
Ech.1_5
 62
   190
370
    15
100
AcDbBlockReference
  2
cw-line-extremity4
 10
11387.29366924045
 20
-13034.06642119287
 30
0.0
 50
180.0
  0
LWPOLYLINE
  5
2B3
330
1F
100
AcDbEntity
  8
Ech.1_5
  6
Continuous
 62
   190
370
    15
390
5F
100
AcDbPolyline
 90
        3
 70
     0
 43
0.0
 10
11323.46789672945
 20
-12687.8896833789
 10
11278.57142474037
 20
-12687.8896833789
 10
11258.57142474037
 20
-12687.8896833789
  0
INSERT
  5
2B4
330
1F
100
AcDbEntity
  8
Ech.1_5
 62
   190
370
    15
100
AcDbBlockReference
  2
cw-line-extremity4
 10
11323.46789672945
 20
-12687.8896833789
 30
0.0
 50
180.0
  0
LWPOLYLINE
  5
2B5
330
1F
100
AcDbEntity
  8
Ech.1_5
  6
Continuous
 62
   190
370
    15
390
5F
100
AcDbPolyline
 90
        3
 70
     0
 43
0.0
 10
11729.54653288476
 20
-13578.22713840294
 10
11746.87874402506
 20
-13675.54851165176
 10
11766.87874402506
 20
-13675.54851165176
  0
INSERT
  5
2B6
330
1F
100
AcDbEntity
  8
Ech.1_5
 62
   190
370
    15
100
AcDbBlockReference
  2
cw-line-extremity4
 10
11729.54653288476
 20
-13578.22713840294
 30
0.0
 50
280.0980793994
  0
LWPOLYLINE
  5
2B7
330
1F
100
AcDbEntity
  8
Ech.1_5
  6
Continuous
 62
   190
370
    15
390
5F
100
AcDbPolyline
 90
        3
 70
     0
 43
0.0
 10
11482.41069315249
 20
-13592.26295036457
 10
11508.12992585285
 20
-13675.54851165176
 10
11528.12992585285
 20
-13675.54851165176
  0
INSERT
  5
2B8
330
1F
100
AcDbEntity
  8
Ech.1_5
 62
   190
370
    15
100
AcDbBlockReference
  2
cw-line-extremity4
 10
11482.41069315249
 20
-13592.26295036457
 30
0.0
 50
287.1610971361308
  0
LWPOLYLINE
  5
2B9
330
1F
100
AcDbEntity
  8
Ech.1_5
  6
Continuous
 62
   190
370
    15
390
5F
100
AcDbPolyline
 90
        3
 70
     0
 43
0.0
 10
11433.84959422705
 20
-13560.87103467025
 10
11372.0494547894
 20
-13635.27591326225
 10
11352.0494547894
 20
-13635.27591326225
  0
INSERT
  5
2BA
330
1F
100
AcDbEntity
  8
Ech.1_5
 62
   190
370
    15
100
AcDbBlockReference
  2
cw-line-extremity4
 10
11433.84959422705
 20
-13560.87103467025
 30
0.0
 50
230.287229770213
  0
LWPOLYLINE
  5
2BB
330
1F
100
AcDbEntity
  8
Ech.1_5
  6
Continuous
 62
   190
370
    15
390
5F
100
AcDbPolyline
 90
        3
 70
     0
 43
0.0
 10
11342.29992129287
 20
-12775.99181221741
 10
11278.56746465913
 20
-12775.99181221741
 10
11258.56746465913
 20
-12775.99181221741
  0
INSERT
  5
2BC
330
1F
100
AcDbEntity
  8
Ech.1_5
 62
   190
370
    15
100
AcDbBlockReference
  2
cw-line-extremity4
 10
11342.29992129287
 20
-12775.99181221741
 30
0.0
 50
180.0
  0
LWPOLYLINE
  5
2BD
330
1F
100
AcDbEntity
  8
Ech.1_5
  6
Continuous
 62
   190
370
    15
390
5F
100
AcDbPolyline
 90
        3
 70
     0
 43
0.0
 10
11314.1437824387
 20
-13382.7419585698
 10
11213.8310437928
 20
-13428.83666343313
 10
11193.8310437928
 20
-13428.83666343313
  0
INSERT
  5
2BE
330
1F
100
AcDbEntity
  8
Ech.1_5
 62
   190
370
    15
100
AcDbBlockReference
  2
cw-line-extremity4
 10
11314.1437824387
 20
-13382.7419585698
 30
0.0
 50
204.6792533463002
  0
LWPOLYLINE
  5
2BF
330
1F
100
AcDbEntity
  8
Ech.1_5
  6
Continuous
 62
   190
370
    15
390
5F
100
AcDbPolyline
 90
        3
 70
     0
 43
0.0
 10
11388.57305853552
 20
-13393.30940398679
 10
11213.8310437928
 20
-13486.29085749225
 10
11193.8310437928
 20
-13486.29085749225
  0
INSERT
  5
2C0
330
1F
100
AcDbEntity
  8
Ech.1_5
 62
   190
370
    15
100
AcDbBlockReference
  2
cw-line-extremity4
 10
11388.57305853552
 20
-13393.30940398679
 30
0.0
 50
208.0177565817583
  0
LWPOLYLINE
  5
2C1
330
1F
100
AcDbEntity
  8
Ech.1_5
  6
Continuous
 62
   190
370
    15
390
5F
100
AcDbPolyline
 90
        3
 70
     0
 43
0.0
 10
11279.16244417545
 20
-13344.56132470479
 10
11213.8310437928
 20
-13374.53994412185
 10
11193.8310437928
 20
-13374.53994412185
  0
INSERT
  5
2C2
330
1F
100
AcDbEntity
  8
Ech.1_5
 62
   190
370
    15
100
AcDbBlockReference
  2
cw-line-extremity4
 10
11279.16244417545
 20
-13344.56132470479
 30
0.0
 50
204.6489701392665
  0
LWPOLYLINE
  5
2C3
330
1F
100
AcDbEntity
  8
Ech.1_5
  6
Continuous
 62
   190
370
    15
390
5F
100
AcDbPolyline
 90
        3
 70
     0
 43
0.0
 10
11357.37125310874
 20
-13495.71017439789
 10
11213.8310437928
 20
-13529.95612892471
 10
11193.8310437928
 20
-13529.95612892471
  0
INSERT
  5
2C4
330
1F
100
AcDbEntity
  8
Ech.1_5
 62
   190
370
    15
100
AcDbBlockReference
  2
cw-line-extremity4
 10
11357.37125310874
 20
-13495.71017439789
 30
0.0
 50
193.4188292481649
  0
LWPOLYLINE
  5
2C5
330
1F
100
AcDbEntity
  8
Ech.1_5
  6
Continuous
 62
   190
370
    15
390
5F
100
AcDbPolyline
 90
        3
 70
     0
 43
0.0
 10
11299.71828669478
 20
-13324.87387257045
 10
11213.8310437928
 20
-13307.99072201746
 10
11193.8310437928
 20
-13307.99072201746
  0
INSERT
  5
2C6
330
1F
100
AcDbEntity
  8
Ech.1_5
 62
   190
370
    15
100
AcDbBlockReference
  2
cw-line-extremity4
 10
11299.71828669478
 20
-13324.87387257045
 30
0.0
 50
168.8789678416895
  0
LWPOLYLINE
  5
2C7
330
1F
100
AcDbEntity
  8
Ech.1_5
  6
Continuous
 62
   190
370
    15
390
5F
100
AcDbPolyline
 90
        3
 70
     0
 43
0.0
 10
11414.41999538465
 20
-13536.45930777887
 10
11213.8310437928
 20
-13629.06108656448
 10
11193.8310437928
 20
-13629.06108656448
  0
INSERT
  5
2C8
330
1F
100
AcDbEntity
  8
Ech.1_5
 62
   190
370
    15
100
AcDbBlockReference
  2
cw-line-extremity4
 10
11414.41999538465
 20
-13536.45930777887
 30
0.0
 50
204.7803826929958
  0
MTEXT
  5
2CA
330
1F
100
AcDbEntity
  8
Ech.1_5
  6
Continuous
 62
     4
420
    65535
390
5F
100
AcDbMText
 10
11711.99163429656
 20
-12686.74495810033
 30
0.0
 40
13.75
 41
173.75
 46
0.0
 71
     1
 72
     1
  1
{\fArial|b0|i0;\W1.000000;\H13.750000;\c16711848;Plaque de plâtre}
  7
arial-
 73
     1
 44
1.07999975538982
  0
MTEXT
  5
2CB
330
1F
100
AcDbEntity
  8
Ech.1_5
  6
Continuous
 62
     4
420
    65535
390
5F
100
AcDbMText
 10
11710.17378049209
 20
-12765.73188361334
 30
0.0
 40
13.75
 41
195.9049613464158
 46
0.0
 71
     1
 72
     1
  1
{\fArial|b0|i0;\W1.000000;\H13.750000;\c16711848;Contre-ossature intérieure}
  7
arial-
 73
     1
 44
1.07999975538982
  0
MTEXT
  5
2CC
330
1F
100
AcDbEntity
  8
Ech.1_5
  6
Continuous
 62
     4
420
    65535
390
5F
100
AcDbMText
 10
11711.54163429656
 20
-13038.76601027429
 30
0.0
 40
13.75
 41
173.75
 46
0.0
 71
     1
 72
     1
  1
{\fArial|b0|i0;\W1.000000;\H13.750000;\c16711848;Isolant}
  7
arial-
 73
     1
 44
1.07999975538982
  0
MTEXT
  5
2CD
330
1F
100
AcDbEntity
  8
Ech.1_5
  6
Continuous
 62
     4
420
    65535
390
5F
100
AcDbMText
 10
11711.54163429656
 20
-12888.70214548555
 30
0.0
 40
13.75
 41
173.75
 46
0.0
 71
     1
 72
     1
  1
{\fArial|b0|i0;\W1.000000;\H13.750000;\c16711848;Pare-vapeur}
  7
arial-
 73
     1
 44
1.07999975538982
  0
MTEXT
  5
2CE
330
1F
100
AcDbEntity
  8
Ech.1_5
  6
Continuous
 62
     4
420
    65535
390
5F
100
AcDbMText
 10
11485.72244663
 20
-13236.98824461387
 30
0.0
 40
13.75
 41
173.75
 46
0.0
 71
     3
 72
     1
  1
{\fArial|b0|i0;\W1.000000;\H13.750000;\c16711848;Plaque de plâtre}
  7
arial-
 73
     1
 44
1.07999975538982
  0
MTEXT
  5
2CF
330
1F
100
AcDbEntity
  8
Ech.1_5
  6
Continuous
 62
     4
420
    65535
390
5F
100
AcDbMText
 10
11710.17378049209
 20
-12837.88533703324
 30
0.0
 40
13.75
 41
195.9049613464158
 46
0.0
 71
     1
 72
     1
  1
{\fArial|b0|i0;\W1.000000;\H13.750000;\c16711848;Isolant}
  7
arial-
 73
     1
 44
1.07999975538982
  0
MTEXT
  5
2D0
330
1F
100
AcDbEntity
  8
Ech.1_5
  6
Continuous
 62
     4
420
    65535
390
5F
100
AcDbMText
 10
11577.00424003544
 20
-13811.34143865525
 30
0.0
 40
12.5
 41
488.3428846351944
 46
0.0
 71
     2
 72
     1
  1
{\fArial|b0|i0;\W1.000000;\H12.500000;\c16711848;Vue en coupe verticale et horizontale}
  7
arial-
 73
     1
 44
1.07999975538982
  0
MTEXT
  5
2D1
330
1F
100
AcDbEntity
  8
Ech.1_5
  6
Continuous
 62
     4
420
    65535
390
5F
100
AcDbMText
 10
11897.32435005629
 20
-13811.1742621626
 30
0.0
 40
12.5
 41
127.297335406498
 46
0.0
 71
     2
 72
     1
  1
{\fArial|b0|i0;\W1.000000;\H12.500000;\c16711848;Ech 1/5 }
  7
arial-
 73
     1
 44
1.07999975538982
  0
MTEXT
  5
2D2
330
1F
100
AcDbEntity
  8
Ech.1_5
  6
Continuous
 62
     4
420
    65535
390
5F
100
AcDbMText
 10
11248.50518872017
 20
-13810.90250586012
 30
0.0
 40
12.5
 41
143.6552179953505
 46
0.0
 71
     2
 72
     1
  1
{\fArial|b0|i0;\W1.000000;\H12.500000;\c16711848;ME08-02 }
  7
arial-
 73
     1
 44
1.07999975538982
  0
MTEXT
  5
2D4
330
1F
100
AcDbEntity
  8
Ech.1_5
  6
Continuous
 62
   200
420
 11010303
390
5F
100
AcDbMText
 10
11474.72301775954
 20
-13833.92162319696
 30
0.0
 40
8.75
 41
976.25
 46
0.0
 71
     2
 72
     1
  3
{\fArial|b0|i1;\W1.000000;\H8.750000;\c16711848; Il est rappelé à l'utilisateur qui consulte le site et utilise les informations qu'il contient, qu'il doit les utiliser sous sa seule responsabilité en vérifiant leur pertinence, leur cohérence et leur
  1
 non obsolescence.}
  7
arial-i
 73
     1
 44
1.07999975538982
  0
MTEXT
  5
2D6
330
1F
100
AcDbEntity
  8
Ech.1_5
  6
Continuous
 62
   200
420
 11010303
390
5F
100
AcDbMText
 10
11474.72301775954
 20
-13720.26054285447
 30
0.0
 40
16.25
 41
968.75
 46
0.0
 71
     2
 72
     1
  1
{\fArial|b1|i0;\W1.000000;\H16.250000;\c16711848;MUR EXTERIEUR TYPE 8: Isolant en âme et en doublage intérieur et extérieur}
  7
arial-b
 73
     1
 44
1.07999975538982
  0
MTEXT
  5
2D7
330
1F
100
AcDbEntity
  8
Ech.1_5
  6
Continuous
 62
     4
420
    65535
390
5F
100
AcDbMText
 10
11474.72301775954
 20
-13751.61750601271
 30
0.0
 40
16.25
 41
968.75
 46
0.0
 71
     2
 72
     1
  1
{\fArial|b0|i0;\W1.000000;\H16.250000;\c16711848;Partie courante}
  7
arial-
 73
     1
 44
1.07999975538982
  0
MTEXT
  5
2D8
330
1F
100
AcDbEntity
  8
Ech.1_5
  6
Continuous
 62
     4
420
    65535
390
5F
100
AcDbMText
 10
11251.69246465913
 20
-12852.6644790826
 30
0.0
 40
13.75
 41
89.90273773670197
 46
0.0
 71
     3
 72
     1
  1
{\fArial|b0|i0;\W1.000000;\H13.750000;\c16711848;Pare-pluie}
  7
arial-
 73
     1
 44
1.07999975538982
  0
MTEXT
  5
2D9
330
1F
100
AcDbEntity
  8
Ech.1_5
  6
Continuous
 62
     4
420
    65535
390
5F
100
AcDbMText
 10
11251.90581255952
 20
-13123.18322116405
 30
0.0
 40
13.75
 41
135.5808230638522
 46
0.0
 71
     3
 72
     1
  1
{\fArial|b0|i0;\W1.000000;\H13.750000;\c16711848;Voile travaillant}
  7
arial-
 73
     1
 44
1.07999975538982
  0
MTEXT
  5
2DA
330
1F
100
AcDbEntity
  8
Ech.1_5
  6
Continuous
 62
     4
420
    65535
390
5F
100
AcDbMText
 10
11251.69246465913
 20
-12912.7694270752
 30
0.0
 40
13.75
 41
159.9727678437685
 46
0.0
 71
     3
 72
     1
  1
{\fArial|b0|i0;\W1.000000;\H13.750000;\c16711848;Isolant extérieur semi-rigide}
  7
arial-
 73
     1
 44
1.07999975538982
  0
MTEXT
  5
2DB
330
1F
100
AcDbEntity
  8
Ech.1_5
  6
Continuous
 62
     4
420
    65535
390
5F
100
AcDbMText
 10
11251.69246465913
 20
-13027.82011064489
 30
0.0
 40
13.75
 41
150.8042113174579
 46
0.0
 71
     3
 72
     1
  1
{\fArial|b0|i0;\W1.000000;\H13.750000;\c16711848;Contre-ossature extérieure}
  7
arial-
 73
     1
 44
1.07999975538982
  0
MTEXT
  5
2DC
330
1F
100
AcDbEntity
  8
Ech.1_5
  6
Continuous
 62
     4
420
    65535
390
5F
100
AcDbMText
 10
11251.69642474037
 20
-12681.08417455903
 30
0.0
 40
13.75
 41
130.1494896877557
 46
0.0
 71
     3
 72
     1
  1
{\fArial|b0|i0;\W1.000000;\H13.750000;\c16711848;Bardage ventilé}
  7
arial-
 73
     1
 44
1.07999975538982
  0
MTEXT
  5
2DD
330
1F
100
AcDbEntity
  8
Ech.1_5
  6
Continuous
 62
     4
420
    65535
390
5F
100
AcDbMText
 10
11773.75374402506
 20
-13656.29851197958
 30
0.0
 40
13.75
 41
239.0494926441461
 46
0.0
 71
     1
 72
     1
  1
{\fArial|b0|i0;\W1.000000;\H13.750000;\c16711848;Ossature support de bardage}
  7
arial-
 73
     1
 44
1.07999975538982
  0
MTEXT
  5
2DE
330
1F
100
AcDbEntity
  8
Ech.1_5
  6
Continuous
 62
     4
420
    65535
390
5F
100
AcDbMText
 10
11665.15441554061
 20
-13668.74300283189
 30
0.0
 40
13.75
 41
130.1494896877557
 46
0.0
 71
     3
 72
     1
  1
{\fArial|b0|i0;\W1.000000;\H13.750000;\c16711848;Bardage ventilé}
  7
arial-
 73
     1
 44
1.07999975538982
  0
MTEXT
  5
2DF
330
1F
100
AcDbEntity
  8
Ech.1_5
  6
Continuous
 62
     4
420
    65535
390
5F
100
AcDbMText
 10
11251.69246465913
 20
-12756.79027326956
 30
0.0
 40
13.75
 41
197.6424685716647
 46
0.0
 71
     3
 72
     1
  1
{\fArial|b0|i0;\W1.000000;\H13.750000;\c16711848;Ossature support}\P{\fArial|b0|i0;\W1.000000;\H13.750000;\c16711848;de bardage}
  7
arial-
 73
     1
 44
1.07999975538982
  0
MTEXT
  5
2E0
330
1F
100
AcDbEntity
  8
Ech.1_5
  6
Continuous
 62
     4
420
    65535
390
5F
100
AcDbMText
 10
11345.1744547894
 20
-13628.3629418141
 30
0.0
 40
13.75
 41
93.55600610550027
 46
0.0
 71
     3
 72
     1
  1
{\fArial|b0|i0;\W1.000000;\H13.750000;\c16711848;Pare-pluie}
  7
arial-
 73
     1
 44
1.07999975538982
  0
MTEXT
  5
2E1
330
1F
100
AcDbEntity
  8
Ech.1_5
  6
Continuous
 62
     4
420
    65535
390
5F
100
AcDbMText
 10
11186.9560437928
 20
-13421.92369198497
 30
0.0
 40
13.75
 41
173.75
 46
0.0
 71
     3
 72
     1
  1
{\fArial|b0|i0;\W1.000000;\H13.750000;\c16711848;Montants bois}
  7
arial-
 73
     1
 44
1.07999975538982
  0
MTEXT
  5
2E2
330
1F
100
AcDbEntity
  8
Ech.1_5
  6
Continuous
 62
     4
420
    65535
390
5F
100
AcDbMText
 10
11186.9560437928
 20
-13479.3778860441
 30
0.0
 40
13.75
 41
173.75
 46
0.0
 71
     3
 72
     1
  1
{\fArial|b0|i0;\W1.000000;\H13.750000;\c16711848;Isolant}
  7
arial-
 73
     1
 44
1.07999975538982
  0
MTEXT
  5
2E3
330
1F
100
AcDbEntity
  8
Ech.1_5
  6
Continuous
 62
     4
420
    65535
390
5F
100
AcDbMText
 10
11186.9560437928
 20
-13367.6269726737
 30
0.0
 40
13.75
 41
173.75
 46
0.0
 71
     3
 72
     1
  1
{\fArial|b0|i0;\W1.000000;\H13.750000;\c16711848;Pare-vapeur}
  7
arial-
 73
     1
 44
1.07999975538982
  0
MTEXT
  5
2E4
330
1F
100
AcDbEntity
  8
Ech.1_5
  6
Continuous
 62
     4
420
    65535
390
5F
100
AcDbMText
 10
11186.9560437928
 20
-13521.94101932142
 30
0.0
 40
13.75
 41
173.75
 46
0.0
 71
     3
 72
     1
  1
{\fArial|b0|i0;\W1.000000;\H13.750000;\c16711848;Voile travaillant}
  7
arial-
 73
     1
 44
1.07999975538982
  0
MTEXT
  5
2E5
330
1F
100
AcDbEntity
  8
Ech.1_5
  6
Continuous
 62
     4
420
    65535
390
5F
100
AcDbMText
 10
11186.9560437928
 20
-13621.04597696121
 30
0.0
 40
13.75
 41
173.75
 46
0.0
 71
     3
 72
     1
  1
{\fArial|b0|i0;\W1.000000;\H13.750000;\c16711848;Isolant extérieur semi-rigide}
  7
arial-
 73
     1
 44
1.07999975538982
  0
MTEXT
  5
2E6
330
1F
100
AcDbEntity
  8
Ech.1_5
  6
Continuous
 62
     4
420
    65535
390
5F
100
AcDbMText
 10
11186.9560437928
 20
-13301.0777505693
 30
0.0
 40
13.75
 41
173.75
 46
0.0
 71
     3
 72
     1
  1
{\fArial|b0|i0;\W1.000000;\H13.750000;\c16711848;Isolant}
  7
arial-
 73
     1
 44
1.07999975538982
  0
TEXT
  5
2E7
330
1F
100
AcDbEntity
  8
Ech.1_5
  6
Continuous
 62
   190
390
5F
100
AcDbText
 10
11723.17858013946
 20
-13173.9831809307
 30
0.0
 40
8.0
  1
Echelle en mm
  7
arial-
100
AcDbText
  0
TEXT
  5
2E8
330
1F
100
AcDbEntity
  8
Ech.1_5
  6
Continuous
 62
   190
390
5F
100
AcDbText
 10
11709.19799539003
 20
-13202.19301646038
 30
0.0
 40
8.0
  1
0
  7
arial-
100
AcDbText
  0
TEXT
  5
2E9
330
1F
100
AcDbEntity
  8
Ech.1_5
  6
Continuous
 62
   190
390
5F
100
AcDbText
 10
11795.79505328275
 20
-13202.19301646038
 30
0.0
 40
8.0
  1
100
  7
arial-
100
AcDbText
  0
TEXT
  5
2EA
330
1F
100
AcDbEntity
  8
Ech.1_5
  6
Continuous
 62
   190
390
5F
100
AcDbText
 10
11757.05462171687
 20
-13202.19301646038
 30
0.0
 40
8.0
  1
50
  7
arial-
100
AcDbText
  0
TEXT
  5
2EB
330
1F
100
AcDbEntity
  8
Ech.1_5
  6
Continuous
 62
   190
390
5F
100
AcDbText
 10
11035.26189229642
 20
-13823.61244068506
 30
0.0
 40
12.5
  1
30/01/2023
  7
arial-
100
AcDbText
  0
TEXT
  5
2EC
330
1F
100
AcDbEntity
  8
Ech.1_5
  6
Continuous
 62
   190
390
5F
100
AcDbText
 10
11365.17392260573
 20
-13878.87115339746
 30
0.0
 40
12.0
  1
catalogue-bois-construction.fr
  7
arial-i
100
AcDbText
  0
VIEWPORT
  5
217
330
211
100
AcDbEntity
 67
     1
  8
0
  6
Continuous
390
5F
100
AcDbViewport
 10
98.8
 20
135.8
 30
0.0
 40
209.0608
 41
287.3528000000001
 68
     1
 69
     1
 12
128.5
 22
97.5
 13
0.0
 23
0.0
 14
10.0
 24
10.0
 15
10.0
 25
10.0
 16
0.0
 26
0.0
 36
1.0
 17
0.0
 27
0.0
 37
0.0
 42
50.0
 43
0.0
 44
0.0
 45
222.18
 50
0.0
 51
0.0
 72
   100
 90
   557152
  1

281
     0
 71
     1
 74
     0
110
0.0
120
0.0
130
0.0
111
1.0
121
0.0
131
0.0
112
0.0
122
1.0
132
0.0
 79
     0
146
0.0
170
     0
 61
     5
348
2F
292
     1
282
     1
141
0.0
142
0.0
 63
   256
361
218
  0
VIEWPORT
  5
219
330
211
100
AcDbEntity
 67
     1
  8
0
  6
Continuous
 60
     1
390
5F
100
AcDbViewport
 10
98.8
 20
135.8
 30
0.0
 40
197.6
 41
271.6
 68
     2
 69
     2
 12
11474.72301775954
 22
-13267.56557792518
 13
0.0
 23
0.0
 14
10.0
 24
10.0
 15
10.0
 25
10.0
 16
0.0
 26
0.0
 36
1.0
 17
0.0
 27
0.0
 37
0.0
 42
50.0
 43
0.0
 44
0.0
 45
1358.0
 50
0.0
 51
0.0
 72
   100
 90
   557152
  1

281
     0
 71
     1
 74
     0
110
0.0
120
0.0
130
0.0
111
1.0
121
0.0
131
0.0
112
0.0
122
1.0
132
0.0
 79
     0
146
0.0
170
     0
 61
     5
348
2F
292
     1
282
     1
141
0.0
142
0.0
 63
   256
  0
ENDSEC
  0
SECTION
  2
OBJECTS
  0
DICTIONARY
  5
C
330
0
100
AcDbDictionary
281
     1
  3
ACAD_DETAILVIEWSTYLE
350
2F4
  3
ACAD_GROUP
350
D
  3
ACAD_IMAGE_VARS
350
60
  3
ACAD_LAYOUT
350
1A
  3
ACAD_MATERIAL
350
43
  3
ACAD_MLEADERSTYLE
350
5B
  3
ACAD_MLINESTYLE
350
17
  3
ACAD_PLOTSETTINGS
350
19
  3
ACAD_PLOTSTYLENAME
350
E
  3
ACAD_SCALELIST
350
47
  3
ACAD_SECTIONVIEWSTYLE
350
2F5
  3
ACAD_TABLESTYLE
350
59
  3
ACAD_VISUALSTYLE
350
2A
  3
ACAD_WIPEOUT_VARS
350
61
  3
ACDB_RECOMPOSE_DATA
350
2F1
  3
AcDbVariableDictionary
350
2ED
  0
SUN
  5
5D
330
29
100
AcDbSun
 90
        1
290
     0
 63
     7
421
 16777215
 40
1.0
291
     1
 91
  2455826
 92
 54000000
292
     0
 70
     2
 71
   256
280
     1
  0
SUN
  5
218
330
217
100
AcDbSun
 90
        1
290
     0
 63
     7
421
 16777215
 40
1.0
291
     1
 91
  2455826
 92
 54000000
292
     0
 70
     2
 71
   256
280
     1
  0
DICTIONARY
  5
2F4
102
{ACAD_REACTORS
330
C
102
}
330
C
100
AcDbDictionary
281
     1
  0
DICTIONARY
  5
D
102
{ACAD_REACTORS
330
C
102
}
330
C
100
AcDbDictionary
281
     1
  0
RASTERVARIABLES
  5
60
102
{ACAD_REACTORS
330
C
102
}
330
C
100
AcDbRasterVariables
 90
        0
 70
     0
 71
     1
 72
     1
  0
DICTIONARY
  5
1A
102
{ACAD_REACTORS
330
C
102
}
330
C
100
AcDbDictionary
281
     1
  3
CompleteLayout
350
1E
  3
Model
350
22
  3
PrintFrame_281
350
212
  0
DICTIONARY
  5
43
102
{ACAD_REACTORS
330
C
102
}
330
C
100
AcDbDictionary
281
     1
  3
ByBlock
350
45
  3
ByLayer
350
44
  3
Global
350
46
  0
DICTIONARY
  5
5B
102
{ACAD_REACTORS
330
C
102
}
330
C
100
AcDbDictionary
281
     1
  3
Standard
350
5C
  0
DICTIONARY
  5
17
102
{ACAD_REACTORS
330
C
102
}
330
C
100
AcDbDictionary
281
     1
  3
Standard
350
18
  0
DICTIONARY
  5
19
102
{ACAD_REACTORS
330
C
102
}
330
C
100
AcDbDictionary
281
     1
  3
PlotSettings_
350
215
  0
ACDBDICTIONARYWDFLT
  5
E
102
{ACAD_REACTORS
330
C
102
}
330
C
100
AcDbDictionary
281
     1
  3
flat
350
5F
  3
Normal
350
F
  3
round
350
239
100
AcDbDictionaryWithDefault
340
F
  0
DICTIONARY
  5
47
102
{ACAD_REACTORS
330
C
102
}
330
C
100
AcDbDictionary
281
     1
  3
A0
350
48
  3
A1
350
49
  3
A2
350
4A
  3
A3
350
4B
  3
A4
350
4C
  3
A5
350
4D
  3
A6
350
4E
  3
A7
350
4F
  3
A8
350
50
  3
A9
350
51
  3
B0
350
52
  3
B1
350
53
  3
B2
350
54
  3
B3
350
55
  3
B4
350
56
  3
B5
350
57
  3
B6
350
58
  0
DICTIONARY
  5
2F5
102
{ACAD_REACTORS
330
C
102
}
330
C
100
AcDbDictionary
281
     1
  0
DICTIONARY
  5
59
102
{ACAD_REACTORS
330
C
102
}
330
C
100
AcDbDictionary
281
     1
  3
Standard
350
5A
  0
DICTIONARY
  5
2A
102
{ACAD_REACTORS
330
C
102
}
330
C
100
AcDbDictionary
281
     1
  3
2dWireframe
350
2F
  3
Basic
350
32
  3
Brighten
350
36
  3
ColorChange
350
3A
  3
Conceptual
350
34
  3
Dim
350
35
  3
EdgeColorOff
350
3D
  3
Facepattern
350
39
  3
Flat
350
2B
  3
FlatWithEdges
350
2C
  3
Gouraud
350
2D
  3
GouraudWithEdges
350
2E
  3
Hidden
350
31
  3
JitterOff
350
3B
  3
Linepattern
350
38
  3
OverhangOff
350
3C
  3
Realistic
350
33
  3
Shaded
350
42
  3
Shaded with edges
350
41
  3
Shades of Gray
350
3E
  3
Sketchy
350
3F
  3
Thicken
350
37
  3
Wireframe
350
30
  3
X-Ray
350
40
  0
WIPEOUTVARIABLES
  5
61
102
{ACAD_REACTORS
330
C
102
}
330
C
100
AcDbWipeoutVariables
 70
     0
  0
XRECORD
  5
2F1
102
{ACAD_REACTORS
330
C
102
}
330
C
100
AcDbXrecord
280
     1
 90
        1
330
5A
  0
DICTIONARY
  5
2ED
102
{ACAD_REACTORS
330
C
102
}
330
C
100
AcDbDictionary
281
     1
  3
CANNOSCALE
350
2EE
  3
CENTEREXE
350
2F7
  3
CENTERLTYPEFILE
350
2F8
  3
CMLEADERSTYLE
350
2F3
  3
CTABLESTYLE
350
2F2
  3
WIPEOUTFRAME
350
2F6
  0
LAYOUT
  5
1E
102
{ACAD_REACTORS
330
1A
102
}
330
1A
100
AcDbPlotSettings
  1

  2
none_device
  4

  6

 40
0.0
 41
0.0
 42
0.0
 43
0.0
 44
0.0
 45
0.0
 46
0.0
 47
0.0
 48
0.0
 49
0.0
140
0.0
141
0.0
142
1.0
143
1.0
 70
   688
 72
     1
 73
     0
 74
     5
  7

 75
    16
 76
     0
 77
     2
 78
   300
147
1.0
148
0.0
149
0.0
100
AcDbLayout
  1
CompleteLayout
 70
     1
 71
     1
 10
0.0
 20
0.0
 11
420.0
 21
297.0
 12
0.0
 22
0.0
 32
0.0
 14
1.000000000000000E+20
 24
1.000000000000000E+20
 34
1.000000000000000E+20
 15
-1.000000000000000E+20
 25
-1.000000000000000E+20
 35
-1.000000000000000E+20
146
0.0
 13
0.0
 23
0.0
 33
0.0
 16
1.0
 26
0.0
 36
0.0
 17
0.0
 27
1.0
 37
0.0
 76
     0
330
1B
  0
LAYOUT
  5
22
102
{ACAD_REACTORS
330
1A
102
}
330
1A
100
AcDbPlotSettings
  1

  2
none_device
  4
Letter_(8.50_x_11.00_Inches)
  6

 40
6.35
 41
6.35
 42
6.35000508
 43
6.35000508
 44
215.9
 45
279.4
 46
0.0
 47
0.0
 48
0.0
 49
0.0
140
0.0
141
0.0
142
1.0
143
1.0
 70
  1712
 72
     1
 73
     0
 74
     0
  7

 75
     0
 76
     0
 77
     2
 78
   300
147
1.0
148
0.0
149
0.0
100
AcDbLayout
  1
Model
 70
     1
 71
     0
 10
0.0
 20
0.0
 11
420.0
 21
297.0
 12
0.0
 22
0.0
 32
0.0
 14
9116.32829549663
 24
-14457.30704422377
 34
0.0
 15
31769.28913838763
 25
-12018.78313514858
 35
2500.0
146
0.0
 13
0.0
 23
0.0
 33
0.0
 16
1.0
 26
0.0
 36
0.0
 17
0.0
 27
1.0
 37
0.0
 76
     0
330
1F
331
29
  0
LAYOUT
  5
212
102
{ACAD_REACTORS
330
1A
102
}
330
1A
100
AcDbPlotSettings
  1
PlotSettings_
  2
Custom Device
  4
Custom_210.000000x297.000000_12.700000_12.700000_6.200000_6.200000
  6

 40
6.2
 41
12.7
 42
6.2
 43
12.7
 44
210.0
 45
297.0
 46
0.0000000000000142
 47
0.0
 48
0.0
 49
0.0
140
197.6
141
271.6
142
1.0
143
1.0
 70
   756
 72
     1
 73
     0
 74
     4
  7

 75
     0
 76
     0
 77
     2
 78
   300
147
1.0
148
0.0
149
0.0
100
AcDbLayout
  1
PrintFrame_281
 70
     0
 71
     2
 10
-20.0
 20
-7.5
 11
277.0
 21
202.5
 12
0.0
 22
0.0
 32
0.0
 14
-5.730400000000003
 24
-7.876400000000018
 34
0.0
 15
203.3304
 25
279.4764
 35
0.0
146
0.0
 13
0.0
 23
0.0
 33
0.0
 16
1.0
 26
0.0
 36
0.0
 17
0.0
 27
1.0
 37
0.0
 76
     0
330
211
331
217
1001
PLOTTRANSPARENCY
1071
        1
1000
layout-user-created
1070
     1
1000
layout-line-weight-scale
1042
1.0
  0
MATERIAL
  5
45
102
{ACAD_REACTORS
330
43
102
}
330
43
100
AcDbMaterial
  1
ByBlock
 72
     1
 94
      127
  0
MATERIAL
  5
44
102
{ACAD_REACTORS
330
43
102
}
330
43
100
AcDbMaterial
  1
ByLayer
 72
     1
 94
      127
  0
MATERIAL
  5
46
102
{ACAD_REACTORS
330
43
102
}
330
43
100
AcDbMaterial
  1
Global
 72
     1
 94
      127
  0
MLEADERSTYLE
  5
5C
102
{ACAD_REACTORS
330
5B
102
}
330
5B
100
AcDbMLeaderStyle
179
     2
170
     2
171
     1
172
     0
 90
        2
 40
0.0
 41
0.0
173
     1
 91
-1056964608
340
14
 92
       -2
290
     1
 42
2.0
291
     1
 43
8.0
  3
Standard
341
0
 44
4.0
300

342
11
174
     1
178
     6
175
     1
176
     0
 93
-1056964608
 45
4.0
292
     0
297
     0
 46
4.0
343
0
 94
-1056964608
 47
1.0
 49
1.0
140
1.0
293
     1
141
0.0
294
     1
177
     0
142
1.0
295
     0
296
     0
143
3.75
271
     0
272
     9
273
     9
298
     0
  0
MLINESTYLE
  5
18
102
{ACAD_REACTORS
330
17
102
}
330
17
100
AcDbMlineStyle
  2
Standard
 70
     0
  3

 62
   256
 51
90.0
 52
90.0
 71
     2
 49
0.5
 62
   256
  6
BYLAYER
 49
-0.5
 62
   256
  6
BYLAYER
  0
PLOTSETTINGS
  5
215
102
{ACAD_REACTORS
330
19
102
}
330
19
100
AcDbPlotSettings
  1
PlotSettings_
  2
Custom Device
  4
Custom_210.000000x297.000000_12.700000_12.700000_6.200000_6.200000
  6

 40
6.2
 41
12.7
 42
6.2
 43
12.7
 44
210.0
 45
297.0
 46
0.0000000000000142
 47
0.0
 48
0.0
 49
0.0
140
197.6
141
271.6
142
1.0
143
1.0
 70
   756
 72
     1
 73
     0
 74
     4
  7

 75
     0
 76
     0
 77
     2
 78
   300
147
1.0
148
0.0
149
0.0
1001
PLOTTRANSPARENCY
1071
        1
1000
layout-user-created
1070
     1
1000
layout-line-weight-scale
1042
1.0
  0
ACDBPLACEHOLDER
  5
5F
102
{ACAD_REACTORS
330
E
102
}
330
E
  0
ACDBPLACEHOLDER
  5
F
102
{ACAD_REACTORS
330
E
102
}
330
E
  0
ACDBPLACEHOLDER
  5
239
102
{ACAD_REACTORS
330
E
102
}
330
E
  0
SCALE
  5
48
102
{ACAD_REACTORS
330
47
102
}
330
47
100
AcDbScale
 70
     0
300
1:1
140
1.0
141
1.0
290
     1
  0
SCALE
  5
49
102
{ACAD_REACTORS
330
47
102
}
330
47
100
AcDbScale
 70
     0
300
1:2
140
1.0
141
2.0
290
     0
  0
SCALE
  5
4A
102
{ACAD_REACTORS
330
47
102
}
330
47
100
AcDbScale
 70
     0
300
1:4
140
1.0
141
4.0
290
     0
  0
SCALE
  5
4B
102
{ACAD_REACTORS
330
47
102
}
330
47
100
AcDbScale
 70
     0
300
1:5
140
1.0
141
5.0
290
     0
  0
SCALE
  5
4C
102
{ACAD_REACTORS
330
47
102
}
330
47
100
AcDbScale
 70
     0
300
1:8
140
1.0
141
8.0
290
     0
  0
SCALE
  5
4D
102
{ACAD_REACTORS
330
47
102
}
330
47
100
AcDbScale
 70
     0
300
1:10
140
1.0
141
10.0
290
     0
  0
SCALE
  5
4E
102
{ACAD_REACTORS
330
47
102
}
330
47
100
AcDbScale
 70
     0
300
1:16
140
1.0
141
16.0
290
     0
  0
SCALE
  5
4F
102
{ACAD_REACTORS
330
47
102
}
330
47
100
AcDbScale
 70
     0
300
1:20
140
1.0
141
20.0
290
     0
  0
SCALE
  5
50
102
{ACAD_REACTORS
330
47
102
}
330
47
100
AcDbScale
 70
     0
300
1:30
140
1.0
141
30.0
290
     0
  0
SCALE
  5
51
102
{ACAD_REACTORS
330
47
102
}
330
47
100
AcDbScale
 70
     0
300
1:40
140
1.0
141
40.0
290
     0
  0
SCALE
  5
52
102
{ACAD_REACTORS
330
47
102
}
330
47
100
AcDbScale
 70
     0
300
1:50
140
1.0
141
50.0
290
     0
  0
SCALE
  5
53
102
{ACAD_REACTORS
330
47
102
}
330
47
100
AcDbScale
 70
     0
300
1:100
140
1.0
141
100.0
290
     0
  0
SCALE
  5
54
102
{ACAD_REACTORS
330
47
102
}
330
47
100
AcDbScale
 70
     0
300
2:1
140
2.0
141
1.0
290
     0
  0
SCALE
  5
55
102
{ACAD_REACTORS
330
47
102
}
330
47
100
AcDbScale
 70
     0
300
4:1
140
4.0
141
1.0
290
     0
  0
SCALE
  5
56
102
{ACAD_REACTORS
330
47
102
}
330
47
100
AcDbScale
 70
     0
300
8:1
140
8.0
141
1.0
290
     0
  0
SCALE
  5
57
102
{ACAD_REACTORS
330
47
102
}
330
47
100
AcDbScale
 70
     0
300
10:1
140
10.0
141
1.0
290
     0
  0
SCALE
  5
58
102
{ACAD_REACTORS
330
47
102
}
330
47
100
AcDbScale
 70
     0
300
100:1
140
100.0
141
1.0
290
     0
  0
TABLESTYLE
  5
5A
102
{ACAD_REACTORS
330
59
102
}
102
{ACAD_XDICTIONARY
360
2EF
102
}
330
59
100
AcDbTableStyle
  3
Standard
 70
     0
 71
     0
 40
0.06
 41
0.06
280
     0
281
     0
  7
Standard
140
4.5
170
     2
 62
     0
 63
   257
283
     0
 90
        4
 91
        0
  1

274
    -2
284
     1
 64
     0
275
    -2
285
     1
 65
     0
276
    -2
286
     1
 66
     0
277
    -2
287
     1
 67
     0
278
    -2
288
     1
 68
     0
279
    -2
289
     1
 69
     0
  7
Standard
140
6.0
170
     5
 62
     0
 63
   257
283
     0
 90
        4
 91
        0
  1

274
    -2
284
     1
 64
     0
275
    -2
285
     1
 65
     0
276
    -2
286
     1
 66
     0
277
    -2
287
     1
 67
     0
278
    -2
288
     1
 68
     0
279
    -2
289
     1
 69
     0
  7
Standard
140
4.5
170
     5
 62
     0
 63
   257
283
     0
 90
        4
 91
        0
  1

274
    -2
284
     1
 64
     0
275
    -2
285
     1
 65
     0
276
    -2
286
     1
 66
     0
277
    -2
287
     1
 67
     0
278
    -2
288
     1
 68
     0
279
    -2
289
     1
 69
     0
  0
VISUALSTYLE
  5
2F
102
{ACAD_REACTORS
330
2A
102
}
330
2A
100
AcDbVisualStyle
  2
2dWireframe
 70
     4
177
     3
291
     0
 70
    58
 90
        0
176
     1
 90
        2
176
     1
 90
        0
176
     1
 90
        0
176
     1
 40
0.6
176
     1
 40
30.0
176
     1
 62
     7
420
 16777215
176
     1
 90
        1
176
     1
 90
        4
176
     1
 62
     7
176
     1
 62
   257
176
     1
 90
        1
176
     1
 90
        1
176
     1
 40
1.0
176
     1
 90
        0
176
     1
 62
   257
176
     1
 40
1.0
176
     1
 90
        1
176
     1
 90
        6
176
     1
 90
        2
176
     1
 62
     7
176
     1
 90
        5
176
     1
 90
        0
176
     1
 90
        0
176
     1
290
     0
176
     1
 90
        1
176
     1
 40
0.0
176
     1
 90
        0
176
     1
290
     1
176
     1
290
     1
176
     1
290
     0
176
     1
290
     0
176
     1
290
     0
176
     1
290
     0
176
     1
290
     0
176
     1
290
     0
176
     1
290
     0
176
     1
 90
       50
176
     1
 40
0.0
176
     1
 40
1.0
176
     1
 90
        0
176
     1
 62
    18
420
        0
176
     1
 90
       50
176
     1
 90
        3
176
     1
 62
     5
420
      255
176
     1
290
     0
176
     1
 90
       50
176
     1
 90
       50
176
     1
 90
       50
176
     1
290
     0
176
     1
 90
       50
176
     1
 62
   256
176
     0
 40
1.0
176
     0
 90
        2
176
     1
  1
strokes_ogs.tif
176
     1
290
     0
176
     1
 40
1.0
176
     1
 40
1.0
176
     1
  0
VISUALSTYLE
  5
32
102
{ACAD_REACTORS
330
2A
102
}
330
2A
100
AcDbVisualStyle
  2
Basic
 70
     7
177
     3
291
     1
 70
    58
 90
        1
176
     1
 90
        0
176
     1
 90
        1
176
     1
 90
        0
176
     1
 40
0.6
176
     1
 40
30.0
176
     1
 62
     7
420
 16777215
176
     1
 90
        0
176
     1
 90
        4
176
     1
 62
     7
176
     1
 62
   257
176
     1
 90
        1
176
     1
 90
        1
176
     1
 40
1.0
176
     1
 90
        8
176
     1
 62
     7
176
     1
 40
1.0
176
     1
 90
        1
176
     1
 90
        6
176
     1
 90
        2
176
     1
 62
     7
176
     1
 90
        5
176
     1
 90
        0
176
     1
 90
        0
176
     1
290
     0
176
     1
 90
        1
176
     1
 40
0.0
176
     1
 90
        0
176
     1
290
     0
176
     1
290
     1
176
     1
290
     1
176
     1
290
     0
176
     1
290
     0
176
     1
290
     0
176
     1
290
     0
176
     1
290
     0
176
     1
290
     0
176
     1
 90
       50
176
     1
 40
0.0
176
     1
 40
1.0
176
     1
 90
        0
176
     1
 62
    18
420
        0
176
     1
 90
       50
176
     1
 90
        3
176
     1
 62
     5
420
      255
176
     1
290
     0
176
     1
 90
       50
176
     1
 90
       50
176
     1
 90
       50
176
     1
290
     0
176
     1
 90
       50
176
     1
 62
   256
176
     0
 40
1.0
176
     0
 90
        2
176
     1
  1
strokes_ogs.tif
176
     1
290
     0
176
     1
 40
1.0
176
     1
 40
1.0
176
     1
  0
VISUALSTYLE
  5
36
102
{ACAD_REACTORS
330
2A
102
}
330
2A
100
AcDbVisualStyle
  2
Brighten
 70
    12
177
     3
291
     1
 70
    58
 90
        2
176
     1
 90
        2
176
     1
 90
        0
176
     1
 90
        0
176
     1
 40
0.6
176
     1
 40
30.0
176
     1
 62
     7
420
 16777215
176
     1
 90
        1
176
     1
 90
        4
176
     1
 62
     7
176
     1
 62
   257
176
     1
 90
        1
176
     1
 90
        1
176
     1
 40
1.0
176
     1
 90
        8
176
     1
 62
     7
176
     1
 40
1.0
176
     1
 90
        1
176
     1
 90
        6
176
     1
 90
        2
176
     1
 62
     7
176
     1
 90
        5
176
     1
 90
        0
176
     1
 90
        0
176
     1
290
     0
176
     1
 90
        1
176
     1
 40
50.0
176
     1
 90
        0
176
     1
290
     0
176
     1
290
     1
176
     1
290
     1
176
     1
290
     0
176
     1
290
     0
176
     1
290
     0
176
     1
290
     0
176
     1
290
     0
176
     1
290
     0
176
     1
 90
       50
176
     1
 40
0.0
176
     1
 40
1.0
176
     1
 90
        0
176
     1
 62
    18
420
        0
176
     1
 90
       50
176
     1
 90
        3
176
     1
 62
     5
420
      255
176
     1
290
     0
176
     1
 90
       50
176
     1
 90
       50
176
     1
 90
       50
176
     1
290
     0
176
     1
 90
       50
176
     1
 62
   256
176
     0
 40
1.0
176
     0
 90
        2
176
     1
  1
strokes_ogs.tif
176
     1
290
     0
176
     1
 40
1.0
176
     1
 40
1.0
176
     1
  0
VISUALSTYLE
  5
3A
102
{ACAD_REACTORS
330
2A
102
}
330
2A
100
AcDbVisualStyle
  2
ColorChange
 70
    16
177
     3
291
     1
 70
    58
 90
        2
176
     1
 90
        2
176
     1
 90
        3
176
     1
 90
        0
176
     1
 40
0.6
176
     1
 40
30.0
176
     1
 62
     8
420
  8421504
176
     1
 90
        1
176
     1
 90
        4
176
     1
 62
     7
176
     1
 62
   257
176
     1
 90
        1
176
     1
 90
        1
176
     1
 40
1.0
176
     1
 90
        8
176
     1
 62
     8
420
  8421504
176
     1
 40
1.0
176
     1
 90
        1
176
     1
 90
        6
176
     1
 90
        2
176
     1
 62
     7
176
     1
 90
        5
176
     1
 90
        0
176
     1
 90
        0
176
     1
290
     0
176
     1
 90
        1
176
     1
 40
0.0
176
     1
 90
        0
176
     1
290
     0
176
     1
290
     1
176
     1
290
     1
176
     1
290
     0
176
     1
290
     0
176
     1
290
     0
176
     1
290
     0
176
     1
290
     0
176
     1
290
     0
176
     1
 90
       50
176
     1
 40
0.0
176
     1
 40
1.0
176
     1
 90
        0
176
     1
 62
    18
420
        0
176
     1
 90
       50
176
     1
 90
        3
176
     1
 62
     5
420
      255
176
     1
290
     0
176
     1
 90
       50
176
     1
 90
       50
176
     1
 90
       50
176
     1
290
     0
176
     1
 90
       50
176
     1
 62
   256
176
     0
 40
1.0
176
     0
 90
        2
176
     1
  1
strokes_ogs.tif
176
     1
290
     0
176
     1
 40
1.0
176
     1
 40
1.0
176
     1
  0
VISUALSTYLE
  5
34
102
{ACAD_REACTORS
330
2A
102
}
330
2A
100
AcDbVisualStyle
  2
Conceptual
 70
     9
177
     3
291
     0
 70
    58
 90
        3
176
     1
 90
        2
176
     1
 90
        0
176
     1
 90
        0
176
     1
 40
0.6
176
     1
 40
30.0
176
     1
 62
     7
420
 16777215
176
     1
 90
        2
176
     1
 90
        2
176
     1
 62
     7
176
     1
 62
   257
176
     1
 90
        1
176
     1
 90
        1
176
     1
 40
179.0
176
     1
 90
        8
176
     1
 62
     7
176
     1
 40
1.0
176
     1
 90
        1
176
     1
 90
        6
176
     1
 90
        2
176
     1
 62
     7
176
     1
 90
        3
176
     1
 90
        0
176
     1
 90
        0
176
     1
290
     0
176
     1
 90
        1
176
     1
 40
0.0
176
     1
 90
        0
176
     1
290
     0
176
     1
290
     1
176
     1
290
     1
176
     1
290
     0
176
     1
290
     0
176
     1
290
     0
176
     1
290
     0
176
     1
290
     0
176
     1
290
     0
176
     1
 90
       50
176
     1
 40
0.0
176
     1
 40
1.0
176
     1
 90
        0
176
     1
 62
    18
420
        0
176
     1
 90
       50
176
     1
 90
        3
176
     1
 62
     5
420
      255
176
     1
290
     0
176
     1
 90
       50
176
     1
 90
       50
176
     1
 90
       50
176
     1
290
     0
176
     1
 90
       50
176
     1
 62
   256
176
     0
 40
1.0
176
     0
 90
        2
176
     1
  1
strokes_ogs.tif
176
     1
290
     0
176
     1
 40
1.0
176
     1
 40
1.0
176
     1
  0
VISUALSTYLE
  5
35
102
{ACAD_REACTORS
330
2A
102
}
330
2A
100
AcDbVisualStyle
  2
Dim
 70
    11
177
     3
291
     1
 70
    58
 90
        2
176
     1
 90
        2
176
     1
 90
        0
176
     1
 90
        0
176
     1
 40
0.6
176
     1
 40
30.0
176
     1
 62
     7
420
 16777215
176
     1
 90
        1
176
     1
 90
        4
176
     1
 62
     7
176
     1
 62
   257
176
     1
 90
        1
176
     1
 90
        1
176
     1
 40
1.0
176
     1
 90
        8
176
     1
 62
     7
176
     1
 40
1.0
176
     1
 90
        1
176
     1
 90
        6
176
     1
 90
        2
176
     1
 62
     7
176
     1
 90
        5
176
     1
 90
        0
176
     1
 90
        0
176
     1
290
     0
176
     1
 90
        1
176
     1
 40
-50.0
176
     1
 90
        0
176
     1
290
     0
176
     1
290
     1
176
     1
290
     1
176
     1
290
     0
176
     1
290
     0
176
     1
290
     0
176
     1
290
     0
176
     1
290
     0
176
     1
290
     0
176
     1
 90
       50
176
     1
 40
0.0
176
     1
 40
1.0
176
     1
 90
        0
176
     1
 62
    18
420
        0
176
     1
 90
       50
176
     1
 90
        3
176
     1
 62
     5
420
      255
176
     1
290
     0
176
     1
 90
       50
176
     1
 90
       50
176
     1
 90
       50
176
     1
290
     0
176
     1
 90
       50
176
     1
 62
   256
176
     0
 40
1.0
176
     0
 90
        2
176
     1
  1
strokes_ogs.tif
176
     1
290
     0
176
     1
 40
1.0
176
     1
 40
1.0
176
     1
  0
VISUALSTYLE
  5
3D
102
{ACAD_REACTORS
330
2A
102
}
330
2A
100
AcDbVisualStyle
  2
EdgeColorOff
 70
    22
177
     3
291
     1
 70
    58
 90
        2
176
     0
 90
        2
176
     0
 90
        0
176
     0
 90
        0
176
     0
 40
0.6
176
     0
 40
30.0
176
     0
 62
     7
420
 16777215
176
     0
 90
        1
176
     0
 90
        4
176
     0
 62
     7
176
     0
 62
   257
176
     0
 90
        1
176
     0
 90
        1
176
     0
 40
1.0
176
     0
 90
        8
176
     2
 62
     7
176
     0
 40
1.0
176
     0
 90
        1
176
     0
 90
        6
176
     0
 90
        2
176
     0
 62
     7
176
     0
 90
        5
176
     0
 90
        0
176
     0
 90
        0
176
     0
290
     0
176
     0
 90
        1
176
     0
 40
0.0
176
     0
 90
        0
176
     0
290
     0
176
     0
290
     1
176
     0
290
     1
176
     0
290
     0
176
     0
290
     0
176
     0
290
     0
176
     0
290
     0
176
     0
290
     0
176
     0
290
     0
176
     0
 90
       50
176
     0
 40
0.0
176
     0
 40
1.0
176
     0
 90
        0
176
     0
 62
    18
420
        0
176
     0
 90
       50
176
     0
 90
        3
176
     0
 62
     5
420
      255
176
     0
290
     0
176
     0
 90
       50
176
     0
 90
       50
176
     0
 90
       50
176
     0
290
     0
176
     0
 90
       50
176
     0
 62
   256
176
     0
 40
1.0
176
     0
 90
        2
176
     0
  1
strokes_ogs.tif
176
     0
290
     0
176
     0
 40
1.0
176
     0
 40
1.0
176
     0
  0
VISUALSTYLE
  5
39
102
{ACAD_REACTORS
330
2A
102
}
330
2A
100
AcDbVisualStyle
  2
Facepattern
 70
    15
177
     3
291
     1
 70
    58
 90
        2
176
     1
 90
        2
176
     1
 90
        0
176
     1
 90
        0
176
     1
 40
0.6
176
     1
 40
30.0
176
     1
 62
     7
420
 16777215
176
     1
 90
        1
176
     1
 90
        4
176
     1
 62
     7
176
     1
 62
   257
176
     1
 90
        1
176
     1
 90
        1
176
     1
 40
1.0
176
     1
 90
        8
176
     1
 62
     7
176
     1
 40
1.0
176
     1
 90
        1
176
     1
 90
        6
176
     1
 90
        2
176
     1
 62
     7
176
     1
 90
        5
176
     1
 90
        0
176
     1
 90
        0
176
     1
290
     0
176
     1
 90
        1
176
     1
 40
0.0
176
     1
 90
        0
176
     1
290
     0
176
     1
290
     1
176
     1
290
     1
176
     1
290
     0
176
     1
290
     0
176
     1
290
     0
176
     1
290
     0
176
     1
290
     0
176
     1
290
     0
176
     1
 90
       50
176
     1
 40
0.0
176
     1
 40
1.0
176
     1
 90
        0
176
     1
 62
    18
420
        0
176
     1
 90
       50
176
     1
 90
        3
176
     1
 62
     5
420
      255
176
     1
290
     0
176
     1
 90
       50
176
     1
 90
       50
176
     1
 90
       50
176
     1
290
     0
176
     1
 90
       50
176
     1
 62
   256
176
     0
 40
1.0
176
     0
 90
        2
176
     1
  1
strokes_ogs.tif
176
     1
290
     0
176
     1
 40
1.0
176
     1
 40
1.0
176
     1
  0
VISUALSTYLE
  5
2B
102
{ACAD_REACTORS
330
2A
102
}
330
2A
100
AcDbVisualStyle
  2
Flat
 70
     0
177
     3
291
     1
 70
    58
 90
        2
176
     1
 90
        1
176
     1
 90
        1
176
     1
 90
        2
176
     1
 40
0.6
176
     1
 40
30.0
176
     1
 62
     7
420
 16777215
176
     1
 90
        0
176
     1
 90
        0
176
     1
 62
     7
176
     1
 62
   257
176
     1
 90
        1
176
     1
 90
        1
176
     1
 40
1.0
176
     1
 90
        8
176
     1
 62
     7
176
     1
 40
1.0
176
     1
 90
        1
176
     1
 90
        6
176
     1
 90
        2
176
     1
 62
     7
176
     1
 90
        5
176
     1
 90
        0
176
     1
 90
        0
176
     1
290
     0
176
     1
 90
       13
176
     1
 40
0.0
176
     1
 90
        0
176
     1
290
     0
176
     1
290
     1
176
     1
290
     1
176
     1
290
     0
176
     1
290
     0
176
     1
290
     0
176
     1
290
     0
176
     1
290
     0
176
     1
290
     0
176
     1
 90
       50
176
     1
 40
0.0
176
     1
 40
1.0
176
     1
 90
        0
176
     1
 62
    18
420
        0
176
     1
 90
       50
176
     1
 90
        3
176
     1
 62
     5
420
      255
176
     1
290
     0
176
     1
 90
       50
176
     1
 90
       50
176
     1
 90
       50
176
     1
290
     0
176
     1
 90
       50
176
     1
 62
   256
176
     0
 40
1.0
176
     0
 90
        2
176
     1
  1
strokes_ogs.tif
176
     1
290
     0
176
     1
 40
1.0
176
     1
 40
1.0
176
     1
  0
VISUALSTYLE
  5
2C
102
{ACAD_REACTORS
330
2A
102
}
330
2A
100
AcDbVisualStyle
  2
FlatWithEdges
 70
     1
177
     3
291
     1
 70
    58
 90
        2
176
     1
 90
        1
176
     1
 90
        1
176
     1
 90
        2
176
     1
 40
0.6
176
     1
 40
30.0
176
     1
 62
     7
420
 16777215
176
     1
 90
        1
176
     1
 90
        0
176
     1
 62
     7
176
     1
 62
   257
176
     1
 90
        1
176
     1
 90
        1
176
     1
 40
1.0
176
     1
 90
        0
176
     1
 62
   257
176
     1
 40
1.0
176
     1
 90
        1
176
     1
 90
        6
176
     1
 90
        2
176
     1
 62
     7
176
     1
 90
        5
176
     1
 90
        0
176
     1
 90
        0
176
     1
290
     0
176
     1
 90
       13
176
     1
 40
0.0
176
     1
 90
        0
176
     1
290
     0
176
     1
290
     1
176
     1
290
     1
176
     1
290
     0
176
     1
290
     0
176
     1
290
     0
176
     1
290
     0
176
     1
290
     0
176
     1
290
     0
176
     1
 90
       50
176
     1
 40
0.0
176
     1
 40
1.0
176
     1
 90
        0
176
     1
 62
    18
420
        0
176
     1
 90
       50
176
     1
 90
        3
176
     1
 62
     5
420
      255
176
     1
290
     0
176
     1
 90
       50
176
     1
 90
       50
176
     1
 90
       50
176
     1
290
     0
176
     1
 90
       50
176
     1
 62
   256
176
     0
 40
1.0
176
     0
 90
        2
176
     1
  1
strokes_ogs.tif
176
     1
290
     0
176
     1
 40
1.0
176
     1
 40
1.0
176
     1
  0
VISUALSTYLE
  5
2D
102
{ACAD_REACTORS
330
2A
102
}
330
2A
100
AcDbVisualStyle
  2
Gouraud
 70
     2
177
     3
291
     1
 70
    58
 90
        2
176
     1
 90
        2
176
     1
 90
        1
176
     1
 90
        2
176
     1
 40
0.6
176
     1
 40
30.0
176
     1
 62
     7
420
 16777215
176
     1
 90
        0
176
     1
 90
        0
176
     1
 62
     7
176
     1
 62
   257
176
     1
 90
        1
176
     1
 90
        1
176
     1
 40
1.0
176
     1
 90
        0
176
     1
 62
     7
176
     1
 40
1.0
176
     1
 90
        1
176
     1
 90
        6
176
     1
 90
        2
176
     1
 62
     7
176
     1
 90
        5
176
     1
 90
        0
176
     1
 90
        0
176
     1
290
     0
176
     1
 90
       13
176
     1
 40
0.0
176
     1
 90
        0
176
     1
290
     0
176
     1
290
     1
176
     1
290
     1
176
     1
290
     0
176
     1
290
     0
176
     1
290
     0
176
     1
290
     0
176
     1
290
     0
176
     1
290
     0
176
     1
 90
       50
176
     1
 40
0.0
176
     1
 40
1.0
176
     1
 90
        0
176
     1
 62
    18
420
        0
176
     1
 90
       50
176
     1
 90
        3
176
     1
 62
     5
420
      255
176
     1
290
     0
176
     1
 90
       50
176
     1
 90
       50
176
     1
 90
       50
176
     1
290
     0
176
     1
 90
       50
176
     1
 62
   256
176
     0
 40
1.0
176
     0
 90
        2
176
     1
  1
strokes_ogs.tif
176
     1
290
     0
176
     1
 40
1.0
176
     1
 40
1.0
176
     1
  0
VISUALSTYLE
  5
2E
102
{ACAD_REACTORS
330
2A
102
}
330
2A
100
AcDbVisualStyle
  2
GouraudWithEdges
 70
     3
177
     3
291
     1
 70
    58
 90
        2
176
     1
 90
        2
176
     1
 90
        1
176
     1
 90
        2
176
     1
 40
0.6
176
     1
 40
30.0
176
     1
 62
     7
420
 16777215
176
     1
 90
        1
176
     1
 90
        0
176
     1
 62
     7
176
     1
 62
   257
176
     1
 90
        1
176
     1
 90
        1
176
     1
 40
1.0
176
     1
 90
        0
176
     1
 62
   257
176
     1
 40
1.0
176
     1
 90
        1
176
     1
 90
        6
176
     1
 90
        2
176
     1
 62
     7
176
     1
 90
        5
176
     1
 90
        0
176
     1
 90
        0
176
     1
290
     0
176
     1
 90
       13
176
     1
 40
0.0
176
     1
 90
        0
176
     1
290
     0
176
     1
290
     1
176
     1
290
     1
176
     1
290
     0
176
     1
290
     0
176
     1
290
     0
176
     1
290
     0
176
     1
290
     0
176
     1
290
     0
176
     1
 90
       50
176
     1
 40
0.0
176
     1
 40
1.0
176
     1
 90
        0
176
     1
 62
    18
420
        0
176
     1
 90
       50
176
     1
 90
        3
176
     1
 62
     5
420
      255
176
     1
290
     0
176
     1
 90
       50
176
     1
 90
       50
176
     1
 90
       50
176
     1
290
     0
176
     1
 90
       50
176
     1
 62
   256
176
     0
 40
1.0
176
     0
 90
        2
176
     1
  1
strokes_ogs.tif
176
     1
290
     0
176
     1
 40
1.0
176
     1
 40
1.0
176
     1
  0
VISUALSTYLE
  5
31
102
{ACAD_REACTORS
330
2A
102
}
330
2A
100
AcDbVisualStyle
  2
Hidden
 70
     6
177
     3
291
     0
 70
    58
 90
        1
176
     1
 90
        2
176
     1
 90
        2
176
     1
 90
        0
176
     1
 40
0.6
176
     1
 40
30.0
176
     1
 62
     7
420
 16777215
176
     1
 90
        2
176
     1
 90
        2
176
     1
 62
     7
176
     1
 62
   257
176
     1
 90
        2
176
     1
 90
        1
176
     1
 40
40.0
176
     1
 90
        0
176
     1
 62
   257
176
     1
 40
1.0
176
     1
 90
        1
176
     1
 90
        6
176
     1
 90
        2
176
     1
 62
     7
176
     1
 90
        3
176
     1
 90
        0
176
     1
 90
        0
176
     1
290
     0
176
     1
 90
        1
176
     1
 40
0.0
176
     1
 90
        0
176
     1
290
     0
176
     1
290
     1
176
     1
290
     1
176
     1
290
     0
176
     1
290
     0
176
     1
290
     0
176
     1
290
     0
176
     1
290
     0
176
     1
290
     0
176
     1
 90
       50
176
     1
 40
0.0
176
     1
 40
1.0
176
     1
 90
        0
176
     1
 62
    18
420
        0
176
     1
 90
       50
176
     1
 90
        3
176
     1
 62
     5
420
      255
176
     1
290
     0
176
     1
 90
       50
176
     1
 90
       50
176
     1
 90
       50
176
     1
290
     0
176
     1
 90
       50
176
     1
 62
   256
176
     0
 40
1.0
176
     0
 90
        2
176
     1
  1
strokes_ogs.tif
176
     1
290
     0
176
     1
 40
1.0
176
     1
 40
1.0
176
     1
  0
VISUALSTYLE
  5
3B
102
{ACAD_REACTORS
330
2A
102
}
330
2A
100
AcDbVisualStyle
  2
JitterOff
 70
    20
177
     3
291
     1
 70
    58
 90
        2
176
     0
 90
        2
176
     0
 90
        0
176
     0
 90
        0
176
     0
 40
0.6
176
     0
 40
30.0
176
     0
 62
     7
420
 16777215
176
     0
 90
        1
176
     0
 90
        4
176
     0
 62
     7
176
     0
 62
   257
176
     0
 90
        1
176
     0
 90
        1
176
     0
 40
1.0
176
     0
 90
       10
176
     2
 62
     7
176
     0
 40
1.0
176
     0
 90
        1
176
     0
 90
        6
176
     0
 90
        2
176
     0
 62
     7
176
     0
 90
        5
176
     0
 90
        0
176
     0
 90
        0
176
     0
290
     0
176
     0
 90
        1
176
     0
 40
0.0
176
     0
 90
        0
176
     0
290
     0
176
     0
290
     1
176
     0
290
     1
176
     0
290
     0
176
     0
290
     0
176
     0
290
     0
176
     0
290
     0
176
     0
290
     0
176
     0
290
     0
176
     0
 90
       50
176
     0
 40
0.0
176
     0
 40
1.0
176
     0
 90
        0
176
     0
 62
    18
420
        0
176
     0
 90
       50
176
     0
 90
        3
176
     0
 62
     5
420
      255
176
     0
290
     0
176
     0
 90
       50
176
     0
 90
       50
176
     0
 90
       50
176
     0
290
     0
176
     0
 90
       50
176
     0
 62
   256
176
     0
 40
1.0
176
     0
 90
        2
176
     0
  1
strokes_ogs.tif
176
     0
290
     0
176
     0
 40
1.0
176
     0
 40
1.0
176
     0
  0
VISUALSTYLE
  5
38
102
{ACAD_REACTORS
330
2A
102
}
330
2A
100
AcDbVisualStyle
  2
Linepattern
 70
    14
177
     3
291
     1
 70
    58
 90
        2
176
     1
 90
        2
176
     1
 90
        0
176
     1
 90
        0
176
     1
 40
0.6
176
     1
 40
30.0
176
     1
 62
     7
420
 16777215
176
     1
 90
        1
176
     1
 90
        4
176
     1
 62
     7
176
     1
 62
   257
176
     1
 90
        7
176
     1
 90
        7
176
     1
 40
1.0
176
     1
 90
        8
176
     1
 62
     7
176
     1
 40
1.0
176
     1
 90
        1
176
     1
 90
        6
176
     1
 90
        2
176
     1
 62
     7
176
     1
 90
        5
176
     1
 90
        0
176
     1
 90
        0
176
     1
290
     0
176
     1
 90
        1
176
     1
 40
0.0
176
     1
 90
        0
176
     1
290
     0
176
     1
290
     1
176
     1
290
     1
176
     1
290
     0
176
     1
290
     0
176
     1
290
     0
176
     1
290
     0
176
     1
290
     0
176
     1
290
     0
176
     1
 90
       50
176
     1
 40
0.0
176
     1
 40
1.0
176
     1
 90
        0
176
     1
 62
    18
420
        0
176
     1
 90
       50
176
     1
 90
        3
176
     1
 62
     5
420
      255
176
     1
290
     0
176
     1
 90
       50
176
     1
 90
       50
176
     1
 90
       50
176
     1
290
     0
176
     1
 90
       50
176
     1
 62
   256
176
     0
 40
1.0
176
     0
 90
        2
176
     1
  1
strokes_ogs.tif
176
     1
290
     0
176
     1
 40
1.0
176
     1
 40
1.0
176
     1
  0
VISUALSTYLE
  5
3C
102
{ACAD_REACTORS
330
2A
102
}
330
2A
100
AcDbVisualStyle
  2
OverhangOff
 70
    21
177
     3
291
     1
 70
    58
 90
        2
176
     0
 90
        2
176
     0
 90
        0
176
     0
 90
        0
176
     0
 40
0.6
176
     0
 40
30.0
176
     0
 62
     7
420
 16777215
176
     0
 90
        1
176
     0
 90
        4
176
     0
 62
     7
176
     0
 62
   257
176
     0
 90
        1
176
     0
 90
        1
176
     0
 40
1.0
176
     0
 90
        9
176
     2
 62
     7
176
     0
 40
1.0
176
     0
 90
        1
176
     0
 90
        6
176
     0
 90
        2
176
     0
 62
     7
176
     0
 90
        5
176
     0
 90
        0
176
     0
 90
        0
176
     0
290
     0
176
     0
 90
        1
176
     0
 40
0.0
176
     0
 90
        0
176
     0
290
     0
176
     0
290
     1
176
     0
290
     1
176
     0
290
     0
176
     0
290
     0
176
     0
290
     0
176
     0
290
     0
176
     0
290
     0
176
     0
290
     0
176
     0
 90
       50
176
     0
 40
0.0
176
     0
 40
1.0
176
     0
 90
        0
176
     0
 62
    18
420
        0
176
     0
 90
       50
176
     0
 90
        3
176
     0
 62
     5
420
      255
176
     0
290
     0
176
     0
 90
       50
176
     0
 90
       50
176
     0
 90
       50
176
     0
290
     0
176
     0
 90
       50
176
     0
 62
   256
176
     0
 40
1.0
176
     0
 90
        2
176
     0
  1
strokes_ogs.tif
176
     0
290
     0
176
     0
 40
1.0
176
     0
 40
1.0
176
     0
  0
VISUALSTYLE
  5
33
102
{ACAD_REACTORS
330
2A
102
}
330
2A
100
AcDbVisualStyle
  2
Realistic
 70
     8
177
     3
291
     0
 70
    58
 90
        2
176
     1
 90
        3
176
     1
 90
        0
176
     1
 90
        2
176
     1
 40
0.6
176
     1
 40
30.0
176
     1
 62
     7
420
 16777215
176
     1
 90
        0
176
     1
 90
        0
176
     1
 62
     7
176
     1
 62
   257
176
     1
 90
        1
176
     1
 90
        1
176
     1
 40
1.0
176
     1
 90
        8
176
     1
 62
   257
176
     1
 40
1.0
176
     1
 90
        1
176
     1
 90
        6
176
     1
 90
        2
176
     1
 62
     7
176
     1
 90
        3
176
     1
 90
        0
176
     1
 90
        0
176
     1
290
     0
176
     1
 90
       13
176
     1
 40
0.0
176
     1
 90
        0
176
     1
290
     0
176
     1
290
     1
176
     1
290
     1
176
     1
290
     0
176
     1
290
     0
176
     1
290
     0
176
     1
290
     0
176
     1
290
     0
176
     1
290
     0
176
     1
 90
       50
176
     1
 40
0.0
176
     1
 40
1.0
176
     1
 90
        0
176
     1
 62
    18
420
        0
176
     1
 90
       50
176
     1
 90
        3
176
     1
 62
     5
420
      255
176
     1
290
     0
176
     1
 90
       50
176
     1
 90
       50
176
     1
 90
       50
176
     1
290
     0
176
     1
 90
       50
176
     1
 62
   256
176
     0
 40
1.0
176
     0
 90
        2
176
     1
  1
strokes_ogs.tif
176
     1
290
     0
176
     1
 40
1.0
176
     1
 40
1.0
176
     1
  0
VISUALSTYLE
  5
42
102
{ACAD_REACTORS
330
2A
102
}
330
2A
100
AcDbVisualStyle
  2
Shaded
 70
    27
177
     3
291
     0
 70
    58
 90
        2
176
     1
 90
        2
176
     1
 90
        1
176
     1
 90
        2
176
     1
 40
0.6
176
     1
 40
30.0
176
     1
 62
     7
420
 16777215
176
     1
 90
        0
176
     1
 90
        4
176
     1
 62
     7
176
     1
 62
   257
176
     1
 90
        1
176
     1
 90
        1
176
     1
 40
1.0
176
     1
 90
        8
176
     1
 62
   257
176
     1
 40
1.0
176
     1
 90
        1
176
     1
 90
        6
176
     1
 90
        2
176
     1
 62
     8
420
  7895160
176
     1
 90
        3
176
     1
 90
        0
176
     1
 90
        0
176
     1
290
     0
176
     1
 90
        5
176
     1
 40
0.0
176
     1
 90
        0
176
     1
290
     0
176
     1
290
     1
176
     1
290
     1
176
     1
290
     0
176
     1
290
     0
176
     1
290
     0
176
     1
290
     0
176
     1
290
     0
176
     1
290
     0
176
     1
 90
       50
176
     1
 40
0.0
176
     1
 40
1.0
176
     1
 90
        0
176
     1
 62
    18
420
        0
176
     1
 90
       50
176
     1
 90
        3
176
     1
 62
     5
420
      255
176
     1
290
     0
176
     1
 90
       50
176
     1
 90
       50
176
     1
 90
       50
176
     1
290
     0
176
     1
 90
       50
176
     1
 62
   256
176
     0
 40
1.0
176
     0
 90
        2
176
     1
  1
strokes_ogs.tif
176
     1
290
     0
176
     1
 40
1.0
176
     1
 40
1.0
176
     1
  0
VISUALSTYLE
  5
41
102
{ACAD_REACTORS
330
2A
102
}
330
2A
100
AcDbVisualStyle
  2
Shaded with edges
 70
    26
177
     3
291
     0
 70
    58
 90
        2
176
     1
 90
        2
176
     1
 90
        1
176
     1
 90
        2
176
     1
 40
0.6
176
     1
 40
30.0
176
     1
 62
     7
420
 16777215
176
     1
 90
        1
176
     1
 90
       10
176
     1
 62
     7
176
     1
 62
   257
176
     1
 90
        2
176
     1
 90
        1
176
     1
 40
1.0
176
     1
 90
        8
176
     1
 62
   257
176
     1
 40
1.0
176
     1
 90
        1
176
     1
 90
        6
176
     1
 90
        2
176
     1
 62
     7
176
     1
 90
        3
176
     1
 90
        0
176
     1
 90
        0
176
     1
290
     0
176
     1
 90
        5
176
     1
 40
0.0
176
     1
 90
        0
176
     1
290
     0
176
     1
290
     1
176
     1
290
     1
176
     1
290
     0
176
     1
290
     0
176
     1
290
     0
176
     1
290
     0
176
     1
290
     0
176
     1
290
     0
176
     1
 90
       50
176
     1
 40
0.0
176
     1
 40
1.0
176
     1
 90
        0
176
     1
 62
    18
420
        0
176
     1
 90
       50
176
     1
 90
        3
176
     1
 62
     5
420
      255
176
     1
290
     0
176
     1
 90
       50
176
     1
 90
       50
176
     1
 90
       50
176
     1
290
     0
176
     1
 90
       50
176
     1
 62
   256
176
     0
 40
1.0
176
     0
 90
        2
176
     1
  1
strokes_ogs.tif
176
     1
290
     0
176
     1
 40
1.0
176
     1
 40
1.0
176
     1
  0
VISUALSTYLE
  5
3E
102
{ACAD_REACTORS
330
2A
102
}
330
2A
100
AcDbVisualStyle
  2
Shades of Gray
 70
    23
177
     3
291
     0
 70
    58
 90
        2
176
     1
 90
        2
176
     1
 90
        3
176
     1
 90
        0
176
     1
 40
0.6
176
     1
 40
30.0
176
     1
 62
     7
420
 16777215
176
     1
 90
        2
176
     1
 90
        2
176
     1
 62
     7
176
     1
 62
     7
176
     1
 90
        1
176
     1
 90
        1
176
     1
 40
40.0
176
     1
 90
        8
176
     1
 62
     7
176
     1
 40
1.0
176
     1
 90
        1
176
     1
 90
        6
176
     1
 90
        2
176
     1
 62
     7
176
     1
 90
        3
176
     1
 90
        0
176
     1
 90
        0
176
     1
290
     0
176
     1
 90
        1
176
     1
 40
0.0
176
     1
 90
        0
176
     1
290
     0
176
     1
290
     1
176
     1
290
     1
176
     1
290
     0
176
     1
290
     0
176
     1
290
     0
176
     1
290
     0
176
     1
290
     0
176
     1
290
     0
176
     1
 90
       50
176
     1
 40
0.0
176
     1
 40
1.0
176
     1
 90
        0
176
     1
 62
    18
420
        0
176
     1
 90
       50
176
     1
 90
        3
176
     1
 62
     5
420
      255
176
     1
290
     0
176
     1
 90
       50
176
     1
 90
       50
176
     1
 90
       50
176
     1
290
     0
176
     1
 90
       50
176
     1
 62
   256
176
     0
 40
1.0
176
     0
 90
        2
176
     1
  1
strokes_ogs.tif
176
     1
290
     0
176
     1
 40
1.0
176
     1
 40
1.0
176
     1
  0
VISUALSTYLE
  5
3F
102
{ACAD_REACTORS
330
2A
102
}
330
2A
100
AcDbVisualStyle
  2
Sketchy
 70
    24
177
     3
291
     0
 70
    58
 90
        1
176
     1
 90
        2
176
     1
 90
        2
176
     1
 90
        0
176
     1
 40
0.6
176
     1
 40
30.0
176
     1
 62
     7
420
 16777215
176
     1
 90
        2
176
     1
 90
        2
176
     1
 62
     7
176
     1
 62
     7
176
     1
 90
        1
176
     1
 90
        1
176
     1
 40
40.0
176
     1
 90
       11
176
     1
 62
     7
176
     1
 40
1.0
176
     1
 90
        1
176
     1
 90
        6
176
     1
 90
        2
176
     1
 62
     7
176
     1
 90
        6
176
     1
 90
        0
176
     1
 90
        0
176
     1
290
     0
176
     1
 90
        1
176
     1
 40
0.0
176
     1
 90
        0
176
     1
290
     0
176
     1
290
     1
176
     1
290
     1
176
     1
290
     0
176
     1
290
     0
176
     1
290
     0
176
     1
290
     0
176
     1
290
     0
176
     1
290
     0
176
     1
 90
       50
176
     1
 40
0.0
176
     1
 40
1.0
176
     1
 90
        0
176
     1
 62
    18
420
        0
176
     1
 90
       50
176
     1
 90
        3
176
     1
 62
     5
420
      255
176
     1
290
     0
176
     1
 90
       50
176
     1
 90
       50
176
     1
 90
       50
176
     1
290
     0
176
     1
 90
       50
176
     1
 62
   256
176
     0
 40
1.0
176
     0
 90
        2
176
     1
  1
strokes_ogs.tif
176
     1
290
     0
176
     1
 40
1.0
176
     1
 40
1.0
176
     1
  0
VISUALSTYLE
  5
37
102
{ACAD_REACTORS
330
2A
102
}
330
2A
100
AcDbVisualStyle
  2
Thicken
 70
    13
177
     3
291
     1
 70
    58
 90
        2
176
     1
 90
        2
176
     1
 90
        0
176
     1
 90
        0
176
     1
 40
0.6
176
     1
 40
30.0
176
     1
 62
     7
420
 16777215
176
     1
 90
        1
176
     1
 90
        4
176
     1
 62
     7
176
     1
 62
   257
176
     1
 90
        1
176
     1
 90
        1
176
     1
 40
1.0
176
     1
 90
       12
176
     1
 62
     7
176
     1
 40
1.0
176
     1
 90
        1
176
     1
 90
        6
176
     1
 90
        2
176
     1
 62
     7
176
     1
 90
        5
176
     1
 90
        0
176
     1
 90
        0
176
     1
290
     0
176
     1
 90
        1
176
     1
 40
0.0
176
     1
 90
        0
176
     1
290
     0
176
     1
290
     1
176
     1
290
     1
176
     1
290
     0
176
     1
290
     0
176
     1
290
     0
176
     1
290
     0
176
     1
290
     0
176
     1
290
     0
176
     1
 90
       50
176
     1
 40
0.0
176
     1
 40
1.0
176
     1
 90
        0
176
     1
 62
    18
420
        0
176
     1
 90
       50
176
     1
 90
        3
176
     1
 62
     5
420
      255
176
     1
290
     0
176
     1
 90
       50
176
     1
 90
       50
176
     1
 90
       50
176
     1
290
     0
176
     1
 90
       50
176
     1
 62
   256
176
     0
 40
1.0
176
     0
 90
        2
176
     1
  1
strokes_ogs.tif
176
     1
290
     0
176
     1
 40
1.0
176
     1
 40
1.0
176
     1
  0
VISUALSTYLE
  5
30
102
{ACAD_REACTORS
330
2A
102
}
330
2A
100
AcDbVisualStyle
  2
Wireframe
 70
     5
177
     3
291
     0
 70
    58
 90
        0
176
     1
 90
        2
176
     1
 90
        0
176
     1
 90
        0
176
     1
 40
0.6
176
     1
 40
30.0
176
     1
 62
     7
420
 16777215
176
     1
 90
        1
176
     1
 90
        4
176
     1
 62
     7
176
     1
 62
   257
176
     1
 90
        1
176
     1
 90
        1
176
     1
 40
1.0
176
     1
 90
        0
176
     1
 62
   257
176
     1
 40
1.0
176
     1
 90
        1
176
     1
 90
        6
176
     1
 90
        2
176
     1
 62
     7
176
     1
 90
        3
176
     1
 90
        0
176
     1
 90
        0
176
     1
290
     0
176
     1
 90
        1
176
     1
 40
0.0
176
     1
 90
        0
176
     1
290
     0
176
     1
290
     1
176
     1
290
     1
176
     1
290
     0
176
     1
290
     0
176
     1
290
     0
176
     1
290
     0
176
     1
290
     0
176
     1
290
     0
176
     1
 90
       50
176
     1
 40
0.0
176
     1
 40
1.0
176
     1
 90
        0
176
     1
 62
    18
420
        0
176
     1
 90
       50
176
     1
 90
        3
176
     1
 62
     5
420
      255
176
     1
290
     0
176
     1
 90
       50
176
     1
 90
       50
176
     1
 90
       50
176
     1
290
     0
176
     1
 90
       50
176
     1
 62
   256
176
     0
 40
1.0
176
     0
 90
        2
176
     1
  1
strokes_ogs.tif
176
     1
290
     0
176
     1
 40
1.0
176
     1
 40
1.0
176
     1
  0
VISUALSTYLE
  5
40
102
{ACAD_REACTORS
330
2A
102
}
330
2A
100
AcDbVisualStyle
  2
X-Ray
 70
    25
177
     3
291
     0
 70
    58
 90
        2
176
     1
 90
        2
176
     1
 90
        1
176
     1
 90
        1
176
     1
 40
0.5
176
     1
 40
30.0
176
     1
 62
     7
420
 16777215
176
     1
 90
        1
176
     1
 90
        0
176
     1
 62
     7
176
     1
 62
   257
176
     1
 90
        1
176
     1
 90
        1
176
     1
 40
1.0
176
     1
 90
        8
176
     1
 62
     7
176
     1
 40
1.0
176
     1
 90
        1
176
     1
 90
        6
176
     1
 90
        2
176
     1
 62
     7
176
     1
 90
        3
176
     1
 90
        0
176
     1
 90
        0
176
     1
290
     0
176
     1
 90
       13
176
     1
 40
0.0
176
     1
 90
        0
176
     1
290
     0
176
     1
290
     1
176
     1
290
     1
176
     1
290
     0
176
     1
290
     0
176
     1
290
     0
176
     1
290
     0
176
     1
290
     0
176
     1
290
     0
176
     1
 90
       50
176
     1
 40
0.0
176
     1
 40
1.0
176
     1
 90
        0
176
     1
 62
    18
420
        0
176
     1
 90
       50
176
     1
 90
        3
176
     1
 62
     5
420
      255
176
     1
290
     0
176
     1
 90
       50
176
     1
 90
       50
176
     1
 90
       50
176
     1
290
     0
176
     1
 90
       50
176
     1
 62
   256
176
     0
 40
1.0
176
     0
 90
        2
176
     1
  1
strokes_ogs.tif
176
     1
290
     0
176
     1
 40
1.0
176
     1
 40
1.0
176
     1
  0
DICTIONARYVAR
  5
2EE
102
{ACAD_REACTORS
330
2ED
102
}
330
2ED
100
DictionaryVariables
280
     0
  1
1:1
  0
DICTIONARYVAR
  5
2F7
102
{ACAD_REACTORS
330
2ED
102
}
330
2ED
100
DictionaryVariables
280
     0
  1
3.500000
  0
DICTIONARYVAR
  5
2F8
102
{ACAD_REACTORS
330
2ED
102
}
330
2ED
100
DictionaryVariables
280
     0
  1
acadiso.lin
  0
DICTIONARYVAR
  5
2F3
102
{ACAD_REACTORS
330
2ED
102
}
330
2ED
100
DictionaryVariables
280
     0
  1
Standard
  0
DICTIONARYVAR
  5
2F2
102
{ACAD_REACTORS
330
2ED
102
}
330
2ED
100
DictionaryVariables
280
     0
  1
Standard
  0
DICTIONARYVAR
  5
2F6
102
{ACAD_REACTORS
330
2ED
102
}
330
2ED
100
DictionaryVariables
280
     0
  1
0
  0
DICTIONARY
  5
2EF
330
5A
100
AcDbDictionary
280
     1
281
     1
  3
ACAD_ROUNDTRIP_2008_TABLESTYLE_CELLSTYLEMAP
360
2F0
  0
CELLSTYLEMAP
  5
2F0
102
{ACAD_REACTORS
330
2EF
102
}
330
2EF
100
AcDbCellStyleMap
 90
        3
300
CELLSTYLE
  1
TABLEFORMAT_BEGIN
 90
        5
170
     1
 91
        0
 92
    32768
 62
   257
 93
        1
300
CONTENTFORMAT
  1
CONTENTFORMAT_BEGIN
 90
        0
 91
        0
 92
        4
 93
        0
300

 40
0.0
140
1.0
 94
        5
 62
     0
340
11
144
6.0
309
CONTENTFORMAT_END
171
     1
301
MARGIN
  1
CELLMARGIN_BEGIN
 40
1.5
 40
1.5
 40
1.5
 40
1.5
 40
1.5
 40
1.5
309
CELLMARGIN_END
 94
        6
 95
        1
302
GRIDFORMAT
  1
GRIDFORMAT_BEGIN
 90
        0
 91
        1
 62
     0
 92
       -2
340
14
 93
        0
 40
0.045
309
GRIDFORMAT_END
 95
        2
302
GRIDFORMAT
  1
GRIDFORMAT_BEGIN
 90
        0
 91
        1
 62
     0
 92
       -2
340
14
 93
        0
 40
0.045
309
GRIDFORMAT_END
 95
        4
302
GRIDFORMAT
  1
GRIDFORMAT_BEGIN
 90
        0
 91
        1
 62
     0
 92
       -2
340
14
 93
        0
 40
0.045
309
GRIDFORMAT_END
 95
        8
302
GRIDFORMAT
  1
GRIDFORMAT_BEGIN
 90
        0
 91
        1
 62
     0
 92
       -2
340
14
 93
        0
 40
0.045
309
GRIDFORMAT_END
 95
       16
302
GRIDFORMAT
  1
GRIDFORMAT_BEGIN
 90
        0
 91
        1
 62
     0
 92
       -2
340
14
 93
        0
 40
0.045
309
GRIDFORMAT_END
 95
       32
302
GRIDFORMAT
  1
GRIDFORMAT_BEGIN
 90
        0
 91
        1
 62
     0
 92
       -2
340
14
 93
        0
 40
0.045
309
GRIDFORMAT_END
309
TABLEFORMAT_END
  1
CELLSTYLE_BEGIN
 90
        1
 91
        1
300
_TITLE
309
CELLSTYLE_END
300
CELLSTYLE
  1
TABLEFORMAT_BEGIN
 90
        5
170
     1
 91
        0
 92
        0
 62
   257
 93
        1
300
CONTENTFORMAT
  1
CONTENTFORMAT_BEGIN
 90
        0
 91
        0
 92
        4
 93
        0
300

 40
0.0
140
1.0
 94
        5
 62
     0
340
11
144
4.5
309
CONTENTFORMAT_END
171
     1
301
MARGIN
  1
CELLMARGIN_BEGIN
 40
1.5
 40
1.5
 40
1.5
 40
1.5
 40
1.5
 40
1.5
309
CELLMARGIN_END
 94
        6
 95
        1
302
GRIDFORMAT
  1
GRIDFORMAT_BEGIN
 90
        0
 91
        1
 62
     0
 92
       -2
340
14
 93
        0
 40
0.045
309
GRIDFORMAT_END
 95
        2
302
GRIDFORMAT
  1
GRIDFORMAT_BEGIN
 90
        0
 91
        1
 62
     0
 92
       -2
340
14
 93
        0
 40
0.045
309
GRIDFORMAT_END
 95
        4
302
GRIDFORMAT
  1
GRIDFORMAT_BEGIN
 90
        0
 91
        1
 62
     0
 92
       -2
340
14
 93
        0
 40
0.045
309
GRIDFORMAT_END
 95
        8
302
GRIDFORMAT
  1
GRIDFORMAT_BEGIN
 90
        0
 91
        1
 62
     0
 92
       -2
340
14
 93
        0
 40
0.045
309
GRIDFORMAT_END
 95
       16
302
GRIDFORMAT
  1
GRIDFORMAT_BEGIN
 90
        0
 91
        1
 62
     0
 92
       -2
340
14
 93
        0
 40
0.045
309
GRIDFORMAT_END
 95
       32
302
GRIDFORMAT
  1
GRIDFORMAT_BEGIN
 90
        0
 91
        1
 62
     0
 92
       -2
340
14
 93
        0
 40
0.045
309
GRIDFORMAT_END
309
TABLEFORMAT_END
  1
CELLSTYLE_BEGIN
 90
        2
 91
        1
300
_HEADER
309
CELLSTYLE_END
300
CELLSTYLE
  1
TABLEFORMAT_BEGIN
 90
        5
170
     1
 91
        0
 92
        0
 62
   257
 93
        1
300
CONTENTFORMAT
  1
CONTENTFORMAT_BEGIN
 90
        0
 91
        0
 92
        4
 93
        0
300

 40
0.0
140
1.0
 94
        2
 62
     0
340
11
144
4.5
309
CONTENTFORMAT_END
171
     1
301
MARGIN
  1
CELLMARGIN_BEGIN
 40
1.5
 40
1.5
 40
1.5
 40
1.5
 40
1.5
 40
1.5
309
CELLMARGIN_END
 94
        6
 95
        1
302
GRIDFORMAT
  1
GRIDFORMAT_BEGIN
 90
        0
 91
        1
 62
     0
 92
       -2
340
14
 93
        0
 40
0.045
309
GRIDFORMAT_END
 95
        2
302
GRIDFORMAT
  1
GRIDFORMAT_BEGIN
 90
        0
 91
        1
 62
     0
 92
       -2
340
14
 93
        0
 40
0.045
309
GRIDFORMAT_END
 95
        4
302
GRIDFORMAT
  1
GRIDFORMAT_BEGIN
 90
        0
 91
        1
 62
     0
 92
       -2
340
14
 93
        0
 40
0.045
309
GRIDFORMAT_END
 95
        8
302
GRIDFORMAT
  1
GRIDFORMAT_BEGIN
 90
        0
 91
        1
 62
     0
 92
       -2
340
14
 93
        0
 40
0.045
309
GRIDFORMAT_END
 95
       16
302
GRIDFORMAT
  1
GRIDFORMAT_BEGIN
 90
        0
 91
        1
 62
     0
 92
       -2
340
14
 93
        0
 40
0.045
309
GRIDFORMAT_END
 95
       32
302
GRIDFORMAT
  1
GRIDFORMAT_BEGIN
 90
        0
 91
        1
 62
     0
 92
       -2
340
14
 93
        0
 40
0.045
309
GRIDFORMAT_END
309
TABLEFORMAT_END
  1
CELLSTYLE_BEGIN
 90
        3
 91
        2
300
_DATA
309
CELLSTYLE_END
  0
ENDSEC
  0
EOF
