  0
SECTION
  2
HEADER
  9
$ACADVER
  1
AC1027
  9
$ACADMAINTVER
 70
   105
  9
$DWGCODEPAGE
  3
ANSI_1252
  9
$LASTSAVEDBY
  1
mezergues
  9
$REQUIREDVERSIONS
160
                 0
  9
$INSBASE
 10
0.0
 20
0.0
 30
0.0
  9
$EXTMIN
 10
9116.32829549663
 20
-9580.259226073395
 30
0.0
  9
$EXTMAX
 10
31769.28913838763
 20
-7141.735316998213
 30
2500.0
  9
$LIMMIN
 10
0.0
 20
0.0
  9
$LIMMAX
 10
420.0
 20
297.0
  9
$ORTHOMODE
 70
     0
  9
$REGENMODE
 70
     1
  9
$FILLMODE
 70
     1
  9
$QTEXTMODE
 70
     0
  9
$MIRRTEXT
 70
     1
  9
$LTSCALE
 40
5.0
  9
$ATTMODE
 70
     1
  9
$TEXTSIZE
 40
2.5
  9
$TRACEWID
 40
1.0
  9
$TEXTSTYLE
  7
Standard
  9
$CLAYER
  8
0
  9
$CELTYPE
  6
Continuous
  9
$CECOLOR
 62
   256
  9
$CELTSCALE
 40
1.0
  9
$DISPSILH
 70
     0
  9
$DIMSCALE
 40
1.0
  9
$DIMASZ
 40
2.5
  9
$DIMEXO
 40
0.625
  9
$DIMDLI
 40
3.75
  9
$DIMRND
 40
0.0
  9
$DIMDLE
 40
0.0
  9
$DIMEXE
 40
1.25
  9
$DIMTP
 40
0.0
  9
$DIMTM
 40
0.0
  9
$DIMTXT
 40
2.5
  9
$DIMCEN
 40
2.5
  9
$DIMTSZ
 40
0.0
  9
$DIMTOL
 70
     0
  9
$DIMLIM
 70
     0
  9
$DIMTIH
 70
     0
  9
$DIMTOH
 70
     0
  9
$DIMSE1
 70
     0
  9
$DIMSE2
 70
     0
  9
$DIMTAD
 70
     1
  9
$DIMZIN
 70
     8
  9
$DIMBLK
  1

  9
$DIMASO
 70
     1
  9
$DIMSHO
 70
     1
  9
$DIMPOST
  1

  9
$DIMAPOST
  1

  9
$DIMALT
 70
     0
  9
$DIMALTD
 70
     3
  9
$DIMALTF
 40
0.03937007874016
  9
$DIMLFAC
 40
1.0
  9
$DIMTOFL
 70
     1
  9
$DIMTVP
 40
0.0
  9
$DIMTIX
 70
     0
  9
$DIMSOXD
 70
     1
  9
$DIMSAH
 70
     0
  9
$DIMBLK1
  1

  9
$DIMBLK2
  1

  9
$DIMSTYLE
  2
ISO-25
  9
$DIMCLRD
 70
     0
  9
$DIMCLRE
 70
     0
  9
$DIMCLRT
 70
     0
  9
$DIMTFAC
 40
1.0
  9
$DIMGAP
 40
0.625
  9
$DIMJUST
 70
     0
  9
$DIMSD1
 70
     0
  9
$DIMSD2
 70
     0
  9
$DIMTOLJ
 70
     0
  9
$DIMTZIN
 70
     8
  9
$DIMALTZ
 70
     0
  9
$DIMALTTZ
 70
     0
  9
$DIMUPT
 70
     0
  9
$DIMDEC
 70
     2
  9
$DIMTDEC
 70
     2
  9
$DIMALTU
 70
     2
  9
$DIMALTTD
 70
     3
  9
$DIMTXSTY
  7
Standard
  9
$DIMAUNIT
 70
     0
  9
$DIMADEC
 70
     0
  9
$DIMALTRND
 40
0.0
  9
$DIMAZIN
 70
     0
  9
$DIMDSEP
 70
    44
  9
$DIMATFIT
 70
     3
  9
$DIMFRAC
 70
     0
  9
$DIMLDRBLK
  1

  9
$DIMLUNIT
 70
     2
  9
$DIMLWD
 70
    -2
  9
$DIMLWE
 70
    -2
  9
$DIMTMOVE
 70
     2
  9
$DIMFXL
 40
1.0
  9
$DIMFXLON
 70
     0
  9
$DIMJOGANG
 40
0.7853981633974483
  9
$DIMTFILL
 70
     0
  9
$DIMTFILLCLR
 70
     0
  9
$DIMARCSYM
 70
     0
  9
$DIMLTYPE
  6

  9
$DIMLTEX1
  6

  9
$DIMLTEX2
  6

  9
$DIMTXTDIRECTION
 70
     0
  9
$LUNITS
 70
     2
  9
$LUPREC
 70
     4
  9
$SKETCHINC
 40
1.0
  9
$FILLETRAD
 40
0.0
  9
$AUNITS
 70
     0
  9
$AUPREC
 70
     0
  9
$MENU
  1
.
  9
$ELEVATION
 40
0.0
  9
$PELEVATION
 40
0.0
  9
$THICKNESS
 40
0.0
  9
$LIMCHECK
 70
     0
  9
$CHAMFERA
 40
0.0
  9
$CHAMFERB
 40
0.0
  9
$CHAMFERC
 40
0.0
  9
$CHAMFERD
 40
0.0
  9
$SKPOLY
 70
     0
  9
$TDCREATE
 40
2459977.45143625
  9
$TDUCREATE
 40
2459977.409769583
  9
$TDUPDATE
 40
2459977.451439745
  9
$TDUUPDATE
 40
2459977.409773079
  9
$TDINDWG
 40
0.0000000116
  9
$TDUSRTIMER
 40
0.0000000116
  9
$USRTIMER
 70
     1
  9
$ANGBASE
 50
0.0
  9
$ANGDIR
 70
     0
  9
$PDMODE
 70
     0
  9
$PDSIZE
 40
0.0
  9
$PLINEWID
 40
0.0
  9
$SPLFRAME
 70
     0
  9
$SPLINETYPE
 70
     6
  9
$SPLINESEGS
 70
     8
  9
$HANDSEED
  5
343
  9
$SURFTAB1
 70
     6
  9
$SURFTAB2
 70
     6
  9
$SURFTYPE
 70
     6
  9
$SURFU
 70
     6
  9
$SURFV
 70
     6
  9
$UCSBASE
  2

  9
$UCSNAME
  2

  9
$UCSORG
 10
0.0
 20
0.0
 30
0.0
  9
$UCSXDIR
 10
1.0
 20
0.0
 30
0.0
  9
$UCSYDIR
 10
0.0
 20
1.0
 30
0.0
  9
$UCSORTHOREF
  2

  9
$UCSORTHOVIEW
 70
     0
  9
$UCSORGTOP
 10
0.0
 20
0.0
 30
0.0
  9
$UCSORGBOTTOM
 10
0.0
 20
0.0
 30
0.0
  9
$UCSORGLEFT
 10
0.0
 20
0.0
 30
0.0
  9
$UCSORGRIGHT
 10
0.0
 20
0.0
 30
0.0
  9
$UCSORGFRONT
 10
0.0
 20
0.0
 30
0.0
  9
$UCSORGBACK
 10
0.0
 20
0.0
 30
0.0
  9
$PUCSBASE
  2

  9
$PUCSNAME
  2

  9
$PUCSORG
 10
0.0
 20
0.0
 30
0.0
  9
$PUCSXDIR
 10
1.0
 20
0.0
 30
0.0
  9
$PUCSYDIR
 10
0.0
 20
1.0
 30
0.0
  9
$PUCSORTHOREF
  2

  9
$PUCSORTHOVIEW
 70
     0
  9
$PUCSORGTOP
 10
0.0
 20
0.0
 30
0.0
  9
$PUCSORGBOTTOM
 10
0.0
 20
0.0
 30
0.0
  9
$PUCSORGLEFT
 10
0.0
 20
0.0
 30
0.0
  9
$PUCSORGRIGHT
 10
0.0
 20
0.0
 30
0.0
  9
$PUCSORGFRONT
 10
0.0
 20
0.0
 30
0.0
  9
$PUCSORGBACK
 10
0.0
 20
0.0
 30
0.0
  9
$USERI1
 70
     0
  9
$USERI2
 70
     0
  9
$USERI3
 70
     0
  9
$USERI4
 70
     0
  9
$USERI5
 70
     0
  9
$USERR1
 40
0.0
  9
$USERR2
 40
0.0
  9
$USERR3
 40
0.0
  9
$USERR4
 40
0.0
  9
$USERR5
 40
0.0
  9
$WORLDVIEW
 70
     1
  9
$SHADEDGE
 70
     3
  9
$SHADEDIF
 70
    70
  9
$TILEMODE
 70
     1
  9
$MAXACTVP
 70
    64
  9
$PINSBASE
 10
0.0
 20
0.0
 30
0.0
  9
$PLIMCHECK
 70
     0
  9
$PEXTMIN
 10
-5.730400000000003
 20
-7.876400000000018
 30
0.0
  9
$PEXTMAX
 10
203.3304
 20
279.4764
 30
0.0
  9
$PLIMMIN
 10
-20.0
 20
-7.5
  9
$PLIMMAX
 10
277.0
 20
202.5
  9
$UNITMODE
 70
     0
  9
$VISRETAIN
 70
     1
  9
$PLINEGEN
 70
     0
  9
$PSLTSCALE
 70
     0
  9
$TREEDEPTH
 70
  3020
  9
$CMLSTYLE
  2
Standard
  9
$CMLJUST
 70
     0
  9
$CMLSCALE
 40
20.0
  9
$PROXYGRAPHICS
 70
     1
  9
$MEASUREMENT
 70
     1
  9
$CELWEIGHT
370
    -1
  9
$ENDCAPS
280
     0
  9
$JOINSTYLE
280
     0
  9
$LWDISPLAY
290
     0
  9
$INSUNITS
 70
     4
  9
$HYPERLINKBASE
  1

  9
$STYLESHEET
  1

  9
$XEDIT
290
     1
  9
$CEPSNTYPE
380
     3
  9
$CEPSNID
390
5F
  9
$PSTYLEMODE
290
     0
  9
$FINGERPRINTGUID
  2
{8c2e0544-d7de-4d21-b444-81724e2beed5}
  9
$VERSIONGUID
  2
{FAEB1C32-E019-11D5-929B-00C0DF256EC4}
  9
$EXTNAMES
290
     1
  9
$PSVPSCALE
 40
0.0
  9
$OLESTARTUP
290
     0
  9
$SORTENTS
280
   127
  9
$INDEXCTL
280
     0
  9
$HIDETEXT
280
     1
  9
$XCLIPFRAME
280
     2
  9
$HALOGAP
280
     0
  9
$OBSCOLOR
 70
   257
  9
$OBSLTYPE
280
     0
  9
$INTERSECTIONDISPLAY
280
     0
  9
$INTERSECTIONCOLOR
 70
   257
  9
$DIMASSOC
280
     2
  9
$PROJECTNAME
  1

  9
$CAMERADISPLAY
290
     0
  9
$LENSLENGTH
 40
50.0
  9
$CAMERAHEIGHT
 40
0.0
  9
$STEPSPERSEC
 40
2.0
  9
$STEPSIZE
 40
6.0
  9
$3DDWFPREC
 40
2.0
  9
$PSOLWIDTH
 40
5.0
  9
$PSOLHEIGHT
 40
80.0
  9
$LOFTANG1
 40
1.570796326794897
  9
$LOFTANG2
 40
1.570796326794897
  9
$LOFTMAG1
 40
0.0
  9
$LOFTMAG2
 40
0.0
  9
$LOFTPARAM
 70
     7
  9
$LOFTNORMALS
280
     1
  9
$LATITUDE
 40
37.795
  9
$LONGITUDE
 40
-122.394
  9
$NORTHDIRECTION
 40
0.0
  9
$TIMEZONE
 70
 -8000
  9
$LIGHTGLYPHDISPLAY
280
     1
  9
$TILEMODELIGHTSYNCH
280
     1
  9
$CMATERIAL
347
44
  9
$SOLIDHIST
280
     0
  9
$SHOWHIST
280
     1
  9
$DWFFRAME
280
     2
  9
$DGNFRAME
280
     2
  9
$REALWORLDSCALE
290
     1
  9
$INTERFERECOLOR
 62
   256
  9
$CSHADOW
280
     0
  9
$SHADOWPLANELOCATION
 40
0.0
  0
ENDSEC
  0
SECTION
  2
CLASSES
  0
CLASS
  1
ACDBDICTIONARYWDFLT
  2
AcDbDictionaryWithDefault
  3
ObjectDBX Classes
 90
        0
 91
        3
280
     0
281
     0
  0
CLASS
  1
VISUALSTYLE
  2
AcDbVisualStyle
  3
ObjectDBX Classes
 90
     4095
 91
        3
280
     0
281
     0
  0
CLASS
  1
MATERIAL
  2
AcDbMaterial
  3
ObjectDBX Classes
 90
     1153
 91
        3
280
     0
281
     0
  0
CLASS
  1
SCALE
  2
AcDbScale
  3
ObjectDBX Classes
 90
     1153
 91
        3
280
     0
281
     0
  0
CLASS
  1
TABLESTYLE
  2
AcDbTableStyle
  3
ObjectDBX Classes
 90
     4095
 91
        3
280
     0
281
     0
  0
CLASS
  1
MLEADERSTYLE
  2
AcDbMLeaderStyle
  3
ACDB_MLEADERSTYLE_CLASS
 90
     4095
 91
        3
280
     0
281
     0
  0
CLASS
  1
SUN
  2
AcDbSun
  3
SCENEOE
 90
     1153
 91
        3
280
     0
281
     0
  0
CLASS
  1
RASTERVARIABLES
  2
AcDbRasterVariables
  3
ISM
 90
        0
 91
        3
280
     0
281
     0
  0
CLASS
  1
WIPEOUTVARIABLES
  2
AcDbWipeoutVariables
  3
WipeOut|AutoCAD Express Tool|expresstools@autodesk.com
 90
        0
 91
        3
280
     0
281
     0
  0
CLASS
  1
PLOTSETTINGS
  2
AcDbPlotSettings
  3
ObjectDBX Classes
 90
        0
 91
        3
280
     0
281
     0
  0
CLASS
  1
DICTIONARYVAR
  2
AcDbDictionaryVar
  3
ObjectDBX Classes
 90
        0
 91
        3
280
     0
281
     0
  0
CLASS
  1
CELLSTYLEMAP
  2
AcDbCellStyleMap
  3
ObjectDBX Classes
 90
     1152
 91
        3
280
     0
281
     0
  0
ENDSEC
  0
SECTION
  2
TABLES
  0
TABLE
  2
VPORT
  5
8
330
0
100
AcDbSymbolTable
 70
     1
  0
VPORT
  5
29
330
8
100
AcDbSymbolTableRecord
100
AcDbViewportTableRecord
  2
*Active
 70
     0
 10
0.0
 20
0.0
 11
1.0
 21
1.0
 12
20442.80871694214
 22
-8360.997271535804
 13
0.0
 23
0.0
 14
10.0
 24
10.0
 15
10.0
 25
10.0
 16
0.0
 26
0.0
 36
1.0
 17
0.0
 27
0.0
 37
0.0
 40
2487.294387256686
 41
9.28962015036474
 42
50.0
 43
0.0
 44
0.0
 50
0.0
 51
0.0
 71
     0
 72
   100
 73
     1
 74
     3
 75
     0
 76
     0
 77
     0
 78
     0
281
     0
 65
     1
110
0.0
120
0.0
130
0.0
111
1.0
121
0.0
131
0.0
112
0.0
122
1.0
132
0.0
 79
     0
146
0.0
348
2F
 60
     3
 61
     5
292
     1
282
     1
141
0.0
142
0.0
 63
   250
361
5D
  0
ENDTAB
  0
TABLE
  2
LTYPE
  5
5
330
0
100
AcDbSymbolTable
 70
     3
  0
LTYPE
  5
14
330
5
100
AcDbSymbolTableRecord
100
AcDbLinetypeTableRecord
  2
ByBlock
 70
     0
  3

 72
    65
 73
     0
 40
0.0
  0
LTYPE
  5
15
330
5
100
AcDbSymbolTableRecord
100
AcDbLinetypeTableRecord
  2
ByLayer
 70
     0
  3

 72
    65
 73
     0
 40
0.0
  0
LTYPE
  5
16
330
5
100
AcDbSymbolTableRecord
100
AcDbLinetypeTableRecord
  2
Continuous
 70
     0
  3
Solid line
 72
    65
 73
     0
 40
0.0
  0
LTYPE
  5
166
330
5
100
AcDbSymbolTableRecord
100
AcDbLinetypeTableRecord
  2
CADWORK_3
 70
     0
  3

 72
    65
 73
     2
 40
4.0
 49
2.0
 74
     0
 49
-2.0
 74
     0
  0
LTYPE
  5
265
330
5
100
AcDbSymbolTableRecord
100
AcDbLinetypeTableRecord
  2
CADWORK_22
 70
     0
  3

 72
    65
 73
     0
 40
0.0
  0
ENDTAB
  0
TABLE
  2
LAYER
  5
2
330
0
100
AcDbSymbolTable
 70
     4
  0
LAYER
  5
10
330
2
100
AcDbSymbolTableRecord
100
AcDbLayerTableRecord
  2
0
 70
     0
 62
     7
  6
Continuous
370
    -3
390
F
347
46
348
0
  0
LAYER
  5
67
330
2
100
AcDbSymbolTableRecord
100
AcDbLayerTableRecord
  2
Ech.1_5
 70
     0
 62
     7
  6
Continuous
370
    -3
390
F
347
46
348
0
  0
LAYER
  5
68
330
2
100
AcDbSymbolTableRecord
100
AcDbLayerTableRecord
  2
ECH_1_5
 70
     0
 62
     7
  6
Continuous
370
    -3
390
F
347
46
348
0
  0
LAYER
  5
69
330
2
100
AcDbSymbolTableRecord
100
AcDbLayerTableRecord
  2
0_
 70
     0
 62
     7
  6
Continuous
370
    -3
390
F
347
46
348
0
  0
ENDTAB
  0
TABLE
  2
STYLE
  5
3
330
0
100
AcDbSymbolTable
 70
     9
  0
STYLE
  5
11
330
3
100
AcDbSymbolTableRecord
100
AcDbTextStyleTableRecord
  2
Standard
 70
     0
 40
0.0
 41
1.0
 50
0.0
 71
     0
 42
2.5
  3
txt
  4

  0
STYLE
  5
62
330
3
100
AcDbSymbolTableRecord
100
AcDbTextStyleTableRecord
  2
CwStyleShx
 70
     0
 40
1.0
 41
1.0
 50
0.0
 71
     0
 42
2.5
  3

  4

  0
STYLE
  5
63
330
3
100
AcDbSymbolTableRecord
100
AcDbTextStyleTableRecord
  2
CwStyleShx16
 70
     0
 40
1.0
 41
1.0
 50
0.0
 71
     0
 42
2.5
  3

  4

  0
STYLE
  5
64
330
3
100
AcDbSymbolTableRecord
100
AcDbTextStyleTableRecord
  2
MONOTXT
 70
     0
 40
0.0
 41
1.0
 50
0.0
 71
     0
 42
2.5
  3
MONOTXT
  4

  0
STYLE
  5
65
330
3
100
AcDbSymbolTableRecord
100
AcDbTextStyleTableRecord
  2
SYMAP
 70
     0
 40
1.0
 41
1.0
 50
0.0
 71
     0
 42
2.5
  3
SYMAP
  4

  0
STYLE
  5
66
330
3
100
AcDbSymbolTableRecord
100
AcDbTextStyleTableRecord
  2
CwStyleTtf
 70
     0
 40
1.0
 41
1.0
 50
0.0
 71
     0
 42
2.5
  3
arial.ttf
  4

  0
STYLE
  5
31E
330
3
100
AcDbSymbolTableRecord
100
AcDbTextStyleTableRecord
  2
arial-
 70
     0
 40
1.0
 41
1.0
 50
0.0
 71
     0
 42
2.5
  3
arial.ttf
  4

1001
ACAD
1000
Arial
1071
        0
  0
STYLE
  5
322
330
3
100
AcDbSymbolTableRecord
100
AcDbTextStyleTableRecord
  2
arial-i
 70
     0
 40
1.0
 41
1.0
 50
0.0
 71
     0
 42
2.5
  3
ariali.ttf
  4

1001
ACAD
1000
Arial
1071
 16777216
  0
STYLE
  5
324
330
3
100
AcDbSymbolTableRecord
100
AcDbTextStyleTableRecord
  2
arial-b
 70
     0
 40
1.0
 41
1.0
 50
0.0
 71
     0
 42
2.5
  3
arialbd.ttf
  4

1001
ACAD
1000
Arial
1071
 33554432
  0
ENDTAB
  0
TABLE
  2
VIEW
  5
6
330
0
100
AcDbSymbolTable
 70
     0
  0
ENDTAB
  0
TABLE
  2
UCS
  5
7
330
0
100
AcDbSymbolTable
 70
     0
  0
ENDTAB
  0
TABLE
  2
APPID
  5
9
330
0
100
AcDbSymbolTable
 70
     3
  0
APPID
  5
12
330
9
100
AcDbSymbolTableRecord
100
AcDbRegAppTableRecord
  2
ACAD
 70
     0
  0
APPID
  5
5E
330
9
100
AcDbSymbolTableRecord
100
AcDbRegAppTableRecord
  2
Cadwork
 70
     0
  0
APPID
  5
216
330
9
100
AcDbSymbolTableRecord
100
AcDbRegAppTableRecord
  2
PLOTTRANSPARENCY
 70
     0
  0
ENDTAB
  0
TABLE
  2
DIMSTYLE
  5
A
330
0
100
AcDbSymbolTable
 70
     1
100
AcDbDimStyleTable
  0
DIMSTYLE
105
27
330
A
100
AcDbSymbolTableRecord
100
AcDbDimStyleTableRecord
  2
ISO-25
 70
     0
 41
2.5
 42
0.625
 43
3.75
 44
1.25
 73
     0
 74
     0
 77
     1
 78
     8
140
2.5
141
2.5
143
0.03937007874016
147
0.625
171
     3
172
     1
178
     0
271
     2
272
     2
274
     3
278
    44
283
     0
284
     8
340
11
  0
ENDTAB
  0
TABLE
  2
BLOCK_RECORD
  5
1
330
0
100
AcDbSymbolTable
 70
    69
  0
BLOCK_RECORD
  5
1F
330
1
100
AcDbSymbolTableRecord
100
AcDbBlockTableRecord
  2
*Model_Space
340
22
 70
     0
280
     1
281
     0
  0
BLOCK_RECORD
  5
211
330
1
100
AcDbSymbolTableRecord
100
AcDbBlockTableRecord
  2
*Paper_Space
340
212
 70
     0
280
     1
281
     0
  0
BLOCK_RECORD
  5
6A
330
1
100
AcDbSymbolTableRecord
100
AcDbBlockTableRecord
  2
CDWK_PTTYP1
340
0
 70
     0
280
     1
281
     1
  0
BLOCK_RECORD
  5
71
330
1
100
AcDbSymbolTableRecord
100
AcDbBlockTableRecord
  2
CDWK_PTTYP2
340
0
 70
     0
280
     1
281
     1
  0
BLOCK_RECORD
  5
76
330
1
100
AcDbSymbolTableRecord
100
AcDbBlockTableRecord
  2
CDWK_PTTYP4
340
0
 70
     0
280
     1
281
     1
  0
BLOCK_RECORD
  5
7A
330
1
100
AcDbSymbolTableRecord
100
AcDbBlockTableRecord
  2
CDWK_PTTYP5
340
0
 70
     0
280
     1
281
     1
  0
BLOCK_RECORD
  5
83
330
1
100
AcDbSymbolTableRecord
100
AcDbBlockTableRecord
  2
CDWK_PTTYP6
340
0
 70
     0
280
     1
281
     1
  0
BLOCK_RECORD
  5
8B
330
1
100
AcDbSymbolTableRecord
100
AcDbBlockTableRecord
  2
CDWK_PTTYP7
340
0
 70
     0
280
     1
281
     1
  0
BLOCK_RECORD
  5
94
330
1
100
AcDbSymbolTableRecord
100
AcDbBlockTableRecord
  2
CDWK_PTTYP8
340
0
 70
     0
280
     1
281
     1
  0
BLOCK_RECORD
  5
98
330
1
100
AcDbSymbolTableRecord
100
AcDbBlockTableRecord
  2
CDWK_PTTYP9
340
0
 70
     0
280
     1
281
     1
  0
BLOCK_RECORD
  5
9D
330
1
100
AcDbSymbolTableRecord
100
AcDbBlockTableRecord
  2
CDWK_PTTYP10
340
0
 70
     0
280
     1
281
     1
  0
BLOCK_RECORD
  5
A1
330
1
100
AcDbSymbolTableRecord
100
AcDbBlockTableRecord
  2
CDWK_PTTYP11
340
0
 70
     0
280
     1
281
     1
  0
BLOCK_RECORD
  5
A6
330
1
100
AcDbSymbolTableRecord
100
AcDbBlockTableRecord
  2
CDWK_PTTYP12
340
0
 70
     0
280
     1
281
     1
  0
BLOCK_RECORD
  5
AB
330
1
100
AcDbSymbolTableRecord
100
AcDbBlockTableRecord
  2
CDWK_PTTYP13
340
0
 70
     0
280
     1
281
     1
  0
BLOCK_RECORD
  5
B1
330
1
100
AcDbSymbolTableRecord
100
AcDbBlockTableRecord
  2
CDWK_PTTYP16
340
0
 70
     0
280
     1
281
     1
  0
BLOCK_RECORD
  5
B8
330
1
100
AcDbSymbolTableRecord
100
AcDbBlockTableRecord
  2
CDWK_PTTYP17
340
0
 70
     0
280
     1
281
     1
  0
BLOCK_RECORD
  5
BD
330
1
100
AcDbSymbolTableRecord
100
AcDbBlockTableRecord
  2
CDWK_PTTYP18
340
0
 70
     0
280
     1
281
     1
  0
BLOCK_RECORD
  5
C2
330
1
100
AcDbSymbolTableRecord
100
AcDbBlockTableRecord
  2
CDWK_PTTYP19
340
0
 70
     0
280
     1
281
     1
  0
BLOCK_RECORD
  5
C8
330
1
100
AcDbSymbolTableRecord
100
AcDbBlockTableRecord
  2
CDWK_PTTYP20
340
0
 70
     0
280
     1
281
     1
  0
BLOCK_RECORD
  5
CD
330
1
100
AcDbSymbolTableRecord
100
AcDbBlockTableRecord
  2
CDWK_PTTYP21
340
0
 70
     0
280
     1
281
     1
  0
BLOCK_RECORD
  5
D2
330
1
100
AcDbSymbolTableRecord
100
AcDbBlockTableRecord
  2
CDWK_PTTYP25
340
0
 70
     0
280
     1
281
     1
  0
BLOCK_RECORD
  5
D9
330
1
100
AcDbSymbolTableRecord
100
AcDbBlockTableRecord
  2
CDWK_PTTYP26
340
0
 70
     0
280
     1
281
     1
  0
BLOCK_RECORD
  5
E0
330
1
100
AcDbSymbolTableRecord
100
AcDbBlockTableRecord
  2
CDWK_PTTYP27
340
0
 70
     0
280
     1
281
     1
  0
BLOCK_RECORD
  5
E8
330
1
100
AcDbSymbolTableRecord
100
AcDbBlockTableRecord
  2
CDWK_PTTYP28
340
0
 70
     0
280
     1
281
     1
  0
BLOCK_RECORD
  5
EF
330
1
100
AcDbSymbolTableRecord
100
AcDbBlockTableRecord
  2
CDWK_PTTYP29
340
0
 70
     0
280
     1
281
     1
  0
BLOCK_RECORD
  5
F5
330
1
100
AcDbSymbolTableRecord
100
AcDbBlockTableRecord
  2
CDWK_PTTYP30
340
0
 70
     0
280
     1
281
     1
  0
BLOCK_RECORD
  5
FC
330
1
100
AcDbSymbolTableRecord
100
AcDbBlockTableRecord
  2
CDWK_PTTYP31
340
0
 70
     0
280
     1
281
     1
  0
BLOCK_RECORD
  5
104
330
1
100
AcDbSymbolTableRecord
100
AcDbBlockTableRecord
  2
CDWK_PTTYP32
340
0
 70
     0
280
     1
281
     1
  0
BLOCK_RECORD
  5
10D
330
1
100
AcDbSymbolTableRecord
100
AcDbBlockTableRecord
  2
CDWK_PTTYP33
340
0
 70
     0
280
     1
281
     1
  0
BLOCK_RECORD
  5
113
330
1
100
AcDbSymbolTableRecord
100
AcDbBlockTableRecord
  2
CDWK_PTTYP34
340
0
 70
     0
280
     1
281
     1
  0
BLOCK_RECORD
  5
119
330
1
100
AcDbSymbolTableRecord
100
AcDbBlockTableRecord
  2
CDWK_PTTYP35
340
0
 70
     0
280
     1
281
     1
  0
BLOCK_RECORD
  5
11F
330
1
100
AcDbSymbolTableRecord
100
AcDbBlockTableRecord
  2
CDWK_PTTYP36
340
0
 70
     0
280
     1
281
     1
  0
BLOCK_RECORD
  5
127
330
1
100
AcDbSymbolTableRecord
100
AcDbBlockTableRecord
  2
CDWK_PTTYP37
340
0
 70
     0
280
     1
281
     1
  0
BLOCK_RECORD
  5
12C
330
1
100
AcDbSymbolTableRecord
100
AcDbBlockTableRecord
  2
CDWK_PTTYP38
340
0
 70
     0
280
     1
281
     1
  0
BLOCK_RECORD
  5
132
330
1
100
AcDbSymbolTableRecord
100
AcDbBlockTableRecord
  2
CDWK_PTTYP41
340
0
 70
     0
280
     1
281
     1
  0
BLOCK_RECORD
  5
13C
330
1
100
AcDbSymbolTableRecord
100
AcDbBlockTableRecord
  2
CDWK_PTTYP42
340
0
 70
     0
280
     1
281
     1
  0
BLOCK_RECORD
  5
145
330
1
100
AcDbSymbolTableRecord
100
AcDbBlockTableRecord
  2
CDWK_PTTYP43
340
0
 70
     0
280
     1
281
     1
  0
BLOCK_RECORD
  5
14B
330
1
100
AcDbSymbolTableRecord
100
AcDbBlockTableRecord
  2
CDWK_PTTYP44
340
0
 70
     0
280
     1
281
     1
  0
BLOCK_RECORD
  5
154
330
1
100
AcDbSymbolTableRecord
100
AcDbBlockTableRecord
  2
CDWK_PTTYP45
340
0
 70
     0
280
     1
281
     1
  0
BLOCK_RECORD
  5
159
330
1
100
AcDbSymbolTableRecord
100
AcDbBlockTableRecord
  2
CDWK_PTTYP46
340
0
 70
     0
280
     1
281
     1
  0
BLOCK_RECORD
  5
15E
330
1
100
AcDbSymbolTableRecord
100
AcDbBlockTableRecord
  2
CDWK_PTTYP47
340
0
 70
     0
280
     1
281
     1
  0
BLOCK_RECORD
  5
167
330
1
100
AcDbSymbolTableRecord
100
AcDbBlockTableRecord
  2
CDWK_PTTYP48
340
0
 70
     0
280
     1
281
     1
  0
BLOCK_RECORD
  5
16C
330
1
100
AcDbSymbolTableRecord
100
AcDbBlockTableRecord
  2
CDWK_PTTYP49
340
0
 70
     0
280
     1
281
     1
  0
BLOCK_RECORD
  5
173
330
1
100
AcDbSymbolTableRecord
100
AcDbBlockTableRecord
  2
CDWK_PTTYP50
340
0
 70
     0
280
     1
281
     1
  0
BLOCK_RECORD
  5
17D
330
1
100
AcDbSymbolTableRecord
100
AcDbBlockTableRecord
  2
CDWK_PTTYP51
340
0
 70
     0
280
     1
281
     1
  0
BLOCK_RECORD
  5
182
330
1
100
AcDbSymbolTableRecord
100
AcDbBlockTableRecord
  2
CDWK_PTTYP52
340
0
 70
     0
280
     1
281
     1
  0
BLOCK_RECORD
  5
188
330
1
100
AcDbSymbolTableRecord
100
AcDbBlockTableRecord
  2
cw-dimension-symbol1
340
0
 70
     0
280
     1
281
     0
  0
BLOCK_RECORD
  5
18F
330
1
100
AcDbSymbolTableRecord
100
AcDbBlockTableRecord
  2
cw-dimension-symbol2
340
0
 70
     0
280
     1
281
     0
  0
BLOCK_RECORD
  5
194
330
1
100
AcDbSymbolTableRecord
100
AcDbBlockTableRecord
  2
cw-dimension-symbol3
340
0
 70
     0
280
     1
281
     0
  0
BLOCK_RECORD
  5
199
330
1
100
AcDbSymbolTableRecord
100
AcDbBlockTableRecord
  2
cw-dimension-symbol5
340
0
 70
     0
280
     1
281
     0
  0
BLOCK_RECORD
  5
1A0
330
1
100
AcDbSymbolTableRecord
100
AcDbBlockTableRecord
  2
cw-dimension-symbol6
340
0
 70
     0
280
     1
281
     0
  0
BLOCK_RECORD
  5
1A6
330
1
100
AcDbSymbolTableRecord
100
AcDbBlockTableRecord
  2
cw-dimension-symbol11
340
0
 70
     0
280
     1
281
     0
  0
BLOCK_RECORD
  5
1AC
330
1
100
AcDbSymbolTableRecord
100
AcDbBlockTableRecord
  2
cw-dimension-symbol13
340
0
 70
     0
280
     1
281
     0
  0
BLOCK_RECORD
  5
1B2
330
1
100
AcDbSymbolTableRecord
100
AcDbBlockTableRecord
  2
cw-dimension-symbol15
340
0
 70
     0
280
     1
281
     0
  0
BLOCK_RECORD
  5
1B9
330
1
100
AcDbSymbolTableRecord
100
AcDbBlockTableRecord
  2
cw-dimension-symbol16
340
0
 70
     0
280
     1
281
     0
  0
BLOCK_RECORD
  5
1C0
330
1
100
AcDbSymbolTableRecord
100
AcDbBlockTableRecord
  2
cw-dimension-symbol17
340
0
 70
     0
280
     1
281
     0
  0
BLOCK_RECORD
  5
1C7
330
1
100
AcDbSymbolTableRecord
100
AcDbBlockTableRecord
  2
cw-dimension-symbol18
340
0
 70
     0
280
     1
281
     0
  0
BLOCK_RECORD
  5
1CE
330
1
100
AcDbSymbolTableRecord
100
AcDbBlockTableRecord
  2
cw-dimension-symbol19
340
0
 70
     0
280
     1
281
     0
  0
BLOCK_RECORD
  5
1D1
330
1
100
AcDbSymbolTableRecord
100
AcDbBlockTableRecord
  2
cw-dimension-symbol20
340
0
 70
     0
280
     1
281
     0
  0
BLOCK_RECORD
  5
1D8
330
1
100
AcDbSymbolTableRecord
100
AcDbBlockTableRecord
  2
cw-dimension-symbol21
340
0
 70
     0
280
     1
281
     0
  0
BLOCK_RECORD
  5
1DF
330
1
100
AcDbSymbolTableRecord
100
AcDbBlockTableRecord
  2
cw-line-extremity0
340
0
 70
     0
280
     1
281
     0
  0
BLOCK_RECORD
  5
1E3
330
1
100
AcDbSymbolTableRecord
100
AcDbBlockTableRecord
  2
cw-line-extremity2
340
0
 70
     0
280
     1
281
     0
  0
BLOCK_RECORD
  5
1E8
330
1
100
AcDbSymbolTableRecord
100
AcDbBlockTableRecord
  2
cw-line-extremity3
340
0
 70
     0
280
     1
281
     0
  0
BLOCK_RECORD
  5
1ED
330
1
100
AcDbSymbolTableRecord
100
AcDbBlockTableRecord
  2
cw-line-extremity301
340
0
 70
     0
280
     1
281
     0
  0
BLOCK_RECORD
  5
1EF
330
1
100
AcDbSymbolTableRecord
100
AcDbBlockTableRecord
  2
cw-line-extremity4
340
0
102
{BLKREFS
331
315
331
317
331
319
331
31B
331
31D
102
}
 70
     0
280
     1
281
     0
  0
BLOCK_RECORD
  5
1F1
330
1
100
AcDbSymbolTableRecord
100
AcDbBlockTableRecord
  2
cw-line-extremity5
340
0
 70
     0
280
     1
281
     0
  0
BLOCK_RECORD
  5
1F3
330
1
100
AcDbSymbolTableRecord
100
AcDbBlockTableRecord
  2
cw-line-extremity6
340
0
 70
     0
280
     1
281
     0
  0
BLOCK_RECORD
  5
1F5
330
1
100
AcDbSymbolTableRecord
100
AcDbBlockTableRecord
  2
cw-line-extremity9
340
0
 70
     0
280
     1
281
     0
  0
BLOCK_RECORD
  5
1F7
330
1
100
AcDbSymbolTableRecord
100
AcDbBlockTableRecord
  2
cw-line-extremity10
340
0
 70
     0
280
     1
281
     0
  0
BLOCK_RECORD
  5
1F9
330
1
100
AcDbSymbolTableRecord
100
AcDbBlockTableRecord
  2
cw-line-extremity1
340
0
 70
     0
280
     1
281
     0
  0
BLOCK_RECORD
  5
1B
330
1
100
AcDbSymbolTableRecord
100
AcDbBlockTableRecord
  2
*Paper_Space69
340
1E
 70
     0
280
     1
281
     0
  0
ENDTAB
  0
ENDSEC
  0
SECTION
  2
BLOCKS
  0
BLOCK
  5
20
330
1F
100
AcDbEntity
  8
0
100
AcDbBlockBegin
  2
*Model_Space
 70
     0
 10
0.0
 20
0.0
 30
0.0
  3
*Model_Space
  1

  0
ENDBLK
  5
21
330
1F
100
AcDbEntity
  8
0
100
AcDbBlockEnd
  0
BLOCK
  5
213
330
211
100
AcDbEntity
 67
     1
  8
0
100
AcDbBlockBegin
  2
*Paper_Space
 70
     0
 10
0.0
 20
0.0
 30
0.0
  3
*Paper_Space
  1

  0
ENDBLK
  5
214
330
211
100
AcDbEntity
 67
     1
  8
0
100
AcDbBlockEnd
  0
BLOCK
  5
6F
330
6A
100
AcDbEntity
  8
0
100
AcDbBlockBegin
  2
CDWK_PTTYP1
 70
     0
 10
0.0
 20
0.0
 30
0.0
  3
CDWK_PTTYP1
  1

  0
LINE
  5
6B
330
6A
100
AcDbEntity
  8
0
  6
Continuous
 62
     0
370
    -2
390
5F
100
AcDbLine
 10
-0.5
 20
0.5
 30
0.0
 11
0.5
 21
0.5
 31
0.0
  0
LINE
  5
6C
330
6A
100
AcDbEntity
  8
0
  6
Continuous
 62
     0
370
    -2
390
5F
100
AcDbLine
 10
0.5
 20
0.5
 30
0.0
 11
0.5
 21
-0.5
 31
0.0
  0
LINE
  5
6D
330
6A
100
AcDbEntity
  8
0
  6
Continuous
 62
     0
370
    -2
390
5F
100
AcDbLine
 10
0.5
 20
-0.5
 30
0.0
 11
-0.5
 21
-0.5
 31
0.0
  0
LINE
  5
6E
330
6A
100
AcDbEntity
  8
0
  6
Continuous
 62
     0
370
    -2
390
5F
100
AcDbLine
 10
-0.5
 20
-0.5
 30
0.0
 11
-0.5
 21
0.5
 31
0.0
  0
ENDBLK
  5
70
330
6A
100
AcDbEntity
  8
0
100
AcDbBlockEnd
  0
BLOCK
  5
74
330
71
100
AcDbEntity
  8
0
100
AcDbBlockBegin
  2
CDWK_PTTYP2
 70
     0
 10
0.0
 20
0.0
 30
0.0
  3
CDWK_PTTYP2
  1

  0
LINE
  5
72
330
71
100
AcDbEntity
  8
0
  6
Continuous
 62
     0
370
    -2
390
5F
100
AcDbLine
 10
0.0
 20
0.5
 30
0.0
 11
0.0
 21
-0.5
 31
0.0
  0
LINE
  5
73
330
71
100
AcDbEntity
  8
0
  6
Continuous
 62
     0
370
    -2
390
5F
100
AcDbLine
 10
0.5
 20
0.0
 30
0.0
 11
-0.5
 21
0.0
 31
0.0
  0
ENDBLK
  5
75
330
71
100
AcDbEntity
  8
0
100
AcDbBlockEnd
  0
BLOCK
  5
78
330
76
100
AcDbEntity
  8
0
100
AcDbBlockBegin
  2
CDWK_PTTYP4
 70
     0
 10
0.0
 20
0.0
 30
0.0
  3
CDWK_PTTYP4
  1

  0
HATCH
  5
77
330
76
100
AcDbEntity
  8
0
  6
Continuous
 62
     0
370
    -2
390
5F
100
AcDbHatch
 10
0.0
 20
0.0
 30
0.0
210
0.0
220
0.0
230
1.0
  2
SOLID
 70
     1
 71
     0
 91
        1
 92
        1
 93
        1
 72
     2
 10
0.0
 20
0.0
 40
0.5
 50
0.0
 51
360.0
 73
     1
 97
        0
 75
     0
 76
     1
 98
        0
  0
ENDBLK
  5
79
330
76
100
AcDbEntity
  8
0
100
AcDbBlockEnd
  0
BLOCK
  5
81
330
7A
100
AcDbEntity
  8
0
100
AcDbBlockBegin
  2
CDWK_PTTYP5
 70
     0
 10
0.0
 20
0.0
 30
0.0
  3
CDWK_PTTYP5
  1

  0
LINE
  5
7B
330
7A
100
AcDbEntity
  8
0
  6
Continuous
 62
     0
370
    -2
390
5F
100
AcDbLine
 10
-0.5
 20
0.5
 30
0.0
 11
0.5
 21
0.5
 31
0.0
  0
LINE
  5
7C
330
7A
100
AcDbEntity
  8
0
  6
Continuous
 62
     0
370
    -2
390
5F
100
AcDbLine
 10
0.5
 20
0.5
 30
0.0
 11
0.5
 21
-0.5
 31
0.0
  0
LINE
  5
7D
330
7A
100
AcDbEntity
  8
0
  6
Continuous
 62
     0
370
    -2
390
5F
100
AcDbLine
 10
0.5
 20
-0.5
 30
0.0
 11
-0.5
 21
-0.5
 31
0.0
  0
LINE
  5
7E
330
7A
100
AcDbEntity
  8
0
  6
Continuous
 62
     0
370
    -2
390
5F
100
AcDbLine
 10
-0.5
 20
-0.5
 30
0.0
 11
-0.5
 21
0.5
 31
0.0
  0
HATCH
  5
7F
330
7A
100
AcDbEntity
  8
0
  6
Continuous
 62
     0
370
    -2
390
5F
100
AcDbHatch
 10
0.0
 20
0.0
 30
0.0
210
0.0
220
0.0
230
1.0
  2
SOLID
 70
     1
 71
     0
 91
        1
 92
        3
 72
     0
 73
     1
 93
        4
 10
-0.5
 20
0.0
 10
0.0
 20
0.0
 10
0.0
 20
-0.5
 10
-0.5
 20
-0.5
 97
        0
 75
     0
 76
     1
 98
        0
  0
HATCH
  5
80
330
7A
100
AcDbEntity
  8
0
  6
Continuous
 62
     0
370
    -2
390
5F
100
AcDbHatch
 10
0.0
 20
0.0
 30
0.0
210
0.0
220
0.0
230
1.0
  2
SOLID
 70
     1
 71
     0
 91
        1
 92
        3
 72
     0
 73
     1
 93
        4
 10
0.0
 20
0.0
 10
0.5
 20
0.0
 10
0.5
 20
0.5
 10
0.0
 20
0.5
 97
        0
 75
     0
 76
     1
 98
        0
  0
ENDBLK
  5
82
330
7A
100
AcDbEntity
  8
0
100
AcDbBlockEnd
  0
BLOCK
  5
89
330
83
100
AcDbEntity
  8
0
100
AcDbBlockBegin
  2
CDWK_PTTYP6
 70
     0
 10
0.0
 20
0.0
 30
0.0
  3
CDWK_PTTYP6
  1

  0
LINE
  5
84
330
83
100
AcDbEntity
  8
0
  6
Continuous
 62
     0
370
    -2
390
5F
100
AcDbLine
 10
-0.5
 20
0.5
 30
0.0
 11
0.5
 21
0.5
 31
0.0
  0
LINE
  5
85
330
83
100
AcDbEntity
  8
0
  6
Continuous
 62
     0
370
    -2
390
5F
100
AcDbLine
 10
0.5
 20
0.5
 30
0.0
 11
0.5
 21
-0.5
 31
0.0
  0
LINE
  5
86
330
83
100
AcDbEntity
  8
0
  6
Continuous
 62
     0
370
    -2
390
5F
100
AcDbLine
 10
0.5
 20
-0.5
 30
0.0
 11
-0.5
 21
-0.5
 31
0.0
  0
LINE
  5
87
330
83
100
AcDbEntity
  8
0
  6
Continuous
 62
     0
370
    -2
390
5F
100
AcDbLine
 10
-0.5
 20
-0.5
 30
0.0
 11
-0.5
 21
0.5
 31
0.0
  0
HATCH
  5
88
330
83
100
AcDbEntity
  8
0
  6
Continuous
 62
     0
370
    -2
390
5F
100
AcDbHatch
 10
0.0
 20
0.0
 30
0.0
210
0.0
220
0.0
230
1.0
  2
SOLID
 70
     1
 71
     0
 91
        1
 92
        3
 72
     0
 73
     1
 93
        3
 10
-0.5
 20
-0.5
 10
-0.5
 20
0.5
 10
0.5
 20
0.5
 97
        0
 75
     0
 76
     1
 98
        0
  0
ENDBLK
  5
8A
330
83
100
AcDbEntity
  8
0
100
AcDbBlockEnd
  0
BLOCK
  5
92
330
8B
100
AcDbEntity
  8
0
100
AcDbBlockBegin
  2
CDWK_PTTYP7
 70
     0
 10
0.0
 20
0.0
 30
0.0
  3
CDWK_PTTYP7
  1

  0
LINE
  5
8C
330
8B
100
AcDbEntity
  8
0
  6
Continuous
 62
     0
370
    -2
390
5F
100
AcDbLine
 10
-0.5
 20
0.5
 30
0.0
 11
0.5
 21
0.5
 31
0.0
  0
LINE
  5
8D
330
8B
100
AcDbEntity
  8
0
  6
Continuous
 62
     0
370
    -2
390
5F
100
AcDbLine
 10
0.5
 20
0.5
 30
0.0
 11
0.5
 21
-0.5
 31
0.0
  0
LINE
  5
8E
330
8B
100
AcDbEntity
  8
0
  6
Continuous
 62
     0
370
    -2
390
5F
100
AcDbLine
 10
0.5
 20
-0.5
 30
0.0
 11
-0.5
 21
-0.5
 31
0.0
  0
LINE
  5
8F
330
8B
100
AcDbEntity
  8
0
  6
Continuous
 62
     0
370
    -2
390
5F
100
AcDbLine
 10
-0.5
 20
-0.5
 30
0.0
 11
-0.5
 21
0.5
 31
0.0
  0
LINE
  5
90
330
8B
100
AcDbEntity
  8
0
  6
Continuous
 62
     0
370
    -2
390
5F
100
AcDbLine
 10
0.0
 20
0.5
 30
0.0
 11
0.0
 21
-0.5
 31
0.0
  0
LINE
  5
91
330
8B
100
AcDbEntity
  8
0
  6
Continuous
 62
     0
370
    -2
390
5F
100
AcDbLine
 10
0.5
 20
0.0
 30
0.0
 11
-0.5
 21
0.0
 31
0.0
  0
ENDBLK
  5
93
330
8B
100
AcDbEntity
  8
0
100
AcDbBlockEnd
  0
BLOCK
  5
96
330
94
100
AcDbEntity
  8
0
100
AcDbBlockBegin
  2
CDWK_PTTYP8
 70
     0
 10
0.0
 20
0.0
 30
0.0
  3
CDWK_PTTYP8
  1

  0
HATCH
  5
95
330
94
100
AcDbEntity
  8
0
  6
Continuous
 62
     0
370
    -2
390
5F
100
AcDbHatch
 10
0.0
 20
0.0
 30
0.0
210
0.0
220
0.0
230
1.0
  2
SOLID
 70
     1
 71
     0
 91
        1
 92
        3
 72
     0
 73
     1
 93
        4
 10
0.5
 20
0.5
 10
0.5
 20
-0.5
 10
-0.5
 20
-0.5
 10
-0.5
 20
0.5
 97
        0
 75
     0
 76
     1
 98
        0
  0
ENDBLK
  5
97
330
94
100
AcDbEntity
  8
0
100
AcDbBlockEnd
  0
BLOCK
  5
9B
330
98
100
AcDbEntity
  8
0
100
AcDbBlockBegin
  2
CDWK_PTTYP9
 70
     0
 10
0.0
 20
0.0
 30
0.0
  3
CDWK_PTTYP9
  1

  0
CIRCLE
  5
99
330
98
100
AcDbEntity
  8
0
  6
Continuous
 62
     0
370
    -2
390
5F
100
AcDbCircle
 10
0.0
 20
0.0
 30
0.0
 40
0.1666666666666667
  0
CIRCLE
  5
9A
330
98
100
AcDbEntity
  8
0
  6
Continuous
 62
     0
370
    -2
390
5F
100
AcDbCircle
 10
0.0
 20
0.0
 30
0.0
 40
0.5
  0
ENDBLK
  5
9C
330
98
100
AcDbEntity
  8
0
100
AcDbBlockEnd
  0
BLOCK
  5
9F
330
9D
100
AcDbEntity
  8
0
100
AcDbBlockBegin
  2
CDWK_PTTYP10
 70
     0
 10
0.0
 20
0.0
 30
0.0
  3
CDWK_PTTYP10
  1

  0
CIRCLE
  5
9E
330
9D
100
AcDbEntity
  8
0
  6
Continuous
 62
     0
370
    -2
390
5F
100
AcDbCircle
 10
0.0
 20
0.0
 30
0.0
 40
0.5
  0
ENDBLK
  5
A0
330
9D
100
AcDbEntity
  8
0
100
AcDbBlockEnd
  0
BLOCK
  5
A4
330
A1
100
AcDbEntity
  8
0
100
AcDbBlockBegin
  2
CDWK_PTTYP11
 70
     0
 10
0.0
 20
0.0
 30
0.0
  3
CDWK_PTTYP11
  1

  0
CIRCLE
  5
A2
330
A1
100
AcDbEntity
  8
0
  6
Continuous
 62
     0
370
    -2
390
5F
100
AcDbCircle
 10
0.0
 20
0.0
 30
0.0
 40
0.25
  0
CIRCLE
  5
A3
330
A1
100
AcDbEntity
  8
0
  6
Continuous
 62
     0
370
    -2
390
5F
100
AcDbCircle
 10
0.0
 20
0.0
 30
0.0
 40
0.5
  0
ENDBLK
  5
A5
330
A1
100
AcDbEntity
  8
0
100
AcDbBlockEnd
  0
BLOCK
  5
A9
330
A6
100
AcDbEntity
  8
0
100
AcDbBlockBegin
  2
CDWK_PTTYP12
 70
     0
 10
0.0
 20
0.0
 30
0.0
  3
CDWK_PTTYP12
  1

  0
CIRCLE
  5
A7
330
A6
100
AcDbEntity
  8
0
  6
Continuous
 62
     0
370
    -2
390
5F
100
AcDbCircle
 10
0.25
 20
0.0
 30
0.0
 40
0.25
  0
CIRCLE
  5
A8
330
A6
100
AcDbEntity
  8
0
  6
Continuous
 62
     0
370
    -2
390
5F
100
AcDbCircle
 10
0.0
 20
0.0
 30
0.0
 40
0.5
  0
ENDBLK
  5
AA
330
A6
100
AcDbEntity
  8
0
100
AcDbBlockEnd
  0
BLOCK
  5
AF
330
AB
100
AcDbEntity
  8
0
100
AcDbBlockBegin
  2
CDWK_PTTYP13
 70
     0
 10
0.0
 20
0.0
 30
0.0
  3
CDWK_PTTYP13
  1

  0
CIRCLE
  5
AC
330
AB
100
AcDbEntity
  8
0
  6
Continuous
 62
     0
370
    -2
390
5F
100
AcDbCircle
 10
-0.25
 20
0.0
 30
0.0
 40
0.25
  0
CIRCLE
  5
AD
330
AB
100
AcDbEntity
  8
0
  6
Continuous
 62
     0
370
    -2
390
5F
100
AcDbCircle
 10
0.25
 20
0.0
 30
0.0
 40
0.25
  0
CIRCLE
  5
AE
330
AB
100
AcDbEntity
  8
0
  6
Continuous
 62
     0
370
    -2
390
5F
100
AcDbCircle
 10
0.0
 20
0.0
 30
0.0
 40
0.5
  0
ENDBLK
  5
B0
330
AB
100
AcDbEntity
  8
0
100
AcDbBlockEnd
  0
BLOCK
  5
B6
330
B1
100
AcDbEntity
  8
0
100
AcDbBlockBegin
  2
CDWK_PTTYP16
 70
     0
 10
0.0
 20
0.0
 30
0.0
  3
CDWK_PTTYP16
  1

  0
LINE
  5
B2
330
B1
100
AcDbEntity
  8
0
  6
Continuous
 62
     0
370
    -2
390
5F
100
AcDbLine
 10
-0.5
 20
-0.289
 30
0.0
 11
0.5
 21
-0.289
 31
0.0
  0
LINE
  5
B3
330
B1
100
AcDbEntity
  8
0
  6
Continuous
 62
     0
370
    -2
390
5F
100
AcDbLine
 10
0.5
 20
-0.289
 30
0.0
 11
0.0
 21
0.577
 31
0.0
  0
LINE
  5
B4
330
B1
100
AcDbEntity
  8
0
  6
Continuous
 62
     0
370
    -2
390
5F
100
AcDbLine
 10
0.0
 20
0.577
 30
0.0
 11
-0.5
 21
-0.289
 31
0.0
  0
CIRCLE
  5
B5
330
B1
100
AcDbEntity
  8
0
  6
Continuous
 62
     0
370
    -2
390
5F
100
AcDbCircle
 10
0.0
 20
0.0
 30
0.0
 40
0.289
  0
ENDBLK
  5
B7
330
B1
100
AcDbEntity
  8
0
100
AcDbBlockEnd
  0
BLOCK
  5
BB
330
B8
100
AcDbEntity
  8
0
100
AcDbBlockBegin
  2
CDWK_PTTYP17
 70
     0
 10
0.0
 20
0.0
 30
0.0
  3
CDWK_PTTYP17
  1

  0
CIRCLE
  5
B9
330
B8
100
AcDbEntity
  8
0
  6
Continuous
 62
     0
370
    -2
390
5F
100
AcDbCircle
 10
0.0
 20
0.0
 30
0.0
 40
0.5
  0
HATCH
  5
BA
330
B8
100
AcDbEntity
  8
0
  6
Continuous
 62
     0
370
    -2
390
5F
100
AcDbHatch
 10
0.0
 20
0.0
 30
0.0
210
0.0
220
0.0
230
1.0
  2
SOLID
 70
     1
 71
     0
 91
        1
 92
        1
 93
        1
 72
     2
 10
0.0
 20
0.0
 40
0.25
 50
0.0
 51
360.0
 73
     1
 97
        0
 75
     0
 76
     1
 98
        0
  0
ENDBLK
  5
BC
330
B8
100
AcDbEntity
  8
0
100
AcDbBlockEnd
  0
BLOCK
  5
C0
330
BD
100
AcDbEntity
  8
0
100
AcDbBlockBegin
  2
CDWK_PTTYP18
 70
     0
 10
0.0
 20
0.0
 30
0.0
  3
CDWK_PTTYP18
  1

  0
CIRCLE
  5
BE
330
BD
100
AcDbEntity
  8
0
  6
Continuous
 62
     0
370
    -2
390
5F
100
AcDbCircle
 10
0.0
 20
0.0
 30
0.0
 40
0.5
  0
CIRCLE
  5
BF
330
BD
100
AcDbEntity
  8
0
  6
Continuous
 62
     0
370
    -2
390
5F
100
AcDbCircle
 10
0.0
 20
0.0
 30
0.0
 40
0.208
  0
ENDBLK
  5
C1
330
BD
100
AcDbEntity
  8
0
100
AcDbBlockEnd
  0
BLOCK
  5
C6
330
C2
100
AcDbEntity
  8
0
100
AcDbBlockBegin
  2
CDWK_PTTYP19
 70
     0
 10
0.0
 20
0.0
 30
0.0
  3
CDWK_PTTYP19
  1

  0
CIRCLE
  5
C3
330
C2
100
AcDbEntity
  8
0
  6
Continuous
 62
     0
370
    -2
390
5F
100
AcDbCircle
 10
0.0
 20
0.0
 30
0.0
 40
0.25
  0
CIRCLE
  5
C4
330
C2
100
AcDbEntity
  8
0
  6
Continuous
 62
     0
370
    -2
390
5F
100
AcDbCircle
 10
0.0
 20
0.0
 30
0.0
 40
0.35
  0
LINE
  5
C5
330
C2
100
AcDbEntity
  8
0
  6
Continuous
 62
     0
370
    -2
390
5F
100
AcDbLine
 10
-0.25
 20
0.0
 30
0.0
 11
0.25
 21
0.0
 31
0.0
  0
ENDBLK
  5
C7
330
C2
100
AcDbEntity
  8
0
100
AcDbBlockEnd
  0
BLOCK
  5
CB
330
C8
100
AcDbEntity
  8
0
100
AcDbBlockBegin
  2
CDWK_PTTYP20
 70
     0
 10
0.0
 20
0.0
 30
0.0
  3
CDWK_PTTYP20
  1

  0
CIRCLE
  5
C9
330
C8
100
AcDbEntity
  8
0
  6
Continuous
 62
     0
370
    -2
390
5F
100
AcDbCircle
 10
0.0
 20
0.0
 30
0.0
 40
0.3333333333333333
  0
CIRCLE
  5
CA
330
C8
100
AcDbEntity
  8
0
  6
Continuous
 62
     0
370
    -2
390
5F
100
AcDbCircle
 10
0.0
 20
0.0
 30
0.0
 40
0.5
  0
ENDBLK
  5
CC
330
C8
100
AcDbEntity
  8
0
100
AcDbBlockEnd
  0
BLOCK
  5
D0
330
CD
100
AcDbEntity
  8
0
100
AcDbBlockBegin
  2
CDWK_PTTYP21
 70
     0
 10
0.0
 20
0.0
 30
0.0
  3
CDWK_PTTYP21
  1

  0
CIRCLE
  5
CE
330
CD
100
AcDbEntity
  8
0
  6
Continuous
 62
     0
370
    -2
390
5F
100
AcDbCircle
 10
0.0
 20
0.0
 30
0.0
 40
0.5
  0
LINE
  5
CF
330
CD
100
AcDbEntity
  8
0
  6
Continuous
 62
     0
370
    -2
390
5F
100
AcDbLine
 10
-0.5
 20
0.0
 30
0.0
 11
0.5
 21
0.0
 31
0.0
  0
ENDBLK
  5
D1
330
CD
100
AcDbEntity
  8
0
100
AcDbBlockEnd
  0
BLOCK
  5
D7
330
D2
100
AcDbEntity
  8
0
100
AcDbBlockBegin
  2
CDWK_PTTYP25
 70
     0
 10
0.0
 20
0.0
 30
0.0
  3
CDWK_PTTYP25
  1

  0
LINE
  5
D3
330
D2
100
AcDbEntity
  8
0
  6
Continuous
 62
     0
370
    -2
390
5F
100
AcDbLine
 10
0.0
 20
0.5
 30
0.0
 11
-0.4330127018922193
 21
-0.25
 31
0.0
  0
LINE
  5
D4
330
D2
100
AcDbEntity
  8
0
  6
Continuous
 62
     0
370
    -2
390
5F
100
AcDbLine
 10
-0.4330127018922193
 20
-0.25
 30
0.0
 11
0.4330127018922193
 21
-0.25
 31
0.0
  0
LINE
  5
D5
330
D2
100
AcDbEntity
  8
0
  6
Continuous
 62
     0
370
    -2
390
5F
100
AcDbLine
 10
0.4330127018922193
 20
-0.25
 30
0.0
 11
0.0
 21
0.5
 31
0.0
  0
CIRCLE
  5
D6
330
D2
100
AcDbEntity
  8
0
  6
Continuous
 62
     0
370
    -2
390
5F
100
AcDbCircle
 10
0.0
 20
0.0
 30
0.0
 40
0.5
  0
ENDBLK
  5
D8
330
D2
100
AcDbEntity
  8
0
100
AcDbBlockEnd
  0
BLOCK
  5
DE
330
D9
100
AcDbEntity
  8
0
100
AcDbBlockBegin
  2
CDWK_PTTYP26
 70
     0
 10
0.0
 20
0.0
 30
0.0
  3
CDWK_PTTYP26
  1

  0
LINE
  5
DA
330
D9
100
AcDbEntity
  8
0
  6
Continuous
 62
     0
370
    -2
390
5F
100
AcDbLine
 10
-0.5
 20
-0.289
 30
0.0
 11
0.5
 21
-0.289
 31
0.0
  0
LINE
  5
DB
330
D9
100
AcDbEntity
  8
0
  6
Continuous
 62
     0
370
    -2
390
5F
100
AcDbLine
 10
0.5
 20
-0.289
 30
0.0
 11
0.0
 21
0.577
 31
0.0
  0
LINE
  5
DC
330
D9
100
AcDbEntity
  8
0
  6
Continuous
 62
     0
370
    -2
390
5F
100
AcDbLine
 10
0.0
 20
0.577
 30
0.0
 11
-0.5
 21
-0.289
 31
0.0
  0
CIRCLE
  5
DD
330
D9
100
AcDbEntity
  8
0
  6
Continuous
 62
     0
370
    -2
390
5F
100
AcDbCircle
 10
0.0
 20
0.0
 30
0.0
 40
0.125
  0
ENDBLK
  5
DF
330
D9
100
AcDbEntity
  8
0
100
AcDbBlockEnd
  0
BLOCK
  5
E6
330
E0
100
AcDbEntity
  8
0
100
AcDbBlockBegin
  2
CDWK_PTTYP27
 70
     0
 10
0.0
 20
0.0
 30
0.0
  3
CDWK_PTTYP27
  1

  0
LINE
  5
E1
330
E0
100
AcDbEntity
  8
0
  6
Continuous
 62
     0
370
    -2
390
5F
100
AcDbLine
 10
0.0
 20
0.5
 30
0.0
 11
-0.4330127018922193
 21
-0.25
 31
0.0
  0
LINE
  5
E2
330
E0
100
AcDbEntity
  8
0
  6
Continuous
 62
     0
370
    -2
390
5F
100
AcDbLine
 10
-0.4330127018922193
 20
-0.25
 30
0.0
 11
0.4330127018922193
 21
-0.25
 31
0.0
  0
LINE
  5
E3
330
E0
100
AcDbEntity
  8
0
  6
Continuous
 62
     0
370
    -2
390
5F
100
AcDbLine
 10
0.4330127018922193
 20
-0.25
 30
0.0
 11
0.0
 21
0.5
 31
0.0
  0
CIRCLE
  5
E4
330
E0
100
AcDbEntity
  8
0
  6
Continuous
 62
     0
370
    -2
390
5F
100
AcDbCircle
 10
0.0
 20
0.0
 30
0.0
 40
0.125
  0
CIRCLE
  5
E5
330
E0
100
AcDbEntity
  8
0
  6
Continuous
 62
     0
370
    -2
390
5F
100
AcDbCircle
 10
0.0
 20
0.0
 30
0.0
 40
0.5
  0
ENDBLK
  5
E7
330
E0
100
AcDbEntity
  8
0
100
AcDbBlockEnd
  0
BLOCK
  5
ED
330
E8
100
AcDbEntity
  8
0
100
AcDbBlockBegin
  2
CDWK_PTTYP28
 70
     0
 10
0.0
 20
0.0
 30
0.0
  3
CDWK_PTTYP28
  1

  0
LINE
  5
E9
330
E8
100
AcDbEntity
  8
0
  6
Continuous
 62
     0
370
    -2
390
5F
100
AcDbLine
 10
-0.5
 20
0.5
 30
0.0
 11
0.5
 21
0.5
 31
0.0
  0
LINE
  5
EA
330
E8
100
AcDbEntity
  8
0
  6
Continuous
 62
     0
370
    -2
390
5F
100
AcDbLine
 10
0.5
 20
0.5
 30
0.0
 11
-0.5
 21
-0.5
 31
0.0
  0
LINE
  5
EB
330
E8
100
AcDbEntity
  8
0
  6
Continuous
 62
     0
370
    -2
390
5F
100
AcDbLine
 10
0.5
 20
-0.5
 30
0.0
 11
-0.5
 21
-0.5
 31
0.0
  0
LINE
  5
EC
330
E8
100
AcDbEntity
  8
0
  6
Continuous
 62
     0
370
    -2
390
5F
100
AcDbLine
 10
-0.5
 20
0.5
 30
0.0
 11
0.5
 21
-0.5
 31
0.0
  0
ENDBLK
  5
EE
330
E8
100
AcDbEntity
  8
0
100
AcDbBlockEnd
  0
BLOCK
  5
F3
330
EF
100
AcDbEntity
  8
0
100
AcDbBlockBegin
  2
CDWK_PTTYP29
 70
     0
 10
0.0
 20
0.0
 30
0.0
  3
CDWK_PTTYP29
  1

  0
CIRCLE
  5
F0
330
EF
100
AcDbEntity
  8
0
  6
Continuous
 62
     0
370
    -2
390
5F
100
AcDbCircle
 10
0.0
 20
0.0
 30
0.0
 40
0.2
  0
CIRCLE
  5
F1
330
EF
100
AcDbEntity
  8
0
  6
Continuous
 62
     0
370
    -2
390
5F
100
AcDbCircle
 10
0.0
 20
0.0
 30
0.0
 40
0.35
  0
CIRCLE
  5
F2
330
EF
100
AcDbEntity
  8
0
  6
Continuous
 62
     0
370
    -2
390
5F
100
AcDbCircle
 10
0.0
 20
0.0
 30
0.0
 40
0.5
  0
ENDBLK
  5
F4
330
EF
100
AcDbEntity
  8
0
100
AcDbBlockEnd
  0
BLOCK
  5
FA
330
F5
100
AcDbEntity
  8
0
100
AcDbBlockBegin
  2
CDWK_PTTYP30
 70
     0
 10
0.0
 20
0.0
 30
0.0
  3
CDWK_PTTYP30
  1

  0
LINE
  5
F6
330
F5
100
AcDbEntity
  8
0
  6
Continuous
 62
     0
370
    -2
390
5F
100
AcDbLine
 10
-0.5
 20
0.5
 30
0.0
 11
-0.1
 21
0.1
 31
0.0
  0
LINE
  5
F7
330
F5
100
AcDbEntity
  8
0
  6
Continuous
 62
     0
370
    -2
390
5F
100
AcDbLine
 10
0.5
 20
0.5
 30
0.0
 11
0.1
 21
0.1
 31
0.0
  0
LINE
  5
F8
330
F5
100
AcDbEntity
  8
0
  6
Continuous
 62
     0
370
    -2
390
5F
100
AcDbLine
 10
0.5
 20
-0.5
 30
0.0
 11
0.1
 21
-0.1
 31
0.0
  0
LINE
  5
F9
330
F5
100
AcDbEntity
  8
0
  6
Continuous
 62
     0
370
    -2
390
5F
100
AcDbLine
 10
-0.5
 20
-0.5
 30
0.0
 11
-0.1
 21
-0.1
 31
0.0
  0
ENDBLK
  5
FB
330
F5
100
AcDbEntity
  8
0
100
AcDbBlockEnd
  0
BLOCK
  5
102
330
FC
100
AcDbEntity
  8
0
100
AcDbBlockBegin
  2
CDWK_PTTYP31
 70
     0
 10
0.0
 20
0.0
 30
0.0
  3
CDWK_PTTYP31
  1

  0
LINE
  5
FD
330
FC
100
AcDbEntity
  8
0
  6
Continuous
 62
     0
370
    -2
390
5F
100
AcDbLine
 10
-0.5
 20
0.0
 30
0.0
 11
-0.1
 21
0.0
 31
0.0
  0
LINE
  5
FE
330
FC
100
AcDbEntity
  8
0
  6
Continuous
 62
     0
370
    -2
390
5F
100
AcDbLine
 10
0.1
 20
0.0
 30
0.0
 11
0.5
 21
0.0
 31
0.0
  0
LINE
  5
FF
330
FC
100
AcDbEntity
  8
0
  6
Continuous
 62
     0
370
    -2
390
5F
100
AcDbLine
 10
0.0
 20
0.5
 30
0.0
 11
0.0
 21
0.1
 31
0.0
  0
LINE
  5
100
330
FC
100
AcDbEntity
  8
0
  6
Continuous
 62
     0
370
    -2
390
5F
100
AcDbLine
 10
0.0
 20
-0.1
 30
0.0
 11
0.0
 21
-0.5
 31
0.0
  0
CIRCLE
  5
101
330
FC
100
AcDbEntity
  8
0
  6
Continuous
 62
     0
370
    -2
390
5F
100
AcDbCircle
 10
0.0
 20
0.0
 30
0.0
 40
0.1
  0
ENDBLK
  5
103
330
FC
100
AcDbEntity
  8
0
100
AcDbBlockEnd
  0
BLOCK
  5
10B
330
104
100
AcDbEntity
  8
0
100
AcDbBlockBegin
  2
CDWK_PTTYP32
 70
     0
 10
0.0
 20
0.0
 30
0.0
  3
CDWK_PTTYP32
  1

  0
CIRCLE
  5
105
330
104
100
AcDbEntity
  8
0
  6
Continuous
 62
     0
370
    -2
390
5F
100
AcDbCircle
 10
0.0
 20
0.0
 30
0.0
 40
0.2
  0
CIRCLE
  5
106
330
104
100
AcDbEntity
  8
0
  6
Continuous
 62
     0
370
    -2
390
5F
100
AcDbCircle
 10
0.0
 20
0.0
 30
0.0
 40
0.5
  0
LINE
  5
107
330
104
100
AcDbEntity
  8
0
  6
Continuous
 62
     0
370
    -2
390
5F
100
AcDbLine
 10
0.1414213562373095
 20
0.1414213562373095
 30
0.0
 11
0.3535533905932738
 21
0.3535533905932738
 31
0.0
  0
LINE
  5
108
330
104
100
AcDbEntity
  8
0
  6
Continuous
 62
     0
370
    -2
390
5F
100
AcDbLine
 10
-0.1414213562373095
 20
0.1414213562373095
 30
0.0
 11
-0.3535533905932738
 21
0.3535533905932738
 31
0.0
  0
LINE
  5
109
330
104
100
AcDbEntity
  8
0
  6
Continuous
 62
     0
370
    -2
390
5F
100
AcDbLine
 10
0.1414213562373095
 20
-0.1414213562373095
 30
0.0
 11
0.3535533905932738
 21
-0.3535533905932738
 31
0.0
  0
LINE
  5
10A
330
104
100
AcDbEntity
  8
0
  6
Continuous
 62
     0
370
    -2
390
5F
100
AcDbLine
 10
-0.1414213562373095
 20
-0.1414213562373095
 30
0.0
 11
-0.3535533905932738
 21
-0.3535533905932738
 31
0.0
  0
ENDBLK
  5
10C
330
104
100
AcDbEntity
  8
0
100
AcDbBlockEnd
  0
BLOCK
  5
111
330
10D
100
AcDbEntity
  8
0
100
AcDbBlockBegin
  2
CDWK_PTTYP33
 70
     0
 10
0.0
 20
0.0
 30
0.0
  3
CDWK_PTTYP33
  1

  0
LINE
  5
10E
330
10D
100
AcDbEntity
  8
0
  6
Continuous
 62
     0
370
    -2
390
5F
100
AcDbLine
 10
0.0
 20
-0.5
 30
0.0
 11
0.0
 21
0.5
 31
0.0
  0
LINE
  5
10F
330
10D
100
AcDbEntity
  8
0
  6
Continuous
 62
     0
370
    -2
390
5F
100
AcDbLine
 10
0.5
 20
0.0
 30
0.0
 11
-0.5
 21
0.0
 31
0.0
  0
CIRCLE
  5
110
330
10D
100
AcDbEntity
  8
0
  6
Continuous
 62
     0
370
    -2
390
5F
100
AcDbCircle
 10
0.0
 20
0.0
 30
0.0
 40
0.5
  0
ENDBLK
  5
112
330
10D
100
AcDbEntity
  8
0
100
AcDbBlockEnd
  0
BLOCK
  5
117
330
113
100
AcDbEntity
  8
0
100
AcDbBlockBegin
  2
CDWK_PTTYP34
 70
     0
 10
0.0
 20
0.0
 30
0.0
  3
CDWK_PTTYP34
  1

  0
CIRCLE
  5
114
330
113
100
AcDbEntity
  8
0
  6
Continuous
 62
     0
370
    -2
390
5F
100
AcDbCircle
 10
0.0
 20
0.0
 30
0.0
 40
0.5
  0
LINE
  5
115
330
113
100
AcDbEntity
  8
0
  6
Continuous
 62
     0
370
    -2
390
5F
100
AcDbLine
 10
-0.4
 20
-0.3
 30
0.0
 11
0.3
 21
0.4
 31
0.0
  0
LINE
  5
116
330
113
100
AcDbEntity
  8
0
  6
Continuous
 62
     0
370
    -2
390
5F
100
AcDbLine
 10
-0.3
 20
-0.4
 30
0.0
 11
0.4
 21
0.3
 31
0.0
  0
ENDBLK
  5
118
330
113
100
AcDbEntity
  8
0
100
AcDbBlockEnd
  0
BLOCK
  5
11D
330
119
100
AcDbEntity
  8
0
100
AcDbBlockBegin
  2
CDWK_PTTYP35
 70
     0
 10
0.0
 20
0.0
 30
0.0
  3
CDWK_PTTYP35
  1

  0
LINE
  5
11A
330
119
100
AcDbEntity
  8
0
  6
Continuous
 62
     0
370
    -2
390
5F
100
AcDbLine
 10
0.0
 20
0.2
 30
0.0
 11
0.0
 21
0.5
 31
0.0
  0
LINE
  5
11B
330
119
100
AcDbEntity
  8
0
  6
Continuous
 62
     0
370
    -2
390
5F
100
AcDbLine
 10
0.0
 20
-0.2
 30
0.0
 11
0.0
 21
-0.5
 31
0.0
  0
CIRCLE
  5
11C
330
119
100
AcDbEntity
  8
0
  6
Continuous
 62
     0
370
    -2
390
5F
100
AcDbCircle
 10
0.0
 20
0.0
 30
0.0
 40
0.2
  0
ENDBLK
  5
11E
330
119
100
AcDbEntity
  8
0
100
AcDbBlockEnd
  0
BLOCK
  5
125
330
11F
100
AcDbEntity
  8
0
100
AcDbBlockBegin
  2
CDWK_PTTYP36
 70
     0
 10
0.0
 20
0.0
 30
0.0
  3
CDWK_PTTYP36
  1

  0
LINE
  5
120
330
11F
100
AcDbEntity
  8
0
  6
Continuous
 62
     0
370
    -2
390
5F
100
AcDbLine
 10
-0.5
 20
0.2
 30
0.0
 11
0.5
 21
0.2
 31
0.0
  0
LINE
  5
121
330
11F
100
AcDbEntity
  8
0
  6
Continuous
 62
     0
370
    -2
390
5F
100
AcDbLine
 10
0.5
 20
0.2
 30
0.0
 11
0.5
 21
-0.2
 31
0.0
  0
LINE
  5
122
330
11F
100
AcDbEntity
  8
0
  6
Continuous
 62
     0
370
    -2
390
5F
100
AcDbLine
 10
0.5
 20
-0.2
 30
0.0
 11
-0.5
 21
-0.2
 31
0.0
  0
LINE
  5
123
330
11F
100
AcDbEntity
  8
0
  6
Continuous
 62
     0
370
    -2
390
5F
100
AcDbLine
 10
-0.5
 20
-0.2
 30
0.0
 11
-0.5
 21
0.2
 31
0.0
  0
HATCH
  5
124
330
11F
100
AcDbEntity
  8
0
  6
Continuous
 62
     0
370
    -2
390
5F
100
AcDbHatch
 10
0.0
 20
0.0
 30
0.0
210
0.0
220
0.0
230
1.0
  2
SOLID
 70
     1
 71
     0
 91
        1
 92
        3
 72
     0
 73
     1
 93
        3
 10
-0.5
 20
-0.2
 10
0.5
 20
-0.2
 10
0.5
 20
0.2
 97
        0
 75
     0
 76
     1
 98
        0
  0
ENDBLK
  5
126
330
11F
100
AcDbEntity
  8
0
100
AcDbBlockEnd
  0
BLOCK
  5
12A
330
127
100
AcDbEntity
  8
0
100
AcDbBlockBegin
  2
CDWK_PTTYP37
 70
     0
 10
0.0
 20
0.0
 30
0.0
  3
CDWK_PTTYP37
  1

  0
HATCH
  5
128
330
127
100
AcDbEntity
  8
0
  6
Continuous
 62
     0
370
    -2
390
5F
100
AcDbHatch
 10
0.0
 20
0.0
 30
0.0
210
0.0
220
0.0
230
1.0
  2
SOLID
 70
     1
 71
     0
 91
        1
 92
        3
 72
     0
 73
     1
 93
      202
 10
-0.3535533905932738
 20
-0.3535533905932738
 10
-0.3485533905932738
 20
-0.3535533905932737
 10
-0.3435533905932738
 20
-0.3584836591895546
 10
-0.3385533905932738
 20
-0.3632782236961988
 10
-0.3335533905932738
 20
-0.367942389128785
 10
-0.3285533905932738
 20
-0.372481054046687
 10
-0.3235533905932738
 20
-0.3768987523588579
 10
-0.3185533905932738
 20
-0.3811996897107819
 10
-0.3135533905932738
 20
-0.3853877752881235
 10
-0.3085533905932737
 20
-0.3894666497242888
 10
-0.3035533905932737
 20
-0.3934397096803965
 10
-0.2985533905932737
 20
-0.3973101295704999
 10
-0.2935533905932737
 20
-0.4010808808273714
 10
-0.2885533905932737
 20
-0.4047547490409382
 10
-0.2835533905932737
 20
-0.4083343492496384
 10
-0.2785533905932737
 20
-0.4118221396222626
 10
-0.2735533905932737
 20
-0.4152204337324827
 10
-0.2685533905932737
 20
-0.4185314115988474
 10
-0.2635533905932737
 20
-0.4217571296384408
 10
-0.2585533905932737
 20
-0.4248995296617653
 10
-0.2535533905932737
 20
-0.4279604470190231
 10
-0.2485533905932737
 20
-0.4309416179932669
 10
-0.2435533905932737
 20
-0.4338446865234004
 10
-0.2385533905932737
 20
-0.4366712103293738
 10
-0.2335533905932737
 20
-0.439422666502825
 10
-0.2285533905932737
 20
-0.4421004566186126
 10
-0.2235533905932737
 20
-0.4447059114159811
 10
-0.2185533905932737
 20
-0.4472402950923041
 10
-0.2135533905932737
 20
-0.4497048092473372
 10
-0.2085533905932737
 20
-0.4521005965115692
 10
-0.2035533905932737
 20
-0.4544287438884664
 10
-0.1985533905932736
 20
-0.456690285837111
 10
-0.1935533905932736
 20
-0.45888620711884
 10
-0.1885533905932736
 20
-0.4610174454289638
 10
-0.1835533905932736
 20
-0.4630848938324164
 10
-0.1785533905932736
 20
-0.4650894030202291
 10
-0.1735533905932736
 20
-0.4670317834019928
 10
-0.1685533905932736
 20
-0.46891280704794
 10
-0.1635533905932736
 20
-0.4707332094929264
 10
-0.1585533905932736
 20
-0.4724936914133818
 10
-0.1535533905932736
 20
-0.4741949201872336
 10
-0.1485533905932736
 20
-0.4758375313458466
 10
-0.1435533905932736
 20
-0.4774221299261716
 10
-0.1385533905932736
 20
-0.4789492917305286
 10
-0.1335533905932736
 20
-0.4804195645007682
 10
-0.1285533905932736
 20
-0.4818334690129366
 10
-0.1235533905932736
 20
-0.4831915000980183
 10
-0.1185533905932736
 20
-0.4844941275938295
 10
-0.1135533905932736
 20
-0.4857417972326848
 10
-0.1085533905932736
 20
-0.4869349314690531
 10
-0.1035533905932736
 20
-0.4880739302510473
 10
-0.0985533905932736
 20
-0.489159171739258
 10
-0.0935533905932736
 20
-0.4901910129761353
 10
-0.0885533905932736
 20
-0.4911697905088447
 10
-0.0835533905932735
 20
-0.4920958209682695
 10
-0.0785533905932735
 20
-0.4929694016065986
 10
-0.0735533905932735
 20
-0.4937908107957261
 10
-0.0685533905932735
 20
-0.494560308488493
 10
-0.0635533905932735
 20
-0.4952781366446192
 10
-0.0585533905932735
 20
-0.4959445196230107
 10
-0.0535533905932735
 20
-0.4965596645419678
 10
-0.0485533905932735
 20
-0.4971237616086806
 10
-0.0435533905932735
 20
-0.4976369844192622
 10
-0.0385533905932735
 20
-0.4980994902304456
 10
-0.0335533905932735
 20
-0.4985114202039533
 10
-0.0285533905932735
 20
-0.4988728996244386
 10
-0.0235533905932735
 20
-0.4991840380917923
 10
-0.0185533905932735
 20
-0.49944492968851
 10
-0.0135533905932735
 20
-0.4996556531227215
 10
-0.0085533905932735
 20
-0.4998162718473921
 10
-0.0035533905932735
 20
-0.4999268341561182
 10
0.0014466094067265
 20
-0.499987373255857
 10
0.0064466094067265
 20
-0.4999979073168451
 10
0.0114466094067265
 20
-0.4999584394998819
 10
0.0164466094067265
 20
-0.4998689579610739
 10
0.0214466094067265
 20
-0.4997294358340547
 10
0.0264466094067265
 20
-0.4995398311896213
 10
0.0314466094067265
 20
-0.4993000869726422
 10
0.0364466094067265
 20
-0.4990101309160174
 10
0.0414466094067265
 20
-0.4986698754313855
 10
0.0464466094067265
 20
-0.498279217476192
 10
0.0514466094067265
 20
-0.4978380383966446
 10
0.0564466094067265
 20
-0.497346203745994
 10
0.0614466094067265
 20
-0.4968035630774849
 10
0.0664466094067264
 20
-0.4962099497112257
 10
0.0714466094067265
 20
-0.4955651804741228
 10
0.0764466094067265
 20
-0.4948690554119167
 10
0.0814466094067265
 20
-0.4941213574722463
 10
0.0864466094067265
 20
-0.4933218521575424
 10
0.0914466094067265
 20
-0.4924702871464235
 10
0.0964466094067265
 20
-0.4915663918821278
 10
0.1014466094067265
 20
-0.4906098771263643
 10
0.1064466094067265
 20
-0.4896004344768079
 10
0.1114466094067265
 20
-0.4885377358462822
 10
0.1164466094067265
 20
-0.4874214329014929
 10
0.1214466094067265
 20
-0.4862511564589613
 10
0.1264466094067265
 20
-0.4850265158355881
 10
0.1314466094067265
 20
-0.4837470981510305
 10
0.1364466094067265
 20
-0.482412467578809
 10
0.1414466094067265
 20
-0.4810221645427664
 10
0.1464466094067265
 20
-0.4795757048551781
 10
0.1514466094067265
 20
-0.4780725787924608
 10
0.1564466094067265
 20
-0.4765122501040308
 10
0.1614466094067265
 20
-0.4748941549494363
 10
0.1664466094067265
 20
-0.4732177007584056
 10
0.1714466094067265
 20
-0.4714822650079264
 10
0.1764466094067265
 20
-0.4696871939098801
 10
0.1814466094067266
 20
-0.4678318010021017
 10
0.1864466094067266
 20
-0.4659153656350076
 10
0.1914466094067266
 20
-0.4639371313451162
 10
0.1964466094067266
 20
-0.4618963041058764
 10
0.2014466094067266
 20
-0.4597920504451997
 10
0.2064466094067266
 20
-0.4576234954179405
 10
0.2114466094067266
 20
-0.4553897204202862
 10
0.2164466094067266
 20
-0.4530897608315588
 10
0.2214466094067266
 20
-0.45072260346729
 10
0.2264466094067266
 20
-0.4482871838255748
 10
0.2314466094067266
 20
-0.4457823831065977
 10
0.2364466094067266
 20
-0.4432070249828292
 10
0.2414466094067266
 20
-0.4405598720946596
 10
0.2464466094067266
 20
-0.4378396222431172
 10
0.2514466094067266
 20
-0.4350449042477435
 10
0.2564466094067266
 20
-0.4321742734336012
 10
0.2614466094067266
 20
-0.4292262067066663
 10
0.2664466094067266
 20
-0.4261990971714118
 10
0.2714466094067266
 20
-0.4230912482380831
 10
0.2764466094067266
 20
-0.4199008671598476
 10
0.2814466094067266
 20
-0.4166260579314797
 10
0.2864466094067266
 20
-0.4132648134712868
 10
0.2914466094067266
 20
-0.4098150069963156
 10
0.2964466094067266
 20
-0.4062743824871597
 10
0.3014466094067266
 20
-0.4026405441224911
 10
0.3064466094067266
 20
-0.3989109445442534
 10
0.3114466094067266
 20
-0.3950828717916294
 10
0.3164466094067266
 20
-0.391153434714632
 10
0.3214466094067266
 20
-0.3871195466454601
 10
0.3264466094067267
 20
-0.3829779070663467
 10
0.3314466094067267
 20
-0.3787249809648844
 10
0.3364466094067267
 20
-0.3743569755097196
 10
0.3414466094067267
 20
-0.3698698136084067
 10
0.3464466094067267
 20
-0.3652591038217257
 10
0.3514466094067267
 20
-0.3605201060004601
 10
0.3564466094067267
 20
-0.3556476918757041
 10
0.3614466094067267
 20
-0.3506362996645505
 10
0.3664466094067267
 20
-0.34547988153926
 10
0.3714466094067267
 20
-0.3401718425359658
 10
0.3764466094067267
 20
-0.334704969129899
 10
0.3814466094067267
 20
-0.3290713452523318
 10
0.3864466094067267
 20
-0.3232622529342269
 10
0.3914466094067267
 20
-0.3172680539828188
 10
0.3964466094067267
 20
-0.3110780480586465
 10
0.4014466094067267
 20
-0.304680301118911
 10
0.4064466094067267
 20
-0.2980614362775617
 10
0.4114466094067267
 20
-0.291206376478565
 10
0.4164466094067267
 20
-0.2840980246459106
 10
0.4214466094067267
 20
-0.276716861635935
 10
0.4264466094067267
 20
-0.2690404345439063
 10
0.4314466094067267
 20
-0.2610426963649944
 10
0.4364466094067267
 20
-0.2526931404518915
 10
0.4414466094067268
 20
-0.2439556458403291
 10
0.4464466094067268
 20
-0.2347869056044327
 10
0.4514466094067268
 20
-0.2251342376211081
 10
0.4564466094067268
 20
-0.2149324518428296
 10
0.4614466094067268
 20
-0.2040992228331676
 10
0.4664466094067268
 20
-0.1925279893081412
 10
0.4714466094067268
 20
-0.1800765408735088
 10
0.4764466094067268
 20
-0.1665475742210051
 10
0.4814466094067268
 20
-0.1516529867323223
 10
0.4864466094067268
 20
-0.1349413290684758
 10
0.4914466094067268
 20
-0.1156274024472547
 10
0.4964466094067268
 20
-0.0920881648347501
 10
0.5
 20
0.0
 10
0.495
 20
0.0
 10
0.49
 20
0.0705336798983295
 10
0.485
 20
0.0994987437106621
 10
0.48
 20
0.1215524578114322
 10
0.475
 20
0.14
 10
0.47
 20
0.15612494995996
 10
0.465
 20
0.1705872210923199
 10
0.46
 20
0.1837797594948911
 10
0.455
 20
0.1959591794226544
 10
0.45
 20
0.2073041244162789
 10
0.445
 20
0.2179449471770338
 10
0.4399999999999999
 20
0.2279802623035601
 10
0.4349999999999999
 20
0.2374868417407584
 10
0.4299999999999999
 20
0.2465258607124211
 10
0.4249999999999999
 20
0.2551470164434615
 10
0.4199999999999999
 20
0.2633913438213186
 10
0.4149999999999999
 20
0.2712931993250108
 10
0.4099999999999999
 20
0.2788816953476869
 10
0.4049999999999999
 20
0.2861817604250838
 10
0.3999999999999999
 20
0.2932149382279151
 10
0.3949999999999999
 20
0.3000000000000002
 10
0.3899999999999999
 20
0.3065534211193868
 10
0.3849999999999999
 20
0.3128897569432404
 10
0.3799999999999999
 20
0.3190219428189855
 10
0.3749999999999999
 20
0.3249615361854385
 10
0.3699999999999999
 20
0.330718913883074
 10
0.3649999999999999
 20
0.3363034344160049
 10
0.3599999999999999
 20
0.3417235724968357
 10
0.3549999999999999
 20
0.3469870314579496
 10
0.3535533905932738
 20
0.3535533905932738
 97
        0
 75
     0
 76
     1
 98
        0
  0
CIRCLE
  5
129
330
127
100
AcDbEntity
  8
0
  6
Continuous
 62
     0
370
    -2
390
5F
100
AcDbCircle
 10
0.0
 20
0.0
 30
0.0
 40
0.5
  0
ENDBLK
  5
12B
330
127
100
AcDbEntity
  8
0
100
AcDbBlockEnd
  0
BLOCK
  5
130
330
12C
100
AcDbEntity
  8
0
100
AcDbBlockBegin
  2
CDWK_PTTYP38
 70
     0
 10
0.0
 20
0.0
 30
0.0
  3
CDWK_PTTYP38
  1

  0
HATCH
  5
12D
330
12C
100
AcDbEntity
  8
0
  6
Continuous
 62
     0
370
    -2
390
5F
100
AcDbHatch
 10
0.0
 20
0.0
 30
0.0
210
0.0
220
0.0
230
1.0
  2
SOLID
 70
     1
 71
     0
 91
        1
 92
        3
 72
     0
 73
     1
 93
      102
 10
0.0
 20
0.0
 10
0.0
 20
0.5
 10
0.005
 20
0.5
 10
0.01
 20
0.4999749993749688
 10
0.015
 20
0.4998999899979995
 10
0.02
 20
0.4997749493522059
 10
0.025
 20
0.4995998398718718
 10
0.03
 20
0.4993746088859545
 10
0.035
 20
0.4990991885387112
 10
0.04
 20
0.4987734956871706
 10
0.045
 20
0.4983974317750845
 10
0.05
 20
0.4979708826829135
 10
0.055
 20
0.49749371855331
 10
0.06
 20
0.4969657935914704
 10
0.065
 20
0.4963869458396343
 10
0.07
 20
0.4957569969249047
 10
0.075
 20
0.4950757517794626
 10
0.08
 20
0.4943429983321297
 10
0.085
 20
0.4935585071701227
 10
0.09
 20
0.4927220311697053
 10
0.095
 20
0.4918333050943175
 10
0.1
 20
0.4908920451586071
 10
0.105
 20
0.4898979485566356
 10
0.11
 20
0.4888506929523574
 10
0.115
 20
0.4877499359302879
 10
0.12
 20
0.4865953144040744
 10
0.125
 20
0.4853864439804639
 10
0.13
 20
0.4841229182759271
 10
0.135
 20
0.4828043081829325
 10
0.14
 20
0.4814301610825811
 10
0.145
 20
0.48
 10
0.15
 20
0.478513322698543
 10
0.1550000000000001
 20
0.4769696007084728
 10
0.1600000000000001
 20
0.4753682782853731
 10
0.1650000000000001
 20
0.4737087712930804
 10
0.1700000000000001
 20
0.4719904660054056
 10
0.1750000000000001
 20
0.4702127178203498
 10
0.1800000000000001
 20
0.4683748498798799
 10
0.1850000000000001
 20
0.466476151587624
 10
0.1900000000000001
 20
0.4645158770160606
 10
0.1950000000000001
 20
0.4624932431938871
 10
0.2000000000000001
 20
0.460407428263272
 10
0.2050000000000001
 20
0.4582575694955839
 10
0.2100000000000001
 20
0.4560427611529427
 10
0.2150000000000001
 20
0.4537620521815371
 10
0.2200000000000001
 20
0.4514144437210665
 10
0.2250000000000001
 20
0.4489988864128729
 10
0.2300000000000001
 20
0.4465142774872937
 10
0.2350000000000001
 20
0.4439594576084622
 10
0.2400000000000001
 20
0.4413332074521472
 10
0.2450000000000001
 20
0.4386342439892261
 10
0.2500000000000001
 20
0.4358612164439502
 10
0.2550000000000001
 20
0.4330127018922192
 10
0.2600000000000001
 20
0.4300872004605577
 10
0.2650000000000001
 20
0.4270831300812524
 10
0.2700000000000001
 20
0.423998820753077
 10
0.2750000000000001
 20
0.4208325082500162
 10
0.2800000000000001
 20
0.4175823272122516
 10
0.2850000000000001
 20
0.4142463035441595
 10
0.2900000000000001
 20
0.4108223460329293
 10
0.2950000000000002
 20
0.4073082370883259
 10
0.3000000000000002
 20
0.403701622488689
 10
0.3050000000000002
 20
0.3999999999999999
 10
0.3100000000000002
 20
0.3962007067131506
 10
0.3150000000000002
 20
0.3923009049186605
 10
0.3200000000000002
 20
0.3882975663070783
 10
0.3250000000000002
 20
0.3841874542459708
 10
0.3300000000000002
 20
0.3799671038392664
 10
0.3350000000000002
 20
0.3756327994198588
 10
0.3400000000000002
 20
0.3711805490593491
 10
0.3450000000000002
 20
0.366606055596467
 10
0.3500000000000002
 20
0.3619046835839512
 10
0.3550000000000002
 20
0.3570714214271423
 10
0.3600000000000002
 20
0.3521008378291649
 10
0.3650000000000002
 20
0.3469870314579492
 10
0.3700000000000002
 20
0.3417235724968353
 10
0.3750000000000002
 20
0.3363034344160045
 10
0.3800000000000002
 20
0.3307189138830736
 10
0.3850000000000002
 20
0.3249615361854382
 10
0.3900000000000002
 20
0.3190219428189851
 10
0.3950000000000002
 20
0.31288975694324
 10
0.4000000000000002
 20
0.3065534211193863
 10
0.4050000000000002
 20
0.2999999999999997
 10
0.4100000000000003
 20
0.2932149382279147
 10
0.4150000000000003
 20
0.2861817604250834
 10
0.4200000000000003
 20
0.2788816953476864
 10
0.4250000000000003
 20
0.2712931993250103
 10
0.4300000000000003
 20
0.263391343821318
 10
0.4350000000000003
 20
0.255147016443461
 10
0.4400000000000003
 20
0.2465258607124206
 10
0.4450000000000003
 20
0.2374868417407578
 10
0.4500000000000003
 20
0.2279802623035594
 10
0.4550000000000003
 20
0.2179449471770331
 10
0.4600000000000003
 20
0.2073041244162782
 10
0.4650000000000003
 20
0.1959591794226536
 10
0.4700000000000003
 20
0.1837797594948903
 10
0.4750000000000003
 20
0.170587221092319
 10
0.4800000000000003
 20
0.156124949959959
 10
0.4850000000000003
 20
0.1399999999999989
 10
0.4900000000000003
 20
0.1215524578114309
 10
0.4950000000000003
 20
0.0994987437106604
 10
0.5
 20
0.0
 97
        0
 75
     0
 76
     1
 98
        0
  0
HATCH
  5
12E
330
12C
100
AcDbEntity
  8
0
  6
Continuous
 62
     0
370
    -2
390
5F
100
AcDbHatch
 10
0.0
 20
0.0
 30
0.0
210
0.0
220
0.0
230
1.0
  2
SOLID
 70
     1
 71
     0
 91
        1
 92
        3
 72
     0
 73
     1
 93
      102
 10
0.0
 20
0.0
 10
-0.5
 20
0.0
 10
-0.495
 20
0.0
 10
-0.49
 20
-0.0705336798983295
 10
-0.485
 20
-0.0994987437106621
 10
-0.48
 20
-0.1215524578114322
 10
-0.475
 20
-0.14
 10
-0.47
 20
-0.15612494995996
 10
-0.465
 20
-0.1705872210923199
 10
-0.46
 20
-0.1837797594948911
 10
-0.455
 20
-0.1959591794226544
 10
-0.45
 20
-0.2073041244162789
 10
-0.445
 20
-0.2179449471770338
 10
-0.4399999999999999
 20
-0.2279802623035601
 10
-0.4349999999999999
 20
-0.2374868417407584
 10
-0.4299999999999999
 20
-0.2465258607124211
 10
-0.4249999999999999
 20
-0.2551470164434615
 10
-0.4199999999999999
 20
-0.2633913438213186
 10
-0.4149999999999999
 20
-0.2712931993250108
 10
-0.4099999999999999
 20
-0.2788816953476869
 10
-0.4049999999999999
 20
-0.2861817604250838
 10
-0.3999999999999999
 20
-0.2932149382279151
 10
-0.3949999999999999
 20
-0.3000000000000002
 10
-0.3899999999999999
 20
-0.3065534211193868
 10
-0.3849999999999999
 20
-0.3128897569432404
 10
-0.3799999999999999
 20
-0.3190219428189855
 10
-0.3749999999999999
 20
-0.3249615361854385
 10
-0.3699999999999999
 20
-0.330718913883074
 10
-0.3649999999999999
 20
-0.3363034344160049
 10
-0.3599999999999999
 20
-0.3417235724968357
 10
-0.3549999999999999
 20
-0.3469870314579496
 10
-0.3499999999999999
 20
-0.3521008378291652
 10
-0.3449999999999999
 20
-0.3570714214271427
 10
-0.3399999999999999
 20
-0.3619046835839516
 10
-0.3349999999999999
 20
-0.3666060555964674
 10
-0.3299999999999998
 20
-0.3711805490593494
 10
-0.3249999999999998
 20
-0.3756327994198591
 10
-0.3199999999999998
 20
-0.3799671038392667
 10
-0.3149999999999998
 20
-0.3841874542459711
 10
-0.3099999999999998
 20
-0.3882975663070786
 10
-0.3049999999999998
 20
-0.3923009049186608
 10
-0.2999999999999998
 20
-0.3962007067131507
 10
-0.2949999999999998
 20
-0.4000000000000001
 10
-0.2899999999999998
 20
-0.4037016224886891
 10
-0.2849999999999998
 20
-0.4073082370883261
 10
-0.2799999999999998
 20
-0.4108223460329296
 10
-0.2749999999999998
 20
-0.4142463035441597
 10
-0.2699999999999998
 20
-0.4175823272122518
 10
-0.2649999999999998
 20
-0.4208325082500164
 10
-0.2599999999999998
 20
-0.4239988207530773
 10
-0.2549999999999998
 20
-0.4270831300812526
 10
-0.2499999999999998
 20
-0.4300872004605579
 10
-0.2449999999999998
 20
-0.4330127018922195
 10
-0.2399999999999998
 20
-0.4358612164439503
 10
-0.2349999999999998
 20
-0.4386342439892263
 10
-0.2299999999999998
 20
-0.4413332074521473
 10
-0.2249999999999998
 20
-0.4439594576084624
 10
-0.2199999999999998
 20
-0.4465142774872939
 10
-0.2149999999999997
 20
-0.4489988864128731
 10
-0.2099999999999997
 20
-0.4514144437210667
 10
-0.2049999999999997
 20
-0.4537620521815372
 10
-0.1999999999999997
 20
-0.4560427611529429
 10
-0.1949999999999997
 20
-0.4582575694955841
 10
-0.1899999999999997
 20
-0.4604074282632722
 10
-0.1849999999999997
 20
-0.4624932431938872
 10
-0.1799999999999997
 20
-0.4645158770160608
 10
-0.1749999999999997
 20
-0.4664761515876241
 10
-0.1699999999999997
 20
-0.46837484987988
 10
-0.1649999999999997
 20
-0.47021271782035
 10
-0.1599999999999997
 20
-0.4719904660054058
 10
-0.1549999999999997
 20
-0.4737087712930805
 10
-0.1499999999999997
 20
-0.4753682782853733
 10
-0.1449999999999997
 20
-0.4769696007084729
 10
-0.1399999999999997
 20
-0.4785133226985431
 10
-0.1349999999999997
 20
-0.4800000000000001
 10
-0.1299999999999997
 20
-0.4814301610825812
 10
-0.1249999999999997
 20
-0.4828043081829325
 10
-0.1199999999999997
 20
-0.4841229182759272
 10
-0.1149999999999997
 20
-0.485386443980464
 10
-0.1099999999999997
 20
-0.4865953144040744
 10
-0.1049999999999996
 20
-0.487749935930288
 10
-0.0999999999999996
 20
-0.4888506929523574
 10
-0.0949999999999996
 20
-0.4898979485566357
 10
-0.0899999999999996
 20
-0.4908920451586072
 10
-0.0849999999999996
 20
-0.4918333050943176
 10
-0.0799999999999996
 20
-0.4927220311697053
 10
-0.0749999999999996
 20
-0.4935585071701227
 10
-0.0699999999999996
 20
-0.4943429983321298
 10
-0.0649999999999996
 20
-0.4950757517794626
 10
-0.0599999999999996
 20
-0.4957569969249048
 10
-0.0549999999999996
 20
-0.4963869458396343
 10
-0.0499999999999996
 20
-0.4969657935914705
 10
-0.0449999999999996
 20
-0.49749371855331
 10
-0.0399999999999996
 20
-0.4979708826829135
 10
-0.0349999999999996
 20
-0.4983974317750846
 10
-0.0299999999999996
 20
-0.4987734956871706
 10
-0.0249999999999996
 20
-0.4990991885387112
 10
-0.0199999999999996
 20
-0.4993746088859545
 10
-0.0149999999999996
 20
-0.4995998398718719
 10
-0.0099999999999996
 20
-0.499774949352206
 10
-0.0049999999999996
 20
-0.4998999899979995
 10
0.0
 20
-0.5
 97
        0
 75
     0
 76
     1
 98
        0
  0
CIRCLE
  5
12F
330
12C
100
AcDbEntity
  8
0
  6
Continuous
 62
     0
370
    -2
390
5F
100
AcDbCircle
 10
0.0
 20
0.0
 30
0.0
 40
0.5
  0
ENDBLK
  5
131
330
12C
100
AcDbEntity
  8
0
100
AcDbBlockEnd
  0
BLOCK
  5
13A
330
132
100
AcDbEntity
  8
0
100
AcDbBlockBegin
  2
CDWK_PTTYP41
 70
     0
 10
0.0
 20
0.0
 30
0.0
  3
CDWK_PTTYP41
  1

  0
LINE
  5
133
330
132
100
AcDbEntity
  8
0
  6
Continuous
 62
     0
370
    -2
390
5F
100
AcDbLine
 10
-0.5
 20
0.5
 30
0.0
 11
0.5
 21
0.5
 31
0.0
  0
LINE
  5
134
330
132
100
AcDbEntity
  8
0
  6
Continuous
 62
     0
370
    -2
390
5F
100
AcDbLine
 10
0.5
 20
0.5
 30
0.0
 11
0.5
 21
-0.5
 31
0.0
  0
LINE
  5
135
330
132
100
AcDbEntity
  8
0
  6
Continuous
 62
     0
370
    -2
390
5F
100
AcDbLine
 10
0.5
 20
-0.5
 30
0.0
 11
-0.5
 21
-0.5
 31
0.0
  0
LINE
  5
136
330
132
100
AcDbEntity
  8
0
  6
Continuous
 62
     0
370
    -2
390
5F
100
AcDbLine
 10
-0.5
 20
-0.5
 30
0.0
 11
-0.5
 21
0.5
 31
0.0
  0
LINE
  5
137
330
132
100
AcDbEntity
  8
0
  6
Continuous
 62
     0
370
    -2
390
5F
100
AcDbLine
 10
-0.375
 20
0.25
 30
0.0
 11
0.375
 21
0.25
 31
0.0
  0
LINE
  5
138
330
132
100
AcDbEntity
  8
0
  6
Continuous
 62
     0
370
    -2
390
5F
100
AcDbLine
 10
-0.375
 20
0.0
 30
0.0
 11
0.375
 21
0.0
 31
0.0
  0
LINE
  5
139
330
132
100
AcDbEntity
  8
0
  6
Continuous
 62
     0
370
    -2
390
5F
100
AcDbLine
 10
-0.375
 20
-0.25
 30
0.0
 11
0.375
 21
-0.25
 31
0.0
  0
ENDBLK
  5
13B
330
132
100
AcDbEntity
  8
0
100
AcDbBlockEnd
  0
BLOCK
  5
143
330
13C
100
AcDbEntity
  8
0
100
AcDbBlockBegin
  2
CDWK_PTTYP42
 70
     0
 10
0.0
 20
0.0
 30
0.0
  3
CDWK_PTTYP42
  1

  0
LINE
  5
13D
330
13C
100
AcDbEntity
  8
0
  6
Continuous
 62
     0
370
    -2
390
5F
100
AcDbLine
 10
-0.5
 20
0.5
 30
0.0
 11
0.5
 21
0.5
 31
0.0
  0
LINE
  5
13E
330
13C
100
AcDbEntity
  8
0
  6
Continuous
 62
     0
370
    -2
390
5F
100
AcDbLine
 10
0.5
 20
0.5
 30
0.0
 11
0.5
 21
-0.5
 31
0.0
  0
LINE
  5
13F
330
13C
100
AcDbEntity
  8
0
  6
Continuous
 62
     0
370
    -2
390
5F
100
AcDbLine
 10
0.5
 20
-0.5
 30
0.0
 11
-0.5
 21
-0.5
 31
0.0
  0
LINE
  5
140
330
13C
100
AcDbEntity
  8
0
  6
Continuous
 62
     0
370
    -2
390
5F
100
AcDbLine
 10
-0.5
 20
-0.5
 30
0.0
 11
-0.5
 21
0.5
 31
0.0
  0
LINE
  5
141
330
13C
100
AcDbEntity
  8
0
  6
Continuous
 62
     0
370
    -2
390
5F
100
AcDbLine
 10
-0.375
 20
0.125
 30
0.0
 11
0.375
 21
0.125
 31
0.0
  0
LINE
  5
142
330
13C
100
AcDbEntity
  8
0
  6
Continuous
 62
     0
370
    -2
390
5F
100
AcDbLine
 10
-0.375
 20
-0.125
 30
0.0
 11
0.375
 21
-0.125
 31
0.0
  0
ENDBLK
  5
144
330
13C
100
AcDbEntity
  8
0
100
AcDbBlockEnd
  0
BLOCK
  5
149
330
145
100
AcDbEntity
  8
0
100
AcDbBlockBegin
  2
CDWK_PTTYP43
 70
     0
 10
0.0
 20
0.0
 30
0.0
  3
CDWK_PTTYP43
  1

  0
CIRCLE
  5
146
330
145
100
AcDbEntity
  8
0
  6
Continuous
 62
     0
370
    -2
390
5F
100
AcDbCircle
 10
0.0
 20
0.0
 30
0.0
 40
0.5
  0
LINE
  5
147
330
145
100
AcDbEntity
  8
0
  6
Continuous
 62
     0
370
    -2
390
5F
100
AcDbLine
 10
-0.375
 20
0.166
 30
0.0
 11
0.375
 21
0.166
 31
0.0
  0
LINE
  5
148
330
145
100
AcDbEntity
  8
0
  6
Continuous
 62
     0
370
    -2
390
5F
100
AcDbLine
 10
-0.375
 20
-0.166
 30
0.0
 11
0.375
 21
-0.166
 31
0.0
  0
ENDBLK
  5
14A
330
145
100
AcDbEntity
  8
0
100
AcDbBlockEnd
  0
BLOCK
  5
152
330
14B
100
AcDbEntity
  8
0
100
AcDbBlockBegin
  2
CDWK_PTTYP44
 70
     0
 10
0.0
 20
0.0
 30
0.0
  3
CDWK_PTTYP44
  1

  0
CIRCLE
  5
14C
330
14B
100
AcDbEntity
  8
0
  6
Continuous
 62
     0
370
    -2
390
5F
100
AcDbCircle
 10
0.0
 20
0.0
 30
0.0
 40
0.5
  0
LINE
  5
14D
330
14B
100
AcDbEntity
  8
0
  6
Continuous
 62
     0
370
    -2
390
5F
100
AcDbLine
 10
-0.375
 20
0.333
 30
0.0
 11
0.375
 21
0.333
 31
0.0
  0
LINE
  5
14E
330
14B
100
AcDbEntity
  8
0
  6
Continuous
 62
     0
370
    -2
390
5F
100
AcDbLine
 10
-0.375
 20
0.166
 30
0.0
 11
0.375
 21
0.166
 31
0.0
  0
LINE
  5
14F
330
14B
100
AcDbEntity
  8
0
  6
Continuous
 62
     0
370
    -2
390
5F
100
AcDbLine
 10
-0.375
 20
0.0
 30
0.0
 11
0.375
 21
0.0
 31
0.0
  0
LINE
  5
150
330
14B
100
AcDbEntity
  8
0
  6
Continuous
 62
     0
370
    -2
390
5F
100
AcDbLine
 10
-0.375
 20
-0.166
 30
0.0
 11
0.375
 21
-0.166
 31
0.0
  0
LINE
  5
151
330
14B
100
AcDbEntity
  8
0
  6
Continuous
 62
     0
370
    -2
390
5F
100
AcDbLine
 10
-0.375
 20
-0.333
 30
0.0
 11
0.375
 21
-0.333
 31
0.0
  0
ENDBLK
  5
153
330
14B
100
AcDbEntity
  8
0
100
AcDbBlockEnd
  0
BLOCK
  5
157
330
154
100
AcDbEntity
  8
0
100
AcDbBlockBegin
  2
CDWK_PTTYP45
 70
     0
 10
0.0
 20
0.0
 30
0.0
  3
CDWK_PTTYP45
  1

  0
ELLIPSE
  5
155
330
154
100
AcDbEntity
  8
0
  6
Continuous
 62
     0
370
    -2
390
5F
100
AcDbEllipse
 10
0.0
 20
0.0
 30
0.0
 11
0.5
 21
0.0
 31
0.0
210
0.0
220
0.0
230
1.0
 40
0.82
 41
0.0
 42
6.283185307179586
  0
CIRCLE
  5
156
330
154
100
AcDbEntity
  8
0
  6
Continuous
 62
     0
370
    -2
390
5F
100
AcDbCircle
 10
-0.235
 20
0.0
 30
0.0
 40
0.26
  0
ENDBLK
  5
158
330
154
100
AcDbEntity
  8
0
100
AcDbBlockEnd
  0
BLOCK
  5
15C
330
159
100
AcDbEntity
  8
0
100
AcDbBlockBegin
  2
CDWK_PTTYP46
 70
     0
 10
0.0
 20
0.0
 30
0.0
  3
CDWK_PTTYP46
  1

  0
ELLIPSE
  5
15A
330
159
100
AcDbEntity
  8
0
  6
Continuous
 62
     0
370
    -2
390
5F
100
AcDbEllipse
 10
0.0
 20
0.0
 30
0.0
 11
0.5
 21
0.0
 31
0.0
210
0.0
220
0.0
230
1.0
 40
0.82
 41
0.0
 42
6.283185307179586
  0
CIRCLE
  5
15B
330
159
100
AcDbEntity
  8
0
  6
Continuous
 62
     0
370
    -2
390
5F
100
AcDbCircle
 10
0.0
 20
0.15
 30
0.0
 40
0.26
  0
ENDBLK
  5
15D
330
159
100
AcDbEntity
  8
0
100
AcDbBlockEnd
  0
BLOCK
  5
164
330
15E
100
AcDbEntity
  8
0
100
AcDbBlockBegin
  2
CDWK_PTTYP47
 70
     0
 10
0.0
 20
0.0
 30
0.0
  3
CDWK_PTTYP47
  1

  0
LINE
  5
15F
330
15E
100
AcDbEntity
  8
0
  6
Continuous
 62
     0
370
    -2
390
5F
100
AcDbLine
 10
-0.5
 20
0.166
 30
0.0
 11
0.5
 21
0.166
 31
0.0
  0
LINE
  5
160
330
15E
100
AcDbEntity
  8
0
  6
Continuous
 62
     0
370
    -2
390
5F
100
AcDbLine
 10
0.5
 20
0.166
 30
0.0
 11
0.5
 21
-0.166
 31
0.0
  0
LINE
  5
161
330
15E
100
AcDbEntity
  8
0
  6
Continuous
 62
     0
370
    -2
390
5F
100
AcDbLine
 10
0.5
 20
-0.166
 30
0.0
 11
-0.5
 21
-0.166
 31
0.0
  0
LINE
  5
162
330
15E
100
AcDbEntity
  8
0
  6
Continuous
 62
     0
370
    -2
390
5F
100
AcDbLine
 10
-0.5
 20
-0.166
 30
0.0
 11
-0.5
 21
0.166
 31
0.0
  0
CIRCLE
  5
163
330
15E
100
AcDbEntity
  8
0
  6
Continuous
 62
     0
370
    -2
390
5F
100
AcDbCircle
 10
0.0
 20
-0.313
 30
0.0
 40
0.4
  0
ENDBLK
  5
165
330
15E
100
AcDbEntity
  8
0
100
AcDbBlockEnd
  0
BLOCK
  5
16A
330
167
100
AcDbEntity
  8
0
100
AcDbBlockBegin
  2
CDWK_PTTYP48
 70
     0
 10
0.0
 20
0.0
 30
0.0
  3
CDWK_PTTYP48
  1

  0
CIRCLE
  5
168
330
167
100
AcDbEntity
  8
0
  6
CADWORK_3
 62
     0
 48
0.1
370
    -2
390
5F
100
AcDbCircle
 10
0.0
 20
0.0
 30
0.0
 40
0.5
  0
CIRCLE
  5
169
330
167
100
AcDbEntity
  8
0
  6
Continuous
 62
     0
370
    -2
390
5F
100
AcDbCircle
 10
0.0
 20
0.0
 30
0.0
 40
0.25
  0
ENDBLK
  5
16B
330
167
100
AcDbEntity
  8
0
100
AcDbBlockEnd
  0
BLOCK
  5
171
330
16C
100
AcDbEntity
  8
0
100
AcDbBlockBegin
  2
CDWK_PTTYP49
 70
     0
 10
0.0
 20
0.0
 30
0.0
  3
CDWK_PTTYP49
  1

  0
LINE
  5
16D
330
16C
100
AcDbEntity
  8
0
  6
Continuous
 62
     0
370
    -2
390
5F
100
AcDbLine
 10
-0.5
 20
0.166
 30
0.0
 11
0.5
 21
0.166
 31
0.0
  0
LINE
  5
16E
330
16C
100
AcDbEntity
  8
0
  6
Continuous
 62
     0
370
    -2
390
5F
100
AcDbLine
 10
0.5
 20
0.166
 30
0.0
 11
0.5
 21
-0.166
 31
0.0
  0
LINE
  5
16F
330
16C
100
AcDbEntity
  8
0
  6
Continuous
 62
     0
370
    -2
390
5F
100
AcDbLine
 10
0.5
 20
-0.166
 30
0.0
 11
-0.5
 21
-0.166
 31
0.0
  0
LINE
  5
170
330
16C
100
AcDbEntity
  8
0
  6
Continuous
 62
     0
370
    -2
390
5F
100
AcDbLine
 10
-0.5
 20
-0.166
 30
0.0
 11
-0.5
 21
0.166
 31
0.0
  0
ENDBLK
  5
172
330
16C
100
AcDbEntity
  8
0
100
AcDbBlockEnd
  0
BLOCK
  5
17B
330
173
100
AcDbEntity
  8
0
100
AcDbBlockBegin
  2
CDWK_PTTYP50
 70
     0
 10
0.0
 20
0.0
 30
0.0
  3
CDWK_PTTYP50
  1

  0
LINE
  5
174
330
173
100
AcDbEntity
  8
0
  6
Continuous
 62
     0
370
    -2
390
5F
100
AcDbLine
 10
-0.5
 20
0.166
 30
0.0
 11
0.5
 21
0.166
 31
0.0
  0
LINE
  5
175
330
173
100
AcDbEntity
  8
0
  6
Continuous
 62
     0
370
    -2
390
5F
100
AcDbLine
 10
0.5
 20
0.166
 30
0.0
 11
0.5
 21
-0.166
 31
0.0
  0
LINE
  5
176
330
173
100
AcDbEntity
  8
0
  6
Continuous
 62
     0
370
    -2
390
5F
100
AcDbLine
 10
0.5
 20
-0.166
 30
0.0
 11
-0.5
 21
-0.166
 31
0.0
  0
LINE
  5
177
330
173
100
AcDbEntity
  8
0
  6
Continuous
 62
     0
370
    -2
390
5F
100
AcDbLine
 10
-0.5
 20
-0.166
 30
0.0
 11
-0.5
 21
0.166
 31
0.0
  0
LINE
  5
178
330
173
100
AcDbEntity
  8
0
  6
Continuous
 62
     0
370
    -2
390
5F
100
AcDbLine
 10
-0.25
 20
-0.166
 30
0.0
 11
-0.25
 21
0.166
 31
0.0
  0
LINE
  5
179
330
173
100
AcDbEntity
  8
0
  6
Continuous
 62
     0
370
    -2
390
5F
100
AcDbLine
 10
0.0
 20
-0.166
 30
0.0
 11
0.0
 21
0.166
 31
0.0
  0
LINE
  5
17A
330
173
100
AcDbEntity
  8
0
  6
Continuous
 62
     0
370
    -2
390
5F
100
AcDbLine
 10
0.25
 20
-0.166
 30
0.0
 11
0.25
 21
0.166
 31
0.0
  0
ENDBLK
  5
17C
330
173
100
AcDbEntity
  8
0
100
AcDbBlockEnd
  0
BLOCK
  5
180
330
17D
100
AcDbEntity
  8
0
100
AcDbBlockBegin
  2
CDWK_PTTYP51
 70
     0
 10
0.0
 20
0.0
 30
0.0
  3
CDWK_PTTYP51
  1

  0
SPLINE
  5
17E
330
17D
100
AcDbEntity
  8
0
  6
Continuous
 62
     0
370
    -2
390
5F
100
AcDbSpline
210
0.0
220
0.0
230
1.0
 70
  1064
 71
     3
 72
    12
 73
     8
 74
     6
 42
0.0000000001
 43
0.0000000001
 44
0.0000000001
 40
0.0
 40
0.0
 40
0.0
 40
0.0
 40
0.1690118339052032
 40
0.5175774661755118
 40
0.8011704844252565
 40
0.9154070810132151
 40
0.975822310881188
 40
0.975822310881188
 40
0.975822310881188
 40
0.975822310881188
 10
-0.5
 20
-0.077
 30
0.0
 10
-0.443824324006723
 20
-0.0900581618560981
 30
0.0
 10
-0.2717933876546281
 20
-0.1300471387828842
 30
0.0
 10
-0.0276699186086479
 20
-0.0006977790990417
 30
0.0
 10
0.2303349729129116
 20
0.0817803270207037
 30
0.0
 10
0.3686157174766292
 20
0.0066250198607167
 30
0.0
 10
0.4216533294581816
 20
-0.0168719667726145
 30
0.0
 10
0.44
 20
-0.025
 30
0.0
 11
-0.5
 21
-0.077
 31
0.0
 11
-0.333
 21
-0.103
 31
0.0
 11
0.0
 21
0.0
 31
0.0
 11
0.28
 21
0.045
 31
0.0
 11
0.385
 21
0.0
 31
0.0
 11
0.44
 21
-0.025
 31
0.0
  0
HATCH
  5
17F
330
17D
100
AcDbEntity
  8
0
  6
Continuous
 62
     0
370
    -2
390
5F
100
AcDbHatch
 10
0.0
 20
0.0
 30
0.0
210
0.0
220
0.0
230
1.0
  2
SOLID
 70
     1
 71
     0
 91
        1
 92
        3
 72
     0
 73
     1
 93
        3
 10
0.365
 20
-0.05
 10
0.5
 20
-0.042
 10
0.395
 20
0.045
 97
        0
 75
     0
 76
     1
 98
        0
  0
ENDBLK
  5
181
330
17D
100
AcDbEntity
  8
0
100
AcDbBlockEnd
  0
BLOCK
  5
186
330
182
100
AcDbEntity
  8
0
100
AcDbBlockBegin
  2
CDWK_PTTYP52
 70
     0
 10
0.0
 20
0.0
 30
0.0
  3
CDWK_PTTYP52
  1

  0
LINE
  5
183
330
182
100
AcDbEntity
  8
0
  6
Continuous
 62
     0
370
    -2
390
5F
100
AcDbLine
 10
-0.5
 20
-0.289
 30
0.0
 11
0.5
 21
-0.289
 31
0.0
  0
LINE
  5
184
330
182
100
AcDbEntity
  8
0
  6
Continuous
 62
     0
370
    -2
390
5F
100
AcDbLine
 10
0.5
 20
-0.289
 30
0.0
 11
0.0
 21
0.577
 31
0.0
  0
LINE
  5
185
330
182
100
AcDbEntity
  8
0
  6
Continuous
 62
     0
370
    -2
390
5F
100
AcDbLine
 10
0.0
 20
0.577
 30
0.0
 11
-0.5
 21
-0.289
 31
0.0
  0
ENDBLK
  5
187
330
182
100
AcDbEntity
  8
0
100
AcDbBlockEnd
  0
BLOCK
  5
18D
330
188
100
AcDbEntity
  8
0
100
AcDbBlockBegin
  2
cw-dimension-symbol1
 70
     0
 10
0.0
 20
0.0
 30
0.0
  3
cw-dimension-symbol1
  1

  0
LINE
  5
189
330
188
100
AcDbEntity
  8
0
  6
Continuous
 62
     0
370
    -2
390
5F
100
AcDbLine
 10
0.0
 20
0.0
 30
0.0
 11
-1.0
 21
0.25
 31
0.0
  0
LINE
  5
18A
330
188
100
AcDbEntity
  8
0
  6
Continuous
 62
     0
370
    -2
390
5F
100
AcDbLine
 10
0.0
 20
0.0
 30
0.0
 11
-1.0
 21
-0.25
 31
0.0
  0
LINE
  5
18B
330
188
100
AcDbEntity
  8
0
  6
Continuous
 62
     0
370
    -2
390
5F
100
AcDbLine
 10
-1.0
 20
0.25
 30
0.0
 11
-1.0
 21
-0.25
 31
0.0
  0
LINE
  5
18C
330
188
100
AcDbEntity
  8
0
  6
Continuous
 62
     0
370
    -2
390
5F
100
AcDbLine
 10
0.0
 20
0.0
 30
0.0
 11
-1.0
 21
0.0
 31
0.0
  0
ENDBLK
  5
18E
330
188
100
AcDbEntity
  8
0
100
AcDbBlockEnd
  0
BLOCK
  5
192
330
18F
100
AcDbEntity
  8
0
100
AcDbBlockBegin
  2
cw-dimension-symbol2
 70
     0
 10
0.0
 20
0.0
 30
0.0
  3
cw-dimension-symbol2
  1

  0
LINE
  5
190
330
18F
100
AcDbEntity
  8
0
  6
Continuous
 62
     0
370
    -2
390
5F
100
AcDbLine
 10
-1.0
 20
0.0
 30
0.0
 11
1.0
 21
0.0
 31
0.0
  0
LINE
  5
191
330
18F
100
AcDbEntity
  8
0
  6
Continuous
 62
     0
370
    -2
390
5F
100
AcDbLine
 10
-0.5
 20
-0.5
 30
0.0
 11
0.5
 21
0.5
 31
0.0
  0
ENDBLK
  5
193
330
18F
100
AcDbEntity
  8
0
100
AcDbBlockEnd
  0
BLOCK
  5
197
330
194
100
AcDbEntity
  8
0
100
AcDbBlockBegin
  2
cw-dimension-symbol3
 70
     0
 10
0.0
 20
0.0
 30
0.0
  3
cw-dimension-symbol3
  1

  0
LINE
  5
195
330
194
100
AcDbEntity
  8
0
  6
Continuous
 62
     0
370
    -2
390
5F
100
AcDbLine
 10
-1.0
 20
0.0
 30
0.0
 11
1.0
 21
0.0
 31
0.0
  0
CIRCLE
  5
196
330
194
100
AcDbEntity
  8
0
  6
Continuous
 62
     0
370
    -2
390
5F
100
AcDbCircle
 10
0.0
 20
0.0
 30
0.0
 40
0.25
  0
ENDBLK
  5
198
330
194
100
AcDbEntity
  8
0
100
AcDbBlockEnd
  0
BLOCK
  5
19E
330
199
100
AcDbEntity
  8
0
100
AcDbBlockBegin
  2
cw-dimension-symbol5
 70
     0
 10
0.0
 20
0.0
 30
0.0
  3
cw-dimension-symbol5
  1

  0
HATCH
  5
19A
330
199
100
AcDbEntity
  8
0
  6
Continuous
 62
     0
370
    -2
390
5F
100
AcDbHatch
 10
0.0
 20
0.0
 30
0.0
210
0.0
220
0.0
230
1.0
  2
SOLID
 70
     1
 71
     0
 91
        1
 92
        3
 72
     0
 73
     1
 93
        3
 10
0.0
 20
0.0
 10
-1.0
 20
0.25
 10
-1.0
 20
-0.25
 97
        0
 75
     0
 76
     1
 98
        0
  0
LINE
  5
19B
330
199
100
AcDbEntity
  8
0
  6
Continuous
 62
     0
370
    -2
390
5F
100
AcDbLine
 10
0.0
 20
0.0
 30
0.0
 11
-1.0
 21
0.25
 31
0.0
  0
LINE
  5
19C
330
199
100
AcDbEntity
  8
0
  6
Continuous
 62
     0
370
    -2
390
5F
100
AcDbLine
 10
-1.0
 20
0.25
 30
0.0
 11
-1.0
 21
-0.25
 31
0.0
  0
LINE
  5
19D
330
199
100
AcDbEntity
  8
0
  6
Continuous
 62
     0
370
    -2
390
5F
100
AcDbLine
 10
-1.0
 20
-0.25
 30
0.0
 11
0.0
 21
0.0
 31
0.0
  0
ENDBLK
  5
19F
330
199
100
AcDbEntity
  8
0
100
AcDbBlockEnd
  0
BLOCK
  5
1A4
330
1A0
100
AcDbEntity
  8
0
100
AcDbBlockBegin
  2
cw-dimension-symbol6
 70
     0
 10
0.0
 20
0.0
 30
0.0
  3
cw-dimension-symbol6
  1

  0
LINE
  5
1A1
330
1A0
100
AcDbEntity
  8
0
  6
Continuous
 62
     0
370
    -2
390
5F
100
AcDbLine
 10
0.0
 20
0.0
 30
0.0
 11
-1.0
 21
0.25
 31
0.0
  0
LINE
  5
1A2
330
1A0
100
AcDbEntity
  8
0
  6
Continuous
 62
     0
370
    -2
390
5F
100
AcDbLine
 10
0.0
 20
0.0
 30
0.0
 11
-1.0
 21
-0.25
 31
0.0
  0
LINE
  5
1A3
330
1A0
100
AcDbEntity
  8
0
  6
Continuous
 62
     0
370
    -2
390
5F
100
AcDbLine
 10
0.0
 20
0.0
 30
0.0
 11
-1.0
 21
0.0
 31
0.0
  0
ENDBLK
  5
1A5
330
1A0
100
AcDbEntity
  8
0
100
AcDbBlockEnd
  0
BLOCK
  5
1AA
330
1A6
100
AcDbEntity
  8
0
100
AcDbBlockBegin
  2
cw-dimension-symbol11
 70
     0
 10
0.0
 20
0.0
 30
0.0
  3
cw-dimension-symbol11
  1

  0
LINE
  5
1A7
330
1A6
100
AcDbEntity
  8
0
  6
Continuous
 62
     0
370
    -2
390
5F
100
AcDbLine
 10
-1.0
 20
1.0
 30
0.0
 11
1.0
 21
1.0
 31
0.0
  0
LINE
  5
1A8
330
1A6
100
AcDbEntity
  8
0
  6
Continuous
 62
     0
370
    -2
390
5F
100
AcDbLine
 10
0.0
 20
0.0
 30
0.0
 11
-1.0
 21
1.0
 31
0.0
  0
LINE
  5
1A9
330
1A6
100
AcDbEntity
  8
0
  6
Continuous
 62
     0
370
    -2
390
5F
100
AcDbLine
 10
0.0
 20
0.0
 30
0.0
 11
1.0
 21
1.0
 31
0.0
  0
ENDBLK
  5
1AB
330
1A6
100
AcDbEntity
  8
0
100
AcDbBlockEnd
  0
BLOCK
  5
1B0
330
1AC
100
AcDbEntity
  8
0
100
AcDbBlockBegin
  2
cw-dimension-symbol13
 70
     0
 10
0.0
 20
0.0
 30
0.0
  3
cw-dimension-symbol13
  1

  0
LINE
  5
1AD
330
1AC
100
AcDbEntity
  8
0
  6
Continuous
 62
     0
370
    -2
390
5F
100
AcDbLine
 10
-1.0
 20
-1.0
 30
0.0
 11
1.0
 21
-1.0
 31
0.0
  0
LINE
  5
1AE
330
1AC
100
AcDbEntity
  8
0
  6
Continuous
 62
     0
370
    -2
390
5F
100
AcDbLine
 10
0.0
 20
0.0
 30
0.0
 11
-1.0
 21
-1.0
 31
0.0
  0
LINE
  5
1AF
330
1AC
100
AcDbEntity
  8
0
  6
Continuous
 62
     0
370
    -2
390
5F
100
AcDbLine
 10
0.0
 20
0.0
 30
0.0
 11
1.0
 21
-1.0
 31
0.0
  0
ENDBLK
  5
1B1
330
1AC
100
AcDbEntity
  8
0
100
AcDbBlockEnd
  0
BLOCK
  5
1B7
330
1B2
100
AcDbEntity
  8
0
100
AcDbBlockBegin
  2
cw-dimension-symbol15
 70
     0
 10
0.0
 20
0.0
 30
0.0
  3
cw-dimension-symbol15
  1

  0
HATCH
  5
1B3
330
1B2
100
AcDbEntity
  8
0
  6
Continuous
 62
     0
370
    -2
390
5F
100
AcDbHatch
 10
0.0
 20
0.0
 30
0.0
210
0.0
220
0.0
230
1.0
  2
SOLID
 70
     1
 71
     0
 91
        1
 92
        3
 72
     0
 73
     1
 93
        3
 10
0.0
 20
0.0
 10
-1.0
 20
1.0
 10
1.0
 20
1.0
 97
        0
 75
     0
 76
     1
 98
        0
  0
LINE
  5
1B4
330
1B2
100
AcDbEntity
  8
0
  6
Continuous
 62
     0
370
    -2
390
5F
100
AcDbLine
 10
0.0
 20
0.0
 30
0.0
 11
-1.0
 21
1.0
 31
0.0
  0
LINE
  5
1B5
330
1B2
100
AcDbEntity
  8
0
  6
Continuous
 62
     0
370
    -2
390
5F
100
AcDbLine
 10
-1.0
 20
1.0
 30
0.0
 11
1.0
 21
1.0
 31
0.0
  0
LINE
  5
1B6
330
1B2
100
AcDbEntity
  8
0
  6
Continuous
 62
     0
370
    -2
390
5F
100
AcDbLine
 10
1.0
 20
1.0
 30
0.0
 11
0.0
 21
0.0
 31
0.0
  0
ENDBLK
  5
1B8
330
1B2
100
AcDbEntity
  8
0
100
AcDbBlockEnd
  0
BLOCK
  5
1BE
330
1B9
100
AcDbEntity
  8
0
100
AcDbBlockBegin
  2
cw-dimension-symbol16
 70
     0
 10
0.0
 20
0.0
 30
0.0
  3
cw-dimension-symbol16
  1

  0
HATCH
  5
1BA
330
1B9
100
AcDbEntity
  8
0
  6
Continuous
 62
     0
370
    -2
390
5F
100
AcDbHatch
 10
0.0
 20
0.0
 30
0.0
210
0.0
220
0.0
230
1.0
  2
SOLID
 70
     1
 71
     0
 91
        1
 92
        3
 72
     0
 73
     1
 93
        3
 10
0.0
 20
0.0
 10
-1.0
 20
-1.0
 10
1.0
 20
-1.0
 97
        0
 75
     0
 76
     1
 98
        0
  0
LINE
  5
1BB
330
1B9
100
AcDbEntity
  8
0
  6
Continuous
 62
     0
370
    -2
390
5F
100
AcDbLine
 10
0.0
 20
0.0
 30
0.0
 11
-1.0
 21
-1.0
 31
0.0
  0
LINE
  5
1BC
330
1B9
100
AcDbEntity
  8
0
  6
Continuous
 62
     0
370
    -2
390
5F
100
AcDbLine
 10
-1.0
 20
-1.0
 30
0.0
 11
1.0
 21
-1.0
 31
0.0
  0
LINE
  5
1BD
330
1B9
100
AcDbEntity
  8
0
  6
Continuous
 62
     0
370
    -2
390
5F
100
AcDbLine
 10
1.0
 20
-1.0
 30
0.0
 11
0.0
 21
0.0
 31
0.0
  0
ENDBLK
  5
1BF
330
1B9
100
AcDbEntity
  8
0
100
AcDbBlockEnd
  0
BLOCK
  5
1C5
330
1C0
100
AcDbEntity
  8
0
100
AcDbBlockBegin
  2
cw-dimension-symbol17
 70
     0
 10
0.0
 20
0.0
 30
0.0
  3
cw-dimension-symbol17
  1

  0
LINE
  5
1C1
330
1C0
100
AcDbEntity
  8
0
  6
Continuous
 62
     0
370
    -2
390
5F
100
AcDbLine
 10
0.0
 20
0.0
 30
0.0
 11
1.0
 21
1.0
 31
0.0
  0
LINE
  5
1C2
330
1C0
100
AcDbEntity
  8
0
  6
Continuous
 62
     0
370
    -2
390
5F
100
AcDbLine
 10
1.0
 20
1.0
 30
0.0
 11
-1.0
 21
1.0
 31
0.0
  0
LINE
  5
1C3
330
1C0
100
AcDbEntity
  8
0
  6
Continuous
 62
     0
370
    -2
390
5F
100
AcDbLine
 10
-1.0
 20
1.0
 30
0.0
 11
0.0
 21
0.0
 31
0.0
  0
HATCH
  5
1C4
330
1C0
100
AcDbEntity
  8
0
  6
Continuous
 62
     0
370
    -2
390
5F
100
AcDbHatch
 10
0.0
 20
0.0
 30
0.0
210
0.0
220
0.0
230
1.0
  2
SOLID
 70
     1
 71
     0
 91
        1
 92
        3
 72
     0
 73
     1
 93
        3
 10
0.0
 20
0.0
 10
-1.0
 20
1.0
 10
0.0
 20
1.0
 97
        0
 75
     0
 76
     1
 98
        0
  0
ENDBLK
  5
1C6
330
1C0
100
AcDbEntity
  8
0
100
AcDbBlockEnd
  0
BLOCK
  5
1CC
330
1C7
100
AcDbEntity
  8
0
100
AcDbBlockBegin
  2
cw-dimension-symbol18
 70
     0
 10
0.0
 20
0.0
 30
0.0
  3
cw-dimension-symbol18
  1

  0
LINE
  5
1C8
330
1C7
100
AcDbEntity
  8
0
  6
Continuous
 62
     0
370
    -2
390
5F
100
AcDbLine
 10
0.0
 20
0.0
 30
0.0
 11
1.0
 21
-1.0
 31
0.0
  0
LINE
  5
1C9
330
1C7
100
AcDbEntity
  8
0
  6
Continuous
 62
     0
370
    -2
390
5F
100
AcDbLine
 10
1.0
 20
-1.0
 30
0.0
 11
-1.0
 21
-1.0
 31
0.0
  0
LINE
  5
1CA
330
1C7
100
AcDbEntity
  8
0
  6
Continuous
 62
     0
370
    -2
390
5F
100
AcDbLine
 10
-1.0
 20
-1.0
 30
0.0
 11
0.0
 21
0.0
 31
0.0
  0
HATCH
  5
1CB
330
1C7
100
AcDbEntity
  8
0
  6
Continuous
 62
     0
370
    -2
390
5F
100
AcDbHatch
 10
0.0
 20
0.0
 30
0.0
210
0.0
220
0.0
230
1.0
  2
SOLID
 70
     1
 71
     0
 91
        1
 92
        3
 72
     0
 73
     1
 93
        3
 10
0.0
 20
0.0
 10
-1.0
 20
-1.0
 10
0.0
 20
-1.0
 97
        0
 75
     0
 76
     1
 98
        0
  0
ENDBLK
  5
1CD
330
1C7
100
AcDbEntity
  8
0
100
AcDbBlockEnd
  0
BLOCK
  5
1CF
330
1CE
100
AcDbEntity
  8
0
100
AcDbBlockBegin
  2
cw-dimension-symbol19
 70
     0
 10
0.0
 20
0.0
 30
0.0
  3
cw-dimension-symbol19
  1

  0
ENDBLK
  5
1D0
330
1CE
100
AcDbEntity
  8
0
100
AcDbBlockEnd
  0
BLOCK
  5
1D6
330
1D1
100
AcDbEntity
  8
0
100
AcDbBlockBegin
  2
cw-dimension-symbol20
 70
     0
 10
0.0
 20
0.0
 30
0.0
  3
cw-dimension-symbol20
  1

  0
LINE
  5
1D2
330
1D1
100
AcDbEntity
  8
0
  6
Continuous
 62
     0
370
    -2
390
5F
100
AcDbLine
 10
0.0
 20
0.0
 30
0.0
 11
0.0
 21
2.0
 31
0.0
  0
LINE
  5
1D3
330
1D1
100
AcDbEntity
  8
0
  6
Continuous
 62
     0
370
    -2
390
5F
100
AcDbLine
 10
0.0
 20
0.0
 30
0.0
 11
-1.0
 21
0.33
 31
0.0
  0
LINE
  5
1D4
330
1D1
100
AcDbEntity
  8
0
  6
Continuous
 62
     0
370
    -2
390
5F
100
AcDbLine
 10
0.0
 20
0.0
 30
0.0
 11
1.0
 21
0.33
 31
0.0
  0
LINE
  5
1D5
330
1D1
100
AcDbEntity
  8
0
  6
Continuous
 62
     0
370
    -2
390
5F
100
AcDbLine
 10
0.0
 20
2.0
 30
0.0
 11
4.15
 21
2.0
 31
0.0
  0
ENDBLK
  5
1D7
330
1D1
100
AcDbEntity
  8
0
100
AcDbBlockEnd
  0
BLOCK
  5
1DD
330
1D8
100
AcDbEntity
  8
0
100
AcDbBlockBegin
  2
cw-dimension-symbol21
 70
     0
 10
0.0
 20
0.0
 30
0.0
  3
cw-dimension-symbol21
  1

  0
LINE
  5
1D9
330
1D8
100
AcDbEntity
  8
0
  6
Continuous
 62
     0
370
    -2
390
5F
100
AcDbLine
 10
0.0
 20
0.0
 30
0.0
 11
0.0
 21
-2.0
 31
0.0
  0
LINE
  5
1DA
330
1D8
100
AcDbEntity
  8
0
  6
Continuous
 62
     0
370
    -2
390
5F
100
AcDbLine
 10
0.0
 20
0.0
 30
0.0
 11
-1.0
 21
-0.33
 31
0.0
  0
LINE
  5
1DB
330
1D8
100
AcDbEntity
  8
0
  6
Continuous
 62
     0
370
    -2
390
5F
100
AcDbLine
 10
0.0
 20
0.0
 30
0.0
 11
1.0
 21
-0.33
 31
0.0
  0
LINE
  5
1DC
330
1D8
100
AcDbEntity
  8
0
  6
Continuous
 62
     0
370
    -2
390
5F
100
AcDbLine
 10
0.0
 20
-2.0
 30
0.0
 11
4.15
 21
-2.0
 31
0.0
  0
ENDBLK
  5
1DE
330
1D8
100
AcDbEntity
  8
0
100
AcDbBlockEnd
  0
BLOCK
  5
20F
330
1DF
100
AcDbEntity
  8
0
100
AcDbBlockBegin
  2
cw-line-extremity0
 70
     0
 10
0.0
 20
0.0
 30
0.0
  3
cw-line-extremity0
  1

  0
LINE
  5
1E0
330
1DF
100
AcDbEntity
  8
0
  6
Continuous
 62
     0
370
    -2
390
5F
100
AcDbLine
 10
0.0
 20
0.0
 30
0.0
 11
10.0
 21
2.5
 31
0.0
  0
LINE
  5
1E1
330
1DF
100
AcDbEntity
  8
0
  6
Continuous
 62
     0
370
    -2
390
5F
100
AcDbLine
 10
0.0
 20
0.0
 30
0.0
 11
10.0
 21
-2.5
 31
0.0
  0
LINE
  5
1E2
330
1DF
100
AcDbEntity
  8
0
  6
Continuous
 62
     0
370
    -2
390
5F
100
AcDbLine
 10
10.0
 20
2.5
 30
0.0
 11
10.0
 21
-2.5
 31
0.0
  0
ENDBLK
  5
210
330
1DF
100
AcDbEntity
  8
0
100
AcDbBlockEnd
  0
BLOCK
  5
20D
330
1E3
100
AcDbEntity
  8
0
100
AcDbBlockBegin
  2
cw-line-extremity2
 70
     0
 10
0.0
 20
0.0
 30
0.0
  3
cw-line-extremity2
  1

  0
HATCH
  5
1E4
330
1E3
100
AcDbEntity
  8
0
  6
Continuous
 62
     0
370
     0
390
5F
100
AcDbHatch
 10
0.0
 20
0.0
 30
0.0
210
0.0
220
0.0
230
1.0
  2
SOLID
 70
     1
 71
     0
 91
        1
 92
        3
 72
     0
 73
     1
 93
        3
 10
0.0
 20
0.0
 10
10.0
 20
2.5
 10
10.0
 20
-2.5
 97
        0
 75
     0
 76
     1
 98
        0
  0
LINE
  5
1E5
330
1E3
100
AcDbEntity
  8
0
  6
Continuous
 62
     0
370
    -2
390
5F
100
AcDbLine
 10
0.0
 20
0.0
 30
0.0
 11
10.0
 21
2.5
 31
0.0
  0
LINE
  5
1E6
330
1E3
100
AcDbEntity
  8
0
  6
Continuous
 62
     0
370
    -2
390
5F
100
AcDbLine
 10
10.0
 20
2.5
 30
0.0
 11
10.0
 21
-2.5
 31
0.0
  0
LINE
  5
1E7
330
1E3
100
AcDbEntity
  8
0
  6
Continuous
 62
     0
370
    -2
390
5F
100
AcDbLine
 10
10.0
 20
-2.5
 30
0.0
 11
0.0
 21
0.0
 31
0.0
  0
ENDBLK
  5
20E
330
1E3
100
AcDbEntity
  8
0
100
AcDbBlockEnd
  0
BLOCK
  5
20B
330
1E8
100
AcDbEntity
  8
0
100
AcDbBlockBegin
  2
cw-line-extremity3
 70
     0
 10
0.0
 20
0.0
 30
0.0
  3
cw-line-extremity3
  1

  0
HATCH
  5
1E9
330
1E8
100
AcDbEntity
  8
0
  6
Continuous
 62
     0
370
     0
390
5F
100
AcDbHatch
 10
0.0
 20
0.0
 30
0.0
210
0.0
220
0.0
230
1.0
  2
SOLID
 70
     1
 71
     0
 91
        1
 92
        3
 72
     0
 73
     1
 93
        3
 10
0.0
 20
0.0
 10
10.0
 20
2.5
 10
10.0
 20
-2.5
 97
        0
 75
     0
 76
     1
 98
        0
  0
LINE
  5
1EA
330
1E8
100
AcDbEntity
  8
0
  6
Continuous
 62
     0
370
    -2
390
5F
100
AcDbLine
 10
0.0
 20
0.0
 30
0.0
 11
10.0
 21
2.5
 31
0.0
  0
LINE
  5
1EB
330
1E8
100
AcDbEntity
  8
0
  6
Continuous
 62
     0
370
    -2
390
5F
100
AcDbLine
 10
10.0
 20
2.5
 30
0.0
 11
10.0
 21
-2.5
 31
0.0
  0
LINE
  5
1EC
330
1E8
100
AcDbEntity
  8
0
  6
Continuous
 62
     0
370
    -2
390
5F
100
AcDbLine
 10
10.0
 20
-2.5
 30
0.0
 11
0.0
 21
0.0
 31
0.0
  0
ENDBLK
  5
20C
330
1E8
100
AcDbEntity
  8
0
100
AcDbBlockEnd
  0
BLOCK
  5
209
330
1ED
100
AcDbEntity
  8
0
100
AcDbBlockBegin
  2
cw-line-extremity301
 70
     0
 10
0.0
 20
0.0
 30
0.0
  3
cw-line-extremity301
  1

  0
LINE
  5
1EE
330
1ED
100
AcDbEntity
  8
0
  6
Continuous
 62
     0
370
    -2
390
5F
100
AcDbLine
 10
0.0
 20
6.66665
 30
0.0
 11
0.0
 21
-6.66665
 31
0.0
  0
ENDBLK
  5
20A
330
1ED
100
AcDbEntity
  8
0
100
AcDbBlockEnd
  0
BLOCK
  5
207
330
1EF
100
AcDbEntity
  8
0
100
AcDbBlockBegin
  2
cw-line-extremity4
 70
     0
 10
0.0
 20
0.0
 30
0.0
  3
cw-line-extremity4
  1

  0
HATCH
  5
1F0
330
1EF
100
AcDbEntity
  8
0
  6
Continuous
 62
     0
370
     5
390
5F
100
AcDbHatch
 10
0.0
 20
0.0
 30
0.0
210
0.0
220
0.0
230
1.0
  2
SOLID
 70
     1
 71
     0
 91
        1
 92
        1
 93
        1
 72
     2
 10
0.0
 20
0.0
 40
2.5
 50
0.0
 51
360.0
 73
     1
 97
        0
 75
     0
 76
     1
 98
        0
  0
ENDBLK
  5
208
330
1EF
100
AcDbEntity
  8
0
100
AcDbBlockEnd
  0
BLOCK
  5
205
330
1F1
100
AcDbEntity
  8
0
100
AcDbBlockBegin
  2
cw-line-extremity5
 70
     0
 10
0.0
 20
0.0
 30
0.0
  3
cw-line-extremity5
  1

  0
LINE
  5
1F2
330
1F1
100
AcDbEntity
  8
0
  6
Continuous
 62
     0
370
    -2
390
5F
100
AcDbLine
 10
0.0
 20
0.0
 30
0.0
 11
-2.5
 21
0.0
 31
0.0
  0
ENDBLK
  5
206
330
1F1
100
AcDbEntity
  8
0
100
AcDbBlockEnd
  0
BLOCK
  5
203
330
1F3
100
AcDbEntity
  8
0
100
AcDbBlockBegin
  2
cw-line-extremity6
 70
     0
 10
0.0
 20
0.0
 30
0.0
  3
cw-line-extremity6
  1

  0
LINE
  5
1F4
330
1F3
100
AcDbEntity
  8
0
  6
Continuous
 62
     0
370
    18
390
5F
100
AcDbLine
 10
0.0
 20
2.5
 30
0.0
 11
0.0
 21
-2.5
 31
0.0
  0
ENDBLK
  5
204
330
1F3
100
AcDbEntity
  8
0
100
AcDbBlockEnd
  0
BLOCK
  5
201
330
1F5
100
AcDbEntity
  8
0
100
AcDbBlockBegin
  2
cw-line-extremity9
 70
     0
 10
0.0
 20
0.0
 30
0.0
  3
cw-line-extremity9
  1

  0
LINE
  5
1F6
330
1F5
100
AcDbEntity
  8
0
  6
Continuous
 62
     0
370
    18
390
5F
100
AcDbLine
 10
-2.5
 20
-2.5
 30
0.0
 11
2.5
 21
2.5
 31
0.0
  0
ENDBLK
  5
202
330
1F5
100
AcDbEntity
  8
0
100
AcDbBlockEnd
  0
BLOCK
  5
1FF
330
1F7
100
AcDbEntity
  8
0
100
AcDbBlockBegin
  2
cw-line-extremity10
 70
     0
 10
0.0
 20
0.0
 30
0.0
  3
cw-line-extremity10
  1

  0
CIRCLE
  5
1F8
330
1F7
100
AcDbEntity
  8
0
  6
Continuous
 62
     0
370
    -2
390
5F
100
AcDbCircle
 10
0.0
 20
0.0
 30
0.0
 40
2.5
  0
ENDBLK
  5
200
330
1F7
100
AcDbEntity
  8
0
100
AcDbBlockEnd
  0
BLOCK
  5
1FD
330
1F9
100
AcDbEntity
  8
0
100
AcDbBlockBegin
  2
cw-line-extremity1
 70
     0
 10
0.0
 20
0.0
 30
0.0
  3
cw-line-extremity1
  1

  0
LINE
  5
1FA
330
1F9
100
AcDbEntity
  8
0
  6
Continuous
 62
     0
370
    -2
390
5F
100
AcDbLine
 10
0.0
 20
0.0
 30
0.0
 11
0.0
 21
2.5
 31
0.0
  0
LINE
  5
1FB
330
1F9
100
AcDbEntity
  8
0
  6
Continuous
 62
     0
370
    -2
390
5F
100
AcDbLine
 10
0.0
 20
2.5
 30
0.0
 11
1.25
 21
3.75
 31
0.0
  0
LINE
  5
1FC
330
1F9
100
AcDbEntity
  8
0
  6
Continuous
 62
     0
370
    -2
390
5F
100
AcDbLine
 10
1.25
 20
3.75
 30
0.0
 11
3.75
 21
3.75
 31
0.0
  0
ENDBLK
  5
1FE
330
1F9
100
AcDbEntity
  8
0
100
AcDbBlockEnd
  0
BLOCK
  5
1C
330
1B
100
AcDbEntity
  8
0
100
AcDbBlockBegin
  2
*Paper_Space69
 70
     0
 10
0.0
 20
0.0
 30
0.0
  3
*Paper_Space69
  1

  0
ENDBLK
  5
1D
330
1B
100
AcDbEntity
  8
0
100
AcDbBlockEnd
  0
ENDSEC
  0
SECTION
  2
ENTITIES
  0
HATCH
  5
21A
330
1F
100
AcDbEntity
  8
Ech.1_5
  6
Continuous
 62
   254
420
 15656413
440
 33554687
370
    20
390
5F
100
AcDbHatch
 10
0.0
 20
0.0
 30
0.0
210
0.0
220
0.0
230
1.0
  2
SOLID
 70
     1
 71
     0
 91
        1
 92
        3
 72
     1
 73
     1
 93
        4
 10
23345.02793161018
 20
-8115.129056026902
 42
0.1190666906645519
 10
23423.16400252972
 20
-8075.130937033163
 42
0.0
 10
23179.43713797864
 20
-8075.125069652521
 42
0.1190666906644697
 10
23257.57128301094
 20
-8115.126950631381
 42
0.0
 97
        0
 75
     0
 76
     1
 98
        0
  0
LWPOLYLINE
  5
21B
330
1F
100
AcDbEntity
  8
Ech.1_5
  6
Continuous
 62
   190
370
    15
390
5F
100
AcDbPolyline
 90
        5
 70
     0
 43
0.0
 10
23345.02793161018
 20
-8115.129056026902
 42
0.1190666906645515
 10
23423.16400252972
 20
-8075.130937033163
 10
23179.43713797864
 20
-8075.125069652521
 42
0.1190666906644701
 10
23257.57128301094
 20
-8115.126950631381
 10
23345.02793161018
 20
-8115.129056026902
  0
HATCH
  5
21C
330
1F
100
AcDbEntity
  8
Ech.1_5
  6
Continuous
 62
    33
420
 12426362
440
 33554687
370
    20
390
5F
100
AcDbHatch
 10
0.0
 20
0.0
 30
0.0
210
0.0
220
0.0
230
1.0
  2
SOLID
 70
     1
 71
     0
 91
        1
 92
        3
 72
     1
 73
     1
 93
        4
 10
23262.84627873261
 20
-8075.122178462007
 42
0.0
 10
23262.84627873231
 20
-8030.122178462007
 42
0.0
 10
23141.35815072357
 20
-8030.122178462837
 42
0.0793367823822731
 10
23179.43377566357
 20
-8075.122178462575
 42
0.0
 97
        0
 75
     0
 76
     1
 98
        0
  0
LWPOLYLINE
  5
21D
330
1F
100
AcDbEntity
  8
Ech.1_5
  6
Continuous
 62
     7
370
    20
390
5F
100
AcDbPolyline
 90
        5
 70
     0
 43
0.0
 10
23262.84627873261
 20
-8075.122178462007
 10
23262.84627873231
 20
-8030.122178462007
 10
23141.35815072357
 20
-8030.122178462837
 42
0.0793367823822259
 10
23179.43377566357
 20
-8075.122178462575
 10
23262.84627873261
 20
-8075.122178462007
  0
HATCH
  5
21E
330
1F
100
AcDbEntity
  8
Ech.1_5
  6
Continuous
 62
   254
420
 16643007
440
 33554687
370
    20
390
5F
100
AcDbHatch
 10
0.0
 20
0.0
 30
0.0
210
0.0
220
0.0
230
1.0
  2
SOLID
 70
     1
 71
     0
 91
        1
 92
        3
 72
     1
 73
     1
 93
        4
 10
23488.19395201408
 20
-7930.127113799856
 42
0.0
 10
23386.84627873524
 20
-7930.124194642424
 42
0.0
 10
23386.84627873524
 20
-8075.126834384785
 42
0.0
 10
23423.16596453608
 20
-8075.129250122861
 42
0.2231289289016151
 97
        0
 75
     0
 76
     1
 98
        0
  0
LWPOLYLINE
  5
21F
330
1F
100
AcDbEntity
  8
Ech.1_5
  6
Continuous
 62
   190
370
    15
390
5F
100
AcDbPolyline
 90
        5
 70
     0
 43
0.0
 10
23488.19395201408
 20
-7930.127113799856
 10
23386.84627873524
 20
-7930.124194642424
 10
23386.84627873524
 20
-8075.126834384785
 10
23423.16596453608
 20
-8075.129250122861
 42
0.2231289289016149
 10
23488.19395201408
 20
-7930.127113799856
  0
HATCH
  5
220
330
1F
100
AcDbEntity
  8
Ech.1_5
  6
Continuous
 62
   254
420
 16643007
440
 33554687
370
    20
390
5F
100
AcDbHatch
 10
0.0
 20
0.0
 30
0.0
210
0.0
220
0.0
230
1.0
  2
SOLID
 70
     1
 71
     0
 91
        1
 92
        3
 72
     1
 73
     1
 93
        6
 10
23117.84627873541
 20
-7969.19889397227
 42
0.0880178808063058
 10
23141.35815072356
 20
-8030.122178462815
 42
0.0
 10
23262.84627873712
 20
-8030.122178461891
 42
0.0
 10
23262.84627873565
 20
-7805.122178462007
 42
0.0
 10
23165.34708515987
 20
-7805.122178462673
 42
0.1418396333142558
 10
23117.84627873495
 20
-7897.593868093279
 42
0.0
 97
        0
 75
     0
 76
     1
 98
        0
  0
LWPOLYLINE
  5
221
330
1F
100
AcDbEntity
  8
Ech.1_5
  6
Continuous
 62
   190
370
    15
390
5F
100
AcDbPolyline
 90
        7
 70
     0
 43
0.0
 10
23117.84627873541
 20
-7969.19889397227
 42
0.0880178808063471
 10
23141.35815072356
 20
-8030.122178462815
 10
23262.84627873712
 20
-8030.122178461891
 10
23262.84627873565
 20
-7805.122178462007
 10
23165.34708515987
 20
-7805.122178462673
 42
0.1418396333142793
 10
23117.84627873495
 20
-7897.593868093279
 10
23117.84627873541
 20
-7969.19889397227
  0
HATCH
  5
222
330
1F
100
AcDbEntity
  8
Ech.1_5
  6
Continuous
 62
   254
420
 16643007
440
 33554687
370
    20
390
5F
100
AcDbHatch
 10
0.0
 20
0.0
 30
0.0
210
0.0
220
0.0
230
1.0
  2
SOLID
 70
     1
 71
     0
 91
        1
 92
        3
 72
     1
 73
     1
 93
        3
 10
23262.84627873529
 20
-7750.476852412824
 42
0.1529870491888342
 10
23165.34708515987
 20
-7805.122178462673
 42
0.0
 10
23262.84627873565
 20
-7805.122178462007
 42
0.0
 97
        0
 75
     0
 76
     1
 98
        0
  0
LWPOLYLINE
  5
223
330
1F
100
AcDbEntity
  8
Ech.1_5
  6
Continuous
 62
   190
370
    15
390
5F
100
AcDbPolyline
 90
        4
 70
     0
 43
0.0
 10
23262.84627873529
 20
-7750.476852412824
 42
0.1529870491888165
 10
23165.34708515987
 20
-7805.122178462673
 10
23262.84627873565
 20
-7805.122178462007
 10
23262.84627873529
 20
-7750.476852412824
  0
HATCH
  5
224
330
1F
100
AcDbEntity
  8
Ech.1_5
  6
Continuous
 62
   254
420
 13882323
440
 33554687
370
     5
390
5F
100
AcDbHatch
 10
0.0
 20
0.0
 30
0.0
210
0.0
220
0.0
230
1.0
  2
SOLID
 70
     1
 71
     0
 91
        1
 92
        3
 72
     0
 73
     1
 93
        4
 10
22965.557966538
 20
-8017.463744099111
 10
22965.557966538
 20
-8057.463744099111
 10
22992.557966538
 20
-8057.463744099111
 10
22992.557966538
 20
-8017.463744099111
 97
        0
 75
     0
 76
     1
 98
        0
  0
LINE
  5
225
330
1F
100
AcDbEntity
  8
Ech.1_5
  6
Continuous
 62
   190
370
    15
390
5F
100
AcDbLine
 10
22965.557966538
 20
-8057.463744099111
 30
0.0
 11
22992.557966538
 21
-8017.463744099111
 31
0.0
  0
LINE
  5
226
330
1F
100
AcDbEntity
  8
Ech.1_5
  6
Continuous
 62
   190
370
    15
390
5F
100
AcDbLine
 10
22992.557966538
 20
-8057.463744099111
 30
0.0
 11
22965.557966538
 21
-8017.463744099111
 31
0.0
  0
LWPOLYLINE
  5
227
330
1F
100
AcDbEntity
  8
Ech.1_5
  6
Continuous
 62
     5
370
    40
390
5F
100
AcDbPolyline
 90
        5
 70
     0
 43
0.0
 10
22965.557966538
 20
-8017.463744099111
 10
22965.557966538
 20
-8057.463744099111
 10
22992.557966538
 20
-8057.463744099111
 10
22992.557966538
 20
-8017.463744099111
 10
22965.557966538
 20
-8017.463744099111
  0
HATCH
  5
228
330
1F
100
AcDbEntity
  8
Ech.1_5
  6
Continuous
 62
   254
420
 16643007
440
 33554687
370
    20
390
5F
100
AcDbHatch
 10
0.0
 20
0.0
 30
0.0
210
0.0
220
0.0
230
1.0
  2
SOLID
 70
     1
 71
     0
 91
        1
 92
        3
 72
     0
 73
     1
 93
        4
 10
23585.56557176509
 20
-8558.275459303666
 10
23585.56557176509
 20
-8498.279419384868
 10
22905.56192662296
 20
-8498.279419384868
 10
22905.56228834309
 20
-8558.275459303666
 97
        0
 75
     0
 76
     1
 98
        0
  0
LWPOLYLINE
  5
229
330
1F
100
AcDbEntity
  8
Ech.1_5
  6
Continuous
 62
   190
370
    15
390
5F
100
AcDbPolyline
 90
        5
 70
     0
 43
0.0
 10
23585.56557176509
 20
-8558.275459303666
 10
23585.56557176509
 20
-8498.279419384868
 10
22905.56192662296
 20
-8498.279419384868
 10
22905.56228834309
 20
-8558.275459303666
 10
23585.56557176509
 20
-8558.275459303666
  0
HATCH
  5
22A
330
1F
100
AcDbEntity
  8
Ech.1_5
  6
Continuous
 62
   254
420
 16643007
440
 33554687
370
    20
390
5F
100
AcDbHatch
 10
0.0
 20
0.0
 30
0.0
210
0.0
220
0.0
230
1.0
  2
SOLID
 70
     1
 71
     0
 91
        1
 92
        3
 72
     0
 73
     1
 93
        8
 10
22896.56186579143
 20
-7920.272098270395
 10
22831.35773934709
 20
-7920.272098271093
 10
22814.87223619133
 20
-7938.249446678649
 10
22828.98217620883
 20
-7902.293746666725
 10
22812.49582212748
 20
-7920.272098271268
 10
22751.56186579013
 20
-7920.272098271443
 10
22751.56186579501
 20
-8667.275459297263
 10
22896.56186579632
 20
-8667.275459296157
 97
        0
 75
     0
 76
     1
 98
        0
  0
LWPOLYLINE
  5
22B
330
1F
100
AcDbEntity
  8
Ech.1_5
  6
Continuous
 62
   190
370
    15
390
5F
100
AcDbPolyline
 90
        9
 70
     0
 43
0.0
 10
22896.56186579143
 20
-7920.272098270395
 10
22831.35773934709
 20
-7920.272098271093
 10
22814.87223619133
 20
-7938.249446678649
 10
22828.98217620883
 20
-7902.293746666725
 10
22812.49582212748
 20
-7920.272098271268
 10
22751.56186579013
 20
-7920.272098271443
 10
22751.56186579501
 20
-8667.275459297263
 10
22896.56186579632
 20
-8667.275459296157
 10
22896.56186579143
 20
-7920.272098270395
  0
HATCH
  5
22C
330
1F
100
AcDbEntity
  8
Ech.1_5
  6
Continuous
 62
   254
420
 16643007
440
 33554687
370
    20
390
5F
100
AcDbHatch
 10
0.0
 20
0.0
 30
0.0
210
0.0
220
0.0
230
1.0
  2
SOLID
 70
     1
 71
     0
 91
        1
 92
        3
 72
     0
 73
     1
 93
        8
 10
23585.5630356109
 20
-8590.340877788112
 10
23585.56557176509
 20
-8567.293749503646
 10
22950.56697158863
 20
-8567.275459385855
 10
22952.06103647972
 20
-8712.279579704133
 10
23585.55899140469
 20
-8712.29741602877
 10
23585.56237143818
 20
-8609.202794996003
 10
23567.58460036843
 20
-8592.715807864413
 10
23603.53980351358
 20
-8606.82701395874
 97
        0
 75
     0
 76
     1
 98
        0
  0
LWPOLYLINE
  5
22D
330
1F
100
AcDbEntity
  8
Ech.1_5
  6
Continuous
 62
   190
370
    15
390
5F
100
AcDbPolyline
 90
        9
 70
     0
 43
0.0
 10
23585.5630356109
 20
-8590.340877788112
 10
23585.56557176509
 20
-8567.293749503646
 10
22950.56697158863
 20
-8567.275459385855
 10
22952.06103647972
 20
-8712.279579704133
 10
23585.55899140469
 20
-8712.29741602877
 10
23585.56237143818
 20
-8609.202794996003
 10
23567.58460036843
 20
-8592.715807864413
 10
23603.53980351358
 20
-8606.82701395874
 10
23585.5630356109
 20
-8590.340877788112
  0
LWPOLYLINE
  5
22E
330
1F
100
AcDbEntity
  8
Ech.1_5
  6
Continuous
 62
   190
370
    15
390
5F
100
AcDbPolyline
 90
       42
 70
     0
 43
0.0
 10
22872.39519912829
 20
-8442.275459296448
 42
1.140281805119582
 10
22866.1403914543
 20
-8394.765588934883
 10
22781.98334013513
 20
-8417.285329658625
 42
-1.303226186856047
 10
22781.98334013482
 20
-8370.598922268779
 10
22866.14039145428
 20
-8393.118662991415
 42
1.303226186855234
 10
22866.14039145397
 20
-8346.43225560154
 10
22781.9833401348
 20
-8368.951996325311
 42
-1.303226186855234
 10
22781.98334013449
 20
-8322.265588935436
 10
22866.14039145396
 20
-8344.785329658102
 42
1.303226186855234
 10
22866.14039145364
 20
-8298.098922268226
 10
22781.98334013447
 20
-8320.618662991998
 42
-1.303226186855234
 10
22781.98334013416
 20
-8273.932255602122
 10
22866.14039145363
 20
-8296.45199632473
 42
1.303226186855891
 10
22866.14039145331
 20
-8249.765588934883
 10
22781.98334013415
 20
-8272.285329658655
 42
-1.303226186855234
 10
22781.98334013383
 20
-8225.598922268779
 10
22866.14039145331
 20
-8248.118662991415
 42
1.30322618685539
 10
22866.14039145299
 20
-8201.43225560154
 10
22781.98334013383
 20
-8223.951996325311
 42
-1.303226186855517
 10
22781.98334013351
 20
-8177.26558893544
 10
22866.14039145298
 20
-8199.785329658102
 42
1.303226186855361
 10
22866.14039145267
 20
-8153.09892226823
 10
22781.9833401335
 20
-8175.618662992002
 42
-1.303226186855079
 10
22781.98334013318
 20
-8128.932255602126
 10
22866.14039145265
 20
-8151.451996324763
 42
1.303226186855234
 10
22866.14039145234
 20
-8104.765588934887
 10
22781.98334013317
 20
-8127.285329658659
 42
-1.303226186855234
 10
22781.98334013286
 20
-8080.598922268783
 10
22866.14039145233
 20
-8103.11866299142
 42
1.303226186855234
 10
22866.14039145201
 20
-8056.432255601544
 10
22781.98334013284
 20
-8078.951996325316
 42
-1.303226186855234
 10
22781.98334013253
 20
-8032.26558893544
 10
22866.140391452
 20
-8054.785329658106
 42
1.303226186855234
 10
22866.14039145168
 20
-8008.09892226823
 10
22781.98334013252
 20
-8030.618662992002
 42
-1.303226186855234
 10
22781.9833401322
 20
-7983.932255602126
 10
22866.14039145168
 20
-8006.451996324763
 42
1.30322618685539
 10
22866.14039145136
 20
-7959.765588934887
 10
22781.98334013219
 20
-7982.285329658659
 42
-1.303226186856047
 10
22781.98334013188
 20
-7935.598922268812
 10
22866.14039145135
 20
-7958.11866299142
 42
0.7125026632374218
 10
22891.72601123213
 20
-7920.272098270424
  0
LWPOLYLINE
  5
22F
330
1F
100
AcDbEntity
  8
Ech.1_5
  6
Continuous
 62
   190
370
    15
390
5F
100
AcDbPolyline
 90
       20
 70
     0
 43
0.0
 10
22834.89519912948
 20
-8667.275459296652
 42
1.140281805119492
 10
22830.5815386647
 20
-8634.510031461105
 10
22772.54219292737
 20
-8650.040887132607
 42
-1.303226186854699
 10
22772.5421929272
 20
-8617.843364794768
 10
22830.5815386647
 20
-8633.37422046563
 42
1.303226186855425
 10
22830.58153866453
 20
-8601.17669812782
 10
22772.54219292719
 20
-8616.707553799293
 42
-1.303226186854247
 10
22772.54219292702
 20
-8584.510031461454
 10
22830.58153866452
 20
-8600.040887132316
 42
1.303226186855425
 10
22830.58153866434
 20
-8567.843364794506
 10
22772.54219292701
 20
-8583.37422046598
 42
-1.303226186855425
 10
22772.54219292683
 20
-8551.176698128169
 10
22830.58153866434
 20
-8566.707553799002
 42
1.303226186856603
 10
22830.58153866416
 20
-8534.510031461221
 10
22772.54219292683
 20
-8550.040887132665
 42
-1.303226186855651
 10
22772.54219292666
 20
-8517.843364794855
 10
22830.58153866416
 20
-8533.374220465688
 42
1.303226186857055
 10
22830.58153866398
 20
-8501.176698127907
 10
22772.54219292665
 20
-8516.707553799351
 42
-0.8252905193972285
 10
22758.22853246209
 20
-8487.275459297089
  0
LWPOLYLINE
  5
230
330
1F
100
AcDbEntity
  8
Ech.1_5
  6
Continuous
 62
   190
370
    15
390
5F
100
AcDbPolyline
 90
       52
 70
     0
 43
0.0
 10
23585.56487567225
 20
-8591.460787888413
 42
1.140281805120029
 10
23538.05409437798
 20
-8597.714323303284
 10
23560.57175744082
 20
-8681.873317734193
 42
-1.303226186856316
 10
23513.88463194681
 20
-8681.871972986322
 10
23536.40714310241
 20
-8597.714275865466
 42
1.303226186856316
 10
23489.72001760841
 20
-8597.712931117596
 10
23512.23768067125
 20
-8681.871925548534
 42
-1.303226186855069
 10
23465.55055517724
 20
-8681.870580800663
 10
23488.07306633284
 20
-8597.712883679807
 42
1.303226186855692
 10
23441.38594083884
 20
-8597.711538931908
 10
23463.90360390168
 20
-8681.870533362875
 42
-1.303226186854446
 10
23417.21647840767
 20
-8681.869188614975
 10
23439.73898956327
 20
-8597.71149149412
 42
1.303226186855692
 10
23393.05186406927
 20
-8597.71014674622
 10
23415.56952713212
 20
-8681.869141177187
 42
-1.30322618685549
 10
23368.8824016381
 20
-8681.867796429287
 10
23391.4049127937
 20
-8597.710099308431
 42
1.303226186854446
 10
23344.7177872997
 20
-8597.708754560532
 10
23367.23545036255
 20
-8681.867748991499
 42
-1.30322618685549
 10
23320.54832486853
 20
-8681.8664042436
 10
23343.07083602413
 20
-8597.708707122743
 42
1.303226186855069
 10
23296.38371053013
 20
-8597.707362374873
 10
23318.90137359298
 20
-8681.866356805811
 42
-1.303226186856736
 10
23272.21424809896
 20
-8681.865012057911
 10
23294.73675925457
 20
-8597.707314937084
 42
1.303226186856113
 10
23248.04963376056
 20
-8597.705970189214
 10
23270.56729682341
 20
-8681.864964620123
 42
-1.303226186856316
 10
23223.8801713294
 20
-8681.863619872252
 10
23246.402682485
 20
-8597.705922751396
 42
1.303226186856113
 10
23199.71555699099
 20
-8597.704578003526
 10
23222.23322005384
 20
-8681.863572434464
 42
-1.303226186855069
 10
23175.54609455983
 20
-8681.862227686594
 10
23198.06860571543
 20
-8597.704530565738
 42
1.303226186856939
 10
23151.38148022143
 20
-8597.703185817838
 10
23173.89914328427
 20
-8681.862180248776
 42
-1.303226186855069
 10
23127.21201779026
 20
-8681.860835500906
 10
23149.73452894586
 20
-8597.70313838005
 42
1.303226186855692
 10
23103.04740345186
 20
-8597.70179363215
 10
23125.5650665147
 20
-8681.860788063117
 42
-1.303226186854446
 10
23078.87794102069
 20
-8681.859443315218
 10
23101.40045217629
 20
-8597.701746194361
 42
1.303226186854446
 10
23054.71332668229
 20
-8597.700401446462
 10
23077.23098974513
 20
-8681.859395877429
 42
-1.303226186855692
 10
23030.54386425112
 20
-8681.85805112953
 10
23053.06637540672
 20
-8597.700354008673
 42
1.303226186855069
 10
23006.37924991272
 20
-8597.699009260803
 10
23028.89691297556
 20
-8681.858003691741
 42
-1.303226186856736
 10
22982.20978748155
 20
-8681.856658943841
 10
23004.73229863715
 20
-8597.698961822985
 42
1.303226186855069
 10
22958.04517314315
 20
-8597.697617075115
 10
22980.56283620599
 20
-8681.856611506053
 42
-0.5831002436690956
 10
22950.56282194969
 20
-8711.343143729202
  0
HATCH
  5
231
330
1F
100
AcDbEntity
  8
Ech.1_5
  6
Continuous
 62
    33
420
 12426362
440
 33554687
370
    20
390
5F
100
AcDbHatch
 10
0.0
 20
0.0
 30
0.0
210
0.0
220
0.0
230
1.0
  2
SOLID
 70
     1
 71
     0
 91
        1
 92
        3
 72
     0
 73
     1
 93
        4
 10
23445.86808930956
 20
-8712.291667766898
 10
23490.86808928166
 20
-8712.293252323318
 10
23490.87319507465
 20
-8567.293252413248
 10
23445.87319510255
 20
-8567.29166785677
 97
        0
 75
     0
 76
     1
 98
        0
  0
LWPOLYLINE
  5
232
330
1F
100
AcDbEntity
  8
Ech.1_5
  6
Continuous
 62
     7
370
    20
390
5F
100
AcDbPolyline
 90
        5
 70
     0
 43
0.0
 10
23445.86808930956
 20
-8712.291667766898
 10
23490.86808928166
 20
-8712.293252323318
 10
23490.87319507465
 20
-8567.293252413248
 10
23445.87319510255
 20
-8567.29166785677
 10
23445.86808930956
 20
-8712.291667766898
  0
HATCH
  5
233
330
1F
100
AcDbEntity
  8
Ech.1_5
  6
Continuous
 62
    33
420
 12426362
440
 33554687
370
    20
390
5F
100
AcDbHatch
 10
0.0
 20
0.0
 30
0.0
210
0.0
220
0.0
230
1.0
  2
SOLID
 70
     1
 71
     0
 91
        1
 92
        3
 72
     0
 73
     1
 93
        4
 10
22950.56186579469
 20
-8567.275459295925
 10
22905.56186579469
 20
-8567.275459296274
 10
22905.56186579566
 20
-8712.275459296274
 10
22950.56186579566
 20
-8712.275459295925
 97
        0
 75
     0
 76
     1
 98
        0
  0
LWPOLYLINE
  5
234
330
1F
100
AcDbEntity
  8
Ech.1_5
  6
Continuous
 62
     7
370
    20
390
5F
100
AcDbPolyline
 90
        5
 70
     0
 43
0.0
 10
22950.56186579469
 20
-8567.275459295925
 10
22905.56186579469
 20
-8567.275459296274
 10
22905.56186579566
 20
-8712.275459296274
 10
22950.56186579566
 20
-8712.275459295925
 10
22950.56186579469
 20
-8567.275459295925
  0
HATCH
  5
235
330
1F
100
AcDbEntity
  8
Ech.1_5
  6
Continuous
 62
    33
420
 12426362
440
 33554687
370
    20
390
5F
100
AcDbHatch
 10
0.0
 20
0.0
 30
0.0
210
0.0
220
0.0
230
1.0
  2
SOLID
 70
     1
 71
     0
 91
        1
 92
        3
 72
     0
 73
     1
 93
        4
 10
22751.56186579495
 20
-8442.275459297263
 10
22751.56186579524
 20
-8487.275459297263
 10
22896.56186579524
 20
-8487.275459296274
 10
22896.56186579495
 20
-8442.275459296274
 97
        0
 75
     0
 76
     1
 98
        0
  0
LWPOLYLINE
  5
236
330
1F
100
AcDbEntity
  8
Ech.1_5
  6
Continuous
 62
     7
370
    20
390
5F
100
AcDbPolyline
 90
        5
 70
     0
 43
0.0
 10
22751.56186579495
 20
-8442.275459297263
 10
22751.56186579524
 20
-8487.275459297263
 10
22896.56186579524
 20
-8487.275459296274
 10
22896.56186579495
 20
-8442.275459296274
 10
22751.56186579495
 20
-8442.275459297263
  0
HATCH
  5
237
330
1F
100
AcDbEntity
  8
Ech.1_5
  6
Continuous
 62
    33
420
 12426362
440
 33554687
370
    20
390
5F
100
AcDbHatch
 10
0.0
 20
0.0
 30
0.0
210
0.0
220
0.0
230
1.0
  2
SOLID
 70
     1
 71
     0
 91
        1
 92
        3
 72
     0
 73
     1
 93
        4
 10
22751.56186579187
 20
-8014.9637441001
 10
22751.56186579217
 20
-8059.9637441001
 10
22896.56186579217
 20
-8059.963744099111
 10
22896.56186579187
 20
-8014.963744099111
 97
        0
 75
     0
 76
     1
 98
        0
  0
LWPOLYLINE
  5
238
330
1F
100
AcDbEntity
  8
Ech.1_5
  6
Continuous
 62
     7
370
    20
390
5F
100
AcDbPolyline
 90
        5
 70
     0
 43
0.0
 10
22751.56186579187
 20
-8014.9637441001
 10
22751.56186579217
 20
-8059.9637441001
 10
22896.56186579217
 20
-8059.963744099111
 10
22896.56186579187
 20
-8014.963744099111
 10
22751.56186579187
 20
-8014.9637441001
  0
HATCH
  5
239
330
1F
100
AcDbEntity
  8
Ech.1_5
  6
Continuous
 62
    33
420
 12426362
440
 33554687
370
    20
390
5F
100
AcDbHatch
 10
0.0
 20
0.0
 30
0.0
210
0.0
220
0.0
230
1.0
  2
SOLID
 70
     1
 71
     0
 91
        1
 92
        3
 72
     0
 73
     1
 93
        4
 10
22751.56186579151
 20
-8667.275459297263
 10
22751.56186579181
 20
-8712.275459297263
 10
22896.56186579181
 20
-8712.275459296274
 10
22896.56186579151
 20
-8667.275459296274
 97
        0
 75
     0
 76
     1
 98
        0
  0
LWPOLYLINE
  5
23A
330
1F
100
AcDbEntity
  8
Ech.1_5
  6
Continuous
 62
     7
370
    20
390
5F
100
AcDbPolyline
 90
        5
 70
     0
 43
0.0
 10
22751.56186579151
 20
-8667.275459297263
 10
22751.56186579181
 20
-8712.275459297263
 10
22896.56186579181
 20
-8712.275459296274
 10
22896.56186579151
 20
-8667.275459296274
 10
22751.56186579151
 20
-8667.275459297263
  0
HATCH
  5
23B
330
1F
100
AcDbEntity
  8
Ech.1_5
  6
Continuous
 62
    33
420
 12426362
440
 33554687
370
    20
390
5F
100
AcDbHatch
 10
0.0
 20
0.0
 30
0.0
210
0.0
220
0.0
230
1.0
  2
SOLID
 70
     1
 71
     0
 91
        1
 92
        3
 72
     0
 73
     1
 93
        4
 10
22896.56186579516
 20
-8487.275459296274
 10
22851.56186579516
 20
-8487.275459296565
 10
22851.56186579613
 20
-8667.275459296565
 10
22896.56186579613
 20
-8667.275459296274
 97
        0
 75
     0
 76
     1
 98
        0
  0
LWPOLYLINE
  5
23C
330
1F
100
AcDbEntity
  8
Ech.1_5
  6
Continuous
 62
     7
370
    20
390
5F
100
AcDbPolyline
 90
        5
 70
     0
 43
0.0
 10
22896.56186579516
 20
-8487.275459296274
 10
22851.56186579516
 20
-8487.275459296565
 10
22851.56186579613
 20
-8667.275459296565
 10
22896.56186579613
 20
-8667.275459296274
 10
22896.56186579516
 20
-8487.275459296274
  0
LWPOLYLINE
  5
23D
330
1F
100
AcDbEntity
  8
Ech.1_5
  6
Continuous
 62
   190
370
    15
390
5F
100
AcDbPolyline
 90
        5
 70
     0
 43
0.0
 10
9116.32829549663
 20
-7141.735316998213
 10
31769.28913838763
 20
-7141.735316998213
 10
31769.28913838763
 20
-9580.259226073395
 10
9116.32829549663
 20
-9580.259226073395
 10
9116.32829549663
 20
-7141.735316998213
  0
HATCH
  5
23F
330
1F
100
AcDbEntity
  8
Ech.1_5
  6
Continuous
 62
   254
420
 14407639
440
 33554687
370
     5
390
5F
100
AcDbHatch
 10
0.0
 20
0.0
 30
0.0
210
0.0
220
0.0
230
1.0
  2
SOLID
 70
     1
 71
     0
 91
        1
 92
        3
 72
     0
 73
     1
 93
        4
 10
22711.56186579095
 20
-7920.271596672746
 10
22698.5618657913
 20
-7920.271596672746
 10
22698.56186579363
 20
-8752.277325526782
 10
22711.56186579399
 20
-8752.277325526724
 97
        0
 75
     0
 76
     1
 98
        0
  0
HATCH
  5
240
330
1F
100
AcDbEntity
  8
Ech.1_5
  6
Continuous
 62
   190
440
 33554687
370
    15
390
23E
100
AcDbHatch
 10
0.0
 20
0.0
 30
0.0
210
0.0
220
0.0
230
1.0
  2
CwHatchPattern_84
 70
     0
 71
     0
 91
        1
 92
        3
 72
     0
 73
     1
 93
        4
 10
22711.56186579095
 20
-7920.271596672746
 10
22698.5618657913
 20
-7920.271596672746
 10
22698.56186579363
 20
-8752.277325526782
 10
22711.56186579399
 20
-8752.277325526724
 97
        0
 75
     0
 76
     2
 52
0.0
 41
1.0
 77
     0
 78
     2
 53
0.0
 43
0.0
 44
0.0
 45
0.0
 46
70.0
 79
     2
 49
0.0
 49
-70.0
 53
0.0
 43
35.0
 44
35.0
 45
0.0
 46
70.0
 79
     2
 49
0.0
 49
-70.0
 98
        0
1001
ACAD
1010
0.0
1020
0.0
1030
0.0
  0
LWPOLYLINE
  5
241
330
1F
100
AcDbEntity
  8
Ech.1_5
  6
Continuous
 62
   190
370
    15
390
5F
100
AcDbPolyline
 90
        5
 70
     0
 43
0.0
 10
22711.56186579095
 20
-7920.271596672746
 10
22698.5618657913
 20
-7920.271596672746
 10
22698.56186579363
 20
-8752.277325526782
 10
22711.56186579399
 20
-8752.277325526724
 10
22711.56186579095
 20
-7920.271596672746
  0
HATCH
  5
242
330
1F
100
AcDbEntity
  8
Ech.1_5
  6
Continuous
 62
   254
420
 14407639
440
 33554687
370
     5
390
5F
100
AcDbHatch
 10
0.0
 20
0.0
 30
0.0
210
0.0
220
0.0
230
1.0
  2
SOLID
 70
     1
 71
     0
 91
        1
 92
        3
 72
     0
 73
     1
 93
        4
 10
22698.56209467401
 20
-8752.277325526607
 10
22698.56163691326
 20
-8765.277325518575
 10
23585.5572039883
 20
-8765.297157851892
 10
23585.55772976414
 20
-8752.297157861089
 97
        0
 75
     0
 76
     1
 98
        0
  0
HATCH
  5
243
330
1F
100
AcDbEntity
  8
Ech.1_5
  6
Continuous
 62
   190
440
 33554687
370
    15
390
23E
100
AcDbHatch
 10
0.0
 20
0.0
 30
0.0
210
0.0
220
0.0
230
1.0
  2
CwHatchPattern_84
 70
     0
 71
     0
 91
        1
 92
        3
 72
     0
 73
     1
 93
        4
 10
22698.56209467401
 20
-8752.277325526607
 10
22698.56163691326
 20
-8765.277325518575
 10
23585.5572039883
 20
-8765.297157851892
 10
23585.55772976414
 20
-8752.297157861089
 97
        0
 75
     0
 76
     2
 52
0.0
 41
1.0
 77
     0
 78
     2
 53
0.0
 43
0.0
 44
0.0
 45
0.0
 46
70.0
 79
     2
 49
0.0
 49
-70.0
 53
0.0
 43
35.0
 44
35.0
 45
0.0
 46
70.0
 79
     2
 49
0.0
 49
-70.0
 98
        0
1001
ACAD
1010
0.0
1020
0.0
1030
0.0
  0
LWPOLYLINE
  5
244
330
1F
100
AcDbEntity
  8
Ech.1_5
  6
Continuous
 62
   190
370
    15
390
5F
100
AcDbPolyline
 90
        5
 70
     0
 43
0.0
 10
22698.56209467401
 20
-8752.277325526607
 10
22698.56163691326
 20
-8765.277325518575
 10
23585.5572039883
 20
-8765.297157851892
 10
23585.55772976414
 20
-8752.297157861089
 10
22698.56209467401
 20
-8752.277325526607
  0
HATCH
  5
245
330
1F
100
AcDbEntity
  8
Ech.1_5
  6
Continuous
 62
   254
420
 15656413
440
 33554687
370
    20
390
5F
100
AcDbHatch
 10
0.0
 20
0.0
 30
0.0
210
0.0
220
0.0
230
1.0
  2
SOLID
 70
     1
 71
     0
 91
        1
 92
        3
 72
     0
 73
     1
 93
        4
 10
22711.56186579391
 20
-8752.277325526724
 10
22751.56186579427
 20
-8752.277325526491
 10
22751.56186579131
 20
-7920.271596672687
 10
22711.56186579095
 20
-7920.271596672746
 97
        0
 75
     0
 76
     1
 98
        0
  0
LWPOLYLINE
  5
246
330
1F
100
AcDbEntity
  8
Ech.1_5
  6
Continuous
 62
   190
370
    15
390
5F
100
AcDbPolyline
 90
        5
 70
     0
 43
0.0
 10
22711.56186579391
 20
-8752.277325526724
 10
22751.56186579427
 20
-8752.277325526491
 10
22751.56186579131
 20
-7920.271596672687
 10
22711.56186579095
 20
-7920.271596672746
 10
22711.56186579391
 20
-8752.277325526724
  0
HATCH
  5
247
330
1F
100
AcDbEntity
  8
Ech.1_5
  6
Continuous
 62
   254
420
 15656413
440
 33554687
370
    20
390
5F
100
AcDbHatch
 10
0.0
 20
0.0
 30
0.0
210
0.0
220
0.0
230
1.0
  2
SOLID
 70
     1
 71
     0
 91
        1
 92
        3
 72
     0
 73
     1
 93
        4
 10
22751.56257004369
 20
-8712.276867790642
 10
22751.56116154916
 20
-8752.276867766195
 10
23585.55752681943
 20
-8752.296945052949
 10
23585.55914459123
 20
-8712.296945082344
 97
        0
 75
     0
 76
     1
 98
        0
  0
LWPOLYLINE
  5
248
330
1F
100
AcDbEntity
  8
Ech.1_5
  6
Continuous
 62
   190
370
    15
390
5F
100
AcDbPolyline
 90
        5
 70
     0
 43
0.0
 10
22751.56257004369
 20
-8712.276867790642
 10
22751.56116154916
 20
-8752.276867766195
 10
23585.55752681943
 20
-8752.296945052949
 10
23585.55914459123
 20
-8712.296945082344
 10
22751.56257004369
 20
-8712.276867790642
  0
HATCH
  5
249
330
1F
100
AcDbEntity
  8
Ech.1_5
  6
Continuous
 62
    40
420
 16297258
440
 33554687
370
     5
390
5F
100
AcDbHatch
 10
0.0
 20
0.0
 30
0.0
210
0.0
220
0.0
230
1.0
  2
SOLID
 70
     1
 71
     0
 91
        1
 92
        3
 72
     0
 73
     1
 93
        4
 10
22905.56186579131
 20
-7920.272098270279
 10
22896.56186579131
 20
-7920.272098270395
 10
22896.56186579545
 20
-8712.275459296274
 10
22905.56186579545
 20
-8712.275459296216
 97
        0
 75
     0
 76
     1
 98
        0
  0
HATCH
  5
24A
330
1F
100
AcDbEntity
  8
Ech.1_5
  6
Continuous
 62
   190
440
 33554687
370
    15
390
5F
100
AcDbHatch
 10
0.0
 20
0.0
 30
0.0
210
0.0
220
0.0
230
1.0
  2
CwHatchPattern_74
 70
     0
 71
     0
 91
        1
 92
        3
 72
     0
 73
     1
 93
        4
 10
22905.56186579131
 20
-7920.272098270279
 10
22896.56186579131
 20
-7920.272098270395
 10
22896.56186579545
 20
-8712.275459296274
 10
22905.56186579545
 20
-8712.275459296216
 97
        0
 75
     0
 76
     2
 52
0.0
 41
0.6000000238418579
 77
     0
 78
     3
 53
45.00000000000297
 43
0.0
 44
0.0
 45
-0.0000000000043443
 46
42.00000166893005
 79
     0
 53
45.00000000000297
 43
0.0
 44
10.80000042915344
 45
-0.0000000000043443
 46
42.00000166893005
 79
     0
 53
45.00000000000297
 43
0.0
 44
21.60000085830688
 45
-0.0000000000043443
 46
42.00000166893005
 79
     0
 98
        0
1001
ACAD
1010
0.0
1020
0.0
1030
0.0
  0
LWPOLYLINE
  5
24B
330
1F
100
AcDbEntity
  8
Ech.1_5
  6
Continuous
 62
   190
370
    15
390
5F
100
AcDbPolyline
 90
        5
 70
     0
 43
0.0
 10
22905.56186579131
 20
-7920.272098270279
 10
22896.56186579131
 20
-7920.272098270395
 10
22896.56186579545
 20
-8712.275459296274
 10
22905.56186579545
 20
-8712.275459296216
 10
22905.56186579131
 20
-7920.272098270279
  0
HATCH
  5
24C
330
1F
100
AcDbEntity
  8
Ech.1_5
  6
Continuous
 62
    40
420
 16297258
440
 33554687
370
     5
390
5F
100
AcDbHatch
 10
0.0
 20
0.0
 30
0.0
210
0.0
220
0.0
230
1.0
  2
SOLID
 70
     1
 71
     0
 91
        1
 92
        3
 72
     0
 73
     1
 93
        4
 10
22905.56228834309
 20
-8558.275459303666
 10
22905.56186579469
 20
-8567.275459296274
 10
23585.56517854344
 20
-8567.30052527212
 10
23585.56557176509
 20
-8558.300525278464
 97
        0
 75
     0
 76
     1
 98
        0
  0
HATCH
  5
24D
330
1F
100
AcDbEntity
  8
Ech.1_5
  6
Continuous
 62
   190
440
 33554687
370
    15
390
5F
100
AcDbHatch
 10
0.0
 20
0.0
 30
0.0
210
0.0
220
0.0
230
1.0
  2
CwHatchPattern_74
 70
     0
 71
     0
 91
        1
 92
        3
 72
     0
 73
     1
 93
        4
 10
22905.56228834309
 20
-8558.275459303666
 10
22905.56186579469
 20
-8567.275459296274
 10
23585.56517854344
 20
-8567.30052527212
 10
23585.56557176509
 20
-8558.300525278464
 97
        0
 75
     0
 76
     2
 52
0.0
 41
0.6000000238418579
 77
     0
 78
     3
 53
45.00000000000297
 43
0.0
 44
0.0
 45
-0.0000000000043443
 46
42.00000166893005
 79
     0
 53
45.00000000000297
 43
0.0
 44
10.80000042915344
 45
-0.0000000000043443
 46
42.00000166893005
 79
     0
 53
45.00000000000297
 43
0.0
 44
21.60000085830688
 45
-0.0000000000043443
 46
42.00000166893005
 79
     0
 98
        0
1001
ACAD
1010
0.0
1020
0.0
1030
0.0
  0
LWPOLYLINE
  5
24E
330
1F
100
AcDbEntity
  8
Ech.1_5
  6
Continuous
 62
   190
370
    15
390
5F
100
AcDbPolyline
 90
        5
 70
     0
 43
0.0
 10
22905.56228834309
 20
-8558.275459303666
 10
22905.56186579469
 20
-8567.275459296274
 10
23585.56517854344
 20
-8567.30052527212
 10
23585.56557176509
 20
-8558.300525278464
 10
22905.56228834309
 20
-8558.275459303666
  0
LWPOLYLINE
  5
24F
330
1F
100
AcDbEntity
  8
Ech.1_5
  6
Continuous
 62
     5
370
    40
390
5F
100
AcDbPolyline
 90
        5
 70
     0
 43
0.0
 10
23445.86808930956
 20
-8712.291667766898
 10
23445.87319510255
 20
-8567.29166785677
 10
23490.87319507465
 20
-8567.293252413248
 10
23490.86808928166
 20
-8712.293252323318
 10
23445.86808930956
 20
-8712.291667766898
  0
LWPOLYLINE
  5
250
330
1F
100
AcDbEntity
  8
Ech.1_5
  6
Continuous
 62
   190
370
    15
390
5F
100
AcDbPolyline
 90
        4
 70
     0
 43
0.0
 10
23490.87319507465
 20
-8567.293252413248
 10
23445.86808930948
 20
-8712.291667766898
 10
23490.86808928166
 20
-8712.293252323318
 10
23445.87319510255
 20
-8567.29166785677
  0
LWPOLYLINE
  5
251
330
1F
100
AcDbEntity
  8
Ech.1_5
  6
Continuous
 62
     5
370
    40
390
5F
100
AcDbPolyline
 90
        5
 70
     0
 43
0.0
 10
22950.56186579469
 20
-8567.275459295925
 10
22950.56186579566
 20
-8712.275459295925
 10
22905.56186579566
 20
-8712.275459296274
 10
22905.56186579469
 20
-8567.275459296274
 10
22950.56186579469
 20
-8567.275459295925
  0
LWPOLYLINE
  5
252
330
1F
100
AcDbEntity
  8
Ech.1_5
  6
Continuous
 62
   190
370
    15
390
5F
100
AcDbPolyline
 90
        4
 70
     0
 43
0.0
 10
22905.5550759306
 20
-8712.283112475503
 10
22950.56186579477
 20
-8567.275459295925
 10
22905.56186579469
 20
-8567.275459296274
 10
22950.56186579566
 20
-8712.275459295925
  0
LWPOLYLINE
  5
253
330
1F
100
AcDbEntity
  8
Ech.1_5
  6
Continuous
 62
     5
370
    40
390
5F
100
AcDbPolyline
 90
        5
 70
     0
 43
0.0
 10
22751.56186579495
 20
-8442.275459297263
 10
22896.56186579495
 20
-8442.275459296274
 10
22896.56186579524
 20
-8487.275459296274
 10
22751.56186579524
 20
-8487.275459297263
 10
22751.56186579495
 20
-8442.275459297263
  0
LWPOLYLINE
  5
254
330
1F
100
AcDbEntity
  8
Ech.1_5
  6
Continuous
 62
   190
370
    15
390
5F
100
AcDbPolyline
 90
        4
 70
     0
 43
0.0
 10
22896.56186579524
 20
-8487.275459296274
 10
22751.56186579495
 20
-8442.275459297147
 10
22751.56186579524
 20
-8487.275459297263
 10
22896.56186579495
 20
-8442.275459296274
  0
HATCH
  5
255
330
1F
100
AcDbEntity
  8
Ech.1_5
  6
Continuous
 62
   254
420
 15656413
440
 33554687
370
    20
390
5F
100
AcDbHatch
 10
0.0
 20
0.0
 30
0.0
210
0.0
220
0.0
230
1.0
  2
SOLID
 70
     1
 71
     0
 91
        1
 92
        3
 72
     0
 73
     1
 93
        4
 10
22965.56253586121
 20
-8398.235360636347
 10
22965.56253586171
 20
-8473.240635428781
 10
22990.56517353569
 20
-8473.240635428607
 10
22990.56517353519
 20
-8398.235360636172
 97
        0
 75
     0
 76
     1
 98
        0
  0
LWPOLYLINE
  5
256
330
1F
100
AcDbEntity
  8
Ech.1_5
  6
Continuous
 62
   190
370
    15
390
5F
100
AcDbPolyline
 90
        5
 70
     0
 43
0.0
 10
22965.56253586121
 20
-8398.235360636347
 10
22965.56253586171
 20
-8473.240635428781
 10
22990.56517353569
 20
-8473.240635428607
 10
22990.56517353519
 20
-8398.235360636172
 10
22965.56253586121
 20
-8398.235360636347
  0
LWPOLYLINE
  5
257
330
1F
100
AcDbEntity
  8
Ech.1_5
  6
Continuous
 62
     5
370
    40
390
5F
100
AcDbPolyline
 90
        5
 70
     0
 43
0.0
 10
22965.56253586121
 20
-8398.235360636347
 10
22990.56517353519
 20
-8398.235360636172
 10
22990.56517353569
 20
-8473.240635428607
 10
22965.56253586171
 20
-8473.240635428781
 10
22965.56253586121
 20
-8398.235360636347
  0
LWPOLYLINE
  5
258
330
1F
100
AcDbEntity
  8
Ech.1_5
  6
Continuous
 62
   190
370
    15
390
5F
100
AcDbPolyline
 90
        4
 70
     0
 43
0.0
 10
22990.56517353569
 20
-8473.240635428607
 10
22965.56253586121
 20
-8398.235360636347
 10
22990.56517353521
 20
-8398.235360636172
 10
22965.56253586171
 20
-8473.240635428781
  0
HATCH
  5
259
330
1F
100
AcDbEntity
  8
Ech.1_5
  6
Continuous
 62
   254
420
 15656413
440
 33554687
370
    20
390
5F
100
AcDbHatch
 10
0.0
 20
0.0
 30
0.0
210
0.0
220
0.0
230
1.0
  2
SOLID
 70
     1
 71
     0
 91
        1
 92
        3
 72
     0
 73
     1
 93
        4
 10
22965.56186579502
 20
-8498.269929905626
 10
23040.56714054096
 20
-8498.27257101881
 10
23040.56802094298
 20
-8473.269933360309
 10
22965.56274619704
 20
-8473.267292247183
 97
        0
 75
     0
 76
     1
 98
        0
  0
LWPOLYLINE
  5
25A
330
1F
100
AcDbEntity
  8
Ech.1_5
  6
Continuous
 62
   190
370
    15
390
5F
100
AcDbPolyline
 90
        5
 70
     0
 43
0.0
 10
22965.56186579502
 20
-8498.269929905626
 10
23040.56714054096
 20
-8498.27257101881
 10
23040.56802094298
 20
-8473.269933360309
 10
22965.56274619704
 20
-8473.267292247183
 10
22965.56186579502
 20
-8498.269929905626
  0
LWPOLYLINE
  5
25B
330
1F
100
AcDbEntity
  8
Ech.1_5
  6
Continuous
 62
     5
370
    40
390
5F
100
AcDbPolyline
 90
        5
 70
     0
 43
0.0
 10
22965.56186579502
 20
-8498.269929905626
 10
22965.56274619704
 20
-8473.267292247183
 10
23040.56802094298
 20
-8473.269933360309
 10
23040.56714054096
 20
-8498.27257101881
 10
22965.56186579502
 20
-8498.269929905626
  0
LWPOLYLINE
  5
25C
330
1F
100
AcDbEntity
  8
Ech.1_5
  6
Continuous
 62
   190
370
    15
390
5F
100
AcDbPolyline
 90
        4
 70
     0
 43
0.0
 10
23040.56802094298
 20
-8473.269933360309
 10
22965.56186579502
 20
-8498.269929905626
 10
22965.56274619704
 20
-8473.267292247125
 10
23040.56714054096
 20
-8498.27257101881
  0
LWPOLYLINE
  5
25D
330
1F
100
AcDbEntity
  8
Ech.1_5
  6
Continuous
 62
     5
370
    40
390
5F
100
AcDbPolyline
 90
        5
 70
     0
 43
0.0
 10
22751.56186579187
 20
-8014.9637441001
 10
22896.56186579187
 20
-8014.963744099111
 10
22896.56186579217
 20
-8059.963744099111
 10
22751.56186579217
 20
-8059.9637441001
 10
22751.56186579187
 20
-8014.9637441001
  0
LWPOLYLINE
  5
25E
330
1F
100
AcDbEntity
  8
Ech.1_5
  6
Continuous
 62
   190
370
    15
390
5F
100
AcDbPolyline
 90
        4
 70
     0
 43
0.0
 10
22896.56186579217
 20
-8059.963744099111
 10
22751.56186579187
 20
-8014.963744099984
 10
22751.56186579217
 20
-8059.9637441001
 10
22896.56186579187
 20
-8014.963744099111
  0
LWPOLYLINE
  5
25F
330
1F
100
AcDbEntity
  8
Ech.1_5
  6
Continuous
 62
   190
370
    15
390
5F
100
AcDbPolyline
 90
        6
 70
     0
 43
0.0
 10
23031.44862295528
 20
-7920.272098269813
 10
22831.35773934709
 20
-7920.272098271093
 10
22814.87223619133
 20
-7938.249446678649
 10
22828.98217620883
 20
-7902.293746666725
 10
22812.49582212748
 20
-7920.272098271268
 10
22679.49582212748
 20
-7920.272098271676
  0
LWPOLYLINE
  5
260
330
1F
100
AcDbEntity
  8
Ech.1_5
  6
Continuous
 62
     5
370
    40
390
5F
100
AcDbPolyline
 90
        5
 70
     0
 43
0.0
 10
22751.56186579151
 20
-8667.275459297263
 10
22896.56186579151
 20
-8667.275459296274
 10
22896.56186579181
 20
-8712.275459296274
 10
22751.56186579181
 20
-8712.275459297263
 10
22751.56186579151
 20
-8667.275459297263
  0
LWPOLYLINE
  5
261
330
1F
100
AcDbEntity
  8
Ech.1_5
  6
Continuous
 62
   190
370
    15
390
5F
100
AcDbPolyline
 90
        4
 70
     0
 43
0.0
 10
22896.56186579181
 20
-8712.275459296274
 10
22751.56186579151
 20
-8667.275459297147
 10
22751.56186579181
 20
-8712.275459297263
 10
22896.56186579151
 20
-8667.275459296274
  0
LWPOLYLINE
  5
262
330
1F
100
AcDbEntity
  8
Ech.1_5
  6
Continuous
 62
     5
370
    40
390
5F
100
AcDbPolyline
 90
        5
 70
     0
 43
0.0
 10
22896.56186579516
 20
-8487.275459296274
 10
22896.56186579613
 20
-8667.275459296274
 10
22851.56186579613
 20
-8667.275459296565
 10
22851.56186579516
 20
-8487.275459296565
 10
22896.56186579516
 20
-8487.275459296274
  0
LWPOLYLINE
  5
263
330
1F
100
AcDbEntity
  8
Ech.1_5
  6
Continuous
 62
   190
370
    15
390
5F
100
AcDbPolyline
 90
        4
 70
     0
 43
0.0
 10
22851.56186579632
 20
-8667.275459296507
 10
22896.56186579524
 20
-8487.275459296274
 10
22851.56186579516
 20
-8487.275459296565
 10
22896.56186579151
 20
-8667.275459296274
  0
LWPOLYLINE
  5
264
330
1F
100
AcDbEntity
  8
Ech.1_5
  6
Continuous
 62
   190
370
    15
390
5F
100
AcDbPolyline
 90
        6
 70
     0
 43
0.0
 10
23585.56884655308
 20
-8433.593361165666
 10
23585.5630356109
 20
-8590.340877788112
 10
23603.53980351358
 20
-8606.82701395874
 10
23567.58460036843
 20
-8592.715807864413
 10
23585.56237143819
 20
-8609.202794996003
 10
23585.55660114787
 20
-8785.202794901415
  0
LWPOLYLINE
  5
266
330
1F
100
AcDbEntity
  8
Ech.1_5
  6
CADWORK_22
 62
     1
 48
0.6
370
    35
390
5F
100
AcDbPolyline
 90
        5
 70
   128
 43
0.0
 10
23585.55914459123
 20
-8713.796945082344
 10
22873.31713766088
 20
-8713.796945082344
 10
22845.4871761709
 20
-8721.112377035868
 10
22744.41239174486
 20
-8721.112377035868
 10
22744.41239174486
 20
-8692.338162891538
  0
LWPOLYLINE
  5
267
330
1F
100
AcDbEntity
  8
Ech.1_5
 62
     3
370
    70
390
5F
100
AcDbPolyline
 90
        4
 70
     0
 43
0.0
 10
22744.84164355339
 20
-8671.32017838434
 10
22744.84164355339
 20
-8684.30931180439
 10
22739.16103059139
 20
-8688.244043945306
 10
22739.16103059139
 20
-8701.722473946196
  0
LWPOLYLINE
  5
268
330
1F
100
AcDbEntity
  8
Ech.1_5
  6
CADWORK_22
 62
     1
 48
0.6
370
    35
390
5F
100
AcDbPolyline
 90
        3
 70
   128
 43
0.0
 10
22750.06186579013
 20
-7921.772098271443
 10
22750.06186579013
 20
-8713.776867790642
 10
22848.06186579818
 20
-8713.776867790642
  0
LWPOLYLINE
  5
269
330
1F
100
AcDbEntity
  8
Ech.1_5
  6
Continuous
 62
   190
370
    15
390
5F
100
AcDbPolyline
 90
      136
 70
     0
 43
0.0
 10
22905.56228834309
 20
-8548.27611931719
 42
1.140281805120597
 10
22925.22024750688
 20
-8545.688093862904
 10
22915.90234913868
 20
-8510.86678482566
 42
-1.303226186855451
 10
22935.21958749335
 20
-8510.86678482566
 10
22925.90168912514
 20
-8545.688093862904
 42
1.303226186855451
 10
22945.21892747981
 20
-8545.688093862904
 10
22935.90102911161
 20
-8510.86678482566
 42
-1.303226186855451
 10
22955.21826746627
 20
-8510.86678482566
 10
22945.90036909807
 20
-8545.688093862904
 42
1.303226186855451
 10
22965.21760745273
 20
-8545.688093862904
 10
22955.89970908453
 20
-8510.86678482566
 42
-1.303226186855451
 10
22975.21694743919
 20
-8510.86678482566
 10
22965.89904907099
 20
-8545.688093862904
 42
1.303226186855451
 10
22985.21628742565
 20
-8545.688093862904
 10
22975.89838905745
 20
-8510.86678482566
 42
-1.303226186855451
 10
22995.21562741212
 20
-8510.86678482566
 10
22985.89772904391
 20
-8545.688093862904
 42
1.303226186855451
 10
23005.21496739858
 20
-8545.688093862904
 10
22995.89706903038
 20
-8510.86678482566
 42
-1.303226186855451
 10
23015.21430738504
 20
-8510.86678482566
 10
23005.89640901684
 20
-8545.688093862904
 42
1.303226186855451
 10
23025.2136473715
 20
-8545.688093862904
 10
23015.8957490033
 20
-8510.86678482566
 42
-1.303226186855451
 10
23035.21298735796
 20
-8510.86678482566
 10
23025.89508898976
 20
-8545.688093862904
 42
1.303226186855451
 10
23045.21232734442
 20
-8545.688093862904
 10
23035.89442897622
 20
-8510.86678482566
 42
-1.303226186855451
 10
23055.21166733088
 20
-8510.86678482566
 10
23045.89376896268
 20
-8545.688093862904
 42
1.303226186855451
 10
23065.21100731735
 20
-8545.688093862904
 10
23055.89310894915
 20
-8510.86678482566
 42
-1.303226186855451
 10
23075.21034730381
 20
-8510.86678482566
 10
23065.89244893561
 20
-8545.688093862904
 42
1.303226186855451
 10
23085.20968729027
 20
-8545.688093862904
 10
23075.89178892207
 20
-8510.86678482566
 42
-1.303226186855451
 10
23095.20902727673
 20
-8510.86678482566
 10
23085.89112890853
 20
-8545.688093862904
 42
1.303226186855451
 10
23105.20836726319
 20
-8545.688093862904
 10
23095.89046889499
 20
-8510.86678482566
 42
-1.303226186855451
 10
23115.20770724965
 20
-8510.86678482566
 10
23105.88980888145
 20
-8545.688093862904
 42
1.303226186855451
 10
23125.20704723612
 20
-8545.688093862904
 10
23115.88914886791
 20
-8510.86678482566
 42
-1.303226186855451
 10
23135.20638722258
 20
-8510.86678482566
 10
23125.88848885438
 20
-8545.688093862904
 42
1.303226186855451
 10
23145.20572720904
 20
-8545.688093862904
 10
23135.88782884084
 20
-8510.86678482566
 42
-1.303226186855451
 10
23155.2050671955
 20
-8510.86678482566
 10
23145.8871688273
 20
-8545.688093862904
 42
1.303226186855451
 10
23165.20440718196
 20
-8545.688093862904
 10
23155.88650881376
 20
-8510.86678482566
 42
-1.303226186855451
 10
23175.20374716842
 20
-8510.86678482566
 10
23165.88584880022
 20
-8545.688093862904
 42
1.303226186855451
 10
23185.20308715488
 20
-8545.688093862904
 10
23175.88518878668
 20
-8510.86678482566
 42
-1.303226186855451
 10
23195.20242714135
 20
-8510.86678482566
 10
23185.88452877315
 20
-8545.688093862904
 42
1.303226186856958
 10
23205.20176712781
 20
-8545.688093862875
 10
23195.88386875961
 20
-8510.86678482566
 42
-1.303226186855451
 10
23215.20110711427
 20
-8510.86678482566
 10
23205.88320874607
 20
-8545.688093862875
 42
1.303226186858464
 10
23225.20044710073
 20
-8545.688093862875
 10
23215.88254873253
 20
-8510.86678482566
 42
-1.303226186855451
 10
23235.19978708719
 20
-8510.86678482566
 10
23225.88188871899
 20
-8545.688093862875
 42
1.303226186858464
 10
23245.19912707365
 20
-8545.688093862875
 10
23235.88122870545
 20
-8510.86678482566
 42
-1.303226186855451
 10
23255.19846706012
 20
-8510.86678482566
 10
23245.88056869191
 20
-8545.688093862875
 42
1.303226186858464
 10
23265.19780704658
 20
-8545.688093862875
 10
23255.87990867838
 20
-8510.86678482566
 42
-1.303226186855451
 10
23275.19714703304
 20
-8510.86678482566
 10
23265.87924866484
 20
-8545.688093862875
 42
1.303226186858464
 10
23285.1964870195
 20
-8545.688093862875
 10
23275.8785886513
 20
-8510.86678482566
 42
-1.303226186855451
 10
23295.19582700596
 20
-8510.86678482566
 10
23285.87792863776
 20
-8545.688093862875
 42
1.303226186858464
 10
23305.19516699242
 20
-8545.688093862875
 10
23295.87726862422
 20
-8510.86678482566
 42
-1.303226186858464
 10
23315.19450697889
 20
-8510.86678482566
 10
23305.87660861068
 20
-8545.688093862875
 42
1.303226186858464
 10
23325.19384696535
 20
-8545.688093862875
 10
23315.87594859715
 20
-8510.86678482566
 42
-1.303226186858464
 10
23335.19318695181
 20
-8510.86678482566
 10
23325.87528858361
 20
-8545.688093862875
 42
1.303226186858464
 10
23345.19252693827
 20
-8545.688093862875
 10
23335.87462857007
 20
-8510.86678482566
 42
-1.303226186858464
 10
23355.19186692473
 20
-8510.86678482566
 10
23345.87396855653
 20
-8545.688093862875
 42
1.303226186858464
 10
23365.19120691119
 20
-8545.688093862875
 10
23355.87330854299
 20
-8510.86678482566
 42
-1.303226186858464
 10
23375.19054689765
 20
-8510.86678482566
 10
23365.87264852945
 20
-8545.688093862875
 42
1.303226186858464
 10
23385.18988688412
 20
-8545.688093862875
 10
23375.87198851592
 20
-8510.86678482566
 42
-1.303226186858464
 10
23395.18922687058
 20
-8510.86678482566
 10
23385.87132850238
 20
-8545.688093862875
 42
1.303226186858464
 10
23405.18856685704
 20
-8545.688093862875
 10
23395.87066848884
 20
-8510.86678482566
 42
-1.303226186858464
 10
23415.1879068435
 20
-8510.86678482566
 10
23405.8700084753
 20
-8545.688093862875
 42
1.303226186858464
 10
23425.18724682996
 20
-8545.688093862875
 10
23415.86934846176
 20
-8510.86678482566
 42
-1.303226186858464
 10
23435.18658681642
 20
-8510.86678482566
 10
23425.86868844822
 20
-8545.688093862875
 42
1.303226186858464
 10
23445.18592680289
 20
-8545.688093862875
 10
23435.86802843468
 20
-8510.86678482566
 42
-1.303226186858464
 10
23455.18526678935
 20
-8510.86678482566
 10
23445.86736842115
 20
-8545.688093862875
 42
1.303226186858464
 10
23465.18460677581
 20
-8545.688093862875
 10
23455.86670840761
 20
-8510.86678482566
 42
-1.303226186858464
 10
23475.18394676227
 20
-8510.86678482566
 10
23465.86604839407
 20
-8545.688093862875
 42
1.303226186858464
 10
23485.18328674873
 20
-8545.688093862875
 10
23475.86538838053
 20
-8510.86678482566
 42
-1.303226186858464
 10
23495.18262673519
 20
-8510.86678482566
 10
23485.86472836699
 20
-8545.688093862875
 42
1.303226186858464
 10
23505.18196672166
 20
-8545.688093862875
 10
23495.86406835345
 20
-8510.86678482566
 42
-1.303226186858464
 10
23515.18130670812
 20
-8510.86678482566
 10
23505.86340833992
 20
-8545.688093862875
 42
1.303226186858464
 10
23525.18064669458
 20
-8545.688093862875
 10
23515.86274832638
 20
-8510.86678482566
 42
-1.303226186858464
 10
23535.17998668104
 20
-8510.86678482566
 10
23525.86208831284
 20
-8545.688093862875
 42
1.303226186858464
 10
23545.1793266675
 20
-8545.688093862875
 10
23535.8614282993
 20
-8510.86678482566
 42
-1.303226186858464
 10
23555.17866665396
 20
-8510.86678482566
 10
23545.86076828576
 20
-8545.688093862875
 42
1.303226186858464
 10
23565.17800664042
 20
-8545.688093862875
 10
23555.86010827222
 20
-8510.86678482566
 42
-1.303226186858464
 10
23575.17734662689
 20
-8510.86678482566
 10
23565.85944825869
 20
-8545.688093862875
 42
1.303226186858464
 10
23585.17668661335
 20
-8545.688093862875
 10
23575.85878824515
 20
-8510.86678482566
 42
-0.4946435476584006
 10
23585.56557176509
 20
-8498.279535383423
  0
HATCH
  5
26A
330
1F
100
AcDbEntity
  8
Ech.1_5
  6
Continuous
 62
   254
420
 16643007
440
 33554687
370
    20
390
5F
100
AcDbHatch
 10
0.0
 20
0.0
 30
0.0
210
0.0
220
0.0
230
1.0
  2
SOLID
 70
     1
 71
     0
 91
        1
 92
        3
 72
     0
 73
     1
 93
        4
 10
22965.55796654172
 20
-7920.272098270279
 10
22905.56192662296
 20
-7920.272098270279
 10
22905.56192662296
 20
-8498.279419384868
 10
22965.55796654171
 20
-8498.279398112209
 97
        0
 75
     0
 76
     1
 98
        0
  0
LWPOLYLINE
  5
26B
330
1F
100
AcDbEntity
  8
Ech.1_5
  6
Continuous
 62
   190
370
    15
390
5F
100
AcDbPolyline
 90
        5
 70
     0
 43
0.0
 10
22965.55796654172
 20
-7920.272098270279
 10
22905.56192662296
 20
-7920.272098270279
 10
22905.56192662296
 20
-8498.279419384868
 10
22965.55796654171
 20
-8498.279398112209
 10
22965.55796654172
 20
-7920.272098270279
  0
LWPOLYLINE
  5
26C
330
1F
100
AcDbEntity
  8
Ech.1_5
  6
Continuous
 62
   190
370
    15
390
5F
100
AcDbPolyline
 90
      114
 70
     0
 43
0.0
 10
22915.56126660942
 20
-7920.272098270279
 42
1.140281805119342
 10
22918.14929206372
 20
-7939.930057434079
 10
22952.97060110095
 20
-7930.612159065878
 42
-1.303226186856433
 10
22952.97060110095
 20
-7949.929397420526
 10
22918.14929206372
 20
-7940.611499052325
 42
1.303226186854469
 10
22918.14929206372
 20
-7959.928737407002
 10
22952.97060110095
 20
-7950.610839038772
 42
-1.303226186854469
 10
22952.97060110095
 20
-7969.928077393449
 10
22918.14929206372
 20
-7960.610179025248
 42
1.303226186856432
 10
22918.14929206372
 20
-7979.927417379896
 10
22952.97060110095
 20
-7970.609519011724
 42
-1.303226186856433
 10
22952.97060110095
 20
-7989.926757366372
 10
22918.14929206372
 20
-7980.608858998171
 42
1.303226186854469
 10
22918.14929206372
 20
-7999.926097352848
 10
22952.97060110095
 20
-7990.608198984618
 42
-1.303226186854469
 10
22952.97060110095
 20
-8009.925437339295
 10
22918.14929206372
 20
-8000.607538971094
 42
1.303226186856432
 10
22918.14929206372
 20
-8019.924777325742
 10
22952.97060110095
 20
-8010.60687895757
 42
-1.303226186856433
 10
22952.97060110095
 20
-8029.924117312218
 10
22918.14929206372
 20
-8020.606218943988
 42
1.303226186854469
 10
22918.14929206372
 20
-8039.923457298665
 10
22952.97060110095
 20
-8030.605558930464
 42
-1.303226186856433
 10
22952.97060110095
 20
-8049.922797285112
 10
22918.14929206372
 20
-8040.60489891694
 42
1.303226186856432
 10
22918.14929206372
 20
-8059.922137271588
 10
22952.97060110095
 20
-8050.604238903387
 42
-1.303226186854469
 10
22952.97060110095
 20
-8069.921477258064
 10
22918.14929206372
 20
-8060.603578889834
 42
1.303226186854469
 10
22918.14929206372
 20
-8079.920817244511
 10
22952.97060110095
 20
-8070.60291887631
 42
-1.303226186856433
 10
22952.97060110095
 20
-8089.920157230958
 10
22918.14929206372
 20
-8080.602258862787
 42
1.303226186856432
 10
22918.14929206372
 20
-8099.919497217435
 10
22952.97060110095
 20
-8090.601598849234
 42
-1.303226186854469
 10
22952.97060110095
 20
-8109.918837203911
 10
22918.14929206372
 20
-8100.600938835681
 42
1.303226186856432
 10
22918.14929206372
 20
-8119.918177190329
 10
22952.97060110095
 20
-8110.600278822157
 42
-1.303226186856433
 10
22952.97060110095
 20
-8129.917517176805
 10
22918.14929206372
 20
-8120.599618808604
 42
1.303226186854469
 10
22918.14929206372
 20
-8139.916857163281
 10
22952.97060110095
 20
-8130.598958795051
 42
-1.303226186854469
 10
22952.97060110095
 20
-8149.916197149728
 10
22918.14929206372
 20
-8140.598298781527
 42
1.303226186856432
 10
22918.14929206372
 20
-8159.915537136175
 10
22952.97060110095
 20
-8150.597638768003
 42
-1.303226186856433
 10
22952.97060110095
 20
-8169.914877122651
 10
22918.14929206372
 20
-8160.59697875445
 42
1.303226186854469
 10
22918.14929206372
 20
-8179.914217109127
 10
22952.97060110095
 20
-8170.596318740897
 42
-1.303226186854469
 10
22952.97060110095
 20
-8189.913557095574
 10
22918.14929206372
 20
-8180.595658727373
 42
1.303226186856739
 10
22918.14929206372
 20
-8199.912897082017
 10
22952.97060110095
 20
-8190.59499871382
 42
-1.303226186854776
 10
22952.97060110095
 20
-8209.912237068493
 10
22918.14929206372
 20
-8200.594338700263
 42
1.303226186854469
 10
22918.14929206372
 20
-8219.91157705494
 10
22952.97060110095
 20
-8210.593678686739
 42
-1.303226186856433
 10
22952.97060110095
 20
-8229.910917041387
 10
22918.14929206372
 20
-8220.593018673215
 42
1.303226186856432
 10
22918.14929206372
 20
-8239.910257027863
 10
22952.97060110095
 20
-8230.592358659662
 42
-1.303226186854469
 10
22952.97060110095
 20
-8249.909597014339
 10
22918.14929206372
 20
-8240.591698646109
 42
1.303226186854469
 10
22918.14929206372
 20
-8259.908937000786
 10
22952.97060110095
 20
-8250.591038632585
 42
-1.303226186856433
 10
22952.97060110095
 20
-8269.908276987233
 10
22918.14929206372
 20
-8260.590378619032
 42
1.303226186854469
 10
22918.14929206372
 20
-8279.907616973709
 10
22952.97060110095
 20
-8270.589718605479
 42
-1.303226186854469
 10
22952.97060110095
 20
-8289.906956960156
 10
22918.14929206372
 20
-8280.589058591955
 42
1.303226186856432
 10
22918.14929206372
 20
-8299.906296946603
 10
22952.97060110095
 20
-8290.588398578431
 42
-1.303226186856433
 10
22952.97060110095
 20
-8309.90563693308
 10
22918.14929206372
 20
-8300.587738564878
 42
1.303226186854469
 10
22918.14929206372
 20
-8319.904976919555
 10
22952.97060110095
 20
-8310.587078551325
 42
-1.303226186854469
 10
22952.97060110095
 20
-8329.904316906002
 10
22918.14929206372
 20
-8320.586418537801
 42
1.303226186856432
 10
22918.14929206372
 20
-8339.90365689245
 10
22952.97060110095
 20
-8330.585758524277
 42
-1.303226186856433
 10
22952.97060110095
 20
-8349.902996878925
 10
22918.14929206372
 20
-8340.585098510695
 42
1.303226186854469
 10
22918.14929206372
 20
-8359.902336865372
 10
22952.97060110095
 20
-8350.584438497172
 42
-1.303226186856433
 10
22952.97060110095
 20
-8369.90167685182
 10
22918.14929206372
 20
-8360.583778483648
 42
1.303226186856432
 10
22918.14929206372
 20
-8379.901016838296
 10
22952.97060110095
 20
-8370.583118470095
 42
-1.303226186854469
 10
22952.97060110095
 20
-8389.900356824772
 10
22918.14929206372
 20
-8380.582458456542
 42
1.303226186854469
 10
22918.14929206372
 20
-8399.899696811219
 10
22952.97060110095
 20
-8390.581798443018
 42
-1.303226186856433
 10
22952.97060110095
 20
-8409.899036797666
 10
22918.14929206372
 20
-8400.581138429494
 42
1.303226186856432
 10
22918.14929206372
 20
-8419.898376784142
 10
22952.97060110095
 20
-8410.58047841594
 42
-1.303226186854469
 10
22952.97060110095
 20
-8429.897716770618
 10
22918.14929206372
 20
-8420.579818402388
 42
1.303226186856432
 10
22918.14929206372
 20
-8439.897056757036
 10
22952.97060110095
 20
-8430.579158388864
 42
-1.303226186856433
 10
22952.97060110095
 20
-8449.896396743512
 10
22918.14929206372
 20
-8440.578498375311
 42
1.303226186854469
 10
22918.14929206372
 20
-8459.895736729988
 10
22952.97060110095
 20
-8450.577838361758
 42
-1.303226186854469
 10
22952.97060110095
 20
-8469.895076716435
 10
22918.14929206372
 20
-8460.577178348234
 42
1.303226186856432
 10
22918.14929206372
 20
-8479.894416702882
 10
22952.97060110095
 20
-8470.57651833471
 42
-1.303226186856433
 10
22952.97060110095
 20
-8489.893756689358
 10
22918.14929206372
 20
-8480.575858321157
 42
0.8284970476315923
 10
22909.62277267497
 20
-8498.279419384868
  0
LWPOLYLINE
  5
26D
330
1F
100
AcDbEntity
  8
Ech.1_5
  6
Continuous
 62
   190
370
    15
390
5F
100
AcDbPolyline
 90
        5
 70
     0
 43
0.0
 10
22631.02427687583
 20
-8835.087724704092
 10
23616.02427687583
 20
-8835.087724704092
 10
23616.02427687583
 20
-9068.017759774812
 10
22631.02427687583
 20
-9068.017759774812
 10
22631.02427687583
 20
-8835.087724704092
  0
LWPOLYLINE
  5
26E
330
1F
100
AcDbEntity
  8
Ech.1_5
  6
Continuous
 62
   190
370
    15
390
5F
100
AcDbPolyline
 90
        5
 70
     0
 43
0.0
 10
23616.02427687583
 20
-8930.60468770974
 10
22631.02427687583
 20
-8930.60468770974
 10
22631.02427687583
 20
-8835.087724704092
 10
23616.02427687583
 20
-8835.087724704092
 10
23616.02427687583
 20
-8930.60468770974
  0
LWPOLYLINE
  5
26F
330
1F
100
AcDbEntity
  8
Ech.1_5
  6
Continuous
 62
   190
370
    15
390
5F
100
AcDbPolyline
 90
        5
 70
     0
 43
0.0
 10
23616.02427687583
 20
-8952.60468770974
 10
22631.02427687583
 20
-8952.60468770974
 10
22631.02427687583
 20
-8930.60468770974
 10
23616.02427687583
 20
-8930.60468770974
 10
23616.02427687583
 20
-8952.60468770974
  0
LWPOLYLINE
  5
270
330
1F
100
AcDbEntity
  8
Ech.1_5
  6
Continuous
 62
   190
370
    15
390
5F
100
AcDbPolyline
 90
        5
 70
     0
 43
0.0
 10
23616.02427687583
 20
-9009.47583294008
 10
22631.02427687583
 20
-9009.47583294008
 10
22631.02427687583
 20
-8985.748804629344
 10
23616.02427687583
 20
-8985.748804629344
 10
23616.02427687583
 20
-9009.47583294008
  0
LINE
  5
271
330
1F
100
AcDbEntity
  8
Ech.1_5
  6
Continuous
 62
   190
370
    15
390
5F
100
AcDbLine
 10
22819.22883883879
 20
-8930.60468770974
 30
0.0
 11
22819.22883883879
 21
-8952.60468770974
 31
0.0
  0
LINE
  5
272
330
1F
100
AcDbEntity
  8
Ech.1_5
  6
Continuous
 62
   190
370
    15
390
5F
100
AcDbLine
 10
23476.22694146933
 20
-8930.60468770974
 30
0.0
 11
23476.22694146933
 21
-8952.60468770974
 31
0.0
  0
LINE
  5
273
330
1F
100
AcDbEntity
  8
Ech.1_5
  6
Continuous
 62
   190
370
    15
390
5F
100
AcDbLine
 10
22975.38405683414
 20
-8930.60468770974
 30
0.0
 11
22975.38405683414
 21
-8952.60468770974
 31
0.0
  0
LWPOLYLINE
  5
274
330
1F
100
AcDbEntity
  8
Ech.1_5
  6
Continuous
 62
   190
370
    15
390
5F
100
AcDbPolyline
 90
        5
 70
     0
 43
0.0
 10
23616.02427687583
 20
-7713.017759774816
 10
22631.02427687583
 20
-7713.017759774816
 10
22631.02427687583
 20
-9068.01775977484
 10
23616.02427687583
 20
-9068.01775977484
 10
23616.02427687583
 20
-7713.017759774816
  0
HATCH
  5
275
330
1F
100
AcDbEntity
  8
Ech.1_5
  6
Continuous
 62
   254
420
 13882323
440
 33554687
370
     5
390
5F
100
AcDbHatch
 10
0.0
 20
0.0
 30
0.0
210
0.0
220
0.0
230
1.0
  2
SOLID
 70
     1
 71
     0
 91
        1
 92
        3
 72
     0
 73
     1
 93
        4
 10
22965.5586366079
 20
-8396.274231061921
 10
22965.5586366079
 20
-8471.279398112209
 10
22992.5586366079
 20
-8471.279398112209
 10
22992.5586366079
 20
-8396.274231061921
 97
        0
 75
     0
 76
     1
 98
        0
  0
LINE
  5
276
330
1F
100
AcDbEntity
  8
Ech.1_5
  6
Continuous
 62
   190
370
    15
390
5F
100
AcDbLine
 10
22965.5586366079
 20
-8471.279398112209
 30
0.0
 11
22992.5586366079
 21
-8396.274231061921
 31
0.0
  0
LINE
  5
277
330
1F
100
AcDbEntity
  8
Ech.1_5
  6
Continuous
 62
   190
370
    15
390
5F
100
AcDbLine
 10
22992.5586366079
 20
-8471.279398112209
 30
0.0
 11
22965.5586366079
 21
-8396.274231061921
 31
0.0
  0
LWPOLYLINE
  5
278
330
1F
100
AcDbEntity
  8
Ech.1_5
  6
Continuous
 62
     5
370
    40
390
5F
100
AcDbPolyline
 90
        5
 70
     0
 43
0.0
 10
22965.5586366079
 20
-8396.274231061921
 10
22965.5586366079
 20
-8471.279398112209
 10
22992.5586366079
 20
-8471.279398112209
 10
22992.5586366079
 20
-8396.274231061921
 10
22965.5586366079
 20
-8396.274231061921
  0
HATCH
  5
279
330
1F
100
AcDbEntity
  8
Ech.1_5
  6
Continuous
 62
   254
420
 13882323
440
 33554687
370
     5
390
5F
100
AcDbHatch
 10
0.0
 20
0.0
 30
0.0
210
0.0
220
0.0
230
1.0
  2
SOLID
 70
     1
 71
     0
 91
        1
 92
        3
 72
     0
 73
     1
 93
        4
 10
23058.74751267193
 20
-8471.279398112209
 10
22965.55796654171
 20
-8471.279398112209
 10
22965.55796654171
 20
-8498.279398112209
 10
23058.74751267193
 20
-8498.279398112209
 97
        0
 75
     0
 76
     1
 98
        0
  0
LINE
  5
27A
330
1F
100
AcDbEntity
  8
Ech.1_5
  6
Continuous
 62
   190
370
    15
390
5F
100
AcDbLine
 10
22965.55796654171
 20
-8471.279398112209
 30
0.0
 11
23058.74751267193
 21
-8498.279398112209
 31
0.0
  0
LINE
  5
27B
330
1F
100
AcDbEntity
  8
Ech.1_5
  6
Continuous
 62
   190
370
    15
390
5F
100
AcDbLine
 10
22965.55796654171
 20
-8498.279398112209
 30
0.0
 11
23058.74751267193
 21
-8471.279398112209
 31
0.0
  0
LWPOLYLINE
  5
27C
330
1F
100
AcDbEntity
  8
Ech.1_5
  6
Continuous
 62
     5
370
    40
390
5F
100
AcDbPolyline
 90
        5
 70
     0
 43
0.0
 10
23058.74751267193
 20
-8471.279398112209
 10
22965.55796654171
 20
-8471.279398112209
 10
22965.55796654171
 20
-8498.279398112209
 10
23058.74751267193
 20
-8498.279398112209
 10
23058.74751267193
 20
-8471.279398112209
  0
HATCH
  5
27D
330
1F
100
AcDbEntity
  8
Ech.1_5
  6
Continuous
 62
   254
420
 13882323
440
 33554687
370
     5
390
5F
100
AcDbHatch
 10
0.0
 20
0.0
 30
0.0
210
0.0
220
0.0
230
1.0
  2
SOLID
 70
     1
 71
     0
 91
        1
 92
        3
 72
     0
 73
     1
 93
        4
 10
23448.3731950886
 20
-8498.299868164835
 10
23488.3731950886
 20
-8498.299868164835
 10
23488.3731950886
 20
-8471.299868164835
 10
23448.3731950886
 20
-8471.299868164835
 97
        0
 75
     0
 76
     1
 98
        0
  0
LINE
  5
27E
330
1F
100
AcDbEntity
  8
Ech.1_5
  6
Continuous
 62
   190
370
    15
390
5F
100
AcDbLine
 10
23488.3731950886
 20
-8498.299868164835
 30
0.0
 11
23448.3731950886
 21
-8471.299868164835
 31
0.0
  0
LINE
  5
27F
330
1F
100
AcDbEntity
  8
Ech.1_5
  6
Continuous
 62
   190
370
    15
390
5F
100
AcDbLine
 10
23488.3731950886
 20
-8471.299868164835
 30
0.0
 11
23448.3731950886
 21
-8498.299868164835
 31
0.0
  0
LWPOLYLINE
  5
280
330
1F
100
AcDbEntity
  8
Ech.1_5
  6
Continuous
 62
     5
370
    40
390
5F
100
AcDbPolyline
 90
        5
 70
     0
 43
0.0
 10
23448.3731950886
 20
-8498.299868164835
 10
23488.3731950886
 20
-8498.299868164835
 10
23488.3731950886
 20
-8471.299868164835
 10
23448.3731950886
 20
-8471.299868164835
 10
23448.3731950886
 20
-8498.299868164835
  0
HATCH
  5
281
330
1F
100
AcDbEntity
  8
Ech.1_5
  6
Continuous
 62
    33
420
 12426362
440
 33554687
370
    20
390
5F
100
AcDbHatch
 10
0.0
 20
0.0
 30
0.0
210
0.0
220
0.0
230
1.0
  2
SOLID
 70
     1
 71
     0
 91
        1
 92
        3
 72
     0
 73
     1
 93
        4
 10
23262.84627873596
 20
-7850.122178462007
 10
23217.84627873596
 20
-7850.122178462299
 10
23217.84627873693
 20
-8030.122178462299
 10
23262.84627873693
 20
-8030.122178462007
 97
        0
 75
     0
 76
     1
 98
        0
  0
LWPOLYLINE
  5
282
330
1F
100
AcDbEntity
  8
Ech.1_5
  6
Continuous
 62
     7
370
    20
390
5F
100
AcDbPolyline
 90
        5
 70
     0
 43
0.0
 10
23262.84627873596
 20
-7850.122178462007
 10
23217.84627873596
 20
-7850.122178462299
 10
23217.84627873693
 20
-8030.122178462299
 10
23262.84627873693
 20
-8030.122178462007
 10
23262.84627873596
 20
-7850.122178462007
  0
HATCH
  5
283
330
1F
100
AcDbEntity
  8
Ech.1_5
  6
Continuous
 62
   254
420
 13882323
440
 33554687
370
     5
390
5F
100
AcDbHatch
 10
0.0
 20
0.0
 30
0.0
210
0.0
220
0.0
230
1.0
  2
SOLID
 70
     1
 71
     0
 91
        1
 92
        3
 72
     0
 73
     1
 93
        4
 10
23331.8430495487
 20
-7759.120950227655
 10
23331.8430495487
 20
-7834.126117277942
 10
23358.8430495487
 20
-7834.126117277942
 10
23358.8430495487
 20
-7759.120950227655
 97
        0
 75
     0
 76
     1
 98
        0
  0
LINE
  5
284
330
1F
100
AcDbEntity
  8
Ech.1_5
  6
Continuous
 62
   190
370
    15
390
5F
100
AcDbLine
 10
23331.8430495487
 20
-7834.126117277942
 30
0.0
 11
23358.8430495487
 21
-7759.120950227655
 31
0.0
  0
LINE
  5
285
330
1F
100
AcDbEntity
  8
Ech.1_5
  6
Continuous
 62
   190
370
    15
390
5F
100
AcDbLine
 10
23358.8430495487
 20
-7834.126117277942
 30
0.0
 11
23331.8430495487
 21
-7759.120950227655
 31
0.0
  0
LWPOLYLINE
  5
286
330
1F
100
AcDbEntity
  8
Ech.1_5
  6
Continuous
 62
     5
370
    40
390
5F
100
AcDbPolyline
 90
        5
 70
     0
 43
0.0
 10
23331.8430495487
 20
-7759.120950227655
 10
23331.8430495487
 20
-7834.126117277942
 10
23358.8430495487
 20
-7834.126117277942
 10
23358.8430495487
 20
-7759.120950227655
 10
23331.8430495487
 20
-7759.120950227655
  0
HATCH
  5
287
330
1F
100
AcDbEntity
  8
Ech.1_5
  6
Continuous
 62
   254
420
 13882323
440
 33554687
370
     5
390
5F
100
AcDbHatch
 10
0.0
 20
0.0
 30
0.0
210
0.0
220
0.0
230
1.0
  2
SOLID
 70
     1
 71
     0
 91
        1
 92
        3
 72
     0
 73
     1
 93
        4
 10
23425.03192561273
 20
-7834.126117277942
 10
23331.84237948251
 20
-7834.126117277942
 10
23331.84237948251
 20
-7861.126117277942
 10
23425.03192561273
 20
-7861.126117277942
 97
        0
 75
     0
 76
     1
 98
        0
  0
LINE
  5
288
330
1F
100
AcDbEntity
  8
Ech.1_5
  6
Continuous
 62
   190
370
    15
390
5F
100
AcDbLine
 10
23331.84237948251
 20
-7834.126117277942
 30
0.0
 11
23425.03192561273
 21
-7861.126117277942
 31
0.0
  0
LINE
  5
289
330
1F
100
AcDbEntity
  8
Ech.1_5
  6
Continuous
 62
   190
370
    15
390
5F
100
AcDbLine
 10
23331.84237948251
 20
-7861.126117277942
 30
0.0
 11
23425.03192561273
 21
-7834.126117277942
 31
0.0
  0
LWPOLYLINE
  5
28A
330
1F
100
AcDbEntity
  8
Ech.1_5
  6
Continuous
 62
     5
370
    40
390
5F
100
AcDbPolyline
 90
        5
 70
     0
 43
0.0
 10
23425.03192561273
 20
-7834.126117277942
 10
23331.84237948251
 20
-7834.126117277942
 10
23331.84237948251
 20
-7861.126117277942
 10
23425.03192561273
 20
-7861.126117277942
 10
23425.03192561273
 20
-7834.126117277942
  0
ARC
  5
28B
330
1F
100
AcDbEntity
  8
Ech.1_5
  6
Continuous
 62
   190
370
    15
390
5F
100
AcDbCircle
 10
23301.30398224316
 20
-7933.396381031578
 30
0.0
 40
186.9185622382315
100
AcDbArc
 50
71.53548846317922
 51
340.2417213388889
  0
LWPOLYLINE
  5
28C
330
1F
100
AcDbEntity
  8
Ech.1_5
 62
     3
370
    70
390
5F
100
AcDbPolyline
 90
        4
 70
     0
 43
0.0
 10
22711.40386241303
 20
-7803.848879057537
 10
22698.41472899295
 20
-7803.848879057537
 10
22694.47999685205
 20
-7798.168266095542
 10
22681.00156685114
 20
-7798.168266095542
  0
HATCH
  5
28D
330
1F
100
AcDbEntity
  8
Ech.1_5
  6
Continuous
 62
     2
440
 33554687
370
     5
390
5F
100
AcDbHatch
 10
0.0
 20
0.0
 30
0.0
210
0.0
220
0.0
230
1.0
  2
SOLID
 70
     1
 71
     0
 91
        1
 92
        3
 72
     0
 73
     1
 93
        4
 10
22687.36795145424
 20
-7825.882441058192
 10
22687.36795145424
 20
-7835.882441058192
 10
22707.36959920537
 20
-7835.882441058192
 10
22707.36959920537
 20
-7825.882441058192
 97
        0
 75
     0
 76
     1
 98
        0
  0
HATCH
  5
28E
330
1F
100
AcDbEntity
  8
Ech.1_5
  6
Continuous
 62
     7
440
 33554687
370
    20
390
5F
100
AcDbHatch
 10
0.0
 20
0.0
 30
0.0
210
0.0
220
0.0
230
1.0
  2
CwHatchPattern_31
 70
     0
 71
     0
 91
        1
 92
        3
 72
     0
 73
     1
 93
        4
 10
22687.36795145424
 20
-7825.882441058192
 10
22687.36795145424
 20
-7835.882441058192
 10
22707.36959920537
 20
-7835.882441058192
 10
22707.36959920537
 20
-7825.882441058192
 97
        0
 75
     0
 76
     2
 52
0.0
 41
0.1500000059604645
 77
     0
 78
     1
 53
45.00000000000297
 43
0.0
 44
0.0
 45
-2.121320427853449
 46
2.12132042785323
 79
     0
 98
        0
1001
ACAD
1010
0.0
1020
0.0
1030
0.0
  0
LWPOLYLINE
  5
28F
330
1F
100
AcDbEntity
  8
Ech.1_5
  6
Continuous
 62
     7
370
     5
390
5F
100
AcDbPolyline
 90
        5
 70
     0
 43
0.0
 10
22687.36795145424
 20
-7825.882441058192
 10
22687.36795145424
 20
-7835.882441058192
 10
22707.36959920537
 20
-7835.882441058192
 10
22707.36959920537
 20
-7825.882441058192
 10
22687.36795145424
 20
-7825.882441058192
  0
LWPOLYLINE
  5
290
330
1F
100
AcDbEntity
  8
Ech.1_5
 62
   190
370
    15
390
5F
100
AcDbPolyline
 90
        5
 70
     0
 43
0.0
 10
23479.86951455799
 20
-7771.444697335676
 10
23529.86951455799
 20
-7771.444697335676
 10
23529.86951455799
 20
-7764.029559801763
 10
23479.86951455799
 20
-7764.029559801763
 10
23479.86951455799
 20
-7771.444697335676
  0
LWPOLYLINE
  5
291
330
1F
100
AcDbEntity
  8
Ech.1_5
 62
   190
370
    15
390
5F
100
AcDbPolyline
 90
        5
 70
     0
 43
0.0
 10
23529.86951455799
 20
-7771.444697335676
 10
23579.86951455799
 20
-7771.444697335676
 10
23579.86951455799
 20
-7764.029559801763
 10
23529.86951455799
 20
-7764.029559801763
 10
23529.86951455799
 20
-7771.444697335676
  0
HATCH
  5
292
330
1F
100
AcDbEntity
  8
Ech.1_5
  6
Continuous
 62
   254
420
 13882323
440
 33554687
370
    20
390
5F
100
AcDbHatch
 10
0.0
 20
0.0
 30
0.0
210
0.0
220
0.0
230
1.0
  2
SOLID
 70
     1
 71
     0
 91
        1
 92
        3
 72
     0
 73
     1
 93
        4
 10
23018.557966538
 20
-8443.279397919941
 10
23018.557966538
 20
-7920.272198693257
 10
22992.55796653799
 20
-7920.272401243802
 10
22992.557966538
 20
-8443.279397914914
 97
        0
 75
     0
 76
     1
 98
        0
  0
LWPOLYLINE
  5
293
330
1F
100
AcDbEntity
  8
Ech.1_5
  6
Continuous
 62
     7
370
    20
390
5F
100
AcDbPolyline
 90
        5
 70
     0
 43
0.0
 10
23018.557966538
 20
-8443.279397919941
 10
23018.557966538
 20
-7920.272198693257
 10
22992.55796653799
 20
-7920.272401243802
 10
22992.557966538
 20
-8443.279397914914
 10
23018.557966538
 20
-8443.279397919941
  0
HATCH
  5
294
330
1F
100
AcDbEntity
  8
Ech.1_5
  6
Continuous
 62
   254
420
 13882323
440
 33554687
370
    20
390
5F
100
AcDbHatch
 10
0.0
 20
0.0
 30
0.0
210
0.0
220
0.0
230
1.0
  2
SOLID
 70
     1
 71
     0
 91
        1
 92
        3
 72
     0
 73
     1
 93
        4
 10
22994.36454411803
 20
-8471.279398202896
 10
23585.56744945674
 20
-8471.279398202896
 10
23585.56841332844
 20
-8445.279398202896
 10
22994.36454411805
 20
-8445.279397964478
 97
        0
 75
     0
 76
     1
 98
        0
  0
LWPOLYLINE
  5
295
330
1F
100
AcDbEntity
  8
Ech.1_5
  6
Continuous
 62
     7
370
    20
390
5F
100
AcDbPolyline
 90
        5
 70
     0
 43
0.0
 10
22994.36454411803
 20
-8471.279398202896
 10
23585.56744945674
 20
-8471.279398202896
 10
23585.56841332844
 20
-8445.279398202896
 10
22994.36454411805
 20
-8445.279397964478
 10
22994.36454411803
 20
-8471.279398202896
  0
LWPOLYLINE
  5
296
330
1F
100
AcDbEntity
  8
Ech.1_5
  6
CADWORK_22
 62
   140
420
  1483507
 48
0.6
370
    35
390
5F
100
AcDbPolyline
 90
        5
 70
   128
 43
0.0
 38
2500.0
 10
23585.56884655308
 20
-8496.794997026707
 10
23074.54002111944
 20
-8496.794997026707
 10
23049.09425478779
 20
-8493.095080421517
 10
22972.63887834044
 20
-8493.095080421517
 10
22972.63887834044
 20
-8386.737370764924
  0
LWPOLYLINE
  5
297
330
1F
100
AcDbEntity
  8
Ech.1_5
  6
CADWORK_22
 62
   140
420
  1483507
 48
0.6
370
    35
390
5F
100
AcDbPolyline
 90
        3
 70
   128
 43
0.0
 38
2500.0
 10
22967.06186579131
 20
-7920.272599868772
 10
22967.06186579131
 20
-8496.2699710069
 10
23050.31238696541
 20
-8496.2699710069
  0
ARC
  5
298
330
1F
100
AcDbEntity
  8
Ech.1_5
  6
Continuous
 62
   190
370
    15
390
5F
100
AcDbCircle
 10
22935.01956930236
 20
-8570.549661865844
 30
0.0
 40
186.9185622382315
100
AcDbArc
 50
71.53548846317914
 51
340.2417213388886
  0
ARC
  5
299
330
1F
100
AcDbEntity
  8
Ech.1_5
  6
Continuous
 62
   190
370
    15
390
5F
100
AcDbCircle
 10
22935.01956930236
 20
-8570.549661865845
 30
0.0
 40
186.9185622382321
100
AcDbArc
 50
340.2417213388891
 51
136.6654435865724
  0
ARC
  5
29A
330
1F
100
AcDbEntity
  8
Ech.1_5
  6
Continuous
 62
   190
370
    15
390
5F
100
AcDbCircle
 10
23301.30398224316
 20
-7933.396381031575
 30
0.0
 40
186.9185622382284
100
AcDbArc
 50
22.68304067895527
 51
63.45349645055621
  0
HATCH
  5
29B
330
1F
100
AcDbEntity
  8
Ech.1_5
  6
Continuous
 62
   254
420
 13882323
440
 33554687
370
    20
390
5F
100
AcDbHatch
 10
0.0
 20
0.0
 30
0.0
210
0.0
220
0.0
230
1.0
  2
SOLID
 70
     1
 71
     0
 91
        1
 92
        3
 72
     1
 73
     1
 93
        4
 10
23384.8423794788
 20
-7806.126117085675
 42
0.0
 10
23384.8423794788
 20
-7766.18428488866
 42
0.0376218939912208
 10
23358.8423794788
 20
-7755.55408641986
 42
0.0
 10
23358.8423794788
 20
-7806.126117080647
 42
0.0
 97
        0
 75
     0
 76
     1
 98
        0
  0
LWPOLYLINE
  5
29C
330
1F
100
AcDbEntity
  8
Ech.1_5
  6
Continuous
 62
     7
370
    20
390
5F
100
AcDbPolyline
 90
        5
 70
     0
 43
0.0
 10
23384.8423794788
 20
-7806.126117085675
 10
23384.8423794788
 20
-7766.18428488866
 42
0.037621893991218
 10
23358.8423794788
 20
-7755.55408641986
 10
23358.8423794788
 20
-7806.126117080647
 10
23384.8423794788
 20
-7806.126117085675
  0
LWPOLYLINE
  5
29D
330
1F
100
AcDbEntity
  8
Ech.1_5
  6
Continuous
 62
   190
370
    15
390
5F
100
AcDbPolyline
 90
        3
 70
     0
 43
0.0
 10
23330.11182467827
 20
-7748.711088917015
 42
-0.3190686161452608
 10
23319.25501404176
 20
-7752.747075990505
 10
23296.09760227216
 20
-7746.55034142462
  0
HATCH
  5
29E
330
1F
100
AcDbEntity
  8
Ech.1_5
  6
Continuous
 62
   254
420
 16643007
440
 33554687
370
     5
390
5F
100
AcDbHatch
 10
0.0
 20
0.0
 30
0.0
210
0.0
220
0.0
230
1.0
  2
SOLID
 70
     1
 71
     0
 91
        1
 92
        3
 72
     1
 73
     1
 93
        4
 10
23271.84633956376
 20
-7748.813618572623
 42
0.0
 10
23271.84633956376
 20
-7850.079303284446
 42
0.0
 10
23331.84237948251
 20
-7850.079282011787
 42
0.0
 10
23331.84237948251
 20
-7748.989344280647
 42
0.080767359822281
 97
        0
 75
     0
 76
     1
 98
        0
  0
HATCH
  5
29F
330
1F
100
AcDbEntity
  8
Ech.1_5
  6
Continuous
 62
   190
440
 33554687
370
    15
390
5F
100
AcDbHatch
 10
0.0
 20
0.0
 30
0.0
210
0.0
220
0.0
230
1.0
  2
CwHatchPattern_201
 70
     0
 71
     0
 91
        1
 92
        3
 72
     1
 73
     1
 93
        4
 10
23271.84633956376
 20
-7748.813618572623
 42
0.0
 10
23271.84633956376
 20
-7850.079303284446
 42
0.0
 10
23331.84237948251
 20
-7850.079282011787
 42
0.0
 10
23331.84237948251
 20
-7748.989344280647
 42
0.080767359822281
 97
        0
 75
     0
 76
     2
 52
270.0
 41
1.199920773506165
 77
     0
 78
    29
 53
270.0
 43
23271.84633956376
 44
-7747.474524998769
 45
59.99603867530823
 46
0.0000000000000037
 79
     2
 49
2.678187147706712
 49
-7.32115471753616
 53
0.0000000000059286
 43
23280.22301045053
 44
-7738.81428260785
 45
-0.0000000000020693
 46
19.99867765121337
 79
     2
 49
1.6226707996708
 49
-58.37336787563743
 53
0.0000000000059286
 43
23321.84303655263
 44
-7748.813618572623
 45
-0.0000000000020693
 46
19.99867765121337
 79
     2
 49
1.6226707996708
 49
-58.37336787563743
 53
14.93246459961628
 43
23283.99064737185
 44
-7758.574626319272
 45
59.99575099865127
 46
19.99977459823595
 79
     2
 49
36.95539325714065
 49
-273.5075912925594
 53
345.0675354003956
 43
23283.99064737185
 44
-7759.051288477186
 45
-59.9957509986554
 46
19.99977459822353
 79
     2
 49
36.95539325714066
 49
-273.5075912925595
 53
285.2551193237315
 43
23271.84633956376
 44
-7750.152712146476
 45
0.0000005360935731
 46
19.99867702341193
 79
     2
 49
2.718066459274215
 49
-225.3019652393846
 53
74.74488830567492
 43
23271.84633956376
 44
-7747.474524998769
 45
-0.0000031990826383
 46
19.99867702341168
 79
     2
 49
2.718066459274215
 49
-225.3019652393846
 53
285.2551193237315
 43
23331.12720977611
 44
-7754.851571920708
 45
0.0000005360935731
 46
19.99867702341193
 79
     2
 49
2.718066459274215
 49
-225.3019652393846
 53
254.7448806762685
 43
23331.84237823907
 44
-7760.152048021848
 45
0.0000005360935753
 46
-19.99867702341193
 79
     2
 49
2.718066459274215
 49
-225.3019652393846
 53
300.9637565612813
 43
23272.56151035114
 44
-7752.775001189309
 45
-0.0000001328520279
 46
19.99868110689616
 79
     2
 49
2.611249531207172
 49
-114.0000833016813
 53
59.03623962403325
 43
23272.56151035114
 44
-7744.837441152602
 45
0.0000014643406233
 46
19.99868110689611
 79
     2
 49
2.611249531207172
 49
-114.0000833016813
 53
300.9637565612813
 43
23329.78372777221
 44
-7752.612447882895
 45
-0.0000001328520279
 46
19.99868110689616
 79
     2
 49
2.611249531207172
 49
-114.0000833016813
 53
239.0362434387187
 43
23331.12720977611
 44
-7762.77434287575
 45
-0.0000001328520248
 46
-19.99868110689616
 79
     2
 49
2.611249531207172
 49
-114.0000833016813
 53
315.000000000003
 43
23273.90498967301
 44
-7755.014125227122
 45
-0.0000000000010359
 46
19.99868292485105
 79
     2
 49
2.220627315207579
 49
-82.62658639201845
 53
45.0000000000089
 43
23273.90498967301
 44
-7742.613111918123
 45
-0.0000000000031077
 46
19.99868292485105
 79
     2
 49
2.220627315207579
 49
-82.62658639201845
 53
315.000000000003
 43
23328.21351322584
 44
-7751.042231369698
 45
-0.0000000000010359
 46
19.99868292485105
 79
     2
 49
2.220627315207579
 49
-82.62658639201845
 53
224.999999999997
 43
23329.78372777221
 44
-7765.013467628772
 45
-0.0000000000010274
 46
-19.99868292485105
 79
     2
 49
2.220627315207579
 49
-82.62658639201845
 53
326.3099327087439
 43
23275.47520600741
 44
-7756.58434764079
 45
-0.0000022639233033
 46
19.99868056759708
 79
     2
 49
2.329220284818589
 49
-69.77704150640136
 53
33.69006347657064
 43
23275.47520600741
 44
-7741.042889504455
 45
0.0000035954118666
 46
19.99868056759688
 79
     2
 49
2.329220284818589
 49
-69.77704150640136
 53
326.3099327087439
 43
23326.27548124456
 44
-7749.750210764054
 45
-0.0000022639233033
 46
19.99868056759708
 79
     2
 49
2.329220284818589
 49
-69.77704150640136
 53
213.690067291256
 43
23328.21351322584
 44
-7766.583689327231
 45
-0.0000022639233065
 46
-19.99868056759708
 79
     2
 49
2.329220284818589
 49
-69.77704150640136
 53
341.5650482177782
 43
23277.41323405504
 44
-7757.876368246434
 45
-0.0000010025966775
 46
19.99868198725545
 79
     2
 49
2.96176446292522
 49
-60.27961599052674
 53
18.43495178223369
 43
23277.41323405504
 44
-7739.750868898811
 45
0.0000010025925435
 46
19.99868198725545
 79
     2
 49
2.96176446292522
 49
-60.27961599052673
 53
341.5650482177782
 43
23323.4657073523
 44
-7748.813618572623
 45
-0.0000010025966775
 46
19.99868198725545
 79
     2
 49
2.96176446292522
 49
-60.27961599052674
 53
198.4349517822218
 43
23326.27548124456
 44
-7767.875703495998
 45
-0.0000010025966786
 46
-19.99868198725545
 79
     2
 49
2.96176446292522
 49
-60.27961599052674
 53
353.6598052978571
 43
23281.84567552853
 44
-7738.81428260785
 45
-119.9920834067905
 46
19.99868521961797
 79
     2
 49
2.158171552864996
 49
-178.9375719862846
 53
6.340194702154776
 43
23281.84567552853
 44
-7758.812954537395
 45
119.9920834067863
 46
19.99868521964277
 79
     2
 49
2.158171552864995
 49
-178.9375719862846
 53
173.659820556658
 43
23321.84303655263
 44
-7748.813618572623
 45
119.9920887327624
 46
-19.99865326376772
 79
     2
 49
2.158171552864996
 49
-178.9375719862846
 53
186.3401947021429
 43
23321.84303655263
 44
-7748.813618572623
 45
-119.9920834067905
 46
-19.99868521961799
 79
     2
 49
2.158171552864996
 49
-178.9375719862846
 98
        0
1001
ACAD
1010
23271.84633956376
1020
-7748.813618572623
1030
0.0
  0
LWPOLYLINE
  5
2A0
330
1F
100
AcDbEntity
  8
Ech.1_5
  6
Continuous
 62
   190
370
    15
390
5F
100
AcDbPolyline
 90
        5
 70
     0
 43
0.0
 10
23271.84633956376
 20
-7748.813618572623
 10
23271.84633956376
 20
-7850.079303284446
 10
23331.84237948251
 20
-7850.079282011787
 10
23331.84237948251
 20
-7748.989344280647
 42
0.0807673598222823
 10
23271.84633956376
 20
-7748.813618572623
  0
LWPOLYLINE
  5
2A1
330
1F
100
AcDbEntity
  8
Ech.1_5
  6
Continuous
 62
   190
370
    15
390
5F
100
AcDbPolyline
 90
        3
 70
     0
 43
0.0
 10
23480.10315196269
 20
-7878.904126381826
 10
23472.17422182225
 20
-7908.534813028637
 42
0.7055598562320929
 10
23487.68500364905
 20
-7919.230797072433
  0
LWPOLYLINE
  5
2A2
330
1F
100
AcDbEntity
  8
Ech.1_5
  6
CADWORK_22
 62
     1
 48
0.6
370
    35
390
5F
100
AcDbPolyline
 90
        2
 70
   128
 43
0.0
 10
23116.34627873093
 20
-7906.392736450028
 10
23116.34627873093
 20
-7960.400025613123
  0
LWPOLYLINE
  5
2A3
330
1F
100
AcDbEntity
  8
Ech.1_5
  6
Continuous
 62
   190
370
    15
390
5F
100
AcDbPolyline
 90
        3
 70
     0
 43
0.0
 10
23217.84627873712
 20
-8030.12217846224
 10
23240.34627873535
 20
-7940.122178467028
 10
23262.84627873231
 20
-8030.122178462007
  0
LWPOLYLINE
  5
2A4
330
1F
100
AcDbEntity
  8
Ech.1_5
  6
Continuous
 62
   190
370
    15
390
5F
100
AcDbPolyline
 90
        3
 70
     0
 43
0.0
 10
23262.84627873604
 20
-7850.122178462007
 10
23217.84627873596
 20
-7850.122178462299
 10
23240.34627873535
 20
-7940.122178467028
  0
LINE
  5
2A5
330
1F
100
AcDbEntity
  8
Ech.1_5
  6
Continuous
 62
   190
370
    15
390
5F
100
AcDbLine
 10
23240.34627873535
 20
-7940.122178467028
 30
0.0
 11
23262.84627873604
 21
-7850.122178462007
 31
0.0
  0
LWPOLYLINE
  5
2A6
330
1F
100
AcDbEntity
  8
Ech.1_5
  6
Continuous
 62
     5
370
    40
390
5F
100
AcDbPolyline
 90
        4
 70
     0
 43
0.0
 10
23262.84627873596
 20
-7850.122178462007
 10
23262.84627873693
 20
-8030.122178462007
 10
23217.84627873693
 20
-8030.122178462299
 10
23217.84627873596
 20
-7850.122178462299
  0
LINE
  5
2A7
330
1F
100
AcDbEntity
  8
Ech.1_5
  6
Continuous
 62
     5
370
    40
390
5F
100
AcDbLine
 10
23217.84627873596
 20
-7850.122178462299
 30
0.0
 11
23262.84627873596
 21
-7850.122178462007
 31
0.0
  0
LWPOLYLINE
  5
2A8
330
1F
100
AcDbEntity
  8
Ech.1_5
  6
Continuous
 62
   190
370
    15
390
5F
100
AcDbPolyline
 90
        3
 70
     0
 43
0.0
 10
23262.84627873261
 20
-8075.122178462007
 10
23190.34627873256
 20
-8052.622178462473
 10
23262.84627873231
 20
-8030.122178462007
  0
LWPOLYLINE
  5
2A9
330
1F
100
AcDbEntity
  8
Ech.1_5
  6
Continuous
 62
   190
370
    15
390
5F
100
AcDbPolyline
 90
        3
 70
     0
 43
0.0
 10
23164.4109520763
 20
-8060.671072942191
 10
23190.34627873256
 20
-8052.622178462473
 10
23147.24395183413
 20
-8039.245594252902
  0
LWPOLYLINE
  5
2AA
330
1F
100
AcDbEntity
  8
Ech.1_5
  6
Continuous
 62
     5
370
    40
390
5F
100
AcDbPolyline
 90
        4
 70
     0
 43
0.0
 10
23141.35815072357
 20
-8030.122178462837
 10
23262.84627873231
 20
-8030.122178462007
 10
23262.84627873261
 20
-8075.122178462007
 10
23179.43377566357
 20
-8075.122178462575
  0
LINE
  5
2AB
330
1F
100
AcDbEntity
  8
Ech.1_5
  6
Continuous
 62
     5
370
    40
390
5F
100
AcDbLine
 10
23406.85155348176
 20
-7861.119290184543
 30
0.0
 11
23331.84627873582
 21
-7861.116649071359
 31
0.0
  0
LINE
  5
2AC
330
1F
100
AcDbEntity
  8
Ech.1_5
  6
Continuous
 62
     5
370
    40
390
5F
100
AcDbLine
 10
23331.84694880251
 20
-7836.087354594515
 30
0.0
 11
23331.84694880201
 21
-7761.08207980208
 31
0.0
  0
LWPOLYLINE
  5
2AD
330
1F
100
AcDbEntity
  8
Ech.1_5
  6
Continuous
 62
     5
370
    40
390
5F
100
AcDbPolyline
 90
        4
 70
     0
 43
0.0
 10
23165.34708515986
 20
-7805.122178462673
 10
23262.84627873575
 20
-7805.122178462007
 10
23262.84627873604
 20
-7850.122178462007
 10
23133.9601562568
 20
-7850.122178462888
  0
HATCH
  5
2AE
330
1F
100
AcDbEntity
  8
Ech.1_5
  6
Continuous
 62
    40
420
 16297258
440
 33554687
370
     5
390
5F
100
AcDbHatch
 10
0.0
 20
0.0
 30
0.0
210
0.0
220
0.0
230
1.0
  2
SOLID
 70
     1
 71
     0
 91
        1
 92
        3
 72
     0
 73
     1
 93
        4
 10
23487.81963367629
 20
-7921.13013956637
 10
23281.84627873485
 20
-7921.122547069322
 10
23281.84627873485
 20
-7930.122547077503
 10
23488.19400516065
 20
-7930.130153374456
 97
        0
 75
     0
 76
     1
 98
        0
  0
HATCH
  5
2AF
330
1F
100
AcDbEntity
  8
Ech.1_5
  6
Continuous
 62
   190
440
 33554687
370
    15
390
5F
100
AcDbHatch
 10
0.0
 20
0.0
 30
0.0
210
0.0
220
0.0
230
1.0
  2
CwHatchPattern_74
 70
     0
 71
     0
 91
        1
 92
        3
 72
     0
 73
     1
 93
        4
 10
23487.81963367629
 20
-7921.13013956637
 10
23281.84627873485
 20
-7921.122547069322
 10
23281.84627873485
 20
-7930.122547077503
 10
23488.19400516065
 20
-7930.130153374456
 97
        0
 75
     0
 76
     2
 52
0.0
 41
0.6000000238418579
 77
     0
 78
     3
 53
45.00000000000297
 43
0.0
 44
0.0
 45
-0.0000000000043443
 46
42.00000166893005
 79
     0
 53
45.00000000000297
 43
0.0
 44
10.80000042915344
 45
-0.0000000000043443
 46
42.00000166893005
 79
     0
 53
45.00000000000297
 43
0.0
 44
21.60000085830688
 45
-0.0000000000043443
 46
42.00000166893005
 79
     0
 98
        0
1001
ACAD
1010
0.0
1020
0.0
1030
0.0
  0
LWPOLYLINE
  5
2B0
330
1F
100
AcDbEntity
  8
Ech.1_5
  6
Continuous
 62
   190
370
    15
390
5F
100
AcDbPolyline
 90
        5
 70
     0
 43
0.0
 10
23487.81963367629
 20
-7921.13013956637
 10
23281.84627873485
 20
-7921.122547069322
 10
23281.84627873485
 20
-7930.122547077503
 10
23488.19400516065
 20
-7930.130153374456
 10
23487.81963367629
 20
-7921.13013956637
  0
HATCH
  5
2B1
330
1F
100
AcDbEntity
  8
Ech.1_5
  6
Continuous
 62
    40
420
 16297258
440
 33554687
370
     5
390
5F
100
AcDbHatch
 10
0.0
 20
0.0
 30
0.0
210
0.0
220
0.0
230
1.0
  2
SOLID
 70
     1
 71
     0
 91
        1
 92
        3
 72
     1
 73
     1
 93
        4
 10
23271.84627873625
 20
-8075.122178461949
 42
0.0
 10
23271.84627873454
 20
-7748.813628280391
 42
0.0122429865604191
 10
23262.84627873455
 20
-7750.476852412977
 42
0.0
 10
23262.84627873625
 20
-8075.122178462007
 42
0.0
 97
        0
 75
     0
 76
     1
 98
        0
  0
HATCH
  5
2B2
330
1F
100
AcDbEntity
  8
Ech.1_5
  6
Continuous
 62
   190
440
 33554687
370
    15
390
5F
100
AcDbHatch
 10
0.0
 20
0.0
 30
0.0
210
0.0
220
0.0
230
1.0
  2
CwHatchPattern_74
 70
     0
 71
     0
 91
        1
 92
        3
 72
     1
 73
     1
 93
        4
 10
23271.84627873625
 20
-8075.122178461949
 42
0.0
 10
23271.84627873454
 20
-7748.813628280391
 42
0.0122429865604191
 10
23262.84627873455
 20
-7750.476852412977
 42
0.0
 10
23262.84627873625
 20
-8075.122178462007
 42
0.0
 97
        0
 75
     0
 76
     2
 52
0.0
 41
0.6000000238418579
 77
     0
 78
     3
 53
45.00000000000297
 43
0.0
 44
0.0
 45
-0.0000000000043443
 46
42.00000166893005
 79
     0
 53
45.00000000000297
 43
0.0
 44
10.80000042915344
 45
-0.0000000000043443
 46
42.00000166893005
 79
     0
 53
45.00000000000297
 43
0.0
 44
21.60000085830688
 45
-0.0000000000043443
 46
42.00000166893005
 79
     0
 98
        0
1001
ACAD
1010
0.0
1020
0.0
1030
0.0
  0
LWPOLYLINE
  5
2B3
330
1F
100
AcDbEntity
  8
Ech.1_5
  6
Continuous
 62
   190
370
    15
390
5F
100
AcDbPolyline
 90
        5
 70
     0
 43
0.0
 10
23271.84627873625
 20
-8075.122178461949
 10
23271.84627873454
 20
-7748.813628280391
 42
0.0122429865603473
 10
23262.84627873455
 20
-7750.476852412977
 10
23262.84627873625
 20
-8075.122178462007
 10
23271.84627873625
 20
-8075.122178461949
  0
HATCH
  5
2B4
330
1F
100
AcDbEntity
  8
Ech.1_5
  6
Continuous
 62
   254
420
 15656413
440
 33554687
370
    20
390
5F
100
AcDbHatch
 10
0.0
 20
0.0
 30
0.0
210
0.0
220
0.0
230
1.0
  2
SOLID
 70
     1
 71
     0
 91
        1
 92
        1
 93
        2
 72
     1
 10
23117.84627873455
 20
-7969.198893967846
 11
23117.84627873429
 21
-7897.593868096611
 72
     2
 10
23301.30398224319
 20
-7933.396381031576
 40
186.9185622382572
 50
168.9572884311761
 51
191.0427115692315
 73
     1
 97
        0
 75
     0
 76
     1
 98
        0
  0
LWPOLYLINE
  5
2B5
330
1F
100
AcDbEntity
  8
Ech.1_5
  6
Continuous
 62
   190
370
    15
390
5F
100
AcDbPolyline
 90
        3
 70
     0
 43
0.0
 10
23117.84627873455
 20
-7969.198893967846
 10
23117.84627873429
 20
-7897.593868096611
 42
0.0966652462554687
 10
23117.84627873455
 20
-7969.198893967846
  0
HATCH
  5
2B6
330
1F
100
AcDbEntity
  8
Ech.1_5
  6
Continuous
 62
   254
420
 14407639
440
 33554687
370
     5
390
5F
100
AcDbHatch
 10
0.0
 20
0.0
 30
0.0
210
0.0
220
0.0
230
1.0
  2
SOLID
 70
     1
 71
     0
 91
        1
 92
        1
 93
        2
 72
     2
 10
23301.30398224316
 20
-7933.396381031566
 40
186.9185622382358
 50
256.4711238443871
 51
283.5263140030674
 73
     1
 72
     1
 10
23345.02272283699
 20
-8115.130309152043
 11
23257.57711491564
 21
-8115.128353955789
 97
        0
 75
     0
 76
     1
 98
        0
  0
HATCH
  5
2B7
330
1F
100
AcDbEntity
  8
Ech.1_5
  6
Continuous
 62
   190
440
 33554687
370
    15
390
23E
100
AcDbHatch
 10
0.0
 20
0.0
 30
0.0
210
0.0
220
0.0
230
1.0
  2
CwHatchPattern_84
 70
     0
 71
     0
 91
        1
 92
        1
 93
        2
 72
     2
 10
23301.30398224316
 20
-7933.396381031566
 40
186.9185622382358
 50
256.4711238443871
 51
283.5263140030674
 73
     1
 72
     1
 10
23345.02272283699
 20
-8115.130309152043
 11
23257.57711491564
 21
-8115.128353955789
 97
        0
 75
     0
 76
     2
 52
0.0
 41
1.0
 77
     0
 78
     2
 53
0.0
 43
0.0
 44
0.0
 45
0.0
 46
70.0
 79
     2
 49
0.0
 49
-70.0
 53
0.0
 43
35.0
 44
35.0
 45
0.0
 46
70.0
 79
     2
 49
0.0
 49
-70.0
 98
        0
1001
ACAD
1010
0.0
1020
0.0
1030
0.0
  0
LWPOLYLINE
  5
2B8
330
1F
100
AcDbEntity
  8
Ech.1_5
  6
Continuous
 62
   190
370
    15
390
5F
100
AcDbPolyline
 90
        3
 70
     0
 43
0.0
 10
23257.57711491564
 20
-8115.128353955789
 42
0.1186019925398017
 10
23345.02272283699
 20
-8115.130309152043
 10
23257.57711491564
 20
-8115.128353955789
  0
LWPOLYLINE
  5
2B9
330
1F
100
AcDbEntity
  8
Ech.1_5
  6
Continuous
 62
   190
370
    15
390
5F
100
AcDbPolyline
 90
        6
 70
     0
 43
0.0
 10
23445.16235396149
 20
-8044.706162480951
 10
23467.68486511709
 20
-7960.548465360095
 42
1.303226186854446
 10
23420.99773962309
 20
-7960.547120612196
 10
23443.51540268593
 20
-8044.706115043163
 42
-0.0967244998279599
 10
23444.1533581162
 20
-8053.947634537662
 10
23444.4788694174
 20
-8053.560854116805
  0
ARC
  5
2BA
330
1F
100
AcDbEntity
  8
Ech.1_5
  6
Continuous
 62
   190
370
    15
390
5F
100
AcDbCircle
 10
23468.50573654603
 20
-8050.961738736498
 30
0.0
 40
24.16703839483145
100
AcDbArc
 50
164.9983151185143
 51
186.1739846964659
  0
LWPOLYLINE
  5
2BB
330
1F
100
AcDbEntity
  8
Ech.1_5
  6
Continuous
 62
   190
370
    15
390
5F
100
AcDbPolyline
 90
        4
 70
     0
 43
0.0
 10
23423.42323390368
 20
-8074.907643067793
 42
-0.535824818570569
 10
23396.82827719192
 20
-8044.704770295263
 10
23419.35078834752
 20
-7960.547073174407
 42
0.6204981523883702
 10
23386.84627873524
 20
-7931.928145283718
  0
LWPOLYLINE
  5
2BC
330
1F
100
AcDbEntity
  8
Ech.1_5
  6
Continuous
 62
   190
370
    15
390
5F
100
AcDbPolyline
 90
        3
 70
     0
 43
0.0
 10
23386.84627873524
 20
-8013.552769506911
 10
23395.18132591636
 20
-8044.704722857475
 42
-0.2990932153049612
 10
23386.84627873524
 20
-8069.900569853541
  0
LWPOLYLINE
  5
2BD
330
1F
100
AcDbEntity
  8
Ech.1_5
  6
Continuous
 62
   190
370
    15
390
5F
100
AcDbPolyline
 90
        3
 70
     0
 43
0.0
 10
23488.20079674202
 20
-7930.545128783088
 42
0.4365148658163442
 10
23469.33181639266
 20
-7960.548512797884
 10
23478.2132472245
 20
-7993.742556328519
  0
LWPOLYLINE
  5
2BE
330
1F
100
AcDbEntity
  8
Ech.1_5
  6
Continuous
 62
   190
370
    15
390
5F
100
AcDbPolyline
 90
        4
 70
     0
 43
0.0
 10
23201.17961207028
 20
-8030.122178462386
 42
1.140281805119492
 10
23196.8659516055
 20
-7997.356750626838
 10
23138.82660586817
 20
-8012.887606298341
 42
-0.0985988575552614
 10
23132.3304850137
 20
-8013.31199992581
  0
LWPOLYLINE
  5
2BF
330
1F
100
AcDbEntity
  8
Ech.1_5
  6
Continuous
 62
   190
370
    15
390
5F
100
AcDbPolyline
 90
       14
 70
     0
 43
0.0
 10
23121.90680888872
 20
-7985.88640962408
 42
-0.287430675187147
 10
23138.826605868
 20
-7980.690083960501
 10
23196.8659516055
 20
-7996.220939631364
 42
1.303226186855425
 10
23196.86595160533
 20
-7964.023417293553
 10
23138.82660586799
 20
-7979.554272965027
 42
-1.303226186854247
 10
23138.82660586782
 20
-7947.356750627187
 10
23196.86595160532
 20
-7962.88760629805
 42
1.303226186855425
 10
23196.86595160514
 20
-7930.690083960239
 10
23138.82660586781
 20
-7946.220939631713
 42
-1.303226186855425
 10
23138.82660586763
 20
-7914.023417293903
 10
23196.86595160514
 20
-7929.554272964736
 42
1.303226186856603
 10
23196.86595160496
 20
-7897.356750626955
 10
23138.82660586763
 20
-7912.887606298399
 42
-0.4797041758652291
 10
23117.86202923662
 20
-7897.513254267703
  0
LWPOLYLINE
  5
2C0
330
1F
100
AcDbEntity
  8
Ech.1_5
  6
Continuous
 62
   190
370
    15
390
5F
100
AcDbPolyline
 90
        6
 70
     0
 43
0.0
 10
23119.69589592922
 20
-7889.15780177551
 42
-0.3528951725327155
 10
23138.82660586746
 20
-7880.690083960589
 10
23196.86595160496
 20
-7896.220939631422
 42
1.303226186857055
 10
23196.86595160478
 20
-7864.023417293641
 10
23138.82660586745
 20
-7879.554272965085
 42
-0.252201743641548
 10
23123.44324291043
 20
-7875.915024808714
  0
ARC
  5
2C1
330
1F
100
AcDbEntity
  8
Ech.1_5
  6
Continuous
 62
   190
370
    15
390
5F
100
AcDbCircle
 10
23238.67961206892
 20
-7780.955511795511
 30
0.0
 40
24.16666666667074
100
AcDbArc
 50
270.0000000003967
 51
86.91650886629573
  0
ARC
  5
2C2
330
1F
100
AcDbEntity
  8
Ech.1_5
  6
Continuous
 62
   190
370
    15
390
5F
100
AcDbCircle
 10
23238.67961206858
 20
-7732.622178462119
 30
0.0
 40
24.16666666672301
100
AcDbArc
 50
273.6613427986755
 51
300.9855643761321
  0
LINE
  5
2C3
330
1F
100
AcDbEntity
  8
Ech.1_5
  6
Continuous
 62
   190
370
    15
390
5F
100
AcDbLine
 10
23240.22287134391
 20
-7756.739519289612
 30
0.0
 11
23239.97956361132
 21
-7756.823833367243
 31
0.0
  0
HATCH
  5
2C4
330
1F
100
AcDbEntity
  8
Ech.1_5
  6
Continuous
 62
   254
420
 16643007
440
 33554687
370
    20
390
5F
100
AcDbHatch
 10
0.0
 20
0.0
 30
0.0
210
0.0
220
0.0
230
1.0
  2
SOLID
 70
     1
 71
     0
 91
        1
 92
        3
 72
     1
 73
     1
 93
        4
 10
23473.68600265407
 20
-7861.126138550601
 42
0.0
 10
23386.84237948186
 20
-7861.126138550601
 42
0.0
 10
23386.84237948186
 20
-7921.1221784694
 42
0.0
 10
23487.81910994242
 20
-7921.1221784694
 42
0.0830079705677181
 97
        0
 75
     0
 76
     1
 98
        0
  0
LWPOLYLINE
  5
2C5
330
1F
100
AcDbEntity
  8
Ech.1_5
  6
Continuous
 62
   190
370
    15
390
5F
100
AcDbPolyline
 90
        5
 70
     0
 43
0.0
 10
23473.68600265407
 20
-7861.126138550601
 10
23386.84237948186
 20
-7861.126138550601
 10
23386.84237948186
 20
-7921.1221784694
 10
23487.81910994242
 20
-7921.1221784694
 42
0.0830079705677759
 10
23473.68600265407
 20
-7861.126138550601
  0
HATCH
  5
2C6
330
1F
100
AcDbEntity
  8
Ech.1_5
  6
Continuous
 62
   254
420
 13882323
440
 33554687
370
    20
390
5F
100
AcDbHatch
 10
0.0
 20
0.0
 30
0.0
210
0.0
220
0.0
230
1.0
  2
SOLID
 70
     1
 71
     0
 91
        1
 92
        3
 72
     1
 73
     1
 93
        4
 10
23459.68315909888
 20
-7834.12611736863
 42
0.0436715647092016
 10
23440.0336110155
 20
-7808.126117162225
 42
0.0
 10
23360.64895705885
 20
-7808.126117130211
 42
0.0
 10
23360.64895705883
 20
-7834.12611736863
 42
0.0
 97
        0
 75
     0
 76
     1
 98
        0
  0
LWPOLYLINE
  5
2C7
330
1F
100
AcDbEntity
  8
Ech.1_5
  6
Continuous
 62
     7
370
    20
390
5F
100
AcDbPolyline
 90
        5
 70
     0
 43
0.0
 10
23459.68315909888
 20
-7834.12611736863
 42
0.0436715647091799
 10
23440.0336110155
 20
-7808.126117162225
 10
23360.64895705885
 20
-7808.126117130211
 10
23360.64895705883
 20
-7834.12611736863
 10
23459.68315909888
 20
-7834.12611736863
  0
HATCH
  5
2C8
330
1F
100
AcDbEntity
  8
Ech.1_5
  6
Continuous
 62
    33
420
 12426362
440
 33554687
370
    20
390
5F
100
AcDbHatch
 10
0.0
 20
0.0
 30
0.0
210
0.0
220
0.0
230
1.0
  2
SOLID
 70
     1
 71
     0
 91
        1
 92
        3
 72
     1
 73
     1
 93
        4
 10
23262.84627873604
 20
-7850.122178462007
 42
0.0
 10
23262.84627873575
 20
-7805.122178462007
 42
0.0
 10
23165.34708515986
 20
-7805.122178462673
 42
0.073779980963566
 10
23133.9601562568
 20
-7850.122178462888
 42
0.0
 97
        0
 75
     0
 76
     1
 98
        0
  0
LWPOLYLINE
  5
2C9
330
1F
100
AcDbEntity
  8
Ech.1_5
  6
Continuous
 62
     7
370
    20
390
5F
100
AcDbPolyline
 90
        5
 70
     0
 43
0.0
 10
23262.84627873604
 20
-7850.122178462007
 10
23262.84627873575
 20
-7805.122178462007
 10
23165.34708515986
 20
-7805.122178462673
 42
0.0737799809635111
 10
23133.9601562568
 20
-7850.122178462888
 10
23262.84627873604
 20
-7850.122178462007
  0
LWPOLYLINE
  5
2CA
330
1F
100
AcDbEntity
  8
Ech.1_5
  6
Continuous
 62
   190
370
    15
390
5F
100
AcDbPolyline
 90
        3
 70
     0
 43
0.0
 10
23262.84627873604
 20
-7850.122178462007
 10
23190.34627873599
 20
-7827.622178462473
 10
23262.84627873575
 20
-7805.122178462007
  0
LWPOLYLINE
  5
2CB
330
1F
100
AcDbEntity
  8
Ech.1_5
  6
Continuous
 62
   190
370
    15
390
5F
100
AcDbPolyline
 90
        3
 70
     0
 43
0.0
 10
23137.06290565364
 20
-7844.15839769532
 10
23190.34627873599
 20
-7827.622178462473
 10
23155.26154332185
 20
-7816.733812299696
  0
LWPOLYLINE
  5
2CC
330
1F
100
AcDbEntity
  8
Ech.1_5
  6
Continuous
 62
   190
370
    15
390
5F
100
AcDbPolyline
 90
       18
 70
     0
 43
0.0
 10
23386.84237948186
 20
-7862.463909925057
 42
-0.6680423978628086
 10
23401.49740029876
 20
-7873.713503991393
 10
23392.17950193056
 20
-7908.534813028637
 42
1.303226186855451
 10
23411.49674028522
 20
-7908.534813028637
 10
23402.17884191702
 20
-7873.713503991393
 42
-1.303226186855451
 10
23421.49608027169
 20
-7873.713503991393
 10
23412.17818190348
 20
-7908.534813028637
 42
1.303226186855451
 10
23431.49542025815
 20
-7908.534813028637
 10
23422.17752188995
 20
-7873.713503991393
 42
-1.303226186855451
 10
23441.49476024461
 20
-7873.713503991393
 10
23432.17686187641
 20
-7908.534813028637
 42
1.303226186855451
 10
23451.49410023107
 20
-7908.534813028637
 10
23442.17620186287
 20
-7873.713503991393
 42
-1.303226186855451
 10
23461.49344021753
 20
-7873.713503991393
 10
23452.17554184933
 20
-7908.534813028637
 42
1.303226186855451
 10
23471.49278020399
 20
-7908.534813028637
 10
23462.17488183579
 20
-7873.713503991393
 42
-0.5550872666291075
 10
23473.76481905959
 20
-7861.314422999168
  0
LWPOLYLINE
  5
2CD
330
1F
100
AcDbEntity
  8
Ech.1_5
  6
Continuous
 62
   190
370
    15
390
5F
100
AcDbPolyline
 90
        3
 70
     0
 43
0.0
 10
23386.84237948186
 20
-7919.78063312488
 42
0.3393491909907426
 10
23391.4980603123
 20
-7908.534813028637
 10
23386.84237948186
 20
-7891.13637246089
  0
LWPOLYLINE
  5
2CE
330
1F
100
AcDbEntity
  8
Ech.1_5
 62
   190
370
    15
390
5F
100
AcDbPolyline
 90
        5
 70
     0
 43
0.0
 10
23461.58946877268
 20
-7737.787886206724
 10
23596.01824775863
 20
-7737.787886206724
 10
23596.01824775863
 20
-7794.510845018573
 10
23461.58946877268
 20
-7794.510845018573
 10
23461.58946877268
 20
-7737.787886206724
  0
HATCH
  5
2CF
330
1F
100
AcDbEntity
  8
Ech.1_5
  6
Continuous
 62
   190
440
 33554687
370
    15
390
5F
100
AcDbHatch
 10
0.0
 20
0.0
 30
0.0
210
0.0
220
0.0
230
1.0
  2
SOLID
 70
     1
 71
     0
 91
        1
 92
        3
 72
     0
 73
     1
 93
        4
 10
23479.86951455799
 20
-7771.444697335676
 10
23529.86951455799
 20
-7771.444697335676
 10
23529.86951455799
 20
-7764.029559801763
 10
23479.86951455799
 20
-7764.029559801763
 97
        0
 75
     0
 76
     1
 98
        0
  0
HATCH
  5
2D0
330
1F
100
AcDbEntity
  8
Ech.1_5
  6
Continuous
 62
    33
420
 12426362
440
 33554687
370
     5
390
5F
100
AcDbHatch
 10
0.0
 20
0.0
 30
0.0
210
0.0
220
0.0
230
1.0
  2
SOLID
 70
     1
 71
     0
 91
        1
 92
        3
 72
     0
 73
     1
 93
        4
 10
23271.84633956376
 20
-7850.079303284446
 10
23271.84633956376
 20
-7910.075343203244
 10
23331.84237948256
 20
-7910.075343203244
 10
23331.84237948256
 20
-7850.079303284446
 97
        0
 75
     0
 76
     1
 98
        0
  0
LINE
  5
2D1
330
1F
100
AcDbEntity
  8
Ech.1_5
  6
Continuous
 62
   190
370
    15
390
5F
100
AcDbLine
 10
23271.84633956376
 20
-7910.075343203244
 30
0.0
 11
23331.84237948256
 21
-7850.079303284446
 31
0.0
  0
LINE
  5
2D2
330
1F
100
AcDbEntity
  8
Ech.1_5
  6
Continuous
 62
   190
370
    15
390
5F
100
AcDbLine
 10
23331.84237948256
 20
-7910.075343203244
 30
0.0
 11
23271.84633956376
 21
-7850.079303284446
 31
0.0
  0
LWPOLYLINE
  5
2D3
330
1F
100
AcDbEntity
  8
Ech.1_5
  6
Continuous
 62
     5
370
    40
390
5F
100
AcDbPolyline
 90
        5
 70
     0
 43
0.0
 10
23271.84633956376
 20
-7850.079303284446
 10
23271.84633956376
 20
-7910.075343203244
 10
23331.84237948256
 20
-7910.075343203244
 10
23331.84237948256
 20
-7850.079303284446
 10
23271.84633956376
 20
-7850.079303284446
  0
HATCH
  5
2D4
330
1F
100
AcDbEntity
  8
Ech.1_5
  6
Continuous
 62
    33
420
 12426362
440
 33554687
370
     5
390
5F
100
AcDbHatch
 10
0.0
 20
0.0
 30
0.0
210
0.0
220
0.0
230
1.0
  2
SOLID
 70
     1
 71
     0
 91
        1
 92
        3
 72
     0
 73
     1
 93
        4
 10
23271.84633956376
 20
-7850.079303284446
 10
23271.84633956376
 20
-7910.075343203244
 10
23331.84237948256
 20
-7910.075343203244
 10
23331.84237948256
 20
-7850.079303284446
 97
        0
 75
     0
 76
     1
 98
        0
  0
LINE
  5
2D5
330
1F
100
AcDbEntity
  8
Ech.1_5
  6
Continuous
 62
   190
370
    15
390
5F
100
AcDbLine
 10
23271.84633956376
 20
-7910.075343203244
 30
0.0
 11
23331.84237948256
 21
-7850.079303284446
 31
0.0
  0
LINE
  5
2D6
330
1F
100
AcDbEntity
  8
Ech.1_5
  6
Continuous
 62
   190
370
    15
390
5F
100
AcDbLine
 10
23331.84237948256
 20
-7910.075343203244
 30
0.0
 11
23271.84633956376
 21
-7850.079303284446
 31
0.0
  0
LWPOLYLINE
  5
2D7
330
1F
100
AcDbEntity
  8
Ech.1_5
  6
Continuous
 62
     5
370
    40
390
5F
100
AcDbPolyline
 90
        5
 70
     0
 43
0.0
 10
23271.84633956376
 20
-7850.079303284446
 10
23271.84633956376
 20
-7910.075343203244
 10
23331.84237948256
 20
-7910.075343203244
 10
23331.84237948256
 20
-7850.079303284446
 10
23271.84633956376
 20
-7850.079303284446
  0
HATCH
  5
2D8
330
1F
100
AcDbEntity
  8
Ech.1_5
  6
Continuous
 62
    33
420
 12426362
440
 33554687
370
     5
390
5F
100
AcDbHatch
 10
0.0
 20
0.0
 30
0.0
210
0.0
220
0.0
230
1.0
  2
SOLID
 70
     1
 71
     0
 91
        1
 92
        3
 72
     0
 73
     1
 93
        4
 10
23281.8462787345
 20
-7930.122178461927
 10
23281.84627873489
 20
-8002.622361435192
 10
23341.84627873505
 20
-8002.623190819887
 10
23341.84627873466
 20
-7930.122178461578
 97
        0
 75
     0
 76
     1
 98
        0
  0
LINE
  5
2D9
330
1F
100
AcDbEntity
  8
Ech.1_5
  6
Continuous
 62
   190
370
    15
390
5F
100
AcDbLine
 10
23281.84627873489
 20
-8002.622361435192
 30
0.0
 11
23341.84627873466
 21
-7930.122178461578
 31
0.0
  0
LINE
  5
2DA
330
1F
100
AcDbEntity
  8
Ech.1_5
  6
Continuous
 62
   190
370
    15
390
5F
100
AcDbLine
 10
23341.84627873505
 20
-8002.623190819887
 30
0.0
 11
23281.8462787345
 21
-7930.122178461927
 31
0.0
  0
LWPOLYLINE
  5
2DB
330
1F
100
AcDbEntity
  8
Ech.1_5
  6
Continuous
 62
     5
370
    40
390
5F
100
AcDbPolyline
 90
        5
 70
     0
 43
0.0
 10
23281.8462787345
 20
-7930.122178461927
 10
23281.84627873489
 20
-8002.622361435192
 10
23341.84627873505
 20
-8002.623190819887
 10
23341.84627873466
 20
-7930.122178461578
 10
23281.8462787345
 20
-7930.122178461927
  0
HATCH
  5
2DC
330
1F
100
AcDbEntity
  8
Ech.1_5
  6
Continuous
 62
    33
420
 12426362
440
 33554687
370
     5
390
5F
100
AcDbHatch
 10
0.0
 20
0.0
 30
0.0
210
0.0
220
0.0
230
1.0
  2
SOLID
 70
     1
 71
     0
 91
        1
 92
        3
 72
     0
 73
     1
 93
        4
 10
23271.84627873587
 20
-8002.622177127488
 10
23271.84627873626
 20
-8075.122360100749
 10
23331.84627873626
 20
-8075.123189485447
 10
23331.84627873587
 20
-8002.622177127138
 97
        0
 75
     0
 76
     1
 98
        0
  0
LINE
  5
2DD
330
1F
100
AcDbEntity
  8
Ech.1_5
  6
Continuous
 62
   190
370
    15
390
5F
100
AcDbLine
 10
23271.84627873626
 20
-8075.122360100749
 30
0.0
 11
23331.84627873587
 21
-8002.622177127138
 31
0.0
  0
LINE
  5
2DE
330
1F
100
AcDbEntity
  8
Ech.1_5
  6
Continuous
 62
   190
370
    15
390
5F
100
AcDbLine
 10
23331.84627873626
 20
-8075.123189485447
 30
0.0
 11
23271.84627873587
 21
-8002.622177127488
 31
0.0
  0
LWPOLYLINE
  5
2DF
330
1F
100
AcDbEntity
  8
Ech.1_5
  6
Continuous
 62
     5
370
    40
390
5F
100
AcDbPolyline
 90
        5
 70
     0
 43
0.0
 10
23271.84627873587
 20
-8002.622177127488
 10
23271.84627873626
 20
-8075.122360100749
 10
23331.84627873626
 20
-8075.123189485447
 10
23331.84627873587
 20
-8002.622177127138
 10
23271.84627873587
 20
-8002.622177127488
  0
HATCH
  5
2E0
330
1F
100
AcDbEntity
  8
Ech.1_5
  6
Continuous
 62
   254
420
 13882323
440
 33554687
370
     5
390
5F
100
AcDbHatch
 10
0.0
 20
0.0
 30
0.0
210
0.0
220
0.0
230
1.0
  2
SOLID
 70
     1
 71
     0
 91
        1
 92
        3
 72
     0
 73
     1
 93
        4
 10
23341.84627873599
 20
-8055.121541734316
 10
23341.84627873599
 20
-8006.941945456006
 10
23331.84627873626
 20
-8006.941945456006
 10
23331.84627873626
 20
-8055.121541734316
 97
        0
 75
     0
 76
     1
 98
        0
  0
LINE
  5
2E1
330
1F
100
AcDbEntity
  8
Ech.1_5
  6
Continuous
 62
   190
370
    15
390
5F
100
AcDbLine
 10
23341.84627873599
 20
-8006.941945456006
 30
0.0
 11
23331.84627873626
 21
-8055.121541734316
 31
0.0
  0
LINE
  5
2E2
330
1F
100
AcDbEntity
  8
Ech.1_5
  6
Continuous
 62
   190
370
    15
390
5F
100
AcDbLine
 10
23331.84627873626
 20
-8006.941945456006
 30
0.0
 11
23341.84627873599
 21
-8055.121541734316
 31
0.0
  0
LWPOLYLINE
  5
2E3
330
1F
100
AcDbEntity
  8
Ech.1_5
  6
Continuous
 62
   190
370
    20
390
5F
100
AcDbPolyline
 90
        5
 70
     0
 43
0.0
 10
23341.84627873599
 20
-8055.121541734316
 10
23341.84627873599
 20
-8006.941945456006
 10
23331.84627873626
 20
-8006.941945456006
 10
23331.84627873626
 20
-8055.121541734316
 10
23341.84627873599
 20
-8055.121541734316
  0
HATCH
  5
2E4
330
1F
100
AcDbEntity
  8
Ech.1_5
  6
Continuous
 62
     2
440
 33554687
370
     5
390
5F
100
AcDbHatch
 10
0.0
 20
0.0
 30
0.0
210
0.0
220
0.0
230
1.0
  2
SOLID
 70
     1
 71
     0
 91
        1
 92
        3
 72
     0
 73
     1
 93
        4
 10
23331.84627873626
 20
-8075.123189485447
 10
23341.84627873626
 20
-8075.123189485447
 10
23341.84627873626
 20
-8055.121541734316
 10
23331.84627873626
 20
-8055.121541734316
 97
        0
 75
     0
 76
     1
 98
        0
  0
HATCH
  5
2E5
330
1F
100
AcDbEntity
  8
Ech.1_5
  6
Continuous
 62
     7
440
 33554687
370
    20
390
5F
100
AcDbHatch
 10
0.0
 20
0.0
 30
0.0
210
0.0
220
0.0
230
1.0
  2
CwHatchPattern_31
 70
     0
 71
     0
 91
        1
 92
        3
 72
     0
 73
     1
 93
        4
 10
23331.84627873626
 20
-8075.123189485447
 10
23341.84627873626
 20
-8075.123189485447
 10
23341.84627873626
 20
-8055.121541734316
 10
23331.84627873626
 20
-8055.121541734316
 97
        0
 75
     0
 76
     2
 52
0.0
 41
0.1500000059604645
 77
     0
 78
     1
 53
45.00000000000297
 43
0.0
 44
0.0
 45
-2.121320427853449
 46
2.12132042785323
 79
     0
 98
        0
1001
ACAD
1010
0.0
1020
0.0
1030
0.0
  0
LWPOLYLINE
  5
2E6
330
1F
100
AcDbEntity
  8
Ech.1_5
  6
Continuous
 62
     7
370
     5
390
5F
100
AcDbPolyline
 90
        5
 70
     0
 43
0.0
 10
23331.84627873626
 20
-8075.123189485447
 10
23341.84627873626
 20
-8075.123189485447
 10
23341.84627873626
 20
-8055.121541734316
 10
23331.84627873626
 20
-8055.121541734316
 10
23331.84627873626
 20
-8075.123189485447
  0
HATCH
  5
2E7
330
1F
100
AcDbEntity
  8
Ech.1_5
  6
Continuous
 62
    33
420
 12426362
440
 33554687
370
     5
390
5F
100
AcDbHatch
 10
0.0
 20
0.0
 30
0.0
210
0.0
220
0.0
230
1.0
  2
SOLID
 70
     1
 71
     0
 91
        1
 92
        3
 72
     0
 73
     1
 93
        4
 10
23341.84627873485
 20
-7930.122178461811
 10
23341.84627873525
 20
-8075.125163365142
 10
23386.84627873524
 20
-8075.12599274984
 10
23386.84627873485
 20
-7930.122178461462
 97
        0
 75
     0
 76
     1
 98
        0
  0
LINE
  5
2E8
330
1F
100
AcDbEntity
  8
Ech.1_5
  6
Continuous
 62
   190
370
    15
390
5F
100
AcDbLine
 10
23341.84627873525
 20
-8075.125163365142
 30
0.0
 11
23386.84627873485
 21
-7930.122178461462
 31
0.0
  0
LINE
  5
2E9
330
1F
100
AcDbEntity
  8
Ech.1_5
  6
Continuous
 62
   190
370
    15
390
5F
100
AcDbLine
 10
23386.84627873524
 20
-8075.12599274984
 30
0.0
 11
23341.84627873485
 21
-7930.122178461811
 31
0.0
  0
LWPOLYLINE
  5
2EA
330
1F
100
AcDbEntity
  8
Ech.1_5
  6
Continuous
 62
     5
370
    40
390
5F
100
AcDbPolyline
 90
        5
 70
     0
 43
0.0
 10
23341.84627873485
 20
-7930.122178461811
 10
23341.84627873525
 20
-8075.125163365142
 10
23386.84627873524
 20
-8075.12599274984
 10
23386.84627873485
 20
-7930.122178461462
 10
23341.84627873485
 20
-7930.122178461811
  0
HATCH
  5
2EB
330
1F
100
AcDbEntity
  8
Ech.1_5
  6
Continuous
 62
   254
420
 13882323
440
 33554687
370
     5
390
5F
100
AcDbHatch
 10
0.0
 20
0.0
 30
0.0
210
0.0
220
0.0
230
1.0
  2
SOLID
 70
     1
 71
     0
 91
        1
 92
        3
 72
     0
 73
     1
 93
        4
 10
23341.84237948187
 20
-7881.127786301732
 10
23331.84237948256
 20
-7881.127786301732
 10
23331.84237948256
 20
-7921.1221784694
 10
23341.84237948187
 20
-7921.1221784694
 97
        0
 75
     0
 76
     1
 98
        0
  0
LINE
  5
2EC
330
1F
100
AcDbEntity
  8
Ech.1_5
  6
Continuous
 62
   190
370
    15
390
5F
100
AcDbLine
 10
23331.84237948256
 20
-7881.127786301732
 30
0.0
 11
23341.84237948187
 21
-7921.1221784694
 31
0.0
  0
LINE
  5
2ED
330
1F
100
AcDbEntity
  8
Ech.1_5
  6
Continuous
 62
   190
370
    15
390
5F
100
AcDbLine
 10
23331.84237948256
 20
-7921.1221784694
 30
0.0
 11
23341.84237948187
 21
-7881.127786301732
 31
0.0
  0
LWPOLYLINE
  5
2EE
330
1F
100
AcDbEntity
  8
Ech.1_5
  6
Continuous
 62
   190
370
    20
390
5F
100
AcDbPolyline
 90
        5
 70
     0
 43
0.0
 10
23341.84237948187
 20
-7881.127786301732
 10
23331.84237948256
 20
-7881.127786301732
 10
23331.84237948256
 20
-7921.1221784694
 10
23341.84237948187
 20
-7921.1221784694
 10
23341.84237948187
 20
-7881.127786301732
  0
HATCH
  5
2EF
330
1F
100
AcDbEntity
  8
Ech.1_5
  6
Continuous
 62
    33
420
 12426362
440
 33554687
370
     5
390
5F
100
AcDbHatch
 10
0.0
 20
0.0
 30
0.0
210
0.0
220
0.0
230
1.0
  2
SOLID
 70
     1
 71
     0
 91
        1
 92
        3
 72
     0
 73
     1
 93
        4
 10
23386.84237948186
 20
-7921.123007854095
 10
23386.8423794817
 20
-7861.126138550601
 10
23341.8423794817
 20
-7861.126138550601
 10
23341.84237948187
 20
-7921.1221784694
 97
        0
 75
     0
 76
     1
 98
        0
  0
LINE
  5
2F0
330
1F
100
AcDbEntity
  8
Ech.1_5
  6
Continuous
 62
   190
370
    15
390
5F
100
AcDbLine
 10
23386.8423794817
 20
-7861.126138550601
 30
0.0
 11
23341.84237948187
 21
-7921.1221784694
 31
0.0
  0
LINE
  5
2F1
330
1F
100
AcDbEntity
  8
Ech.1_5
  6
Continuous
 62
   190
370
    15
390
5F
100
AcDbLine
 10
23341.8423794817
 20
-7861.126138550601
 30
0.0
 11
23386.84237948186
 21
-7921.123007854095
 31
0.0
  0
LWPOLYLINE
  5
2F2
330
1F
100
AcDbEntity
  8
Ech.1_5
  6
Continuous
 62
     5
370
    40
390
5F
100
AcDbPolyline
 90
        5
 70
     0
 43
0.0
 10
23386.84237948186
 20
-7921.123007854095
 10
23386.8423794817
 20
-7861.126138550601
 10
23341.8423794817
 20
-7861.126138550601
 10
23341.84237948187
 20
-7921.1221784694
 10
23386.84237948186
 20
-7921.123007854095
  0
LWPOLYLINE
  5
2F3
330
1F
100
AcDbEntity
  8
Ech.1_5
  6
CADWORK_22
 62
     1
 48
0.6
370
    35
390
5F
100
AcDbPolyline
 90
        4
 70
   128
 43
0.0
 10
23421.38214328961
 20
-8076.643664248078
 10
23341.84627873525
 20
-8076.643664248078
 10
23341.84627873485
 20
-8064.401143962984
 10
23342.23471946122
 20
-8012.152472464816
  0
HATCH
  5
2F4
330
1F
100
AcDbEntity
  8
Ech.1_5
  6
Continuous
 62
     2
440
 33554687
370
     5
390
5F
100
AcDbHatch
 10
0.0
 20
0.0
 30
0.0
210
0.0
220
0.0
230
1.0
  2
SOLID
 70
     1
 71
     0
 91
        1
 92
        3
 72
     0
 73
     1
 93
        4
 10
23331.84627873626
 20
-7881.127786301732
 10
23341.84627873626
 20
-7881.127786301732
 10
23341.84627873626
 20
-7861.126138550601
 10
23331.84627873626
 20
-7861.126138550601
 97
        0
 75
     0
 76
     1
 98
        0
  0
HATCH
  5
2F5
330
1F
100
AcDbEntity
  8
Ech.1_5
  6
Continuous
 62
     7
440
 33554687
370
    20
390
5F
100
AcDbHatch
 10
0.0
 20
0.0
 30
0.0
210
0.0
220
0.0
230
1.0
  2
CwHatchPattern_31
 70
     0
 71
     0
 91
        1
 92
        3
 72
     0
 73
     1
 93
        4
 10
23331.84627873626
 20
-7881.127786301732
 10
23341.84627873626
 20
-7881.127786301732
 10
23341.84627873626
 20
-7861.126138550601
 10
23331.84627873626
 20
-7861.126138550601
 97
        0
 75
     0
 76
     2
 52
0.0
 41
0.1500000059604645
 77
     0
 78
     1
 53
45.00000000000297
 43
0.0
 44
0.0
 45
-2.121320427853449
 46
2.12132042785323
 79
     0
 98
        0
1001
ACAD
1010
0.0
1020
0.0
1030
0.0
  0
LWPOLYLINE
  5
2F6
330
1F
100
AcDbEntity
  8
Ech.1_5
  6
Continuous
 62
     7
370
     5
390
5F
100
AcDbPolyline
 90
        5
 70
     0
 43
0.0
 10
23331.84627873626
 20
-7881.127786301732
 10
23341.84627873626
 20
-7881.127786301732
 10
23341.84627873626
 20
-7861.126138550601
 10
23331.84627873626
 20
-7861.126138550601
 10
23331.84627873626
 20
-7881.127786301732
  0
LWPOLYLINE
  5
2F7
330
1F
100
AcDbEntity
  8
Ech.1_5
  6
CADWORK_22
 62
   140
420
  1483507
 48
0.6
370
    35
390
5F
100
AcDbPolyline
 90
        3
 70
   128
 43
0.0
 38
2500.0
 10
23333.34627873211
 20
-7749.244704023408
 10
23333.34627873211
 20
-7859.116690172633
 10
23333.34627873211
 20
-7919.844062170862
  0
LWPOLYLINE
  5
2F8
330
1F
100
AcDbEntity
  8
Ech.1_5
  6
CADWORK_22
 62
   140
420
  1483507
 48
0.6
370
    35
390
5F
100
AcDbPolyline
 90
        3
 70
   128
 43
0.0
 38
2500.0
 10
23473.76481905959
 20
-7861.314422999168
 10
23341.84627873626
 20
-7861.126138550601
 10
23341.84627873626
 20
-7919.844062170862
  0
HATCH
  5
2F9
330
1F
100
AcDbEntity
  8
Ech.1_5
  6
Continuous
 62
   158
420
    12131
440
 33554687
370
    20
390
5F
100
AcDbHatch
 10
0.0
 20
0.0
 30
0.0
210
0.0
220
0.0
230
1.0
  2
SOLID
 70
     1
 71
     0
 91
        1
 92
        3
 72
     0
 73
     1
 93
        8
 10
22696.98256159946
 20
-9051.729716281028
 10
22696.98256159946
 20
-9048.783778761033
 10
22696.00243871946
 20
-9048.783778761033
 10
22696.00243871946
 20
-9048.341052801035
 10
22698.55577019946
 20
-9048.341052801035
 10
22698.50565027946
 20
-9048.783778761033
 10
22697.47540747946
 20
-9048.783778761033
 10
22697.47540747946
 20
-9051.729716281028
 97
        0
 75
     0
 76
     1
 98
        0
  0
HATCH
  5
2FA
330
1F
100
AcDbEntity
  8
Ech.1_5
  6
Continuous
 62
   158
420
    12131
440
 33554687
370
    20
390
5F
100
AcDbHatch
 10
0.0
 20
0.0
 30
0.0
210
0.0
220
0.0
230
1.0
  2
SOLID
 70
     1
 71
     0
 91
        1
 92
        3
 72
     0
 73
     1
 93
        4
 10
22699.34098227946
 20
-9051.729716281028
 10
22699.34098227946
 20
-9048.341052801035
 10
22699.88116363946
 20
-9048.341052801035
 10
22699.88116363946
 20
-9051.729716281028
 97
        0
 75
     0
 76
     1
 98
        0
  0
HATCH
  5
2FB
330
1F
100
AcDbEntity
  8
Ech.1_5
  6
Continuous
 62
   158
420
    12131
440
 33554687
370
    20
390
5F
100
AcDbHatch
 10
0.0
 20
0.0
 30
0.0
210
0.0
220
0.0
230
1.0
  2
SOLID
 70
     1
 71
     0
 91
        1
 92
        3
 72
     0
 73
     1
 93
        8
 10
22701.64928303946
 20
-9051.729716281028
 10
22701.64928303946
 20
-9048.783778761033
 10
22700.66637571946
 20
-9048.783778761033
 10
22700.66637571946
 20
-9048.341052801035
 10
22703.22249163946
 20
-9048.341052801035
 10
22703.17237171946
 20
-9048.783778761033
 10
22702.18946439946
 20
-9048.783778761033
 10
22702.18946439946
 20
-9051.729716281028
 97
        0
 75
     0
 76
     1
 98
        0
  0
HATCH
  5
2FC
330
1F
100
AcDbEntity
  8
Ech.1_5
  6
Continuous
 62
   158
420
    12131
440
 33554687
370
    20
390
5F
100
AcDbHatch
 10
0.0
 20
0.0
 30
0.0
210
0.0
220
0.0
230
1.0
  2
SOLID
 70
     1
 71
     0
 91
        1
 92
        3
 72
     0
 73
     1
 93
       32
 10
22705.13818635946
 20
-9051.779836201036
 10
22704.89037119946
 20
-9051.779836201036
 10
22704.49776515946
 20
-9051.679596361035
 10
22704.20261451946
 20
-9051.532021041035
 10
22704.00770371946
 20
-9051.28699032103
 10
22703.95758379946
 20
-9051.189534921032
 10
22703.91024831947
 20
-9051.04195960104
 10
22703.86012839946
 20
-9050.746808961034
 10
22703.86012839946
 20
-9048.341052801035
 10
22704.35018983946
 20
-9048.341052801035
 10
22704.35018983946
 20
-9050.35420292103
 10
22704.35018983946
 20
-9050.746808961034
 10
22704.40030975946
 20
-9050.944504201027
 10
22704.59800499947
 20
-9051.189534921032
 10
22704.74279587947
 20
-9051.28699032103
 10
22704.99061103947
 20
-9051.337110241031
 10
22705.13818635946
 20
-9051.337110241031
 10
22705.33309715946
 20
-9051.337110241031
 10
22705.57812787946
 20
-9051.239654841025
 10
22705.72570319947
 20
-9051.139415001031
 10
22705.82315859947
 20
-9050.991839681024
 10
22705.87327851946
 20
-9050.699473481036
 10
22705.87327851946
 20
-9048.341052801035
 10
22706.41345987946
 20
-9048.341052801035
 10
22706.41345987946
 20
-9050.501778241029
 10
22706.41345987946
 20
-9050.844264361025
 10
22706.31600447946
 20
-9051.189534921032
 10
22706.21854907946
 20
-9051.387230161024
 10
22706.11830923946
 20
-9051.434565641022
 10
22706.02085383946
 20
-9051.532021041035
 10
22705.82315859947
 20
-9051.679596361035
 10
22705.43055255946
 20
-9051.779836201036
 97
        0
 75
     0
 76
     1
 98
        0
  0
HATCH
  5
2FD
330
1F
100
AcDbEntity
  8
Ech.1_5
  6
Continuous
 62
   158
420
    12131
440
 33554687
370
    20
390
5F
100
AcDbHatch
 10
0.0
 20
0.0
 30
0.0
210
0.0
220
0.0
230
1.0
  2
SOLID
 70
     1
 71
     0
 91
        1
 92
        3
 72
     0
 73
     1
 93
        8
 10
22708.18157927946
 20
-9051.729716281028
 10
22708.18157927946
 20
-9048.783778761033
 10
22707.19867195946
 20
-9048.783778761033
 10
22707.19867195946
 20
-9048.341052801035
 10
22709.75478787946
 20
-9048.341052801035
 10
22709.70466795946
 20
-9048.783778761033
 10
22708.72176063946
 20
-9048.783778761033
 10
22708.72176063946
 20
-9051.729716281028
 97
        0
 75
     0
 76
     1
 98
        0
  0
HATCH
  5
2FE
330
1F
100
AcDbEntity
  8
Ech.1_5
  6
Continuous
 62
   158
420
    12131
440
 33554687
370
    20
390
5F
100
AcDbHatch
 10
0.0
 20
0.0
 30
0.0
210
0.0
220
0.0
230
1.0
  2
SOLID
 70
     1
 71
     0
 91
        1
 92
        3
 72
     0
 73
     1
 93
        8
 10
22688.24220443946
 20
-9058.654618561028
 10
22688.24220443946
 20
-9055.70868104104
 10
22687.25929711946
 20
-9055.70868104104
 10
22687.25929711946
 20
-9055.265955081042
 10
22689.86274851946
 20
-9055.265955081042
 10
22689.76529311946
 20
-9055.70868104104
 10
22688.78238579947
 20
-9055.70868104104
 10
22688.78238579947
 20
-9058.654618561028
 97
        0
 75
     0
 76
     1
 98
        0
  0
HATCH
  5
2FF
330
1F
100
AcDbEntity
  8
Ech.1_5
  6
Continuous
 62
   158
420
    12131
440
 33554687
370
    20
390
5F
100
AcDbHatch
 10
0.0
 20
0.0
 30
0.0
210
0.0
220
0.0
230
1.0
  2
SOLID
 70
     1
 71
     0
 91
        1
 92
        3
 72
     0
 73
     1
 93
       12
 10
22690.59784067946
 20
-9058.654618561028
 10
22690.59784067946
 20
-9055.265955081042
 10
22692.71123063946
 20
-9055.265955081042
 10
22692.61377523946
 20
-9055.70868104104
 10
22691.13802203946
 20
-9055.70868104104
 10
22691.13802203946
 20
-9056.691588361042
 10
22692.36596007946
 20
-9056.691588361042
 10
22692.36596007946
 20
-9057.084194401024
 10
22691.13802203946
 20
-9057.084194401024
 10
22691.13802203946
 20
-9058.164557121032
 10
22692.76135055946
 20
-9058.164557121032
 10
22692.76135055946
 20
-9058.654618561028
 97
        0
 75
     0
 76
     1
 98
        0
  0
HATCH
  5
300
330
1F
100
AcDbEntity
  8
Ech.1_5
  6
Continuous
 62
   158
420
    12131
440
 33554687
370
    20
390
5F
100
AcDbHatch
 10
0.0
 20
0.0
 30
0.0
210
0.0
220
0.0
230
1.0
  2
SOLID
 70
     1
 71
     0
 91
        1
 92
        3
 72
     0
 73
     1
 93
       38
 10
22695.11698679946
 20
-9058.704738481043
 10
22694.77450067946
 20
-9058.654618561028
 10
22694.18419939946
 20
-9058.409587841037
 10
22693.74147343946
 20
-9057.96686188104
 10
22693.54656263947
 20
-9057.329225121037
 10
22693.49644271946
 20
-9056.98395456103
 10
22693.54656263947
 20
-9056.591348521048
 10
22693.79159335946
 20
-9055.95371176103
 10
22694.23431931946
 20
-9055.463650321028
 10
22694.82183615946
 20
-9055.215835161027
 10
22695.11698679946
 20
-9055.215835161027
 10
22695.41213743947
 20
-9055.215835161027
 10
22695.90219887946
 20
-9055.363410481026
 10
22696.09989411946
 20
-9055.463650321028
 10
22695.80474347946
 20
-9055.856256361032
 10
22695.65716815946
 20
-9055.70868104104
 10
22695.31468203946
 20
-9055.608441201031
 10
22695.16710671946
 20
-9055.608441201031
 10
22695.01953139946
 20
-9055.608441201031
 10
22694.72438075946
 20
-9055.70868104104
 10
22694.47935003946
 20
-9055.856256361032
 10
22694.28165479946
 20
-9056.051167161037
 10
22694.23431931946
 20
-9056.198742481029
 10
22694.13407947946
 20
-9056.346317801035
 10
22694.08674399946
 20
-9056.73892384104
 10
22694.08674399946
 20
-9056.98395456103
 10
22694.08674399946
 20
-9057.329225121037
 10
22694.23431931946
 20
-9057.771951081035
 10
22694.38189463946
 20
-9057.916741961031
 10
22694.52946995946
 20
-9058.114437201039
 10
22694.96941147946
 20
-9058.262012521045
 10
22695.16710671946
 20
-9058.262012521045
 10
22695.36201751946
 20
-9058.262012521045
 10
22695.75740799947
 20
-9058.164557121032
 10
22695.90219887946
 20
-9058.064317281023
 10
22696.15001403946
 20
-9058.409587841037
 10
22695.95231879946
 20
-9058.557163161036
 10
22695.41213743947
 20
-9058.654618561028
 97
        0
 75
     0
 76
     1
 98
        0
  0
HATCH
  5
301
330
1F
100
AcDbEntity
  8
Ech.1_5
  6
Continuous
 62
   158
420
    12131
440
 33554687
370
    20
390
5F
100
AcDbHatch
 10
0.0
 20
0.0
 30
0.0
210
0.0
220
0.0
230
1.0
  2
SOLID
 70
     1
 71
     0
 91
        1
 92
        3
 72
     0
 73
     1
 93
       12
 10
22696.83777071947
 20
-9058.654618561028
 10
22696.83777071947
 20
-9055.265955081042
 10
22697.37795207946
 20
-9055.265955081042
 10
22697.37795207946
 20
-9056.641468441027
 10
22698.89825631946
 20
-9056.641468441027
 10
22698.89825631946
 20
-9055.265955081042
 10
22699.39110219946
 20
-9055.265955081042
 10
22699.39110219946
 20
-9058.654618561028
 10
22698.89825631946
 20
-9058.654618561028
 10
22698.89825631946
 20
-9057.084194401024
 10
22697.37795207946
 20
-9057.084194401024
 10
22697.37795207946
 20
-9058.654618561028
 97
        0
 75
     0
 76
     1
 98
        0
  0
HATCH
  5
302
330
1F
100
AcDbEntity
  8
Ech.1_5
  6
Continuous
 62
   158
420
    12131
440
 33554687
370
    20
390
5F
100
AcDbHatch
 10
0.0
 20
0.0
 30
0.0
210
0.0
220
0.0
230
1.0
  2
SOLID
 70
     1
 71
     0
 91
        1
 92
        3
 72
     0
 73
     1
 93
       18
 10
22700.56892031946
 20
-9058.654618561028
 10
22700.56892031946
 20
-9055.265955081042
 10
22701.15922159946
 20
-9055.265955081042
 10
22702.23958431946
 20
-9057.084194401024
 10
22702.58207043946
 20
-9057.67171124104
 10
22702.68231027946
 20
-9057.916741961031
 10
22702.63219035947
 20
-9057.426680521028
 10
22702.63219035947
 20
-9056.936619081032
 10
22702.63219035947
 20
-9055.265955081042
 10
22703.12225179946
 20
-9055.265955081042
 10
22703.12225179946
 20
-9058.654618561028
 10
22702.58207043946
 20
-9058.654618561028
 10
22701.50170771946
 20
-9056.836379241024
 10
22701.25667699946
 20
-9056.493893121034
 10
22701.01164627946
 20
-9055.95371176103
 10
22701.06176619946
 20
-9056.248862401044
 10
22701.06176619946
 20
-9056.936619081032
 10
22701.10910167946
 20
-9058.654618561028
 97
        0
 75
     0
 76
     1
 98
        0
  0
HATCH
  5
303
330
1F
100
AcDbEntity
  8
Ech.1_5
  6
Continuous
 62
   158
420
    12131
440
 33554687
370
    20
390
5F
100
AcDbHatch
 10
0.0
 20
0.0
 30
0.0
210
0.0
220
0.0
230
1.0
  2
SOLID
 70
     1
 71
     0
 91
        1
 92
        3
 72
     0
 73
     1
 93
       56
 10
22705.67836771946
 20
-9058.704738481043
 10
22705.67836771946
 20
-9058.312132441024
 10
22705.87327851946
 20
-9058.312132441024
 10
22706.11830923946
 20
-9058.21189260103
 10
22706.31600447946
 20
-9058.114437201039
 10
22706.46357979946
 20
-9057.916741961031
 10
22706.51091527946
 20
-9057.819286561047
 10
22706.61115511946
 20
-9057.524135921041
 10
22706.61115511946
 20
-9057.034074481046
 10
22706.61115511946
 20
-9056.691588361042
 10
22706.56103519946
 20
-9056.248862401044
 10
22706.46357979946
 20
-9056.051167161037
 10
22706.41345987946
 20
-9055.95371176103
 10
22706.21854907946
 20
-9055.806136441024
 10
22706.02085383946
 20
-9055.70868104104
 10
22705.77582311946
 20
-9055.608441201031
 10
22705.62824779946
 20
-9055.608441201031
 10
22705.38321707946
 20
-9055.658561121025
 10
22705.08806643946
 20
-9055.75601652103
 10
22704.94049111947
 20
-9055.903591841037
 10
22704.79291579946
 20
-9056.101287081023
 10
22704.69546039946
 20
-9056.591348521048
 10
22704.69546039946
 20
-9056.886499161039
 10
22704.69546039946
 20
-9057.231769721031
 10
22704.84303571946
 20
-9057.771951081035
 10
22704.94049111947
 20
-9057.96686188104
 10
22705.13818635946
 20
-9058.164557121032
 10
22705.43055255946
 20
-9058.312132441024
 10
22705.67836771946
 20
-9058.312132441024
 10
22705.67836771946
 20
-9058.704738481043
 10
22705.33309715946
 20
-9058.654618561028
 10
22704.89037119946
 20
-9058.557163161036
 10
22704.64534047947
 20
-9058.35946792103
 10
22704.54788507946
 20
-9058.262012521045
 10
22704.35018983946
 20
-9057.96686188104
 10
22704.15527903946
 20
-9057.329225121037
 10
22704.10515911946
 20
-9056.936619081032
 10
22704.15527903946
 20
-9056.544013041042
 10
22704.35018983946
 20
-9055.903591841037
 10
22704.64534047947
 20
-9055.561105721034
 10
22704.89037119946
 20
-9055.363410481026
 10
22705.28297723946
 20
-9055.215835161027
 10
22705.62824779946
 20
-9055.215835161027
 10
22706.07097375947
 20
-9055.215835161027
 10
22706.51091527946
 20
-9055.413530401034
 10
22706.75873043946
 20
-9055.608441201031
 10
22706.85618583946
 20
-9055.75601652103
 10
22707.05109663946
 20
-9055.95371176103
 10
22707.19867195946
 20
-9056.591348521048
 10
22707.19867195946
 20
-9056.98395456103
 10
22707.19867195946
 20
-9057.37656060105
 10
22707.05109663946
 20
-9057.96686188104
 10
22706.85618583946
 20
-9058.164557121032
 10
22706.75873043946
 20
-9058.312132441024
 10
22706.51091527946
 20
-9058.507043241036
 10
22706.07097375947
 20
-9058.654618561028
 97
        0
 75
     0
 76
     1
 98
        0
  0
HATCH
  5
304
330
1F
100
AcDbEntity
  8
Ech.1_5
  6
Continuous
 62
   158
420
    12131
440
 33554687
370
    20
390
5F
100
AcDbHatch
 10
0.0
 20
0.0
 30
0.0
210
0.0
220
0.0
230
1.0
  2
SOLID
 70
     1
 71
     0
 91
        1
 92
        3
 72
     0
 73
     1
 93
        6
 10
22708.23169919946
 20
-9058.654618561028
 10
22708.23169919946
 20
-9055.265955081042
 10
22708.72176063946
 20
-9055.265955081042
 10
22708.72176063946
 20
-9058.21189260103
 10
22710.19472939946
 20
-9058.21189260103
 10
22710.14739391946
 20
-9058.654618561028
 97
        0
 75
     0
 76
     1
 98
        0
  0
HATCH
  5
305
330
1F
100
AcDbEntity
  8
Ech.1_5
  6
Continuous
 62
   158
420
    12131
440
 33554687
370
    20
390
5F
100
AcDbHatch
 10
0.0
 20
0.0
 30
0.0
210
0.0
220
0.0
230
1.0
  2
SOLID
 70
     1
 71
     0
 91
        1
 92
        3
 72
     0
 73
     1
 93
       56
 10
22711.91551331946
 20
-9058.704738481043
 10
22711.96284879946
 20
-9058.312132441024
 10
22712.11042411946
 20
-9058.312132441024
 10
22712.35545483946
 20
-9058.21189260103
 10
22712.55315007946
 20
-9058.114437201039
 10
22712.70072539946
 20
-9057.916741961031
 10
22712.75084531946
 20
-9057.819286561047
 10
22712.84830071946
 20
-9057.524135921041
 10
22712.89563619946
 20
-9057.034074481046
 10
22712.89563619946
 20
-9056.691588361042
 10
22712.79818079947
 20
-9056.248862401044
 10
22712.70072539946
 20
-9056.051167161037
 10
22712.65060547946
 20
-9055.95371176103
 10
22712.50303015946
 20
-9055.806136441024
 10
22712.25799943946
 20
-9055.70868104104
 10
22712.01296871946
 20
-9055.608441201031
 10
22711.86539339946
 20
-9055.608441201031
 10
22711.67048259946
 20
-9055.658561121025
 10
22711.32521203946
 20
-9055.75601652103
 10
22711.17763671946
 20
-9055.903591841037
 10
22711.03006139946
 20
-9056.101287081023
 10
22710.93260599946
 20
-9056.591348521048
 10
22710.93260599946
 20
-9056.886499161039
 10
22710.93260599946
 20
-9057.231769721031
 10
22711.08018131946
 20
-9057.771951081035
 10
22711.17763671946
 20
-9057.96686188104
 10
22711.37533195946
 20
-9058.164557121032
 10
22711.67048259946
 20
-9058.312132441024
 10
22711.96284879946
 20
-9058.312132441024
 10
22711.91551331946
 20
-9058.704738481043
 10
22711.57024275946
 20
-9058.654618561028
 10
22711.17763671946
 20
-9058.557163161036
 10
22710.93260599946
 20
-9058.35946792103
 10
22710.78503067946
 20
-9058.262012521045
 10
22710.58733543946
 20
-9057.96686188104
 10
22710.39242463946
 20
-9057.329225121037
 10
22710.34230471947
 20
-9056.936619081032
 10
22710.39242463946
 20
-9056.544013041042
 10
22710.58733543946
 20
-9055.903591841037
 10
22710.88248607946
 20
-9055.561105721034
 10
22711.12751679946
 20
-9055.363410481026
 10
22711.52290727946
 20
-9055.215835161027
 10
22711.91551331946
 20
-9055.215835161027
 10
22712.30811935946
 20
-9055.215835161027
 10
22712.75084531946
 20
-9055.413530401034
 10
22712.99587603946
 20
-9055.608441201031
 10
22713.09333143946
 20
-9055.75601652103
 10
22713.29102667946
 20
-9055.95371176103
 10
22713.43860199946
 20
-9056.591348521048
 10
22713.48593747947
 20
-9056.98395456103
 10
22713.43860199946
 20
-9057.37656060105
 10
22713.29102667946
 20
-9057.96686188104
 10
22713.14345135946
 20
-9058.164557121032
 10
22712.99587603946
 20
-9058.312132441024
 10
22712.75084531946
 20
-9058.507043241036
 10
22712.30811935946
 20
-9058.654618561028
 97
        0
 75
     0
 76
     1
 98
        0
  0
HATCH
  5
306
330
1F
100
AcDbEntity
  8
Ech.1_5
  6
Continuous
 62
   158
420
    12131
440
 33554687
370
    20
390
5F
100
AcDbHatch
 10
0.0
 20
0.0
 30
0.0
210
0.0
220
0.0
230
1.0
  2
SOLID
 70
     1
 71
     0
 91
        1
 92
        3
 72
     0
 73
     1
 93
       46
 10
22715.94181355946
 20
-9058.704738481043
 10
22715.54920751946
 20
-9058.654618561028
 10
22714.95890623947
 20
-9058.409587841037
 10
22714.71387551946
 20
-9058.21189260103
 10
22714.61642011946
 20
-9058.114437201039
 10
22714.41872487946
 20
-9057.819286561047
 10
22714.27114955946
 20
-9057.329225121037
 10
22714.22381407947
 20
-9056.936619081032
 10
22714.27114955946
 20
-9056.443773201041
 10
22714.46884479946
 20
-9055.903591841037
 10
22714.71387551946
 20
-9055.608441201031
 10
22714.86145083946
 20
-9055.510985801033
 10
22715.10648155946
 20
-9055.363410481026
 10
22715.59932743946
 20
-9055.215835161027
 10
22715.84435815946
 20
-9055.215835161027
 10
22716.13950879946
 20
-9055.215835161027
 10
22716.67969015946
 20
-9055.413530401034
 10
22716.92472087946
 20
-9055.608441201031
 10
22716.67969015946
 20
-9055.903591841037
 10
22716.48199491946
 20
-9055.806136441024
 10
22716.13950879946
 20
-9055.658561121025
 10
22715.89169363946
 20
-9055.658561121025
 10
22715.69678283946
 20
-9055.658561121025
 10
22715.40163219946
 20
-9055.70868104104
 10
22715.20672139946
 20
-9055.856256361032
 10
22715.00902615946
 20
-9056.003831681031
 10
22714.95890623947
 20
-9056.101287081023
 10
22714.86145083946
 20
-9056.493893121034
 10
22714.81133091946
 20
-9056.98395456103
 10
22714.81133091946
 20
-9057.37656060105
 10
22715.00902615946
 20
-9057.819286561047
 10
22715.20672139946
 20
-9058.064317281023
 10
22715.30417679947
 20
-9058.114437201039
 10
22715.45175211946
 20
-9058.164557121032
 10
22715.79423823946
 20
-9058.262012521045
 10
22715.94181355946
 20
-9058.312132441024
 10
22716.13950879946
 20
-9058.262012521045
 10
22716.43187499946
 20
-9058.21189260103
 10
22716.53211483947
 20
-9058.164557121032
 10
22716.53211483947
 20
-9057.279105201036
 10
22715.79423823946
 20
-9057.279105201036
 10
22715.69678283946
 20
-9056.836379241024
 10
22717.02217627946
 20
-9056.836379241024
 10
22717.02217627946
 20
-9058.409587841037
 10
22716.77714555946
 20
-9058.557163161036
 10
22716.23696419946
 20
-9058.654618561028
 97
        0
 75
     0
 76
     1
 98
        0
  0
HATCH
  5
307
330
1F
100
AcDbEntity
  8
Ech.1_5
  6
Continuous
 62
   158
420
    12131
440
 33554687
370
    20
390
5F
100
AcDbHatch
 10
0.0
 20
0.0
 30
0.0
210
0.0
220
0.0
230
1.0
  2
SOLID
 70
     1
 71
     0
 91
        1
 92
        3
 72
     0
 73
     1
 93
        4
 10
22718.05520351946
 20
-9058.654618561028
 10
22718.05520351946
 20
-9055.265955081042
 10
22718.54526495946
 20
-9055.265955081042
 10
22718.54526495946
 20
-9058.654618561028
 97
        0
 75
     0
 76
     1
 98
        0
  0
HATCH
  5
308
330
1F
100
AcDbEntity
  8
Ech.1_5
  6
Continuous
 62
   158
420
    12131
440
 33554687
370
    20
390
5F
100
AcDbHatch
 10
0.0
 20
0.0
 30
0.0
210
0.0
220
0.0
230
1.0
  2
SOLID
 70
     1
 71
     0
 91
        1
 92
        3
 72
     0
 73
     1
 93
       64
 10
22722.86671583946
 20
-9059.392495161032
 10
22722.67180503946
 20
-9059.342375241038
 10
22722.37665439946
 20
-9059.244919841025
 10
22721.59144231946
 20
-9058.802193881027
 10
22721.29629167946
 20
-9058.704738481043
 10
22721.29629167946
 20
-9058.312132441024
 10
22721.54132239947
 20
-9058.21189260103
 10
22721.73623319946
 20
-9058.114437201039
 10
22721.88380851946
 20
-9057.916741961031
 10
22721.93392843946
 20
-9057.819286561047
 10
22722.08150375946
 20
-9057.524135921041
 10
22722.08150375946
 20
-9057.034074481046
 10
22722.08150375946
 20
-9056.691588361042
 10
22721.98404835946
 20
-9056.248862401044
 10
22721.83647303946
 20
-9055.95371176103
 10
22721.63877779946
 20
-9055.806136441024
 10
22721.44386699946
 20
-9055.70868104104
 10
22721.19605183946
 20
-9055.608441201031
 10
22721.05126095946
 20
-9055.608441201031
 10
22720.85356571946
 20
-9055.658561121025
 10
22720.55841507946
 20
-9055.75601652103
 10
22720.36350427946
 20
-9055.903591841037
 10
22720.21592895946
 20
-9056.101287081023
 10
22720.11568911946
 20
-9056.591348521048
 10
22720.11568911946
 20
-9056.886499161039
 10
22720.11568911946
 20
-9057.181649801038
 10
22720.21592895946
 20
-9057.721831161034
 10
22720.41083975946
 20
-9058.016981801033
 10
22720.55841507946
 20
-9058.164557121032
 10
22720.75611031946
 20
-9058.262012521045
 10
22721.00114103946
 20
-9058.312132441024
 10
22721.29629167946
 20
-9058.312132441024
 10
22721.29629167946
 20
-9058.704738481043
 10
22720.75611031946
 20
-9058.654618561028
 10
22720.36350427946
 20
-9058.557163161036
 10
22720.11568911946
 20
-9058.35946792103
 10
22720.01823371946
 20
-9058.262012521045
 10
22719.77320299946
 20
-9057.96686188104
 10
22719.57550775947
 20
-9057.329225121037
 10
22719.57550775947
 20
-9056.936619081032
 10
22719.57550775947
 20
-9056.544013041042
 10
22719.77320299946
 20
-9055.903591841037
 10
22720.06835363946
 20
-9055.561105721034
 10
22720.31338435946
 20
-9055.363410481026
 10
22720.75611031946
 20
-9055.215835161027
 10
22721.09859643946
 20
-9055.215835161027
 10
22721.29629167946
 20
-9055.215835161027
 10
22721.63877779946
 20
-9055.316075001021
 10
22722.08150375946
 20
-9055.510985801033
 10
22722.32653447946
 20
-9055.75601652103
 10
22722.47410979946
 20
-9055.95371176103
 10
22722.62168511947
 20
-9056.591348521048
 10
22722.67180503946
 20
-9056.98395456103
 10
22722.62168511947
 20
-9057.37656060105
 10
22722.47410979946
 20
-9057.96686188104
 10
22722.32653447946
 20
-9058.164557121032
 10
22722.13162367946
 20
-9058.409587841037
 10
22721.93392843946
 20
-9058.507043241036
 10
22722.27919899947
 20
-9058.654618561028
 10
22722.71914051946
 20
-9058.949769201034
 10
22722.96417123946
 20
-9059.04722460104
 10
22723.06441107946
 20
-9059.04722460104
 10
22723.25932187946
 20
-9059.04722460104
 10
22723.11174655947
 20
-9059.392495161032
 97
        0
 75
     0
 76
     1
 98
        0
  0
HATCH
  5
309
330
1F
100
AcDbEntity
  8
Ech.1_5
  6
Continuous
 62
   158
420
    12131
440
 33554687
370
    20
390
5F
100
AcDbHatch
 10
0.0
 20
0.0
 30
0.0
210
0.0
220
0.0
230
1.0
  2
SOLID
 70
     1
 71
     0
 91
        1
 92
        3
 72
     0
 73
     1
 93
       32
 10
22724.83253047946
 20
-9058.704738481043
 10
22724.58749975947
 20
-9058.704738481043
 10
22724.19210927947
 20
-9058.604498641034
 10
22723.94707855946
 20
-9058.45970776103
 10
22723.75216775946
 20
-9058.262012521045
 10
22723.70204783946
 20
-9058.114437201039
 10
22723.60459243946
 20
-9058.016981801033
 10
22723.55447251946
 20
-9057.67171124104
 10
22723.55447251946
 20
-9055.265955081042
 10
22724.09465387946
 20
-9055.265955081042
 10
22724.09465387946
 20
-9057.279105201036
 10
22724.09465387946
 20
-9057.67171124104
 10
22724.14477379946
 20
-9057.869406481026
 10
22724.29234911946
 20
-9058.064317281023
 10
22724.48725991946
 20
-9058.21189260103
 10
22724.73229063946
 20
-9058.262012521045
 10
22724.83253047946
 20
-9058.262012521045
 10
22725.07756119946
 20
-9058.262012521045
 10
22725.32259191946
 20
-9058.164557121032
 10
22725.47016723947
 20
-9058.064317281023
 10
22725.56762263946
 20
-9057.916741961031
 10
22725.61774255946
 20
-9057.624375761043
 10
22725.61774255946
 20
-9055.265955081042
 10
22726.15792391946
 20
-9055.265955081042
 10
22726.15792391946
 20
-9057.426680521028
 10
22726.15792391946
 20
-9057.771951081035
 10
22726.06046851946
 20
-9058.114437201039
 10
22725.91289319946
 20
-9058.312132441024
 10
22725.81543779947
 20
-9058.409587841037
 10
22725.76531787946
 20
-9058.45970776103
 10
22725.52028715946
 20
-9058.557163161036
 10
22725.17501659946
 20
-9058.704738481043
 97
        0
 75
     0
 76
     1
 98
        0
  0
HATCH
  5
30A
330
1F
100
AcDbEntity
  8
Ech.1_5
  6
Continuous
 62
   158
420
    12131
440
 33554687
370
    20
390
5F
100
AcDbHatch
 10
0.0
 20
0.0
 30
0.0
210
0.0
220
0.0
230
1.0
  2
SOLID
 70
     1
 71
     0
 91
        1
 92
        3
 72
     0
 73
     1
 93
       12
 10
22727.28840655946
 20
-9058.654618561028
 10
22727.28840655946
 20
-9055.265955081042
 10
22729.39901207946
 20
-9055.265955081042
 10
22729.30155667946
 20
-9055.70868104104
 10
22727.77846799946
 20
-9055.70868104104
 10
22727.77846799946
 20
-9056.691588361042
 10
22729.05652595946
 20
-9056.691588361042
 10
22729.05652595946
 20
-9057.084194401024
 10
22727.82858791946
 20
-9057.084194401024
 10
22727.82858791946
 20
-9058.164557121032
 10
22729.44913199946
 20
-9058.164557121032
 10
22729.44913199946
 20
-9058.654618561028
 97
        0
 75
     0
 76
     1
 98
        0
  0
HATCH
  5
30B
330
1F
100
AcDbEntity
  8
Ech.1_5
  6
Continuous
 62
   136
420
    33651
440
 33554687
370
    20
390
5F
100
AcDbHatch
 10
0.0
 20
0.0
 30
0.0
210
0.0
220
0.0
230
1.0
  2
SOLID
 70
     1
 71
     0
 91
        1
 92
        3
 72
     0
 73
     1
 93
       15
 10
22711.03006139946
 20
-9033.508340921042
 10
22711.03006139946
 20
-9031.29749556104
 10
22712.45569467946
 20
-9031.29749556104
 10
22712.79818079947
 20
-9031.29749556104
 10
22713.33836215946
 20
-9031.445070881033
 10
22713.63351279946
 20
-9031.642766121025
 10
22713.73096819946
 20
-9031.790341441018
 10
22713.87854351947
 20
-9032.082707641042
 10
22713.87854351947
 20
-9032.330522801036
 10
22713.87854351947
 20
-9032.622889001046
 10
22713.73096819946
 20
-9032.918039641045
 10
22713.58339287946
 20
-9033.11573488103
 10
22713.33836215946
 20
-9033.310645681035
 10
22712.89563619946
 20
-9033.458221001027
 10
22712.65060547946
 20
-9033.508340921042
 97
        0
 75
     0
 76
     1
 98
        0
  0
HATCH
  5
30C
330
1F
100
AcDbEntity
  8
Ech.1_5
  6
Continuous
 62
   136
420
    33651
440
 33554687
370
    20
390
5F
100
AcDbHatch
 10
0.0
 20
0.0
 30
0.0
210
0.0
220
0.0
230
1.0
  2
SOLID
 70
     1
 71
     0
 91
        1
 92
        3
 72
     0
 73
     1
 93
       16
 10
22711.03006139946
 20
-9029.529376161037
 10
22711.03006139946
 20
-9027.516226041036
 10
22712.11042411946
 20
-9027.516226041036
 10
22712.30811935946
 20
-9027.516226041036
 10
22712.70072539946
 20
-9027.663801361043
 10
22712.94575611946
 20
-9027.811376681035
 10
22713.04321151946
 20
-9027.958952001034
 10
22713.14345135946
 20
-9028.153862801031
 10
22713.19078683946
 20
-9028.351558041039
 10
22713.19078683946
 20
-9028.44901344103
 10
22713.14345135946
 20
-9028.694044161042
 10
22713.04321151946
 20
-9028.989194801034
 10
22712.94575611946
 20
-9029.186890041034
 10
22712.75084531946
 20
-9029.38180084103
 10
22712.30811935946
 20
-9029.482040681025
 10
22712.11042411946
 20
-9029.529376161037
 97
        0
 75
     0
 76
     1
 98
        0
  0
HATCH
  5
30D
330
1F
100
AcDbEntity
  8
Ech.1_5
  6
Continuous
 62
   136
420
    33651
440
 33554687
370
    20
390
5F
100
AcDbHatch
 10
0.0
 20
0.0
 30
0.0
210
0.0
220
0.0
230
1.0
  2
SOLID
 70
     1
 71
     0
 91
        1
 92
        3
 72
     0
 73
     1
 93
        3
 10
22721.19605183946
 20
-9031.542526281017
 10
22722.47410979946
 20
-9027.663801361043
 10
22723.75216775946
 20
-9031.542526281017
 97
        0
 75
     0
 76
     1
 98
        0
  0
HATCH
  5
30E
330
1F
100
AcDbEntity
  8
Ech.1_5
  6
Continuous
 62
   158
420
    12131
440
 33554687
370
    20
390
5F
100
AcDbHatch
 10
0.0
 20
0.0
 30
0.0
210
0.0
220
0.0
230
1.0
  2
SOLID
 70
     1
 71
     0
 91
        3
 92
        3
 72
     0
 73
     1
 93
       25
 10
22688.14196459946
 20
-9040.483363121035
 10
22691.09068655946
 20
-9039.255425081035
 10
22694.62692535947
 20
-9038.36997316104
 10
22697.62298279946
 20
-9037.927247201042
 10
22701.20655707946
 20
-9037.68221648103
 10
22705.38321707946
 20
-9037.732336401044
 10
22707.78897323946
 20
-9037.879911721036
 10
22707.78897323946
 20
-9022.21186784104
 10
22710.98272591946
 20
-9021.376535841031
 10
22713.38848207946
 20
-9020.001022481032
 10
22713.83120803946
 20
-9019.510961041036
 10
22713.92866343946
 20
-9019.36338572103
 10
22713.97878335946
 20
-9019.165690481022
 10
22713.87854351947
 20
-9018.970779681025
 10
22713.68363271946
 20
-9018.725748961035
 10
22712.99587603946
 20
-9018.380478401028
 10
22711.27509211946
 20
-9017.93775244103
 10
22709.35939739946
 20
-9017.742841641033
 10
22707.10121655946
 20
-9017.595266321026
 10
22702.92734099946
 20
-9017.595266321026
 10
22697.42528755946
 20
-9017.987872361045
 10
22691.77844323946
 20
-9019.018115161023
 10
22688.18973207085
 20
-9020.199964518797
 10
22687.35675251947
 20
-9020.641443681045
 10
22687.35675251947
 20
-9040.973424561038
 97
        0
 92
        3
 72
     0
 73
     1
 93
       53
 10
22704.40030975946
 20
-9035.373915721037
 10
22703.56497775947
 20
-9035.42403564103
 10
22702.53473495946
 20
-9035.326580241039
 10
22700.86407095946
 20
-9034.588703641035
 10
22699.68625283946
 20
-9033.310645681035
 10
22698.99849615946
 20
-9031.542526281017
 10
22698.94837623946
 20
-9030.512283481039
 10
22698.99849615946
 20
-9029.482040681025
 10
22699.68625283946
 20
-9027.713921281022
 10
22700.86407095946
 20
-9026.385743401028
 10
22702.53473495946
 20
-9025.650651241041
 10
22703.56497775947
 20
-9025.600531321026
 10
22704.40030975946
 20
-9025.650651241041
 10
22705.77582311946
 20
-9026.090592761037
 10
22706.21854907946
 20
-9026.485983241022
 10
22706.41345987946
 20
-9026.878589281041
 10
22706.41345987946
 20
-9027.271195321024
 10
22706.26588455946
 20
-9027.56634596103
 10
22706.07097375947
 20
-9027.811376681035
 10
22705.77582311946
 20
-9027.958952001034
 10
22705.57812787946
 20
-9027.958952001034
 10
22705.38321707946
 20
-9027.958952001034
 10
22704.99061103947
 20
-9027.85871216104
 10
22704.30285435946
 20
-9027.56634596103
 10
22703.56497775947
 20
-9027.516226041036
 10
22703.22249163946
 20
-9027.516226041036
 10
22702.68231027946
 20
-9027.663801361043
 10
22702.23958431946
 20
-9027.908832081019
 10
22701.84697827946
 20
-9028.203982721046
 10
22701.40425231947
 20
-9028.841619481042
 10
22701.06176619946
 20
-9029.921982201042
 10
22701.01164627946
 20
-9030.562403401032
 10
22701.06176619946
 20
-9031.149920241034
 10
22701.40425231947
 20
-9032.182947481037
 10
22701.84697827946
 20
-9032.820584241032
 10
22702.23958431946
 20
-9033.11573488103
 10
22702.68231027946
 20
-9033.360765601043
 10
22703.22249163946
 20
-9033.458221001027
 10
22703.56497775947
 20
-9033.508340921042
 10
22704.30285435946
 20
-9033.410885521036
 10
22705.03794651946
 20
-9033.11573488103
 10
22705.48067247946
 20
-9032.968159561038
 10
22705.67836771946
 20
-9032.918039641045
 10
22705.77582311946
 20
-9032.918039641045
 10
22705.97073391946
 20
-9032.968159561038
 10
22706.21854907946
 20
-9033.11573488103
 10
22706.41345987946
 20
-9033.410885521036
 10
22706.56103519946
 20
-9033.706036161027
 10
22706.56103519946
 20
-9033.850827041046
 10
22706.51091527946
 20
-9034.048522281031
 10
22706.36612439946
 20
-9034.441128321036
 10
22706.07097375947
 20
-9034.78639888102
 10
22705.62824779946
 20
-9034.981309681032
 97
        0
 92
        3
 72
     0
 73
     1
 93
       37
 10
22693.49644271946
 20
-9035.17900492104
 10
22693.15395659946
 20
-9035.326580241039
 10
22692.71123063946
 20
-9035.326580241039
 10
22692.36596007946
 20
-9035.17900492104
 10
22692.12092935946
 20
-9034.931189761039
 10
22691.92601855946
 20
-9034.53858372102
 10
22691.92601855946
 20
-9026.583438641035
 10
22692.07359387946
 20
-9026.238168081029
 10
22692.36596007946
 20
-9025.94580188104
 10
22692.76135055946
 20
-9025.748106641033
 10
22693.00638127946
 20
-9025.748106641033
 10
22696.39504475946
 20
-9025.748106641033
 10
22696.58995555947
 20
-9025.748106641033
 10
22696.93522611947
 20
-9025.895681961025
 10
22697.18025683946
 20
-9026.19083260103
 10
22697.27771223946
 20
-9026.485983241022
 10
22697.27771223946
 20
-9026.828469361026
 10
22697.18025683946
 20
-9027.17373992104
 10
22697.03268151946
 20
-9027.368650721037
 10
22696.88510619946
 20
-9027.46610612102
 10
22696.58995555947
 20
-9027.56634596103
 10
22696.39504475946
 20
-9027.613681441027
 10
22693.93916867946
 20
-9027.613681441027
 10
22693.93916867946
 20
-9029.529376161037
 10
22696.00243871946
 20
-9029.529376161037
 10
22696.24746943946
 20
-9029.579496081038
 10
22696.58995555947
 20
-9029.67695148103
 10
22696.83777071947
 20
-9029.972102121035
 10
22696.98256159946
 20
-9030.267252761027
 10
22696.98256159946
 20
-9030.60973888103
 10
22696.83777071947
 20
-9030.955009441037
 10
22696.58995555947
 20
-9031.200040161028
 10
22696.24746943946
 20
-9031.34761548102
 10
22696.00243871946
 20
-9031.394950961025
 10
22693.93916867946
 20
-9031.394950961025
 10
22693.93916867946
 20
-9034.53858372102
 10
22693.79159335946
 20
-9034.931189761039
 97
        0
 75
     0
 76
     1
 98
        0
  0
HATCH
  5
30F
330
1F
100
AcDbEntity
  8
Ech.1_5
  6
Continuous
 62
   136
420
    33651
440
 33554687
370
    20
390
5F
100
AcDbHatch
 10
0.0
 20
0.0
 30
0.0
210
0.0
220
0.0
230
1.0
  2
SOLID
 70
     1
 71
     0
 91
        3
 92
        3
 72
     0
 73
     1
 93
       18
 10
22707.87588438822
 20
-9042.446393321035
 10
22710.93260599946
 20
-9042.446393321035
 10
22716.18684427946
 20
-9041.858876481034
 10
22720.46095967947
 20
-9040.630938441034
 10
22723.79950323946
 20
-9039.107849761036
 10
22726.25537931946
 20
-9037.437185761039
 10
22727.92604331946
 20
-9035.914097081048
 10
22729.20410127946
 20
-9034.391008401028
 10
22729.44913199946
 20
-9033.850827041046
 10
22729.44913199946
 20
-9013.616301561036
 10
22729.10386143946
 20
-9014.109147441028
 10
22726.74822519946
 20
-9016.169633041041
 10
22723.01429115946
 20
-9018.477933801034
 10
22719.62562767946
 20
-9020.001022481032
 10
22715.49908759946
 20
-9021.228960521024
 10
22710.58733543946
 20
-9022.064292521041
 10
22707.78897323946
 20
-9022.21186784104
 10
22707.78897323946
 20
-9042.446393321035
 97
        0
 92
        3
 72
     0
 73
     1
 93
       30
 10
22715.59932743946
 20
-9033.850827041046
 10
22715.30417679947
 20
-9034.343672921023
 10
22714.66375559946
 20
-9034.833734361026
 10
22713.53605739946
 20
-9035.22634040103
 10
22712.84830071946
 20
-9035.22634040103
 10
22710.09727399946
 20
-9035.22634040103
 10
22709.90236319946
 20
-9035.22634040103
 10
22709.50697271946
 20
-9035.078765081038
 10
22709.21460651946
 20
-9034.833734361026
 10
22709.06703119946
 20
-9034.49124824103
 10
22709.06703119946
 20
-9026.533318721034
 10
22709.16448659946
 20
-9026.238168081029
 10
22709.26194199946
 20
-9026.090592761037
 10
22709.50697271946
 20
-9025.895681961025
 10
22709.85224327946
 20
-9025.748106641033
 10
22712.65060547946
 20
-9025.748106641033
 10
22713.19078683946
 20
-9025.798226561034
 10
22714.07623875946
 20
-9026.090592761037
 10
22714.76399543946
 20
-9026.731013961042
 10
22715.15660147946
 20
-9027.56634596103
 10
22715.15660147946
 20
-9028.44901344103
 10
22715.00902615946
 20
-9029.039314721027
 10
22714.71387551946
 20
-9029.529376161037
 10
22714.22381407947
 20
-9029.921982201042
 10
22713.92866343946
 20
-9030.069557521041
 10
22714.37138939946
 20
-9030.169797361043
 10
22715.10648155946
 20
-9030.562403401032
 10
22715.64666291946
 20
-9031.149920241034
 10
22715.94181355946
 20
-9031.937916761046
 10
22715.94181355946
 20
-9033.018279481039
 97
        0
 92
        3
 72
     0
 73
     1
 93
       35
 10
22725.17501659946
 20
-9035.22634040103
 10
22724.92998587946
 20
-9035.031429601033
 10
22724.78241055946
 20
-9034.78639888102
 10
22724.73229063946
 20
-9034.638823561028
 10
22724.33968459946
 20
-9033.360765601043
 10
22720.60853499946
 20
-9033.360765601043
 10
22720.21592895946
 20
-9034.638823561028
 10
22720.16580903946
 20
-9034.78639888102
 10
22720.01823371946
 20
-9035.031429601033
 10
22719.77320299946
 20
-9035.22634040103
 10
22719.42793243946
 20
-9035.326580241039
 10
22719.03532639946
 20
-9035.326580241039
 10
22718.69284027946
 20
-9035.17900492104
 10
22718.44780955946
 20
-9034.931189761039
 10
22718.30023423946
 20
-9034.588703641035
 10
22718.25011431946
 20
-9034.391008401028
 10
22718.30023423946
 20
-9034.098642201046
 10
22718.34756971947
 20
-9033.95106688104
 10
22721.05126095946
 20
-9026.680894041026
 10
22721.14871635946
 20
-9026.485983241022
 10
22721.39374707946
 20
-9026.090592761037
 10
22721.78635311946
 20
-9025.748106641033
 10
22722.22907907946
 20
-9025.600531321026
 10
22722.71914051946
 20
-9025.600531321026
 10
22723.16186647946
 20
-9025.748106641033
 10
22723.55447251946
 20
-9026.043257281024
 10
22723.79950323946
 20
-9026.485983241022
 10
22723.89974307946
 20
-9026.680894041026
 10
22726.50041003947
 20
-9033.95106688104
 10
22726.60064987946
 20
-9034.246217521038
 10
22726.60064987946
 20
-9034.638823561028
 10
22726.45307455946
 20
-9034.981309681032
 10
22726.20804383946
 20
-9035.17900492104
 10
22725.86277327946
 20
-9035.326580241039
 10
22725.52028715946
 20
-9035.326580241039
 97
        0
 75
     0
 76
     1
 98
        0
  0
HATCH
  5
310
330
1F
100
AcDbEntity
  8
Ech.1_5
  6
Continuous
 62
   158
420
    12131
440
 33554687
370
    20
390
5F
100
AcDbHatch
 10
0.0
 20
0.0
 30
0.0
210
0.0
220
0.0
230
1.0
  2
SOLID
 70
     1
 71
     0
 91
        1
 92
        3
 72
     0
 73
     1
 93
        4
 10
22687.65190315947
 20
-9051.729716281028
 10
22687.65190315947
 20
-9048.341052801035
 10
22688.14196459946
 20
-9048.341052801035
 10
22688.14196459946
 20
-9051.729716281028
 97
        0
 75
     0
 76
     1
 98
        0
  0
HATCH
  5
311
330
1F
100
AcDbEntity
  8
Ech.1_5
  6
Continuous
 62
   158
420
    12131
440
 33554687
370
    20
390
5F
100
AcDbHatch
 10
0.0
 20
0.0
 30
0.0
210
0.0
220
0.0
230
1.0
  2
SOLID
 70
     1
 71
     0
 91
        1
 92
        3
 72
     0
 73
     1
 93
       18
 10
22689.36990263946
 20
-9051.729716281028
 10
22689.36990263946
 20
-9048.341052801035
 10
22689.96020391947
 20
-9048.341052801035
 10
22691.04056663946
 20
-9050.159292121032
 10
22691.38583719946
 20
-9050.746808961034
 10
22691.48329259946
 20
-9050.944504201027
 10
22691.43317267946
 20
-9050.501778241029
 10
22691.43317267946
 20
-9050.05905228103
 10
22691.38583719946
 20
-9048.341052801035
 10
22691.87589863946
 20
-9048.341052801035
 10
22691.87589863946
 20
-9051.729716281028
 10
22691.38583719946
 20
-9051.729716281028
 10
22690.30547447946
 20
-9049.911476961031
 10
22690.05765931946
 20
-9049.568990841028
 10
22689.81262859946
 20
-9049.028809481046
 10
22689.81262859946
 20
-9049.323960121037
 10
22689.86274851946
 20
-9049.961596881032
 10
22689.86274851946
 20
-9051.729716281028
 97
        0
 75
     0
 76
     1
 98
        0
  0
HATCH
  5
312
330
1F
100
AcDbEntity
  8
Ech.1_5
  6
Continuous
 62
   158
420
    12131
440
 33554687
370
    20
390
5F
100
AcDbHatch
 10
0.0
 20
0.0
 30
0.0
210
0.0
220
0.0
230
1.0
  2
SOLID
 70
     1
 71
     0
 91
        1
 92
        3
 72
     0
 73
     1
 93
       62
 10
22693.98928859946
 20
-9051.779836201036
 10
22693.69413795946
 20
-9051.779836201036
 10
22693.05371675946
 20
-9051.632260881044
 10
22692.76135055946
 20
-9051.484685561038
 10
22692.95626135946
 20
-9051.04195960104
 10
22693.25141199946
 20
-9051.189534921032
 10
22693.79159335946
 20
-9051.337110241031
 10
22694.03662407946
 20
-9051.337110241031
 10
22694.23431931946
 20
-9051.337110241031
 10
22694.47935003946
 20
-9051.28699032103
 10
22694.57680543946
 20
-9051.239654841025
 10
22694.72438075946
 20
-9051.092079521019
 10
22694.82183615946
 20
-9050.991839681024
 10
22694.82183615946
 20
-9050.894384281033
 10
22694.82183615946
 20
-9050.699473481036
 10
22694.77450067946
 20
-9050.551898161037
 10
22694.62692535947
 20
-9050.404322841045
 10
22694.33177471947
 20
-9050.304083001036
 10
22694.18419939946
 20
-9050.256747521038
 10
22693.69413795946
 20
-9050.109172201039
 10
22693.54656263947
 20
-9050.05905228103
 10
22693.20129207946
 20
-9049.911476961031
 10
22693.00638127946
 20
-9049.66644624104
 10
22692.90614143946
 20
-9049.421415521028
 10
22692.90614143946
 20
-9049.223720281043
 10
22692.90614143946
 20
-9049.12626488103
 10
22692.95626135946
 20
-9048.931354081033
 10
22693.05371675946
 20
-9048.733658841047
 10
22693.15395659946
 20
-9048.586083521048
 10
22693.39898731947
 20
-9048.438508201041
 10
22693.84171327946
 20
-9048.243597401044
 10
22694.13407947946
 20
-9048.243597401044
 10
22694.47935003946
 20
-9048.243597401044
 10
22695.06965131946
 20
-9048.438508201041
 10
22695.31468203946
 20
-9048.586083521048
 10
22695.06965131946
 20
-9048.97868956103
 10
22694.87195607946
 20
-9048.831114241038
 10
22694.38189463946
 20
-9048.683538921032
 10
22694.13407947946
 20
-9048.683538921032
 10
22693.98928859946
 20
-9048.683538921032
 10
22693.74147343946
 20
-9048.733658841047
 10
22693.59389811946
 20
-9048.831114241038
 10
22693.54656263947
 20
-9048.931354081033
 10
22693.49644271946
 20
-9049.028809481046
 10
22693.44632279946
 20
-9049.12626488103
 10
22693.44632279946
 20
-9049.223720281043
 10
22693.74147343946
 20
-9049.568990841028
 10
22694.03662407946
 20
-9049.66644624104
 10
22694.47935003946
 20
-9049.763901641025
 10
22694.67426083946
 20
-9049.81402156104
 10
22695.06965131946
 20
-9050.011716801026
 10
22695.16710671946
 20
-9050.109172201039
 10
22695.26456211946
 20
-9050.206627601023
 10
22695.41213743947
 20
-9050.551898161037
 10
22695.41213743947
 20
-9050.699473481036
 10
22695.41213743947
 20
-9050.844264361025
 10
22695.31468203946
 20
-9051.092079521019
 10
22695.21444219946
 20
-9051.337110241031
 10
22695.01953139946
 20
-9051.532021041035
 10
22694.87195607946
 20
-9051.582140961029
 10
22694.67426083946
 20
-9051.679596361035
 10
22694.23431931946
 20
-9051.779836201036
 97
        0
 75
     0
 76
     1
 98
        0
  0
LWPOLYLINE
  5
313
330
1F
100
AcDbEntity
  8
Ech.1_5
  6
CADWORK_22
 62
     1
 48
0.6
370
    35
390
5F
100
AcDbPolyline
 90
        4
 70
   128
 43
0.0
 10
23179.43377566357
 20
-8076.643664248078
 10
23331.84627873567
 20
-8076.643664248078
 10
23331.84627873606
 20
-8064.401143962984
 10
23331.4578380097
 20
-8012.152472464816
  0
LWPOLYLINE
  5
314
330
1F
100
AcDbEntity
  8
Ech.1_5
  6
Continuous
 62
   190
370
    15
390
5F
100
AcDbPolyline
 90
        3
 70
     0
 43
0.0
 10
23438.27059486983
 20
-8529.972382698877
 10
23369.85738008711
 20
-8378.780687903054
 10
23349.85738008711
 20
-8378.780687903054
  0
INSERT
  5
315
330
1F
100
AcDbEntity
  8
Ech.1_5
 62
   190
370
    15
100
AcDbBlockReference
  2
cw-line-extremity4
 10
23438.27059486983
 20
-8529.972382698877
 30
0.0
 50
114.3464287713485
  0
LWPOLYLINE
  5
316
330
1F
100
AcDbEntity
  8
Ech.1_5
  6
Continuous
 62
   190
370
    15
390
5F
100
AcDbPolyline
 90
        3
 70
     0
 43
0.0
 10
23373.60635279112
 20
-8530.932746596372
 10
23317.81787373836
 20
-8409.8873347615
 10
23297.81787373836
 20
-8409.8873347615
  0
INSERT
  5
317
330
1F
100
AcDbEntity
  8
Ech.1_5
 62
   190
370
    15
100
AcDbBlockReference
  2
cw-line-extremity4
 10
23373.60635279112
 20
-8530.932746596372
 30
0.0
 50
114.7444485545126
  0
LWPOLYLINE
  5
318
330
1F
100
AcDbEntity
  8
Ech.1_5
  6
Continuous
 62
   190
370
    15
390
5F
100
AcDbPolyline
 90
        3
 70
     0
 43
0.0
 10
22827.12139717154
 20
-8461.026557323203
 10
23099.24336764621
 20
-8212.036003817168
 10
23119.24336764621
 20
-8212.036003817168
  0
INSERT
  5
319
330
1F
100
AcDbEntity
  8
Ech.1_5
 62
   190
370
    15
100
AcDbBlockReference
  2
cw-line-extremity4
 10
22827.12139717154
 20
-8461.026557323203
 30
0.0
 50
42.45839318643271
  0
LWPOLYLINE
  5
31A
330
1F
100
AcDbEntity
  8
Ech.1_5
  6
Continuous
 62
   190
370
    15
390
5F
100
AcDbPolyline
 90
        3
 70
     0
 43
0.0
 10
22973.33620762796
 20
-8422.131969494949
 10
23080.42668900476
 20
-8313.069268909381
 10
23100.42668900476
 20
-8313.069268909381
  0
INSERT
  5
31B
330
1F
100
AcDbEntity
  8
Ech.1_5
 62
   190
370
    15
100
AcDbBlockReference
  2
cw-line-extremity4
 10
22973.33620762796
 20
-8422.131969494949
 30
0.0
 50
45.52276214627841
  0
LWPOLYLINE
  5
31C
330
1F
100
AcDbEntity
  8
Ech.1_5
  6
Continuous
 62
   190
370
    15
390
5F
100
AcDbPolyline
 90
        3
 70
     0
 43
0.0
 10
22799.25818224745
 20
-8713.46847187437
 10
22974.02358379952
 20
-8811.349623960105
 10
22994.02358379952
 20
-8811.349623960105
  0
INSERT
  5
31D
330
1F
100
AcDbEntity
  8
Ech.1_5
 62
   190
370
    15
100
AcDbBlockReference
  2
cw-line-extremity4
 10
22799.25818224745
 20
-8713.46847187437
 30
0.0
 50
330.7480472576525
  0
MTEXT
  5
31F
330
1F
100
AcDbEntity
  8
Ech.1_5
  6
Continuous
 62
     4
420
    65535
390
5F
100
AcDbMText
 10
23225.80549915174
 20
-8934.293620504875
 30
0.0
 40
12.5
 41
488.3428846351962
 46
0.0
 71
     2
 72
     1
  1
{\fArial|b0|i0;\W1.000000;\H12.500000;\c16711848;Vue en coupe horizontale}
  7
arial-
 73
     1
 44
1.07999975538982
  0
MTEXT
  5
320
330
1F
100
AcDbEntity
  8
Ech.1_5
  6
Continuous
 62
     4
420
    65535
390
5F
100
AcDbMText
 10
23546.12560917258
 20
-8934.126444012218
 30
0.0
 40
12.5
 41
127.2973354064961
 46
0.0
 71
     2
 72
     1
  1
{\fArial|b0|i0;\W1.000000;\H12.500000;\c16711848;Ech 1/5 }
  7
arial-
 73
     1
 44
1.07999975538982
  0
MTEXT
  5
321
330
1F
100
AcDbEntity
  8
Ech.1_5
  6
Continuous
 62
     4
420
    65535
390
5F
100
AcDbMText
 10
22897.30644783646
 20
-8933.85468770974
 30
0.0
 40
12.5
 41
143.6552179953505
 46
0.0
 71
     2
 72
     1
  1
{\fArial|b0|i0;\W1.000000;\H12.500000;\c16711848;ME06-12}
  7
arial-
 73
     1
 44
1.07999975538982
  0
MTEXT
  5
323
330
1F
100
AcDbEntity
  8
Ech.1_5
  6
Continuous
 62
   200
420
 11010303
390
5F
100
AcDbMText
 10
23123.52427687583
 20
-8956.873805046576
 30
0.0
 40
8.75
 41
976.25
 46
0.0
 71
     2
 72
     1
  3
{\fArial|b0|i1;\W1.000000;\H8.750000;\c16711848; Il est rappelé à l'utilisateur qui consulte le site et utilise les informations qu'il contient, qu'il doit les utiliser sous sa seule responsabilité en vérifiant leur pertinence, leur cohérence et leur
  1
 non obsolescence.}
  7
arial-i
 73
     1
 44
1.07999975538982
  0
MTEXT
  5
325
330
1F
100
AcDbEntity
  8
Ech.1_5
  6
Continuous
 62
   200
420
 11010303
390
5F
100
AcDbMText
 10
23123.52427687583
 20
-8843.212724704092
 30
0.0
 40
16.25
 41
968.75
 46
0.0
 71
     2
 72
     1
  1
{\fArial|b1|i0;\W1.000000;\H16.250000;\c16711848;MUR EXTERIEUR TYPE 6: Isolant en âme et en doublage extérieur}
  7
arial-b
 73
     1
 44
1.07999975538982
  0
MTEXT
  5
326
330
1F
100
AcDbEntity
  8
Ech.1_5
  6
Continuous
 62
     4
420
    65535
390
5F
100
AcDbMText
 10
23123.52427687583
 20
-8874.569687862328
 30
0.0
 40
16.25
 41
968.75
 46
0.0
 71
     2
 72
     1
  1
{\fArial|b0|i0;\W1.000000;\H16.250000;\c16711848;Détail d'angle entrant}
  7
arial-
 73
     1
 44
1.07999975538982
  0
MTEXT
  5
327
330
1F
100
AcDbEntity
  8
Ech.1_5
  6
Continuous
 62
   200
420
 11010303
390
5F
100
AcDbMText
 10
23123.52427687583
 20
-8906.22968770974
 30
0.0
 40
16.25
 41
968.75
 46
0.0
 71
     2
 72
     1
  1
{\fArial|b0|i0;\W1.000000;\H16.250000;\c16711848;En cas de préfabrication des murs en lot S ou SE}
  7
arial-
 73
     1
 44
1.07999975538982
  0
MTEXT
  5
328
330
1F
100
AcDbEntity
  8
Ech.1_5
  6
Continuous
 62
     4
420
    65535
390
5F
100
AcDbMText
 10
22723.54248153399
 20
-7822.833701727939
 30
0.0
 40
13.75
 41
193.8487666624569
 46
0.0
 71
     1
 72
     1
  1
{\fArial|b0|i0;\W1.000000;\H13.750000;\c16711848;Calfeutrement}
  7
arial-
 73
     1
 44
1.07999975538982
 90
        3
 63
     9
421
 13158600
 45
1.5
441
 33554687
  0
MTEXT
  5
329
330
1F
100
AcDbEntity
  8
Ech.1_5
  6
Continuous
 62
     7
390
5F
100
AcDbMText
 10
23342.98238008711
 20
-8373.647732734622
 30
0.0
 40
13.75
 41
195.8294116869001
 46
0.0
 71
     3
 72
     1
  1
{\fArial|b0|i0;\W1.000000;\H13.750000;\c16711848;Tasseaux horizontaux}
  7
arial-
 73
     1
 44
1.07999975538982
  0
MTEXT
  5
32A
330
1F
100
AcDbEntity
  8
Ech.1_5
  6
Continuous
 62
     7
390
5F
100
AcDbMText
 10
23290.94287373836
 20
-8404.754379593069
 30
0.0
 40
13.75
 41
195.8294116869001
 46
0.0
 71
     3
 72
     1
  1
{\fArial|b0|i0;\W1.000000;\H13.750000;\c16711848;Isolant extérieur}
  7
arial-
 73
     1
 44
1.07999975538982
  0
MTEXT
  5
32B
330
1F
100
AcDbEntity
  8
Ech.1_5
  6
Continuous
 62
     4
420
    65535
390
5F
100
AcDbMText
 10
23126.11836764621
 20
-8184.249670020718
 30
0.0
 40
13.75
 41
242.4160861638811
 46
0.0
 71
     1
 72
     1
  3
{\fArial|b0|i0;\W1.000000;\H13.750000;\c16711848;Montant non nécessaire}\P{\fArial|b0|i0;\W1.000000;\H13.750000;\c16711848;structurellement mais sert}\P{\fArial|b0|i0;\W1.000000;\H13.750000;\c16711848;à la fixation du tasseau}\P{\fArial|b0|i0;\W1.000
  1
000;\H13.750000;\c16711848;support de bardage}
  7
arial-
 73
     1
 44
1.07999975538982
 90
        3
 63
     9
421
 13158600
 45
1.5
441
 33554687
  0
MTEXT
  5
32C
330
1F
100
AcDbEntity
  8
Ech.1_5
  6
Continuous
 62
     4
420
    65535
390
5F
100
AcDbMText
 10
23107.30168900476
 20
-8305.007558925467
 30
0.0
 40
13.75
 41
253.9957632896221
 46
0.0
 71
     1
 72
     1
  1
{\fArial|b0|i0;\W1.000000;\H13.750000;\c16711848;Si discontinuité du pare-pluie}\P{\fArial|b0|i0;\W1.000000;\H13.750000;\c16711848;recouvrement sous tasseaux}
  7
arial-
 73
     1
 44
1.07999975538982
 90
        3
 63
     9
421
 13158600
 45
1.5
441
 33554687
  0
MTEXT
  5
32D
330
1F
100
AcDbEntity
  8
Ech.1_5
  6
Continuous
 62
     4
420
    65535
390
5F
100
AcDbMText
 10
22671.53955129078
 20
-7768.413492440218
 30
0.0
 40
13.75
 41
231.0892037716512
 46
0.0
 71
     1
 72
     1
  1
{\fArial|b1|i0;\W1.000000;\H13.750000;\c16711848;COMPLEMENT LEGENDE}
  7
arial-b
 73
     1
 44
1.07999975538982
 90
        3
 63
     9
421
 13158600
 45
1.5
441
 33554687
  0
MTEXT
  5
32E
330
1F
100
AcDbEntity
  8
Ech.1_5
  6
Continuous
 62
     4
420
    65535
390
5F
100
AcDbMText
 10
22721.64480787003
 20
-7795.102052065345
 30
0.0
 40
13.75
 41
193.8487666624569
 46
0.0
 71
     1
 72
     1
  1
{\fArial|b0|i0;\W1.000000;\H13.750000;\c16711848;Bande adhésive}
  7
arial-
 73
     1
 44
1.07999975538982
 90
        3
 63
     9
421
 13158600
 45
1.5
441
 33554687
  0
MTEXT
  5
32F
330
1F
100
AcDbEntity
  8
Ech.1_5
  6
Continuous
 62
     4
420
    65535
390
5F
100
AcDbMText
 10
23000.89858379952
 20
-8803.28791397619
 30
0.0
 40
13.75
 41
228.0612457399911
 46
0.0
 71
     1
 72
     1
  1
{\fArial|b0|i0;\W1.000000;\H13.750000;\c16711848;Recouvrement de 100mm}
  7
arial-
 73
     1
 44
1.07999975538982
 90
        3
 63
     9
421
 13158600
 45
1.5
441
 33554687
  0
TEXT
  5
330
330
1F
100
AcDbEntity
  8
Ech.1_5
  6
Continuous
 62
   190
390
5F
100
AcDbText
 10
22684.06315141272
 20
-8946.564622534715
 30
0.0
 40
12.5
  1
30/01/2023
  7
arial-
100
AcDbText
  0
TEXT
  5
331
330
1F
100
AcDbEntity
  8
Ech.1_5
  6
Continuous
 62
   190
390
5F
100
AcDbText
 10
23491.16380718372
 20
-7754.443556719774
 30
0.0
 40
8.0
  1
Echelle en mm
  7
arial-
100
AcDbText
  0
TEXT
  5
332
330
1F
100
AcDbEntity
  8
Ech.1_5
  6
Continuous
 62
   190
390
5F
100
AcDbText
 10
23477.18322243429
 20
-7782.65339224945
 30
0.0
 40
8.0
  1
0
  7
arial-
100
AcDbText
  0
TEXT
  5
333
330
1F
100
AcDbEntity
  8
Ech.1_5
  6
Continuous
 62
   190
390
5F
100
AcDbText
 10
23563.78028032701
 20
-7782.65339224945
 30
0.0
 40
8.0
  1
100
  7
arial-
100
AcDbText
  0
TEXT
  5
334
330
1F
100
AcDbEntity
  8
Ech.1_5
  6
Continuous
 62
   190
390
5F
100
AcDbText
 10
23525.03984876113
 20
-7782.65339224945
 30
0.0
 40
8.0
  1
50
  7
arial-
100
AcDbText
  0
TEXT
  5
335
330
1F
100
AcDbEntity
  8
Ech.1_5
  6
Continuous
 62
   190
390
5F
100
AcDbText
 10
23194.83437500468
 20
-8147.531512910246
 30
0.0
 40
15.0
  1
%%UVariante préfabriquée
  7
arial-
100
AcDbText
  0
TEXT
  5
336
330
1F
100
AcDbEntity
  8
Ech.1_5
  6
Continuous
 62
   190
390
5F
100
AcDbText
 10
23013.97518172202
 20
-9001.823335247096
 30
0.0
 40
12.0
  1
catalogue-bois-construction.fr
  7
arial-i
100
AcDbText
  0
VIEWPORT
  5
217
330
211
100
AcDbEntity
 67
     1
  8
0
  6
Continuous
390
5F
100
AcDbViewport
 10
98.8
 20
135.8
 30
0.0
 40
209.0608
 41
287.3528000000001
 68
     1
 69
     1
 12
128.5
 22
97.5
 13
0.0
 23
0.0
 14
10.0
 24
10.0
 15
10.0
 25
10.0
 16
0.0
 26
0.0
 36
1.0
 17
0.0
 27
0.0
 37
0.0
 42
50.0
 43
0.0
 44
0.0
 45
222.18
 50
0.0
 51
0.0
 72
   100
 90
   557152
  1

281
     0
 71
     1
 74
     0
110
0.0
120
0.0
130
0.0
111
1.0
121
0.0
131
0.0
112
0.0
122
1.0
132
0.0
 79
     0
146
0.0
170
     0
 61
     5
348
2F
292
     1
282
     1
141
0.0
142
0.0
 63
   256
361
218
  0
VIEWPORT
  5
219
330
211
100
AcDbEntity
 67
     1
  8
0
  6
Continuous
 60
     1
390
5F
100
AcDbViewport
 10
98.8
 20
135.8
 30
0.0
 40
197.6
 41
271.6
 68
     2
 69
     2
 12
23123.52427687583
 22
-8390.517759774812
 13
0.0
 23
0.0
 14
10.0
 24
10.0
 15
10.0
 25
10.0
 16
0.0
 26
0.0
 36
1.0
 17
0.0
 27
0.0
 37
0.0
 42
50.0
 43
0.0
 44
0.0
 45
1358.0
 50
0.0
 51
0.0
 72
   100
 90
   557152
  1

281
     0
 71
     1
 74
     0
110
0.0
120
0.0
130
0.0
111
1.0
121
0.0
131
0.0
112
0.0
122
1.0
132
0.0
 79
     0
146
0.0
170
     0
 61
     5
348
2F
292
     1
282
     1
141
0.0
142
0.0
 63
   256
  0
ENDSEC
  0
SECTION
  2
OBJECTS
  0
DICTIONARY
  5
C
330
0
100
AcDbDictionary
281
     1
  3
ACAD_DETAILVIEWSTYLE
350
33E
  3
ACAD_GROUP
350
D
  3
ACAD_IMAGE_VARS
350
60
  3
ACAD_LAYOUT
350
1A
  3
ACAD_MATERIAL
350
43
  3
ACAD_MLEADERSTYLE
350
5B
  3
ACAD_MLINESTYLE
350
17
  3
ACAD_PLOTSETTINGS
350
19
  3
ACAD_PLOTSTYLENAME
350
E
  3
ACAD_SCALELIST
350
47
  3
ACAD_SECTIONVIEWSTYLE
350
33F
  3
ACAD_TABLESTYLE
350
59
  3
ACAD_VISUALSTYLE
350
2A
  3
ACAD_WIPEOUT_VARS
350
61
  3
ACDB_RECOMPOSE_DATA
350
33B
  3
AcDbVariableDictionary
350
337
  0
SUN
  5
5D
330
29
100
AcDbSun
 90
        1
290
     0
 63
     7
421
 16777215
 40
1.0
291
     1
 91
  2455826
 92
 54000000
292
     0
 70
     2
 71
   256
280
     1
  0
SUN
  5
218
330
217
100
AcDbSun
 90
        1
290
     0
 63
     7
421
 16777215
 40
1.0
291
     1
 91
  2455826
 92
 54000000
292
     0
 70
     2
 71
   256
280
     1
  0
DICTIONARY
  5
33E
102
{ACAD_REACTORS
330
C
102
}
330
C
100
AcDbDictionary
281
     1
  0
DICTIONARY
  5
D
102
{ACAD_REACTORS
330
C
102
}
330
C
100
AcDbDictionary
281
     1
  0
RASTERVARIABLES
  5
60
102
{ACAD_REACTORS
330
C
102
}
330
C
100
AcDbRasterVariables
 90
        0
 70
     0
 71
     1
 72
     1
  0
DICTIONARY
  5
1A
102
{ACAD_REACTORS
330
C
102
}
330
C
100
AcDbDictionary
281
     1
  3
CompleteLayout
350
1E
  3
Model
350
22
  3
PrintFrame_211
350
212
  0
DICTIONARY
  5
43
102
{ACAD_REACTORS
330
C
102
}
330
C
100
AcDbDictionary
281
     1
  3
ByBlock
350
45
  3
ByLayer
350
44
  3
Global
350
46
  0
DICTIONARY
  5
5B
102
{ACAD_REACTORS
330
C
102
}
330
C
100
AcDbDictionary
281
     1
  3
Standard
350
5C
  0
DICTIONARY
  5
17
102
{ACAD_REACTORS
330
C
102
}
330
C
100
AcDbDictionary
281
     1
  3
Standard
350
18
  0
DICTIONARY
  5
19
102
{ACAD_REACTORS
330
C
102
}
330
C
100
AcDbDictionary
281
     1
  3
PlotSettings_
350
215
  0
ACDBDICTIONARYWDFLT
  5
E
102
{ACAD_REACTORS
330
C
102
}
330
C
100
AcDbDictionary
281
     1
  3
flat
350
5F
  3
Normal
350
F
  3
round
350
23E
100
AcDbDictionaryWithDefault
340
F
  0
DICTIONARY
  5
47
102
{ACAD_REACTORS
330
C
102
}
330
C
100
AcDbDictionary
281
     1
  3
A0
350
48
  3
A1
350
49
  3
A2
350
4A
  3
A3
350
4B
  3
A4
350
4C
  3
A5
350
4D
  3
A6
350
4E
  3
A7
350
4F
  3
A8
350
50
  3
A9
350
51
  3
B0
350
52
  3
B1
350
53
  3
B2
350
54
  3
B3
350
55
  3
B4
350
56
  3
B5
350
57
  3
B6
350
58
  0
DICTIONARY
  5
33F
102
{ACAD_REACTORS
330
C
102
}
330
C
100
AcDbDictionary
281
     1
  0
DICTIONARY
  5
59
102
{ACAD_REACTORS
330
C
102
}
330
C
100
AcDbDictionary
281
     1
  3
Standard
350
5A
  0
DICTIONARY
  5
2A
102
{ACAD_REACTORS
330
C
102
}
330
C
100
AcDbDictionary
281
     1
  3
2dWireframe
350
2F
  3
Basic
350
32
  3
Brighten
350
36
  3
ColorChange
350
3A
  3
Conceptual
350
34
  3
Dim
350
35
  3
EdgeColorOff
350
3D
  3
Facepattern
350
39
  3
Flat
350
2B
  3
FlatWithEdges
350
2C
  3
Gouraud
350
2D
  3
GouraudWithEdges
350
2E
  3
Hidden
350
31
  3
JitterOff
350
3B
  3
Linepattern
350
38
  3
OverhangOff
350
3C
  3
Realistic
350
33
  3
Shaded
350
42
  3
Shaded with edges
350
41
  3
Shades of Gray
350
3E
  3
Sketchy
350
3F
  3
Thicken
350
37
  3
Wireframe
350
30
  3
X-Ray
350
40
  0
WIPEOUTVARIABLES
  5
61
102
{ACAD_REACTORS
330
C
102
}
330
C
100
AcDbWipeoutVariables
 70
     0
  0
XRECORD
  5
33B
102
{ACAD_REACTORS
330
C
102
}
330
C
100
AcDbXrecord
280
     1
 90
        1
330
5A
  0
DICTIONARY
  5
337
102
{ACAD_REACTORS
330
C
102
}
330
C
100
AcDbDictionary
281
     1
  3
CANNOSCALE
350
338
  3
CENTEREXE
350
341
  3
CENTERLTYPEFILE
350
342
  3
CMLEADERSTYLE
350
33D
  3
CTABLESTYLE
350
33C
  3
WIPEOUTFRAME
350
340
  0
LAYOUT
  5
1E
102
{ACAD_REACTORS
330
1A
102
}
330
1A
100
AcDbPlotSettings
  1

  2
none_device
  4

  6

 40
0.0
 41
0.0
 42
0.0
 43
0.0
 44
0.0
 45
0.0
 46
0.0
 47
0.0
 48
0.0
 49
0.0
140
0.0
141
0.0
142
1.0
143
1.0
 70
   688
 72
     1
 73
     0
 74
     5
  7

 75
    16
 76
     0
 77
     2
 78
   300
147
1.0
148
0.0
149
0.0
100
AcDbLayout
  1
CompleteLayout
 70
     1
 71
     1
 10
0.0
 20
0.0
 11
420.0
 21
297.0
 12
0.0
 22
0.0
 32
0.0
 14
1.000000000000000E+20
 24
1.000000000000000E+20
 34
1.000000000000000E+20
 15
-1.000000000000000E+20
 25
-1.000000000000000E+20
 35
-1.000000000000000E+20
146
0.0
 13
0.0
 23
0.0
 33
0.0
 16
1.0
 26
0.0
 36
0.0
 17
0.0
 27
1.0
 37
0.0
 76
     0
330
1B
  0
LAYOUT
  5
22
102
{ACAD_REACTORS
330
1A
102
}
330
1A
100
AcDbPlotSettings
  1

  2
none_device
  4
Letter_(8.50_x_11.00_Inches)
  6

 40
6.35
 41
6.35
 42
6.35000508
 43
6.35000508
 44
215.9
 45
279.4
 46
0.0
 47
0.0
 48
0.0
 49
0.0
140
0.0
141
0.0
142
1.0
143
1.0
 70
  1712
 72
     1
 73
     0
 74
     0
  7

 75
     0
 76
     0
 77
     2
 78
   300
147
1.0
148
0.0
149
0.0
100
AcDbLayout
  1
Model
 70
     1
 71
     0
 10
0.0
 20
0.0
 11
420.0
 21
297.0
 12
0.0
 22
0.0
 32
0.0
 14
9116.32829549663
 24
-9580.259226073395
 34
0.0
 15
31769.28913838763
 25
-7141.735316998213
 35
2500.0
146
0.0
 13
0.0
 23
0.0
 33
0.0
 16
1.0
 26
0.0
 36
0.0
 17
0.0
 27
1.0
 37
0.0
 76
     0
330
1F
331
29
  0
LAYOUT
  5
212
102
{ACAD_REACTORS
330
1A
102
}
330
1A
100
AcDbPlotSettings
  1
PlotSettings_
  2
Custom Device
  4
Custom_210.000000x297.000000_12.700000_12.700000_6.200000_6.200000
  6

 40
6.2
 41
12.7
 42
6.2
 43
12.7
 44
210.0
 45
297.0
 46
0.0000000000000142
 47
0.0
 48
0.0
 49
0.0
140
197.6
141
271.6
142
1.0
143
1.0
 70
   756
 72
     1
 73
     0
 74
     4
  7

 75
     0
 76
     0
 77
     2
 78
   300
147
1.0
148
0.0
149
0.0
100
AcDbLayout
  1
PrintFrame_211
 70
     0
 71
     2
 10
-20.0
 20
-7.5
 11
277.0
 21
202.5
 12
0.0
 22
0.0
 32
0.0
 14
-5.730400000000003
 24
-7.876400000000018
 34
0.0
 15
203.3304
 25
279.4764
 35
0.0
146
0.0
 13
0.0
 23
0.0
 33
0.0
 16
1.0
 26
0.0
 36
0.0
 17
0.0
 27
1.0
 37
0.0
 76
     0
330
211
331
217
1001
PLOTTRANSPARENCY
1071
        1
1000
layout-user-created
1070
     1
1000
layout-line-weight-scale
1042
1.0
  0
MATERIAL
  5
45
102
{ACAD_REACTORS
330
43
102
}
330
43
100
AcDbMaterial
  1
ByBlock
 72
     1
 94
      127
  0
MATERIAL
  5
44
102
{ACAD_REACTORS
330
43
102
}
330
43
100
AcDbMaterial
  1
ByLayer
 72
     1
 94
      127
  0
MATERIAL
  5
46
102
{ACAD_REACTORS
330
43
102
}
330
43
100
AcDbMaterial
  1
Global
 72
     1
 94
      127
  0
MLEADERSTYLE
  5
5C
102
{ACAD_REACTORS
330
5B
102
}
330
5B
100
AcDbMLeaderStyle
179
     2
170
     2
171
     1
172
     0
 90
        2
 40
0.0
 41
0.0
173
     1
 91
-1056964608
340
14
 92
       -2
290
     1
 42
2.0
291
     1
 43
8.0
  3
Standard
341
0
 44
4.0
300

342
11
174
     1
178
     6
175
     1
176
     0
 93
-1056964608
 45
4.0
292
     0
297
     0
 46
4.0
343
0
 94
-1056964608
 47
1.0
 49
1.0
140
1.0
293
     1
141
0.0
294
     1
177
     0
142
1.0
295
     0
296
     0
143
3.75
271
     0
272
     9
273
     9
298
     0
  0
MLINESTYLE
  5
18
102
{ACAD_REACTORS
330
17
102
}
330
17
100
AcDbMlineStyle
  2
Standard
 70
     0
  3

 62
   256
 51
90.0
 52
90.0
 71
     2
 49
0.5
 62
   256
  6
BYLAYER
 49
-0.5
 62
   256
  6
BYLAYER
  0
PLOTSETTINGS
  5
215
102
{ACAD_REACTORS
330
19
102
}
330
19
100
AcDbPlotSettings
  1
PlotSettings_
  2
Custom Device
  4
Custom_210.000000x297.000000_12.700000_12.700000_6.200000_6.200000
  6

 40
6.2
 41
12.7
 42
6.2
 43
12.7
 44
210.0
 45
297.0
 46
0.0000000000000142
 47
0.0
 48
0.0
 49
0.0
140
197.6
141
271.6
142
1.0
143
1.0
 70
   756
 72
     1
 73
     0
 74
     4
  7

 75
     0
 76
     0
 77
     2
 78
   300
147
1.0
148
0.0
149
0.0
1001
PLOTTRANSPARENCY
1071
        1
1000
layout-user-created
1070
     1
1000
layout-line-weight-scale
1042
1.0
  0
ACDBPLACEHOLDER
  5
5F
102
{ACAD_REACTORS
330
E
102
}
330
E
  0
ACDBPLACEHOLDER
  5
F
102
{ACAD_REACTORS
330
E
102
}
330
E
  0
ACDBPLACEHOLDER
  5
23E
102
{ACAD_REACTORS
330
E
102
}
330
E
  0
SCALE
  5
48
102
{ACAD_REACTORS
330
47
102
}
330
47
100
AcDbScale
 70
     0
300
1:1
140
1.0
141
1.0
290
     1
  0
SCALE
  5
49
102
{ACAD_REACTORS
330
47
102
}
330
47
100
AcDbScale
 70
     0
300
1:2
140
1.0
141
2.0
290
     0
  0
SCALE
  5
4A
102
{ACAD_REACTORS
330
47
102
}
330
47
100
AcDbScale
 70
     0
300
1:4
140
1.0
141
4.0
290
     0
  0
SCALE
  5
4B
102
{ACAD_REACTORS
330
47
102
}
330
47
100
AcDbScale
 70
     0
300
1:5
140
1.0
141
5.0
290
     0
  0
SCALE
  5
4C
102
{ACAD_REACTORS
330
47
102
}
330
47
100
AcDbScale
 70
     0
300
1:8
140
1.0
141
8.0
290
     0
  0
SCALE
  5
4D
102
{ACAD_REACTORS
330
47
102
}
330
47
100
AcDbScale
 70
     0
300
1:10
140
1.0
141
10.0
290
     0
  0
SCALE
  5
4E
102
{ACAD_REACTORS
330
47
102
}
330
47
100
AcDbScale
 70
     0
300
1:16
140
1.0
141
16.0
290
     0
  0
SCALE
  5
4F
102
{ACAD_REACTORS
330
47
102
}
330
47
100
AcDbScale
 70
     0
300
1:20
140
1.0
141
20.0
290
     0
  0
SCALE
  5
50
102
{ACAD_REACTORS
330
47
102
}
330
47
100
AcDbScale
 70
     0
300
1:30
140
1.0
141
30.0
290
     0
  0
SCALE
  5
51
102
{ACAD_REACTORS
330
47
102
}
330
47
100
AcDbScale
 70
     0
300
1:40
140
1.0
141
40.0
290
     0
  0
SCALE
  5
52
102
{ACAD_REACTORS
330
47
102
}
330
47
100
AcDbScale
 70
     0
300
1:50
140
1.0
141
50.0
290
     0
  0
SCALE
  5
53
102
{ACAD_REACTORS
330
47
102
}
330
47
100
AcDbScale
 70
     0
300
1:100
140
1.0
141
100.0
290
     0
  0
SCALE
  5
54
102
{ACAD_REACTORS
330
47
102
}
330
47
100
AcDbScale
 70
     0
300
2:1
140
2.0
141
1.0
290
     0
  0
SCALE
  5
55
102
{ACAD_REACTORS
330
47
102
}
330
47
100
AcDbScale
 70
     0
300
4:1
140
4.0
141
1.0
290
     0
  0
SCALE
  5
56
102
{ACAD_REACTORS
330
47
102
}
330
47
100
AcDbScale
 70
     0
300
8:1
140
8.0
141
1.0
290
     0
  0
SCALE
  5
57
102
{ACAD_REACTORS
330
47
102
}
330
47
100
AcDbScale
 70
     0
300
10:1
140
10.0
141
1.0
290
     0
  0
SCALE
  5
58
102
{ACAD_REACTORS
330
47
102
}
330
47
100
AcDbScale
 70
     0
300
100:1
140
100.0
141
1.0
290
     0
  0
TABLESTYLE
  5
5A
102
{ACAD_REACTORS
330
59
102
}
102
{ACAD_XDICTIONARY
360
339
102
}
330
59
100
AcDbTableStyle
  3
Standard
 70
     0
 71
     0
 40
0.06
 41
0.06
280
     0
281
     0
  7
Standard
140
4.5
170
     2
 62
     0
 63
   257
283
     0
 90
        4
 91
        0
  1

274
    -2
284
     1
 64
     0
275
    -2
285
     1
 65
     0
276
    -2
286
     1
 66
     0
277
    -2
287
     1
 67
     0
278
    -2
288
     1
 68
     0
279
    -2
289
     1
 69
     0
  7
Standard
140
6.0
170
     5
 62
     0
 63
   257
283
     0
 90
        4
 91
        0
  1

274
    -2
284
     1
 64
     0
275
    -2
285
     1
 65
     0
276
    -2
286
     1
 66
     0
277
    -2
287
     1
 67
     0
278
    -2
288
     1
 68
     0
279
    -2
289
     1
 69
     0
  7
Standard
140
4.5
170
     5
 62
     0
 63
   257
283
     0
 90
        4
 91
        0
  1

274
    -2
284
     1
 64
     0
275
    -2
285
     1
 65
     0
276
    -2
286
     1
 66
     0
277
    -2
287
     1
 67
     0
278
    -2
288
     1
 68
     0
279
    -2
289
     1
 69
     0
  0
VISUALSTYLE
  5
2F
102
{ACAD_REACTORS
330
2A
102
}
330
2A
100
AcDbVisualStyle
  2
2dWireframe
 70
     4
177
     3
291
     0
 70
    58
 90
        0
176
     1
 90
        2
176
     1
 90
        0
176
     1
 90
        0
176
     1
 40
0.6
176
     1
 40
30.0
176
     1
 62
     7
420
 16777215
176
     1
 90
        1
176
     1
 90
        4
176
     1
 62
     7
176
     1
 62
   257
176
     1
 90
        1
176
     1
 90
        1
176
     1
 40
1.0
176
     1
 90
        0
176
     1
 62
   257
176
     1
 40
1.0
176
     1
 90
        1
176
     1
 90
        6
176
     1
 90
        2
176
     1
 62
     7
176
     1
 90
        5
176
     1
 90
        0
176
     1
 90
        0
176
     1
290
     0
176
     1
 90
        1
176
     1
 40
0.0
176
     1
 90
        0
176
     1
290
     1
176
     1
290
     1
176
     1
290
     0
176
     1
290
     0
176
     1
290
     0
176
     1
290
     0
176
     1
290
     0
176
     1
290
     0
176
     1
290
     0
176
     1
 90
       50
176
     1
 40
0.0
176
     1
 40
1.0
176
     1
 90
        0
176
     1
 62
    18
420
        0
176
     1
 90
       50
176
     1
 90
        3
176
     1
 62
     5
420
      255
176
     1
290
     0
176
     1
 90
       50
176
     1
 90
       50
176
     1
 90
       50
176
     1
290
     0
176
     1
 90
       50
176
     1
 62
   256
176
     0
 40
1.0
176
     0
 90
        2
176
     1
  1
strokes_ogs.tif
176
     1
290
     0
176
     1
 40
1.0
176
     1
 40
1.0
176
     1
  0
VISUALSTYLE
  5
32
102
{ACAD_REACTORS
330
2A
102
}
330
2A
100
AcDbVisualStyle
  2
Basic
 70
     7
177
     3
291
     1
 70
    58
 90
        1
176
     1
 90
        0
176
     1
 90
        1
176
     1
 90
        0
176
     1
 40
0.6
176
     1
 40
30.0
176
     1
 62
     7
420
 16777215
176
     1
 90
        0
176
     1
 90
        4
176
     1
 62
     7
176
     1
 62
   257
176
     1
 90
        1
176
     1
 90
        1
176
     1
 40
1.0
176
     1
 90
        8
176
     1
 62
     7
176
     1
 40
1.0
176
     1
 90
        1
176
     1
 90
        6
176
     1
 90
        2
176
     1
 62
     7
176
     1
 90
        5
176
     1
 90
        0
176
     1
 90
        0
176
     1
290
     0
176
     1
 90
        1
176
     1
 40
0.0
176
     1
 90
        0
176
     1
290
     0
176
     1
290
     1
176
     1
290
     1
176
     1
290
     0
176
     1
290
     0
176
     1
290
     0
176
     1
290
     0
176
     1
290
     0
176
     1
290
     0
176
     1
 90
       50
176
     1
 40
0.0
176
     1
 40
1.0
176
     1
 90
        0
176
     1
 62
    18
420
        0
176
     1
 90
       50
176
     1
 90
        3
176
     1
 62
     5
420
      255
176
     1
290
     0
176
     1
 90
       50
176
     1
 90
       50
176
     1
 90
       50
176
     1
290
     0
176
     1
 90
       50
176
     1
 62
   256
176
     0
 40
1.0
176
     0
 90
        2
176
     1
  1
strokes_ogs.tif
176
     1
290
     0
176
     1
 40
1.0
176
     1
 40
1.0
176
     1
  0
VISUALSTYLE
  5
36
102
{ACAD_REACTORS
330
2A
102
}
330
2A
100
AcDbVisualStyle
  2
Brighten
 70
    12
177
     3
291
     1
 70
    58
 90
        2
176
     1
 90
        2
176
     1
 90
        0
176
     1
 90
        0
176
     1
 40
0.6
176
     1
 40
30.0
176
     1
 62
     7
420
 16777215
176
     1
 90
        1
176
     1
 90
        4
176
     1
 62
     7
176
     1
 62
   257
176
     1
 90
        1
176
     1
 90
        1
176
     1
 40
1.0
176
     1
 90
        8
176
     1
 62
     7
176
     1
 40
1.0
176
     1
 90
        1
176
     1
 90
        6
176
     1
 90
        2
176
     1
 62
     7
176
     1
 90
        5
176
     1
 90
        0
176
     1
 90
        0
176
     1
290
     0
176
     1
 90
        1
176
     1
 40
50.0
176
     1
 90
        0
176
     1
290
     0
176
     1
290
     1
176
     1
290
     1
176
     1
290
     0
176
     1
290
     0
176
     1
290
     0
176
     1
290
     0
176
     1
290
     0
176
     1
290
     0
176
     1
 90
       50
176
     1
 40
0.0
176
     1
 40
1.0
176
     1
 90
        0
176
     1
 62
    18
420
        0
176
     1
 90
       50
176
     1
 90
        3
176
     1
 62
     5
420
      255
176
     1
290
     0
176
     1
 90
       50
176
     1
 90
       50
176
     1
 90
       50
176
     1
290
     0
176
     1
 90
       50
176
     1
 62
   256
176
     0
 40
1.0
176
     0
 90
        2
176
     1
  1
strokes_ogs.tif
176
     1
290
     0
176
     1
 40
1.0
176
     1
 40
1.0
176
     1
  0
VISUALSTYLE
  5
3A
102
{ACAD_REACTORS
330
2A
102
}
330
2A
100
AcDbVisualStyle
  2
ColorChange
 70
    16
177
     3
291
     1
 70
    58
 90
        2
176
     1
 90
        2
176
     1
 90
        3
176
     1
 90
        0
176
     1
 40
0.6
176
     1
 40
30.0
176
     1
 62
     8
420
  8421504
176
     1
 90
        1
176
     1
 90
        4
176
     1
 62
     7
176
     1
 62
   257
176
     1
 90
        1
176
     1
 90
        1
176
     1
 40
1.0
176
     1
 90
        8
176
     1
 62
     8
420
  8421504
176
     1
 40
1.0
176
     1
 90
        1
176
     1
 90
        6
176
     1
 90
        2
176
     1
 62
     7
176
     1
 90
        5
176
     1
 90
        0
176
     1
 90
        0
176
     1
290
     0
176
     1
 90
        1
176
     1
 40
0.0
176
     1
 90
        0
176
     1
290
     0
176
     1
290
     1
176
     1
290
     1
176
     1
290
     0
176
     1
290
     0
176
     1
290
     0
176
     1
290
     0
176
     1
290
     0
176
     1
290
     0
176
     1
 90
       50
176
     1
 40
0.0
176
     1
 40
1.0
176
     1
 90
        0
176
     1
 62
    18
420
        0
176
     1
 90
       50
176
     1
 90
        3
176
     1
 62
     5
420
      255
176
     1
290
     0
176
     1
 90
       50
176
     1
 90
       50
176
     1
 90
       50
176
     1
290
     0
176
     1
 90
       50
176
     1
 62
   256
176
     0
 40
1.0
176
     0
 90
        2
176
     1
  1
strokes_ogs.tif
176
     1
290
     0
176
     1
 40
1.0
176
     1
 40
1.0
176
     1
  0
VISUALSTYLE
  5
34
102
{ACAD_REACTORS
330
2A
102
}
330
2A
100
AcDbVisualStyle
  2
Conceptual
 70
     9
177
     3
291
     0
 70
    58
 90
        3
176
     1
 90
        2
176
     1
 90
        0
176
     1
 90
        0
176
     1
 40
0.6
176
     1
 40
30.0
176
     1
 62
     7
420
 16777215
176
     1
 90
        2
176
     1
 90
        2
176
     1
 62
     7
176
     1
 62
   257
176
     1
 90
        1
176
     1
 90
        1
176
     1
 40
179.0
176
     1
 90
        8
176
     1
 62
     7
176
     1
 40
1.0
176
     1
 90
        1
176
     1
 90
        6
176
     1
 90
        2
176
     1
 62
     7
176
     1
 90
        3
176
     1
 90
        0
176
     1
 90
        0
176
     1
290
     0
176
     1
 90
        1
176
     1
 40
0.0
176
     1
 90
        0
176
     1
290
     0
176
     1
290
     1
176
     1
290
     1
176
     1
290
     0
176
     1
290
     0
176
     1
290
     0
176
     1
290
     0
176
     1
290
     0
176
     1
290
     0
176
     1
 90
       50
176
     1
 40
0.0
176
     1
 40
1.0
176
     1
 90
        0
176
     1
 62
    18
420
        0
176
     1
 90
       50
176
     1
 90
        3
176
     1
 62
     5
420
      255
176
     1
290
     0
176
     1
 90
       50
176
     1
 90
       50
176
     1
 90
       50
176
     1
290
     0
176
     1
 90
       50
176
     1
 62
   256
176
     0
 40
1.0
176
     0
 90
        2
176
     1
  1
strokes_ogs.tif
176
     1
290
     0
176
     1
 40
1.0
176
     1
 40
1.0
176
     1
  0
VISUALSTYLE
  5
35
102
{ACAD_REACTORS
330
2A
102
}
330
2A
100
AcDbVisualStyle
  2
Dim
 70
    11
177
     3
291
     1
 70
    58
 90
        2
176
     1
 90
        2
176
     1
 90
        0
176
     1
 90
        0
176
     1
 40
0.6
176
     1
 40
30.0
176
     1
 62
     7
420
 16777215
176
     1
 90
        1
176
     1
 90
        4
176
     1
 62
     7
176
     1
 62
   257
176
     1
 90
        1
176
     1
 90
        1
176
     1
 40
1.0
176
     1
 90
        8
176
     1
 62
     7
176
     1
 40
1.0
176
     1
 90
        1
176
     1
 90
        6
176
     1
 90
        2
176
     1
 62
     7
176
     1
 90
        5
176
     1
 90
        0
176
     1
 90
        0
176
     1
290
     0
176
     1
 90
        1
176
     1
 40
-50.0
176
     1
 90
        0
176
     1
290
     0
176
     1
290
     1
176
     1
290
     1
176
     1
290
     0
176
     1
290
     0
176
     1
290
     0
176
     1
290
     0
176
     1
290
     0
176
     1
290
     0
176
     1
 90
       50
176
     1
 40
0.0
176
     1
 40
1.0
176
     1
 90
        0
176
     1
 62
    18
420
        0
176
     1
 90
       50
176
     1
 90
        3
176
     1
 62
     5
420
      255
176
     1
290
     0
176
     1
 90
       50
176
     1
 90
       50
176
     1
 90
       50
176
     1
290
     0
176
     1
 90
       50
176
     1
 62
   256
176
     0
 40
1.0
176
     0
 90
        2
176
     1
  1
strokes_ogs.tif
176
     1
290
     0
176
     1
 40
1.0
176
     1
 40
1.0
176
     1
  0
VISUALSTYLE
  5
3D
102
{ACAD_REACTORS
330
2A
102
}
330
2A
100
AcDbVisualStyle
  2
EdgeColorOff
 70
    22
177
     3
291
     1
 70
    58
 90
        2
176
     0
 90
        2
176
     0
 90
        0
176
     0
 90
        0
176
     0
 40
0.6
176
     0
 40
30.0
176
     0
 62
     7
420
 16777215
176
     0
 90
        1
176
     0
 90
        4
176
     0
 62
     7
176
     0
 62
   257
176
     0
 90
        1
176
     0
 90
        1
176
     0
 40
1.0
176
     0
 90
        8
176
     2
 62
     7
176
     0
 40
1.0
176
     0
 90
        1
176
     0
 90
        6
176
     0
 90
        2
176
     0
 62
     7
176
     0
 90
        5
176
     0
 90
        0
176
     0
 90
        0
176
     0
290
     0
176
     0
 90
        1
176
     0
 40
0.0
176
     0
 90
        0
176
     0
290
     0
176
     0
290
     1
176
     0
290
     1
176
     0
290
     0
176
     0
290
     0
176
     0
290
     0
176
     0
290
     0
176
     0
290
     0
176
     0
290
     0
176
     0
 90
       50
176
     0
 40
0.0
176
     0
 40
1.0
176
     0
 90
        0
176
     0
 62
    18
420
        0
176
     0
 90
       50
176
     0
 90
        3
176
     0
 62
     5
420
      255
176
     0
290
     0
176
     0
 90
       50
176
     0
 90
       50
176
     0
 90
       50
176
     0
290
     0
176
     0
 90
       50
176
     0
 62
   256
176
     0
 40
1.0
176
     0
 90
        2
176
     0
  1
strokes_ogs.tif
176
     0
290
     0
176
     0
 40
1.0
176
     0
 40
1.0
176
     0
  0
VISUALSTYLE
  5
39
102
{ACAD_REACTORS
330
2A
102
}
330
2A
100
AcDbVisualStyle
  2
Facepattern
 70
    15
177
     3
291
     1
 70
    58
 90
        2
176
     1
 90
        2
176
     1
 90
        0
176
     1
 90
        0
176
     1
 40
0.6
176
     1
 40
30.0
176
     1
 62
     7
420
 16777215
176
     1
 90
        1
176
     1
 90
        4
176
     1
 62
     7
176
     1
 62
   257
176
     1
 90
        1
176
     1
 90
        1
176
     1
 40
1.0
176
     1
 90
        8
176
     1
 62
     7
176
     1
 40
1.0
176
     1
 90
        1
176
     1
 90
        6
176
     1
 90
        2
176
     1
 62
     7
176
     1
 90
        5
176
     1
 90
        0
176
     1
 90
        0
176
     1
290
     0
176
     1
 90
        1
176
     1
 40
0.0
176
     1
 90
        0
176
     1
290
     0
176
     1
290
     1
176
     1
290
     1
176
     1
290
     0
176
     1
290
     0
176
     1
290
     0
176
     1
290
     0
176
     1
290
     0
176
     1
290
     0
176
     1
 90
       50
176
     1
 40
0.0
176
     1
 40
1.0
176
     1
 90
        0
176
     1
 62
    18
420
        0
176
     1
 90
       50
176
     1
 90
        3
176
     1
 62
     5
420
      255
176
     1
290
     0
176
     1
 90
       50
176
     1
 90
       50
176
     1
 90
       50
176
     1
290
     0
176
     1
 90
       50
176
     1
 62
   256
176
     0
 40
1.0
176
     0
 90
        2
176
     1
  1
strokes_ogs.tif
176
     1
290
     0
176
     1
 40
1.0
176
     1
 40
1.0
176
     1
  0
VISUALSTYLE
  5
2B
102
{ACAD_REACTORS
330
2A
102
}
330
2A
100
AcDbVisualStyle
  2
Flat
 70
     0
177
     3
291
     1
 70
    58
 90
        2
176
     1
 90
        1
176
     1
 90
        1
176
     1
 90
        2
176
     1
 40
0.6
176
     1
 40
30.0
176
     1
 62
     7
420
 16777215
176
     1
 90
        0
176
     1
 90
        0
176
     1
 62
     7
176
     1
 62
   257
176
     1
 90
        1
176
     1
 90
        1
176
     1
 40
1.0
176
     1
 90
        8
176
     1
 62
     7
176
     1
 40
1.0
176
     1
 90
        1
176
     1
 90
        6
176
     1
 90
        2
176
     1
 62
     7
176
     1
 90
        5
176
     1
 90
        0
176
     1
 90
        0
176
     1
290
     0
176
     1
 90
       13
176
     1
 40
0.0
176
     1
 90
        0
176
     1
290
     0
176
     1
290
     1
176
     1
290
     1
176
     1
290
     0
176
     1
290
     0
176
     1
290
     0
176
     1
290
     0
176
     1
290
     0
176
     1
290
     0
176
     1
 90
       50
176
     1
 40
0.0
176
     1
 40
1.0
176
     1
 90
        0
176
     1
 62
    18
420
        0
176
     1
 90
       50
176
     1
 90
        3
176
     1
 62
     5
420
      255
176
     1
290
     0
176
     1
 90
       50
176
     1
 90
       50
176
     1
 90
       50
176
     1
290
     0
176
     1
 90
       50
176
     1
 62
   256
176
     0
 40
1.0
176
     0
 90
        2
176
     1
  1
strokes_ogs.tif
176
     1
290
     0
176
     1
 40
1.0
176
     1
 40
1.0
176
     1
  0
VISUALSTYLE
  5
2C
102
{ACAD_REACTORS
330
2A
102
}
330
2A
100
AcDbVisualStyle
  2
FlatWithEdges
 70
     1
177
     3
291
     1
 70
    58
 90
        2
176
     1
 90
        1
176
     1
 90
        1
176
     1
 90
        2
176
     1
 40
0.6
176
     1
 40
30.0
176
     1
 62
     7
420
 16777215
176
     1
 90
        1
176
     1
 90
        0
176
     1
 62
     7
176
     1
 62
   257
176
     1
 90
        1
176
     1
 90
        1
176
     1
 40
1.0
176
     1
 90
        0
176
     1
 62
   257
176
     1
 40
1.0
176
     1
 90
        1
176
     1
 90
        6
176
     1
 90
        2
176
     1
 62
     7
176
     1
 90
        5
176
     1
 90
        0
176
     1
 90
        0
176
     1
290
     0
176
     1
 90
       13
176
     1
 40
0.0
176
     1
 90
        0
176
     1
290
     0
176
     1
290
     1
176
     1
290
     1
176
     1
290
     0
176
     1
290
     0
176
     1
290
     0
176
     1
290
     0
176
     1
290
     0
176
     1
290
     0
176
     1
 90
       50
176
     1
 40
0.0
176
     1
 40
1.0
176
     1
 90
        0
176
     1
 62
    18
420
        0
176
     1
 90
       50
176
     1
 90
        3
176
     1
 62
     5
420
      255
176
     1
290
     0
176
     1
 90
       50
176
     1
 90
       50
176
     1
 90
       50
176
     1
290
     0
176
     1
 90
       50
176
     1
 62
   256
176
     0
 40
1.0
176
     0
 90
        2
176
     1
  1
strokes_ogs.tif
176
     1
290
     0
176
     1
 40
1.0
176
     1
 40
1.0
176
     1
  0
VISUALSTYLE
  5
2D
102
{ACAD_REACTORS
330
2A
102
}
330
2A
100
AcDbVisualStyle
  2
Gouraud
 70
     2
177
     3
291
     1
 70
    58
 90
        2
176
     1
 90
        2
176
     1
 90
        1
176
     1
 90
        2
176
     1
 40
0.6
176
     1
 40
30.0
176
     1
 62
     7
420
 16777215
176
     1
 90
        0
176
     1
 90
        0
176
     1
 62
     7
176
     1
 62
   257
176
     1
 90
        1
176
     1
 90
        1
176
     1
 40
1.0
176
     1
 90
        0
176
     1
 62
     7
176
     1
 40
1.0
176
     1
 90
        1
176
     1
 90
        6
176
     1
 90
        2
176
     1
 62
     7
176
     1
 90
        5
176
     1
 90
        0
176
     1
 90
        0
176
     1
290
     0
176
     1
 90
       13
176
     1
 40
0.0
176
     1
 90
        0
176
     1
290
     0
176
     1
290
     1
176
     1
290
     1
176
     1
290
     0
176
     1
290
     0
176
     1
290
     0
176
     1
290
     0
176
     1
290
     0
176
     1
290
     0
176
     1
 90
       50
176
     1
 40
0.0
176
     1
 40
1.0
176
     1
 90
        0
176
     1
 62
    18
420
        0
176
     1
 90
       50
176
     1
 90
        3
176
     1
 62
     5
420
      255
176
     1
290
     0
176
     1
 90
       50
176
     1
 90
       50
176
     1
 90
       50
176
     1
290
     0
176
     1
 90
       50
176
     1
 62
   256
176
     0
 40
1.0
176
     0
 90
        2
176
     1
  1
strokes_ogs.tif
176
     1
290
     0
176
     1
 40
1.0
176
     1
 40
1.0
176
     1
  0
VISUALSTYLE
  5
2E
102
{ACAD_REACTORS
330
2A
102
}
330
2A
100
AcDbVisualStyle
  2
GouraudWithEdges
 70
     3
177
     3
291
     1
 70
    58
 90
        2
176
     1
 90
        2
176
     1
 90
        1
176
     1
 90
        2
176
     1
 40
0.6
176
     1
 40
30.0
176
     1
 62
     7
420
 16777215
176
     1
 90
        1
176
     1
 90
        0
176
     1
 62
     7
176
     1
 62
   257
176
     1
 90
        1
176
     1
 90
        1
176
     1
 40
1.0
176
     1
 90
        0
176
     1
 62
   257
176
     1
 40
1.0
176
     1
 90
        1
176
     1
 90
        6
176
     1
 90
        2
176
     1
 62
     7
176
     1
 90
        5
176
     1
 90
        0
176
     1
 90
        0
176
     1
290
     0
176
     1
 90
       13
176
     1
 40
0.0
176
     1
 90
        0
176
     1
290
     0
176
     1
290
     1
176
     1
290
     1
176
     1
290
     0
176
     1
290
     0
176
     1
290
     0
176
     1
290
     0
176
     1
290
     0
176
     1
290
     0
176
     1
 90
       50
176
     1
 40
0.0
176
     1
 40
1.0
176
     1
 90
        0
176
     1
 62
    18
420
        0
176
     1
 90
       50
176
     1
 90
        3
176
     1
 62
     5
420
      255
176
     1
290
     0
176
     1
 90
       50
176
     1
 90
       50
176
     1
 90
       50
176
     1
290
     0
176
     1
 90
       50
176
     1
 62
   256
176
     0
 40
1.0
176
     0
 90
        2
176
     1
  1
strokes_ogs.tif
176
     1
290
     0
176
     1
 40
1.0
176
     1
 40
1.0
176
     1
  0
VISUALSTYLE
  5
31
102
{ACAD_REACTORS
330
2A
102
}
330
2A
100
AcDbVisualStyle
  2
Hidden
 70
     6
177
     3
291
     0
 70
    58
 90
        1
176
     1
 90
        2
176
     1
 90
        2
176
     1
 90
        0
176
     1
 40
0.6
176
     1
 40
30.0
176
     1
 62
     7
420
 16777215
176
     1
 90
        2
176
     1
 90
        2
176
     1
 62
     7
176
     1
 62
   257
176
     1
 90
        2
176
     1
 90
        1
176
     1
 40
40.0
176
     1
 90
        0
176
     1
 62
   257
176
     1
 40
1.0
176
     1
 90
        1
176
     1
 90
        6
176
     1
 90
        2
176
     1
 62
     7
176
     1
 90
        3
176
     1
 90
        0
176
     1
 90
        0
176
     1
290
     0
176
     1
 90
        1
176
     1
 40
0.0
176
     1
 90
        0
176
     1
290
     0
176
     1
290
     1
176
     1
290
     1
176
     1
290
     0
176
     1
290
     0
176
     1
290
     0
176
     1
290
     0
176
     1
290
     0
176
     1
290
     0
176
     1
 90
       50
176
     1
 40
0.0
176
     1
 40
1.0
176
     1
 90
        0
176
     1
 62
    18
420
        0
176
     1
 90
       50
176
     1
 90
        3
176
     1
 62
     5
420
      255
176
     1
290
     0
176
     1
 90
       50
176
     1
 90
       50
176
     1
 90
       50
176
     1
290
     0
176
     1
 90
       50
176
     1
 62
   256
176
     0
 40
1.0
176
     0
 90
        2
176
     1
  1
strokes_ogs.tif
176
     1
290
     0
176
     1
 40
1.0
176
     1
 40
1.0
176
     1
  0
VISUALSTYLE
  5
3B
102
{ACAD_REACTORS
330
2A
102
}
330
2A
100
AcDbVisualStyle
  2
JitterOff
 70
    20
177
     3
291
     1
 70
    58
 90
        2
176
     0
 90
        2
176
     0
 90
        0
176
     0
 90
        0
176
     0
 40
0.6
176
     0
 40
30.0
176
     0
 62
     7
420
 16777215
176
     0
 90
        1
176
     0
 90
        4
176
     0
 62
     7
176
     0
 62
   257
176
     0
 90
        1
176
     0
 90
        1
176
     0
 40
1.0
176
     0
 90
       10
176
     2
 62
     7
176
     0
 40
1.0
176
     0
 90
        1
176
     0
 90
        6
176
     0
 90
        2
176
     0
 62
     7
176
     0
 90
        5
176
     0
 90
        0
176
     0
 90
        0
176
     0
290
     0
176
     0
 90
        1
176
     0
 40
0.0
176
     0
 90
        0
176
     0
290
     0
176
     0
290
     1
176
     0
290
     1
176
     0
290
     0
176
     0
290
     0
176
     0
290
     0
176
     0
290
     0
176
     0
290
     0
176
     0
290
     0
176
     0
 90
       50
176
     0
 40
0.0
176
     0
 40
1.0
176
     0
 90
        0
176
     0
 62
    18
420
        0
176
     0
 90
       50
176
     0
 90
        3
176
     0
 62
     5
420
      255
176
     0
290
     0
176
     0
 90
       50
176
     0
 90
       50
176
     0
 90
       50
176
     0
290
     0
176
     0
 90
       50
176
     0
 62
   256
176
     0
 40
1.0
176
     0
 90
        2
176
     0
  1
strokes_ogs.tif
176
     0
290
     0
176
     0
 40
1.0
176
     0
 40
1.0
176
     0
  0
VISUALSTYLE
  5
38
102
{ACAD_REACTORS
330
2A
102
}
330
2A
100
AcDbVisualStyle
  2
Linepattern
 70
    14
177
     3
291
     1
 70
    58
 90
        2
176
     1
 90
        2
176
     1
 90
        0
176
     1
 90
        0
176
     1
 40
0.6
176
     1
 40
30.0
176
     1
 62
     7
420
 16777215
176
     1
 90
        1
176
     1
 90
        4
176
     1
 62
     7
176
     1
 62
   257
176
     1
 90
        7
176
     1
 90
        7
176
     1
 40
1.0
176
     1
 90
        8
176
     1
 62
     7
176
     1
 40
1.0
176
     1
 90
        1
176
     1
 90
        6
176
     1
 90
        2
176
     1
 62
     7
176
     1
 90
        5
176
     1
 90
        0
176
     1
 90
        0
176
     1
290
     0
176
     1
 90
        1
176
     1
 40
0.0
176
     1
 90
        0
176
     1
290
     0
176
     1
290
     1
176
     1
290
     1
176
     1
290
     0
176
     1
290
     0
176
     1
290
     0
176
     1
290
     0
176
     1
290
     0
176
     1
290
     0
176
     1
 90
       50
176
     1
 40
0.0
176
     1
 40
1.0
176
     1
 90
        0
176
     1
 62
    18
420
        0
176
     1
 90
       50
176
     1
 90
        3
176
     1
 62
     5
420
      255
176
     1
290
     0
176
     1
 90
       50
176
     1
 90
       50
176
     1
 90
       50
176
     1
290
     0
176
     1
 90
       50
176
     1
 62
   256
176
     0
 40
1.0
176
     0
 90
        2
176
     1
  1
strokes_ogs.tif
176
     1
290
     0
176
     1
 40
1.0
176
     1
 40
1.0
176
     1
  0
VISUALSTYLE
  5
3C
102
{ACAD_REACTORS
330
2A
102
}
330
2A
100
AcDbVisualStyle
  2
OverhangOff
 70
    21
177
     3
291
     1
 70
    58
 90
        2
176
     0
 90
        2
176
     0
 90
        0
176
     0
 90
        0
176
     0
 40
0.6
176
     0
 40
30.0
176
     0
 62
     7
420
 16777215
176
     0
 90
        1
176
     0
 90
        4
176
     0
 62
     7
176
     0
 62
   257
176
     0
 90
        1
176
     0
 90
        1
176
     0
 40
1.0
176
     0
 90
        9
176
     2
 62
     7
176
     0
 40
1.0
176
     0
 90
        1
176
     0
 90
        6
176
     0
 90
        2
176
     0
 62
     7
176
     0
 90
        5
176
     0
 90
        0
176
     0
 90
        0
176
     0
290
     0
176
     0
 90
        1
176
     0
 40
0.0
176
     0
 90
        0
176
     0
290
     0
176
     0
290
     1
176
     0
290
     1
176
     0
290
     0
176
     0
290
     0
176
     0
290
     0
176
     0
290
     0
176
     0
290
     0
176
     0
290
     0
176
     0
 90
       50
176
     0
 40
0.0
176
     0
 40
1.0
176
     0
 90
        0
176
     0
 62
    18
420
        0
176
     0
 90
       50
176
     0
 90
        3
176
     0
 62
     5
420
      255
176
     0
290
     0
176
     0
 90
       50
176
     0
 90
       50
176
     0
 90
       50
176
     0
290
     0
176
     0
 90
       50
176
     0
 62
   256
176
     0
 40
1.0
176
     0
 90
        2
176
     0
  1
strokes_ogs.tif
176
     0
290
     0
176
     0
 40
1.0
176
     0
 40
1.0
176
     0
  0
VISUALSTYLE
  5
33
102
{ACAD_REACTORS
330
2A
102
}
330
2A
100
AcDbVisualStyle
  2
Realistic
 70
     8
177
     3
291
     0
 70
    58
 90
        2
176
     1
 90
        3
176
     1
 90
        0
176
     1
 90
        2
176
     1
 40
0.6
176
     1
 40
30.0
176
     1
 62
     7
420
 16777215
176
     1
 90
        0
176
     1
 90
        0
176
     1
 62
     7
176
     1
 62
   257
176
     1
 90
        1
176
     1
 90
        1
176
     1
 40
1.0
176
     1
 90
        8
176
     1
 62
   257
176
     1
 40
1.0
176
     1
 90
        1
176
     1
 90
        6
176
     1
 90
        2
176
     1
 62
     7
176
     1
 90
        3
176
     1
 90
        0
176
     1
 90
        0
176
     1
290
     0
176
     1
 90
       13
176
     1
 40
0.0
176
     1
 90
        0
176
     1
290
     0
176
     1
290
     1
176
     1
290
     1
176
     1
290
     0
176
     1
290
     0
176
     1
290
     0
176
     1
290
     0
176
     1
290
     0
176
     1
290
     0
176
     1
 90
       50
176
     1
 40
0.0
176
     1
 40
1.0
176
     1
 90
        0
176
     1
 62
    18
420
        0
176
     1
 90
       50
176
     1
 90
        3
176
     1
 62
     5
420
      255
176
     1
290
     0
176
     1
 90
       50
176
     1
 90
       50
176
     1
 90
       50
176
     1
290
     0
176
     1
 90
       50
176
     1
 62
   256
176
     0
 40
1.0
176
     0
 90
        2
176
     1
  1
strokes_ogs.tif
176
     1
290
     0
176
     1
 40
1.0
176
     1
 40
1.0
176
     1
  0
VISUALSTYLE
  5
42
102
{ACAD_REACTORS
330
2A
102
}
330
2A
100
AcDbVisualStyle
  2
Shaded
 70
    27
177
     3
291
     0
 70
    58
 90
        2
176
     1
 90
        2
176
     1
 90
        1
176
     1
 90
        2
176
     1
 40
0.6
176
     1
 40
30.0
176
     1
 62
     7
420
 16777215
176
     1
 90
        0
176
     1
 90
        4
176
     1
 62
     7
176
     1
 62
   257
176
     1
 90
        1
176
     1
 90
        1
176
     1
 40
1.0
176
     1
 90
        8
176
     1
 62
   257
176
     1
 40
1.0
176
     1
 90
        1
176
     1
 90
        6
176
     1
 90
        2
176
     1
 62
     8
420
  7895160
176
     1
 90
        3
176
     1
 90
        0
176
     1
 90
        0
176
     1
290
     0
176
     1
 90
        5
176
     1
 40
0.0
176
     1
 90
        0
176
     1
290
     0
176
     1
290
     1
176
     1
290
     1
176
     1
290
     0
176
     1
290
     0
176
     1
290
     0
176
     1
290
     0
176
     1
290
     0
176
     1
290
     0
176
     1
 90
       50
176
     1
 40
0.0
176
     1
 40
1.0
176
     1
 90
        0
176
     1
 62
    18
420
        0
176
     1
 90
       50
176
     1
 90
        3
176
     1
 62
     5
420
      255
176
     1
290
     0
176
     1
 90
       50
176
     1
 90
       50
176
     1
 90
       50
176
     1
290
     0
176
     1
 90
       50
176
     1
 62
   256
176
     0
 40
1.0
176
     0
 90
        2
176
     1
  1
strokes_ogs.tif
176
     1
290
     0
176
     1
 40
1.0
176
     1
 40
1.0
176
     1
  0
VISUALSTYLE
  5
41
102
{ACAD_REACTORS
330
2A
102
}
330
2A
100
AcDbVisualStyle
  2
Shaded with edges
 70
    26
177
     3
291
     0
 70
    58
 90
        2
176
     1
 90
        2
176
     1
 90
        1
176
     1
 90
        2
176
     1
 40
0.6
176
     1
 40
30.0
176
     1
 62
     7
420
 16777215
176
     1
 90
        1
176
     1
 90
       10
176
     1
 62
     7
176
     1
 62
   257
176
     1
 90
        2
176
     1
 90
        1
176
     1
 40
1.0
176
     1
 90
        8
176
     1
 62
   257
176
     1
 40
1.0
176
     1
 90
        1
176
     1
 90
        6
176
     1
 90
        2
176
     1
 62
     7
176
     1
 90
        3
176
     1
 90
        0
176
     1
 90
        0
176
     1
290
     0
176
     1
 90
        5
176
     1
 40
0.0
176
     1
 90
        0
176
     1
290
     0
176
     1
290
     1
176
     1
290
     1
176
     1
290
     0
176
     1
290
     0
176
     1
290
     0
176
     1
290
     0
176
     1
290
     0
176
     1
290
     0
176
     1
 90
       50
176
     1
 40
0.0
176
     1
 40
1.0
176
     1
 90
        0
176
     1
 62
    18
420
        0
176
     1
 90
       50
176
     1
 90
        3
176
     1
 62
     5
420
      255
176
     1
290
     0
176
     1
 90
       50
176
     1
 90
       50
176
     1
 90
       50
176
     1
290
     0
176
     1
 90
       50
176
     1
 62
   256
176
     0
 40
1.0
176
     0
 90
        2
176
     1
  1
strokes_ogs.tif
176
     1
290
     0
176
     1
 40
1.0
176
     1
 40
1.0
176
     1
  0
VISUALSTYLE
  5
3E
102
{ACAD_REACTORS
330
2A
102
}
330
2A
100
AcDbVisualStyle
  2
Shades of Gray
 70
    23
177
     3
291
     0
 70
    58
 90
        2
176
     1
 90
        2
176
     1
 90
        3
176
     1
 90
        0
176
     1
 40
0.6
176
     1
 40
30.0
176
     1
 62
     7
420
 16777215
176
     1
 90
        2
176
     1
 90
        2
176
     1
 62
     7
176
     1
 62
     7
176
     1
 90
        1
176
     1
 90
        1
176
     1
 40
40.0
176
     1
 90
        8
176
     1
 62
     7
176
     1
 40
1.0
176
     1
 90
        1
176
     1
 90
        6
176
     1
 90
        2
176
     1
 62
     7
176
     1
 90
        3
176
     1
 90
        0
176
     1
 90
        0
176
     1
290
     0
176
     1
 90
        1
176
     1
 40
0.0
176
     1
 90
        0
176
     1
290
     0
176
     1
290
     1
176
     1
290
     1
176
     1
290
     0
176
     1
290
     0
176
     1
290
     0
176
     1
290
     0
176
     1
290
     0
176
     1
290
     0
176
     1
 90
       50
176
     1
 40
0.0
176
     1
 40
1.0
176
     1
 90
        0
176
     1
 62
    18
420
        0
176
     1
 90
       50
176
     1
 90
        3
176
     1
 62
     5
420
      255
176
     1
290
     0
176
     1
 90
       50
176
     1
 90
       50
176
     1
 90
       50
176
     1
290
     0
176
     1
 90
       50
176
     1
 62
   256
176
     0
 40
1.0
176
     0
 90
        2
176
     1
  1
strokes_ogs.tif
176
     1
290
     0
176
     1
 40
1.0
176
     1
 40
1.0
176
     1
  0
VISUALSTYLE
  5
3F
102
{ACAD_REACTORS
330
2A
102
}
330
2A
100
AcDbVisualStyle
  2
Sketchy
 70
    24
177
     3
291
     0
 70
    58
 90
        1
176
     1
 90
        2
176
     1
 90
        2
176
     1
 90
        0
176
     1
 40
0.6
176
     1
 40
30.0
176
     1
 62
     7
420
 16777215
176
     1
 90
        2
176
     1
 90
        2
176
     1
 62
     7
176
     1
 62
     7
176
     1
 90
        1
176
     1
 90
        1
176
     1
 40
40.0
176
     1
 90
       11
176
     1
 62
     7
176
     1
 40
1.0
176
     1
 90
        1
176
     1
 90
        6
176
     1
 90
        2
176
     1
 62
     7
176
     1
 90
        6
176
     1
 90
        0
176
     1
 90
        0
176
     1
290
     0
176
     1
 90
        1
176
     1
 40
0.0
176
     1
 90
        0
176
     1
290
     0
176
     1
290
     1
176
     1
290
     1
176
     1
290
     0
176
     1
290
     0
176
     1
290
     0
176
     1
290
     0
176
     1
290
     0
176
     1
290
     0
176
     1
 90
       50
176
     1
 40
0.0
176
     1
 40
1.0
176
     1
 90
        0
176
     1
 62
    18
420
        0
176
     1
 90
       50
176
     1
 90
        3
176
     1
 62
     5
420
      255
176
     1
290
     0
176
     1
 90
       50
176
     1
 90
       50
176
     1
 90
       50
176
     1
290
     0
176
     1
 90
       50
176
     1
 62
   256
176
     0
 40
1.0
176
     0
 90
        2
176
     1
  1
strokes_ogs.tif
176
     1
290
     0
176
     1
 40
1.0
176
     1
 40
1.0
176
     1
  0
VISUALSTYLE
  5
37
102
{ACAD_REACTORS
330
2A
102
}
330
2A
100
AcDbVisualStyle
  2
Thicken
 70
    13
177
     3
291
     1
 70
    58
 90
        2
176
     1
 90
        2
176
     1
 90
        0
176
     1
 90
        0
176
     1
 40
0.6
176
     1
 40
30.0
176
     1
 62
     7
420
 16777215
176
     1
 90
        1
176
     1
 90
        4
176
     1
 62
     7
176
     1
 62
   257
176
     1
 90
        1
176
     1
 90
        1
176
     1
 40
1.0
176
     1
 90
       12
176
     1
 62
     7
176
     1
 40
1.0
176
     1
 90
        1
176
     1
 90
        6
176
     1
 90
        2
176
     1
 62
     7
176
     1
 90
        5
176
     1
 90
        0
176
     1
 90
        0
176
     1
290
     0
176
     1
 90
        1
176
     1
 40
0.0
176
     1
 90
        0
176
     1
290
     0
176
     1
290
     1
176
     1
290
     1
176
     1
290
     0
176
     1
290
     0
176
     1
290
     0
176
     1
290
     0
176
     1
290
     0
176
     1
290
     0
176
     1
 90
       50
176
     1
 40
0.0
176
     1
 40
1.0
176
     1
 90
        0
176
     1
 62
    18
420
        0
176
     1
 90
       50
176
     1
 90
        3
176
     1
 62
     5
420
      255
176
     1
290
     0
176
     1
 90
       50
176
     1
 90
       50
176
     1
 90
       50
176
     1
290
     0
176
     1
 90
       50
176
     1
 62
   256
176
     0
 40
1.0
176
     0
 90
        2
176
     1
  1
strokes_ogs.tif
176
     1
290
     0
176
     1
 40
1.0
176
     1
 40
1.0
176
     1
  0
VISUALSTYLE
  5
30
102
{ACAD_REACTORS
330
2A
102
}
330
2A
100
AcDbVisualStyle
  2
Wireframe
 70
     5
177
     3
291
     0
 70
    58
 90
        0
176
     1
 90
        2
176
     1
 90
        0
176
     1
 90
        0
176
     1
 40
0.6
176
     1
 40
30.0
176
     1
 62
     7
420
 16777215
176
     1
 90
        1
176
     1
 90
        4
176
     1
 62
     7
176
     1
 62
   257
176
     1
 90
        1
176
     1
 90
        1
176
     1
 40
1.0
176
     1
 90
        0
176
     1
 62
   257
176
     1
 40
1.0
176
     1
 90
        1
176
     1
 90
        6
176
     1
 90
        2
176
     1
 62
     7
176
     1
 90
        3
176
     1
 90
        0
176
     1
 90
        0
176
     1
290
     0
176
     1
 90
        1
176
     1
 40
0.0
176
     1
 90
        0
176
     1
290
     0
176
     1
290
     1
176
     1
290
     1
176
     1
290
     0
176
     1
290
     0
176
     1
290
     0
176
     1
290
     0
176
     1
290
     0
176
     1
290
     0
176
     1
 90
       50
176
     1
 40
0.0
176
     1
 40
1.0
176
     1
 90
        0
176
     1
 62
    18
420
        0
176
     1
 90
       50
176
     1
 90
        3
176
     1
 62
     5
420
      255
176
     1
290
     0
176
     1
 90
       50
176
     1
 90
       50
176
     1
 90
       50
176
     1
290
     0
176
     1
 90
       50
176
     1
 62
   256
176
     0
 40
1.0
176
     0
 90
        2
176
     1
  1
strokes_ogs.tif
176
     1
290
     0
176
     1
 40
1.0
176
     1
 40
1.0
176
     1
  0
VISUALSTYLE
  5
40
102
{ACAD_REACTORS
330
2A
102
}
330
2A
100
AcDbVisualStyle
  2
X-Ray
 70
    25
177
     3
291
     0
 70
    58
 90
        2
176
     1
 90
        2
176
     1
 90
        1
176
     1
 90
        1
176
     1
 40
0.5
176
     1
 40
30.0
176
     1
 62
     7
420
 16777215
176
     1
 90
        1
176
     1
 90
        0
176
     1
 62
     7
176
     1
 62
   257
176
     1
 90
        1
176
     1
 90
        1
176
     1
 40
1.0
176
     1
 90
        8
176
     1
 62
     7
176
     1
 40
1.0
176
     1
 90
        1
176
     1
 90
        6
176
     1
 90
        2
176
     1
 62
     7
176
     1
 90
        3
176
     1
 90
        0
176
     1
 90
        0
176
     1
290
     0
176
     1
 90
       13
176
     1
 40
0.0
176
     1
 90
        0
176
     1
290
     0
176
     1
290
     1
176
     1
290
     1
176
     1
290
     0
176
     1
290
     0
176
     1
290
     0
176
     1
290
     0
176
     1
290
     0
176
     1
290
     0
176
     1
 90
       50
176
     1
 40
0.0
176
     1
 40
1.0
176
     1
 90
        0
176
     1
 62
    18
420
        0
176
     1
 90
       50
176
     1
 90
        3
176
     1
 62
     5
420
      255
176
     1
290
     0
176
     1
 90
       50
176
     1
 90
       50
176
     1
 90
       50
176
     1
290
     0
176
     1
 90
       50
176
     1
 62
   256
176
     0
 40
1.0
176
     0
 90
        2
176
     1
  1
strokes_ogs.tif
176
     1
290
     0
176
     1
 40
1.0
176
     1
 40
1.0
176
     1
  0
DICTIONARYVAR
  5
338
102
{ACAD_REACTORS
330
337
102
}
330
337
100
DictionaryVariables
280
     0
  1
1:1
  0
DICTIONARYVAR
  5
341
102
{ACAD_REACTORS
330
337
102
}
330
337
100
DictionaryVariables
280
     0
  1
3.500000
  0
DICTIONARYVAR
  5
342
102
{ACAD_REACTORS
330
337
102
}
330
337
100
DictionaryVariables
280
     0
  1
acadiso.lin
  0
DICTIONARYVAR
  5
33D
102
{ACAD_REACTORS
330
337
102
}
330
337
100
DictionaryVariables
280
     0
  1
Standard
  0
DICTIONARYVAR
  5
33C
102
{ACAD_REACTORS
330
337
102
}
330
337
100
DictionaryVariables
280
     0
  1
Standard
  0
DICTIONARYVAR
  5
340
102
{ACAD_REACTORS
330
337
102
}
330
337
100
DictionaryVariables
280
     0
  1
0
  0
DICTIONARY
  5
339
330
5A
100
AcDbDictionary
280
     1
281
     1
  3
ACAD_ROUNDTRIP_2008_TABLESTYLE_CELLSTYLEMAP
360
33A
  0
CELLSTYLEMAP
  5
33A
102
{ACAD_REACTORS
330
339
102
}
330
339
100
AcDbCellStyleMap
 90
        3
300
CELLSTYLE
  1
TABLEFORMAT_BEGIN
 90
        5
170
     1
 91
        0
 92
    32768
 62
   257
 93
        1
300
CONTENTFORMAT
  1
CONTENTFORMAT_BEGIN
 90
        0
 91
        0
 92
        4
 93
        0
300

 40
0.0
140
1.0
 94
        5
 62
     0
340
11
144
6.0
309
CONTENTFORMAT_END
171
     1
301
MARGIN
  1
CELLMARGIN_BEGIN
 40
1.5
 40
1.5
 40
1.5
 40
1.5
 40
1.5
 40
1.5
309
CELLMARGIN_END
 94
        6
 95
        1
302
GRIDFORMAT
  1
GRIDFORMAT_BEGIN
 90
        0
 91
        1
 62
     0
 92
       -2
340
14
 93
        0
 40
0.045
309
GRIDFORMAT_END
 95
        2
302
GRIDFORMAT
  1
GRIDFORMAT_BEGIN
 90
        0
 91
        1
 62
     0
 92
       -2
340
14
 93
        0
 40
0.045
309
GRIDFORMAT_END
 95
        4
302
GRIDFORMAT
  1
GRIDFORMAT_BEGIN
 90
        0
 91
        1
 62
     0
 92
       -2
340
14
 93
        0
 40
0.045
309
GRIDFORMAT_END
 95
        8
302
GRIDFORMAT
  1
GRIDFORMAT_BEGIN
 90
        0
 91
        1
 62
     0
 92
       -2
340
14
 93
        0
 40
0.045
309
GRIDFORMAT_END
 95
       16
302
GRIDFORMAT
  1
GRIDFORMAT_BEGIN
 90
        0
 91
        1
 62
     0
 92
       -2
340
14
 93
        0
 40
0.045
309
GRIDFORMAT_END
 95
       32
302
GRIDFORMAT
  1
GRIDFORMAT_BEGIN
 90
        0
 91
        1
 62
     0
 92
       -2
340
14
 93
        0
 40
0.045
309
GRIDFORMAT_END
309
TABLEFORMAT_END
  1
CELLSTYLE_BEGIN
 90
        1
 91
        1
300
_TITLE
309
CELLSTYLE_END
300
CELLSTYLE
  1
TABLEFORMAT_BEGIN
 90
        5
170
     1
 91
        0
 92
        0
 62
   257
 93
        1
300
CONTENTFORMAT
  1
CONTENTFORMAT_BEGIN
 90
        0
 91
        0
 92
        4
 93
        0
300

 40
0.0
140
1.0
 94
        5
 62
     0
340
11
144
4.5
309
CONTENTFORMAT_END
171
     1
301
MARGIN
  1
CELLMARGIN_BEGIN
 40
1.5
 40
1.5
 40
1.5
 40
1.5
 40
1.5
 40
1.5
309
CELLMARGIN_END
 94
        6
 95
        1
302
GRIDFORMAT
  1
GRIDFORMAT_BEGIN
 90
        0
 91
        1
 62
     0
 92
       -2
340
14
 93
        0
 40
0.045
309
GRIDFORMAT_END
 95
        2
302
GRIDFORMAT
  1
GRIDFORMAT_BEGIN
 90
        0
 91
        1
 62
     0
 92
       -2
340
14
 93
        0
 40
0.045
309
GRIDFORMAT_END
 95
        4
302
GRIDFORMAT
  1
GRIDFORMAT_BEGIN
 90
        0
 91
        1
 62
     0
 92
       -2
340
14
 93
        0
 40
0.045
309
GRIDFORMAT_END
 95
        8
302
GRIDFORMAT
  1
GRIDFORMAT_BEGIN
 90
        0
 91
        1
 62
     0
 92
       -2
340
14
 93
        0
 40
0.045
309
GRIDFORMAT_END
 95
       16
302
GRIDFORMAT
  1
GRIDFORMAT_BEGIN
 90
        0
 91
        1
 62
     0
 92
       -2
340
14
 93
        0
 40
0.045
309
GRIDFORMAT_END
 95
       32
302
GRIDFORMAT
  1
GRIDFORMAT_BEGIN
 90
        0
 91
        1
 62
     0
 92
       -2
340
14
 93
        0
 40
0.045
309
GRIDFORMAT_END
309
TABLEFORMAT_END
  1
CELLSTYLE_BEGIN
 90
        2
 91
        1
300
_HEADER
309
CELLSTYLE_END
300
CELLSTYLE
  1
TABLEFORMAT_BEGIN
 90
        5
170
     1
 91
        0
 92
        0
 62
   257
 93
        1
300
CONTENTFORMAT
  1
CONTENTFORMAT_BEGIN
 90
        0
 91
        0
 92
        4
 93
        0
300

 40
0.0
140
1.0
 94
        2
 62
     0
340
11
144
4.5
309
CONTENTFORMAT_END
171
     1
301
MARGIN
  1
CELLMARGIN_BEGIN
 40
1.5
 40
1.5
 40
1.5
 40
1.5
 40
1.5
 40
1.5
309
CELLMARGIN_END
 94
        6
 95
        1
302
GRIDFORMAT
  1
GRIDFORMAT_BEGIN
 90
        0
 91
        1
 62
     0
 92
       -2
340
14
 93
        0
 40
0.045
309
GRIDFORMAT_END
 95
        2
302
GRIDFORMAT
  1
GRIDFORMAT_BEGIN
 90
        0
 91
        1
 62
     0
 92
       -2
340
14
 93
        0
 40
0.045
309
GRIDFORMAT_END
 95
        4
302
GRIDFORMAT
  1
GRIDFORMAT_BEGIN
 90
        0
 91
        1
 62
     0
 92
       -2
340
14
 93
        0
 40
0.045
309
GRIDFORMAT_END
 95
        8
302
GRIDFORMAT
  1
GRIDFORMAT_BEGIN
 90
        0
 91
        1
 62
     0
 92
       -2
340
14
 93
        0
 40
0.045
309
GRIDFORMAT_END
 95
       16
302
GRIDFORMAT
  1
GRIDFORMAT_BEGIN
 90
        0
 91
        1
 62
     0
 92
       -2
340
14
 93
        0
 40
0.045
309
GRIDFORMAT_END
 95
       32
302
GRIDFORMAT
  1
GRIDFORMAT_BEGIN
 90
        0
 91
        1
 62
     0
 92
       -2
340
14
 93
        0
 40
0.045
309
GRIDFORMAT_END
309
TABLEFORMAT_END
  1
CELLSTYLE_BEGIN
 90
        3
 91
        2
300
_DATA
309
CELLSTYLE_END
  0
ENDSEC
  0
EOF
