  0
SECTION
  2
HEADER
  9
$ACADVER
  1
AC1027
  9
$ACADMAINTVER
 70
   105
  9
$DWGCODEPAGE
  3
ANSI_1252
  9
$LASTSAVEDBY
  1
mezergues
  9
$REQUIREDVERSIONS
160
                 0
  9
$INSBASE
 10
0.0
 20
0.0
 30
0.0
  9
$EXTMIN
 10
9116.32829549663
 20
-7141.735316998213
 30
0.0
  9
$EXTMAX
 10
31769.28913838763
 20
-4703.211407923024
 30
2500.0
  9
$LIMMIN
 10
0.0
 20
0.0
  9
$LIMMAX
 10
420.0
 20
297.0
  9
$ORTHOMODE
 70
     0
  9
$REGENMODE
 70
     1
  9
$FILLMODE
 70
     1
  9
$QTEXTMODE
 70
     0
  9
$MIRRTEXT
 70
     1
  9
$LTSCALE
 40
5.0
  9
$ATTMODE
 70
     1
  9
$TEXTSIZE
 40
2.5
  9
$TRACEWID
 40
1.0
  9
$TEXTSTYLE
  7
Standard
  9
$CLAYER
  8
0
  9
$CELTYPE
  6
Continuous
  9
$CECOLOR
 62
   256
  9
$CELTSCALE
 40
1.0
  9
$DISPSILH
 70
     0
  9
$DIMSCALE
 40
1.0
  9
$DIMASZ
 40
2.5
  9
$DIMEXO
 40
0.625
  9
$DIMDLI
 40
3.75
  9
$DIMRND
 40
0.0
  9
$DIMDLE
 40
0.0
  9
$DIMEXE
 40
1.25
  9
$DIMTP
 40
0.0
  9
$DIMTM
 40
0.0
  9
$DIMTXT
 40
2.5
  9
$DIMCEN
 40
2.5
  9
$DIMTSZ
 40
0.0
  9
$DIMTOL
 70
     0
  9
$DIMLIM
 70
     0
  9
$DIMTIH
 70
     0
  9
$DIMTOH
 70
     0
  9
$DIMSE1
 70
     0
  9
$DIMSE2
 70
     0
  9
$DIMTAD
 70
     1
  9
$DIMZIN
 70
     8
  9
$DIMBLK
  1

  9
$DIMASO
 70
     1
  9
$DIMSHO
 70
     1
  9
$DIMPOST
  1

  9
$DIMAPOST
  1

  9
$DIMALT
 70
     0
  9
$DIMALTD
 70
     3
  9
$DIMALTF
 40
0.03937007874016
  9
$DIMLFAC
 40
1.0
  9
$DIMTOFL
 70
     1
  9
$DIMTVP
 40
0.0
  9
$DIMTIX
 70
     0
  9
$DIMSOXD
 70
     1
  9
$DIMSAH
 70
     0
  9
$DIMBLK1
  1

  9
$DIMBLK2
  1

  9
$DIMSTYLE
  2
ISO-25
  9
$DIMCLRD
 70
     0
  9
$DIMCLRE
 70
     0
  9
$DIMCLRT
 70
     0
  9
$DIMTFAC
 40
1.0
  9
$DIMGAP
 40
0.625
  9
$DIMJUST
 70
     0
  9
$DIMSD1
 70
     0
  9
$DIMSD2
 70
     0
  9
$DIMTOLJ
 70
     0
  9
$DIMTZIN
 70
     8
  9
$DIMALTZ
 70
     0
  9
$DIMALTTZ
 70
     0
  9
$DIMUPT
 70
     0
  9
$DIMDEC
 70
     2
  9
$DIMTDEC
 70
     2
  9
$DIMALTU
 70
     2
  9
$DIMALTTD
 70
     3
  9
$DIMTXSTY
  7
Standard
  9
$DIMAUNIT
 70
     0
  9
$DIMADEC
 70
     0
  9
$DIMALTRND
 40
0.0
  9
$DIMAZIN
 70
     0
  9
$DIMDSEP
 70
    44
  9
$DIMATFIT
 70
     3
  9
$DIMFRAC
 70
     0
  9
$DIMLDRBLK
  1

  9
$DIMLUNIT
 70
     2
  9
$DIMLWD
 70
    -2
  9
$DIMLWE
 70
    -2
  9
$DIMTMOVE
 70
     2
  9
$DIMFXL
 40
1.0
  9
$DIMFXLON
 70
     0
  9
$DIMJOGANG
 40
0.7853981633974483
  9
$DIMTFILL
 70
     0
  9
$DIMTFILLCLR
 70
     0
  9
$DIMARCSYM
 70
     0
  9
$DIMLTYPE
  6

  9
$DIMLTEX1
  6

  9
$DIMLTEX2
  6

  9
$DIMTXTDIRECTION
 70
     0
  9
$LUNITS
 70
     2
  9
$LUPREC
 70
     4
  9
$SKETCHINC
 40
1.0
  9
$FILLETRAD
 40
0.0
  9
$AUNITS
 70
     0
  9
$AUPREC
 70
     0
  9
$MENU
  1
.
  9
$ELEVATION
 40
0.0
  9
$PELEVATION
 40
0.0
  9
$THICKNESS
 40
0.0
  9
$LIMCHECK
 70
     0
  9
$CHAMFERA
 40
0.0
  9
$CHAMFERB
 40
0.0
  9
$CHAMFERC
 40
0.0
  9
$CHAMFERD
 40
0.0
  9
$SKPOLY
 70
     0
  9
$TDCREATE
 40
2459977.427716319
  9
$TDUCREATE
 40
2459977.386049653
  9
$TDUPDATE
 40
2459977.427718958
  9
$TDUUPDATE
 40
2459977.386052292
  9
$TDINDWG
 40
0.0000000116
  9
$TDUSRTIMER
 40
0.0000000116
  9
$USRTIMER
 70
     1
  9
$ANGBASE
 50
0.0
  9
$ANGDIR
 70
     0
  9
$PDMODE
 70
     0
  9
$PDSIZE
 40
0.0
  9
$PLINEWID
 40
0.0
  9
$SPLFRAME
 70
     0
  9
$SPLINETYPE
 70
     6
  9
$SPLINESEGS
 70
     8
  9
$HANDSEED
  5
33C
  9
$SURFTAB1
 70
     6
  9
$SURFTAB2
 70
     6
  9
$SURFTYPE
 70
     6
  9
$SURFU
 70
     6
  9
$SURFV
 70
     6
  9
$UCSBASE
  2

  9
$UCSNAME
  2

  9
$UCSORG
 10
0.0
 20
0.0
 30
0.0
  9
$UCSXDIR
 10
1.0
 20
0.0
 30
0.0
  9
$UCSYDIR
 10
0.0
 20
1.0
 30
0.0
  9
$UCSORTHOREF
  2

  9
$UCSORTHOVIEW
 70
     0
  9
$UCSORGTOP
 10
0.0
 20
0.0
 30
0.0
  9
$UCSORGBOTTOM
 10
0.0
 20
0.0
 30
0.0
  9
$UCSORGLEFT
 10
0.0
 20
0.0
 30
0.0
  9
$UCSORGRIGHT
 10
0.0
 20
0.0
 30
0.0
  9
$UCSORGFRONT
 10
0.0
 20
0.0
 30
0.0
  9
$UCSORGBACK
 10
0.0
 20
0.0
 30
0.0
  9
$PUCSBASE
  2

  9
$PUCSNAME
  2

  9
$PUCSORG
 10
0.0
 20
0.0
 30
0.0
  9
$PUCSXDIR
 10
1.0
 20
0.0
 30
0.0
  9
$PUCSYDIR
 10
0.0
 20
1.0
 30
0.0
  9
$PUCSORTHOREF
  2

  9
$PUCSORTHOVIEW
 70
     0
  9
$PUCSORGTOP
 10
0.0
 20
0.0
 30
0.0
  9
$PUCSORGBOTTOM
 10
0.0
 20
0.0
 30
0.0
  9
$PUCSORGLEFT
 10
0.0
 20
0.0
 30
0.0
  9
$PUCSORGRIGHT
 10
0.0
 20
0.0
 30
0.0
  9
$PUCSORGFRONT
 10
0.0
 20
0.0
 30
0.0
  9
$PUCSORGBACK
 10
0.0
 20
0.0
 30
0.0
  9
$USERI1
 70
     0
  9
$USERI2
 70
     0
  9
$USERI3
 70
     0
  9
$USERI4
 70
     0
  9
$USERI5
 70
     0
  9
$USERR1
 40
0.0
  9
$USERR2
 40
0.0
  9
$USERR3
 40
0.0
  9
$USERR4
 40
0.0
  9
$USERR5
 40
0.0
  9
$WORLDVIEW
 70
     1
  9
$SHADEDGE
 70
     3
  9
$SHADEDIF
 70
    70
  9
$TILEMODE
 70
     1
  9
$MAXACTVP
 70
    64
  9
$PINSBASE
 10
0.0
 20
0.0
 30
0.0
  9
$PLIMCHECK
 70
     0
  9
$PEXTMIN
 10
-5.730400000000003
 20
-7.876400000000018
 30
0.0
  9
$PEXTMAX
 10
203.3304
 20
279.4764
 30
0.0
  9
$PLIMMIN
 10
-20.0
 20
-7.5
  9
$PLIMMAX
 10
277.0
 20
202.5
  9
$UNITMODE
 70
     0
  9
$VISRETAIN
 70
     1
  9
$PLINEGEN
 70
     0
  9
$PSLTSCALE
 70
     0
  9
$TREEDEPTH
 70
  3020
  9
$CMLSTYLE
  2
Standard
  9
$CMLJUST
 70
     0
  9
$CMLSCALE
 40
20.0
  9
$PROXYGRAPHICS
 70
     1
  9
$MEASUREMENT
 70
     1
  9
$CELWEIGHT
370
    -1
  9
$ENDCAPS
280
     0
  9
$JOINSTYLE
280
     0
  9
$LWDISPLAY
290
     0
  9
$INSUNITS
 70
     4
  9
$HYPERLINKBASE
  1

  9
$STYLESHEET
  1

  9
$XEDIT
290
     1
  9
$CEPSNTYPE
380
     3
  9
$CEPSNID
390
5F
  9
$PSTYLEMODE
290
     0
  9
$FINGERPRINTGUID
  2
{2467d8ea-bd56-447f-8bd8-bcf388f1e6c1}
  9
$VERSIONGUID
  2
{FAEB1C32-E019-11D5-929B-00C0DF256EC4}
  9
$EXTNAMES
290
     1
  9
$PSVPSCALE
 40
0.0
  9
$OLESTARTUP
290
     0
  9
$SORTENTS
280
   127
  9
$INDEXCTL
280
     0
  9
$HIDETEXT
280
     1
  9
$XCLIPFRAME
280
     2
  9
$HALOGAP
280
     0
  9
$OBSCOLOR
 70
   257
  9
$OBSLTYPE
280
     0
  9
$INTERSECTIONDISPLAY
280
     0
  9
$INTERSECTIONCOLOR
 70
   257
  9
$DIMASSOC
280
     2
  9
$PROJECTNAME
  1

  9
$CAMERADISPLAY
290
     0
  9
$LENSLENGTH
 40
50.0
  9
$CAMERAHEIGHT
 40
0.0
  9
$STEPSPERSEC
 40
2.0
  9
$STEPSIZE
 40
6.0
  9
$3DDWFPREC
 40
2.0
  9
$PSOLWIDTH
 40
5.0
  9
$PSOLHEIGHT
 40
80.0
  9
$LOFTANG1
 40
1.570796326794897
  9
$LOFTANG2
 40
1.570796326794897
  9
$LOFTMAG1
 40
0.0
  9
$LOFTMAG2
 40
0.0
  9
$LOFTPARAM
 70
     7
  9
$LOFTNORMALS
280
     1
  9
$LATITUDE
 40
37.795
  9
$LONGITUDE
 40
-122.394
  9
$NORTHDIRECTION
 40
0.0
  9
$TIMEZONE
 70
 -8000
  9
$LIGHTGLYPHDISPLAY
280
     1
  9
$TILEMODELIGHTSYNCH
280
     1
  9
$CMATERIAL
347
44
  9
$SOLIDHIST
280
     0
  9
$SHOWHIST
280
     1
  9
$DWFFRAME
280
     2
  9
$DGNFRAME
280
     2
  9
$REALWORLDSCALE
290
     1
  9
$INTERFERECOLOR
 62
   256
  9
$CSHADOW
280
     0
  9
$SHADOWPLANELOCATION
 40
0.0
  0
ENDSEC
  0
SECTION
  2
CLASSES
  0
CLASS
  1
ACDBDICTIONARYWDFLT
  2
AcDbDictionaryWithDefault
  3
ObjectDBX Classes
 90
        0
 91
        3
280
     0
281
     0
  0
CLASS
  1
VISUALSTYLE
  2
AcDbVisualStyle
  3
ObjectDBX Classes
 90
     4095
 91
        3
280
     0
281
     0
  0
CLASS
  1
MATERIAL
  2
AcDbMaterial
  3
ObjectDBX Classes
 90
     1153
 91
        3
280
     0
281
     0
  0
CLASS
  1
SCALE
  2
AcDbScale
  3
ObjectDBX Classes
 90
     1153
 91
        3
280
     0
281
     0
  0
CLASS
  1
TABLESTYLE
  2
AcDbTableStyle
  3
ObjectDBX Classes
 90
     4095
 91
        3
280
     0
281
     0
  0
CLASS
  1
MLEADERSTYLE
  2
AcDbMLeaderStyle
  3
ACDB_MLEADERSTYLE_CLASS
 90
     4095
 91
        3
280
     0
281
     0
  0
CLASS
  1
SUN
  2
AcDbSun
  3
SCENEOE
 90
     1153
 91
        3
280
     0
281
     0
  0
CLASS
  1
RASTERVARIABLES
  2
AcDbRasterVariables
  3
ISM
 90
        0
 91
        3
280
     0
281
     0
  0
CLASS
  1
WIPEOUTVARIABLES
  2
AcDbWipeoutVariables
  3
WipeOut|AutoCAD Express Tool|expresstools@autodesk.com
 90
        0
 91
        3
280
     0
281
     0
  0
CLASS
  1
PLOTSETTINGS
  2
AcDbPlotSettings
  3
ObjectDBX Classes
 90
        0
 91
        3
280
     0
281
     0
  0
CLASS
  1
DICTIONARYVAR
  2
AcDbDictionaryVar
  3
ObjectDBX Classes
 90
        0
 91
        3
280
     0
281
     0
  0
CLASS
  1
CELLSTYLEMAP
  2
AcDbCellStyleMap
  3
ObjectDBX Classes
 90
     1152
 91
        3
280
     0
281
     0
  0
ENDSEC
  0
SECTION
  2
TABLES
  0
TABLE
  2
VPORT
  5
8
330
0
100
AcDbSymbolTable
 70
     1
  0
VPORT
  5
29
330
8
100
AcDbSymbolTableRecord
100
AcDbViewportTableRecord
  2
*Active
 70
     0
 10
0.0
 20
0.0
 11
1.0
 21
1.0
 12
20442.80871694214
 22
-5922.473362460619
 13
0.0
 23
0.0
 14
10.0
 24
10.0
 15
10.0
 25
10.0
 16
0.0
 26
0.0
 36
1.0
 17
0.0
 27
0.0
 37
0.0
 40
2487.294387256693
 41
9.289620150364714
 42
50.0
 43
0.0
 44
0.0
 50
0.0
 51
0.0
 71
     0
 72
   100
 73
     1
 74
     3
 75
     0
 76
     0
 77
     0
 78
     0
281
     0
 65
     1
110
0.0
120
0.0
130
0.0
111
1.0
121
0.0
131
0.0
112
0.0
122
1.0
132
0.0
 79
     0
146
0.0
348
2F
 60
     3
 61
     5
292
     1
282
     1
141
0.0
142
0.0
 63
   250
361
5D
  0
ENDTAB
  0
TABLE
  2
LTYPE
  5
5
330
0
100
AcDbSymbolTable
 70
     3
  0
LTYPE
  5
14
330
5
100
AcDbSymbolTableRecord
100
AcDbLinetypeTableRecord
  2
ByBlock
 70
     0
  3

 72
    65
 73
     0
 40
0.0
  0
LTYPE
  5
15
330
5
100
AcDbSymbolTableRecord
100
AcDbLinetypeTableRecord
  2
ByLayer
 70
     0
  3

 72
    65
 73
     0
 40
0.0
  0
LTYPE
  5
16
330
5
100
AcDbSymbolTableRecord
100
AcDbLinetypeTableRecord
  2
Continuous
 70
     0
  3
Solid line
 72
    65
 73
     0
 40
0.0
  0
LTYPE
  5
166
330
5
100
AcDbSymbolTableRecord
100
AcDbLinetypeTableRecord
  2
CADWORK_3
 70
     0
  3

 72
    65
 73
     2
 40
4.0
 49
2.0
 74
     0
 49
-2.0
 74
     0
  0
LTYPE
  5
255
330
5
100
AcDbSymbolTableRecord
100
AcDbLinetypeTableRecord
  2
CADWORK_22
 70
     0
  3

 72
    65
 73
     0
 40
0.0
  0
ENDTAB
  0
TABLE
  2
LAYER
  5
2
330
0
100
AcDbSymbolTable
 70
     4
  0
LAYER
  5
10
330
2
100
AcDbSymbolTableRecord
100
AcDbLayerTableRecord
  2
0
 70
     0
 62
     7
  6
Continuous
370
    -3
390
F
347
46
348
0
  0
LAYER
  5
67
330
2
100
AcDbSymbolTableRecord
100
AcDbLayerTableRecord
  2
Ech.1_5
 70
     0
 62
     7
  6
Continuous
370
    -3
390
F
347
46
348
0
  0
LAYER
  5
68
330
2
100
AcDbSymbolTableRecord
100
AcDbLayerTableRecord
  2
ECH_1_5
 70
     0
 62
     7
  6
Continuous
370
    -3
390
F
347
46
348
0
  0
LAYER
  5
69
330
2
100
AcDbSymbolTableRecord
100
AcDbLayerTableRecord
  2
0_
 70
     0
 62
     7
  6
Continuous
370
    -3
390
F
347
46
348
0
  0
ENDTAB
  0
TABLE
  2
STYLE
  5
3
330
0
100
AcDbSymbolTable
 70
     9
  0
STYLE
  5
11
330
3
100
AcDbSymbolTableRecord
100
AcDbTextStyleTableRecord
  2
Standard
 70
     0
 40
0.0
 41
1.0
 50
0.0
 71
     0
 42
2.5
  3
txt
  4

  0
STYLE
  5
62
330
3
100
AcDbSymbolTableRecord
100
AcDbTextStyleTableRecord
  2
CwStyleShx
 70
     0
 40
1.0
 41
1.0
 50
0.0
 71
     0
 42
2.5
  3

  4

  0
STYLE
  5
63
330
3
100
AcDbSymbolTableRecord
100
AcDbTextStyleTableRecord
  2
CwStyleShx16
 70
     0
 40
1.0
 41
1.0
 50
0.0
 71
     0
 42
2.5
  3

  4

  0
STYLE
  5
64
330
3
100
AcDbSymbolTableRecord
100
AcDbTextStyleTableRecord
  2
MONOTXT
 70
     0
 40
0.0
 41
1.0
 50
0.0
 71
     0
 42
2.5
  3
MONOTXT
  4

  0
STYLE
  5
65
330
3
100
AcDbSymbolTableRecord
100
AcDbTextStyleTableRecord
  2
SYMAP
 70
     0
 40
1.0
 41
1.0
 50
0.0
 71
     0
 42
2.5
  3
SYMAP
  4

  0
STYLE
  5
66
330
3
100
AcDbSymbolTableRecord
100
AcDbTextStyleTableRecord
  2
CwStyleTtf
 70
     0
 40
1.0
 41
1.0
 50
0.0
 71
     0
 42
2.5
  3
arial.ttf
  4

  0
STYLE
  5
317
330
3
100
AcDbSymbolTableRecord
100
AcDbTextStyleTableRecord
  2
arial-
 70
     0
 40
1.0
 41
1.0
 50
0.0
 71
     0
 42
2.5
  3
arial.ttf
  4

1001
ACAD
1000
Arial
1071
        0
  0
STYLE
  5
31D
330
3
100
AcDbSymbolTableRecord
100
AcDbTextStyleTableRecord
  2
arial-i
 70
     0
 40
1.0
 41
1.0
 50
0.0
 71
     0
 42
2.5
  3
ariali.ttf
  4

1001
ACAD
1000
Arial
1071
 16777216
  0
STYLE
  5
31F
330
3
100
AcDbSymbolTableRecord
100
AcDbTextStyleTableRecord
  2
arial-b
 70
     0
 40
1.0
 41
1.0
 50
0.0
 71
     0
 42
2.5
  3
arialbd.ttf
  4

1001
ACAD
1000
Arial
1071
 33554432
  0
ENDTAB
  0
TABLE
  2
VIEW
  5
6
330
0
100
AcDbSymbolTable
 70
     0
  0
ENDTAB
  0
TABLE
  2
UCS
  5
7
330
0
100
AcDbSymbolTable
 70
     0
  0
ENDTAB
  0
TABLE
  2
APPID
  5
9
330
0
100
AcDbSymbolTable
 70
     3
  0
APPID
  5
12
330
9
100
AcDbSymbolTableRecord
100
AcDbRegAppTableRecord
  2
ACAD
 70
     0
  0
APPID
  5
5E
330
9
100
AcDbSymbolTableRecord
100
AcDbRegAppTableRecord
  2
Cadwork
 70
     0
  0
APPID
  5
216
330
9
100
AcDbSymbolTableRecord
100
AcDbRegAppTableRecord
  2
PLOTTRANSPARENCY
 70
     0
  0
ENDTAB
  0
TABLE
  2
DIMSTYLE
  5
A
330
0
100
AcDbSymbolTable
 70
     1
100
AcDbDimStyleTable
  0
DIMSTYLE
105
27
330
A
100
AcDbSymbolTableRecord
100
AcDbDimStyleTableRecord
  2
ISO-25
 70
     0
 41
2.5
 42
0.625
 43
3.75
 44
1.25
 73
     0
 74
     0
 77
     1
 78
     8
140
2.5
141
2.5
143
0.03937007874016
147
0.625
171
     3
172
     1
178
     0
271
     2
272
     2
274
     3
278
    44
283
     0
284
     8
340
11
  0
ENDTAB
  0
TABLE
  2
BLOCK_RECORD
  5
1
330
0
100
AcDbSymbolTable
 70
    69
  0
BLOCK_RECORD
  5
1F
330
1
100
AcDbSymbolTableRecord
100
AcDbBlockTableRecord
  2
*Model_Space
340
22
 70
     0
280
     1
281
     0
  0
BLOCK_RECORD
  5
211
330
1
100
AcDbSymbolTableRecord
100
AcDbBlockTableRecord
  2
*Paper_Space
340
212
 70
     0
280
     1
281
     0
  0
BLOCK_RECORD
  5
6A
330
1
100
AcDbSymbolTableRecord
100
AcDbBlockTableRecord
  2
CDWK_PTTYP1
340
0
 70
     0
280
     1
281
     1
  0
BLOCK_RECORD
  5
71
330
1
100
AcDbSymbolTableRecord
100
AcDbBlockTableRecord
  2
CDWK_PTTYP2
340
0
 70
     0
280
     1
281
     1
  0
BLOCK_RECORD
  5
76
330
1
100
AcDbSymbolTableRecord
100
AcDbBlockTableRecord
  2
CDWK_PTTYP4
340
0
 70
     0
280
     1
281
     1
  0
BLOCK_RECORD
  5
7A
330
1
100
AcDbSymbolTableRecord
100
AcDbBlockTableRecord
  2
CDWK_PTTYP5
340
0
 70
     0
280
     1
281
     1
  0
BLOCK_RECORD
  5
83
330
1
100
AcDbSymbolTableRecord
100
AcDbBlockTableRecord
  2
CDWK_PTTYP6
340
0
 70
     0
280
     1
281
     1
  0
BLOCK_RECORD
  5
8B
330
1
100
AcDbSymbolTableRecord
100
AcDbBlockTableRecord
  2
CDWK_PTTYP7
340
0
 70
     0
280
     1
281
     1
  0
BLOCK_RECORD
  5
94
330
1
100
AcDbSymbolTableRecord
100
AcDbBlockTableRecord
  2
CDWK_PTTYP8
340
0
 70
     0
280
     1
281
     1
  0
BLOCK_RECORD
  5
98
330
1
100
AcDbSymbolTableRecord
100
AcDbBlockTableRecord
  2
CDWK_PTTYP9
340
0
 70
     0
280
     1
281
     1
  0
BLOCK_RECORD
  5
9D
330
1
100
AcDbSymbolTableRecord
100
AcDbBlockTableRecord
  2
CDWK_PTTYP10
340
0
 70
     0
280
     1
281
     1
  0
BLOCK_RECORD
  5
A1
330
1
100
AcDbSymbolTableRecord
100
AcDbBlockTableRecord
  2
CDWK_PTTYP11
340
0
 70
     0
280
     1
281
     1
  0
BLOCK_RECORD
  5
A6
330
1
100
AcDbSymbolTableRecord
100
AcDbBlockTableRecord
  2
CDWK_PTTYP12
340
0
 70
     0
280
     1
281
     1
  0
BLOCK_RECORD
  5
AB
330
1
100
AcDbSymbolTableRecord
100
AcDbBlockTableRecord
  2
CDWK_PTTYP13
340
0
 70
     0
280
     1
281
     1
  0
BLOCK_RECORD
  5
B1
330
1
100
AcDbSymbolTableRecord
100
AcDbBlockTableRecord
  2
CDWK_PTTYP16
340
0
 70
     0
280
     1
281
     1
  0
BLOCK_RECORD
  5
B8
330
1
100
AcDbSymbolTableRecord
100
AcDbBlockTableRecord
  2
CDWK_PTTYP17
340
0
 70
     0
280
     1
281
     1
  0
BLOCK_RECORD
  5
BD
330
1
100
AcDbSymbolTableRecord
100
AcDbBlockTableRecord
  2
CDWK_PTTYP18
340
0
 70
     0
280
     1
281
     1
  0
BLOCK_RECORD
  5
C2
330
1
100
AcDbSymbolTableRecord
100
AcDbBlockTableRecord
  2
CDWK_PTTYP19
340
0
 70
     0
280
     1
281
     1
  0
BLOCK_RECORD
  5
C8
330
1
100
AcDbSymbolTableRecord
100
AcDbBlockTableRecord
  2
CDWK_PTTYP20
340
0
 70
     0
280
     1
281
     1
  0
BLOCK_RECORD
  5
CD
330
1
100
AcDbSymbolTableRecord
100
AcDbBlockTableRecord
  2
CDWK_PTTYP21
340
0
 70
     0
280
     1
281
     1
  0
BLOCK_RECORD
  5
D2
330
1
100
AcDbSymbolTableRecord
100
AcDbBlockTableRecord
  2
CDWK_PTTYP25
340
0
 70
     0
280
     1
281
     1
  0
BLOCK_RECORD
  5
D9
330
1
100
AcDbSymbolTableRecord
100
AcDbBlockTableRecord
  2
CDWK_PTTYP26
340
0
 70
     0
280
     1
281
     1
  0
BLOCK_RECORD
  5
E0
330
1
100
AcDbSymbolTableRecord
100
AcDbBlockTableRecord
  2
CDWK_PTTYP27
340
0
 70
     0
280
     1
281
     1
  0
BLOCK_RECORD
  5
E8
330
1
100
AcDbSymbolTableRecord
100
AcDbBlockTableRecord
  2
CDWK_PTTYP28
340
0
 70
     0
280
     1
281
     1
  0
BLOCK_RECORD
  5
EF
330
1
100
AcDbSymbolTableRecord
100
AcDbBlockTableRecord
  2
CDWK_PTTYP29
340
0
 70
     0
280
     1
281
     1
  0
BLOCK_RECORD
  5
F5
330
1
100
AcDbSymbolTableRecord
100
AcDbBlockTableRecord
  2
CDWK_PTTYP30
340
0
 70
     0
280
     1
281
     1
  0
BLOCK_RECORD
  5
FC
330
1
100
AcDbSymbolTableRecord
100
AcDbBlockTableRecord
  2
CDWK_PTTYP31
340
0
 70
     0
280
     1
281
     1
  0
BLOCK_RECORD
  5
104
330
1
100
AcDbSymbolTableRecord
100
AcDbBlockTableRecord
  2
CDWK_PTTYP32
340
0
 70
     0
280
     1
281
     1
  0
BLOCK_RECORD
  5
10D
330
1
100
AcDbSymbolTableRecord
100
AcDbBlockTableRecord
  2
CDWK_PTTYP33
340
0
 70
     0
280
     1
281
     1
  0
BLOCK_RECORD
  5
113
330
1
100
AcDbSymbolTableRecord
100
AcDbBlockTableRecord
  2
CDWK_PTTYP34
340
0
 70
     0
280
     1
281
     1
  0
BLOCK_RECORD
  5
119
330
1
100
AcDbSymbolTableRecord
100
AcDbBlockTableRecord
  2
CDWK_PTTYP35
340
0
 70
     0
280
     1
281
     1
  0
BLOCK_RECORD
  5
11F
330
1
100
AcDbSymbolTableRecord
100
AcDbBlockTableRecord
  2
CDWK_PTTYP36
340
0
 70
     0
280
     1
281
     1
  0
BLOCK_RECORD
  5
127
330
1
100
AcDbSymbolTableRecord
100
AcDbBlockTableRecord
  2
CDWK_PTTYP37
340
0
 70
     0
280
     1
281
     1
  0
BLOCK_RECORD
  5
12C
330
1
100
AcDbSymbolTableRecord
100
AcDbBlockTableRecord
  2
CDWK_PTTYP38
340
0
 70
     0
280
     1
281
     1
  0
BLOCK_RECORD
  5
132
330
1
100
AcDbSymbolTableRecord
100
AcDbBlockTableRecord
  2
CDWK_PTTYP41
340
0
 70
     0
280
     1
281
     1
  0
BLOCK_RECORD
  5
13C
330
1
100
AcDbSymbolTableRecord
100
AcDbBlockTableRecord
  2
CDWK_PTTYP42
340
0
 70
     0
280
     1
281
     1
  0
BLOCK_RECORD
  5
145
330
1
100
AcDbSymbolTableRecord
100
AcDbBlockTableRecord
  2
CDWK_PTTYP43
340
0
 70
     0
280
     1
281
     1
  0
BLOCK_RECORD
  5
14B
330
1
100
AcDbSymbolTableRecord
100
AcDbBlockTableRecord
  2
CDWK_PTTYP44
340
0
 70
     0
280
     1
281
     1
  0
BLOCK_RECORD
  5
154
330
1
100
AcDbSymbolTableRecord
100
AcDbBlockTableRecord
  2
CDWK_PTTYP45
340
0
 70
     0
280
     1
281
     1
  0
BLOCK_RECORD
  5
159
330
1
100
AcDbSymbolTableRecord
100
AcDbBlockTableRecord
  2
CDWK_PTTYP46
340
0
 70
     0
280
     1
281
     1
  0
BLOCK_RECORD
  5
15E
330
1
100
AcDbSymbolTableRecord
100
AcDbBlockTableRecord
  2
CDWK_PTTYP47
340
0
 70
     0
280
     1
281
     1
  0
BLOCK_RECORD
  5
167
330
1
100
AcDbSymbolTableRecord
100
AcDbBlockTableRecord
  2
CDWK_PTTYP48
340
0
 70
     0
280
     1
281
     1
  0
BLOCK_RECORD
  5
16C
330
1
100
AcDbSymbolTableRecord
100
AcDbBlockTableRecord
  2
CDWK_PTTYP49
340
0
 70
     0
280
     1
281
     1
  0
BLOCK_RECORD
  5
173
330
1
100
AcDbSymbolTableRecord
100
AcDbBlockTableRecord
  2
CDWK_PTTYP50
340
0
 70
     0
280
     1
281
     1
  0
BLOCK_RECORD
  5
17D
330
1
100
AcDbSymbolTableRecord
100
AcDbBlockTableRecord
  2
CDWK_PTTYP51
340
0
 70
     0
280
     1
281
     1
  0
BLOCK_RECORD
  5
182
330
1
100
AcDbSymbolTableRecord
100
AcDbBlockTableRecord
  2
CDWK_PTTYP52
340
0
 70
     0
280
     1
281
     1
  0
BLOCK_RECORD
  5
188
330
1
100
AcDbSymbolTableRecord
100
AcDbBlockTableRecord
  2
cw-dimension-symbol1
340
0
 70
     0
280
     1
281
     0
  0
BLOCK_RECORD
  5
18F
330
1
100
AcDbSymbolTableRecord
100
AcDbBlockTableRecord
  2
cw-dimension-symbol2
340
0
 70
     0
280
     1
281
     0
  0
BLOCK_RECORD
  5
194
330
1
100
AcDbSymbolTableRecord
100
AcDbBlockTableRecord
  2
cw-dimension-symbol3
340
0
 70
     0
280
     1
281
     0
  0
BLOCK_RECORD
  5
199
330
1
100
AcDbSymbolTableRecord
100
AcDbBlockTableRecord
  2
cw-dimension-symbol5
340
0
 70
     0
280
     1
281
     0
  0
BLOCK_RECORD
  5
1A0
330
1
100
AcDbSymbolTableRecord
100
AcDbBlockTableRecord
  2
cw-dimension-symbol6
340
0
 70
     0
280
     1
281
     0
  0
BLOCK_RECORD
  5
1A6
330
1
100
AcDbSymbolTableRecord
100
AcDbBlockTableRecord
  2
cw-dimension-symbol11
340
0
 70
     0
280
     1
281
     0
  0
BLOCK_RECORD
  5
1AC
330
1
100
AcDbSymbolTableRecord
100
AcDbBlockTableRecord
  2
cw-dimension-symbol13
340
0
 70
     0
280
     1
281
     0
  0
BLOCK_RECORD
  5
1B2
330
1
100
AcDbSymbolTableRecord
100
AcDbBlockTableRecord
  2
cw-dimension-symbol15
340
0
 70
     0
280
     1
281
     0
  0
BLOCK_RECORD
  5
1B9
330
1
100
AcDbSymbolTableRecord
100
AcDbBlockTableRecord
  2
cw-dimension-symbol16
340
0
 70
     0
280
     1
281
     0
  0
BLOCK_RECORD
  5
1C0
330
1
100
AcDbSymbolTableRecord
100
AcDbBlockTableRecord
  2
cw-dimension-symbol17
340
0
 70
     0
280
     1
281
     0
  0
BLOCK_RECORD
  5
1C7
330
1
100
AcDbSymbolTableRecord
100
AcDbBlockTableRecord
  2
cw-dimension-symbol18
340
0
 70
     0
280
     1
281
     0
  0
BLOCK_RECORD
  5
1CE
330
1
100
AcDbSymbolTableRecord
100
AcDbBlockTableRecord
  2
cw-dimension-symbol19
340
0
 70
     0
280
     1
281
     0
  0
BLOCK_RECORD
  5
1D1
330
1
100
AcDbSymbolTableRecord
100
AcDbBlockTableRecord
  2
cw-dimension-symbol20
340
0
 70
     0
280
     1
281
     0
  0
BLOCK_RECORD
  5
1D8
330
1
100
AcDbSymbolTableRecord
100
AcDbBlockTableRecord
  2
cw-dimension-symbol21
340
0
 70
     0
280
     1
281
     0
  0
BLOCK_RECORD
  5
1DF
330
1
100
AcDbSymbolTableRecord
100
AcDbBlockTableRecord
  2
cw-line-extremity0
340
0
 70
     0
280
     1
281
     0
  0
BLOCK_RECORD
  5
1E3
330
1
100
AcDbSymbolTableRecord
100
AcDbBlockTableRecord
  2
cw-line-extremity2
340
0
 70
     0
280
     1
281
     0
  0
BLOCK_RECORD
  5
1E8
330
1
100
AcDbSymbolTableRecord
100
AcDbBlockTableRecord
  2
cw-line-extremity3
340
0
 70
     0
280
     1
281
     0
  0
BLOCK_RECORD
  5
1ED
330
1
100
AcDbSymbolTableRecord
100
AcDbBlockTableRecord
  2
cw-line-extremity301
340
0
 70
     0
280
     1
281
     0
  0
BLOCK_RECORD
  5
1EF
330
1
100
AcDbSymbolTableRecord
100
AcDbBlockTableRecord
  2
cw-line-extremity4
340
0
102
{BLKREFS
331
30E
331
310
331
312
331
314
331
316
102
}
 70
     0
280
     1
281
     0
  0
BLOCK_RECORD
  5
1F1
330
1
100
AcDbSymbolTableRecord
100
AcDbBlockTableRecord
  2
cw-line-extremity5
340
0
 70
     0
280
     1
281
     0
  0
BLOCK_RECORD
  5
1F3
330
1
100
AcDbSymbolTableRecord
100
AcDbBlockTableRecord
  2
cw-line-extremity6
340
0
 70
     0
280
     1
281
     0
  0
BLOCK_RECORD
  5
1F5
330
1
100
AcDbSymbolTableRecord
100
AcDbBlockTableRecord
  2
cw-line-extremity9
340
0
 70
     0
280
     1
281
     0
  0
BLOCK_RECORD
  5
1F7
330
1
100
AcDbSymbolTableRecord
100
AcDbBlockTableRecord
  2
cw-line-extremity10
340
0
 70
     0
280
     1
281
     0
  0
BLOCK_RECORD
  5
1F9
330
1
100
AcDbSymbolTableRecord
100
AcDbBlockTableRecord
  2
cw-line-extremity1
340
0
 70
     0
280
     1
281
     0
  0
BLOCK_RECORD
  5
1B
330
1
100
AcDbSymbolTableRecord
100
AcDbBlockTableRecord
  2
*Paper_Space69
340
1E
 70
     0
280
     1
281
     0
  0
ENDTAB
  0
ENDSEC
  0
SECTION
  2
BLOCKS
  0
BLOCK
  5
20
330
1F
100
AcDbEntity
  8
0
100
AcDbBlockBegin
  2
*Model_Space
 70
     0
 10
0.0
 20
0.0
 30
0.0
  3
*Model_Space
  1

  0
ENDBLK
  5
21
330
1F
100
AcDbEntity
  8
0
100
AcDbBlockEnd
  0
BLOCK
  5
213
330
211
100
AcDbEntity
 67
     1
  8
0
100
AcDbBlockBegin
  2
*Paper_Space
 70
     0
 10
0.0
 20
0.0
 30
0.0
  3
*Paper_Space
  1

  0
ENDBLK
  5
214
330
211
100
AcDbEntity
 67
     1
  8
0
100
AcDbBlockEnd
  0
BLOCK
  5
6F
330
6A
100
AcDbEntity
  8
0
100
AcDbBlockBegin
  2
CDWK_PTTYP1
 70
     0
 10
0.0
 20
0.0
 30
0.0
  3
CDWK_PTTYP1
  1

  0
LINE
  5
6B
330
6A
100
AcDbEntity
  8
0
  6
Continuous
 62
     0
370
    -2
390
5F
100
AcDbLine
 10
-0.5
 20
0.5
 30
0.0
 11
0.5
 21
0.5
 31
0.0
  0
LINE
  5
6C
330
6A
100
AcDbEntity
  8
0
  6
Continuous
 62
     0
370
    -2
390
5F
100
AcDbLine
 10
0.5
 20
0.5
 30
0.0
 11
0.5
 21
-0.5
 31
0.0
  0
LINE
  5
6D
330
6A
100
AcDbEntity
  8
0
  6
Continuous
 62
     0
370
    -2
390
5F
100
AcDbLine
 10
0.5
 20
-0.5
 30
0.0
 11
-0.5
 21
-0.5
 31
0.0
  0
LINE
  5
6E
330
6A
100
AcDbEntity
  8
0
  6
Continuous
 62
     0
370
    -2
390
5F
100
AcDbLine
 10
-0.5
 20
-0.5
 30
0.0
 11
-0.5
 21
0.5
 31
0.0
  0
ENDBLK
  5
70
330
6A
100
AcDbEntity
  8
0
100
AcDbBlockEnd
  0
BLOCK
  5
74
330
71
100
AcDbEntity
  8
0
100
AcDbBlockBegin
  2
CDWK_PTTYP2
 70
     0
 10
0.0
 20
0.0
 30
0.0
  3
CDWK_PTTYP2
  1

  0
LINE
  5
72
330
71
100
AcDbEntity
  8
0
  6
Continuous
 62
     0
370
    -2
390
5F
100
AcDbLine
 10
0.0
 20
0.5
 30
0.0
 11
0.0
 21
-0.5
 31
0.0
  0
LINE
  5
73
330
71
100
AcDbEntity
  8
0
  6
Continuous
 62
     0
370
    -2
390
5F
100
AcDbLine
 10
0.5
 20
0.0
 30
0.0
 11
-0.5
 21
0.0
 31
0.0
  0
ENDBLK
  5
75
330
71
100
AcDbEntity
  8
0
100
AcDbBlockEnd
  0
BLOCK
  5
78
330
76
100
AcDbEntity
  8
0
100
AcDbBlockBegin
  2
CDWK_PTTYP4
 70
     0
 10
0.0
 20
0.0
 30
0.0
  3
CDWK_PTTYP4
  1

  0
HATCH
  5
77
330
76
100
AcDbEntity
  8
0
  6
Continuous
 62
     0
370
    -2
390
5F
100
AcDbHatch
 10
0.0
 20
0.0
 30
0.0
210
0.0
220
0.0
230
1.0
  2
SOLID
 70
     1
 71
     0
 91
        1
 92
        1
 93
        1
 72
     2
 10
0.0
 20
0.0
 40
0.5
 50
0.0
 51
360.0
 73
     1
 97
        0
 75
     0
 76
     1
 98
        0
  0
ENDBLK
  5
79
330
76
100
AcDbEntity
  8
0
100
AcDbBlockEnd
  0
BLOCK
  5
81
330
7A
100
AcDbEntity
  8
0
100
AcDbBlockBegin
  2
CDWK_PTTYP5
 70
     0
 10
0.0
 20
0.0
 30
0.0
  3
CDWK_PTTYP5
  1

  0
LINE
  5
7B
330
7A
100
AcDbEntity
  8
0
  6
Continuous
 62
     0
370
    -2
390
5F
100
AcDbLine
 10
-0.5
 20
0.5
 30
0.0
 11
0.5
 21
0.5
 31
0.0
  0
LINE
  5
7C
330
7A
100
AcDbEntity
  8
0
  6
Continuous
 62
     0
370
    -2
390
5F
100
AcDbLine
 10
0.5
 20
0.5
 30
0.0
 11
0.5
 21
-0.5
 31
0.0
  0
LINE
  5
7D
330
7A
100
AcDbEntity
  8
0
  6
Continuous
 62
     0
370
    -2
390
5F
100
AcDbLine
 10
0.5
 20
-0.5
 30
0.0
 11
-0.5
 21
-0.5
 31
0.0
  0
LINE
  5
7E
330
7A
100
AcDbEntity
  8
0
  6
Continuous
 62
     0
370
    -2
390
5F
100
AcDbLine
 10
-0.5
 20
-0.5
 30
0.0
 11
-0.5
 21
0.5
 31
0.0
  0
HATCH
  5
7F
330
7A
100
AcDbEntity
  8
0
  6
Continuous
 62
     0
370
    -2
390
5F
100
AcDbHatch
 10
0.0
 20
0.0
 30
0.0
210
0.0
220
0.0
230
1.0
  2
SOLID
 70
     1
 71
     0
 91
        1
 92
        3
 72
     0
 73
     1
 93
        4
 10
-0.5
 20
0.0
 10
0.0
 20
0.0
 10
0.0
 20
-0.5
 10
-0.5
 20
-0.5
 97
        0
 75
     0
 76
     1
 98
        0
  0
HATCH
  5
80
330
7A
100
AcDbEntity
  8
0
  6
Continuous
 62
     0
370
    -2
390
5F
100
AcDbHatch
 10
0.0
 20
0.0
 30
0.0
210
0.0
220
0.0
230
1.0
  2
SOLID
 70
     1
 71
     0
 91
        1
 92
        3
 72
     0
 73
     1
 93
        4
 10
0.0
 20
0.0
 10
0.5
 20
0.0
 10
0.5
 20
0.5
 10
0.0
 20
0.5
 97
        0
 75
     0
 76
     1
 98
        0
  0
ENDBLK
  5
82
330
7A
100
AcDbEntity
  8
0
100
AcDbBlockEnd
  0
BLOCK
  5
89
330
83
100
AcDbEntity
  8
0
100
AcDbBlockBegin
  2
CDWK_PTTYP6
 70
     0
 10
0.0
 20
0.0
 30
0.0
  3
CDWK_PTTYP6
  1

  0
LINE
  5
84
330
83
100
AcDbEntity
  8
0
  6
Continuous
 62
     0
370
    -2
390
5F
100
AcDbLine
 10
-0.5
 20
0.5
 30
0.0
 11
0.5
 21
0.5
 31
0.0
  0
LINE
  5
85
330
83
100
AcDbEntity
  8
0
  6
Continuous
 62
     0
370
    -2
390
5F
100
AcDbLine
 10
0.5
 20
0.5
 30
0.0
 11
0.5
 21
-0.5
 31
0.0
  0
LINE
  5
86
330
83
100
AcDbEntity
  8
0
  6
Continuous
 62
     0
370
    -2
390
5F
100
AcDbLine
 10
0.5
 20
-0.5
 30
0.0
 11
-0.5
 21
-0.5
 31
0.0
  0
LINE
  5
87
330
83
100
AcDbEntity
  8
0
  6
Continuous
 62
     0
370
    -2
390
5F
100
AcDbLine
 10
-0.5
 20
-0.5
 30
0.0
 11
-0.5
 21
0.5
 31
0.0
  0
HATCH
  5
88
330
83
100
AcDbEntity
  8
0
  6
Continuous
 62
     0
370
    -2
390
5F
100
AcDbHatch
 10
0.0
 20
0.0
 30
0.0
210
0.0
220
0.0
230
1.0
  2
SOLID
 70
     1
 71
     0
 91
        1
 92
        3
 72
     0
 73
     1
 93
        3
 10
-0.5
 20
-0.5
 10
-0.5
 20
0.5
 10
0.5
 20
0.5
 97
        0
 75
     0
 76
     1
 98
        0
  0
ENDBLK
  5
8A
330
83
100
AcDbEntity
  8
0
100
AcDbBlockEnd
  0
BLOCK
  5
92
330
8B
100
AcDbEntity
  8
0
100
AcDbBlockBegin
  2
CDWK_PTTYP7
 70
     0
 10
0.0
 20
0.0
 30
0.0
  3
CDWK_PTTYP7
  1

  0
LINE
  5
8C
330
8B
100
AcDbEntity
  8
0
  6
Continuous
 62
     0
370
    -2
390
5F
100
AcDbLine
 10
-0.5
 20
0.5
 30
0.0
 11
0.5
 21
0.5
 31
0.0
  0
LINE
  5
8D
330
8B
100
AcDbEntity
  8
0
  6
Continuous
 62
     0
370
    -2
390
5F
100
AcDbLine
 10
0.5
 20
0.5
 30
0.0
 11
0.5
 21
-0.5
 31
0.0
  0
LINE
  5
8E
330
8B
100
AcDbEntity
  8
0
  6
Continuous
 62
     0
370
    -2
390
5F
100
AcDbLine
 10
0.5
 20
-0.5
 30
0.0
 11
-0.5
 21
-0.5
 31
0.0
  0
LINE
  5
8F
330
8B
100
AcDbEntity
  8
0
  6
Continuous
 62
     0
370
    -2
390
5F
100
AcDbLine
 10
-0.5
 20
-0.5
 30
0.0
 11
-0.5
 21
0.5
 31
0.0
  0
LINE
  5
90
330
8B
100
AcDbEntity
  8
0
  6
Continuous
 62
     0
370
    -2
390
5F
100
AcDbLine
 10
0.0
 20
0.5
 30
0.0
 11
0.0
 21
-0.5
 31
0.0
  0
LINE
  5
91
330
8B
100
AcDbEntity
  8
0
  6
Continuous
 62
     0
370
    -2
390
5F
100
AcDbLine
 10
0.5
 20
0.0
 30
0.0
 11
-0.5
 21
0.0
 31
0.0
  0
ENDBLK
  5
93
330
8B
100
AcDbEntity
  8
0
100
AcDbBlockEnd
  0
BLOCK
  5
96
330
94
100
AcDbEntity
  8
0
100
AcDbBlockBegin
  2
CDWK_PTTYP8
 70
     0
 10
0.0
 20
0.0
 30
0.0
  3
CDWK_PTTYP8
  1

  0
HATCH
  5
95
330
94
100
AcDbEntity
  8
0
  6
Continuous
 62
     0
370
    -2
390
5F
100
AcDbHatch
 10
0.0
 20
0.0
 30
0.0
210
0.0
220
0.0
230
1.0
  2
SOLID
 70
     1
 71
     0
 91
        1
 92
        3
 72
     0
 73
     1
 93
        4
 10
0.5
 20
0.5
 10
0.5
 20
-0.5
 10
-0.5
 20
-0.5
 10
-0.5
 20
0.5
 97
        0
 75
     0
 76
     1
 98
        0
  0
ENDBLK
  5
97
330
94
100
AcDbEntity
  8
0
100
AcDbBlockEnd
  0
BLOCK
  5
9B
330
98
100
AcDbEntity
  8
0
100
AcDbBlockBegin
  2
CDWK_PTTYP9
 70
     0
 10
0.0
 20
0.0
 30
0.0
  3
CDWK_PTTYP9
  1

  0
CIRCLE
  5
99
330
98
100
AcDbEntity
  8
0
  6
Continuous
 62
     0
370
    -2
390
5F
100
AcDbCircle
 10
0.0
 20
0.0
 30
0.0
 40
0.1666666666666667
  0
CIRCLE
  5
9A
330
98
100
AcDbEntity
  8
0
  6
Continuous
 62
     0
370
    -2
390
5F
100
AcDbCircle
 10
0.0
 20
0.0
 30
0.0
 40
0.5
  0
ENDBLK
  5
9C
330
98
100
AcDbEntity
  8
0
100
AcDbBlockEnd
  0
BLOCK
  5
9F
330
9D
100
AcDbEntity
  8
0
100
AcDbBlockBegin
  2
CDWK_PTTYP10
 70
     0
 10
0.0
 20
0.0
 30
0.0
  3
CDWK_PTTYP10
  1

  0
CIRCLE
  5
9E
330
9D
100
AcDbEntity
  8
0
  6
Continuous
 62
     0
370
    -2
390
5F
100
AcDbCircle
 10
0.0
 20
0.0
 30
0.0
 40
0.5
  0
ENDBLK
  5
A0
330
9D
100
AcDbEntity
  8
0
100
AcDbBlockEnd
  0
BLOCK
  5
A4
330
A1
100
AcDbEntity
  8
0
100
AcDbBlockBegin
  2
CDWK_PTTYP11
 70
     0
 10
0.0
 20
0.0
 30
0.0
  3
CDWK_PTTYP11
  1

  0
CIRCLE
  5
A2
330
A1
100
AcDbEntity
  8
0
  6
Continuous
 62
     0
370
    -2
390
5F
100
AcDbCircle
 10
0.0
 20
0.0
 30
0.0
 40
0.25
  0
CIRCLE
  5
A3
330
A1
100
AcDbEntity
  8
0
  6
Continuous
 62
     0
370
    -2
390
5F
100
AcDbCircle
 10
0.0
 20
0.0
 30
0.0
 40
0.5
  0
ENDBLK
  5
A5
330
A1
100
AcDbEntity
  8
0
100
AcDbBlockEnd
  0
BLOCK
  5
A9
330
A6
100
AcDbEntity
  8
0
100
AcDbBlockBegin
  2
CDWK_PTTYP12
 70
     0
 10
0.0
 20
0.0
 30
0.0
  3
CDWK_PTTYP12
  1

  0
CIRCLE
  5
A7
330
A6
100
AcDbEntity
  8
0
  6
Continuous
 62
     0
370
    -2
390
5F
100
AcDbCircle
 10
0.25
 20
0.0
 30
0.0
 40
0.25
  0
CIRCLE
  5
A8
330
A6
100
AcDbEntity
  8
0
  6
Continuous
 62
     0
370
    -2
390
5F
100
AcDbCircle
 10
0.0
 20
0.0
 30
0.0
 40
0.5
  0
ENDBLK
  5
AA
330
A6
100
AcDbEntity
  8
0
100
AcDbBlockEnd
  0
BLOCK
  5
AF
330
AB
100
AcDbEntity
  8
0
100
AcDbBlockBegin
  2
CDWK_PTTYP13
 70
     0
 10
0.0
 20
0.0
 30
0.0
  3
CDWK_PTTYP13
  1

  0
CIRCLE
  5
AC
330
AB
100
AcDbEntity
  8
0
  6
Continuous
 62
     0
370
    -2
390
5F
100
AcDbCircle
 10
-0.25
 20
0.0
 30
0.0
 40
0.25
  0
CIRCLE
  5
AD
330
AB
100
AcDbEntity
  8
0
  6
Continuous
 62
     0
370
    -2
390
5F
100
AcDbCircle
 10
0.25
 20
0.0
 30
0.0
 40
0.25
  0
CIRCLE
  5
AE
330
AB
100
AcDbEntity
  8
0
  6
Continuous
 62
     0
370
    -2
390
5F
100
AcDbCircle
 10
0.0
 20
0.0
 30
0.0
 40
0.5
  0
ENDBLK
  5
B0
330
AB
100
AcDbEntity
  8
0
100
AcDbBlockEnd
  0
BLOCK
  5
B6
330
B1
100
AcDbEntity
  8
0
100
AcDbBlockBegin
  2
CDWK_PTTYP16
 70
     0
 10
0.0
 20
0.0
 30
0.0
  3
CDWK_PTTYP16
  1

  0
LINE
  5
B2
330
B1
100
AcDbEntity
  8
0
  6
Continuous
 62
     0
370
    -2
390
5F
100
AcDbLine
 10
-0.5
 20
-0.289
 30
0.0
 11
0.5
 21
-0.289
 31
0.0
  0
LINE
  5
B3
330
B1
100
AcDbEntity
  8
0
  6
Continuous
 62
     0
370
    -2
390
5F
100
AcDbLine
 10
0.5
 20
-0.289
 30
0.0
 11
0.0
 21
0.577
 31
0.0
  0
LINE
  5
B4
330
B1
100
AcDbEntity
  8
0
  6
Continuous
 62
     0
370
    -2
390
5F
100
AcDbLine
 10
0.0
 20
0.577
 30
0.0
 11
-0.5
 21
-0.289
 31
0.0
  0
CIRCLE
  5
B5
330
B1
100
AcDbEntity
  8
0
  6
Continuous
 62
     0
370
    -2
390
5F
100
AcDbCircle
 10
0.0
 20
0.0
 30
0.0
 40
0.289
  0
ENDBLK
  5
B7
330
B1
100
AcDbEntity
  8
0
100
AcDbBlockEnd
  0
BLOCK
  5
BB
330
B8
100
AcDbEntity
  8
0
100
AcDbBlockBegin
  2
CDWK_PTTYP17
 70
     0
 10
0.0
 20
0.0
 30
0.0
  3
CDWK_PTTYP17
  1

  0
CIRCLE
  5
B9
330
B8
100
AcDbEntity
  8
0
  6
Continuous
 62
     0
370
    -2
390
5F
100
AcDbCircle
 10
0.0
 20
0.0
 30
0.0
 40
0.5
  0
HATCH
  5
BA
330
B8
100
AcDbEntity
  8
0
  6
Continuous
 62
     0
370
    -2
390
5F
100
AcDbHatch
 10
0.0
 20
0.0
 30
0.0
210
0.0
220
0.0
230
1.0
  2
SOLID
 70
     1
 71
     0
 91
        1
 92
        1
 93
        1
 72
     2
 10
0.0
 20
0.0
 40
0.25
 50
0.0
 51
360.0
 73
     1
 97
        0
 75
     0
 76
     1
 98
        0
  0
ENDBLK
  5
BC
330
B8
100
AcDbEntity
  8
0
100
AcDbBlockEnd
  0
BLOCK
  5
C0
330
BD
100
AcDbEntity
  8
0
100
AcDbBlockBegin
  2
CDWK_PTTYP18
 70
     0
 10
0.0
 20
0.0
 30
0.0
  3
CDWK_PTTYP18
  1

  0
CIRCLE
  5
BE
330
BD
100
AcDbEntity
  8
0
  6
Continuous
 62
     0
370
    -2
390
5F
100
AcDbCircle
 10
0.0
 20
0.0
 30
0.0
 40
0.5
  0
CIRCLE
  5
BF
330
BD
100
AcDbEntity
  8
0
  6
Continuous
 62
     0
370
    -2
390
5F
100
AcDbCircle
 10
0.0
 20
0.0
 30
0.0
 40
0.208
  0
ENDBLK
  5
C1
330
BD
100
AcDbEntity
  8
0
100
AcDbBlockEnd
  0
BLOCK
  5
C6
330
C2
100
AcDbEntity
  8
0
100
AcDbBlockBegin
  2
CDWK_PTTYP19
 70
     0
 10
0.0
 20
0.0
 30
0.0
  3
CDWK_PTTYP19
  1

  0
CIRCLE
  5
C3
330
C2
100
AcDbEntity
  8
0
  6
Continuous
 62
     0
370
    -2
390
5F
100
AcDbCircle
 10
0.0
 20
0.0
 30
0.0
 40
0.25
  0
CIRCLE
  5
C4
330
C2
100
AcDbEntity
  8
0
  6
Continuous
 62
     0
370
    -2
390
5F
100
AcDbCircle
 10
0.0
 20
0.0
 30
0.0
 40
0.35
  0
LINE
  5
C5
330
C2
100
AcDbEntity
  8
0
  6
Continuous
 62
     0
370
    -2
390
5F
100
AcDbLine
 10
-0.25
 20
0.0
 30
0.0
 11
0.25
 21
0.0
 31
0.0
  0
ENDBLK
  5
C7
330
C2
100
AcDbEntity
  8
0
100
AcDbBlockEnd
  0
BLOCK
  5
CB
330
C8
100
AcDbEntity
  8
0
100
AcDbBlockBegin
  2
CDWK_PTTYP20
 70
     0
 10
0.0
 20
0.0
 30
0.0
  3
CDWK_PTTYP20
  1

  0
CIRCLE
  5
C9
330
C8
100
AcDbEntity
  8
0
  6
Continuous
 62
     0
370
    -2
390
5F
100
AcDbCircle
 10
0.0
 20
0.0
 30
0.0
 40
0.3333333333333333
  0
CIRCLE
  5
CA
330
C8
100
AcDbEntity
  8
0
  6
Continuous
 62
     0
370
    -2
390
5F
100
AcDbCircle
 10
0.0
 20
0.0
 30
0.0
 40
0.5
  0
ENDBLK
  5
CC
330
C8
100
AcDbEntity
  8
0
100
AcDbBlockEnd
  0
BLOCK
  5
D0
330
CD
100
AcDbEntity
  8
0
100
AcDbBlockBegin
  2
CDWK_PTTYP21
 70
     0
 10
0.0
 20
0.0
 30
0.0
  3
CDWK_PTTYP21
  1

  0
CIRCLE
  5
CE
330
CD
100
AcDbEntity
  8
0
  6
Continuous
 62
     0
370
    -2
390
5F
100
AcDbCircle
 10
0.0
 20
0.0
 30
0.0
 40
0.5
  0
LINE
  5
CF
330
CD
100
AcDbEntity
  8
0
  6
Continuous
 62
     0
370
    -2
390
5F
100
AcDbLine
 10
-0.5
 20
0.0
 30
0.0
 11
0.5
 21
0.0
 31
0.0
  0
ENDBLK
  5
D1
330
CD
100
AcDbEntity
  8
0
100
AcDbBlockEnd
  0
BLOCK
  5
D7
330
D2
100
AcDbEntity
  8
0
100
AcDbBlockBegin
  2
CDWK_PTTYP25
 70
     0
 10
0.0
 20
0.0
 30
0.0
  3
CDWK_PTTYP25
  1

  0
LINE
  5
D3
330
D2
100
AcDbEntity
  8
0
  6
Continuous
 62
     0
370
    -2
390
5F
100
AcDbLine
 10
0.0
 20
0.5
 30
0.0
 11
-0.4330127018922193
 21
-0.25
 31
0.0
  0
LINE
  5
D4
330
D2
100
AcDbEntity
  8
0
  6
Continuous
 62
     0
370
    -2
390
5F
100
AcDbLine
 10
-0.4330127018922193
 20
-0.25
 30
0.0
 11
0.4330127018922193
 21
-0.25
 31
0.0
  0
LINE
  5
D5
330
D2
100
AcDbEntity
  8
0
  6
Continuous
 62
     0
370
    -2
390
5F
100
AcDbLine
 10
0.4330127018922193
 20
-0.25
 30
0.0
 11
0.0
 21
0.5
 31
0.0
  0
CIRCLE
  5
D6
330
D2
100
AcDbEntity
  8
0
  6
Continuous
 62
     0
370
    -2
390
5F
100
AcDbCircle
 10
0.0
 20
0.0
 30
0.0
 40
0.5
  0
ENDBLK
  5
D8
330
D2
100
AcDbEntity
  8
0
100
AcDbBlockEnd
  0
BLOCK
  5
DE
330
D9
100
AcDbEntity
  8
0
100
AcDbBlockBegin
  2
CDWK_PTTYP26
 70
     0
 10
0.0
 20
0.0
 30
0.0
  3
CDWK_PTTYP26
  1

  0
LINE
  5
DA
330
D9
100
AcDbEntity
  8
0
  6
Continuous
 62
     0
370
    -2
390
5F
100
AcDbLine
 10
-0.5
 20
-0.289
 30
0.0
 11
0.5
 21
-0.289
 31
0.0
  0
LINE
  5
DB
330
D9
100
AcDbEntity
  8
0
  6
Continuous
 62
     0
370
    -2
390
5F
100
AcDbLine
 10
0.5
 20
-0.289
 30
0.0
 11
0.0
 21
0.577
 31
0.0
  0
LINE
  5
DC
330
D9
100
AcDbEntity
  8
0
  6
Continuous
 62
     0
370
    -2
390
5F
100
AcDbLine
 10
0.0
 20
0.577
 30
0.0
 11
-0.5
 21
-0.289
 31
0.0
  0
CIRCLE
  5
DD
330
D9
100
AcDbEntity
  8
0
  6
Continuous
 62
     0
370
    -2
390
5F
100
AcDbCircle
 10
0.0
 20
0.0
 30
0.0
 40
0.125
  0
ENDBLK
  5
DF
330
D9
100
AcDbEntity
  8
0
100
AcDbBlockEnd
  0
BLOCK
  5
E6
330
E0
100
AcDbEntity
  8
0
100
AcDbBlockBegin
  2
CDWK_PTTYP27
 70
     0
 10
0.0
 20
0.0
 30
0.0
  3
CDWK_PTTYP27
  1

  0
LINE
  5
E1
330
E0
100
AcDbEntity
  8
0
  6
Continuous
 62
     0
370
    -2
390
5F
100
AcDbLine
 10
0.0
 20
0.5
 30
0.0
 11
-0.4330127018922193
 21
-0.25
 31
0.0
  0
LINE
  5
E2
330
E0
100
AcDbEntity
  8
0
  6
Continuous
 62
     0
370
    -2
390
5F
100
AcDbLine
 10
-0.4330127018922193
 20
-0.25
 30
0.0
 11
0.4330127018922193
 21
-0.25
 31
0.0
  0
LINE
  5
E3
330
E0
100
AcDbEntity
  8
0
  6
Continuous
 62
     0
370
    -2
390
5F
100
AcDbLine
 10
0.4330127018922193
 20
-0.25
 30
0.0
 11
0.0
 21
0.5
 31
0.0
  0
CIRCLE
  5
E4
330
E0
100
AcDbEntity
  8
0
  6
Continuous
 62
     0
370
    -2
390
5F
100
AcDbCircle
 10
0.0
 20
0.0
 30
0.0
 40
0.125
  0
CIRCLE
  5
E5
330
E0
100
AcDbEntity
  8
0
  6
Continuous
 62
     0
370
    -2
390
5F
100
AcDbCircle
 10
0.0
 20
0.0
 30
0.0
 40
0.5
  0
ENDBLK
  5
E7
330
E0
100
AcDbEntity
  8
0
100
AcDbBlockEnd
  0
BLOCK
  5
ED
330
E8
100
AcDbEntity
  8
0
100
AcDbBlockBegin
  2
CDWK_PTTYP28
 70
     0
 10
0.0
 20
0.0
 30
0.0
  3
CDWK_PTTYP28
  1

  0
LINE
  5
E9
330
E8
100
AcDbEntity
  8
0
  6
Continuous
 62
     0
370
    -2
390
5F
100
AcDbLine
 10
-0.5
 20
0.5
 30
0.0
 11
0.5
 21
0.5
 31
0.0
  0
LINE
  5
EA
330
E8
100
AcDbEntity
  8
0
  6
Continuous
 62
     0
370
    -2
390
5F
100
AcDbLine
 10
0.5
 20
0.5
 30
0.0
 11
-0.5
 21
-0.5
 31
0.0
  0
LINE
  5
EB
330
E8
100
AcDbEntity
  8
0
  6
Continuous
 62
     0
370
    -2
390
5F
100
AcDbLine
 10
0.5
 20
-0.5
 30
0.0
 11
-0.5
 21
-0.5
 31
0.0
  0
LINE
  5
EC
330
E8
100
AcDbEntity
  8
0
  6
Continuous
 62
     0
370
    -2
390
5F
100
AcDbLine
 10
-0.5
 20
0.5
 30
0.0
 11
0.5
 21
-0.5
 31
0.0
  0
ENDBLK
  5
EE
330
E8
100
AcDbEntity
  8
0
100
AcDbBlockEnd
  0
BLOCK
  5
F3
330
EF
100
AcDbEntity
  8
0
100
AcDbBlockBegin
  2
CDWK_PTTYP29
 70
     0
 10
0.0
 20
0.0
 30
0.0
  3
CDWK_PTTYP29
  1

  0
CIRCLE
  5
F0
330
EF
100
AcDbEntity
  8
0
  6
Continuous
 62
     0
370
    -2
390
5F
100
AcDbCircle
 10
0.0
 20
0.0
 30
0.0
 40
0.2
  0
CIRCLE
  5
F1
330
EF
100
AcDbEntity
  8
0
  6
Continuous
 62
     0
370
    -2
390
5F
100
AcDbCircle
 10
0.0
 20
0.0
 30
0.0
 40
0.35
  0
CIRCLE
  5
F2
330
EF
100
AcDbEntity
  8
0
  6
Continuous
 62
     0
370
    -2
390
5F
100
AcDbCircle
 10
0.0
 20
0.0
 30
0.0
 40
0.5
  0
ENDBLK
  5
F4
330
EF
100
AcDbEntity
  8
0
100
AcDbBlockEnd
  0
BLOCK
  5
FA
330
F5
100
AcDbEntity
  8
0
100
AcDbBlockBegin
  2
CDWK_PTTYP30
 70
     0
 10
0.0
 20
0.0
 30
0.0
  3
CDWK_PTTYP30
  1

  0
LINE
  5
F6
330
F5
100
AcDbEntity
  8
0
  6
Continuous
 62
     0
370
    -2
390
5F
100
AcDbLine
 10
-0.5
 20
0.5
 30
0.0
 11
-0.1
 21
0.1
 31
0.0
  0
LINE
  5
F7
330
F5
100
AcDbEntity
  8
0
  6
Continuous
 62
     0
370
    -2
390
5F
100
AcDbLine
 10
0.5
 20
0.5
 30
0.0
 11
0.1
 21
0.1
 31
0.0
  0
LINE
  5
F8
330
F5
100
AcDbEntity
  8
0
  6
Continuous
 62
     0
370
    -2
390
5F
100
AcDbLine
 10
0.5
 20
-0.5
 30
0.0
 11
0.1
 21
-0.1
 31
0.0
  0
LINE
  5
F9
330
F5
100
AcDbEntity
  8
0
  6
Continuous
 62
     0
370
    -2
390
5F
100
AcDbLine
 10
-0.5
 20
-0.5
 30
0.0
 11
-0.1
 21
-0.1
 31
0.0
  0
ENDBLK
  5
FB
330
F5
100
AcDbEntity
  8
0
100
AcDbBlockEnd
  0
BLOCK
  5
102
330
FC
100
AcDbEntity
  8
0
100
AcDbBlockBegin
  2
CDWK_PTTYP31
 70
     0
 10
0.0
 20
0.0
 30
0.0
  3
CDWK_PTTYP31
  1

  0
LINE
  5
FD
330
FC
100
AcDbEntity
  8
0
  6
Continuous
 62
     0
370
    -2
390
5F
100
AcDbLine
 10
-0.5
 20
0.0
 30
0.0
 11
-0.1
 21
0.0
 31
0.0
  0
LINE
  5
FE
330
FC
100
AcDbEntity
  8
0
  6
Continuous
 62
     0
370
    -2
390
5F
100
AcDbLine
 10
0.1
 20
0.0
 30
0.0
 11
0.5
 21
0.0
 31
0.0
  0
LINE
  5
FF
330
FC
100
AcDbEntity
  8
0
  6
Continuous
 62
     0
370
    -2
390
5F
100
AcDbLine
 10
0.0
 20
0.5
 30
0.0
 11
0.0
 21
0.1
 31
0.0
  0
LINE
  5
100
330
FC
100
AcDbEntity
  8
0
  6
Continuous
 62
     0
370
    -2
390
5F
100
AcDbLine
 10
0.0
 20
-0.1
 30
0.0
 11
0.0
 21
-0.5
 31
0.0
  0
CIRCLE
  5
101
330
FC
100
AcDbEntity
  8
0
  6
Continuous
 62
     0
370
    -2
390
5F
100
AcDbCircle
 10
0.0
 20
0.0
 30
0.0
 40
0.1
  0
ENDBLK
  5
103
330
FC
100
AcDbEntity
  8
0
100
AcDbBlockEnd
  0
BLOCK
  5
10B
330
104
100
AcDbEntity
  8
0
100
AcDbBlockBegin
  2
CDWK_PTTYP32
 70
     0
 10
0.0
 20
0.0
 30
0.0
  3
CDWK_PTTYP32
  1

  0
CIRCLE
  5
105
330
104
100
AcDbEntity
  8
0
  6
Continuous
 62
     0
370
    -2
390
5F
100
AcDbCircle
 10
0.0
 20
0.0
 30
0.0
 40
0.2
  0
CIRCLE
  5
106
330
104
100
AcDbEntity
  8
0
  6
Continuous
 62
     0
370
    -2
390
5F
100
AcDbCircle
 10
0.0
 20
0.0
 30
0.0
 40
0.5
  0
LINE
  5
107
330
104
100
AcDbEntity
  8
0
  6
Continuous
 62
     0
370
    -2
390
5F
100
AcDbLine
 10
0.1414213562373095
 20
0.1414213562373095
 30
0.0
 11
0.3535533905932738
 21
0.3535533905932738
 31
0.0
  0
LINE
  5
108
330
104
100
AcDbEntity
  8
0
  6
Continuous
 62
     0
370
    -2
390
5F
100
AcDbLine
 10
-0.1414213562373095
 20
0.1414213562373095
 30
0.0
 11
-0.3535533905932738
 21
0.3535533905932738
 31
0.0
  0
LINE
  5
109
330
104
100
AcDbEntity
  8
0
  6
Continuous
 62
     0
370
    -2
390
5F
100
AcDbLine
 10
0.1414213562373095
 20
-0.1414213562373095
 30
0.0
 11
0.3535533905932738
 21
-0.3535533905932738
 31
0.0
  0
LINE
  5
10A
330
104
100
AcDbEntity
  8
0
  6
Continuous
 62
     0
370
    -2
390
5F
100
AcDbLine
 10
-0.1414213562373095
 20
-0.1414213562373095
 30
0.0
 11
-0.3535533905932738
 21
-0.3535533905932738
 31
0.0
  0
ENDBLK
  5
10C
330
104
100
AcDbEntity
  8
0
100
AcDbBlockEnd
  0
BLOCK
  5
111
330
10D
100
AcDbEntity
  8
0
100
AcDbBlockBegin
  2
CDWK_PTTYP33
 70
     0
 10
0.0
 20
0.0
 30
0.0
  3
CDWK_PTTYP33
  1

  0
LINE
  5
10E
330
10D
100
AcDbEntity
  8
0
  6
Continuous
 62
     0
370
    -2
390
5F
100
AcDbLine
 10
0.0
 20
-0.5
 30
0.0
 11
0.0
 21
0.5
 31
0.0
  0
LINE
  5
10F
330
10D
100
AcDbEntity
  8
0
  6
Continuous
 62
     0
370
    -2
390
5F
100
AcDbLine
 10
0.5
 20
0.0
 30
0.0
 11
-0.5
 21
0.0
 31
0.0
  0
CIRCLE
  5
110
330
10D
100
AcDbEntity
  8
0
  6
Continuous
 62
     0
370
    -2
390
5F
100
AcDbCircle
 10
0.0
 20
0.0
 30
0.0
 40
0.5
  0
ENDBLK
  5
112
330
10D
100
AcDbEntity
  8
0
100
AcDbBlockEnd
  0
BLOCK
  5
117
330
113
100
AcDbEntity
  8
0
100
AcDbBlockBegin
  2
CDWK_PTTYP34
 70
     0
 10
0.0
 20
0.0
 30
0.0
  3
CDWK_PTTYP34
  1

  0
CIRCLE
  5
114
330
113
100
AcDbEntity
  8
0
  6
Continuous
 62
     0
370
    -2
390
5F
100
AcDbCircle
 10
0.0
 20
0.0
 30
0.0
 40
0.5
  0
LINE
  5
115
330
113
100
AcDbEntity
  8
0
  6
Continuous
 62
     0
370
    -2
390
5F
100
AcDbLine
 10
-0.4
 20
-0.3
 30
0.0
 11
0.3
 21
0.4
 31
0.0
  0
LINE
  5
116
330
113
100
AcDbEntity
  8
0
  6
Continuous
 62
     0
370
    -2
390
5F
100
AcDbLine
 10
-0.3
 20
-0.4
 30
0.0
 11
0.4
 21
0.3
 31
0.0
  0
ENDBLK
  5
118
330
113
100
AcDbEntity
  8
0
100
AcDbBlockEnd
  0
BLOCK
  5
11D
330
119
100
AcDbEntity
  8
0
100
AcDbBlockBegin
  2
CDWK_PTTYP35
 70
     0
 10
0.0
 20
0.0
 30
0.0
  3
CDWK_PTTYP35
  1

  0
LINE
  5
11A
330
119
100
AcDbEntity
  8
0
  6
Continuous
 62
     0
370
    -2
390
5F
100
AcDbLine
 10
0.0
 20
0.2
 30
0.0
 11
0.0
 21
0.5
 31
0.0
  0
LINE
  5
11B
330
119
100
AcDbEntity
  8
0
  6
Continuous
 62
     0
370
    -2
390
5F
100
AcDbLine
 10
0.0
 20
-0.2
 30
0.0
 11
0.0
 21
-0.5
 31
0.0
  0
CIRCLE
  5
11C
330
119
100
AcDbEntity
  8
0
  6
Continuous
 62
     0
370
    -2
390
5F
100
AcDbCircle
 10
0.0
 20
0.0
 30
0.0
 40
0.2
  0
ENDBLK
  5
11E
330
119
100
AcDbEntity
  8
0
100
AcDbBlockEnd
  0
BLOCK
  5
125
330
11F
100
AcDbEntity
  8
0
100
AcDbBlockBegin
  2
CDWK_PTTYP36
 70
     0
 10
0.0
 20
0.0
 30
0.0
  3
CDWK_PTTYP36
  1

  0
LINE
  5
120
330
11F
100
AcDbEntity
  8
0
  6
Continuous
 62
     0
370
    -2
390
5F
100
AcDbLine
 10
-0.5
 20
0.2
 30
0.0
 11
0.5
 21
0.2
 31
0.0
  0
LINE
  5
121
330
11F
100
AcDbEntity
  8
0
  6
Continuous
 62
     0
370
    -2
390
5F
100
AcDbLine
 10
0.5
 20
0.2
 30
0.0
 11
0.5
 21
-0.2
 31
0.0
  0
LINE
  5
122
330
11F
100
AcDbEntity
  8
0
  6
Continuous
 62
     0
370
    -2
390
5F
100
AcDbLine
 10
0.5
 20
-0.2
 30
0.0
 11
-0.5
 21
-0.2
 31
0.0
  0
LINE
  5
123
330
11F
100
AcDbEntity
  8
0
  6
Continuous
 62
     0
370
    -2
390
5F
100
AcDbLine
 10
-0.5
 20
-0.2
 30
0.0
 11
-0.5
 21
0.2
 31
0.0
  0
HATCH
  5
124
330
11F
100
AcDbEntity
  8
0
  6
Continuous
 62
     0
370
    -2
390
5F
100
AcDbHatch
 10
0.0
 20
0.0
 30
0.0
210
0.0
220
0.0
230
1.0
  2
SOLID
 70
     1
 71
     0
 91
        1
 92
        3
 72
     0
 73
     1
 93
        3
 10
-0.5
 20
-0.2
 10
0.5
 20
-0.2
 10
0.5
 20
0.2
 97
        0
 75
     0
 76
     1
 98
        0
  0
ENDBLK
  5
126
330
11F
100
AcDbEntity
  8
0
100
AcDbBlockEnd
  0
BLOCK
  5
12A
330
127
100
AcDbEntity
  8
0
100
AcDbBlockBegin
  2
CDWK_PTTYP37
 70
     0
 10
0.0
 20
0.0
 30
0.0
  3
CDWK_PTTYP37
  1

  0
HATCH
  5
128
330
127
100
AcDbEntity
  8
0
  6
Continuous
 62
     0
370
    -2
390
5F
100
AcDbHatch
 10
0.0
 20
0.0
 30
0.0
210
0.0
220
0.0
230
1.0
  2
SOLID
 70
     1
 71
     0
 91
        1
 92
        3
 72
     0
 73
     1
 93
      202
 10
-0.3535533905932738
 20
-0.3535533905932738
 10
-0.3485533905932738
 20
-0.3535533905932737
 10
-0.3435533905932738
 20
-0.3584836591895546
 10
-0.3385533905932738
 20
-0.3632782236961988
 10
-0.3335533905932738
 20
-0.367942389128785
 10
-0.3285533905932738
 20
-0.372481054046687
 10
-0.3235533905932738
 20
-0.3768987523588579
 10
-0.3185533905932738
 20
-0.3811996897107819
 10
-0.3135533905932738
 20
-0.3853877752881235
 10
-0.3085533905932737
 20
-0.3894666497242888
 10
-0.3035533905932737
 20
-0.3934397096803965
 10
-0.2985533905932737
 20
-0.3973101295704999
 10
-0.2935533905932737
 20
-0.4010808808273714
 10
-0.2885533905932737
 20
-0.4047547490409382
 10
-0.2835533905932737
 20
-0.4083343492496384
 10
-0.2785533905932737
 20
-0.4118221396222626
 10
-0.2735533905932737
 20
-0.4152204337324827
 10
-0.2685533905932737
 20
-0.4185314115988474
 10
-0.2635533905932737
 20
-0.4217571296384408
 10
-0.2585533905932737
 20
-0.4248995296617653
 10
-0.2535533905932737
 20
-0.4279604470190231
 10
-0.2485533905932737
 20
-0.4309416179932669
 10
-0.2435533905932737
 20
-0.4338446865234004
 10
-0.2385533905932737
 20
-0.4366712103293738
 10
-0.2335533905932737
 20
-0.439422666502825
 10
-0.2285533905932737
 20
-0.4421004566186126
 10
-0.2235533905932737
 20
-0.4447059114159811
 10
-0.2185533905932737
 20
-0.4472402950923041
 10
-0.2135533905932737
 20
-0.4497048092473372
 10
-0.2085533905932737
 20
-0.4521005965115692
 10
-0.2035533905932737
 20
-0.4544287438884664
 10
-0.1985533905932736
 20
-0.456690285837111
 10
-0.1935533905932736
 20
-0.45888620711884
 10
-0.1885533905932736
 20
-0.4610174454289638
 10
-0.1835533905932736
 20
-0.4630848938324164
 10
-0.1785533905932736
 20
-0.4650894030202291
 10
-0.1735533905932736
 20
-0.4670317834019928
 10
-0.1685533905932736
 20
-0.46891280704794
 10
-0.1635533905932736
 20
-0.4707332094929264
 10
-0.1585533905932736
 20
-0.4724936914133818
 10
-0.1535533905932736
 20
-0.4741949201872336
 10
-0.1485533905932736
 20
-0.4758375313458466
 10
-0.1435533905932736
 20
-0.4774221299261716
 10
-0.1385533905932736
 20
-0.4789492917305286
 10
-0.1335533905932736
 20
-0.4804195645007682
 10
-0.1285533905932736
 20
-0.4818334690129366
 10
-0.1235533905932736
 20
-0.4831915000980183
 10
-0.1185533905932736
 20
-0.4844941275938295
 10
-0.1135533905932736
 20
-0.4857417972326848
 10
-0.1085533905932736
 20
-0.4869349314690531
 10
-0.1035533905932736
 20
-0.4880739302510473
 10
-0.0985533905932736
 20
-0.489159171739258
 10
-0.0935533905932736
 20
-0.4901910129761353
 10
-0.0885533905932736
 20
-0.4911697905088447
 10
-0.0835533905932735
 20
-0.4920958209682695
 10
-0.0785533905932735
 20
-0.4929694016065986
 10
-0.0735533905932735
 20
-0.4937908107957261
 10
-0.0685533905932735
 20
-0.494560308488493
 10
-0.0635533905932735
 20
-0.4952781366446192
 10
-0.0585533905932735
 20
-0.4959445196230107
 10
-0.0535533905932735
 20
-0.4965596645419678
 10
-0.0485533905932735
 20
-0.4971237616086806
 10
-0.0435533905932735
 20
-0.4976369844192622
 10
-0.0385533905932735
 20
-0.4980994902304456
 10
-0.0335533905932735
 20
-0.4985114202039533
 10
-0.0285533905932735
 20
-0.4988728996244386
 10
-0.0235533905932735
 20
-0.4991840380917923
 10
-0.0185533905932735
 20
-0.49944492968851
 10
-0.0135533905932735
 20
-0.4996556531227215
 10
-0.0085533905932735
 20
-0.4998162718473921
 10
-0.0035533905932735
 20
-0.4999268341561182
 10
0.0014466094067265
 20
-0.499987373255857
 10
0.0064466094067265
 20
-0.4999979073168451
 10
0.0114466094067265
 20
-0.4999584394998819
 10
0.0164466094067265
 20
-0.4998689579610739
 10
0.0214466094067265
 20
-0.4997294358340547
 10
0.0264466094067265
 20
-0.4995398311896213
 10
0.0314466094067265
 20
-0.4993000869726422
 10
0.0364466094067265
 20
-0.4990101309160174
 10
0.0414466094067265
 20
-0.4986698754313855
 10
0.0464466094067265
 20
-0.498279217476192
 10
0.0514466094067265
 20
-0.4978380383966446
 10
0.0564466094067265
 20
-0.497346203745994
 10
0.0614466094067265
 20
-0.4968035630774849
 10
0.0664466094067264
 20
-0.4962099497112257
 10
0.0714466094067265
 20
-0.4955651804741228
 10
0.0764466094067265
 20
-0.4948690554119167
 10
0.0814466094067265
 20
-0.4941213574722463
 10
0.0864466094067265
 20
-0.4933218521575424
 10
0.0914466094067265
 20
-0.4924702871464235
 10
0.0964466094067265
 20
-0.4915663918821278
 10
0.1014466094067265
 20
-0.4906098771263643
 10
0.1064466094067265
 20
-0.4896004344768079
 10
0.1114466094067265
 20
-0.4885377358462822
 10
0.1164466094067265
 20
-0.4874214329014929
 10
0.1214466094067265
 20
-0.4862511564589613
 10
0.1264466094067265
 20
-0.4850265158355881
 10
0.1314466094067265
 20
-0.4837470981510305
 10
0.1364466094067265
 20
-0.482412467578809
 10
0.1414466094067265
 20
-0.4810221645427664
 10
0.1464466094067265
 20
-0.4795757048551781
 10
0.1514466094067265
 20
-0.4780725787924608
 10
0.1564466094067265
 20
-0.4765122501040308
 10
0.1614466094067265
 20
-0.4748941549494363
 10
0.1664466094067265
 20
-0.4732177007584056
 10
0.1714466094067265
 20
-0.4714822650079264
 10
0.1764466094067265
 20
-0.4696871939098801
 10
0.1814466094067266
 20
-0.4678318010021017
 10
0.1864466094067266
 20
-0.4659153656350076
 10
0.1914466094067266
 20
-0.4639371313451162
 10
0.1964466094067266
 20
-0.4618963041058764
 10
0.2014466094067266
 20
-0.4597920504451997
 10
0.2064466094067266
 20
-0.4576234954179405
 10
0.2114466094067266
 20
-0.4553897204202862
 10
0.2164466094067266
 20
-0.4530897608315588
 10
0.2214466094067266
 20
-0.45072260346729
 10
0.2264466094067266
 20
-0.4482871838255748
 10
0.2314466094067266
 20
-0.4457823831065977
 10
0.2364466094067266
 20
-0.4432070249828292
 10
0.2414466094067266
 20
-0.4405598720946596
 10
0.2464466094067266
 20
-0.4378396222431172
 10
0.2514466094067266
 20
-0.4350449042477435
 10
0.2564466094067266
 20
-0.4321742734336012
 10
0.2614466094067266
 20
-0.4292262067066663
 10
0.2664466094067266
 20
-0.4261990971714118
 10
0.2714466094067266
 20
-0.4230912482380831
 10
0.2764466094067266
 20
-0.4199008671598476
 10
0.2814466094067266
 20
-0.4166260579314797
 10
0.2864466094067266
 20
-0.4132648134712868
 10
0.2914466094067266
 20
-0.4098150069963156
 10
0.2964466094067266
 20
-0.4062743824871597
 10
0.3014466094067266
 20
-0.4026405441224911
 10
0.3064466094067266
 20
-0.3989109445442534
 10
0.3114466094067266
 20
-0.3950828717916294
 10
0.3164466094067266
 20
-0.391153434714632
 10
0.3214466094067266
 20
-0.3871195466454601
 10
0.3264466094067267
 20
-0.3829779070663467
 10
0.3314466094067267
 20
-0.3787249809648844
 10
0.3364466094067267
 20
-0.3743569755097196
 10
0.3414466094067267
 20
-0.3698698136084067
 10
0.3464466094067267
 20
-0.3652591038217257
 10
0.3514466094067267
 20
-0.3605201060004601
 10
0.3564466094067267
 20
-0.3556476918757041
 10
0.3614466094067267
 20
-0.3506362996645505
 10
0.3664466094067267
 20
-0.34547988153926
 10
0.3714466094067267
 20
-0.3401718425359658
 10
0.3764466094067267
 20
-0.334704969129899
 10
0.3814466094067267
 20
-0.3290713452523318
 10
0.3864466094067267
 20
-0.3232622529342269
 10
0.3914466094067267
 20
-0.3172680539828188
 10
0.3964466094067267
 20
-0.3110780480586465
 10
0.4014466094067267
 20
-0.304680301118911
 10
0.4064466094067267
 20
-0.2980614362775617
 10
0.4114466094067267
 20
-0.291206376478565
 10
0.4164466094067267
 20
-0.2840980246459106
 10
0.4214466094067267
 20
-0.276716861635935
 10
0.4264466094067267
 20
-0.2690404345439063
 10
0.4314466094067267
 20
-0.2610426963649944
 10
0.4364466094067267
 20
-0.2526931404518915
 10
0.4414466094067268
 20
-0.2439556458403291
 10
0.4464466094067268
 20
-0.2347869056044327
 10
0.4514466094067268
 20
-0.2251342376211081
 10
0.4564466094067268
 20
-0.2149324518428296
 10
0.4614466094067268
 20
-0.2040992228331676
 10
0.4664466094067268
 20
-0.1925279893081412
 10
0.4714466094067268
 20
-0.1800765408735088
 10
0.4764466094067268
 20
-0.1665475742210051
 10
0.4814466094067268
 20
-0.1516529867323223
 10
0.4864466094067268
 20
-0.1349413290684758
 10
0.4914466094067268
 20
-0.1156274024472547
 10
0.4964466094067268
 20
-0.0920881648347501
 10
0.5
 20
0.0
 10
0.495
 20
0.0
 10
0.49
 20
0.0705336798983295
 10
0.485
 20
0.0994987437106621
 10
0.48
 20
0.1215524578114322
 10
0.475
 20
0.14
 10
0.47
 20
0.15612494995996
 10
0.465
 20
0.1705872210923199
 10
0.46
 20
0.1837797594948911
 10
0.455
 20
0.1959591794226544
 10
0.45
 20
0.2073041244162789
 10
0.445
 20
0.2179449471770338
 10
0.4399999999999999
 20
0.2279802623035601
 10
0.4349999999999999
 20
0.2374868417407584
 10
0.4299999999999999
 20
0.2465258607124211
 10
0.4249999999999999
 20
0.2551470164434615
 10
0.4199999999999999
 20
0.2633913438213186
 10
0.4149999999999999
 20
0.2712931993250108
 10
0.4099999999999999
 20
0.2788816953476869
 10
0.4049999999999999
 20
0.2861817604250838
 10
0.3999999999999999
 20
0.2932149382279151
 10
0.3949999999999999
 20
0.3000000000000002
 10
0.3899999999999999
 20
0.3065534211193868
 10
0.3849999999999999
 20
0.3128897569432404
 10
0.3799999999999999
 20
0.3190219428189855
 10
0.3749999999999999
 20
0.3249615361854385
 10
0.3699999999999999
 20
0.330718913883074
 10
0.3649999999999999
 20
0.3363034344160049
 10
0.3599999999999999
 20
0.3417235724968357
 10
0.3549999999999999
 20
0.3469870314579496
 10
0.3535533905932738
 20
0.3535533905932738
 97
        0
 75
     0
 76
     1
 98
        0
  0
CIRCLE
  5
129
330
127
100
AcDbEntity
  8
0
  6
Continuous
 62
     0
370
    -2
390
5F
100
AcDbCircle
 10
0.0
 20
0.0
 30
0.0
 40
0.5
  0
ENDBLK
  5
12B
330
127
100
AcDbEntity
  8
0
100
AcDbBlockEnd
  0
BLOCK
  5
130
330
12C
100
AcDbEntity
  8
0
100
AcDbBlockBegin
  2
CDWK_PTTYP38
 70
     0
 10
0.0
 20
0.0
 30
0.0
  3
CDWK_PTTYP38
  1

  0
HATCH
  5
12D
330
12C
100
AcDbEntity
  8
0
  6
Continuous
 62
     0
370
    -2
390
5F
100
AcDbHatch
 10
0.0
 20
0.0
 30
0.0
210
0.0
220
0.0
230
1.0
  2
SOLID
 70
     1
 71
     0
 91
        1
 92
        3
 72
     0
 73
     1
 93
      102
 10
0.0
 20
0.0
 10
0.0
 20
0.5
 10
0.005
 20
0.5
 10
0.01
 20
0.4999749993749688
 10
0.015
 20
0.4998999899979995
 10
0.02
 20
0.4997749493522059
 10
0.025
 20
0.4995998398718718
 10
0.03
 20
0.4993746088859545
 10
0.035
 20
0.4990991885387112
 10
0.04
 20
0.4987734956871706
 10
0.045
 20
0.4983974317750845
 10
0.05
 20
0.4979708826829135
 10
0.055
 20
0.49749371855331
 10
0.06
 20
0.4969657935914704
 10
0.065
 20
0.4963869458396343
 10
0.07
 20
0.4957569969249047
 10
0.075
 20
0.4950757517794626
 10
0.08
 20
0.4943429983321297
 10
0.085
 20
0.4935585071701227
 10
0.09
 20
0.4927220311697053
 10
0.095
 20
0.4918333050943175
 10
0.1
 20
0.4908920451586071
 10
0.105
 20
0.4898979485566356
 10
0.11
 20
0.4888506929523574
 10
0.115
 20
0.4877499359302879
 10
0.12
 20
0.4865953144040744
 10
0.125
 20
0.4853864439804639
 10
0.13
 20
0.4841229182759271
 10
0.135
 20
0.4828043081829325
 10
0.14
 20
0.4814301610825811
 10
0.145
 20
0.48
 10
0.15
 20
0.478513322698543
 10
0.1550000000000001
 20
0.4769696007084728
 10
0.1600000000000001
 20
0.4753682782853731
 10
0.1650000000000001
 20
0.4737087712930804
 10
0.1700000000000001
 20
0.4719904660054056
 10
0.1750000000000001
 20
0.4702127178203498
 10
0.1800000000000001
 20
0.4683748498798799
 10
0.1850000000000001
 20
0.466476151587624
 10
0.1900000000000001
 20
0.4645158770160606
 10
0.1950000000000001
 20
0.4624932431938871
 10
0.2000000000000001
 20
0.460407428263272
 10
0.2050000000000001
 20
0.4582575694955839
 10
0.2100000000000001
 20
0.4560427611529427
 10
0.2150000000000001
 20
0.4537620521815371
 10
0.2200000000000001
 20
0.4514144437210665
 10
0.2250000000000001
 20
0.4489988864128729
 10
0.2300000000000001
 20
0.4465142774872937
 10
0.2350000000000001
 20
0.4439594576084622
 10
0.2400000000000001
 20
0.4413332074521472
 10
0.2450000000000001
 20
0.4386342439892261
 10
0.2500000000000001
 20
0.4358612164439502
 10
0.2550000000000001
 20
0.4330127018922192
 10
0.2600000000000001
 20
0.4300872004605577
 10
0.2650000000000001
 20
0.4270831300812524
 10
0.2700000000000001
 20
0.423998820753077
 10
0.2750000000000001
 20
0.4208325082500162
 10
0.2800000000000001
 20
0.4175823272122516
 10
0.2850000000000001
 20
0.4142463035441595
 10
0.2900000000000001
 20
0.4108223460329293
 10
0.2950000000000002
 20
0.4073082370883259
 10
0.3000000000000002
 20
0.403701622488689
 10
0.3050000000000002
 20
0.3999999999999999
 10
0.3100000000000002
 20
0.3962007067131506
 10
0.3150000000000002
 20
0.3923009049186605
 10
0.3200000000000002
 20
0.3882975663070783
 10
0.3250000000000002
 20
0.3841874542459708
 10
0.3300000000000002
 20
0.3799671038392664
 10
0.3350000000000002
 20
0.3756327994198588
 10
0.3400000000000002
 20
0.3711805490593491
 10
0.3450000000000002
 20
0.366606055596467
 10
0.3500000000000002
 20
0.3619046835839512
 10
0.3550000000000002
 20
0.3570714214271423
 10
0.3600000000000002
 20
0.3521008378291649
 10
0.3650000000000002
 20
0.3469870314579492
 10
0.3700000000000002
 20
0.3417235724968353
 10
0.3750000000000002
 20
0.3363034344160045
 10
0.3800000000000002
 20
0.3307189138830736
 10
0.3850000000000002
 20
0.3249615361854382
 10
0.3900000000000002
 20
0.3190219428189851
 10
0.3950000000000002
 20
0.31288975694324
 10
0.4000000000000002
 20
0.3065534211193863
 10
0.4050000000000002
 20
0.2999999999999997
 10
0.4100000000000003
 20
0.2932149382279147
 10
0.4150000000000003
 20
0.2861817604250834
 10
0.4200000000000003
 20
0.2788816953476864
 10
0.4250000000000003
 20
0.2712931993250103
 10
0.4300000000000003
 20
0.263391343821318
 10
0.4350000000000003
 20
0.255147016443461
 10
0.4400000000000003
 20
0.2465258607124206
 10
0.4450000000000003
 20
0.2374868417407578
 10
0.4500000000000003
 20
0.2279802623035594
 10
0.4550000000000003
 20
0.2179449471770331
 10
0.4600000000000003
 20
0.2073041244162782
 10
0.4650000000000003
 20
0.1959591794226536
 10
0.4700000000000003
 20
0.1837797594948903
 10
0.4750000000000003
 20
0.170587221092319
 10
0.4800000000000003
 20
0.156124949959959
 10
0.4850000000000003
 20
0.1399999999999989
 10
0.4900000000000003
 20
0.1215524578114309
 10
0.4950000000000003
 20
0.0994987437106604
 10
0.5
 20
0.0
 97
        0
 75
     0
 76
     1
 98
        0
  0
HATCH
  5
12E
330
12C
100
AcDbEntity
  8
0
  6
Continuous
 62
     0
370
    -2
390
5F
100
AcDbHatch
 10
0.0
 20
0.0
 30
0.0
210
0.0
220
0.0
230
1.0
  2
SOLID
 70
     1
 71
     0
 91
        1
 92
        3
 72
     0
 73
     1
 93
      102
 10
0.0
 20
0.0
 10
-0.5
 20
0.0
 10
-0.495
 20
0.0
 10
-0.49
 20
-0.0705336798983295
 10
-0.485
 20
-0.0994987437106621
 10
-0.48
 20
-0.1215524578114322
 10
-0.475
 20
-0.14
 10
-0.47
 20
-0.15612494995996
 10
-0.465
 20
-0.1705872210923199
 10
-0.46
 20
-0.1837797594948911
 10
-0.455
 20
-0.1959591794226544
 10
-0.45
 20
-0.2073041244162789
 10
-0.445
 20
-0.2179449471770338
 10
-0.4399999999999999
 20
-0.2279802623035601
 10
-0.4349999999999999
 20
-0.2374868417407584
 10
-0.4299999999999999
 20
-0.2465258607124211
 10
-0.4249999999999999
 20
-0.2551470164434615
 10
-0.4199999999999999
 20
-0.2633913438213186
 10
-0.4149999999999999
 20
-0.2712931993250108
 10
-0.4099999999999999
 20
-0.2788816953476869
 10
-0.4049999999999999
 20
-0.2861817604250838
 10
-0.3999999999999999
 20
-0.2932149382279151
 10
-0.3949999999999999
 20
-0.3000000000000002
 10
-0.3899999999999999
 20
-0.3065534211193868
 10
-0.3849999999999999
 20
-0.3128897569432404
 10
-0.3799999999999999
 20
-0.3190219428189855
 10
-0.3749999999999999
 20
-0.3249615361854385
 10
-0.3699999999999999
 20
-0.330718913883074
 10
-0.3649999999999999
 20
-0.3363034344160049
 10
-0.3599999999999999
 20
-0.3417235724968357
 10
-0.3549999999999999
 20
-0.3469870314579496
 10
-0.3499999999999999
 20
-0.3521008378291652
 10
-0.3449999999999999
 20
-0.3570714214271427
 10
-0.3399999999999999
 20
-0.3619046835839516
 10
-0.3349999999999999
 20
-0.3666060555964674
 10
-0.3299999999999998
 20
-0.3711805490593494
 10
-0.3249999999999998
 20
-0.3756327994198591
 10
-0.3199999999999998
 20
-0.3799671038392667
 10
-0.3149999999999998
 20
-0.3841874542459711
 10
-0.3099999999999998
 20
-0.3882975663070786
 10
-0.3049999999999998
 20
-0.3923009049186608
 10
-0.2999999999999998
 20
-0.3962007067131507
 10
-0.2949999999999998
 20
-0.4000000000000001
 10
-0.2899999999999998
 20
-0.4037016224886891
 10
-0.2849999999999998
 20
-0.4073082370883261
 10
-0.2799999999999998
 20
-0.4108223460329296
 10
-0.2749999999999998
 20
-0.4142463035441597
 10
-0.2699999999999998
 20
-0.4175823272122518
 10
-0.2649999999999998
 20
-0.4208325082500164
 10
-0.2599999999999998
 20
-0.4239988207530773
 10
-0.2549999999999998
 20
-0.4270831300812526
 10
-0.2499999999999998
 20
-0.4300872004605579
 10
-0.2449999999999998
 20
-0.4330127018922195
 10
-0.2399999999999998
 20
-0.4358612164439503
 10
-0.2349999999999998
 20
-0.4386342439892263
 10
-0.2299999999999998
 20
-0.4413332074521473
 10
-0.2249999999999998
 20
-0.4439594576084624
 10
-0.2199999999999998
 20
-0.4465142774872939
 10
-0.2149999999999997
 20
-0.4489988864128731
 10
-0.2099999999999997
 20
-0.4514144437210667
 10
-0.2049999999999997
 20
-0.4537620521815372
 10
-0.1999999999999997
 20
-0.4560427611529429
 10
-0.1949999999999997
 20
-0.4582575694955841
 10
-0.1899999999999997
 20
-0.4604074282632722
 10
-0.1849999999999997
 20
-0.4624932431938872
 10
-0.1799999999999997
 20
-0.4645158770160608
 10
-0.1749999999999997
 20
-0.4664761515876241
 10
-0.1699999999999997
 20
-0.46837484987988
 10
-0.1649999999999997
 20
-0.47021271782035
 10
-0.1599999999999997
 20
-0.4719904660054058
 10
-0.1549999999999997
 20
-0.4737087712930805
 10
-0.1499999999999997
 20
-0.4753682782853733
 10
-0.1449999999999997
 20
-0.4769696007084729
 10
-0.1399999999999997
 20
-0.4785133226985431
 10
-0.1349999999999997
 20
-0.4800000000000001
 10
-0.1299999999999997
 20
-0.4814301610825812
 10
-0.1249999999999997
 20
-0.4828043081829325
 10
-0.1199999999999997
 20
-0.4841229182759272
 10
-0.1149999999999997
 20
-0.485386443980464
 10
-0.1099999999999997
 20
-0.4865953144040744
 10
-0.1049999999999996
 20
-0.487749935930288
 10
-0.0999999999999996
 20
-0.4888506929523574
 10
-0.0949999999999996
 20
-0.4898979485566357
 10
-0.0899999999999996
 20
-0.4908920451586072
 10
-0.0849999999999996
 20
-0.4918333050943176
 10
-0.0799999999999996
 20
-0.4927220311697053
 10
-0.0749999999999996
 20
-0.4935585071701227
 10
-0.0699999999999996
 20
-0.4943429983321298
 10
-0.0649999999999996
 20
-0.4950757517794626
 10
-0.0599999999999996
 20
-0.4957569969249048
 10
-0.0549999999999996
 20
-0.4963869458396343
 10
-0.0499999999999996
 20
-0.4969657935914705
 10
-0.0449999999999996
 20
-0.49749371855331
 10
-0.0399999999999996
 20
-0.4979708826829135
 10
-0.0349999999999996
 20
-0.4983974317750846
 10
-0.0299999999999996
 20
-0.4987734956871706
 10
-0.0249999999999996
 20
-0.4990991885387112
 10
-0.0199999999999996
 20
-0.4993746088859545
 10
-0.0149999999999996
 20
-0.4995998398718719
 10
-0.0099999999999996
 20
-0.499774949352206
 10
-0.0049999999999996
 20
-0.4998999899979995
 10
0.0
 20
-0.5
 97
        0
 75
     0
 76
     1
 98
        0
  0
CIRCLE
  5
12F
330
12C
100
AcDbEntity
  8
0
  6
Continuous
 62
     0
370
    -2
390
5F
100
AcDbCircle
 10
0.0
 20
0.0
 30
0.0
 40
0.5
  0
ENDBLK
  5
131
330
12C
100
AcDbEntity
  8
0
100
AcDbBlockEnd
  0
BLOCK
  5
13A
330
132
100
AcDbEntity
  8
0
100
AcDbBlockBegin
  2
CDWK_PTTYP41
 70
     0
 10
0.0
 20
0.0
 30
0.0
  3
CDWK_PTTYP41
  1

  0
LINE
  5
133
330
132
100
AcDbEntity
  8
0
  6
Continuous
 62
     0
370
    -2
390
5F
100
AcDbLine
 10
-0.5
 20
0.5
 30
0.0
 11
0.5
 21
0.5
 31
0.0
  0
LINE
  5
134
330
132
100
AcDbEntity
  8
0
  6
Continuous
 62
     0
370
    -2
390
5F
100
AcDbLine
 10
0.5
 20
0.5
 30
0.0
 11
0.5
 21
-0.5
 31
0.0
  0
LINE
  5
135
330
132
100
AcDbEntity
  8
0
  6
Continuous
 62
     0
370
    -2
390
5F
100
AcDbLine
 10
0.5
 20
-0.5
 30
0.0
 11
-0.5
 21
-0.5
 31
0.0
  0
LINE
  5
136
330
132
100
AcDbEntity
  8
0
  6
Continuous
 62
     0
370
    -2
390
5F
100
AcDbLine
 10
-0.5
 20
-0.5
 30
0.0
 11
-0.5
 21
0.5
 31
0.0
  0
LINE
  5
137
330
132
100
AcDbEntity
  8
0
  6
Continuous
 62
     0
370
    -2
390
5F
100
AcDbLine
 10
-0.375
 20
0.25
 30
0.0
 11
0.375
 21
0.25
 31
0.0
  0
LINE
  5
138
330
132
100
AcDbEntity
  8
0
  6
Continuous
 62
     0
370
    -2
390
5F
100
AcDbLine
 10
-0.375
 20
0.0
 30
0.0
 11
0.375
 21
0.0
 31
0.0
  0
LINE
  5
139
330
132
100
AcDbEntity
  8
0
  6
Continuous
 62
     0
370
    -2
390
5F
100
AcDbLine
 10
-0.375
 20
-0.25
 30
0.0
 11
0.375
 21
-0.25
 31
0.0
  0
ENDBLK
  5
13B
330
132
100
AcDbEntity
  8
0
100
AcDbBlockEnd
  0
BLOCK
  5
143
330
13C
100
AcDbEntity
  8
0
100
AcDbBlockBegin
  2
CDWK_PTTYP42
 70
     0
 10
0.0
 20
0.0
 30
0.0
  3
CDWK_PTTYP42
  1

  0
LINE
  5
13D
330
13C
100
AcDbEntity
  8
0
  6
Continuous
 62
     0
370
    -2
390
5F
100
AcDbLine
 10
-0.5
 20
0.5
 30
0.0
 11
0.5
 21
0.5
 31
0.0
  0
LINE
  5
13E
330
13C
100
AcDbEntity
  8
0
  6
Continuous
 62
     0
370
    -2
390
5F
100
AcDbLine
 10
0.5
 20
0.5
 30
0.0
 11
0.5
 21
-0.5
 31
0.0
  0
LINE
  5
13F
330
13C
100
AcDbEntity
  8
0
  6
Continuous
 62
     0
370
    -2
390
5F
100
AcDbLine
 10
0.5
 20
-0.5
 30
0.0
 11
-0.5
 21
-0.5
 31
0.0
  0
LINE
  5
140
330
13C
100
AcDbEntity
  8
0
  6
Continuous
 62
     0
370
    -2
390
5F
100
AcDbLine
 10
-0.5
 20
-0.5
 30
0.0
 11
-0.5
 21
0.5
 31
0.0
  0
LINE
  5
141
330
13C
100
AcDbEntity
  8
0
  6
Continuous
 62
     0
370
    -2
390
5F
100
AcDbLine
 10
-0.375
 20
0.125
 30
0.0
 11
0.375
 21
0.125
 31
0.0
  0
LINE
  5
142
330
13C
100
AcDbEntity
  8
0
  6
Continuous
 62
     0
370
    -2
390
5F
100
AcDbLine
 10
-0.375
 20
-0.125
 30
0.0
 11
0.375
 21
-0.125
 31
0.0
  0
ENDBLK
  5
144
330
13C
100
AcDbEntity
  8
0
100
AcDbBlockEnd
  0
BLOCK
  5
149
330
145
100
AcDbEntity
  8
0
100
AcDbBlockBegin
  2
CDWK_PTTYP43
 70
     0
 10
0.0
 20
0.0
 30
0.0
  3
CDWK_PTTYP43
  1

  0
CIRCLE
  5
146
330
145
100
AcDbEntity
  8
0
  6
Continuous
 62
     0
370
    -2
390
5F
100
AcDbCircle
 10
0.0
 20
0.0
 30
0.0
 40
0.5
  0
LINE
  5
147
330
145
100
AcDbEntity
  8
0
  6
Continuous
 62
     0
370
    -2
390
5F
100
AcDbLine
 10
-0.375
 20
0.166
 30
0.0
 11
0.375
 21
0.166
 31
0.0
  0
LINE
  5
148
330
145
100
AcDbEntity
  8
0
  6
Continuous
 62
     0
370
    -2
390
5F
100
AcDbLine
 10
-0.375
 20
-0.166
 30
0.0
 11
0.375
 21
-0.166
 31
0.0
  0
ENDBLK
  5
14A
330
145
100
AcDbEntity
  8
0
100
AcDbBlockEnd
  0
BLOCK
  5
152
330
14B
100
AcDbEntity
  8
0
100
AcDbBlockBegin
  2
CDWK_PTTYP44
 70
     0
 10
0.0
 20
0.0
 30
0.0
  3
CDWK_PTTYP44
  1

  0
CIRCLE
  5
14C
330
14B
100
AcDbEntity
  8
0
  6
Continuous
 62
     0
370
    -2
390
5F
100
AcDbCircle
 10
0.0
 20
0.0
 30
0.0
 40
0.5
  0
LINE
  5
14D
330
14B
100
AcDbEntity
  8
0
  6
Continuous
 62
     0
370
    -2
390
5F
100
AcDbLine
 10
-0.375
 20
0.333
 30
0.0
 11
0.375
 21
0.333
 31
0.0
  0
LINE
  5
14E
330
14B
100
AcDbEntity
  8
0
  6
Continuous
 62
     0
370
    -2
390
5F
100
AcDbLine
 10
-0.375
 20
0.166
 30
0.0
 11
0.375
 21
0.166
 31
0.0
  0
LINE
  5
14F
330
14B
100
AcDbEntity
  8
0
  6
Continuous
 62
     0
370
    -2
390
5F
100
AcDbLine
 10
-0.375
 20
0.0
 30
0.0
 11
0.375
 21
0.0
 31
0.0
  0
LINE
  5
150
330
14B
100
AcDbEntity
  8
0
  6
Continuous
 62
     0
370
    -2
390
5F
100
AcDbLine
 10
-0.375
 20
-0.166
 30
0.0
 11
0.375
 21
-0.166
 31
0.0
  0
LINE
  5
151
330
14B
100
AcDbEntity
  8
0
  6
Continuous
 62
     0
370
    -2
390
5F
100
AcDbLine
 10
-0.375
 20
-0.333
 30
0.0
 11
0.375
 21
-0.333
 31
0.0
  0
ENDBLK
  5
153
330
14B
100
AcDbEntity
  8
0
100
AcDbBlockEnd
  0
BLOCK
  5
157
330
154
100
AcDbEntity
  8
0
100
AcDbBlockBegin
  2
CDWK_PTTYP45
 70
     0
 10
0.0
 20
0.0
 30
0.0
  3
CDWK_PTTYP45
  1

  0
ELLIPSE
  5
155
330
154
100
AcDbEntity
  8
0
  6
Continuous
 62
     0
370
    -2
390
5F
100
AcDbEllipse
 10
0.0
 20
0.0
 30
0.0
 11
0.5
 21
0.0
 31
0.0
210
0.0
220
0.0
230
1.0
 40
0.82
 41
0.0
 42
6.283185307179586
  0
CIRCLE
  5
156
330
154
100
AcDbEntity
  8
0
  6
Continuous
 62
     0
370
    -2
390
5F
100
AcDbCircle
 10
-0.235
 20
0.0
 30
0.0
 40
0.26
  0
ENDBLK
  5
158
330
154
100
AcDbEntity
  8
0
100
AcDbBlockEnd
  0
BLOCK
  5
15C
330
159
100
AcDbEntity
  8
0
100
AcDbBlockBegin
  2
CDWK_PTTYP46
 70
     0
 10
0.0
 20
0.0
 30
0.0
  3
CDWK_PTTYP46
  1

  0
ELLIPSE
  5
15A
330
159
100
AcDbEntity
  8
0
  6
Continuous
 62
     0
370
    -2
390
5F
100
AcDbEllipse
 10
0.0
 20
0.0
 30
0.0
 11
0.5
 21
0.0
 31
0.0
210
0.0
220
0.0
230
1.0
 40
0.82
 41
0.0
 42
6.283185307179586
  0
CIRCLE
  5
15B
330
159
100
AcDbEntity
  8
0
  6
Continuous
 62
     0
370
    -2
390
5F
100
AcDbCircle
 10
0.0
 20
0.15
 30
0.0
 40
0.26
  0
ENDBLK
  5
15D
330
159
100
AcDbEntity
  8
0
100
AcDbBlockEnd
  0
BLOCK
  5
164
330
15E
100
AcDbEntity
  8
0
100
AcDbBlockBegin
  2
CDWK_PTTYP47
 70
     0
 10
0.0
 20
0.0
 30
0.0
  3
CDWK_PTTYP47
  1

  0
LINE
  5
15F
330
15E
100
AcDbEntity
  8
0
  6
Continuous
 62
     0
370
    -2
390
5F
100
AcDbLine
 10
-0.5
 20
0.166
 30
0.0
 11
0.5
 21
0.166
 31
0.0
  0
LINE
  5
160
330
15E
100
AcDbEntity
  8
0
  6
Continuous
 62
     0
370
    -2
390
5F
100
AcDbLine
 10
0.5
 20
0.166
 30
0.0
 11
0.5
 21
-0.166
 31
0.0
  0
LINE
  5
161
330
15E
100
AcDbEntity
  8
0
  6
Continuous
 62
     0
370
    -2
390
5F
100
AcDbLine
 10
0.5
 20
-0.166
 30
0.0
 11
-0.5
 21
-0.166
 31
0.0
  0
LINE
  5
162
330
15E
100
AcDbEntity
  8
0
  6
Continuous
 62
     0
370
    -2
390
5F
100
AcDbLine
 10
-0.5
 20
-0.166
 30
0.0
 11
-0.5
 21
0.166
 31
0.0
  0
CIRCLE
  5
163
330
15E
100
AcDbEntity
  8
0
  6
Continuous
 62
     0
370
    -2
390
5F
100
AcDbCircle
 10
0.0
 20
-0.313
 30
0.0
 40
0.4
  0
ENDBLK
  5
165
330
15E
100
AcDbEntity
  8
0
100
AcDbBlockEnd
  0
BLOCK
  5
16A
330
167
100
AcDbEntity
  8
0
100
AcDbBlockBegin
  2
CDWK_PTTYP48
 70
     0
 10
0.0
 20
0.0
 30
0.0
  3
CDWK_PTTYP48
  1

  0
CIRCLE
  5
168
330
167
100
AcDbEntity
  8
0
  6
CADWORK_3
 62
     0
 48
0.1
370
    -2
390
5F
100
AcDbCircle
 10
0.0
 20
0.0
 30
0.0
 40
0.5
  0
CIRCLE
  5
169
330
167
100
AcDbEntity
  8
0
  6
Continuous
 62
     0
370
    -2
390
5F
100
AcDbCircle
 10
0.0
 20
0.0
 30
0.0
 40
0.25
  0
ENDBLK
  5
16B
330
167
100
AcDbEntity
  8
0
100
AcDbBlockEnd
  0
BLOCK
  5
171
330
16C
100
AcDbEntity
  8
0
100
AcDbBlockBegin
  2
CDWK_PTTYP49
 70
     0
 10
0.0
 20
0.0
 30
0.0
  3
CDWK_PTTYP49
  1

  0
LINE
  5
16D
330
16C
100
AcDbEntity
  8
0
  6
Continuous
 62
     0
370
    -2
390
5F
100
AcDbLine
 10
-0.5
 20
0.166
 30
0.0
 11
0.5
 21
0.166
 31
0.0
  0
LINE
  5
16E
330
16C
100
AcDbEntity
  8
0
  6
Continuous
 62
     0
370
    -2
390
5F
100
AcDbLine
 10
0.5
 20
0.166
 30
0.0
 11
0.5
 21
-0.166
 31
0.0
  0
LINE
  5
16F
330
16C
100
AcDbEntity
  8
0
  6
Continuous
 62
     0
370
    -2
390
5F
100
AcDbLine
 10
0.5
 20
-0.166
 30
0.0
 11
-0.5
 21
-0.166
 31
0.0
  0
LINE
  5
170
330
16C
100
AcDbEntity
  8
0
  6
Continuous
 62
     0
370
    -2
390
5F
100
AcDbLine
 10
-0.5
 20
-0.166
 30
0.0
 11
-0.5
 21
0.166
 31
0.0
  0
ENDBLK
  5
172
330
16C
100
AcDbEntity
  8
0
100
AcDbBlockEnd
  0
BLOCK
  5
17B
330
173
100
AcDbEntity
  8
0
100
AcDbBlockBegin
  2
CDWK_PTTYP50
 70
     0
 10
0.0
 20
0.0
 30
0.0
  3
CDWK_PTTYP50
  1

  0
LINE
  5
174
330
173
100
AcDbEntity
  8
0
  6
Continuous
 62
     0
370
    -2
390
5F
100
AcDbLine
 10
-0.5
 20
0.166
 30
0.0
 11
0.5
 21
0.166
 31
0.0
  0
LINE
  5
175
330
173
100
AcDbEntity
  8
0
  6
Continuous
 62
     0
370
    -2
390
5F
100
AcDbLine
 10
0.5
 20
0.166
 30
0.0
 11
0.5
 21
-0.166
 31
0.0
  0
LINE
  5
176
330
173
100
AcDbEntity
  8
0
  6
Continuous
 62
     0
370
    -2
390
5F
100
AcDbLine
 10
0.5
 20
-0.166
 30
0.0
 11
-0.5
 21
-0.166
 31
0.0
  0
LINE
  5
177
330
173
100
AcDbEntity
  8
0
  6
Continuous
 62
     0
370
    -2
390
5F
100
AcDbLine
 10
-0.5
 20
-0.166
 30
0.0
 11
-0.5
 21
0.166
 31
0.0
  0
LINE
  5
178
330
173
100
AcDbEntity
  8
0
  6
Continuous
 62
     0
370
    -2
390
5F
100
AcDbLine
 10
-0.25
 20
-0.166
 30
0.0
 11
-0.25
 21
0.166
 31
0.0
  0
LINE
  5
179
330
173
100
AcDbEntity
  8
0
  6
Continuous
 62
     0
370
    -2
390
5F
100
AcDbLine
 10
0.0
 20
-0.166
 30
0.0
 11
0.0
 21
0.166
 31
0.0
  0
LINE
  5
17A
330
173
100
AcDbEntity
  8
0
  6
Continuous
 62
     0
370
    -2
390
5F
100
AcDbLine
 10
0.25
 20
-0.166
 30
0.0
 11
0.25
 21
0.166
 31
0.0
  0
ENDBLK
  5
17C
330
173
100
AcDbEntity
  8
0
100
AcDbBlockEnd
  0
BLOCK
  5
180
330
17D
100
AcDbEntity
  8
0
100
AcDbBlockBegin
  2
CDWK_PTTYP51
 70
     0
 10
0.0
 20
0.0
 30
0.0
  3
CDWK_PTTYP51
  1

  0
SPLINE
  5
17E
330
17D
100
AcDbEntity
  8
0
  6
Continuous
 62
     0
370
    -2
390
5F
100
AcDbSpline
210
0.0
220
0.0
230
1.0
 70
  1064
 71
     3
 72
    12
 73
     8
 74
     6
 42
0.0000000001
 43
0.0000000001
 44
0.0000000001
 40
0.0
 40
0.0
 40
0.0
 40
0.0
 40
0.1690118339052032
 40
0.5175774661755118
 40
0.8011704844252565
 40
0.9154070810132151
 40
0.975822310881188
 40
0.975822310881188
 40
0.975822310881188
 40
0.975822310881188
 10
-0.5
 20
-0.077
 30
0.0
 10
-0.443824324006723
 20
-0.0900581618560981
 30
0.0
 10
-0.2717933876546281
 20
-0.1300471387828842
 30
0.0
 10
-0.0276699186086479
 20
-0.0006977790990417
 30
0.0
 10
0.2303349729129116
 20
0.0817803270207037
 30
0.0
 10
0.3686157174766292
 20
0.0066250198607167
 30
0.0
 10
0.4216533294581816
 20
-0.0168719667726145
 30
0.0
 10
0.44
 20
-0.025
 30
0.0
 11
-0.5
 21
-0.077
 31
0.0
 11
-0.333
 21
-0.103
 31
0.0
 11
0.0
 21
0.0
 31
0.0
 11
0.28
 21
0.045
 31
0.0
 11
0.385
 21
0.0
 31
0.0
 11
0.44
 21
-0.025
 31
0.0
  0
HATCH
  5
17F
330
17D
100
AcDbEntity
  8
0
  6
Continuous
 62
     0
370
    -2
390
5F
100
AcDbHatch
 10
0.0
 20
0.0
 30
0.0
210
0.0
220
0.0
230
1.0
  2
SOLID
 70
     1
 71
     0
 91
        1
 92
        3
 72
     0
 73
     1
 93
        3
 10
0.365
 20
-0.05
 10
0.5
 20
-0.042
 10
0.395
 20
0.045
 97
        0
 75
     0
 76
     1
 98
        0
  0
ENDBLK
  5
181
330
17D
100
AcDbEntity
  8
0
100
AcDbBlockEnd
  0
BLOCK
  5
186
330
182
100
AcDbEntity
  8
0
100
AcDbBlockBegin
  2
CDWK_PTTYP52
 70
     0
 10
0.0
 20
0.0
 30
0.0
  3
CDWK_PTTYP52
  1

  0
LINE
  5
183
330
182
100
AcDbEntity
  8
0
  6
Continuous
 62
     0
370
    -2
390
5F
100
AcDbLine
 10
-0.5
 20
-0.289
 30
0.0
 11
0.5
 21
-0.289
 31
0.0
  0
LINE
  5
184
330
182
100
AcDbEntity
  8
0
  6
Continuous
 62
     0
370
    -2
390
5F
100
AcDbLine
 10
0.5
 20
-0.289
 30
0.0
 11
0.0
 21
0.577
 31
0.0
  0
LINE
  5
185
330
182
100
AcDbEntity
  8
0
  6
Continuous
 62
     0
370
    -2
390
5F
100
AcDbLine
 10
0.0
 20
0.577
 30
0.0
 11
-0.5
 21
-0.289
 31
0.0
  0
ENDBLK
  5
187
330
182
100
AcDbEntity
  8
0
100
AcDbBlockEnd
  0
BLOCK
  5
18D
330
188
100
AcDbEntity
  8
0
100
AcDbBlockBegin
  2
cw-dimension-symbol1
 70
     0
 10
0.0
 20
0.0
 30
0.0
  3
cw-dimension-symbol1
  1

  0
LINE
  5
189
330
188
100
AcDbEntity
  8
0
  6
Continuous
 62
     0
370
    -2
390
5F
100
AcDbLine
 10
0.0
 20
0.0
 30
0.0
 11
-1.0
 21
0.25
 31
0.0
  0
LINE
  5
18A
330
188
100
AcDbEntity
  8
0
  6
Continuous
 62
     0
370
    -2
390
5F
100
AcDbLine
 10
0.0
 20
0.0
 30
0.0
 11
-1.0
 21
-0.25
 31
0.0
  0
LINE
  5
18B
330
188
100
AcDbEntity
  8
0
  6
Continuous
 62
     0
370
    -2
390
5F
100
AcDbLine
 10
-1.0
 20
0.25
 30
0.0
 11
-1.0
 21
-0.25
 31
0.0
  0
LINE
  5
18C
330
188
100
AcDbEntity
  8
0
  6
Continuous
 62
     0
370
    -2
390
5F
100
AcDbLine
 10
0.0
 20
0.0
 30
0.0
 11
-1.0
 21
0.0
 31
0.0
  0
ENDBLK
  5
18E
330
188
100
AcDbEntity
  8
0
100
AcDbBlockEnd
  0
BLOCK
  5
192
330
18F
100
AcDbEntity
  8
0
100
AcDbBlockBegin
  2
cw-dimension-symbol2
 70
     0
 10
0.0
 20
0.0
 30
0.0
  3
cw-dimension-symbol2
  1

  0
LINE
  5
190
330
18F
100
AcDbEntity
  8
0
  6
Continuous
 62
     0
370
    -2
390
5F
100
AcDbLine
 10
-1.0
 20
0.0
 30
0.0
 11
1.0
 21
0.0
 31
0.0
  0
LINE
  5
191
330
18F
100
AcDbEntity
  8
0
  6
Continuous
 62
     0
370
    -2
390
5F
100
AcDbLine
 10
-0.5
 20
-0.5
 30
0.0
 11
0.5
 21
0.5
 31
0.0
  0
ENDBLK
  5
193
330
18F
100
AcDbEntity
  8
0
100
AcDbBlockEnd
  0
BLOCK
  5
197
330
194
100
AcDbEntity
  8
0
100
AcDbBlockBegin
  2
cw-dimension-symbol3
 70
     0
 10
0.0
 20
0.0
 30
0.0
  3
cw-dimension-symbol3
  1

  0
LINE
  5
195
330
194
100
AcDbEntity
  8
0
  6
Continuous
 62
     0
370
    -2
390
5F
100
AcDbLine
 10
-1.0
 20
0.0
 30
0.0
 11
1.0
 21
0.0
 31
0.0
  0
CIRCLE
  5
196
330
194
100
AcDbEntity
  8
0
  6
Continuous
 62
     0
370
    -2
390
5F
100
AcDbCircle
 10
0.0
 20
0.0
 30
0.0
 40
0.25
  0
ENDBLK
  5
198
330
194
100
AcDbEntity
  8
0
100
AcDbBlockEnd
  0
BLOCK
  5
19E
330
199
100
AcDbEntity
  8
0
100
AcDbBlockBegin
  2
cw-dimension-symbol5
 70
     0
 10
0.0
 20
0.0
 30
0.0
  3
cw-dimension-symbol5
  1

  0
HATCH
  5
19A
330
199
100
AcDbEntity
  8
0
  6
Continuous
 62
     0
370
    -2
390
5F
100
AcDbHatch
 10
0.0
 20
0.0
 30
0.0
210
0.0
220
0.0
230
1.0
  2
SOLID
 70
     1
 71
     0
 91
        1
 92
        3
 72
     0
 73
     1
 93
        3
 10
0.0
 20
0.0
 10
-1.0
 20
0.25
 10
-1.0
 20
-0.25
 97
        0
 75
     0
 76
     1
 98
        0
  0
LINE
  5
19B
330
199
100
AcDbEntity
  8
0
  6
Continuous
 62
     0
370
    -2
390
5F
100
AcDbLine
 10
0.0
 20
0.0
 30
0.0
 11
-1.0
 21
0.25
 31
0.0
  0
LINE
  5
19C
330
199
100
AcDbEntity
  8
0
  6
Continuous
 62
     0
370
    -2
390
5F
100
AcDbLine
 10
-1.0
 20
0.25
 30
0.0
 11
-1.0
 21
-0.25
 31
0.0
  0
LINE
  5
19D
330
199
100
AcDbEntity
  8
0
  6
Continuous
 62
     0
370
    -2
390
5F
100
AcDbLine
 10
-1.0
 20
-0.25
 30
0.0
 11
0.0
 21
0.0
 31
0.0
  0
ENDBLK
  5
19F
330
199
100
AcDbEntity
  8
0
100
AcDbBlockEnd
  0
BLOCK
  5
1A4
330
1A0
100
AcDbEntity
  8
0
100
AcDbBlockBegin
  2
cw-dimension-symbol6
 70
     0
 10
0.0
 20
0.0
 30
0.0
  3
cw-dimension-symbol6
  1

  0
LINE
  5
1A1
330
1A0
100
AcDbEntity
  8
0
  6
Continuous
 62
     0
370
    -2
390
5F
100
AcDbLine
 10
0.0
 20
0.0
 30
0.0
 11
-1.0
 21
0.25
 31
0.0
  0
LINE
  5
1A2
330
1A0
100
AcDbEntity
  8
0
  6
Continuous
 62
     0
370
    -2
390
5F
100
AcDbLine
 10
0.0
 20
0.0
 30
0.0
 11
-1.0
 21
-0.25
 31
0.0
  0
LINE
  5
1A3
330
1A0
100
AcDbEntity
  8
0
  6
Continuous
 62
     0
370
    -2
390
5F
100
AcDbLine
 10
0.0
 20
0.0
 30
0.0
 11
-1.0
 21
0.0
 31
0.0
  0
ENDBLK
  5
1A5
330
1A0
100
AcDbEntity
  8
0
100
AcDbBlockEnd
  0
BLOCK
  5
1AA
330
1A6
100
AcDbEntity
  8
0
100
AcDbBlockBegin
  2
cw-dimension-symbol11
 70
     0
 10
0.0
 20
0.0
 30
0.0
  3
cw-dimension-symbol11
  1

  0
LINE
  5
1A7
330
1A6
100
AcDbEntity
  8
0
  6
Continuous
 62
     0
370
    -2
390
5F
100
AcDbLine
 10
-1.0
 20
1.0
 30
0.0
 11
1.0
 21
1.0
 31
0.0
  0
LINE
  5
1A8
330
1A6
100
AcDbEntity
  8
0
  6
Continuous
 62
     0
370
    -2
390
5F
100
AcDbLine
 10
0.0
 20
0.0
 30
0.0
 11
-1.0
 21
1.0
 31
0.0
  0
LINE
  5
1A9
330
1A6
100
AcDbEntity
  8
0
  6
Continuous
 62
     0
370
    -2
390
5F
100
AcDbLine
 10
0.0
 20
0.0
 30
0.0
 11
1.0
 21
1.0
 31
0.0
  0
ENDBLK
  5
1AB
330
1A6
100
AcDbEntity
  8
0
100
AcDbBlockEnd
  0
BLOCK
  5
1B0
330
1AC
100
AcDbEntity
  8
0
100
AcDbBlockBegin
  2
cw-dimension-symbol13
 70
     0
 10
0.0
 20
0.0
 30
0.0
  3
cw-dimension-symbol13
  1

  0
LINE
  5
1AD
330
1AC
100
AcDbEntity
  8
0
  6
Continuous
 62
     0
370
    -2
390
5F
100
AcDbLine
 10
-1.0
 20
-1.0
 30
0.0
 11
1.0
 21
-1.0
 31
0.0
  0
LINE
  5
1AE
330
1AC
100
AcDbEntity
  8
0
  6
Continuous
 62
     0
370
    -2
390
5F
100
AcDbLine
 10
0.0
 20
0.0
 30
0.0
 11
-1.0
 21
-1.0
 31
0.0
  0
LINE
  5
1AF
330
1AC
100
AcDbEntity
  8
0
  6
Continuous
 62
     0
370
    -2
390
5F
100
AcDbLine
 10
0.0
 20
0.0
 30
0.0
 11
1.0
 21
-1.0
 31
0.0
  0
ENDBLK
  5
1B1
330
1AC
100
AcDbEntity
  8
0
100
AcDbBlockEnd
  0
BLOCK
  5
1B7
330
1B2
100
AcDbEntity
  8
0
100
AcDbBlockBegin
  2
cw-dimension-symbol15
 70
     0
 10
0.0
 20
0.0
 30
0.0
  3
cw-dimension-symbol15
  1

  0
HATCH
  5
1B3
330
1B2
100
AcDbEntity
  8
0
  6
Continuous
 62
     0
370
    -2
390
5F
100
AcDbHatch
 10
0.0
 20
0.0
 30
0.0
210
0.0
220
0.0
230
1.0
  2
SOLID
 70
     1
 71
     0
 91
        1
 92
        3
 72
     0
 73
     1
 93
        3
 10
0.0
 20
0.0
 10
-1.0
 20
1.0
 10
1.0
 20
1.0
 97
        0
 75
     0
 76
     1
 98
        0
  0
LINE
  5
1B4
330
1B2
100
AcDbEntity
  8
0
  6
Continuous
 62
     0
370
    -2
390
5F
100
AcDbLine
 10
0.0
 20
0.0
 30
0.0
 11
-1.0
 21
1.0
 31
0.0
  0
LINE
  5
1B5
330
1B2
100
AcDbEntity
  8
0
  6
Continuous
 62
     0
370
    -2
390
5F
100
AcDbLine
 10
-1.0
 20
1.0
 30
0.0
 11
1.0
 21
1.0
 31
0.0
  0
LINE
  5
1B6
330
1B2
100
AcDbEntity
  8
0
  6
Continuous
 62
     0
370
    -2
390
5F
100
AcDbLine
 10
1.0
 20
1.0
 30
0.0
 11
0.0
 21
0.0
 31
0.0
  0
ENDBLK
  5
1B8
330
1B2
100
AcDbEntity
  8
0
100
AcDbBlockEnd
  0
BLOCK
  5
1BE
330
1B9
100
AcDbEntity
  8
0
100
AcDbBlockBegin
  2
cw-dimension-symbol16
 70
     0
 10
0.0
 20
0.0
 30
0.0
  3
cw-dimension-symbol16
  1

  0
HATCH
  5
1BA
330
1B9
100
AcDbEntity
  8
0
  6
Continuous
 62
     0
370
    -2
390
5F
100
AcDbHatch
 10
0.0
 20
0.0
 30
0.0
210
0.0
220
0.0
230
1.0
  2
SOLID
 70
     1
 71
     0
 91
        1
 92
        3
 72
     0
 73
     1
 93
        3
 10
0.0
 20
0.0
 10
-1.0
 20
-1.0
 10
1.0
 20
-1.0
 97
        0
 75
     0
 76
     1
 98
        0
  0
LINE
  5
1BB
330
1B9
100
AcDbEntity
  8
0
  6
Continuous
 62
     0
370
    -2
390
5F
100
AcDbLine
 10
0.0
 20
0.0
 30
0.0
 11
-1.0
 21
-1.0
 31
0.0
  0
LINE
  5
1BC
330
1B9
100
AcDbEntity
  8
0
  6
Continuous
 62
     0
370
    -2
390
5F
100
AcDbLine
 10
-1.0
 20
-1.0
 30
0.0
 11
1.0
 21
-1.0
 31
0.0
  0
LINE
  5
1BD
330
1B9
100
AcDbEntity
  8
0
  6
Continuous
 62
     0
370
    -2
390
5F
100
AcDbLine
 10
1.0
 20
-1.0
 30
0.0
 11
0.0
 21
0.0
 31
0.0
  0
ENDBLK
  5
1BF
330
1B9
100
AcDbEntity
  8
0
100
AcDbBlockEnd
  0
BLOCK
  5
1C5
330
1C0
100
AcDbEntity
  8
0
100
AcDbBlockBegin
  2
cw-dimension-symbol17
 70
     0
 10
0.0
 20
0.0
 30
0.0
  3
cw-dimension-symbol17
  1

  0
LINE
  5
1C1
330
1C0
100
AcDbEntity
  8
0
  6
Continuous
 62
     0
370
    -2
390
5F
100
AcDbLine
 10
0.0
 20
0.0
 30
0.0
 11
1.0
 21
1.0
 31
0.0
  0
LINE
  5
1C2
330
1C0
100
AcDbEntity
  8
0
  6
Continuous
 62
     0
370
    -2
390
5F
100
AcDbLine
 10
1.0
 20
1.0
 30
0.0
 11
-1.0
 21
1.0
 31
0.0
  0
LINE
  5
1C3
330
1C0
100
AcDbEntity
  8
0
  6
Continuous
 62
     0
370
    -2
390
5F
100
AcDbLine
 10
-1.0
 20
1.0
 30
0.0
 11
0.0
 21
0.0
 31
0.0
  0
HATCH
  5
1C4
330
1C0
100
AcDbEntity
  8
0
  6
Continuous
 62
     0
370
    -2
390
5F
100
AcDbHatch
 10
0.0
 20
0.0
 30
0.0
210
0.0
220
0.0
230
1.0
  2
SOLID
 70
     1
 71
     0
 91
        1
 92
        3
 72
     0
 73
     1
 93
        3
 10
0.0
 20
0.0
 10
-1.0
 20
1.0
 10
0.0
 20
1.0
 97
        0
 75
     0
 76
     1
 98
        0
  0
ENDBLK
  5
1C6
330
1C0
100
AcDbEntity
  8
0
100
AcDbBlockEnd
  0
BLOCK
  5
1CC
330
1C7
100
AcDbEntity
  8
0
100
AcDbBlockBegin
  2
cw-dimension-symbol18
 70
     0
 10
0.0
 20
0.0
 30
0.0
  3
cw-dimension-symbol18
  1

  0
LINE
  5
1C8
330
1C7
100
AcDbEntity
  8
0
  6
Continuous
 62
     0
370
    -2
390
5F
100
AcDbLine
 10
0.0
 20
0.0
 30
0.0
 11
1.0
 21
-1.0
 31
0.0
  0
LINE
  5
1C9
330
1C7
100
AcDbEntity
  8
0
  6
Continuous
 62
     0
370
    -2
390
5F
100
AcDbLine
 10
1.0
 20
-1.0
 30
0.0
 11
-1.0
 21
-1.0
 31
0.0
  0
LINE
  5
1CA
330
1C7
100
AcDbEntity
  8
0
  6
Continuous
 62
     0
370
    -2
390
5F
100
AcDbLine
 10
-1.0
 20
-1.0
 30
0.0
 11
0.0
 21
0.0
 31
0.0
  0
HATCH
  5
1CB
330
1C7
100
AcDbEntity
  8
0
  6
Continuous
 62
     0
370
    -2
390
5F
100
AcDbHatch
 10
0.0
 20
0.0
 30
0.0
210
0.0
220
0.0
230
1.0
  2
SOLID
 70
     1
 71
     0
 91
        1
 92
        3
 72
     0
 73
     1
 93
        3
 10
0.0
 20
0.0
 10
-1.0
 20
-1.0
 10
0.0
 20
-1.0
 97
        0
 75
     0
 76
     1
 98
        0
  0
ENDBLK
  5
1CD
330
1C7
100
AcDbEntity
  8
0
100
AcDbBlockEnd
  0
BLOCK
  5
1CF
330
1CE
100
AcDbEntity
  8
0
100
AcDbBlockBegin
  2
cw-dimension-symbol19
 70
     0
 10
0.0
 20
0.0
 30
0.0
  3
cw-dimension-symbol19
  1

  0
ENDBLK
  5
1D0
330
1CE
100
AcDbEntity
  8
0
100
AcDbBlockEnd
  0
BLOCK
  5
1D6
330
1D1
100
AcDbEntity
  8
0
100
AcDbBlockBegin
  2
cw-dimension-symbol20
 70
     0
 10
0.0
 20
0.0
 30
0.0
  3
cw-dimension-symbol20
  1

  0
LINE
  5
1D2
330
1D1
100
AcDbEntity
  8
0
  6
Continuous
 62
     0
370
    -2
390
5F
100
AcDbLine
 10
0.0
 20
0.0
 30
0.0
 11
0.0
 21
2.0
 31
0.0
  0
LINE
  5
1D3
330
1D1
100
AcDbEntity
  8
0
  6
Continuous
 62
     0
370
    -2
390
5F
100
AcDbLine
 10
0.0
 20
0.0
 30
0.0
 11
-1.0
 21
0.33
 31
0.0
  0
LINE
  5
1D4
330
1D1
100
AcDbEntity
  8
0
  6
Continuous
 62
     0
370
    -2
390
5F
100
AcDbLine
 10
0.0
 20
0.0
 30
0.0
 11
1.0
 21
0.33
 31
0.0
  0
LINE
  5
1D5
330
1D1
100
AcDbEntity
  8
0
  6
Continuous
 62
     0
370
    -2
390
5F
100
AcDbLine
 10
0.0
 20
2.0
 30
0.0
 11
4.15
 21
2.0
 31
0.0
  0
ENDBLK
  5
1D7
330
1D1
100
AcDbEntity
  8
0
100
AcDbBlockEnd
  0
BLOCK
  5
1DD
330
1D8
100
AcDbEntity
  8
0
100
AcDbBlockBegin
  2
cw-dimension-symbol21
 70
     0
 10
0.0
 20
0.0
 30
0.0
  3
cw-dimension-symbol21
  1

  0
LINE
  5
1D9
330
1D8
100
AcDbEntity
  8
0
  6
Continuous
 62
     0
370
    -2
390
5F
100
AcDbLine
 10
0.0
 20
0.0
 30
0.0
 11
0.0
 21
-2.0
 31
0.0
  0
LINE
  5
1DA
330
1D8
100
AcDbEntity
  8
0
  6
Continuous
 62
     0
370
    -2
390
5F
100
AcDbLine
 10
0.0
 20
0.0
 30
0.0
 11
-1.0
 21
-0.33
 31
0.0
  0
LINE
  5
1DB
330
1D8
100
AcDbEntity
  8
0
  6
Continuous
 62
     0
370
    -2
390
5F
100
AcDbLine
 10
0.0
 20
0.0
 30
0.0
 11
1.0
 21
-0.33
 31
0.0
  0
LINE
  5
1DC
330
1D8
100
AcDbEntity
  8
0
  6
Continuous
 62
     0
370
    -2
390
5F
100
AcDbLine
 10
0.0
 20
-2.0
 30
0.0
 11
4.15
 21
-2.0
 31
0.0
  0
ENDBLK
  5
1DE
330
1D8
100
AcDbEntity
  8
0
100
AcDbBlockEnd
  0
BLOCK
  5
20F
330
1DF
100
AcDbEntity
  8
0
100
AcDbBlockBegin
  2
cw-line-extremity0
 70
     0
 10
0.0
 20
0.0
 30
0.0
  3
cw-line-extremity0
  1

  0
LINE
  5
1E0
330
1DF
100
AcDbEntity
  8
0
  6
Continuous
 62
     0
370
    -2
390
5F
100
AcDbLine
 10
0.0
 20
0.0
 30
0.0
 11
10.0
 21
2.5
 31
0.0
  0
LINE
  5
1E1
330
1DF
100
AcDbEntity
  8
0
  6
Continuous
 62
     0
370
    -2
390
5F
100
AcDbLine
 10
0.0
 20
0.0
 30
0.0
 11
10.0
 21
-2.5
 31
0.0
  0
LINE
  5
1E2
330
1DF
100
AcDbEntity
  8
0
  6
Continuous
 62
     0
370
    -2
390
5F
100
AcDbLine
 10
10.0
 20
2.5
 30
0.0
 11
10.0
 21
-2.5
 31
0.0
  0
ENDBLK
  5
210
330
1DF
100
AcDbEntity
  8
0
100
AcDbBlockEnd
  0
BLOCK
  5
20D
330
1E3
100
AcDbEntity
  8
0
100
AcDbBlockBegin
  2
cw-line-extremity2
 70
     0
 10
0.0
 20
0.0
 30
0.0
  3
cw-line-extremity2
  1

  0
HATCH
  5
1E4
330
1E3
100
AcDbEntity
  8
0
  6
Continuous
 62
     0
370
     0
390
5F
100
AcDbHatch
 10
0.0
 20
0.0
 30
0.0
210
0.0
220
0.0
230
1.0
  2
SOLID
 70
     1
 71
     0
 91
        1
 92
        3
 72
     0
 73
     1
 93
        3
 10
0.0
 20
0.0
 10
10.0
 20
2.5
 10
10.0
 20
-2.5
 97
        0
 75
     0
 76
     1
 98
        0
  0
LINE
  5
1E5
330
1E3
100
AcDbEntity
  8
0
  6
Continuous
 62
     0
370
    -2
390
5F
100
AcDbLine
 10
0.0
 20
0.0
 30
0.0
 11
10.0
 21
2.5
 31
0.0
  0
LINE
  5
1E6
330
1E3
100
AcDbEntity
  8
0
  6
Continuous
 62
     0
370
    -2
390
5F
100
AcDbLine
 10
10.0
 20
2.5
 30
0.0
 11
10.0
 21
-2.5
 31
0.0
  0
LINE
  5
1E7
330
1E3
100
AcDbEntity
  8
0
  6
Continuous
 62
     0
370
    -2
390
5F
100
AcDbLine
 10
10.0
 20
-2.5
 30
0.0
 11
0.0
 21
0.0
 31
0.0
  0
ENDBLK
  5
20E
330
1E3
100
AcDbEntity
  8
0
100
AcDbBlockEnd
  0
BLOCK
  5
20B
330
1E8
100
AcDbEntity
  8
0
100
AcDbBlockBegin
  2
cw-line-extremity3
 70
     0
 10
0.0
 20
0.0
 30
0.0
  3
cw-line-extremity3
  1

  0
HATCH
  5
1E9
330
1E8
100
AcDbEntity
  8
0
  6
Continuous
 62
     0
370
     0
390
5F
100
AcDbHatch
 10
0.0
 20
0.0
 30
0.0
210
0.0
220
0.0
230
1.0
  2
SOLID
 70
     1
 71
     0
 91
        1
 92
        3
 72
     0
 73
     1
 93
        3
 10
0.0
 20
0.0
 10
10.0
 20
2.5
 10
10.0
 20
-2.5
 97
        0
 75
     0
 76
     1
 98
        0
  0
LINE
  5
1EA
330
1E8
100
AcDbEntity
  8
0
  6
Continuous
 62
     0
370
    -2
390
5F
100
AcDbLine
 10
0.0
 20
0.0
 30
0.0
 11
10.0
 21
2.5
 31
0.0
  0
LINE
  5
1EB
330
1E8
100
AcDbEntity
  8
0
  6
Continuous
 62
     0
370
    -2
390
5F
100
AcDbLine
 10
10.0
 20
2.5
 30
0.0
 11
10.0
 21
-2.5
 31
0.0
  0
LINE
  5
1EC
330
1E8
100
AcDbEntity
  8
0
  6
Continuous
 62
     0
370
    -2
390
5F
100
AcDbLine
 10
10.0
 20
-2.5
 30
0.0
 11
0.0
 21
0.0
 31
0.0
  0
ENDBLK
  5
20C
330
1E8
100
AcDbEntity
  8
0
100
AcDbBlockEnd
  0
BLOCK
  5
209
330
1ED
100
AcDbEntity
  8
0
100
AcDbBlockBegin
  2
cw-line-extremity301
 70
     0
 10
0.0
 20
0.0
 30
0.0
  3
cw-line-extremity301
  1

  0
LINE
  5
1EE
330
1ED
100
AcDbEntity
  8
0
  6
Continuous
 62
     0
370
    -2
390
5F
100
AcDbLine
 10
0.0
 20
6.66665
 30
0.0
 11
0.0
 21
-6.66665
 31
0.0
  0
ENDBLK
  5
20A
330
1ED
100
AcDbEntity
  8
0
100
AcDbBlockEnd
  0
BLOCK
  5
207
330
1EF
100
AcDbEntity
  8
0
100
AcDbBlockBegin
  2
cw-line-extremity4
 70
     0
 10
0.0
 20
0.0
 30
0.0
  3
cw-line-extremity4
  1

  0
HATCH
  5
1F0
330
1EF
100
AcDbEntity
  8
0
  6
Continuous
 62
     0
370
     5
390
5F
100
AcDbHatch
 10
0.0
 20
0.0
 30
0.0
210
0.0
220
0.0
230
1.0
  2
SOLID
 70
     1
 71
     0
 91
        1
 92
        1
 93
        1
 72
     2
 10
0.0
 20
0.0
 40
2.5
 50
0.0
 51
360.0
 73
     1
 97
        0
 75
     0
 76
     1
 98
        0
  0
ENDBLK
  5
208
330
1EF
100
AcDbEntity
  8
0
100
AcDbBlockEnd
  0
BLOCK
  5
205
330
1F1
100
AcDbEntity
  8
0
100
AcDbBlockBegin
  2
cw-line-extremity5
 70
     0
 10
0.0
 20
0.0
 30
0.0
  3
cw-line-extremity5
  1

  0
LINE
  5
1F2
330
1F1
100
AcDbEntity
  8
0
  6
Continuous
 62
     0
370
    -2
390
5F
100
AcDbLine
 10
0.0
 20
0.0
 30
0.0
 11
-2.5
 21
0.0
 31
0.0
  0
ENDBLK
  5
206
330
1F1
100
AcDbEntity
  8
0
100
AcDbBlockEnd
  0
BLOCK
  5
203
330
1F3
100
AcDbEntity
  8
0
100
AcDbBlockBegin
  2
cw-line-extremity6
 70
     0
 10
0.0
 20
0.0
 30
0.0
  3
cw-line-extremity6
  1

  0
LINE
  5
1F4
330
1F3
100
AcDbEntity
  8
0
  6
Continuous
 62
     0
370
    18
390
5F
100
AcDbLine
 10
0.0
 20
2.5
 30
0.0
 11
0.0
 21
-2.5
 31
0.0
  0
ENDBLK
  5
204
330
1F3
100
AcDbEntity
  8
0
100
AcDbBlockEnd
  0
BLOCK
  5
201
330
1F5
100
AcDbEntity
  8
0
100
AcDbBlockBegin
  2
cw-line-extremity9
 70
     0
 10
0.0
 20
0.0
 30
0.0
  3
cw-line-extremity9
  1

  0
LINE
  5
1F6
330
1F5
100
AcDbEntity
  8
0
  6
Continuous
 62
     0
370
    18
390
5F
100
AcDbLine
 10
-2.5
 20
-2.5
 30
0.0
 11
2.5
 21
2.5
 31
0.0
  0
ENDBLK
  5
202
330
1F5
100
AcDbEntity
  8
0
100
AcDbBlockEnd
  0
BLOCK
  5
1FF
330
1F7
100
AcDbEntity
  8
0
100
AcDbBlockBegin
  2
cw-line-extremity10
 70
     0
 10
0.0
 20
0.0
 30
0.0
  3
cw-line-extremity10
  1

  0
CIRCLE
  5
1F8
330
1F7
100
AcDbEntity
  8
0
  6
Continuous
 62
     0
370
    -2
390
5F
100
AcDbCircle
 10
0.0
 20
0.0
 30
0.0
 40
2.5
  0
ENDBLK
  5
200
330
1F7
100
AcDbEntity
  8
0
100
AcDbBlockEnd
  0
BLOCK
  5
1FD
330
1F9
100
AcDbEntity
  8
0
100
AcDbBlockBegin
  2
cw-line-extremity1
 70
     0
 10
0.0
 20
0.0
 30
0.0
  3
cw-line-extremity1
  1

  0
LINE
  5
1FA
330
1F9
100
AcDbEntity
  8
0
  6
Continuous
 62
     0
370
    -2
390
5F
100
AcDbLine
 10
0.0
 20
0.0
 30
0.0
 11
0.0
 21
2.5
 31
0.0
  0
LINE
  5
1FB
330
1F9
100
AcDbEntity
  8
0
  6
Continuous
 62
     0
370
    -2
390
5F
100
AcDbLine
 10
0.0
 20
2.5
 30
0.0
 11
1.25
 21
3.75
 31
0.0
  0
LINE
  5
1FC
330
1F9
100
AcDbEntity
  8
0
  6
Continuous
 62
     0
370
    -2
390
5F
100
AcDbLine
 10
1.25
 20
3.75
 30
0.0
 11
3.75
 21
3.75
 31
0.0
  0
ENDBLK
  5
1FE
330
1F9
100
AcDbEntity
  8
0
100
AcDbBlockEnd
  0
BLOCK
  5
1C
330
1B
100
AcDbEntity
  8
0
100
AcDbBlockBegin
  2
*Paper_Space69
 70
     0
 10
0.0
 20
0.0
 30
0.0
  3
*Paper_Space69
  1

  0
ENDBLK
  5
1D
330
1B
100
AcDbEntity
  8
0
100
AcDbBlockEnd
  0
ENDSEC
  0
SECTION
  2
ENTITIES
  0
HATCH
  5
21A
330
1F
100
AcDbEntity
  8
Ech.1_5
  6
Continuous
 62
   254
420
 16643007
440
 33554687
370
    20
390
5F
100
AcDbHatch
 10
0.0
 20
0.0
 30
0.0
210
0.0
220
0.0
230
1.0
  2
SOLID
 70
     1
 71
     0
 91
        1
 92
        3
 72
     1
 73
     1
 93
        4
 10
23134.7584832013
 20
-5639.300878923496
 42
0.0
 10
23134.75848320033
 20
-5371.102316834608
 42
0.1336538660981199
 10
23084.75848320028
 20
-5455.591893774913
 42
0.0
 10
23084.75848320064
 20
-5554.811301983552
 42
0.1336538660980775
 97
        0
 75
     0
 76
     1
 98
        0
  0
LWPOLYLINE
  5
21B
330
1F
100
AcDbEntity
  8
Ech.1_5
  6
Continuous
 62
   190
370
    15
390
5F
100
AcDbPolyline
 90
        5
 70
     0
 43
0.0
 10
23134.7584832013
 20
-5639.300878923496
 10
23134.75848320033
 20
-5371.102316834608
 42
0.1336538660981197
 10
23084.75848320028
 20
-5455.591893774913
 10
23084.75848320064
 20
-5554.811301983552
 42
0.1336538660980687
 10
23134.7584832013
 20
-5639.300878923496
  0
HATCH
  5
21C
330
1F
100
AcDbEntity
  8
Ech.1_5
  6
Continuous
 62
   254
420
 13882323
440
 33554687
370
    20
390
5F
100
AcDbHatch
 10
0.0
 20
0.0
 30
0.0
210
0.0
220
0.0
230
1.0
  2
SOLID
 70
     1
 71
     0
 91
        1
 92
        3
 72
     0
 73
     1
 93
        4
 10
22932.5618657909
 20
-6044.746021779546
 10
22958.5618657909
 20
-6044.746021784577
 10
22958.56186579089
 20
-5496.747688742796
 10
22932.5618657909
 20
-5496.747688742796
 97
        0
 75
     0
 76
     1
 98
        0
  0
LWPOLYLINE
  5
21D
330
1F
100
AcDbEntity
  8
Ech.1_5
  6
Continuous
 62
     7
370
    20
390
5F
100
AcDbPolyline
 90
        5
 70
     0
 43
0.0
 10
22932.5618657909
 20
-6044.746021779546
 10
22958.5618657909
 20
-6044.746021784577
 10
22958.56186579089
 20
-5496.747688742796
 10
22932.5618657909
 20
-5496.747688742796
 10
22932.5618657909
 20
-6044.746021779546
  0
HATCH
  5
21E
330
1F
100
AcDbEntity
  8
Ech.1_5
  6
Continuous
 62
   254
420
 13882323
440
 33554687
370
    20
390
5F
100
AcDbHatch
 10
0.0
 20
0.0
 30
0.0
210
0.0
220
0.0
230
1.0
  2
SOLID
 70
     1
 71
     0
 91
        1
 92
        3
 72
     0
 73
     1
 93
        4
 10
22934.36844337094
 20
-6072.746021899108
 10
23550.56714569198
 20
-6072.746021899108
 10
23550.56828166565
 20
-6046.746021899108
 10
22934.36844337094
 20
-6046.746021779899
 97
        0
 75
     0
 76
     1
 98
        0
  0
LWPOLYLINE
  5
21F
330
1F
100
AcDbEntity
  8
Ech.1_5
  6
Continuous
 62
     7
370
    20
390
5F
100
AcDbPolyline
 90
        5
 70
     0
 43
0.0
 10
22934.36844337094
 20
-6072.746021899108
 10
23550.56714569198
 20
-6072.746021899108
 10
23550.56828166565
 20
-6046.746021899108
 10
22934.36844337094
 20
-6046.746021779899
 10
22934.36844337094
 20
-6072.746021899108
  0
HATCH
  5
220
330
1F
100
AcDbEntity
  8
Ech.1_5
  6
Continuous
 62
   254
420
 13882323
440
 33554687
370
     5
390
5F
100
AcDbHatch
 10
0.0
 20
0.0
 30
0.0
210
0.0
220
0.0
230
1.0
  2
SOLID
 70
     1
 71
     0
 91
        1
 92
        3
 72
     0
 73
     1
 93
        4
 10
22905.5618657909
 20
-5593.939836170325
 10
22905.5618657909
 20
-5633.939836170325
 10
22932.5618657909
 20
-5633.939836170325
 10
22932.5618657909
 20
-5593.939836170325
 97
        0
 75
     0
 76
     1
 98
        0
  0
LINE
  5
221
330
1F
100
AcDbEntity
  8
Ech.1_5
  6
Continuous
 62
   190
370
    15
390
5F
100
AcDbLine
 10
22905.5618657909
 20
-5633.939836170325
 30
0.0
 11
22932.5618657909
 21
-5593.939836170325
 31
0.0
  0
LINE
  5
222
330
1F
100
AcDbEntity
  8
Ech.1_5
  6
Continuous
 62
   190
370
    15
390
5F
100
AcDbLine
 10
22932.5618657909
 20
-5633.939836170325
 30
0.0
 11
22905.5618657909
 21
-5593.939836170325
 31
0.0
  0
LWPOLYLINE
  5
223
330
1F
100
AcDbEntity
  8
Ech.1_5
  6
Continuous
 62
     5
370
    40
390
5F
100
AcDbPolyline
 90
        5
 70
     0
 43
0.0
 10
22905.5618657909
 20
-5593.939836170325
 10
22905.5618657909
 20
-5633.939836170325
 10
22932.5618657909
 20
-5633.939836170325
 10
22932.5618657909
 20
-5593.939836170325
 10
22905.5618657909
 20
-5593.939836170325
  0
HATCH
  5
224
330
1F
100
AcDbEntity
  8
Ech.1_5
  6
Continuous
 62
   254
420
 13882323
440
 33554687
370
     5
390
5F
100
AcDbHatch
 10
0.0
 20
0.0
 30
0.0
210
0.0
220
0.0
230
1.0
  2
SOLID
 70
     1
 71
     0
 91
        1
 92
        3
 72
     0
 73
     1
 93
        4
 10
22905.5625358608
 20
-5997.740854926557
 10
22905.5625358608
 20
-6072.746021976845
 10
22932.5625358608
 20
-6072.746021976845
 10
22932.5625358608
 20
-5997.740854926557
 97
        0
 75
     0
 76
     1
 98
        0
  0
LINE
  5
225
330
1F
100
AcDbEntity
  8
Ech.1_5
  6
Continuous
 62
   190
370
    15
390
5F
100
AcDbLine
 10
22905.5625358608
 20
-6072.746021976845
 30
0.0
 11
22932.5625358608
 21
-5997.740854926557
 31
0.0
  0
LINE
  5
226
330
1F
100
AcDbEntity
  8
Ech.1_5
  6
Continuous
 62
   190
370
    15
390
5F
100
AcDbLine
 10
22932.5625358608
 20
-6072.746021976845
 30
0.0
 11
22905.5625358608
 21
-5997.740854926557
 31
0.0
  0
LWPOLYLINE
  5
227
330
1F
100
AcDbEntity
  8
Ech.1_5
  6
Continuous
 62
     5
370
    40
390
5F
100
AcDbPolyline
 90
        5
 70
     0
 43
0.0
 10
22905.5625358608
 20
-5997.740854926557
 10
22905.5625358608
 20
-6072.746021976845
 10
22932.5625358608
 20
-6072.746021976845
 10
22932.5625358608
 20
-5997.740854926557
 10
22905.5625358608
 20
-5997.740854926557
  0
HATCH
  5
228
330
1F
100
AcDbEntity
  8
Ech.1_5
  6
Continuous
 62
   254
420
 13882323
440
 33554687
370
     5
390
5F
100
AcDbHatch
 10
0.0
 20
0.0
 30
0.0
210
0.0
220
0.0
230
1.0
  2
SOLID
 70
     1
 71
     0
 91
        1
 92
        3
 72
     0
 73
     1
 93
        4
 10
22998.75141192483
 20
-6072.746021976845
 10
22905.56186579461
 20
-6072.746021976845
 10
22905.56186579461
 20
-6099.746021976845
 10
22998.75141192483
 20
-6099.746021976845
 97
        0
 75
     0
 76
     1
 98
        0
  0
LINE
  5
229
330
1F
100
AcDbEntity
  8
Ech.1_5
  6
Continuous
 62
   190
370
    15
390
5F
100
AcDbLine
 10
22905.56186579461
 20
-6072.746021976845
 30
0.0
 11
22998.75141192483
 21
-6099.746021976845
 31
0.0
  0
LINE
  5
22A
330
1F
100
AcDbEntity
  8
Ech.1_5
  6
Continuous
 62
   190
370
    15
390
5F
100
AcDbLine
 10
22905.56186579461
 20
-6099.746021976845
 30
0.0
 11
22998.75141192483
 21
-6072.746021976845
 31
0.0
  0
LWPOLYLINE
  5
22B
330
1F
100
AcDbEntity
  8
Ech.1_5
  6
Continuous
 62
     5
370
    40
390
5F
100
AcDbPolyline
 90
        5
 70
     0
 43
0.0
 10
22998.75141192483
 20
-6072.746021976845
 10
22905.56186579461
 20
-6072.746021976845
 10
22905.56186579461
 20
-6099.746021976845
 10
22998.75141192483
 20
-6099.746021976845
 10
22998.75141192483
 20
-6072.746021976845
  0
HATCH
  5
22C
330
1F
100
AcDbEntity
  8
Ech.1_5
  6
Continuous
 62
   254
420
 13882323
440
 33554687
370
     5
390
5F
100
AcDbHatch
 10
0.0
 20
0.0
 30
0.0
210
0.0
220
0.0
230
1.0
  2
SOLID
 70
     1
 71
     0
 91
        1
 92
        3
 72
     0
 73
     1
 93
        4
 10
23413.37345043628
 20
-6099.766492029471
 10
23453.37345043628
 20
-6099.766492029471
 10
23453.37345043628
 20
-6072.766492029471
 10
23413.37345043628
 20
-6072.766492029471
 97
        0
 75
     0
 76
     1
 98
        0
  0
LINE
  5
22D
330
1F
100
AcDbEntity
  8
Ech.1_5
  6
Continuous
 62
   190
370
    15
390
5F
100
AcDbLine
 10
23453.37345043628
 20
-6099.766492029471
 30
0.0
 11
23413.37345043628
 21
-6072.766492029471
 31
0.0
  0
LINE
  5
22E
330
1F
100
AcDbEntity
  8
Ech.1_5
  6
Continuous
 62
   190
370
    15
390
5F
100
AcDbLine
 10
23453.37345043628
 20
-6072.766492029471
 30
0.0
 11
23413.37345043628
 21
-6099.766492029471
 31
0.0
  0
LWPOLYLINE
  5
22F
330
1F
100
AcDbEntity
  8
Ech.1_5
  6
Continuous
 62
     5
370
    40
390
5F
100
AcDbPolyline
 90
        5
 70
     0
 43
0.0
 10
23413.37345043628
 20
-6099.766492029471
 10
23453.37345043628
 20
-6099.766492029471
 10
23453.37345043628
 20
-6072.766492029471
 10
23413.37345043628
 20
-6072.766492029471
 10
23413.37345043628
 20
-6099.766492029471
  0
HATCH
  5
230
330
1F
100
AcDbEntity
  8
Ech.1_5
  6
Continuous
 62
   254
420
 16643007
440
 33554687
370
    20
390
5F
100
AcDbHatch
 10
0.0
 20
0.0
 30
0.0
210
0.0
220
0.0
230
1.0
  2
SOLID
 70
     1
 71
     0
 91
        1
 92
        3
 72
     0
 73
     1
 93
        8
 10
22896.56186579143
 20
-5496.748189195326
 10
22831.35773934709
 20
-5496.748189196024
 10
22814.87223619133
 20
-5514.72553760358
 10
22828.98217620883
 20
-5478.769837591656
 10
22812.49582212748
 20
-5496.748189196199
 10
22751.56186579013
 20
-5496.748189196373
 10
22751.56186579501
 20
-6208.751550222199
 10
22896.56186579632
 20
-6208.751550221093
 97
        0
 75
     0
 76
     1
 98
        0
  0
LWPOLYLINE
  5
231
330
1F
100
AcDbEntity
  8
Ech.1_5
  6
Continuous
 62
   190
370
    15
390
5F
100
AcDbPolyline
 90
        9
 70
     0
 43
0.0
 10
22896.56186579143
 20
-5496.748189195326
 10
22831.35773934709
 20
-5496.748189196024
 10
22814.87223619133
 20
-5514.72553760358
 10
22828.98217620883
 20
-5478.769837591656
 10
22812.49582212748
 20
-5496.748189196199
 10
22751.56186579013
 20
-5496.748189196373
 10
22751.56186579501
 20
-6208.751550222199
 10
22896.56186579632
 20
-6208.751550221093
 10
22896.56186579143
 20
-5496.748189195326
  0
HATCH
  5
232
330
1F
100
AcDbEntity
  8
Ech.1_5
  6
Continuous
 62
   254
420
 16643007
440
 33554687
370
    20
390
5F
100
AcDbHatch
 10
0.0
 20
0.0
 30
0.0
210
0.0
220
0.0
230
1.0
  2
SOLID
 70
     1
 71
     0
 91
        1
 92
        3
 72
     0
 73
     1
 93
        8
 10
23550.5630356109
 20
-6166.816968713048
 10
23550.56557176509
 20
-6108.769840428581
 10
22950.56697158844
 20
-6108.751550310791
 10
22952.06103647954
 20
-6253.755670629068
 10
23550.55899140469
 20
-6253.773506953706
 10
23550.56237143818
 20
-6185.678885920938
 10
23532.58460036843
 20
-6169.191898789349
 10
23568.53980351358
 20
-6183.303104883676
 97
        0
 75
     0
 76
     1
 98
        0
  0
LWPOLYLINE
  5
233
330
1F
100
AcDbEntity
  8
Ech.1_5
  6
Continuous
 62
   190
370
    15
390
5F
100
AcDbPolyline
 90
        9
 70
     0
 43
0.0
 10
23550.5630356109
 20
-6166.816968713048
 10
23550.56557176509
 20
-6108.769840428581
 10
22950.56697158844
 20
-6108.751550310791
 10
22952.06103647954
 20
-6253.755670629068
 10
23550.55899140469
 20
-6253.773506953706
 10
23550.56237143818
 20
-6185.678885920938
 10
23532.58460036843
 20
-6169.191898789349
 10
23568.53980351358
 20
-6183.303104883676
 10
23550.5630356109
 20
-6166.816968713048
  0
LWPOLYLINE
  5
234
330
1F
100
AcDbEntity
  8
Ech.1_5
  6
Continuous
 62
   190
370
    15
390
5F
100
AcDbPolyline
 90
       42
 70
     0
 43
0.0
 10
22775.72853245679
 20
-5496.748189196141
 42
1.140281805119392
 10
22781.98334013091
 20
-5544.258059557706
 10
22866.14039145002
 20
-5521.738318833731
 42
-1.303226186855234
 10
22866.14039145045
 20
-5568.424726223607
 10
22781.98334013092
 20
-5545.904985501174
 42
1.303226186855235
 10
22781.98334013135
 20
-5592.59139289105
 10
22866.14039145046
 20
-5570.071652167045
 42
-1.303226186855079
 10
22866.1403914509
 20
-5616.758059556921
 10
22781.98334013137
 20
-5594.238318834517
 42
1.303226186856047
 10
22781.9833401318
 20
-5640.924726224363
 10
22866.14039145091
 20
-5618.404985500417
 42
-1.303226186856047
 10
22866.14039145134
 20
-5665.091392890264
 10
22781.98334013182
 20
-5642.57165216786
 42
1.303226186856047
 10
22781.98334013225
 20
-5689.258059557706
 10
22866.14039145136
 20
-5666.738318833731
 42
-1.303226186855234
 10
22866.14039145179
 20
-5713.424726223607
 10
22781.98334013226
 20
-5690.904985501174
 42
1.303226186855235
 10
22781.98334013269
 20
-5737.59139289105
 10
22866.1403914518
 20
-5715.071652167045
 42
-1.30322618685539
 10
22866.14039145224
 20
-5761.758059556921
 10
22781.98334013271
 20
-5739.238318834487
 42
1.30322618685539
 10
22781.98334013314
 20
-5785.924726224363
 10
22866.14039145225
 20
-5763.404985500417
 42
-1.303226186856047
 10
22866.14039145268
 20
-5810.091392890264
 10
22781.98334013316
 20
-5787.57165216786
 42
1.303226186856047
 10
22781.98334013359
 20
-5834.258059557706
 10
22866.1403914527
 20
-5811.738318833731
 42
-1.303226186855234
 10
22866.14039145313
 20
-5858.424726223607
 10
22781.9833401336
 20
-5835.904985501174
 42
1.303226186855235
 10
22781.98334013403
 20
-5882.59139289105
 10
22866.14039145315
 20
-5860.071652167045
 42
-1.303226186855234
 10
22866.14039145358
 20
-5906.758059556921
 10
22781.98334013404
 20
-5884.238318834487
 42
1.303226186855079
 10
22781.98334013448
 20
-5930.924726224363
 10
22866.14039145359
 20
-5908.404985500388
 42
-1.303226186855234
 10
22866.14039145402
 20
-5955.091392890264
 10
22781.98334013449
 20
-5932.571652167831
 42
1.303226186855235
 10
22781.98334013492
 20
-5979.258059557706
 10
22866.14039145404
 20
-5956.738318833731
 42
-1.30322618685539
 10
22866.14039145447
 20
-6003.424726223607
 10
22781.98334013494
 20
-5980.904985501174
 42
0.7125026632363846
 10
22756.39772035421
 20
-6018.751550222169
  0
LWPOLYLINE
  5
235
330
1F
100
AcDbEntity
  8
Ech.1_5
  6
Continuous
 62
   190
370
    15
390
5F
100
AcDbPolyline
 90
       16
 70
     0
 43
0.0
 10
22834.89519912947
 20
-6208.751550221617
 42
1.140281805120129
 10
22830.58153866466
 20
-6175.986122386098
 10
22772.54219292734
 20
-6191.51697805763
 42
-1.303226186855651
 10
22772.54219292713
 20
-6159.319455719819
 10
22830.58153866465
 20
-6174.850311390594
 42
1.303226186855877
 10
22830.58153866443
 20
-6142.652789052784
 10
22772.54219292713
 20
-6158.183644724345
 42
-1.303226186854699
 10
22772.54219292691
 20
-6125.986122386505
 10
22830.58153866442
 20
-6141.516978057281
 42
1.303226186855877
 10
22830.58153866421
 20
-6109.31945571947
 10
22772.5421929269
 20
-6124.850311391031
 42
-1.303226186854699
 10
22772.54219292668
 20
-6092.652789053192
 10
22830.5815386642
 20
-6108.183644723996
 42
1.303226186854473
 10
22830.58153866399
 20
-6075.986122386156
 10
22772.54219292667
 20
-6091.516978057717
 42
-0.763362582788762
 10
22756.32615174777
 20
-6063.75155022214
  0
LWPOLYLINE
  5
236
330
1F
100
AcDbEntity
  8
Ech.1_5
  6
Continuous
 62
   190
370
    15
390
5F
100
AcDbPolyline
 90
       52
 70
     0
 43
0.0
 10
23550.56483967552
 20
-6132.937941885179
 42
1.140281805120214
 10
23503.0544116837
 20
-6139.191358902292
 10
23525.57177770753
 20
-6223.349744522279
 42
-1.30322618685496
 10
23478.8850085337
 20
-6223.348330339392
 10
23501.40747297782
 20
-6139.191309015097
 42
1.30322618685538
 10
23454.72070380399
 20
-6139.18989483218
 10
23477.23806982782
 20
-6223.348280452167
 42
-1.30322618685538
 10
23430.55130065398
 20
-6223.346866269251
 10
23453.0737650981
 20
-6139.189844944985
 42
1.303226186855583
 10
23406.38699592427
 20
-6139.188430762068
 10
23428.9043619481
 20
-6223.346816382055
 42
-1.303226186855583
 10
23382.21759277427
 20
-6223.345402199139
 10
23404.74005721839
 20
-6139.188380874873
 42
1.303226186855583
 10
23358.05328804456
 20
-6139.186966691957
 10
23380.57065406839
 20
-6223.345352311943
 42
-1.30322618685538
 10
23333.88388489455
 20
-6223.343938129027
 10
23356.40634933867
 20
-6139.186916804761
 42
1.303226186855583
 10
23309.71958016484
 20
-6139.185502621845
 10
23332.23694618867
 20
-6223.343888241831
 42
-1.303226186855583
 10
23285.55017701484
 20
-6223.342474058915
 10
23308.07264145896
 20
-6139.18545273462
 42
1.30322618685496
 10
23261.38587228513
 20
-6139.184038551733
 10
23283.90323830896
 20
-6223.342424171719
 42
-1.303226186855583
 10
23237.21646913513
 20
-6223.341009988803
 10
23259.73893357925
 20
-6139.183988664508
 42
1.303226186854757
 10
23213.05216440541
 20
-6139.182574481621
 10
23235.56953042924
 20
-6223.340960101607
 42
-1.303226186855583
 10
23188.88276125541
 20
-6223.339545918691
 10
23211.40522569953
 20
-6139.182524594396
 42
1.30322618685496
 10
23164.7184565257
 20
-6139.181110411509
 10
23187.23582254953
 20
-6223.339496031495
 42
-1.303226186855583
 10
23140.5490533757
 20
-6223.338081848579
 10
23163.07151781982
 20
-6139.181060524284
 42
1.303226186854757
 10
23116.38474864598
 20
-6139.179646341397
 10
23138.90211466981
 20
-6223.338031961383
 42
-1.303226186854133
 10
23092.21534549598
 20
-6223.336617778467
 10
23114.7378099401
 20
-6139.179596454172
 42
1.30322618685496
 10
23068.05104076627
 20
-6139.178182271285
 10
23090.56840679009
 20
-6223.336567891271
 42
-1.303226186854337
 10
23043.88163761626
 20
-6223.335153708355
 10
23066.40410206038
 20
-6139.17813238406
 42
1.303226186856207
 10
23019.71733288655
 20
-6139.176718201173
 10
23042.23469891038
 20
-6223.335103821159
 42
-1.303226186854133
 10
22995.54792973655
 20
-6223.333689638243
 10
23018.07039418066
 20
-6139.176668313948
 42
1.303226186856207
 10
22971.38362500683
 20
-6139.175254131061
 10
22993.90099103066
 20
-6223.333639751047
 42
-1.303226186854337
 10
22947.21422185683
 20
-6223.332225568131
 10
22969.73668630095
 20
-6139.175204243836
 42
1.303226186856207
 10
22923.04991712712
 20
-6139.173790060949
 10
22945.56728315095
 20
-6223.332175680936
 42
-0.757657317792701
 10
22905.55767548759
 20
-6247.087186241905
  0
HATCH
  5
237
330
1F
100
AcDbEntity
  8
Ech.1_5
  6
Continuous
 62
    33
420
 12426362
440
 33554687
370
    20
390
5F
100
AcDbHatch
 10
0.0
 20
0.0
 30
0.0
210
0.0
220
0.0
230
1.0
  2
SOLID
 70
     1
 71
     0
 91
        1
 92
        3
 72
     0
 73
     1
 93
        4
 10
23410.86808930956
 20
-6253.767758691833
 10
23455.86808928166
 20
-6253.769343248253
 10
23455.87319507465
 20
-6108.769343338184
 10
23410.87319510255
 20
-6108.767758781706
 97
        0
 75
     0
 76
     1
 98
        0
  0
LWPOLYLINE
  5
238
330
1F
100
AcDbEntity
  8
Ech.1_5
  6
Continuous
 62
     7
370
    20
390
5F
100
AcDbPolyline
 90
        5
 70
     0
 43
0.0
 10
23410.86808930956
 20
-6253.767758691833
 10
23455.86808928166
 20
-6253.769343248253
 10
23455.87319507465
 20
-6108.769343338184
 10
23410.87319510255
 20
-6108.767758781706
 10
23410.86808930956
 20
-6253.767758691833
  0
HATCH
  5
239
330
1F
100
AcDbEntity
  8
Ech.1_5
  6
Continuous
 62
    33
420
 12426362
440
 33554687
370
    20
390
5F
100
AcDbHatch
 10
0.0
 20
0.0
 30
0.0
210
0.0
220
0.0
230
1.0
  2
SOLID
 70
     1
 71
     0
 91
        1
 92
        3
 72
     0
 73
     1
 93
        4
 10
22950.5618657945
 20
-6108.75155022086
 10
22905.5618657945
 20
-6108.751550221209
 10
22905.56186579547
 20
-6253.751550221209
 10
22950.56186579547
 20
-6253.75155022086
 97
        0
 75
     0
 76
     1
 98
        0
  0
LWPOLYLINE
  5
23A
330
1F
100
AcDbEntity
  8
Ech.1_5
  6
Continuous
 62
     7
370
    20
390
5F
100
AcDbPolyline
 90
        5
 70
     0
 43
0.0
 10
22950.5618657945
 20
-6108.75155022086
 10
22905.5618657945
 20
-6108.751550221209
 10
22905.56186579547
 20
-6253.751550221209
 10
22950.56186579547
 20
-6253.75155022086
 10
22950.5618657945
 20
-6108.75155022086
  0
HATCH
  5
23B
330
1F
100
AcDbEntity
  8
Ech.1_5
  6
Continuous
 62
    33
420
 12426362
440
 33554687
370
    20
390
5F
100
AcDbHatch
 10
0.0
 20
0.0
 30
0.0
210
0.0
220
0.0
230
1.0
  2
SOLID
 70
     1
 71
     0
 91
        1
 92
        3
 72
     0
 73
     1
 93
        4
 10
22751.56186579495
 20
-6018.751550222199
 10
22751.56186579524
 20
-6063.751550222199
 10
22896.56186579524
 20
-6063.751550221209
 10
22896.56186579495
 20
-6018.751550221209
 97
        0
 75
     0
 76
     1
 98
        0
  0
LWPOLYLINE
  5
23C
330
1F
100
AcDbEntity
  8
Ech.1_5
  6
Continuous
 62
     7
370
    20
390
5F
100
AcDbPolyline
 90
        5
 70
     0
 43
0.0
 10
22751.56186579495
 20
-6018.751550222199
 10
22751.56186579524
 20
-6063.751550222199
 10
22896.56186579524
 20
-6063.751550221209
 10
22896.56186579495
 20
-6018.751550221209
 10
22751.56186579495
 20
-6018.751550222199
  0
HATCH
  5
23D
330
1F
100
AcDbEntity
  8
Ech.1_5
  6
Continuous
 62
    33
420
 12426362
440
 33554687
370
    20
390
5F
100
AcDbHatch
 10
0.0
 20
0.0
 30
0.0
210
0.0
220
0.0
230
1.0
  2
SOLID
 70
     1
 71
     0
 91
        1
 92
        3
 72
     0
 73
     1
 93
        4
 10
22751.56186579187
 20
-5591.439835025031
 10
22751.56186579217
 20
-5636.439835025031
 10
22896.56186579217
 20
-5636.439835024042
 10
22896.56186579187
 20
-5591.439835024042
 97
        0
 75
     0
 76
     1
 98
        0
  0
LWPOLYLINE
  5
23E
330
1F
100
AcDbEntity
  8
Ech.1_5
  6
Continuous
 62
     7
370
    20
390
5F
100
AcDbPolyline
 90
        5
 70
     0
 43
0.0
 10
22751.56186579187
 20
-5591.439835025031
 10
22751.56186579217
 20
-5636.439835025031
 10
22896.56186579217
 20
-5636.439835024042
 10
22896.56186579187
 20
-5591.439835024042
 10
22751.56186579187
 20
-5591.439835025031
  0
HATCH
  5
23F
330
1F
100
AcDbEntity
  8
Ech.1_5
  6
Continuous
 62
    33
420
 12426362
440
 33554687
370
    20
390
5F
100
AcDbHatch
 10
0.0
 20
0.0
 30
0.0
210
0.0
220
0.0
230
1.0
  2
SOLID
 70
     1
 71
     0
 91
        1
 92
        3
 72
     0
 73
     1
 93
        4
 10
22751.56186579151
 20
-6208.751550222082
 10
22751.56186579181
 20
-6253.751550222082
 10
22896.56186579181
 20
-6253.751550221093
 10
22896.56186579151
 20
-6208.751550221093
 97
        0
 75
     0
 76
     1
 98
        0
  0
LWPOLYLINE
  5
240
330
1F
100
AcDbEntity
  8
Ech.1_5
  6
Continuous
 62
     7
370
    20
390
5F
100
AcDbPolyline
 90
        5
 70
     0
 43
0.0
 10
22751.56186579151
 20
-6208.751550222082
 10
22751.56186579181
 20
-6253.751550222082
 10
22896.56186579181
 20
-6253.751550221093
 10
22896.56186579151
 20
-6208.751550221093
 10
22751.56186579151
 20
-6208.751550222082
  0
HATCH
  5
241
330
1F
100
AcDbEntity
  8
Ech.1_5
  6
Continuous
 62
    33
420
 12426362
440
 33554687
370
    20
390
5F
100
AcDbHatch
 10
0.0
 20
0.0
 30
0.0
210
0.0
220
0.0
230
1.0
  2
SOLID
 70
     1
 71
     0
 91
        1
 92
        3
 72
     0
 73
     1
 93
        4
 10
22896.56186579516
 20
-6063.751550221209
 10
22851.56186579516
 20
-6063.7515502215
 10
22851.56186579613
 20
-6208.7515502215
 10
22896.56186579613
 20
-6208.751550221209
 97
        0
 75
     0
 76
     1
 98
        0
  0
LWPOLYLINE
  5
242
330
1F
100
AcDbEntity
  8
Ech.1_5
  6
Continuous
 62
     7
370
    20
390
5F
100
AcDbPolyline
 90
        5
 70
     0
 43
0.0
 10
22896.56186579516
 20
-6063.751550221209
 10
22851.56186579516
 20
-6063.7515502215
 10
22851.56186579613
 20
-6208.7515502215
 10
22896.56186579613
 20
-6208.751550221209
 10
22896.56186579516
 20
-6063.751550221209
  0
HATCH
  5
243
330
1F
100
AcDbEntity
  8
Ech.1_5
  6
Continuous
 62
    40
420
 16297258
440
 33554687
370
     5
390
5F
100
AcDbHatch
 10
0.0
 20
0.0
 30
0.0
210
0.0
220
0.0
230
1.0
  2
SOLID
 70
     1
 71
     0
 91
        1
 92
        3
 72
     0
 73
     1
 93
        4
 10
22905.56186579131
 20
-5496.748189195209
 10
22896.56186579131
 20
-5496.748189195326
 10
22896.56186579545
 20
-6253.751550221209
 10
22905.56186579545
 20
-6253.751550221151
 97
        0
 75
     0
 76
     1
 98
        0
  0
HATCH
  5
244
330
1F
100
AcDbEntity
  8
Ech.1_5
  6
Continuous
 62
   190
440
 33554687
370
    15
390
5F
100
AcDbHatch
 10
0.0
 20
0.0
 30
0.0
210
0.0
220
0.0
230
1.0
  2
CwHatchPattern_74
 70
     0
 71
     0
 91
        1
 92
        3
 72
     0
 73
     1
 93
        4
 10
22905.56186579131
 20
-5496.748189195209
 10
22896.56186579131
 20
-5496.748189195326
 10
22896.56186579545
 20
-6253.751550221209
 10
22905.56186579545
 20
-6253.751550221151
 97
        0
 75
     0
 76
     2
 52
0.0
 41
0.6000000238418579
 77
     0
 78
     3
 53
45.00000000000297
 43
0.0
 44
0.0
 45
-0.0000000000043443
 46
42.00000166893005
 79
     0
 53
45.00000000000297
 43
0.0
 44
10.80000042915344
 45
-0.0000000000043443
 46
42.00000166893005
 79
     0
 53
45.00000000000297
 43
0.0
 44
21.60000085830688
 45
-0.0000000000043443
 46
42.00000166893005
 79
     0
 98
        0
1001
ACAD
1010
0.0
1020
0.0
1030
0.0
  0
LWPOLYLINE
  5
245
330
1F
100
AcDbEntity
  8
Ech.1_5
  6
Continuous
 62
   190
370
    15
390
5F
100
AcDbPolyline
 90
        5
 70
     0
 43
0.0
 10
22905.56186579131
 20
-5496.748189195209
 10
22896.56186579131
 20
-5496.748189195326
 10
22896.56186579545
 20
-6253.751550221209
 10
22905.56186579545
 20
-6253.751550221151
 10
22905.56186579131
 20
-5496.748189195209
  0
HATCH
  5
246
330
1F
100
AcDbEntity
  8
Ech.1_5
  6
Continuous
 62
    40
420
 16297258
440
 33554687
370
     5
390
5F
100
AcDbHatch
 10
0.0
 20
0.0
 30
0.0
210
0.0
220
0.0
230
1.0
  2
SOLID
 70
     1
 71
     0
 91
        1
 92
        3
 72
     0
 73
     1
 93
        4
 10
22911.56207706868
 20
-6099.746021976845
 10
22911.56165452028
 20
-6108.746021969452
 10
23550.56557171058
 20
-6108.771087945298
 10
23550.56596493223
 20
-6099.771087951643
 97
        0
 75
     0
 76
     1
 98
        0
  0
HATCH
  5
247
330
1F
100
AcDbEntity
  8
Ech.1_5
  6
Continuous
 62
   190
440
 33554687
370
    15
390
5F
100
AcDbHatch
 10
0.0
 20
0.0
 30
0.0
210
0.0
220
0.0
230
1.0
  2
CwHatchPattern_74
 70
     0
 71
     0
 91
        1
 92
        3
 72
     0
 73
     1
 93
        4
 10
22911.56207706868
 20
-6099.746021976845
 10
22911.56165452028
 20
-6108.746021969452
 10
23550.56557171058
 20
-6108.771087945298
 10
23550.56596493223
 20
-6099.771087951643
 97
        0
 75
     0
 76
     2
 52
0.0
 41
0.6000000238418579
 77
     0
 78
     3
 53
45.00000000000297
 43
0.0
 44
0.0
 45
-0.0000000000043443
 46
42.00000166893005
 79
     0
 53
45.00000000000297
 43
0.0
 44
10.80000042915344
 45
-0.0000000000043443
 46
42.00000166893005
 79
     0
 53
45.00000000000297
 43
0.0
 44
21.60000085830688
 45
-0.0000000000043443
 46
42.00000166893005
 79
     0
 98
        0
1001
ACAD
1010
0.0
1020
0.0
1030
0.0
  0
LWPOLYLINE
  5
248
330
1F
100
AcDbEntity
  8
Ech.1_5
  6
Continuous
 62
   190
370
    15
390
5F
100
AcDbPolyline
 90
        5
 70
     0
 43
0.0
 10
22911.56207706868
 20
-6099.746021976845
 10
22911.56165452028
 20
-6108.746021969452
 10
23550.56557171058
 20
-6108.771087945298
 10
23550.56596493223
 20
-6099.771087951643
 10
22911.56207706868
 20
-6099.746021976845
  0
LWPOLYLINE
  5
249
330
1F
100
AcDbEntity
  8
Ech.1_5
  6
Continuous
 62
     5
370
    40
390
5F
100
AcDbPolyline
 90
        5
 70
     0
 43
0.0
 10
23410.86808930956
 20
-6253.767758691833
 10
23410.87319510255
 20
-6108.767758781706
 10
23455.87319507465
 20
-6108.769343338184
 10
23455.86808928166
 20
-6253.769343248253
 10
23410.86808930956
 20
-6253.767758691833
  0
LWPOLYLINE
  5
24A
330
1F
100
AcDbEntity
  8
Ech.1_5
  6
Continuous
 62
   190
370
    15
390
5F
100
AcDbPolyline
 90
        4
 70
     0
 43
0.0
 10
23455.87319507465
 20
-6108.769343338184
 10
23410.86808930948
 20
-6253.767758691833
 10
23455.86808928166
 20
-6253.769343248253
 10
23410.87319510255
 20
-6108.767758781706
  0
LWPOLYLINE
  5
24B
330
1F
100
AcDbEntity
  8
Ech.1_5
  6
Continuous
 62
     5
370
    40
390
5F
100
AcDbPolyline
 90
        5
 70
     0
 43
0.0
 10
22950.5618657945
 20
-6108.75155022086
 10
22950.56186579547
 20
-6253.75155022086
 10
22905.56186579547
 20
-6253.751550221209
 10
22905.5618657945
 20
-6108.751550221209
 10
22950.5618657945
 20
-6108.75155022086
  0
LWPOLYLINE
  5
24C
330
1F
100
AcDbEntity
  8
Ech.1_5
  6
Continuous
 62
   190
370
    15
390
5F
100
AcDbPolyline
 90
        4
 70
     0
 43
0.0
 10
22905.55507593041
 20
-6253.759203400438
 10
22950.56186579458
 20
-6108.75155022086
 10
22905.5618657945
 20
-6108.751550221209
 10
22950.56186579547
 20
-6253.75155022086
  0
LWPOLYLINE
  5
24D
330
1F
100
AcDbEntity
  8
Ech.1_5
  6
Continuous
 62
     5
370
    40
390
5F
100
AcDbPolyline
 90
        5
 70
     0
 43
0.0
 10
22751.56186579495
 20
-6018.751550222199
 10
22896.56186579495
 20
-6018.751550221209
 10
22896.56186579524
 20
-6063.751550221209
 10
22751.56186579524
 20
-6063.751550222199
 10
22751.56186579495
 20
-6018.751550222199
  0
LWPOLYLINE
  5
24E
330
1F
100
AcDbEntity
  8
Ech.1_5
  6
Continuous
 62
   190
370
    15
390
5F
100
AcDbPolyline
 90
        4
 70
     0
 43
0.0
 10
22896.56186579524
 20
-6063.751550221209
 10
22751.56186579495
 20
-6018.751550222082
 10
22751.56186579524
 20
-6063.751550222199
 10
22896.56186579495
 20
-6018.751550221209
  0
LWPOLYLINE
  5
24F
330
1F
100
AcDbEntity
  8
Ech.1_5
  6
Continuous
 62
     5
370
    40
390
5F
100
AcDbPolyline
 90
        5
 70
     0
 43
0.0
 10
22751.56186579187
 20
-5591.439835025031
 10
22896.56186579187
 20
-5591.439835024042
 10
22896.56186579217
 20
-5636.439835024042
 10
22751.56186579217
 20
-5636.439835025031
 10
22751.56186579187
 20
-5591.439835025031
  0
LWPOLYLINE
  5
250
330
1F
100
AcDbEntity
  8
Ech.1_5
  6
Continuous
 62
   190
370
    15
390
5F
100
AcDbPolyline
 90
        4
 70
     0
 43
0.0
 10
22896.56186579217
 20
-5636.439835024042
 10
22751.56186579187
 20
-5591.439835024915
 10
22751.56186579217
 20
-5636.439835025031
 10
22896.56186579187
 20
-5591.439835024042
  0
LWPOLYLINE
  5
251
330
1F
100
AcDbEntity
  8
Ech.1_5
  6
Continuous
 62
     5
370
    40
390
5F
100
AcDbPolyline
 90
        5
 70
     0
 43
0.0
 10
22751.56186579151
 20
-6208.751550222082
 10
22896.56186579151
 20
-6208.751550221093
 10
22896.56186579181
 20
-6253.751550221093
 10
22751.56186579181
 20
-6253.751550222082
 10
22751.56186579151
 20
-6208.751550222082
  0
LWPOLYLINE
  5
252
330
1F
100
AcDbEntity
  8
Ech.1_5
  6
Continuous
 62
   190
370
    15
390
5F
100
AcDbPolyline
 90
        4
 70
     0
 43
0.0
 10
22896.56186579181
 20
-6253.751550221093
 10
22751.56186579151
 20
-6208.751550221966
 10
22751.56186579181
 20
-6253.751550222082
 10
22896.56186579151
 20
-6208.751550221093
  0
LWPOLYLINE
  5
253
330
1F
100
AcDbEntity
  8
Ech.1_5
  6
Continuous
 62
     5
370
    40
390
5F
100
AcDbPolyline
 90
        5
 70
     0
 43
0.0
 10
22896.56186579516
 20
-6063.751550221209
 10
22896.56186579613
 20
-6208.751550221209
 10
22851.56186579613
 20
-6208.7515502215
 10
22851.56186579516
 20
-6063.7515502215
 10
22896.56186579516
 20
-6063.751550221209
  0
LWPOLYLINE
  5
254
330
1F
100
AcDbEntity
  8
Ech.1_5
  6
Continuous
 62
   190
370
    15
390
5F
100
AcDbPolyline
 90
        4
 70
     0
 43
0.0
 10
22851.56186579632
 20
-6208.751550221442
 10
22896.56186579524
 20
-6063.751550221209
 10
22851.56186579516
 20
-6063.7515502215
 10
22896.56186579151
 20
-6208.751550221209
  0
LWPOLYLINE
  5
256
330
1F
100
AcDbEntity
  8
Ech.1_5
  6
CADWORK_22
 62
   140
420
  1483507
 48
0.6
370
    35
390
5F
100
AcDbPolyline
 90
        5
 70
   128
 43
0.0
 38
2500.0
 10
23550.56596493223
 20
-6098.271087951643
 10
23014.54002111944
 20
-6098.271087951643
 10
22990.0234699831
 20
-6098.271087951643
 10
22912.63887834044
 20
-6098.271087951643
 10
22912.63887834044
 20
-5988.213461689859
  0
LWPOLYLINE
  5
257
330
1F
100
AcDbEntity
  8
Ech.1_5
  6
CADWORK_22
 62
   140
420
  1483507
 48
0.6
370
    35
390
5F
100
AcDbPolyline
 90
        2
 70
   128
 43
0.0
 38
2500.0
 10
22907.06186579131
 20
-5496.748189195209
 10
22907.06186579131
 20
-6253.751550221151
  0
HATCH
  5
258
330
1F
100
AcDbEntity
  8
Ech.1_5
  6
Continuous
 62
   254
420
 16643007
440
 33554687
370
    20
390
5F
100
AcDbHatch
 10
0.0
 20
0.0
 30
0.0
210
0.0
220
0.0
230
1.0
  2
SOLID
 70
     1
 71
     0
 91
        1
 92
        3
 72
     0
 73
     1
 93
        4
 10
22691.56186579391
 20
-6313.753416451543
 10
22741.56186579427
 20
-6313.75341645131
 10
22741.56186579131
 20
-5496.747687595988
 10
22691.56186579095
 20
-5496.747687596046
 97
        0
 75
     0
 76
     1
 98
        0
  0
LWPOLYLINE
  5
259
330
1F
100
AcDbEntity
  8
Ech.1_5
  6
Continuous
 62
   190
370
    15
390
5F
100
AcDbPolyline
 90
        5
 70
     0
 43
0.0
 10
22691.56186579391
 20
-6313.753416451543
 10
22741.56186579427
 20
-6313.75341645131
 10
22741.56186579131
 20
-5496.747687595988
 10
22691.56186579095
 20
-5496.747687596046
 10
22691.56186579391
 20
-6313.753416451543
  0
HATCH
  5
25A
330
1F
100
AcDbEntity
  8
Ech.1_5
  6
Continuous
 62
   254
420
 16643007
440
 33554687
370
    20
390
5F
100
AcDbHatch
 10
0.0
 20
0.0
 30
0.0
210
0.0
220
0.0
230
1.0
  2
SOLID
 70
     1
 71
     0
 91
        1
 92
        3
 72
     0
 73
     1
 93
        4
 10
22741.5632742888
 20
-6263.752958715461
 10
22741.56186579427
 20
-6313.752958691014
 10
23550.55854041504
 20
-6313.773035977768
 10
23550.56015818684
 20
-6263.773036007163
 97
        0
 75
     0
 76
     1
 98
        0
  0
LWPOLYLINE
  5
25B
330
1F
100
AcDbEntity
  8
Ech.1_5
  6
Continuous
 62
   190
370
    15
390
5F
100
AcDbPolyline
 90
        5
 70
     0
 43
0.0
 10
22741.5632742888
 20
-6263.752958715461
 10
22741.56186579427
 20
-6313.752958691014
 10
23550.55854041504
 20
-6313.773035977768
 10
23550.56015818684
 20
-6263.773036007163
 10
22741.5632742888
 20
-6263.752958715461
  0
LWPOLYLINE
  5
25C
330
1F
100
AcDbEntity
  8
Ech.1_5
  6
Continuous
 62
   190
370
    15
390
5F
100
AcDbPolyline
 90
        5
 70
     0
 43
0.0
 10
9116.32829549663
 20
-4703.211407923024
 10
31769.28913838763
 20
-4703.211407923024
 10
31769.28913838763
 20
-7141.735316998213
 10
9116.32829549663
 20
-7141.735316998213
 10
9116.32829549663
 20
-4703.211407923024
  0
HATCH
  5
25E
330
1F
100
AcDbEntity
  8
Ech.1_5
  6
Continuous
 62
   254
420
 14407639
440
 33554687
370
     5
390
5F
100
AcDbHatch
 10
0.0
 20
0.0
 30
0.0
210
0.0
220
0.0
230
1.0
  2
SOLID
 70
     1
 71
     0
 91
        1
 92
        3
 72
     0
 73
     1
 93
        4
 10
22691.56186579095
 20
-5496.747687596046
 10
22678.5618657913
 20
-5496.747687596046
 10
22678.56186579363
 20
-6313.753416451601
 10
22691.56186579399
 20
-6313.753416451543
 97
        0
 75
     0
 76
     1
 98
        0
  0
HATCH
  5
25F
330
1F
100
AcDbEntity
  8
Ech.1_5
  6
Continuous
 62
   190
440
 33554687
370
    15
390
25D
100
AcDbHatch
 10
0.0
 20
0.0
 30
0.0
210
0.0
220
0.0
230
1.0
  2
CwHatchPattern_84
 70
     0
 71
     0
 91
        1
 92
        3
 72
     0
 73
     1
 93
        4
 10
22691.56186579095
 20
-5496.747687596046
 10
22678.5618657913
 20
-5496.747687596046
 10
22678.56186579363
 20
-6313.753416451601
 10
22691.56186579399
 20
-6313.753416451543
 97
        0
 75
     0
 76
     2
 52
0.0
 41
1.0
 77
     0
 78
     2
 53
0.0
 43
0.0
 44
0.0
 45
0.0
 46
70.0
 79
     2
 49
0.0
 49
-70.0
 53
0.0
 43
35.0
 44
35.0
 45
0.0
 46
70.0
 79
     2
 49
0.0
 49
-70.0
 98
        0
1001
ACAD
1010
0.0
1020
0.0
1030
0.0
  0
LWPOLYLINE
  5
260
330
1F
100
AcDbEntity
  8
Ech.1_5
  6
Continuous
 62
   190
370
    15
390
5F
100
AcDbPolyline
 90
        5
 70
     0
 43
0.0
 10
22691.56186579095
 20
-5496.747687596046
 10
22678.5618657913
 20
-5496.747687596046
 10
22678.56186579363
 20
-6313.753416451601
 10
22691.56186579399
 20
-6313.753416451543
 10
22691.56186579095
 20
-5496.747687596046
  0
HATCH
  5
261
330
1F
100
AcDbEntity
  8
Ech.1_5
  6
Continuous
 62
   254
420
 14407639
440
 33554687
370
     5
390
5F
100
AcDbHatch
 10
0.0
 20
0.0
 30
0.0
210
0.0
220
0.0
230
1.0
  2
SOLID
 70
     1
 71
     0
 91
        1
 92
        3
 72
     0
 73
     1
 93
        4
 10
22678.56209467401
 20
-6313.753416451426
 10
22678.56163691326
 20
-6326.753416443394
 10
23550.55821758391
 20
-6326.773248776711
 10
23550.55874335975
 20
-6313.773248785908
 97
        0
 75
     0
 76
     1
 98
        0
  0
HATCH
  5
262
330
1F
100
AcDbEntity
  8
Ech.1_5
  6
Continuous
 62
   190
440
 33554687
370
    15
390
25D
100
AcDbHatch
 10
0.0
 20
0.0
 30
0.0
210
0.0
220
0.0
230
1.0
  2
CwHatchPattern_84
 70
     0
 71
     0
 91
        1
 92
        3
 72
     0
 73
     1
 93
        4
 10
22678.56209467401
 20
-6313.753416451426
 10
22678.56163691326
 20
-6326.753416443394
 10
23550.55821758391
 20
-6326.773248776711
 10
23550.55874335975
 20
-6313.773248785908
 97
        0
 75
     0
 76
     2
 52
0.0
 41
1.0
 77
     0
 78
     2
 53
0.0
 43
0.0
 44
0.0
 45
0.0
 46
70.0
 79
     2
 49
0.0
 49
-70.0
 53
0.0
 43
35.0
 44
35.0
 45
0.0
 46
70.0
 79
     2
 49
0.0
 49
-70.0
 98
        0
1001
ACAD
1010
0.0
1020
0.0
1030
0.0
  0
LWPOLYLINE
  5
263
330
1F
100
AcDbEntity
  8
Ech.1_5
  6
Continuous
 62
   190
370
    15
390
5F
100
AcDbPolyline
 90
        5
 70
     0
 43
0.0
 10
22678.56209467401
 20
-6313.753416451426
 10
22678.56163691326
 20
-6326.753416443394
 10
23550.55821758391
 20
-6326.773248776711
 10
23550.55874335975
 20
-6313.773248785908
 10
22678.56209467401
 20
-6313.753416451426
  0
LWPOLYLINE
  5
264
330
1F
100
AcDbEntity
  8
Ech.1_5
  6
Continuous
 62
   190
370
    15
390
5F
100
AcDbPolyline
 90
        6
 70
     0
 43
0.0
 10
23005.35773934709
 20
-5496.748189194744
 10
22831.35773934709
 20
-5496.748189196024
 10
22814.87223619133
 20
-5514.72553760358
 10
22828.98217620883
 20
-5478.769837591656
 10
22812.49582212748
 20
-5496.748189196199
 10
22659.49582212748
 20
-5496.748189196606
  0
LWPOLYLINE
  5
265
330
1F
100
AcDbEntity
  8
Ech.1_5
  6
Continuous
 62
   190
370
    15
390
5F
100
AcDbPolyline
 90
        6
 70
     0
 43
0.0
 10
23550.56884655307
 20
-6033.81696883994
 10
23550.56303561089
 20
-6166.816968713048
 10
23568.53980351357
 20
-6183.303104883676
 10
23532.58460036843
 20
-6169.191898789349
 10
23550.56237143818
 20
-6185.678885920938
 10
23550.55660114786
 20
-6381.678885826351
  0
HATCH
  5
266
330
1F
100
AcDbEntity
  8
Ech.1_5
  6
Continuous
 62
   190
440
 33554687
370
    15
390
5F
100
AcDbHatch
 10
0.0
 20
0.0
 30
0.0
210
0.0
220
0.0
230
1.0
  2
SOLID
 70
     1
 71
     0
 91
        1
 92
        3
 72
     0
 73
     1
 93
       12
 10
22733.56186579399
 20
-6283.753416201075
 10
22733.56186579399
 20
-6285.753416201075
 10
22737.56186579399
 20
-6285.753416201075
 10
22737.56186579399
 20
-6311.753416201075
 10
22693.56186579399
 20
-6311.753416201075
 10
22693.56186579399
 20
-6285.753416201075
 10
22697.56186579399
 20
-6285.753416201075
 10
22697.56186579399
 20
-6283.753416201075
 10
22691.56186579399
 20
-6283.753416201075
 10
22691.56186579399
 20
-6313.753416451543
 10
22739.56186579399
 20
-6313.753416451543
 10
22739.55775423622
 20
-6283.753416201075
 97
        0
 75
     0
 76
     1
 98
        0
  0
LWPOLYLINE
  5
267
330
1F
100
AcDbEntity
  8
Ech.1_5
  6
Continuous
 62
   190
370
    15
390
5F
100
AcDbPolyline
 90
       13
 70
     0
 43
0.0
 10
22733.56186579399
 20
-6283.753416201075
 10
22733.56186579399
 20
-6285.753416201075
 10
22737.56186579399
 20
-6285.753416201075
 10
22737.56186579399
 20
-6311.753416201075
 10
22693.56186579399
 20
-6311.753416201075
 10
22693.56186579399
 20
-6285.753416201075
 10
22697.56186579399
 20
-6285.753416201075
 10
22697.56186579399
 20
-6283.753416201075
 10
22691.56186579399
 20
-6283.753416201075
 10
22691.56186579399
 20
-6313.753416451543
 10
22739.56186579399
 20
-6313.753416451543
 10
22739.55775423622
 20
-6283.753416201075
 10
22733.56186579399
 20
-6283.753416201075
  0
HATCH
  5
268
330
1F
100
AcDbEntity
  8
Ech.1_5
  6
Continuous
 62
   190
440
 33554687
370
    15
390
5F
100
AcDbHatch
 10
0.0
 20
0.0
 30
0.0
210
0.0
220
0.0
230
1.0
  2
SOLID
 70
     1
 71
     0
 91
        1
 92
        3
 72
     0
 73
     1
 93
       12
 10
22771.56186604476
 20
-6307.752958691014
 10
22769.56186604476
 20
-6307.752958691014
 10
22769.56186604476
 20
-6311.752958691014
 10
22743.56186604476
 20
-6311.752958691014
 10
22743.56186604476
 20
-6267.752958691014
 10
22769.56186604476
 20
-6267.752958691014
 10
22769.56186604476
 20
-6271.752958691014
 10
22771.56186604476
 20
-6271.752958691014
 10
22771.56186604476
 20
-6265.752958691014
 10
22741.56186579427
 20
-6265.752958691014
 10
22741.56186579427
 20
-6313.752958691014
 10
22771.56186604476
 20
-6313.748847133223
 97
        0
 75
     0
 76
     1
 98
        0
  0
LWPOLYLINE
  5
269
330
1F
100
AcDbEntity
  8
Ech.1_5
  6
Continuous
 62
   190
370
    15
390
5F
100
AcDbPolyline
 90
       13
 70
     0
 43
0.0
 10
22771.56186604476
 20
-6307.752958691014
 10
22769.56186604476
 20
-6307.752958691014
 10
22769.56186604476
 20
-6311.752958691014
 10
22743.56186604476
 20
-6311.752958691014
 10
22743.56186604476
 20
-6267.752958691014
 10
22769.56186604476
 20
-6267.752958691014
 10
22769.56186604476
 20
-6271.752958691014
 10
22771.56186604476
 20
-6271.752958691014
 10
22771.56186604476
 20
-6265.752958691014
 10
22741.56186579427
 20
-6265.752958691014
 10
22741.56186579427
 20
-6313.752958691014
 10
22771.56186604476
 20
-6313.748847133223
 10
22771.56186604476
 20
-6307.752958691014
  0
HATCH
  5
26A
330
1F
100
AcDbEntity
  8
Ech.1_5
  6
Continuous
 62
   190
440
 33554687
370
    15
390
5F
100
AcDbHatch
 10
0.0
 20
0.0
 30
0.0
210
0.0
220
0.0
230
1.0
  2
SOLID
 70
     1
 71
     0
 91
        1
 92
        3
 72
     0
 73
     1
 93
       12
 10
23324.67131403805
 20
-6307.752958691014
 10
23322.67131403805
 20
-6307.752958691014
 10
23322.67131403805
 20
-6311.752958691014
 10
23296.67131403805
 20
-6311.752958691014
 10
23296.67131403805
 20
-6267.752958691014
 10
23322.67131403805
 20
-6267.752958691014
 10
23322.67131403805
 20
-6271.752958691014
 10
23324.67131403805
 20
-6271.752958691014
 10
23324.67131403805
 20
-6265.752958691014
 10
23294.67131378757
 20
-6265.752958691014
 10
23294.67131378757
 20
-6313.752958691014
 10
23324.67131403805
 20
-6313.748847133223
 97
        0
 75
     0
 76
     1
 98
        0
  0
LWPOLYLINE
  5
26B
330
1F
100
AcDbEntity
  8
Ech.1_5
  6
Continuous
 62
   190
370
    15
390
5F
100
AcDbPolyline
 90
       13
 70
     0
 43
0.0
 10
23324.67131403805
 20
-6307.752958691014
 10
23322.67131403805
 20
-6307.752958691014
 10
23322.67131403805
 20
-6311.752958691014
 10
23296.67131403805
 20
-6311.752958691014
 10
23296.67131403805
 20
-6267.752958691014
 10
23322.67131403805
 20
-6267.752958691014
 10
23322.67131403805
 20
-6271.752958691014
 10
23324.67131403805
 20
-6271.752958691014
 10
23324.67131403805
 20
-6265.752958691014
 10
23294.67131378757
 20
-6265.752958691014
 10
23294.67131378757
 20
-6313.752958691014
 10
23324.67131403805
 20
-6313.748847133223
 10
23324.67131403805
 20
-6307.752958691014
  0
HATCH
  5
26C
330
1F
100
AcDbEntity
  8
Ech.1_5
  6
Continuous
 62
   190
440
 33554687
370
    15
390
5F
100
AcDbHatch
 10
0.0
 20
0.0
 30
0.0
210
0.0
220
0.0
230
1.0
  2
SOLID
 70
     1
 71
     0
 91
        1
 92
        3
 72
     0
 73
     1
 93
       12
 10
22733.56186579399
 20
-5669.329405852627
 10
22733.56186579399
 20
-5671.329405852627
 10
22737.56186579399
 20
-5671.329405852627
 10
22737.56186579399
 20
-5697.329405852627
 10
22693.56186579399
 20
-5697.329405852627
 10
22693.56186579399
 20
-5671.329405852627
 10
22697.56186579399
 20
-5671.329405852627
 10
22697.56186579399
 20
-5669.329405852627
 10
22691.56186579399
 20
-5669.329405852627
 10
22691.56186579399
 20
-5699.329406103095
 10
22739.56186579399
 20
-5699.329406103095
 10
22739.55775423622
 20
-5669.329405852627
 97
        0
 75
     0
 76
     1
 98
        0
  0
LWPOLYLINE
  5
26D
330
1F
100
AcDbEntity
  8
Ech.1_5
  6
Continuous
 62
   190
370
    15
390
5F
100
AcDbPolyline
 90
       13
 70
     0
 43
0.0
 10
22733.56186579399
 20
-5669.329405852627
 10
22733.56186579399
 20
-5671.329405852627
 10
22737.56186579399
 20
-5671.329405852627
 10
22737.56186579399
 20
-5697.329405852627
 10
22693.56186579399
 20
-5697.329405852627
 10
22693.56186579399
 20
-5671.329405852627
 10
22697.56186579399
 20
-5671.329405852627
 10
22697.56186579399
 20
-5669.329405852627
 10
22691.56186579399
 20
-5669.329405852627
 10
22691.56186579399
 20
-5699.329406103095
 10
22739.56186579399
 20
-5699.329406103095
 10
22739.55775423622
 20
-5669.329405852627
 10
22733.56186579399
 20
-5669.329405852627
  0
LWPOLYLINE
  5
26E
330
1F
100
AcDbEntity
  8
Ech.1_5
  6
Continuous
 62
   190
370
    15
390
5F
100
AcDbPolyline
 90
      194
 70
     0
 43
0.0
 10
22741.56207260689
 20
-6305.419625361018
 42
1.140281805121051
 10
22757.94484004528
 20
-6303.263201707833
 10
22750.18013240897
 20
-6274.243336132121
 42
-1.30322618685527
 10
22766.27889357143
 20
-6274.243735663335
 10
22758.5127455428
 20
-6303.263215801829
 42
1.30322618685649
 10
22774.61150670527
 20
-6303.263615333072
 10
22766.84679906895
 20
-6274.24374975736
 42
-1.303226186857078
 10
22782.94556023141
 20
-6274.244149288604
 10
22775.17941220279
 20
-6303.263629427097
 42
1.303226186854682
 10
22791.27817336525
 20
-6303.264028958311
 10
22783.51346572894
 20
-6274.244163382599
 42
-1.303226186857078
 10
22799.6122268914
 20
-6274.244562913843
 10
22791.84607886277
 20
-6303.264043052307
 42
1.303226186854682
 10
22807.94484002524
 20
-6303.26444258358
 10
22800.18013238892
 20
-6274.244577007838
 42
-1.303226186853462
 10
22816.27889355138
 20
-6274.244976539082
 10
22808.51274552276
 20
-6303.264456677575
 42
1.303226186854682
 10
22824.61150668522
 20
-6303.26485620879
 10
22816.84679904891
 20
-6274.244990633078
 42
-1.30322618685649
 10
22832.94556021137
 20
-6274.245390164321
 10
22825.17941218275
 20
-6303.264870302785
 42
1.303226186858886
 10
22841.27817334521
 20
-6303.265269834058
 10
22833.51346570889
 20
-6274.245404258346
 42
-1.303226186854682
 10
22849.61222687136
 20
-6274.24580378956
 10
22841.84607884273
 20
-6303.265283928054
 42
1.30322618685527
 10
22857.94484000519
 20
-6303.265683459268
 10
22850.18013236888
 20
-6274.245817883556
 42
-1.303226186858297
 10
22866.27889353134
 20
-6274.246217414829
 10
22858.51274550272
 20
-6303.265697553293
 42
1.303226186857078
 10
22874.61150666518
 20
-6303.266097084536
 10
22866.84679902886
 20
-6274.246231508824
 42
-1.303226186854682
 10
22882.94556019133
 20
-6274.246631040039
 10
22875.1794121627
 20
-6303.266111178532
 42
1.303226186853462
 10
22891.27817332516
 20
-6303.266510709776
 10
22883.51346568885
 20
-6274.246645134034
 42
-1.303226186854682
 10
22899.61222685131
 20
-6274.247044665307
 10
22891.84607882269
 20
-6303.266524803771
 42
1.303226186857078
 10
22907.94483998515
 20
-6303.266924335015
 10
22900.18013234883
 20
-6274.247058759302
 42
-1.303226186854682
 10
22916.2788935113
 20
-6274.247458290517
 10
22908.51274548267
 20
-6303.26693842901
 42
1.30322618685649
 10
22924.61150664514
 20
-6303.267337960254
 10
22916.84679900882
 20
-6274.247472384542
 42
-1.30322618685649
 10
22932.94556017128
 20
-6274.247871915785
 10
22925.17941214266
 20
-6303.267352054278
 42
1.303226186854682
 10
22941.27817330512
 20
-6303.267751585493
 10
22933.5134656688
 20
-6274.247886009781
 42
-1.30322618685649
 10
22949.61222683127
 20
-6274.248285541024
 10
22941.84607880264
 20
-6303.267765679489
 42
1.303226186854682
 10
22957.94483996511
 20
-6303.268165210761
 10
22950.18013232879
 20
-6274.24829963502
 42
-1.303226186853462
 10
22966.27889349125
 20
-6274.248699166264
 10
22958.51274546263
 20
-6303.268179304757
 42
1.303226186854682
 10
22974.61150662509
 20
-6303.268578835971
 10
22966.84679898878
 20
-6274.248713260259
 42
-1.303226186857078
 10
22982.94556015124
 20
-6274.249112791503
 10
22975.17941212261
 20
-6303.268592929967
 42
1.303226186858297
 10
22991.27817328508
 20
-6303.26899246124
 10
22983.51346564876
 20
-6274.249126885527
 42
-1.30322618685527
 10
22999.61222681122
 20
-6274.249526416742
 10
22991.8460787826
 20
-6303.269006555235
 42
1.303226186854682
 10
23007.94483994506
 20
-6303.26940608645
 10
23000.18013230875
 20
-6274.249540510737
 42
-1.303226186858886
 10
23016.27889347121
 20
-6274.24994004201
 10
23008.51274544258
 20
-6303.269420180474
 42
1.30322618685649
 10
23024.61150660505
 20
-6303.269819711718
 10
23016.84679896873
 20
-6274.249954136006
 42
-1.303226186854682
 10
23032.9455601312
 20
-6274.25035366722
 10
23025.17941210257
 20
-6303.269833805713
 42
1.303226186853462
 10
23041.27817326503
 20
-6303.270233336957
 10
23033.51346562872
 20
-6274.250367761216
 42
-1.303226186854682
 10
23049.61222679119
 20
-6274.250767292488
 10
23041.84607876256
 20
-6303.270247430953
 42
1.303226186857078
 10
23057.94483992502
 20
-6303.270646962196
 10
23050.1801322887
 20
-6274.250781386484
 42
-1.303226186854682
 10
23066.27889345117
 20
-6274.251180917699
 10
23058.51274542254
 20
-6303.270661056192
 42
1.303226186857078
 10
23074.611506585
 20
-6303.271060587435
 10
23066.84679894869
 20
-6274.251195011723
 42
-1.30322618685649
 10
23082.94556011115
 20
-6274.251594542967
 10
23075.17941208253
 20
-6303.27107468146
 42
1.30322618685527
 10
23091.27817324499
 20
-6303.271474212675
 10
23083.51346560867
 20
-6274.251608636962
 42
-1.30322618685649
 10
23099.61222677114
 20
-6274.252008168206
 10
23091.84607874251
 20
-6303.27148830667
 42
1.303226186855271
 10
23107.94483990497
 20
-6303.271887837943
 10
23100.18013226866
 20
-6274.252022262202
 42
-1.303226186852874
 10
23116.27889343112
 20
-6274.252421793445
 10
23108.5127454025
 20
-6303.271901931938
 42
1.303226186854682
 10
23124.61150656496
 20
-6303.272301463153
 10
23116.84679892864
 20
-6274.252435887441
 42
-1.30322618685649
 10
23132.94556009111
 20
-6274.252835418684
 10
23125.17941206248
 20
-6303.272315557148
 42
1.303226186858297
 10
23141.27817322495
 20
-6303.272715088421
 10
23133.51346558864
 20
-6274.252849512709
 42
-1.30322618685527
 10
23149.61222675109
 20
-6274.253249043923
 10
23141.84607872247
 20
-6303.272729182417
 42
1.303226186854682
 10
23157.94483988493
 20
-6303.273128713631
 10
23150.18013224862
 20
-6274.253263137919
 42
-1.303226186858886
 10
23166.27889341108
 20
-6274.253662669192
 10
23158.51274538245
 20
-6303.273142807656
 42
1.30322618685649
 10
23174.61150654492
 20
-6303.273542338899
 10
23166.84679890861
 20
-6274.253676763187
 42
-1.30322618685527
 10
23182.94556007106
 20
-6274.254076294402
 10
23175.17941204244
 20
-6303.273556432895
 42
1.30322618685649
 10
23191.2781732049
 20
-6303.273955964139
 10
23183.51346556859
 20
-6274.254090388426
 42
-1.303226186857078
 10
23199.61222673105
 20
-6274.25448991967
 10
23191.84607870242
 20
-6303.273970058134
 42
1.30322618685649
 10
23207.94483986489
 20
-6303.274369589378
 10
23200.18013222858
 20
-6274.254504013666
 42
-1.30322618685527
 10
23216.27889339103
 20
-6274.25490354488
 10
23208.51274536241
 20
-6303.274383683373
 42
1.30322618685649
 10
23224.61150652487
 20
-6303.274783214617
 10
23216.84679888856
 20
-6274.254917638905
 42
-1.30322618685649
 10
23232.94556005103
 20
-6274.255317170148
 10
23225.1794120224
 20
-6303.274797308642
 42
1.30322618685527
 10
23241.27817318486
 20
-6303.275196839856
 10
23233.51346554855
 20
-6274.255331264144
 42
-1.30322618685649
 10
23249.61222671101
 20
-6274.255730795388
 10
23241.84607868239
 20
-6303.275210933852
 42
1.303226186855271
 10
23257.94483984484
 20
-6303.275610465124
 10
23250.18013220853
 20
-6274.255744889383
 42
-1.303226186852874
 10
23266.278893371
 20
-6274.256144420627
 10
23258.51274534237
 20
-6303.27562455912
 42
1.30322618685527
 10
23274.61150650483
 20
-6303.276024090334
 10
23266.84679886852
 20
-6274.256158514622
 42
-1.30322618685649
 10
23282.94556003098
 20
-6274.256558045866
 10
23275.17941200236
 20
-6303.276038184359
 42
1.303226186857078
 10
23291.27817316481
 20
-6303.276437715603
 10
23283.5134655285
 20
-6274.256572139891
 42
-1.303226186854682
 10
23299.61222669097
 20
-6274.256971671105
 10
23291.84607866234
 20
-6303.276451809598
 42
1.303226186852874
 10
23307.94483982481
 20
-6303.276851340842
 10
23300.18013218849
 20
-6274.256985765101
 42
-1.303226186854682
 10
23316.27889335095
 20
-6274.257385296373
 10
23308.51274532232
 20
-6303.276865434837
 42
1.30322618685649
 10
23324.61150648479
 20
-6303.277264966081
 10
23316.84679884847
 20
-6274.257399390369
 42
-1.303226186854682
 10
23332.94556001094
 20
-6274.257798921583
 10
23325.17941198231
 20
-6303.277279060077
 42
1.30322618685649
 10
23341.27817314478
 20
-6303.27767859132
 10
23333.51346550846
 20
-6274.257813015608
 42
-1.303226186857078
 10
23349.61222667092
 20
-6274.258212546852
 10
23341.84607864229
 20
-6303.277692685316
 42
1.30322618685649
 10
23357.94483980476
 20
-6303.278092216559
 10
23350.18013216845
 20
-6274.258226640847
 42
-1.303226186857078
 10
23366.27889333091
 20
-6274.258626172091
 10
23358.51274530228
 20
-6303.278106310555
 42
1.30322618685649
 10
23374.61150646475
 20
-6303.278505841799
 10
23366.84679882843
 20
-6274.258640266086
 42
-1.303226186857078
 10
23382.94555999089
 20
-6274.25903979733
 10
23375.17941196226
 20
-6303.278519935823
 42
1.303226186854682
 10
23391.27817312473
 20
-6303.278919467038
 10
23383.51346548842
 20
-6274.259053891325
 42
-1.303226186857078
 10
23399.61222665088
 20
-6274.259453422569
 10
23391.84607862225
 20
-6303.278933561033
 42
1.303226186858297
 10
23407.94483978472
 20
-6303.279333092306
 10
23400.1801321484
 20
-6274.259467516594
 42
-1.30322618685527
 10
23416.27889331086
 20
-6274.259867047808
 10
23408.51274528223
 20
-6303.279347186301
 42
1.303226186854682
 10
23424.6115064447
 20
-6303.279746717516
 10
23416.84679880839
 20
-6274.259881141804
 42
-1.303226186858297
 10
23432.94555997085
 20
-6274.260280673077
 10
23425.17941194223
 20
-6303.279760811541
 42
1.303226186857078
 10
23441.27817310469
 20
-6303.280160342784
 10
23433.51346546837
 20
-6274.260294767072
 42
-1.303226186854682
 10
23449.61222663084
 20
-6274.260694298287
 10
23441.84607860221
 20
-6303.28017443678
 42
1.303226186853462
 10
23457.94483976467
 20
-6303.280573968023
 10
23450.18013212836
 20
-6274.260708392282
 42
-1.303226186854682
 10
23466.27889329082
 20
-6274.261107923555
 10
23458.5127452622
 20
-6303.280588062019
 42
1.303226186857078
 10
23474.61150642466
 20
-6303.280987593263
 10
23466.84679878834
 20
-6274.26112201755
 42
-1.303226186854682
 10
23482.94555995081
 20
-6274.261521548765
 10
23475.17941192218
 20
-6303.281001687258
 42
1.303226186857078
 10
23491.27817308464
 20
-6303.281401218502
 10
23483.51346544833
 20
-6274.26153564279
 42
-1.30322618685649
 10
23499.61222661079
 20
-6274.261935174033
 10
23491.84607858217
 20
-6303.281415312526
 42
1.303226186854682
 10
23507.94483974463
 20
-6303.281814843741
 10
23500.18013210831
 20
-6274.261949268029
 42
-1.30322618685649
 10
23516.27889327078
 20
-6274.262348799272
 10
23508.51274524215
 20
-6303.281828937736
 42
1.303226186854682
 10
23524.61150640462
 20
-6303.282228469009
 10
23516.8467987683
 20
-6274.262362893268
 42
-1.303226186852874
 10
23532.94555993076
 20
-6274.262762424511
 10
23525.17941190214
 20
-6303.282242563005
 42
1.303226186854682
 10
23541.2781730646
 20
-6303.282642094219
 10
23533.51346542829
 20
-6274.262776518507
 42
-1.303226186857078
 10
23549.61222659075
 20
-6274.263176049751
 10
23541.84607856212
 20
-6303.282656188215
 42
0.518160716816293
 10
23550.5585410713
 20
-6313.746592697314
  0
LWPOLYLINE
  5
26F
330
1F
100
AcDbEntity
  8
Ech.1_5
  6
Continuous
 62
   190
370
    15
390
5F
100
AcDbPolyline
 90
      196
 70
     0
 43
0.0
 10
22733.22853246089
 20
-6313.752958691043
 42
1.14028180511993
 10
22731.07170222852
 20
-6297.370244773168
 10
22702.05202935965
 20
-6305.13567260889
 42
-1.303226186855766
 10
22702.05202935959
 20
-6289.036911439883
 10
22731.07170222851
 20
-6296.802339275401
 42
1.303226186855766
 10
22731.07170222845
 20
-6280.703578106394
 10
22702.05202935959
 20
-6288.469005942145
 42
-1.303226186855766
 10
22702.05202935953
 20
-6272.370244773138
 10
22731.07170222845
 20
-6280.135672608657
 42
1.303226186855766
 10
22731.07170222839
 20
-6264.03691143965
 10
22702.05202935953
 20
-6271.802339275401
 42
-1.303226186855766
 10
22702.05202935947
 20
-6255.703578106394
 10
22731.07170222839
 20
-6263.469005941913
 42
1.303226186855766
 10
22731.07170222834
 20
-6247.370244772906
 10
22702.05202935947
 20
-6255.135672608628
 42
-1.303226186854862
 10
22702.05202935941
 20
-6239.036911439621
 10
22731.07170222834
 20
-6246.802339275139
 42
1.303226186854862
 10
22731.07170222828
 20
-6230.703578106132
 10
22702.05202935941
 20
-6238.469005941854
 42
-1.303226186855766
 10
22702.05202935935
 20
-6222.370244772847
 10
22731.07170222827
 20
-6230.135672608366
 42
1.303226186855766
 10
22731.07170222821
 20
-6214.036911439359
 10
22702.05202935935
 20
-6221.80233927511
 42
-1.303226186855766
 10
22702.05202935929
 20
-6205.703578106103
 10
22731.07170222821
 20
-6213.469005941622
 42
1.303226186855766
 10
22731.07170222815
 20
-6197.370244772615
 10
22702.05202935929
 20
-6205.135672608366
 42
-1.303226186855314
 10
22702.05202935923
 20
-6189.036911439359
 10
22731.07170222815
 20
-6196.802339274877
 42
1.303226186854862
 10
22731.0717022281
 20
-6180.70357810587
 10
22702.05202935923
 20
-6188.469005941593
 42
-1.303226186855766
 10
22702.05202935917
 20
-6172.370244772585
 10
22731.07170222809
 20
-6180.135672608104
 42
1.303226186855766
 10
22731.07170222803
 20
-6164.036911439097
 10
22702.05202935917
 20
-6171.802339274819
 42
-1.303226186855766
 10
22702.05202935911
 20
-6155.703578105812
 10
22731.07170222803
 20
-6163.469005941331
 42
1.303226186855766
 10
22731.07170222797
 20
-6147.370244772324
 10
22702.05202935911
 20
-6155.135672608075
 42
-1.303226186855766
 10
22702.05202935905
 20
-6139.036911439068
 10
22731.07170222797
 20
-6146.802339274586
 42
1.303226186855766
 10
22731.07170222791
 20
-6130.703578105579
 10
22702.05202935905
 20
-6138.469005941331
 42
-1.303226186855766
 10
22702.05202935899
 20
-6122.370244772324
 10
22731.07170222791
 20
-6130.135672607842
 42
1.303226186855766
 10
22731.07170222785
 20
-6114.036911438835
 10
22702.05202935899
 20
-6121.802339274557
 42
-1.303226186855766
 10
22702.05202935893
 20
-6105.70357810555
 10
22731.07170222785
 20
-6113.469005941069
 42
1.303226186855766
 10
22731.07170222779
 20
-6097.370244772062
 10
22702.05202935893
 20
-6105.135672607784
 42
-1.303226186855766
 10
22702.05202935887
 20
-6089.036911438777
 10
22731.07170222779
 20
-6096.802339274295
 42
1.303226186855766
 10
22731.07170222773
 20
-6080.703578105288
 10
22702.05202935886
 20
-6088.46900594104
 42
-1.303226186854862
 10
22702.05202935881
 20
-6072.370244772032
 10
22731.07170222772
 20
-6080.135672607551
 42
1.303226186855766
 10
22731.07170222767
 20
-6064.036911438544
 10
22702.05202935881
 20
-6071.802339274295
 42
-1.303226186855766
 10
22702.05202935875
 20
-6055.703578105288
 10
22731.07170222767
 20
-6063.469005940807
 42
1.303226186855766
 10
22731.07170222761
 20
-6047.3702447718
 10
22702.05202935875
 20
-6055.135672607551
 42
-1.303226186855766
 10
22702.05202935869
 20
-6039.036911438544
 10
22731.07170222761
 20
-6046.802339274062
 42
1.303226186855766
 10
22731.07170222755
 20
-6030.703578105055
 10
22702.05202935868
 20
-6038.469005940778
 42
-1.303226186854862
 10
22702.05202935862
 20
-6022.370244771771
 10
22731.07170222755
 20
-6030.135672607289
 42
1.303226186854862
 10
22731.07170222749
 20
-6014.036911438282
 10
22702.05202935862
 20
-6021.802339274004
 42
-1.303226186855766
 10
22702.05202935857
 20
-6005.703578104997
 10
22731.07170222748
 20
-6013.469005940516
 42
1.303226186855766
 10
22731.07170222743
 20
-5997.370244771509
 10
22702.05202935857
 20
-6005.13567260726
 42
-1.303226186855766
 10
22702.05202935851
 20
-5989.036911438253
 10
22731.07170222743
 20
-5996.802339273771
 42
1.303226186855766
 10
22731.07170222737
 20
-5980.703578104764
 10
22702.05202935851
 20
-5988.469005940516
 42
-1.303226186855766
 10
22702.05202935845
 20
-5972.370244771509
 10
22731.07170222737
 20
-5980.135672607027
 42
1.303226186855766
 10
22731.07170222731
 20
-5964.03691143802
 10
22702.05202935844
 20
-5971.802339273742
 42
-1.303226186855766
 10
22702.05202935838
 20
-5955.703578104735
 10
22731.0717022273
 20
-5963.469005940254
 42
1.303226186855766
 10
22731.07170222724
 20
-5947.370244771247
 10
22702.05202935838
 20
-5955.135672606969
 42
-1.303226186855766
 10
22702.05202935832
 20
-5939.036911437962
 10
22731.07170222724
 20
-5946.80233927348
 42
1.303226186855766
 10
22731.07170222719
 20
-5930.703578104473
 10
22702.05202935832
 20
-5938.469005940225
 42
-1.303226186855766
 10
22702.05202935827
 20
-5922.370244771218
 10
22731.07170222719
 20
-5930.135672606736
 42
1.303226186855766
 10
22731.07170222713
 20
-5914.036911437729
 10
22702.05202935826
 20
-5921.80233927348
 42
-1.303226186855766
 10
22702.0520293582
 20
-5905.703578104473
 10
22731.07170222712
 20
-5913.469005939992
 42
1.303226186855766
 10
22731.07170222706
 20
-5897.370244770985
 10
22702.0520293582
 20
-5905.135672606707
 42
-1.303226186855766
 10
22702.05202935814
 20
-5889.0369114377
 10
22731.07170222706
 20
-5896.802339273218
 42
1.303226186855766
 10
22731.071702227
 20
-5880.703578104211
 10
22702.05202935814
 20
-5888.469005939934
 42
-1.303226186855766
 10
22702.05202935808
 20
-5872.370244770927
 10
22731.071702227
 20
-5880.135672606445
 42
1.303226186855766
 10
22731.07170222695
 20
-5864.036911437438
 10
22702.05202935808
 20
-5871.802339273189
 42
-1.303226186854862
 10
22702.05202935802
 20
-5855.703578104182
 10
22731.07170222695
 20
-5863.469005939701
 42
1.303226186854862
 10
22731.07170222689
 20
-5847.370244770694
 10
22702.05202935802
 20
-5855.135672606445
 42
-1.303226186855766
 10
22702.05202935796
 20
-5839.036911437438
 10
22731.07170222688
 20
-5846.802339272956
 42
1.303226186855766
 10
22731.07170222682
 20
-5830.703578103949
 10
22702.05202935796
 20
-5838.469005939672
 42
-1.303226186855766
 10
22702.0520293579
 20
-5822.370244770665
 10
22731.07170222682
 20
-5830.135672606183
 42
1.303226186855766
 10
22731.07170222676
 20
-5814.036911437176
 10
22702.0520293579
 20
-5821.802339272898
 42
-1.303226186855766
 10
22702.05202935784
 20
-5805.703578103891
 10
22731.07170222676
 20
-5813.46900593941
 42
1.303226186855766
 10
22731.07170222671
 20
-5797.370244770403
 10
22702.05202935784
 20
-5805.135672606154
 42
-1.303226186855766
 10
22702.05202935778
 20
-5789.036911437147
 10
22731.0717022267
 20
-5796.802339272665
 42
1.303226186855766
 10
22731.07170222664
 20
-5780.703578103658
 10
22702.05202935778
 20
-5788.46900593941
 42
-1.303226186855766
 10
22702.05202935772
 20
-5772.370244770403
 10
22731.07170222664
 20
-5780.135672605921
 42
1.303226186855766
 10
22731.07170222658
 20
-5764.036911436914
 10
22702.05202935772
 20
-5771.802339272636
 42
-1.303226186855766
 10
22702.05202935766
 20
-5755.703578103629
 10
22731.07170222658
 20
-5763.469005939148
 42
1.303226186855766
 10
22731.07170222652
 20
-5747.370244770141
 10
22702.05202935766
 20
-5755.135672605863
 42
-1.303226186855766
 10
22702.0520293576
 20
-5739.036911436856
 10
22731.07170222652
 20
-5746.802339272374
 42
1.303226186855766
 10
22731.07170222646
 20
-5730.703578103367
 10
22702.0520293576
 20
-5738.469005939119
 42
-1.303226186855766
 10
22702.05202935754
 20
-5722.370244770112
 10
22731.07170222646
 20
-5730.13567260563
 42
1.303226186855766
 10
22731.0717022264
 20
-5714.036911436623
 10
22702.05202935754
 20
-5721.802339272374
 42
-1.303226186855766
 10
22702.05202935748
 20
-5705.703578103367
 10
22731.0717022264
 20
-5713.469005938886
 42
1.303226186855766
 10
22731.07170222634
 20
-5697.370244769879
 10
22702.05202935747
 20
-5705.135672605601
 42
-1.303226186854862
 10
22702.05202935742
 20
-5689.036911436594
 10
22731.07170222634
 20
-5696.802339272112
 42
1.303226186854862
 10
22731.07170222628
 20
-5680.703578103105
 10
22702.05202935742
 20
-5688.469005938828
 42
-1.303226186855766
 10
22702.05202935736
 20
-5672.370244769821
 10
22731.07170222628
 20
-5680.135672605339
 42
1.303226186855766
 10
22731.07170222622
 20
-5664.036911436332
 10
22702.05202935736
 20
-5671.802339272083
 42
-1.303226186855766
 10
22702.0520293573
 20
-5655.703578103076
 10
22731.07170222622
 20
-5663.469005938595
 42
1.303226186855766
 10
22731.07170222616
 20
-5647.370244769588
 10
22702.0520293573
 20
-5655.135672605339
 42
-1.303226186855766
 10
22702.05202935724
 20
-5639.036911436332
 10
22731.07170222616
 20
-5646.802339271851
 42
1.303226186854862
 10
22731.0717022261
 20
-5630.703578102843
 10
22702.05202935723
 20
-5638.469005938566
 42
-1.303226186855766
 10
22702.05202935718
 20
-5622.370244769559
 10
22731.07170222609
 20
-5630.135672605077
 42
1.303226186855766
 10
22731.07170222604
 20
-5614.03691143607
 10
22702.05202935718
 20
-5621.802339271792
 42
-1.303226186855766
 10
22702.05202935712
 20
-5605.703578102785
 10
22731.07170222604
 20
-5613.469005938304
 42
1.303226186855766
 10
22731.07170222598
 20
-5597.370244769297
 10
22702.05202935712
 20
-5605.135672605048
 42
-1.303226186855766
 10
22702.05202935706
 20
-5589.036911436041
 10
22731.07170222598
 20
-5596.80233927156
 42
1.303226186855766
 10
22731.07170222592
 20
-5580.703578102552
 10
22702.05202935705
 20
-5588.469005938304
 42
-1.30322618685341
 10
22702.05202935699
 20
-5572.370244769268
 10
22731.07170222591
 20
-5580.135672604815
 42
1.30322618685341
 10
22731.07170222585
 20
-5564.036911435779
 10
22702.05202935699
 20
-5571.802339271501
 42
-1.303226186855766
 10
22702.05202935694
 20
-5555.703578102494
 10
22731.07170222585
 20
-5563.469005938013
 42
1.303226186855766
 10
22731.0717022258
 20
-5547.370244769006
 10
22702.05202935694
 20
-5555.135672604757
 42
-1.303226186855766
 10
22702.05202935688
 20
-5539.03691143575
 10
22731.0717022258
 20
-5546.802339271268
 42
1.303226186855766
 10
22731.07170222574
 20
-5530.703578102261
 10
22702.05202935687
 20
-5538.469005938013
 42
-1.303226186854862
 10
22702.05202935681
 20
-5522.370244769006
 10
22731.07170222574
 20
-5530.135672604524
 42
1.303226186855314
 10
22731.07170222567
 20
-5514.036911435517
 10
22702.05202935681
 20
-5521.802339271239
 42
-1.303226186855766
 10
22702.05202935675
 20
-5505.703578102232
 10
22731.07170222567
 20
-5513.469005937751
 42
1.303226186855766
 10
22731.07170222561
 20
-5497.370244768744
 10
22702.05202935675
 20
-5505.135672604466
 42
-0.5058416609803958
 10
22691.56874781011
 20
-5496.747687596163
  0
LWPOLYLINE
  5
270
330
1F
100
AcDbEntity
  8
Ech.1_5
  6
Continuous
 62
   190
370
    15
390
5F
100
AcDbPolyline
 90
        5
 70
     0
 43
0.0
 10
22631.02427687583
 20
-6396.563815628911
 10
23616.02427687583
 20
-6396.563815628911
 10
23616.02427687583
 20
-6629.49385069963
 10
22631.02427687583
 20
-6629.49385069963
 10
22631.02427687583
 20
-6396.563815628911
  0
LWPOLYLINE
  5
271
330
1F
100
AcDbEntity
  8
Ech.1_5
  6
Continuous
 62
   190
370
    15
390
5F
100
AcDbPolyline
 90
        5
 70
     0
 43
0.0
 10
23616.02427687583
 20
-6492.080778634559
 10
22631.02427687583
 20
-6492.080778634559
 10
22631.02427687583
 20
-6396.563815628911
 10
23616.02427687583
 20
-6396.563815628911
 10
23616.02427687583
 20
-6492.080778634559
  0
LWPOLYLINE
  5
272
330
1F
100
AcDbEntity
  8
Ech.1_5
  6
Continuous
 62
   190
370
    15
390
5F
100
AcDbPolyline
 90
        5
 70
     0
 43
0.0
 10
23616.02427687583
 20
-6514.080778634559
 10
22631.02427687583
 20
-6514.080778634559
 10
22631.02427687583
 20
-6492.080778634559
 10
23616.02427687583
 20
-6492.080778634559
 10
23616.02427687583
 20
-6514.080778634559
  0
LWPOLYLINE
  5
273
330
1F
100
AcDbEntity
  8
Ech.1_5
  6
Continuous
 62
   190
370
    15
390
5F
100
AcDbPolyline
 90
        5
 70
     0
 43
0.0
 10
23616.02427687583
 20
-6570.951923864898
 10
22631.02427687583
 20
-6570.951923864898
 10
22631.02427687583
 20
-6547.224895554163
 10
23616.02427687583
 20
-6547.224895554163
 10
23616.02427687583
 20
-6570.951923864898
  0
LINE
  5
274
330
1F
100
AcDbEntity
  8
Ech.1_5
  6
Continuous
 62
   190
370
    15
390
5F
100
AcDbLine
 10
22819.22883883879
 20
-6492.080778634559
 30
0.0
 11
22819.22883883879
 21
-6514.080778634559
 31
0.0
  0
LINE
  5
275
330
1F
100
AcDbEntity
  8
Ech.1_5
  6
Continuous
 62
   190
370
    15
390
5F
100
AcDbLine
 10
23476.22694146933
 20
-6492.080778634559
 30
0.0
 11
23476.22694146933
 21
-6514.080778634559
 31
0.0
  0
LINE
  5
276
330
1F
100
AcDbEntity
  8
Ech.1_5
  6
Continuous
 62
   190
370
    15
390
5F
100
AcDbLine
 10
22975.38405683414
 20
-6492.080778634559
 30
0.0
 11
22975.38405683414
 21
-6514.080778634559
 31
0.0
  0
LWPOLYLINE
  5
277
330
1F
100
AcDbEntity
  8
Ech.1_5
  6
Continuous
 62
   190
370
    15
390
5F
100
AcDbPolyline
 90
        5
 70
     0
 43
0.0
 10
23616.02427687583
 20
-5274.493850699598
 10
22631.02427687583
 20
-5274.493850699598
 10
22631.02427687583
 20
-6629.49385069963
 10
23616.02427687583
 20
-6629.49385069963
 10
23616.02427687583
 20
-5274.493850699598
  0
LWPOLYLINE
  5
278
330
1F
100
AcDbEntity
  8
Ech.1_5
  6
CADWORK_22
 62
     1
 48
0.6
370
    35
390
5F
100
AcDbPolyline
 90
        5
 70
   128
 43
0.0
 10
23550.5627016302
 20
-6255.273036007163
 10
22873.31713766088
 20
-6255.273036007163
 10
22845.4871761709
 20
-6262.588467960687
 10
22744.41239174486
 20
-6262.588467960687
 10
22744.41239174486
 20
-6230.396332849229
  0
LWPOLYLINE
  5
279
330
1F
100
AcDbEntity
  8
Ech.1_5
 62
     3
370
    70
390
5F
100
AcDbPolyline
 90
        4
 70
     0
 43
0.0
 10
22744.84164355339
 20
-6209.378348342031
 10
22744.84164355339
 20
-6222.367481762082
 10
22739.16103059139
 20
-6226.302213902997
 10
22739.16103059139
 20
-6239.780643903888
  0
LWPOLYLINE
  5
27A
330
1F
100
AcDbEntity
  8
Ech.1_5
  6
CADWORK_22
 62
     1
 48
0.6
370
    35
390
5F
100
AcDbPolyline
 90
        3
 70
   128
 43
0.0
 10
22750.06186579013
 20
-5496.748189194744
 10
22750.06186579013
 20
-6255.252958715461
 10
22848.06186579818
 20
-6255.252958715461
  0
LWPOLYLINE
  5
27B
330
1F
100
AcDbEntity
  8
Ech.1_5
  6
Continuous
 62
   190
370
    15
390
5F
100
AcDbPolyline
 90
        4
 70
     0
 43
0.0
 10
23324.758483199
 20
-5622.011378466149
 10
23144.7584831987
 20
-5577.011378467022
 10
23144.758483199
 20
-5622.011378467138
 10
23324.7584831987
 20
-5577.011378466149
  0
LWPOLYLINE
  5
27C
330
1F
100
AcDbEntity
  8
Ech.1_5
  6
Continuous
 62
     5
370
    40
390
5F
100
AcDbPolyline
 90
        5
 70
     0
 43
0.0
 10
23324.75848320235
 20
-5397.011378466149
 10
23324.75848320332
 20
-5577.011378466149
 10
23279.75848320332
 20
-5577.01137846644
 10
23279.75848320235
 20
-5397.01137846644
 10
23324.75848320235
 20
-5397.011378466149
  0
LWPOLYLINE
  5
27D
330
1F
100
AcDbEntity
  8
Ech.1_5
  6
Continuous
 62
   190
370
    15
390
5F
100
AcDbPolyline
 90
        4
 70
     0
 43
0.0
 10
23279.75848320351
 20
-5577.011378466382
 10
23324.75848320243
 20
-5397.011378466149
 10
23279.75848320235
 20
-5397.01137846644
 10
23324.7584831987
 20
-5577.011378466149
  0
HATCH
  5
27E
330
1F
100
AcDbEntity
  8
Ech.1_5
  6
Continuous
 62
   254
420
 16643007
440
 33554687
370
    20
390
5F
100
AcDbHatch
 10
0.0
 20
0.0
 30
0.0
210
0.0
220
0.0
230
1.0
  2
SOLID
 70
     1
 71
     0
 91
        1
 92
        3
 72
     1
 73
     1
 93
        5
 10
23324.75848320351
 20
-5577.011378466033
 42
0.0
 10
23324.75848320188
 20
-5328.101919645575
 42
0.0815718029148027
 10
23264.97342755272
 20
-5318.283035640351
 42
0.1764458373855868
 10
23144.7584832008
 20
-5362.069085626227
 42
0.0
 10
23144.7584832022
 20
-5577.011378467138
 42
0.0
 97
        0
 75
     0
 76
     1
 98
        0
  0
LWPOLYLINE
  5
27F
330
1F
100
AcDbEntity
  8
Ech.1_5
  6
Continuous
 62
   190
370
    15
390
5F
100
AcDbPolyline
 90
        6
 70
   128
 43
0.0
 10
23324.75848320351
 20
-5577.011378466033
 10
23324.75848320188
 20
-5328.101919645575
 42
0.0815718029147733
 10
23264.97342755272
 20
-5318.283035640351
 42
0.1764458373855731
 10
23144.7584832008
 20
-5362.069085626227
 10
23144.7584832022
 20
-5577.011378467138
 10
23324.75848320351
 20
-5577.011378466033
  0
HATCH
  5
280
330
1F
100
AcDbEntity
  8
Ech.1_5
  6
Continuous
 62
   254
420
 16643007
440
 33554687
370
    20
390
5F
100
AcDbHatch
 10
0.0
 20
0.0
 30
0.0
210
0.0
220
0.0
230
1.0
  2
SOLID
 70
     1
 71
     0
 91
        1
 92
        3
 72
     1
 73
     1
 93
        3
 10
23433.75848328107
 20
-5442.009341393536
 42
0.0
 10
23433.75848320702
 20
-5585.514448014664
 42
0.1998466481692576
 10
23440.88625530096
 20
-5442.009620992075
 42
0.0
 97
        0
 75
     0
 76
     1
 98
        0
  0
LWPOLYLINE
  5
281
330
1F
100
AcDbEntity
  8
Ech.1_5
  6
Continuous
 62
   190
370
    15
390
5F
100
AcDbPolyline
 90
        4
 70
     0
 43
0.0
 10
23433.75848328107
 20
-5442.009341393536
 10
23433.75848320702
 20
-5585.514448014664
 42
0.1998466481692825
 10
23440.88625530096
 20
-5442.009620992075
 10
23433.75848328107
 20
-5442.009341393536
  0
HATCH
  5
282
330
1F
100
AcDbEntity
  8
Ech.1_5
  6
Continuous
 62
    33
420
 12426362
440
 33554687
370
     5
390
5F
100
AcDbHatch
 10
0.0
 20
0.0
 30
0.0
210
0.0
220
0.0
230
1.0
  2
SOLID
 70
     1
 71
     0
 91
        1
 92
        3
 72
     1
 73
     1
 93
        5
 10
23388.75848320116
 20
-5442.011378466149
 42
0.0
 10
23388.75848320213
 20
-5622.011378466149
 42
0.0
 10
23410.89814810524
 20
-5622.011378465978
 42
0.0577913987306825
 10
23433.75848320193
 20
-5585.514448025359
 42
0.0
 10
23433.75848320116
 20
-5442.0113784658
 42
0.0
 97
        0
 75
     0
 76
     1
 98
        0
  0
LINE
  5
283
330
1F
100
AcDbEntity
  8
Ech.1_5
  6
Continuous
 62
   190
370
    15
390
5F
100
AcDbLine
 10
23388.75848320213
 20
-5622.011378466149
 30
0.0
 11
23433.75848320116
 21
-5442.0113784658
 31
0.0
  0
LINE
  5
284
330
1F
100
AcDbEntity
  8
Ech.1_5
  6
Continuous
 62
   190
370
    15
390
5F
100
AcDbLine
 10
23410.89814810524
 20
-5622.011378465978
 30
0.0
 11
23388.75848320116
 21
-5442.011378466149
 31
0.0
  0
LWPOLYLINE
  5
285
330
1F
100
AcDbEntity
  8
Ech.1_5
  6
Continuous
 62
     5
370
    40
390
5F
100
AcDbPolyline
 90
        6
 70
     0
 43
0.0
 10
23388.75848320116
 20
-5442.011378466149
 10
23388.75848320213
 20
-5622.011378466149
 10
23410.89814810524
 20
-5622.011378465978
 42
0.0577913987307813
 10
23433.75848320193
 20
-5585.514448025359
 10
23433.75848320116
 20
-5442.0113784658
 10
23388.75848320116
 20
-5442.011378466149
  0
ARC
  5
286
330
1F
100
AcDbEntity
  8
Ech.1_5
  6
Continuous
 62
   254
420
 15656413
370
    20
390
5F
100
AcDbCircle
 10
23264.97342755269
 20
-5505.201597878602
 30
0.0
 40
186.9185622382594
100
AcDbArc
 50
32.05206445659225
 51
71.535488463175
  0
HATCH
  5
287
330
1F
100
AcDbEntity
  8
Ech.1_5
  6
Continuous
 62
    40
420
 16297258
440
 33554687
370
     5
390
5F
100
AcDbHatch
 10
0.0
 20
0.0
 30
0.0
210
0.0
220
0.0
230
1.0
  2
SOLID
 70
     1
 71
     0
 91
        1
 92
        3
 72
     1
 73
     1
 93
        4
 10
23344.75827192694
 20
-5442.005850214392
 42
0.0
 10
23440.88625530096
 20
-5442.009620992075
 42
0.0129169150571522
 10
23437.38818205202
 20
-5433.009483765251
 42
0.0
 10
23344.75869447534
 20
-5433.005850221784
 42
0.0
 97
        0
 75
     0
 76
     1
 98
        0
  0
HATCH
  5
288
330
1F
100
AcDbEntity
  8
Ech.1_5
  6
Continuous
 62
   190
440
 33554687
370
    15
390
5F
100
AcDbHatch
 10
0.0
 20
0.0
 30
0.0
210
0.0
220
0.0
230
1.0
  2
CwHatchPattern_74
 70
     0
 71
     0
 91
        1
 92
        3
 72
     1
 73
     1
 93
        4
 10
23344.75827192694
 20
-5442.005850214392
 42
0.0
 10
23440.88625530096
 20
-5442.009620992075
 42
0.0129169150571522
 10
23437.38818205202
 20
-5433.009483765251
 42
0.0
 10
23344.75869447534
 20
-5433.005850221784
 42
0.0
 97
        0
 75
     0
 76
     2
 52
0.0
 41
0.6000000238418579
 77
     0
 78
     3
 53
45.00000000000297
 43
0.0
 44
0.0
 45
-0.0000000000043443
 46
42.00000166893005
 79
     0
 53
45.00000000000297
 43
0.0
 44
10.80000042915344
 45
-0.0000000000043443
 46
42.00000166893005
 79
     0
 53
45.00000000000297
 43
0.0
 44
21.60000085830688
 45
-0.0000000000043443
 46
42.00000166893005
 79
     0
 98
        0
1001
ACAD
1010
0.0
1020
0.0
1030
0.0
  0
LWPOLYLINE
  5
289
330
1F
100
AcDbEntity
  8
Ech.1_5
  6
Continuous
 62
   190
370
    15
390
5F
100
AcDbPolyline
 90
        5
 70
     0
 43
0.0
 10
23344.75827192694
 20
-5442.005850214392
 10
23440.88625530096
 20
-5442.009620992075
 42
0.0129169150569419
 10
23437.38818205202
 20
-5433.009483765251
 10
23344.75869447534
 20
-5433.005850221784
 10
23344.75827192694
 20
-5442.005850214392
  0
ARC
  5
28A
330
1F
100
AcDbEntity
  8
Ech.1_5
  6
Continuous
 62
   190
370
    15
390
5F
100
AcDbCircle
 10
23294.75848320194
 20
-5322.011378466381
 30
0.0
 40
29.99999999999773
100
AcDbArc
 50
270.0000000003891
 51
348.6691504840131
  0
HATCH
  5
28B
330
1F
100
AcDbEntity
  8
Ech.1_5
  6
Continuous
 62
    33
420
 12426362
440
 33554687
370
     5
390
5F
100
AcDbHatch
 10
0.0
 20
0.0
 30
0.0
210
0.0
220
0.0
230
1.0
  2
SOLID
 70
     1
 71
     0
 91
        1
 92
        3
 72
     0
 73
     1
 93
        4
 10
23343.75848320116
 20
-5442.011378466149
 10
23343.75848320164
 20
-5532.008497511481
 10
23388.75848320165
 20
-5532.009380110679
 10
23388.75848320116
 20
-5442.0113784658
 97
        0
 75
     0
 76
     1
 98
        0
  0
LINE
  5
28C
330
1F
100
AcDbEntity
  8
Ech.1_5
  6
Continuous
 62
   190
370
    15
390
5F
100
AcDbLine
 10
23343.75848320164
 20
-5532.008497511481
 30
0.0
 11
23388.75848320116
 21
-5442.0113784658
 31
0.0
  0
LINE
  5
28D
330
1F
100
AcDbEntity
  8
Ech.1_5
  6
Continuous
 62
   190
370
    15
390
5F
100
AcDbLine
 10
23388.75848320165
 20
-5532.009380110679
 30
0.0
 11
23343.75848320116
 21
-5442.011378466149
 31
0.0
  0
LWPOLYLINE
  5
28E
330
1F
100
AcDbEntity
  8
Ech.1_5
  6
Continuous
 62
     5
370
    40
390
5F
100
AcDbPolyline
 90
        5
 70
     0
 43
0.0
 10
23343.75848320116
 20
-5442.011378466149
 10
23343.75848320164
 20
-5532.008497511481
 10
23388.75848320165
 20
-5532.009380110679
 10
23388.75848320116
 20
-5442.0113784658
 10
23343.75848320116
 20
-5442.011378466149
  0
HATCH
  5
28F
330
1F
100
AcDbEntity
  8
Ech.1_5
  6
Continuous
 62
    33
420
 12426362
440
 33554687
370
     5
390
5F
100
AcDbHatch
 10
0.0
 20
0.0
 30
0.0
210
0.0
220
0.0
230
1.0
  2
SOLID
 70
     1
 71
     0
 91
        1
 92
        3
 72
     0
 73
     1
 93
        4
 10
23378.75848320266
 20
-5622.0113784658
 10
23378.75848320218
 20
-5532.009380110679
 10
23333.75848320217
 20
-5532.008497511481
 10
23333.75848320266
 20
-5622.011378466149
 97
        0
 75
     0
 76
     1
 98
        0
  0
LINE
  5
290
330
1F
100
AcDbEntity
  8
Ech.1_5
  6
Continuous
 62
   190
370
    15
390
5F
100
AcDbLine
 10
23378.75848320218
 20
-5532.009380110679
 30
0.0
 11
23333.75848320266
 21
-5622.011378466149
 31
0.0
  0
LINE
  5
291
330
1F
100
AcDbEntity
  8
Ech.1_5
  6
Continuous
 62
   190
370
    15
390
5F
100
AcDbLine
 10
23333.75848320217
 20
-5532.008497511481
 30
0.0
 11
23378.75848320266
 21
-5622.0113784658
 31
0.0
  0
LWPOLYLINE
  5
292
330
1F
100
AcDbEntity
  8
Ech.1_5
  6
Continuous
 62
     5
370
    40
390
5F
100
AcDbPolyline
 90
        5
 70
     0
 43
0.0
 10
23378.75848320266
 20
-5622.0113784658
 10
23378.75848320218
 20
-5532.009380110679
 10
23333.75848320217
 20
-5532.008497511481
 10
23333.75848320266
 20
-5622.011378466149
 10
23378.75848320266
 20
-5622.0113784658
  0
HATCH
  5
293
330
1F
100
AcDbEntity
  8
Ech.1_5
  6
Continuous
 62
    33
420
 12426362
440
 33554687
370
     5
390
5F
100
AcDbHatch
 10
0.0
 20
0.0
 30
0.0
210
0.0
220
0.0
230
1.0
  2
SOLID
 70
     1
 71
     0
 91
        1
 92
        3
 72
     1
 73
     1
 93
        5
 10
23324.75848320243
 20
-5397.011378466149
 42
0.0
 10
23324.75848320214
 20
-5352.011378466145
 42
0.0
 10
23157.86924656123
 20
-5352.011378467069
 42
0.0221116232295454
 10
23144.7584832022
 20
-5362.069085625045
 42
0.0
 10
23144.75848320243
 20
-5397.011378467138
 42
0.0
 97
        0
 75
     0
 76
     1
 98
        0
  0
LINE
  5
294
330
1F
100
AcDbEntity
  8
Ech.1_5
  6
Continuous
 62
   190
370
    15
390
5F
100
AcDbLine
 10
23324.75848320214
 20
-5352.011378466145
 30
0.0
 11
23144.75848320243
 21
-5397.011378467138
 31
0.0
  0
LINE
  5
295
330
1F
100
AcDbEntity
  8
Ech.1_5
  6
Continuous
 62
   190
370
    15
390
5F
100
AcDbLine
 10
23144.7584832022
 20
-5362.069085625045
 30
0.0
 11
23324.75848320243
 21
-5397.011378466149
 31
0.0
  0
LWPOLYLINE
  5
296
330
1F
100
AcDbEntity
  8
Ech.1_5
  6
Continuous
 62
     5
370
    40
390
5F
100
AcDbPolyline
 90
        6
 70
     0
 43
0.0
 10
23324.75848320243
 20
-5397.011378466149
 10
23324.75848320214
 20
-5352.011378466145
 10
23157.86924656123
 20
-5352.011378467069
 42
0.0221116232293634
 10
23144.7584832022
 20
-5362.069085625045
 10
23144.75848320243
 20
-5397.011378467138
 10
23324.75848320243
 20
-5397.011378466149
  0
HATCH
  5
297
330
1F
100
AcDbEntity
  8
Ech.1_5
  6
Continuous
 62
    33
420
 12426362
440
 33554687
370
     5
390
5F
100
AcDbHatch
 10
0.0
 20
0.0
 30
0.0
210
0.0
220
0.0
230
1.0
  2
SOLID
 70
     1
 71
     0
 91
        1
 92
        3
 72
     0
 73
     1
 93
        4
 10
23324.75848320235
 20
-5397.011378466149
 10
23279.75848320235
 20
-5397.01137846644
 10
23279.75848320332
 20
-5577.01137846644
 10
23324.75848320332
 20
-5577.011378466149
 97
        0
 75
     0
 76
     1
 98
        0
  0
LINE
  5
298
330
1F
100
AcDbEntity
  8
Ech.1_5
  6
Continuous
 62
   190
370
    15
390
5F
100
AcDbLine
 10
23279.75848320235
 20
-5397.01137846644
 30
0.0
 11
23324.75848320332
 21
-5577.011378466149
 31
0.0
  0
LINE
  5
299
330
1F
100
AcDbEntity
  8
Ech.1_5
  6
Continuous
 62
   190
370
    15
390
5F
100
AcDbLine
 10
23279.75848320332
 20
-5577.01137846644
 30
0.0
 11
23324.75848320235
 21
-5397.011378466149
 31
0.0
  0
LWPOLYLINE
  5
29A
330
1F
100
AcDbEntity
  8
Ech.1_5
  6
Continuous
 62
     5
370
    40
390
5F
100
AcDbPolyline
 90
        5
 70
     0
 43
0.0
 10
23324.75848320235
 20
-5397.011378466149
 10
23279.75848320235
 20
-5397.01137846644
 10
23279.75848320332
 20
-5577.01137846644
 10
23324.75848320332
 20
-5577.011378466149
 10
23324.75848320235
 20
-5397.011378466149
  0
HATCH
  5
29B
330
1F
100
AcDbEntity
  8
Ech.1_5
  6
Continuous
 62
    40
420
 16297258
440
 33554687
370
     5
390
5F
100
AcDbHatch
 10
0.0
 20
0.0
 30
0.0
210
0.0
220
0.0
230
1.0
  2
SOLID
 70
     1
 71
     0
 91
        1
 92
        3
 72
     1
 73
     1
 93
        4
 10
23333.75848320264
 20
-5622.011378466091
 42
0.0
 10
23333.75848320112
 20
-5331.399512077941
 42
0.01282199363325
 10
23324.7584832011
 20
-5328.101919645314
 42
0.0
 10
23324.75848320264
 20
-5622.011378466149
 42
0.0
 97
        0
 75
     0
 76
     1
 98
        0
  0
HATCH
  5
29C
330
1F
100
AcDbEntity
  8
Ech.1_5
  6
Continuous
 62
   190
440
 33554687
370
    15
390
5F
100
AcDbHatch
 10
0.0
 20
0.0
 30
0.0
210
0.0
220
0.0
230
1.0
  2
CwHatchPattern_74
 70
     0
 71
     0
 91
        1
 92
        3
 72
     1
 73
     1
 93
        4
 10
23333.75848320264
 20
-5622.011378466091
 42
0.0
 10
23333.75848320112
 20
-5331.399512077941
 42
0.01282199363325
 10
23324.7584832011
 20
-5328.101919645314
 42
0.0
 10
23324.75848320264
 20
-5622.011378466149
 42
0.0
 97
        0
 75
     0
 76
     2
 52
0.0
 41
0.6000000238418579
 77
     0
 78
     3
 53
45.00000000000297
 43
0.0
 44
0.0
 45
-0.0000000000043443
 46
42.00000166893005
 79
     0
 53
45.00000000000297
 43
0.0
 44
10.80000042915344
 45
-0.0000000000043443
 46
42.00000166893005
 79
     0
 53
45.00000000000297
 43
0.0
 44
21.60000085830688
 45
-0.0000000000043443
 46
42.00000166893005
 79
     0
 98
        0
1001
ACAD
1010
0.0
1020
0.0
1030
0.0
  0
LWPOLYLINE
  5
29D
330
1F
100
AcDbEntity
  8
Ech.1_5
  6
Continuous
 62
   190
370
    15
390
5F
100
AcDbPolyline
 90
        5
 70
     0
 43
0.0
 10
23333.75848320264
 20
-5622.011378466091
 10
23333.75848320112
 20
-5331.399512077941
 42
0.012821993633253
 10
23324.7584832011
 20
-5328.101919645314
 10
23324.75848320264
 20
-5622.011378466149
 10
23333.75848320264
 20
-5622.011378466091
  0
LWPOLYLINE
  5
29E
330
1F
100
AcDbEntity
  8
Ech.1_5
  6
Continuous
 62
     5
370
    40
390
5F
100
AcDbPolyline
 90
        5
 70
     0
 43
0.0
 10
23157.86924656123
 20
-5352.011378467069
 10
23324.75848320214
 20
-5352.011378466145
 10
23324.75848320243
 20
-5397.011378466149
 10
23144.75848320243
 20
-5397.011378467138
 10
23144.7584832022
 20
-5362.069085625045
  0
LWPOLYLINE
  5
29F
330
1F
100
AcDbEntity
  8
Ech.1_5
  6
Continuous
 62
   190
370
    15
390
5F
100
AcDbPolyline
 90
        3
 70
     0
 43
0.0
 10
23324.75848320243
 20
-5397.011378466149
 10
23234.7584832024
 20
-5374.511378466615
 10
23324.75848320214
 20
-5352.011378466145
  0
LWPOLYLINE
  5
2A0
330
1F
100
AcDbEntity
  8
Ech.1_5
  6
Continuous
 62
     5
370
    40
390
5F
100
AcDbPolyline
 90
        5
 70
     0
 43
0.0
 10
23358.76179094244
 20
-5343.515816803426
 10
23358.76179094288
 20
-5407.976554598482
 10
23333.7591532689
 20
-5407.976554598657
 10
23333.7591532684
 20
-5332.971279806218
 10
23337.60445705039
 20
-5332.971279806196
  0
HATCH
  5
2A1
330
1F
100
AcDbEntity
  8
Ech.1_5
  6
Continuous
 62
   254
420
 13882323
440
 33554687
370
     5
390
5F
100
AcDbHatch
 10
0.0
 20
0.0
 30
0.0
210
0.0
220
0.0
230
1.0
  2
SOLID
 70
     1
 71
     0
 91
        1
 92
        3
 72
     1
 73
     1
 93
        5
 10
23426.94802933243
 20
-5433.005849075734
 42
0.0
 10
23426.94802933243
 20
-5411.91292071189
 42
0.0092174801691989
 10
23423.39928506546
 20
-5406.005849075734
 42
0.0
 10
23333.75848320221
 20
-5406.005849075734
 42
0.0
 10
23333.75848320221
 20
-5433.005849075734
 42
0.0
 97
        0
 75
     0
 76
     1
 98
        0
  0
LINE
  5
2A2
330
1F
100
AcDbEntity
  8
Ech.1_5
  6
Continuous
 62
   190
370
    15
390
5F
100
AcDbLine
 10
23426.94802933243
 20
-5411.91292071189
 30
0.0
 11
23333.75848320221
 21
-5433.005849075734
 31
0.0
  0
LINE
  5
2A3
330
1F
100
AcDbEntity
  8
Ech.1_5
  6
Continuous
 62
   190
370
    15
390
5F
100
AcDbLine
 10
23333.75848320221
 20
-5406.005849075734
 30
0.0
 11
23426.94802933243
 21
-5433.005849075734
 31
0.0
  0
LWPOLYLINE
  5
2A4
330
1F
100
AcDbEntity
  8
Ech.1_5
  6
Continuous
 62
     5
370
    40
390
5F
100
AcDbPolyline
 90
        6
 70
     0
 43
0.0
 10
23426.94802933243
 20
-5433.005849075734
 10
23426.94802933243
 20
-5411.91292071189
 42
0.0092174801697898
 10
23423.39928506546
 20
-5406.005849075734
 10
23333.75848320221
 20
-5406.005849075734
 10
23333.75848320221
 20
-5433.005849075734
 10
23426.94802933243
 20
-5433.005849075734
  0
HATCH
  5
2A5
330
1F
100
AcDbEntity
  8
Ech.1_5
  6
Continuous
 62
   254
420
 13882323
440
 33554687
370
     5
390
5F
100
AcDbHatch
 10
0.0
 20
0.0
 30
0.0
210
0.0
220
0.0
230
1.0
  2
SOLID
 70
     1
 71
     0
 91
        1
 92
        3
 72
     1
 73
     1
 93
        4
 10
23360.7591532684
 20
-5406.005849075734
 42
0.0
 10
23360.7591532684
 20
-5344.691026082431
 42
0.0403157583781459
 10
23333.7591532684
 20
-5331.399777269668
 42
0.0
 10
23333.7591532684
 20
-5406.005849075734
 42
0.0
 97
        0
 75
     0
 76
     1
 98
        0
  0
LINE
  5
2A6
330
1F
100
AcDbEntity
  8
Ech.1_5
  6
Continuous
 62
   190
370
    15
390
5F
100
AcDbLine
 10
23360.7591532684
 20
-5344.691026082431
 30
0.0
 11
23333.7591532684
 21
-5406.005849075734
 31
0.0
  0
LINE
  5
2A7
330
1F
100
AcDbEntity
  8
Ech.1_5
  6
Continuous
 62
   190
370
    15
390
5F
100
AcDbLine
 10
23333.7591532684
 20
-5331.399777269668
 30
0.0
 11
23360.7591532684
 21
-5406.005849075734
 31
0.0
  0
LWPOLYLINE
  5
2A8
330
1F
100
AcDbEntity
  8
Ech.1_5
  6
Continuous
 62
     5
370
    40
390
5F
100
AcDbPolyline
 90
        5
 70
     0
 43
0.0
 10
23360.7591532684
 20
-5406.005849075734
 10
23360.7591532684
 20
-5344.691026082431
 42
0.0403157583780925
 10
23333.7591532684
 20
-5331.399777269668
 10
23333.7591532684
 20
-5406.005849075734
 10
23360.7591532684
 20
-5406.005849075734
  0
ARC
  5
2A9
330
1F
100
AcDbEntity
  8
Ech.1_5
  6
Continuous
 62
   190
370
    15
390
5F
100
AcDbCircle
 10
23264.97342755272
 20
-5505.201597878581
 30
0.0
 40
186.9185622382325
100
AcDbArc
 50
71.5354884631793
 51
340.2417213388881
  0
HATCH
  5
2AA
330
1F
100
AcDbEntity
  8
Ech.1_5
  6
Continuous
 62
   254
420
 13882323
440
 33554687
370
    20
390
5F
100
AcDbHatch
 10
0.0
 20
0.0
 30
0.0
210
0.0
220
0.0
230
1.0
  2
SOLID
 70
     1
 71
     0
 91
        1
 92
        3
 72
     1
 73
     1
 93
        4
 10
23386.7584831985
 20
-5378.00584888347
 42
0.0
 10
23386.7584831985
 20
-5363.40262351501
 42
0.0429229973487567
 10
23360.7584831985
 20
-5344.690626215765
 42
0.0
 10
23360.7584831985
 20
-5378.005848878439
 42
0.0
 97
        0
 75
     0
 76
     1
 98
        0
  0
LWPOLYLINE
  5
2AB
330
1F
100
AcDbEntity
  8
Ech.1_5
  6
Continuous
 62
     7
370
    20
390
5F
100
AcDbPolyline
 90
        5
 70
     0
 43
0.0
 10
23386.7584831985
 20
-5378.00584888347
 10
23386.7584831985
 20
-5363.40262351501
 42
0.0429229973488208
 10
23360.7584831985
 20
-5344.690626215765
 10
23360.7584831985
 20
-5378.005848878439
 10
23386.7584831985
 20
-5378.00584888347
  0
HATCH
  5
2AC
330
1F
100
AcDbEntity
  8
Ech.1_5
  6
Continuous
 62
   254
420
 13882323
440
 33554687
370
    20
390
5F
100
AcDbHatch
 10
0.0
 20
0.0
 30
0.0
210
0.0
220
0.0
230
1.0
  2
SOLID
 70
     1
 71
     0
 91
        1
 92
        3
 72
     1
 73
     1
 93
        4
 10
23423.39928501679
 20
-5406.005848997997
 42
0.0436548882930459
 10
23403.77030555645
 20
-5380.005848886759
 42
0.0
 10
23362.56506077854
 20
-5380.005848878788
 42
0.0
 10
23362.56506077854
 20
-5406.005848997997
 42
0.0
 97
        0
 75
     0
 76
     1
 98
        0
  0
LWPOLYLINE
  5
2AD
330
1F
100
AcDbEntity
  8
Ech.1_5
  6
Continuous
 62
     7
370
    20
390
5F
100
AcDbPolyline
 90
        5
 70
     0
 43
0.0
 10
23423.39928501679
 20
-5406.005848997997
 42
0.0436548882928905
 10
23403.77030555645
 20
-5380.005848886759
 10
23362.56506077854
 20
-5380.005848878788
 10
23362.56506077854
 20
-5406.005848997997
 10
23423.39928501679
 20
-5406.005848997997
  0
HATCH
  5
2AE
330
1F
100
AcDbEntity
  8
Ech.1_5
  6
Continuous
 62
     2
440
 33554687
370
     5
390
5F
100
AcDbHatch
 10
0.0
 20
0.0
 30
0.0
210
0.0
220
0.0
230
1.0
  2
SOLID
 70
     1
 71
     0
 91
        1
 92
        3
 72
     0
 73
     1
 93
        4
 10
23343.75848320152
 20
-5450.672163240969
 10
23343.75848320152
 20
-5433.005850221784
 10
23333.75848320221
 20
-5433.005850221784
 10
23333.75848320221
 20
-5450.672163240969
 97
        0
 75
     0
 76
     1
 98
        0
  0
HATCH
  5
2AF
330
1F
100
AcDbEntity
  8
Ech.1_5
  6
Continuous
 62
     7
440
 33554687
370
    20
390
5F
100
AcDbHatch
 10
0.0
 20
0.0
 30
0.0
210
0.0
220
0.0
230
1.0
  2
CwHatchPattern_31
 70
     0
 71
     0
 91
        1
 92
        3
 72
     0
 73
     1
 93
        4
 10
23343.75848320152
 20
-5450.672163240969
 10
23343.75848320152
 20
-5433.005850221784
 10
23333.75848320221
 20
-5433.005850221784
 10
23333.75848320221
 20
-5450.672163240969
 97
        0
 75
     0
 76
     2
 52
0.0
 41
0.1500000059604645
 77
     0
 78
     1
 53
45.00000000000297
 43
0.0
 44
0.0
 45
-2.121320427853449
 46
2.12132042785323
 79
     0
 98
        0
1001
ACAD
1010
0.0
1020
0.0
1030
0.0
  0
LWPOLYLINE
  5
2B0
330
1F
100
AcDbEntity
  8
Ech.1_5
  6
Continuous
 62
     7
370
     5
390
5F
100
AcDbPolyline
 90
        5
 70
     0
 43
0.0
 10
23343.75848320152
 20
-5450.672163240969
 10
23343.75848320152
 20
-5433.005850221784
 10
23333.75848320221
 20
-5433.005850221784
 10
23333.75848320221
 20
-5450.672163240969
 10
23343.75848320152
 20
-5450.672163240969
  0
HATCH
  5
2B1
330
1F
100
AcDbEntity
  8
Ech.1_5
  6
Continuous
 62
   254
420
 13882323
440
 33554687
370
     5
390
5F
100
AcDbHatch
 10
0.0
 20
0.0
 30
0.0
210
0.0
220
0.0
230
1.0
  2
SOLID
 70
     1
 71
     0
 91
        1
 92
        3
 72
     0
 73
     1
 93
        4
 10
23388.75848320193
 20
-5601.089664759541
 10
23388.75848320193
 20
-5552.91006848123
 10
23378.7584832022
 20
-5552.91006848123
 10
23378.7584832022
 20
-5601.089664759541
 97
        0
 75
     0
 76
     1
 98
        0
  0
LINE
  5
2B2
330
1F
100
AcDbEntity
  8
Ech.1_5
  6
Continuous
 62
   190
370
    15
390
5F
100
AcDbLine
 10
23388.75848320193
 20
-5552.91006848123
 30
0.0
 11
23378.7584832022
 21
-5601.089664759541
 31
0.0
  0
LINE
  5
2B3
330
1F
100
AcDbEntity
  8
Ech.1_5
  6
Continuous
 62
   190
370
    15
390
5F
100
AcDbLine
 10
23378.7584832022
 20
-5552.91006848123
 30
0.0
 11
23388.75848320193
 21
-5601.089664759541
 31
0.0
  0
LWPOLYLINE
  5
2B4
330
1F
100
AcDbEntity
  8
Ech.1_5
  6
Continuous
 62
   190
370
    20
390
5F
100
AcDbPolyline
 90
        5
 70
     0
 43
0.0
 10
23388.75848320193
 20
-5601.089664759541
 10
23388.75848320193
 20
-5552.91006848123
 10
23378.7584832022
 20
-5552.91006848123
 10
23378.7584832022
 20
-5601.089664759541
 10
23388.75848320193
 20
-5601.089664759541
  0
LWPOLYLINE
  5
2B5
330
1F
100
AcDbEntity
  8
Ech.1_5
  6
Continuous
 62
   190
370
    15
390
5F
100
AcDbPolyline
 90
       16
 70
     0
 43
0.0
 10
23257.25848320334
 20
-5577.011378466556
 42
1.140281805120831
 10
23251.43504157589
 20
-5532.778050888618
 10
23173.08192483047
 20
-5553.744706045077
 42
-1.303226186855826
 10
23173.08192483023
 20
-5510.278050889026
 10
23251.43504157588
 20
-5531.244706044669
 42
1.303226186855826
 10
23251.43504157564
 20
-5487.778050888618
 10
23173.08192483023
 20
-5508.744706045135
 42
-1.303226186855659
 10
23173.08192482999
 20
-5465.278050889084
 10
23251.43504157563
 20
-5486.244706044728
 42
1.303226186853913
 10
23251.4350415754
 20
-5442.778050888618
 10
23173.08192482998
 20
-5463.744706045135
 42
-1.303226186855659
 10
23173.08192482975
 20
-5420.278050889084
 10
23251.43504157539
 20
-5441.244706044728
 42
1.303226186855659
 10
23251.43504157516
 20
-5397.778050888676
 10
23173.08192482974
 20
-5418.744706045193
 42
-0.5258627740862151
 10
23144.75848320243
 20
-5397.011378467197
  0
ARC
  5
2B6
330
1F
100
AcDbEntity
  8
Ech.1_5
  6
Continuous
 62
   190
370
    15
390
5F
100
AcDbCircle
 10
23264.97342755272
 20
-5505.201597878581
 30
0.0
 40
186.9185622382267
100
AcDbArc
 50
19.75946791378464
 51
302.9699140447178
  0
LWPOLYLINE
  5
2B7
330
1F
100
AcDbEntity
  8
Ech.1_5
  6
CADWORK_22
 62
   140
420
  1483507
 48
0.6
370
    35
390
5F
100
AcDbPolyline
 90
        4
 70
   128
 43
0.0
 38
2500.0
 10
23436.76160982889
 20
-5431.530916196815
 10
23423.22008738976
 20
-5431.530916196815
 10
23344.75869447534
 20
-5431.530916196815
 10
23344.75869447534
 20
-5504.555982017767
  0
LWPOLYLINE
  5
2B8
330
1F
100
AcDbEntity
  8
Ech.1_5
  6
Continuous
 62
     5
370
    40
390
5F
100
AcDbPolyline
 90
        5
 70
     0
 43
0.0
 10
23144.7584831987
 20
-5577.011378467138
 10
23324.7584831987
 20
-5577.011378466149
 10
23324.758483199
 20
-5622.011378466149
 10
23144.758483199
 20
-5622.011378467138
 10
23144.7584831987
 20
-5577.011378467138
  0
HATCH
  5
2B9
330
1F
100
AcDbEntity
  8
Ech.1_5
  6
Continuous
 62
    33
420
 12426362
440
 33554687
370
     5
390
5F
100
AcDbHatch
 10
0.0
 20
0.0
 30
0.0
210
0.0
220
0.0
230
1.0
  2
SOLID
 70
     1
 71
     0
 91
        1
 92
        3
 72
     0
 73
     1
 93
        4
 10
23144.7584831987
 20
-5577.011378467138
 10
23144.758483199
 20
-5622.011378467138
 10
23324.758483199
 20
-5622.011378466149
 10
23324.7584831987
 20
-5577.011378466149
 97
        0
 75
     0
 76
     1
 98
        0
  0
LINE
  5
2BA
330
1F
100
AcDbEntity
  8
Ech.1_5
  6
Continuous
 62
   190
370
    15
390
5F
100
AcDbLine
 10
23144.758483199
 20
-5622.011378467138
 30
0.0
 11
23324.7584831987
 21
-5577.011378466149
 31
0.0
  0
LINE
  5
2BB
330
1F
100
AcDbEntity
  8
Ech.1_5
  6
Continuous
 62
   190
370
    15
390
5F
100
AcDbLine
 10
23324.758483199
 20
-5622.011378466149
 30
0.0
 11
23144.7584831987
 21
-5577.011378467138
 31
0.0
  0
LWPOLYLINE
  5
2BC
330
1F
100
AcDbEntity
  8
Ech.1_5
  6
Continuous
 62
     5
370
    40
390
5F
100
AcDbPolyline
 90
        5
 70
     0
 43
0.0
 10
23144.7584831987
 20
-5577.011378467138
 10
23144.758483199
 20
-5622.011378467138
 10
23324.758483199
 20
-5622.011378466149
 10
23324.7584831987
 20
-5577.011378466149
 10
23144.7584831987
 20
-5577.011378467138
  0
LWPOLYLINE
  5
2BD
330
1F
100
AcDbEntity
  8
Ech.1_5
 62
     3
370
    70
390
5F
100
AcDbPolyline
 90
        4
 70
     0
 43
0.0
 10
22711.40386241303
 20
-5365.324969982351
 10
22698.41472899295
 20
-5365.324969982351
 10
22694.47999685205
 20
-5359.644357020356
 10
22681.00156685114
 20
-5359.644357020356
  0
HATCH
  5
2BE
330
1F
100
AcDbEntity
  8
Ech.1_5
  6
Continuous
 62
     2
440
 33554687
370
     5
390
5F
100
AcDbHatch
 10
0.0
 20
0.0
 30
0.0
210
0.0
220
0.0
230
1.0
  2
SOLID
 70
     1
 71
     0
 91
        1
 92
        3
 72
     0
 73
     1
 93
        4
 10
22687.36795145424
 20
-5387.358531983006
 10
22687.36795145424
 20
-5397.358531983006
 10
22707.36959920537
 20
-5397.358531983006
 10
22707.36959920537
 20
-5387.358531983006
 97
        0
 75
     0
 76
     1
 98
        0
  0
HATCH
  5
2BF
330
1F
100
AcDbEntity
  8
Ech.1_5
  6
Continuous
 62
     7
440
 33554687
370
    20
390
5F
100
AcDbHatch
 10
0.0
 20
0.0
 30
0.0
210
0.0
220
0.0
230
1.0
  2
CwHatchPattern_31
 70
     0
 71
     0
 91
        1
 92
        3
 72
     0
 73
     1
 93
        4
 10
22687.36795145424
 20
-5387.358531983006
 10
22687.36795145424
 20
-5397.358531983006
 10
22707.36959920537
 20
-5397.358531983006
 10
22707.36959920537
 20
-5387.358531983006
 97
        0
 75
     0
 76
     2
 52
0.0
 41
0.1500000059604645
 77
     0
 78
     1
 53
45.00000000000297
 43
0.0
 44
0.0
 45
-2.121320427853449
 46
2.12132042785323
 79
     0
 98
        0
1001
ACAD
1010
0.0
1020
0.0
1030
0.0
  0
LWPOLYLINE
  5
2C0
330
1F
100
AcDbEntity
  8
Ech.1_5
  6
Continuous
 62
     7
370
     5
390
5F
100
AcDbPolyline
 90
        5
 70
     0
 43
0.0
 10
22687.36795145424
 20
-5387.358531983006
 10
22687.36795145424
 20
-5397.358531983006
 10
22707.36959920537
 20
-5397.358531983006
 10
22707.36959920537
 20
-5387.358531983006
 10
22687.36795145424
 20
-5387.358531983006
  0
LWPOLYLINE
  5
2C1
330
1F
100
AcDbEntity
  8
Ech.1_5
 62
   190
370
    15
390
5F
100
AcDbPolyline
 90
        5
 70
     0
 43
0.0
 10
23441.70263369107
 20
-5299.263977131538
 10
23576.13141267702
 20
-5299.263977131538
 10
23576.13141267702
 20
-5355.986935943388
 10
23441.70263369107
 20
-5355.986935943388
 10
23441.70263369107
 20
-5299.263977131538
  0
HATCH
  5
2C2
330
1F
100
AcDbEntity
  8
Ech.1_5
  6
Continuous
 62
   190
440
 33554687
370
    15
390
5F
100
AcDbHatch
 10
0.0
 20
0.0
 30
0.0
210
0.0
220
0.0
230
1.0
  2
SOLID
 70
     1
 71
     0
 91
        1
 92
        3
 72
     0
 73
     1
 93
        4
 10
23459.98267947639
 20
-5332.920788260491
 10
23509.98267947639
 20
-5332.920788260491
 10
23509.98267947639
 20
-5325.505650726577
 10
23459.98267947639
 20
-5325.505650726577
 97
        0
 75
     0
 76
     1
 98
        0
  0
LWPOLYLINE
  5
2C3
330
1F
100
AcDbEntity
  8
Ech.1_5
 62
   190
370
    15
390
5F
100
AcDbPolyline
 90
        5
 70
     0
 43
0.0
 10
23459.98267947639
 20
-5332.920788260491
 10
23509.98267947639
 20
-5332.920788260491
 10
23509.98267947639
 20
-5325.505650726577
 10
23459.98267947639
 20
-5325.505650726577
 10
23459.98267947639
 20
-5332.920788260491
  0
LWPOLYLINE
  5
2C4
330
1F
100
AcDbEntity
  8
Ech.1_5
 62
   190
370
    15
390
5F
100
AcDbPolyline
 90
        5
 70
     0
 43
0.0
 10
23509.98267947639
 20
-5332.920788260491
 10
23559.98267947639
 20
-5332.920788260491
 10
23559.98267947639
 20
-5325.505650726577
 10
23509.98267947639
 20
-5325.505650726577
 10
23509.98267947639
 20
-5332.920788260491
  0
HATCH
  5
2C5
330
1F
100
AcDbEntity
  8
Ech.1_5
  6
Continuous
 62
     2
440
 33554687
370
     5
390
5F
100
AcDbHatch
 10
0.0
 20
0.0
 30
0.0
210
0.0
220
0.0
230
1.0
  2
SOLID
 70
     1
 71
     0
 91
        1
 92
        3
 72
     0
 73
     1
 93
        4
 10
23378.7584832022
 20
-5621.091312510672
 10
23388.7584832022
 20
-5621.091312510672
 10
23388.7584832022
 20
-5601.089664759541
 10
23378.7584832022
 20
-5601.089664759541
 97
        0
 75
     0
 76
     1
 98
        0
  0
HATCH
  5
2C6
330
1F
100
AcDbEntity
  8
Ech.1_5
  6
Continuous
 62
     7
440
 33554687
370
    20
390
5F
100
AcDbHatch
 10
0.0
 20
0.0
 30
0.0
210
0.0
220
0.0
230
1.0
  2
CwHatchPattern_31
 70
     0
 71
     0
 91
        1
 92
        3
 72
     0
 73
     1
 93
        4
 10
23378.7584832022
 20
-5621.091312510672
 10
23388.7584832022
 20
-5621.091312510672
 10
23388.7584832022
 20
-5601.089664759541
 10
23378.7584832022
 20
-5601.089664759541
 97
        0
 75
     0
 76
     2
 52
0.0
 41
0.1500000059604645
 77
     0
 78
     1
 53
45.00000000000297
 43
0.0
 44
0.0
 45
-2.121320427853449
 46
2.12132042785323
 79
     0
 98
        0
1001
ACAD
1010
0.0
1020
0.0
1030
0.0
  0
LWPOLYLINE
  5
2C7
330
1F
100
AcDbEntity
  8
Ech.1_5
  6
Continuous
 62
     7
370
     5
390
5F
100
AcDbPolyline
 90
        5
 70
     0
 43
0.0
 10
23378.7584832022
 20
-5621.091312510672
 10
23388.7584832022
 20
-5621.091312510672
 10
23388.7584832022
 20
-5601.089664759541
 10
23378.7584832022
 20
-5601.089664759541
 10
23378.7584832022
 20
-5621.091312510672
  0
LWPOLYLINE
  5
2C8
330
1F
100
AcDbEntity
  8
Ech.1_5
  6
CADWORK_22
 62
     1
 48
0.6
370
    35
390
5F
100
AcDbPolyline
 90
        3
 70
   128
 43
0.0
 10
23410.89814810524
 20
-5622.011378465978
 10
23388.75848320213
 20
-5622.011378466149
 10
23388.75848320166
 20
-5547.736613476352
  0
HATCH
  5
2C9
330
1F
100
AcDbEntity
  8
Ech.1_5
  6
Continuous
 62
   254
420
 13882323
440
 33554687
370
     5
390
5F
100
AcDbHatch
 10
0.0
 20
0.0
 30
0.0
210
0.0
220
0.0
230
1.0
  2
SOLID
 70
     1
 71
     0
 91
        1
 92
        3
 72
     0
 73
     1
 93
        4
 10
23343.75848320152
 20
-5498.851759519276
 10
23343.75848320152
 20
-5450.672163240969
 10
23333.75848320221
 20
-5450.672163240969
 10
23333.75848320221
 20
-5498.851759519276
 97
        0
 75
     0
 76
     1
 98
        0
  0
LINE
  5
2CA
330
1F
100
AcDbEntity
  8
Ech.1_5
  6
Continuous
 62
   190
370
    15
390
5F
100
AcDbLine
 10
23343.75848320152
 20
-5450.672163240969
 30
0.0
 11
23333.75848320221
 21
-5498.851759519276
 31
0.0
  0
LINE
  5
2CB
330
1F
100
AcDbEntity
  8
Ech.1_5
  6
Continuous
 62
   190
370
    15
390
5F
100
AcDbLine
 10
23333.75848320221
 20
-5450.672163240969
 30
0.0
 11
23343.75848320152
 21
-5498.851759519276
 31
0.0
  0
LWPOLYLINE
  5
2CC
330
1F
100
AcDbEntity
  8
Ech.1_5
  6
Continuous
 62
   190
370
    20
390
5F
100
AcDbPolyline
 90
        5
 70
     0
 43
0.0
 10
23343.75848320152
 20
-5498.851759519276
 10
23343.75848320152
 20
-5450.672163240969
 10
23333.75848320221
 20
-5450.672163240969
 10
23333.75848320221
 20
-5498.851759519276
 10
23343.75848320152
 20
-5498.851759519276
  0
LWPOLYLINE
  5
2CD
330
1F
100
AcDbEntity
  8
Ech.1_5
  6
Continuous
 62
   190
370
    15
390
5F
100
AcDbPolyline
 90
        4
 70
     0
 43
0.0
 10
23144.7584832022
 20
-5362.069085625045
 10
23144.75848320243
 20
-5397.011378467138
 10
23234.7584832024
 20
-5374.511378466615
 10
23154.47587693997
 20
-5354.440726901427
  0
ARC
  5
2CE
330
1F
100
AcDbEntity
  8
Ech.1_5
  6
Continuous
 62
   190
370
    15
390
5F
100
AcDbCircle
 10
23094.75777894842
 20
-5415.006608939894
 30
0.0
 40
9.999999998767684
100
AcDbArc
 50
278.1805522566407
 51
285.0000345687799
  0
LINE
  5
2CF
330
1F
100
AcDbEntity
  8
Ech.1_5
  6
Continuous
 62
   190
370
    15
390
5F
100
AcDbLine
 10
23144.40340396836
 20
-5362.368064273637
 30
0.0
 11
23144.7584832008
 21
-5362.069085626227
 31
0.0
  0
LWPOLYLINE
  5
2D0
330
1F
100
AcDbEntity
  8
Ech.1_5
  6
CADWORK_22
 62
     1
 48
0.6
370
    35
390
5F
100
AcDbPolyline
 90
        3
 70
   128
 43
0.0
 10
23143.25848319732
 20
-5363.342438041197
 10
23143.25848319732
 20
-5623.512786960518
 10
23143.25848319732
 20
-5622.011378465938
  0
LWPOLYLINE
  5
2D1
330
1F
100
AcDbEntity
  8
Ech.1_5
  6
CADWORK_22
 62
     1
 48
0.6
370
    35
390
5F
100
AcDbPolyline
 90
        3
 70
   128
 43
0.0
 10
23143.25848319732
 20
-5622.011378465938
 10
23378.75848320267
 20
-5622.011378466149
 10
23378.75848320314
 20
-5547.736613476352
  0
LWPOLYLINE
  5
2D2
330
1F
100
AcDbEntity
  8
Ech.1_5
  6
CADWORK_22
 62
   140
420
  1483507
 48
0.6
370
    35
390
5F
100
AcDbPolyline
 90
        2
 70
   128
 43
0.0
 38
2500.0
 10
23335.2584831985
 20
-5332.000674491676
 10
23335.2584831985
 20
-5507.855122349379
  0
LWPOLYLINE
  5
2D3
330
1F
100
AcDbEntity
  8
Ech.1_5
  6
Continuous
 62
   190
370
    15
390
5F
100
AcDbPolyline
 90
        4
 70
     0
 43
0.0
 10
23111.28355063099
 20
-5611.5875492114
 10
23124.26831963552
 20
-5615.062167520196
 42
1.303226186854862
 10
23124.26831963547
 20
-5598.963406351188
 10
23106.1777776335
 20
-5603.804287882144
  0
LWPOLYLINE
  5
2D4
330
1F
100
AcDbEntity
  8
Ech.1_5
  6
Continuous
 62
   190
370
    15
390
5F
100
AcDbPolyline
 90
        6
 70
     0
 43
0.0
 10
23091.14138747229
 20
-5573.910918575858
 42
-0.1251581499427516
 10
23095.24864676648
 20
-5573.963406351159
 10
23124.2683196354
 20
-5581.728834186678
 42
1.303226186855766
 10
23124.26831963534
 20
-5565.630073017671
 10
23095.24864676648
 20
-5573.395500853422
 42
-0.13152721208935
 10
23090.93896149882
 20
-5573.396564954915
  0
LWPOLYLINE
  5
2D5
330
1F
100
AcDbEntity
  8
Ech.1_5
  6
Continuous
 62
   190
370
    15
390
5F
100
AcDbPolyline
 90
       30
 70
     0
 43
0.0
 10
23086.38924852859
 20
-5560.394350224172
 42
-0.3083258314057848
 10
23095.24864676642
 20
-5557.296739684415
 10
23124.26831963534
 20
-5565.062167519934
 42
1.303226186854862
 10
23124.26831963528
 20
-5548.963406350927
 10
23095.24864676642
 20
-5556.728834186649
 42
-1.303226186855766
 10
23095.24864676636
 20
-5540.630073017642
 10
23124.26831963528
 20
-5548.39550085316
 42
1.303226186855766
 10
23124.26831963522
 20
-5532.296739684153
 10
23095.24864676636
 20
-5540.062167519875
 42
-1.303226186855766
 10
23095.2486467663
 20
-5523.963406350868
 10
23124.26831963522
 20
-5531.728834186387
 42
1.303226186855766
 10
23124.26831963516
 20
-5515.63007301738
 10
23095.2486467663
 20
-5523.395500853131
 42
-1.303226186855766
 10
23095.24864676624
 20
-5507.296739684124
 10
23124.26831963516
 20
-5515.062167519643
 42
1.303226186855766
 10
23124.2683196351
 20
-5498.963406350636
 10
23095.24864676623
 20
-5506.728834186387
 42
-1.303226186855766
 10
23095.24864676618
 20
-5490.63007301738
 10
23124.2683196351
 20
-5498.395500852898
 42
1.303226186855766
 10
23124.26831963504
 20
-5482.296739683891
 10
23095.24864676618
 20
-5490.062167519613
 42
-1.303226186855766
 10
23095.24864676612
 20
-5473.963406350606
 10
23124.26831963504
 20
-5481.728834186125
 42
1.303226186855766
 10
23124.26831963498
 20
-5465.630073017118
 10
23095.24864676612
 20
-5473.39550085284
 42
-1.303226186855766
 10
23095.24864676606
 20
-5457.296739683833
 10
23124.26831963498
 20
-5465.062167519352
 42
1.303226186855766
 10
23124.26831963492
 20
-5448.963406350344
 10
23095.24864676605
 20
-5456.728834186096
 42
-0.3549455993596841
 10
23085.65567855208
 20
-5452.440875721387
  0
LWPOLYLINE
  5
2D6
330
1F
100
AcDbEntity
  8
Ech.1_5
  6
Continuous
 62
   190
370
    15
390
5F
100
AcDbPolyline
 90
        6
 70
     0
 43
0.0
 10
23089.33942245022
 20
-5441.238755846193
 42
-0.1842657951119193
 10
23095.24864676599
 20
-5440.630073017089
 10
23124.26831963491
 20
-5448.395500852607
 42
1.303226186855766
 10
23124.26831963486
 20
-5432.2967396836
 10
23095.24864676599
 20
-5440.062167519352
 42
-0.1650929213052901
 10
23089.90302481993
 20
-5439.711881157667
  0
LWPOLYLINE
  5
2D7
330
1F
100
AcDbEntity
  8
Ech.1_5
  6
Continuous
 62
   190
370
    15
390
5F
100
AcDbPolyline
 90
        4
 70
     0
 43
0.0
 10
23104.28486987433
 20
-5409.714759306743
 10
23124.2683196348
 20
-5415.062167519119
 42
1.303226186855766
 10
23124.26831963474
 20
-5398.963406350112
 10
23108.31899810242
 20
-5403.231314742728
  0
LWPOLYLINE
  5
2D8
330
1F
100
AcDbEntity
  8
Ech.1_5
  6
Continuous
 62
   190
370
    15
390
5F
100
AcDbPolyline
 90
        5
 70
     0
 43
0.0
 10
23134.68307919858
 20
-5639.227617870828
 42
0.3304661836850107
 10
23127.74867252707
 20
-5632.118560958203
 10
23127.57708497344
 20
-5631.932785654289
 42
1.063537678034402
 10
23124.26831963552
 20
-5615.630073017962
 10
23115.83965046165
 20
-5617.885516162228
  0
LWPOLYLINE
  5
2D9
330
1F
100
AcDbEntity
  8
Ech.1_5
  6
Continuous
 62
   190
370
    15
390
5F
100
AcDbPolyline
 90
        4
 70
     0
 43
0.0
 10
23099.2774193672
 20
-5591.708139715535
 10
23124.26831963546
 20
-5598.395500853422
 42
1.303226186855766
 10
23124.2683196354
 20
-5582.296739684415
 10
23098.04876928309
 20
-5589.3128775667
  0
LWPOLYLINE
  5
2DA
330
1F
100
AcDbEntity
  8
Ech.1_5
  6
Continuous
 62
   190
370
    15
390
5F
100
AcDbPolyline
 90
        4
 70
     0
 43
0.0
 10
23096.47395881177
 20
-5424.291289862708
 10
23124.26831963486
 20
-5431.728834185863
 42
1.303226186855766
 10
23124.2683196348
 20
-5415.630073016856
 10
23097.15649549117
 20
-5422.884976090173
  0
LWPOLYLINE
  5
2DB
330
1F
100
AcDbEntity
  8
Ech.1_5
  6
Continuous
 62
   190
370
    15
390
5F
100
AcDbPolyline
 90
        6
 70
     0
 43
0.0
 10
23113.60240211274
 20
-5395.541388292536
 10
23124.26831963474
 20
-5398.395500852345
 42
1.303226186854862
 10
23124.26831963468
 20
-5382.296739683338
 10
23124.10605761959
 20
-5382.340159675507
 10
23124.57481368937
 20
-5381.804765931986
 42
0.5694554090056543
 10
23134.44325943146
 20
-5371.409131276604
  0
LINE
  5
2DC
330
1F
100
AcDbEntity
  8
Ech.1_5
  6
Continuous
 62
   190
370
    15
390
5F
100
AcDbLine
 10
23091.14138747229
 20
-5573.910918575862
 30
0.0
 11
23090.93896149883
 21
-5573.396564954915
 31
0.0
  0
HATCH
  5
2DD
330
1F
100
AcDbEntity
  8
Ech.1_5
  6
Continuous
 62
   254
420
 14407639
440
 33554687
370
     5
390
5F
100
AcDbHatch
 10
0.0
 20
0.0
 30
0.0
210
0.0
220
0.0
230
1.0
  2
SOLID
 70
     1
 71
     0
 91
        1
 92
        1
 93
        2
 72
     1
 10
23084.75848320071
 20
-5554.811301983799
 11
23084.75848320034
 21
-5455.591893774702
 72
     2
 10
23264.97342755278
 20
-5505.201597878577
 40
186.9185622382845
 50
164.6087952712717
 51
195.3912047291569
 73
     1
 97
        0
 75
     0
 76
     1
 98
        0
  0
HATCH
  5
2DE
330
1F
100
AcDbEntity
  8
Ech.1_5
  6
Continuous
 62
   190
440
 33554687
370
    15
390
25D
100
AcDbHatch
 10
0.0
 20
0.0
 30
0.0
210
0.0
220
0.0
230
1.0
  2
CwHatchPattern_84
 70
     0
 71
     0
 91
        1
 92
        1
 93
        2
 72
     1
 10
23084.75848320071
 20
-5554.811301983799
 11
23084.75848320034
 21
-5455.591893774702
 72
     2
 10
23264.97342755278
 20
-5505.201597878577
 40
186.9185622382845
 50
164.6087952712717
 51
195.3912047291569
 73
     1
 97
        0
 75
     0
 76
     2
 52
0.0
 41
1.0
 77
     0
 78
     2
 53
0.0
 43
0.0
 44
0.0
 45
0.0
 46
70.0
 79
     2
 49
0.0
 49
-70.0
 53
0.0
 43
35.0
 44
35.0
 45
0.0
 46
70.0
 79
     2
 49
0.0
 49
-70.0
 98
        0
1001
ACAD
1010
0.0
1020
0.0
1030
0.0
  0
LWPOLYLINE
  5
2DF
330
1F
100
AcDbEntity
  8
Ech.1_5
  6
Continuous
 62
   190
370
    15
390
5F
100
AcDbPolyline
 90
        3
 70
     0
 43
0.0
 10
23084.75848320071
 20
-5554.811301983799
 10
23084.75848320034
 20
-5455.591893774702
 42
0.1351271491541572
 10
23084.75848320071
 20
-5554.811301983799
  0
HATCH
  5
2E0
330
1F
100
AcDbEntity
  8
Ech.1_5
  6
Continuous
 62
   254
420
 14407639
440
 33554687
370
     5
390
5F
100
AcDbHatch
 10
0.0
 20
0.0
 30
0.0
210
0.0
220
0.0
230
1.0
  2
SOLID
 70
     1
 71
     0
 91
        1
 92
        1
 93
        2
 72
     2
 10
23264.97342755272
 20
-5505.201597878542
 40
186.9185622382607
 50
251.0751724783062
 51
288.9222212982275
 73
     1
 72
     1
 10
23325.5881861551
 20
-5682.019017690037
 11
23204.35062608716
 21
-5682.016260312645
 97
        0
 75
     0
 76
     1
 98
        0
  0
HATCH
  5
2E1
330
1F
100
AcDbEntity
  8
Ech.1_5
  6
Continuous
 62
   190
440
 33554687
370
    15
390
25D
100
AcDbHatch
 10
0.0
 20
0.0
 30
0.0
210
0.0
220
0.0
230
1.0
  2
CwHatchPattern_84
 70
     0
 71
     0
 91
        1
 92
        1
 93
        2
 72
     2
 10
23264.97342755272
 20
-5505.201597878542
 40
186.9185622382607
 50
251.0751724783062
 51
288.9222212982275
 73
     1
 72
     1
 10
23325.5881861551
 20
-5682.019017690037
 11
23204.35062608716
 21
-5682.016260312645
 97
        0
 75
     0
 76
     2
 52
0.0
 41
1.0
 77
     0
 78
     2
 53
0.0
 43
0.0
 44
0.0
 45
0.0
 46
70.0
 79
     2
 49
0.0
 49
-70.0
 53
0.0
 43
35.0
 44
35.0
 45
0.0
 46
70.0
 79
     2
 49
0.0
 49
-70.0
 98
        0
1001
ACAD
1010
0.0
1020
0.0
1030
0.0
  0
LWPOLYLINE
  5
2E2
330
1F
100
AcDbEntity
  8
Ech.1_5
  6
Continuous
 62
   190
370
    15
390
5F
100
AcDbPolyline
 90
        3
 70
     0
 43
0.0
 10
23204.35062608716
 20
-5682.016260312645
 42
0.1666566212889306
 10
23325.5881861551
 20
-5682.019017690037
 10
23204.35062608716
 20
-5682.016260312645
  0
HATCH
  5
2E3
330
1F
100
AcDbEntity
  8
Ech.1_5
  6
Continuous
 62
   254
420
 16643007
440
 33554687
370
    20
390
5F
100
AcDbHatch
 10
0.0
 20
0.0
 30
0.0
210
0.0
220
0.0
230
1.0
  2
SOLID
 70
     1
 71
     0
 91
        1
 92
        3
 72
     1
 73
     1
 93
        5
 10
23134.75968635832
 20
-5639.30204721923
 42
0.110538185387198
 10
23204.34553271571
 20
-5682.014513913685
 42
0.0
 10
23325.59254620082
 20
-5682.017522963209
 42
0.1243461357732065
 10
23402.28980414844
 20
-5632.019426387932
 42
0.0
 10
23134.75989169599
 20
-5632.012786960518
 42
0.0
 97
        0
 75
     0
 76
     1
 98
        0
  0
LWPOLYLINE
  5
2E4
330
1F
100
AcDbEntity
  8
Ech.1_5
  6
Continuous
 62
   190
370
    15
390
5F
100
AcDbPolyline
 90
        6
 70
     0
 43
0.0
 10
23134.75968635832
 20
-5639.30204721923
 42
0.1105381853871787
 10
23204.34553271571
 20
-5682.014513913685
 10
23325.59254620082
 20
-5682.017522963209
 42
0.1243461357731904
 10
23402.28980414844
 20
-5632.019426387932
 10
23134.75989169599
 20
-5632.012786960518
 10
23134.75968635832
 20
-5639.30204721923
  0
LWPOLYLINE
  5
2E5
330
1F
100
AcDbEntity
  8
Ech.1_5
  6
Continuous
 62
   190
370
    15
390
5F
100
AcDbPolyline
 90
        4
 70
     0
 43
0.0
 10
23144.98851856671
 20
-5648.526998714665
 10
23143.37674981616
 20
-5642.503164377177
 42
-1.30322618685527
 10
23159.47551097862
 20
-5642.503563908392
 10
23155.64600173849
 20
-5656.81315045304
  0
LWPOLYLINE
  5
2E6
330
1F
100
AcDbEntity
  8
Ech.1_5
  6
Continuous
 62
   190
370
    15
390
5F
100
AcDbPolyline
 90
        6
 70
     0
 43
0.0
 10
23184.47479077244
 20
-5671.523857203368
 10
23176.71008313613
 20
-5642.503991627656
 42
-1.303226186857078
 10
23192.80884429859
 20
-5642.504391158899
 10
23185.04269626996
 20
-5671.523871297363
 42
0.0762874332396812
 10
23184.7662983399
 20
-5674.036918035957
 10
23184.75136467415
 20
-5674.029822819529
  0
ARC
  5
2E7
330
1F
100
AcDbEntity
  8
Ech.1_5
  6
Continuous
 62
   190
370
    15
390
5F
100
AcDbCircle
 10
23176.4253566639
 20
-5673.680487669207
 30
0.0
 40
8.333333332703797
100
AcDbArc
 50
357.5974444089203
 51
14.99861262940827
  0
LWPOLYLINE
  5
2E8
330
1F
100
AcDbEntity
  8
Ech.1_5
  6
Continuous
 62
   190
370
    15
390
5F
100
AcDbPolyline
 90
       34
 70
     0
 43
0.0
 10
23198.59647133634
 20
-5679.937537492199
 42
0.2851312128128673
 10
23201.14145743243
 20
-5671.524270828636
 10
23193.37674979611
 20
-5642.504405252895
 42
-1.303226186853462
 10
23209.47551095857
 20
-5642.504804784138
 10
23201.70936292995
 20
-5671.524284922632
 42
1.303226186854682
 10
23217.80812409241
 20
-5671.524684453846
 10
23210.0434164561
 20
-5642.504818878134
 42
-1.30322618685649
 10
23226.14217761856
 20
-5642.505218409377
 10
23218.37602958994
 20
-5671.524698547842
 42
1.303226186858886
 10
23234.4747907524
 20
-5671.525098079114
 10
23226.71008311608
 20
-5642.505232503402
 42
-1.303226186854682
 10
23242.80884427855
 20
-5642.505632034617
 10
23235.04269624992
 20
-5671.52511217311
 42
1.30322618685527
 10
23251.14145741238
 20
-5671.525511704324
 10
23243.37674977607
 20
-5642.505646128612
 42
-1.303226186858297
 10
23259.47551093853
 20
-5642.506045659885
 10
23251.70936290991
 20
-5671.525525798349
 42
1.303226186857078
 10
23267.80812407237
 20
-5671.525925329593
 10
23260.04341643605
 20
-5642.50605975388
 42
-1.303226186854682
 10
23276.14217759852
 20
-5642.506459285095
 10
23268.37602956989
 20
-5671.525939423588
 42
1.303226186853462
 10
23284.47479073235
 20
-5671.526338954832
 10
23276.71008309604
 20
-5642.50647337909
 42
-1.303226186854682
 10
23292.8088442585
 20
-5642.506872910363
 10
23285.04269622988
 20
-5671.526353048827
 42
1.303226186857078
 10
23301.14145739234
 20
-5671.526752580071
 10
23293.37674975602
 20
-5642.506887004359
 42
-1.303226186854682
 10
23309.47551091849
 20
-5642.507286535573
 10
23301.70936288986
 20
-5671.526766674066
 42
1.30322618685649
 10
23317.80812405233
 20
-5671.52716620531
 10
23310.04341641601
 20
-5642.507300629598
 42
-1.30322618685649
 10
23326.14217757847
 20
-5642.507700160842
 10
23318.37602954985
 20
-5671.527180299335
 42
0.465902456446546
 10
23325.68779454867
 20
-5681.98483958855
  0
LWPOLYLINE
  5
2E9
330
1F
100
AcDbEntity
  8
Ech.1_5
  6
Continuous
 62
   190
370
    15
390
5F
100
AcDbPolyline
 90
        6
 70
     0
 43
0.0
 10
23332.33387005305
 20
-5679.560766537311
 42
0.2672162507333106
 10
23334.47479071231
 20
-5671.527579830549
 10
23326.71008307599
 20
-5642.507714254837
 42
-1.30322618685649
 10
23342.80884423846
 20
-5642.508113786081
 10
23335.04269620983
 20
-5671.527593924545
 42
0.2076807246827565
 10
23336.01943786406
 20
-5678.091774950747
  0
LWPOLYLINE
  5
2EA
330
1F
100
AcDbEntity
  8
Ech.1_5
  6
Continuous
 62
   190
370
    15
390
5F
100
AcDbPolyline
 90
        4
 70
     0
 43
0.0
 10
23365.4735668315
 20
-5662.803218790775
 10
23360.04341639597
 20
-5642.508541505315
 42
-1.303226186857078
 10
23376.14217755843
 20
-5642.508941036559
 10
23371.84890224509
 20
-5658.551465235826
  0
LWPOLYLINE
  5
2EB
330
1F
100
AcDbEntity
  8
Ech.1_5
  6
Continuous
 62
   190
370
    15
390
5F
100
AcDbPolyline
 90
        4
 70
     0
 43
0.0
 10
23165.6788663689
 20
-5663.565542728787
 10
23160.04341647614
 20
-5642.503578002416
 42
-1.303226186857078
 10
23176.1421776386
 20
-5642.50397753366
 10
23169.82924520929
 20
-5666.093280309354
  0
LWPOLYLINE
  5
2EC
330
1F
100
AcDbEntity
  8
Ech.1_5
  6
Continuous
 62
   190
370
    15
390
5F
100
AcDbPolyline
 90
        4
 70
     0
 43
0.0
 10
23351.03477380936
 20
-5671.129273658419
 10
23343.37674973598
 20
-5642.508127880076
 42
-1.303226186853462
 10
23359.47551089844
 20
-5642.50852741132
 10
23351.94298182608
 20
-5670.655052175241
  0
LWPOLYLINE
  5
2ED
330
1F
100
AcDbEntity
  8
Ech.1_5
  6
Continuous
 62
   190
370
    15
390
5F
100
AcDbPolyline
 90
        3
 70
     0
 43
0.0
 10
23379.49756789726
 20
-5652.926917941016
 10
23376.71008305595
 20
-5642.508955130584
 42
-1.212651969361365
 10
23393.03144011383
 20
-5641.362144029453
  0
ARC
  5
2EE
330
1F
100
AcDbEntity
  8
Ech.1_5
  6
Continuous
 62
   190
370
    15
390
5F
100
AcDbCircle
 10
23401.42618382434
 20
-5640.352738289977
 30
0.0
 40
8.333333332565662
100
AcDbArc
 50
84.31321816839025
 51
186.2359383447233
  0
LINE
  5
2EF
330
1F
100
AcDbEntity
  8
Ech.1_5
  6
Continuous
 62
   190
370
    15
390
5F
100
AcDbLine
 10
23402.28980414844
 20
-5632.019426387932
 30
0.0
 11
23402.25193538448
 21
-5632.060417819049
 31
0.0
  0
LINE
  5
2F0
330
1F
100
AcDbEntity
  8
Ech.1_5
  6
Continuous
 62
   190
370
    15
390
5F
100
AcDbLine
 10
23393.14215860318
 20
-5641.257929190721
 30
0.0
 11
23393.03144011383
 21
-5641.362144029453
 31
0.0
  0
HATCH
  5
2F1
330
1F
100
AcDbEntity
  8
Ech.1_5
  6
Continuous
 62
   190
440
 33554687
370
    15
390
5F
100
AcDbHatch
 10
0.0
 20
0.0
 30
0.0
210
0.0
220
0.0
230
1.0
  2
SOLID
 70
     1
 71
     0
 91
        1
 92
        3
 72
     1
 73
     1
 93
        8
 10
23162.75848345195
 20
-5636.01278693607
 42
0.0
 10
23162.75848345195
 20
-5640.01278693607
 42
0.0
 10
23164.75848345195
 20
-5640.01278693607
 42
0.0
 10
23164.75848345195
 20
-5634.01278693607
 42
0.0
 10
23134.75848320146
 20
-5634.01278693607
 42
0.0
 10
23134.75848320146
 20
-5639.300878923642
 42
0.0037021168421901
 10
23136.75848345195
 20
-5641.2143804339
 42
0.0
 10
23136.75848345195
 20
-5636.01278693607
 42
0.0
 97
        0
 75
     0
 76
     1
 98
        0
  0
LWPOLYLINE
  5
2F2
330
1F
100
AcDbEntity
  8
Ech.1_5
  6
Continuous
 62
   190
370
    15
390
5F
100
AcDbPolyline
 90
        9
 70
     0
 43
0.0
 10
23162.75848345195
 20
-5636.01278693607
 10
23162.75848345195
 20
-5640.01278693607
 10
23164.75848345195
 20
-5640.01278693607
 10
23164.75848345195
 20
-5634.01278693607
 10
23134.75848320146
 20
-5634.01278693607
 10
23134.75848320146
 20
-5639.300878923642
 42
0.0037021168431341
 10
23136.75848345195
 20
-5641.2143804339
 10
23136.75848345195
 20
-5636.01278693607
 10
23162.75848345195
 20
-5636.01278693607
  0
HATCH
  5
2F3
330
1F
100
AcDbEntity
  8
Ech.1_5
  6
Continuous
 62
   158
420
    12131
440
 33554687
370
    20
390
5F
100
AcDbHatch
 10
0.0
 20
0.0
 30
0.0
210
0.0
220
0.0
230
1.0
  2
SOLID
 70
     1
 71
     0
 91
        1
 92
        3
 72
     0
 73
     1
 93
        8
 10
22696.98256159946
 20
-6613.20580720584
 10
22696.98256159946
 20
-6610.259869685845
 10
22696.00243871946
 20
-6610.259869685845
 10
22696.00243871946
 20
-6609.817143725847
 10
22698.55577019946
 20
-6609.817143725847
 10
22698.50565027946
 20
-6610.259869685845
 10
22697.47540747946
 20
-6610.259869685845
 10
22697.47540747946
 20
-6613.20580720584
 97
        0
 75
     0
 76
     1
 98
        0
  0
HATCH
  5
2F4
330
1F
100
AcDbEntity
  8
Ech.1_5
  6
Continuous
 62
   158
420
    12131
440
 33554687
370
    20
390
5F
100
AcDbHatch
 10
0.0
 20
0.0
 30
0.0
210
0.0
220
0.0
230
1.0
  2
SOLID
 70
     1
 71
     0
 91
        1
 92
        3
 72
     0
 73
     1
 93
        4
 10
22699.34098227946
 20
-6613.20580720584
 10
22699.34098227946
 20
-6609.817143725847
 10
22699.88116363946
 20
-6609.817143725847
 10
22699.88116363946
 20
-6613.20580720584
 97
        0
 75
     0
 76
     1
 98
        0
  0
HATCH
  5
2F5
330
1F
100
AcDbEntity
  8
Ech.1_5
  6
Continuous
 62
   158
420
    12131
440
 33554687
370
    20
390
5F
100
AcDbHatch
 10
0.0
 20
0.0
 30
0.0
210
0.0
220
0.0
230
1.0
  2
SOLID
 70
     1
 71
     0
 91
        1
 92
        3
 72
     0
 73
     1
 93
        8
 10
22701.64928303946
 20
-6613.20580720584
 10
22701.64928303946
 20
-6610.259869685845
 10
22700.66637571946
 20
-6610.259869685845
 10
22700.66637571946
 20
-6609.817143725847
 10
22703.22249163946
 20
-6609.817143725847
 10
22703.17237171946
 20
-6610.259869685845
 10
22702.18946439946
 20
-6610.259869685845
 10
22702.18946439946
 20
-6613.20580720584
 97
        0
 75
     0
 76
     1
 98
        0
  0
HATCH
  5
2F6
330
1F
100
AcDbEntity
  8
Ech.1_5
  6
Continuous
 62
   158
420
    12131
440
 33554687
370
    20
390
5F
100
AcDbHatch
 10
0.0
 20
0.0
 30
0.0
210
0.0
220
0.0
230
1.0
  2
SOLID
 70
     1
 71
     0
 91
        1
 92
        3
 72
     0
 73
     1
 93
       32
 10
22705.13818635946
 20
-6613.255927125848
 10
22704.89037119946
 20
-6613.255927125848
 10
22704.49776515946
 20
-6613.155687285846
 10
22704.20261451946
 20
-6613.008111965847
 10
22704.00770371946
 20
-6612.763081245842
 10
22703.95758379946
 20
-6612.665625845843
 10
22703.91024831947
 20
-6612.518050525851
 10
22703.86012839946
 20
-6612.222899885845
 10
22703.86012839946
 20
-6609.817143725847
 10
22704.35018983946
 20
-6609.817143725847
 10
22704.35018983946
 20
-6611.830293845841
 10
22704.35018983946
 20
-6612.222899885845
 10
22704.40030975946
 20
-6612.420595125838
 10
22704.59800499947
 20
-6612.665625845843
 10
22704.74279587947
 20
-6612.763081245842
 10
22704.99061103947
 20
-6612.813201165843
 10
22705.13818635946
 20
-6612.813201165843
 10
22705.33309715946
 20
-6612.813201165843
 10
22705.57812787946
 20
-6612.715745765837
 10
22705.72570319947
 20
-6612.615505925843
 10
22705.82315859947
 20
-6612.467930605836
 10
22705.87327851946
 20
-6612.175564405848
 10
22705.87327851946
 20
-6609.817143725847
 10
22706.41345987946
 20
-6609.817143725847
 10
22706.41345987946
 20
-6611.97786916584
 10
22706.41345987946
 20
-6612.320355285837
 10
22706.31600447946
 20
-6612.665625845843
 10
22706.21854907946
 20
-6612.863321085836
 10
22706.11830923946
 20
-6612.910656565834
 10
22706.02085383946
 20
-6613.008111965847
 10
22705.82315859947
 20
-6613.155687285846
 10
22705.43055255946
 20
-6613.255927125848
 97
        0
 75
     0
 76
     1
 98
        0
  0
HATCH
  5
2F7
330
1F
100
AcDbEntity
  8
Ech.1_5
  6
Continuous
 62
   158
420
    12131
440
 33554687
370
    20
390
5F
100
AcDbHatch
 10
0.0
 20
0.0
 30
0.0
210
0.0
220
0.0
230
1.0
  2
SOLID
 70
     1
 71
     0
 91
        1
 92
        3
 72
     0
 73
     1
 93
        8
 10
22708.18157927946
 20
-6613.20580720584
 10
22708.18157927946
 20
-6610.259869685845
 10
22707.19867195946
 20
-6610.259869685845
 10
22707.19867195946
 20
-6609.817143725847
 10
22709.75478787946
 20
-6609.817143725847
 10
22709.70466795946
 20
-6610.259869685845
 10
22708.72176063946
 20
-6610.259869685845
 10
22708.72176063946
 20
-6613.20580720584
 97
        0
 75
     0
 76
     1
 98
        0
  0
HATCH
  5
2F8
330
1F
100
AcDbEntity
  8
Ech.1_5
  6
Continuous
 62
   158
420
    12131
440
 33554687
370
    20
390
5F
100
AcDbHatch
 10
0.0
 20
0.0
 30
0.0
210
0.0
220
0.0
230
1.0
  2
SOLID
 70
     1
 71
     0
 91
        1
 92
        3
 72
     0
 73
     1
 93
        8
 10
22688.24220443946
 20
-6620.130709485839
 10
22688.24220443946
 20
-6617.184771965852
 10
22687.25929711946
 20
-6617.184771965852
 10
22687.25929711946
 20
-6616.742046005854
 10
22689.86274851946
 20
-6616.742046005854
 10
22689.76529311946
 20
-6617.184771965852
 10
22688.78238579947
 20
-6617.184771965852
 10
22688.78238579947
 20
-6620.130709485839
 97
        0
 75
     0
 76
     1
 98
        0
  0
HATCH
  5
2F9
330
1F
100
AcDbEntity
  8
Ech.1_5
  6
Continuous
 62
   158
420
    12131
440
 33554687
370
    20
390
5F
100
AcDbHatch
 10
0.0
 20
0.0
 30
0.0
210
0.0
220
0.0
230
1.0
  2
SOLID
 70
     1
 71
     0
 91
        1
 92
        3
 72
     0
 73
     1
 93
       12
 10
22690.59784067946
 20
-6620.130709485839
 10
22690.59784067946
 20
-6616.742046005854
 10
22692.71123063946
 20
-6616.742046005854
 10
22692.61377523946
 20
-6617.184771965852
 10
22691.13802203946
 20
-6617.184771965852
 10
22691.13802203946
 20
-6618.167679285853
 10
22692.36596007946
 20
-6618.167679285853
 10
22692.36596007946
 20
-6618.560285325836
 10
22691.13802203946
 20
-6618.560285325836
 10
22691.13802203946
 20
-6619.640648045844
 10
22692.76135055946
 20
-6619.640648045844
 10
22692.76135055946
 20
-6620.130709485839
 97
        0
 75
     0
 76
     1
 98
        0
  0
HATCH
  5
2FA
330
1F
100
AcDbEntity
  8
Ech.1_5
  6
Continuous
 62
   158
420
    12131
440
 33554687
370
    20
390
5F
100
AcDbHatch
 10
0.0
 20
0.0
 30
0.0
210
0.0
220
0.0
230
1.0
  2
SOLID
 70
     1
 71
     0
 91
        1
 92
        3
 72
     0
 73
     1
 93
       38
 10
22695.11698679946
 20
-6620.180829405855
 10
22694.77450067946
 20
-6620.130709485839
 10
22694.18419939946
 20
-6619.885678765849
 10
22693.74147343946
 20
-6619.442952805851
 10
22693.54656263947
 20
-6618.805316045848
 10
22693.49644271946
 20
-6618.460045485842
 10
22693.54656263947
 20
-6618.067439445859
 10
22693.79159335946
 20
-6617.429802685842
 10
22694.23431931946
 20
-6616.939741245839
 10
22694.82183615946
 20
-6616.691926085839
 10
22695.11698679946
 20
-6616.691926085839
 10
22695.41213743947
 20
-6616.691926085839
 10
22695.90219887946
 20
-6616.839501405838
 10
22696.09989411946
 20
-6616.939741245839
 10
22695.80474347946
 20
-6617.332347285844
 10
22695.65716815946
 20
-6617.184771965852
 10
22695.31468203946
 20
-6617.084532125843
 10
22695.16710671946
 20
-6617.084532125843
 10
22695.01953139946
 20
-6617.084532125843
 10
22694.72438075946
 20
-6617.184771965852
 10
22694.47935003946
 20
-6617.332347285844
 10
22694.28165479946
 20
-6617.527258085848
 10
22694.23431931946
 20
-6617.67483340584
 10
22694.13407947946
 20
-6617.822408725847
 10
22694.08674399946
 20
-6618.215014765851
 10
22694.08674399946
 20
-6618.460045485842
 10
22694.08674399946
 20
-6618.805316045848
 10
22694.23431931946
 20
-6619.248042005846
 10
22694.38189463946
 20
-6619.392832885843
 10
22694.52946995946
 20
-6619.59052812585
 10
22694.96941147946
 20
-6619.738103445857
 10
22695.16710671946
 20
-6619.738103445857
 10
22695.36201751946
 20
-6619.738103445857
 10
22695.75740799947
 20
-6619.640648045844
 10
22695.90219887946
 20
-6619.540408205835
 10
22696.15001403946
 20
-6619.885678765849
 10
22695.95231879946
 20
-6620.033254085848
 10
22695.41213743947
 20
-6620.130709485839
 97
        0
 75
     0
 76
     1
 98
        0
  0
HATCH
  5
2FB
330
1F
100
AcDbEntity
  8
Ech.1_5
  6
Continuous
 62
   158
420
    12131
440
 33554687
370
    20
390
5F
100
AcDbHatch
 10
0.0
 20
0.0
 30
0.0
210
0.0
220
0.0
230
1.0
  2
SOLID
 70
     1
 71
     0
 91
        1
 92
        3
 72
     0
 73
     1
 93
       12
 10
22696.83777071947
 20
-6620.130709485839
 10
22696.83777071947
 20
-6616.742046005854
 10
22697.37795207946
 20
-6616.742046005854
 10
22697.37795207946
 20
-6618.117559365838
 10
22698.89825631946
 20
-6618.117559365838
 10
22698.89825631946
 20
-6616.742046005854
 10
22699.39110219946
 20
-6616.742046005854
 10
22699.39110219946
 20
-6620.130709485839
 10
22698.89825631946
 20
-6620.130709485839
 10
22698.89825631946
 20
-6618.560285325836
 10
22697.37795207946
 20
-6618.560285325836
 10
22697.37795207946
 20
-6620.130709485839
 97
        0
 75
     0
 76
     1
 98
        0
  0
HATCH
  5
2FC
330
1F
100
AcDbEntity
  8
Ech.1_5
  6
Continuous
 62
   158
420
    12131
440
 33554687
370
    20
390
5F
100
AcDbHatch
 10
0.0
 20
0.0
 30
0.0
210
0.0
220
0.0
230
1.0
  2
SOLID
 70
     1
 71
     0
 91
        1
 92
        3
 72
     0
 73
     1
 93
       18
 10
22700.56892031946
 20
-6620.130709485839
 10
22700.56892031946
 20
-6616.742046005854
 10
22701.15922159946
 20
-6616.742046005854
 10
22702.23958431946
 20
-6618.560285325836
 10
22702.58207043946
 20
-6619.147802165852
 10
22702.68231027946
 20
-6619.392832885843
 10
22702.63219035947
 20
-6618.90277144584
 10
22702.63219035947
 20
-6618.412710005844
 10
22702.63219035947
 20
-6616.742046005854
 10
22703.12225179946
 20
-6616.742046005854
 10
22703.12225179946
 20
-6620.130709485839
 10
22702.58207043946
 20
-6620.130709485839
 10
22701.50170771946
 20
-6618.312470165835
 10
22701.25667699946
 20
-6617.969984045846
 10
22701.01164627946
 20
-6617.429802685842
 10
22701.06176619946
 20
-6617.724953325855
 10
22701.06176619946
 20
-6618.412710005844
 10
22701.10910167946
 20
-6620.130709485839
 97
        0
 75
     0
 76
     1
 98
        0
  0
HATCH
  5
2FD
330
1F
100
AcDbEntity
  8
Ech.1_5
  6
Continuous
 62
   158
420
    12131
440
 33554687
370
    20
390
5F
100
AcDbHatch
 10
0.0
 20
0.0
 30
0.0
210
0.0
220
0.0
230
1.0
  2
SOLID
 70
     1
 71
     0
 91
        1
 92
        3
 72
     0
 73
     1
 93
       56
 10
22705.67836771946
 20
-6620.180829405855
 10
22705.67836771946
 20
-6619.788223365836
 10
22705.87327851946
 20
-6619.788223365836
 10
22706.11830923946
 20
-6619.687983525841
 10
22706.31600447946
 20
-6619.59052812585
 10
22706.46357979946
 20
-6619.392832885843
 10
22706.51091527946
 20
-6619.295377485859
 10
22706.61115511946
 20
-6619.000226845853
 10
22706.61115511946
 20
-6618.510165405857
 10
22706.61115511946
 20
-6618.167679285853
 10
22706.56103519946
 20
-6617.724953325855
 10
22706.46357979946
 20
-6617.527258085848
 10
22706.41345987946
 20
-6617.429802685842
 10
22706.21854907946
 20
-6617.282227365836
 10
22706.02085383946
 20
-6617.184771965852
 10
22705.77582311946
 20
-6617.084532125843
 10
22705.62824779946
 20
-6617.084532125843
 10
22705.38321707946
 20
-6617.134652045836
 10
22705.08806643946
 20
-6617.232107445842
 10
22704.94049111947
 20
-6617.379682765849
 10
22704.79291579946
 20
-6617.577378005834
 10
22704.69546039946
 20
-6618.067439445859
 10
22704.69546039946
 20
-6618.362590085851
 10
22704.69546039946
 20
-6618.707860645843
 10
22704.84303571946
 20
-6619.248042005846
 10
22704.94049111947
 20
-6619.442952805851
 10
22705.13818635946
 20
-6619.640648045844
 10
22705.43055255946
 20
-6619.788223365836
 10
22705.67836771946
 20
-6619.788223365836
 10
22705.67836771946
 20
-6620.180829405855
 10
22705.33309715946
 20
-6620.130709485839
 10
22704.89037119946
 20
-6620.033254085848
 10
22704.64534047947
 20
-6619.835558845841
 10
22704.54788507946
 20
-6619.738103445857
 10
22704.35018983946
 20
-6619.442952805851
 10
22704.15527903946
 20
-6618.805316045848
 10
22704.10515911946
 20
-6618.412710005844
 10
22704.15527903946
 20
-6618.020103965854
 10
22704.35018983946
 20
-6617.379682765849
 10
22704.64534047947
 20
-6617.037196645845
 10
22704.89037119946
 20
-6616.839501405838
 10
22705.28297723946
 20
-6616.691926085839
 10
22705.62824779946
 20
-6616.691926085839
 10
22706.07097375947
 20
-6616.691926085839
 10
22706.51091527946
 20
-6616.889621325846
 10
22706.75873043946
 20
-6617.084532125843
 10
22706.85618583946
 20
-6617.232107445842
 10
22707.05109663946
 20
-6617.429802685842
 10
22707.19867195946
 20
-6618.067439445859
 10
22707.19867195946
 20
-6618.460045485842
 10
22707.19867195946
 20
-6618.852651525861
 10
22707.05109663946
 20
-6619.442952805851
 10
22706.85618583946
 20
-6619.640648045844
 10
22706.75873043946
 20
-6619.788223365836
 10
22706.51091527946
 20
-6619.983134165847
 10
22706.07097375947
 20
-6620.130709485839
 97
        0
 75
     0
 76
     1
 98
        0
  0
HATCH
  5
2FE
330
1F
100
AcDbEntity
  8
Ech.1_5
  6
Continuous
 62
   158
420
    12131
440
 33554687
370
    20
390
5F
100
AcDbHatch
 10
0.0
 20
0.0
 30
0.0
210
0.0
220
0.0
230
1.0
  2
SOLID
 70
     1
 71
     0
 91
        1
 92
        3
 72
     0
 73
     1
 93
        6
 10
22708.23169919946
 20
-6620.130709485839
 10
22708.23169919946
 20
-6616.742046005854
 10
22708.72176063946
 20
-6616.742046005854
 10
22708.72176063946
 20
-6619.687983525841
 10
22710.19472939946
 20
-6619.687983525841
 10
22710.14739391946
 20
-6620.130709485839
 97
        0
 75
     0
 76
     1
 98
        0
  0
HATCH
  5
2FF
330
1F
100
AcDbEntity
  8
Ech.1_5
  6
Continuous
 62
   158
420
    12131
440
 33554687
370
    20
390
5F
100
AcDbHatch
 10
0.0
 20
0.0
 30
0.0
210
0.0
220
0.0
230
1.0
  2
SOLID
 70
     1
 71
     0
 91
        1
 92
        3
 72
     0
 73
     1
 93
       56
 10
22711.91551331946
 20
-6620.180829405855
 10
22711.96284879946
 20
-6619.788223365836
 10
22712.11042411946
 20
-6619.788223365836
 10
22712.35545483946
 20
-6619.687983525841
 10
22712.55315007946
 20
-6619.59052812585
 10
22712.70072539946
 20
-6619.392832885843
 10
22712.75084531946
 20
-6619.295377485859
 10
22712.84830071946
 20
-6619.000226845853
 10
22712.89563619946
 20
-6618.510165405857
 10
22712.89563619946
 20
-6618.167679285853
 10
22712.79818079947
 20
-6617.724953325855
 10
22712.70072539946
 20
-6617.527258085848
 10
22712.65060547946
 20
-6617.429802685842
 10
22712.50303015946
 20
-6617.282227365836
 10
22712.25799943946
 20
-6617.184771965852
 10
22712.01296871946
 20
-6617.084532125843
 10
22711.86539339946
 20
-6617.084532125843
 10
22711.67048259946
 20
-6617.134652045836
 10
22711.32521203946
 20
-6617.232107445842
 10
22711.17763671946
 20
-6617.379682765849
 10
22711.03006139946
 20
-6617.577378005834
 10
22710.93260599946
 20
-6618.067439445859
 10
22710.93260599946
 20
-6618.362590085851
 10
22710.93260599946
 20
-6618.707860645843
 10
22711.08018131946
 20
-6619.248042005846
 10
22711.17763671946
 20
-6619.442952805851
 10
22711.37533195946
 20
-6619.640648045844
 10
22711.67048259946
 20
-6619.788223365836
 10
22711.96284879946
 20
-6619.788223365836
 10
22711.91551331946
 20
-6620.180829405855
 10
22711.57024275946
 20
-6620.130709485839
 10
22711.17763671946
 20
-6620.033254085848
 10
22710.93260599946
 20
-6619.835558845841
 10
22710.78503067946
 20
-6619.738103445857
 10
22710.58733543946
 20
-6619.442952805851
 10
22710.39242463946
 20
-6618.805316045848
 10
22710.34230471947
 20
-6618.412710005844
 10
22710.39242463946
 20
-6618.020103965854
 10
22710.58733543946
 20
-6617.379682765849
 10
22710.88248607946
 20
-6617.037196645845
 10
22711.12751679946
 20
-6616.839501405838
 10
22711.52290727946
 20
-6616.691926085839
 10
22711.91551331946
 20
-6616.691926085839
 10
22712.30811935946
 20
-6616.691926085839
 10
22712.75084531946
 20
-6616.889621325846
 10
22712.99587603946
 20
-6617.084532125843
 10
22713.09333143946
 20
-6617.232107445842
 10
22713.29102667946
 20
-6617.429802685842
 10
22713.43860199946
 20
-6618.067439445859
 10
22713.48593747947
 20
-6618.460045485842
 10
22713.43860199946
 20
-6618.852651525861
 10
22713.29102667946
 20
-6619.442952805851
 10
22713.14345135946
 20
-6619.640648045844
 10
22712.99587603946
 20
-6619.788223365836
 10
22712.75084531946
 20
-6619.983134165847
 10
22712.30811935946
 20
-6620.130709485839
 97
        0
 75
     0
 76
     1
 98
        0
  0
HATCH
  5
300
330
1F
100
AcDbEntity
  8
Ech.1_5
  6
Continuous
 62
   158
420
    12131
440
 33554687
370
    20
390
5F
100
AcDbHatch
 10
0.0
 20
0.0
 30
0.0
210
0.0
220
0.0
230
1.0
  2
SOLID
 70
     1
 71
     0
 91
        1
 92
        3
 72
     0
 73
     1
 93
       46
 10
22715.94181355946
 20
-6620.180829405855
 10
22715.54920751946
 20
-6620.130709485839
 10
22714.95890623947
 20
-6619.885678765849
 10
22714.71387551946
 20
-6619.687983525841
 10
22714.61642011946
 20
-6619.59052812585
 10
22714.41872487946
 20
-6619.295377485859
 10
22714.27114955946
 20
-6618.805316045848
 10
22714.22381407947
 20
-6618.412710005844
 10
22714.27114955946
 20
-6617.919864125853
 10
22714.46884479946
 20
-6617.379682765849
 10
22714.71387551946
 20
-6617.084532125843
 10
22714.86145083946
 20
-6616.987076725844
 10
22715.10648155946
 20
-6616.839501405838
 10
22715.59932743946
 20
-6616.691926085839
 10
22715.84435815946
 20
-6616.691926085839
 10
22716.13950879946
 20
-6616.691926085839
 10
22716.67969015946
 20
-6616.889621325846
 10
22716.92472087946
 20
-6617.084532125843
 10
22716.67969015946
 20
-6617.379682765849
 10
22716.48199491946
 20
-6617.282227365836
 10
22716.13950879946
 20
-6617.134652045836
 10
22715.89169363946
 20
-6617.134652045836
 10
22715.69678283946
 20
-6617.134652045836
 10
22715.40163219946
 20
-6617.184771965852
 10
22715.20672139946
 20
-6617.332347285844
 10
22715.00902615946
 20
-6617.479922605843
 10
22714.95890623947
 20
-6617.577378005834
 10
22714.86145083946
 20
-6617.969984045846
 10
22714.81133091946
 20
-6618.460045485842
 10
22714.81133091946
 20
-6618.852651525861
 10
22715.00902615946
 20
-6619.295377485859
 10
22715.20672139946
 20
-6619.540408205835
 10
22715.30417679947
 20
-6619.59052812585
 10
22715.45175211946
 20
-6619.640648045844
 10
22715.79423823946
 20
-6619.738103445857
 10
22715.94181355946
 20
-6619.788223365836
 10
22716.13950879946
 20
-6619.738103445857
 10
22716.43187499946
 20
-6619.687983525841
 10
22716.53211483947
 20
-6619.640648045844
 10
22716.53211483947
 20
-6618.755196125848
 10
22715.79423823946
 20
-6618.755196125848
 10
22715.69678283946
 20
-6618.312470165835
 10
22717.02217627946
 20
-6618.312470165835
 10
22717.02217627946
 20
-6619.885678765849
 10
22716.77714555946
 20
-6620.033254085848
 10
22716.23696419946
 20
-6620.130709485839
 97
        0
 75
     0
 76
     1
 98
        0
  0
HATCH
  5
301
330
1F
100
AcDbEntity
  8
Ech.1_5
  6
Continuous
 62
   158
420
    12131
440
 33554687
370
    20
390
5F
100
AcDbHatch
 10
0.0
 20
0.0
 30
0.0
210
0.0
220
0.0
230
1.0
  2
SOLID
 70
     1
 71
     0
 91
        1
 92
        3
 72
     0
 73
     1
 93
        4
 10
22718.05520351946
 20
-6620.130709485839
 10
22718.05520351946
 20
-6616.742046005854
 10
22718.54526495946
 20
-6616.742046005854
 10
22718.54526495946
 20
-6620.130709485839
 97
        0
 75
     0
 76
     1
 98
        0
  0
HATCH
  5
302
330
1F
100
AcDbEntity
  8
Ech.1_5
  6
Continuous
 62
   158
420
    12131
440
 33554687
370
    20
390
5F
100
AcDbHatch
 10
0.0
 20
0.0
 30
0.0
210
0.0
220
0.0
230
1.0
  2
SOLID
 70
     1
 71
     0
 91
        1
 92
        3
 72
     0
 73
     1
 93
       64
 10
22722.86671583946
 20
-6620.868586085843
 10
22722.67180503946
 20
-6620.81846616585
 10
22722.37665439946
 20
-6620.721010765837
 10
22721.59144231946
 20
-6620.278284805839
 10
22721.29629167946
 20
-6620.180829405855
 10
22721.29629167946
 20
-6619.788223365836
 10
22721.54132239947
 20
-6619.687983525841
 10
22721.73623319946
 20
-6619.59052812585
 10
22721.88380851946
 20
-6619.392832885843
 10
22721.93392843946
 20
-6619.295377485859
 10
22722.08150375946
 20
-6619.000226845853
 10
22722.08150375946
 20
-6618.510165405857
 10
22722.08150375946
 20
-6618.167679285853
 10
22721.98404835946
 20
-6617.724953325855
 10
22721.83647303946
 20
-6617.429802685842
 10
22721.63877779946
 20
-6617.282227365836
 10
22721.44386699946
 20
-6617.184771965852
 10
22721.19605183946
 20
-6617.084532125843
 10
22721.05126095946
 20
-6617.084532125843
 10
22720.85356571946
 20
-6617.134652045836
 10
22720.55841507946
 20
-6617.232107445842
 10
22720.36350427946
 20
-6617.379682765849
 10
22720.21592895946
 20
-6617.577378005834
 10
22720.11568911946
 20
-6618.067439445859
 10
22720.11568911946
 20
-6618.362590085851
 10
22720.11568911946
 20
-6618.657740725849
 10
22720.21592895946
 20
-6619.197922085846
 10
22720.41083975946
 20
-6619.493072725844
 10
22720.55841507946
 20
-6619.640648045844
 10
22720.75611031946
 20
-6619.738103445857
 10
22721.00114103946
 20
-6619.788223365836
 10
22721.29629167946
 20
-6619.788223365836
 10
22721.29629167946
 20
-6620.180829405855
 10
22720.75611031946
 20
-6620.130709485839
 10
22720.36350427946
 20
-6620.033254085848
 10
22720.11568911946
 20
-6619.835558845841
 10
22720.01823371946
 20
-6619.738103445857
 10
22719.77320299946
 20
-6619.442952805851
 10
22719.57550775947
 20
-6618.805316045848
 10
22719.57550775947
 20
-6618.412710005844
 10
22719.57550775947
 20
-6618.020103965854
 10
22719.77320299946
 20
-6617.379682765849
 10
22720.06835363946
 20
-6617.037196645845
 10
22720.31338435946
 20
-6616.839501405838
 10
22720.75611031946
 20
-6616.691926085839
 10
22721.09859643946
 20
-6616.691926085839
 10
22721.29629167946
 20
-6616.691926085839
 10
22721.63877779946
 20
-6616.792165925833
 10
22722.08150375946
 20
-6616.987076725844
 10
22722.32653447946
 20
-6617.232107445842
 10
22722.47410979946
 20
-6617.429802685842
 10
22722.62168511947
 20
-6618.067439445859
 10
22722.67180503946
 20
-6618.460045485842
 10
22722.62168511947
 20
-6618.852651525861
 10
22722.47410979946
 20
-6619.442952805851
 10
22722.32653447946
 20
-6619.640648045844
 10
22722.13162367946
 20
-6619.885678765849
 10
22721.93392843946
 20
-6619.983134165847
 10
22722.27919899947
 20
-6620.130709485839
 10
22722.71914051946
 20
-6620.425860125845
 10
22722.96417123946
 20
-6620.523315525851
 10
22723.06441107946
 20
-6620.523315525851
 10
22723.25932187946
 20
-6620.523315525851
 10
22723.11174655947
 20
-6620.868586085843
 97
        0
 75
     0
 76
     1
 98
        0
  0
HATCH
  5
303
330
1F
100
AcDbEntity
  8
Ech.1_5
  6
Continuous
 62
   158
420
    12131
440
 33554687
370
    20
390
5F
100
AcDbHatch
 10
0.0
 20
0.0
 30
0.0
210
0.0
220
0.0
230
1.0
  2
SOLID
 70
     1
 71
     0
 91
        1
 92
        3
 72
     0
 73
     1
 93
       32
 10
22724.83253047946
 20
-6620.180829405855
 10
22724.58749975947
 20
-6620.180829405855
 10
22724.19210927947
 20
-6620.080589565846
 10
22723.94707855946
 20
-6619.935798685842
 10
22723.75216775946
 20
-6619.738103445857
 10
22723.70204783946
 20
-6619.59052812585
 10
22723.60459243946
 20
-6619.493072725844
 10
22723.55447251946
 20
-6619.147802165852
 10
22723.55447251946
 20
-6616.742046005854
 10
22724.09465387946
 20
-6616.742046005854
 10
22724.09465387946
 20
-6618.755196125848
 10
22724.09465387946
 20
-6619.147802165852
 10
22724.14477379946
 20
-6619.345497405838
 10
22724.29234911946
 20
-6619.540408205835
 10
22724.48725991946
 20
-6619.687983525841
 10
22724.73229063946
 20
-6619.738103445857
 10
22724.83253047946
 20
-6619.738103445857
 10
22725.07756119946
 20
-6619.738103445857
 10
22725.32259191946
 20
-6619.640648045844
 10
22725.47016723947
 20
-6619.540408205835
 10
22725.56762263946
 20
-6619.392832885843
 10
22725.61774255946
 20
-6619.100466685854
 10
22725.61774255946
 20
-6616.742046005854
 10
22726.15792391946
 20
-6616.742046005854
 10
22726.15792391946
 20
-6618.90277144584
 10
22726.15792391946
 20
-6619.248042005846
 10
22726.06046851946
 20
-6619.59052812585
 10
22725.91289319946
 20
-6619.788223365836
 10
22725.81543779947
 20
-6619.885678765849
 10
22725.76531787946
 20
-6619.935798685842
 10
22725.52028715946
 20
-6620.033254085848
 10
22725.17501659946
 20
-6620.180829405855
 97
        0
 75
     0
 76
     1
 98
        0
  0
HATCH
  5
304
330
1F
100
AcDbEntity
  8
Ech.1_5
  6
Continuous
 62
   158
420
    12131
440
 33554687
370
    20
390
5F
100
AcDbHatch
 10
0.0
 20
0.0
 30
0.0
210
0.0
220
0.0
230
1.0
  2
SOLID
 70
     1
 71
     0
 91
        1
 92
        3
 72
     0
 73
     1
 93
       12
 10
22727.28840655946
 20
-6620.130709485839
 10
22727.28840655946
 20
-6616.742046005854
 10
22729.39901207946
 20
-6616.742046005854
 10
22729.30155667946
 20
-6617.184771965852
 10
22727.77846799946
 20
-6617.184771965852
 10
22727.77846799946
 20
-6618.167679285853
 10
22729.05652595946
 20
-6618.167679285853
 10
22729.05652595946
 20
-6618.560285325836
 10
22727.82858791946
 20
-6618.560285325836
 10
22727.82858791946
 20
-6619.640648045844
 10
22729.44913199946
 20
-6619.640648045844
 10
22729.44913199946
 20
-6620.130709485839
 97
        0
 75
     0
 76
     1
 98
        0
  0
HATCH
  5
305
330
1F
100
AcDbEntity
  8
Ech.1_5
  6
Continuous
 62
   136
420
    33651
440
 33554687
370
    20
390
5F
100
AcDbHatch
 10
0.0
 20
0.0
 30
0.0
210
0.0
220
0.0
230
1.0
  2
SOLID
 70
     1
 71
     0
 91
        1
 92
        3
 72
     0
 73
     1
 93
       15
 10
22711.03006139946
 20
-6594.984431845854
 10
22711.03006139946
 20
-6592.773586485852
 10
22712.45569467946
 20
-6592.773586485852
 10
22712.79818079947
 20
-6592.773586485852
 10
22713.33836215946
 20
-6592.921161805844
 10
22713.63351279946
 20
-6593.118857045837
 10
22713.73096819946
 20
-6593.266432365829
 10
22713.87854351947
 20
-6593.558798565854
 10
22713.87854351947
 20
-6593.806613725847
 10
22713.87854351947
 20
-6594.098979925858
 10
22713.73096819946
 20
-6594.394130565856
 10
22713.58339287946
 20
-6594.591825805842
 10
22713.33836215946
 20
-6594.786736605846
 10
22712.89563619946
 20
-6594.934311925838
 10
22712.65060547946
 20
-6594.984431845854
 97
        0
 75
     0
 76
     1
 98
        0
  0
HATCH
  5
306
330
1F
100
AcDbEntity
  8
Ech.1_5
  6
Continuous
 62
   136
420
    33651
440
 33554687
370
    20
390
5F
100
AcDbHatch
 10
0.0
 20
0.0
 30
0.0
210
0.0
220
0.0
230
1.0
  2
SOLID
 70
     1
 71
     0
 91
        1
 92
        3
 72
     0
 73
     1
 93
       16
 10
22711.03006139946
 20
-6591.005467085849
 10
22711.03006139946
 20
-6588.992316965848
 10
22712.11042411946
 20
-6588.992316965848
 10
22712.30811935946
 20
-6588.992316965848
 10
22712.70072539946
 20
-6589.139892285854
 10
22712.94575611946
 20
-6589.287467605846
 10
22713.04321151946
 20
-6589.435042925846
 10
22713.14345135946
 20
-6589.629953725843
 10
22713.19078683946
 20
-6589.82764896585
 10
22713.19078683946
 20
-6589.925104365841
 10
22713.14345135946
 20
-6590.170135085854
 10
22713.04321151946
 20
-6590.465285725845
 10
22712.94575611946
 20
-6590.662980965845
 10
22712.75084531946
 20
-6590.857891765842
 10
22712.30811935946
 20
-6590.958131605837
 10
22712.11042411946
 20
-6591.005467085849
 97
        0
 75
     0
 76
     1
 98
        0
  0
HATCH
  5
307
330
1F
100
AcDbEntity
  8
Ech.1_5
  6
Continuous
 62
   136
420
    33651
440
 33554687
370
    20
390
5F
100
AcDbHatch
 10
0.0
 20
0.0
 30
0.0
210
0.0
220
0.0
230
1.0
  2
SOLID
 70
     1
 71
     0
 91
        1
 92
        3
 72
     0
 73
     1
 93
        3
 10
22721.19605183946
 20
-6593.018617205828
 10
22722.47410979946
 20
-6589.139892285854
 10
22723.75216775946
 20
-6593.018617205828
 97
        0
 75
     0
 76
     1
 98
        0
  0
HATCH
  5
308
330
1F
100
AcDbEntity
  8
Ech.1_5
  6
Continuous
 62
   158
420
    12131
440
 33554687
370
    20
390
5F
100
AcDbHatch
 10
0.0
 20
0.0
 30
0.0
210
0.0
220
0.0
230
1.0
  2
SOLID
 70
     1
 71
     0
 91
        3
 92
        3
 72
     0
 73
     1
 93
       25
 10
22688.14196459946
 20
-6601.959454045847
 10
22691.09068655946
 20
-6600.731516005847
 10
22694.62692535947
 20
-6599.846064085851
 10
22697.62298279946
 20
-6599.403338125853
 10
22701.20655707946
 20
-6599.158307405841
 10
22705.38321707946
 20
-6599.208427325856
 10
22707.78897323946
 20
-6599.356002645848
 10
22707.78897323946
 20
-6583.687958765852
 10
22710.98272591946
 20
-6582.852626765843
 10
22713.38848207946
 20
-6581.477113405844
 10
22713.83120803946
 20
-6580.987051965848
 10
22713.92866343946
 20
-6580.839476645841
 10
22713.97878335946
 20
-6580.641781405834
 10
22713.87854351947
 20
-6580.446870605837
 10
22713.68363271946
 20
-6580.201839885846
 10
22712.99587603946
 20
-6579.85656932584
 10
22711.27509211946
 20
-6579.413843365842
 10
22709.35939739946
 20
-6579.218932565845
 10
22707.10121655946
 20
-6579.071357245838
 10
22702.92734099946
 20
-6579.071357245838
 10
22697.42528755946
 20
-6579.463963285857
 10
22691.77844323946
 20
-6580.494206085835
 10
22688.18973207085
 20
-6581.676055443609
 10
22687.35675251947
 20
-6582.117534605856
 10
22687.35675251947
 20
-6602.44951548585
 97
        0
 92
        3
 72
     0
 73
     1
 93
       53
 10
22704.40030975946
 20
-6596.850006645848
 10
22703.56497775947
 20
-6596.900126565842
 10
22702.53473495946
 20
-6596.80267116585
 10
22700.86407095946
 20
-6596.064794565847
 10
22699.68625283946
 20
-6594.786736605846
 10
22698.99849615946
 20
-6593.018617205828
 10
22698.94837623946
 20
-6591.988374405851
 10
22698.99849615946
 20
-6590.958131605837
 10
22699.68625283946
 20
-6589.190012205833
 10
22700.86407095946
 20
-6587.861834325839
 10
22702.53473495946
 20
-6587.126742165853
 10
22703.56497775947
 20
-6587.076622245838
 10
22704.40030975946
 20
-6587.126742165853
 10
22705.77582311946
 20
-6587.566683685848
 10
22706.21854907946
 20
-6587.962074165834
 10
22706.41345987946
 20
-6588.354680205853
 10
22706.41345987946
 20
-6588.747286245835
 10
22706.26588455946
 20
-6589.042436885841
 10
22706.07097375947
 20
-6589.287467605846
 10
22705.77582311946
 20
-6589.435042925846
 10
22705.57812787946
 20
-6589.435042925846
 10
22705.38321707946
 20
-6589.435042925846
 10
22704.99061103947
 20
-6589.334803085851
 10
22704.30285435946
 20
-6589.042436885841
 10
22703.56497775947
 20
-6588.992316965848
 10
22703.22249163946
 20
-6588.992316965848
 10
22702.68231027946
 20
-6589.139892285854
 10
22702.23958431946
 20
-6589.38492300583
 10
22701.84697827946
 20
-6589.680073645858
 10
22701.40425231947
 20
-6590.317710405853
 10
22701.06176619946
 20
-6591.398073125853
 10
22701.01164627946
 20
-6592.038494325844
 10
22701.06176619946
 20
-6592.626011165846
 10
22701.40425231947
 20
-6593.659038405848
 10
22701.84697827946
 20
-6594.296675165843
 10
22702.23958431946
 20
-6594.591825805842
 10
22702.68231027946
 20
-6594.836856525854
 10
22703.22249163946
 20
-6594.934311925838
 10
22703.56497775947
 20
-6594.984431845854
 10
22704.30285435946
 20
-6594.886976445848
 10
22705.03794651946
 20
-6594.591825805842
 10
22705.48067247946
 20
-6594.44425048585
 10
22705.67836771946
 20
-6594.394130565856
 10
22705.77582311946
 20
-6594.394130565856
 10
22705.97073391946
 20
-6594.44425048585
 10
22706.21854907946
 20
-6594.591825805842
 10
22706.41345987946
 20
-6594.886976445848
 10
22706.56103519946
 20
-6595.182127085839
 10
22706.56103519946
 20
-6595.326917965857
 10
22706.51091527946
 20
-6595.524613205843
 10
22706.36612439946
 20
-6595.917219245847
 10
22706.07097375947
 20
-6596.262489805832
 10
22705.62824779946
 20
-6596.457400605844
 97
        0
 92
        3
 72
     0
 73
     1
 93
       37
 10
22693.49644271946
 20
-6596.655095845851
 10
22693.15395659946
 20
-6596.80267116585
 10
22692.71123063946
 20
-6596.80267116585
 10
22692.36596007946
 20
-6596.655095845851
 10
22692.12092935946
 20
-6596.40728068585
 10
22691.92601855946
 20
-6596.014674645831
 10
22691.92601855946
 20
-6588.059529565847
 10
22692.07359387946
 20
-6587.71425900584
 10
22692.36596007946
 20
-6587.421892805852
 10
22692.76135055946
 20
-6587.224197565844
 10
22693.00638127946
 20
-6587.224197565844
 10
22696.39504475946
 20
-6587.224197565844
 10
22696.58995555947
 20
-6587.224197565844
 10
22696.93522611947
 20
-6587.371772885836
 10
22697.18025683946
 20
-6587.666923525842
 10
22697.27771223946
 20
-6587.962074165834
 10
22697.27771223946
 20
-6588.304560285837
 10
22697.18025683946
 20
-6588.649830845851
 10
22697.03268151946
 20
-6588.844741645848
 10
22696.88510619946
 20
-6588.942197045832
 10
22696.58995555947
 20
-6589.042436885841
 10
22696.39504475946
 20
-6589.089772365839
 10
22693.93916867946
 20
-6589.089772365839
 10
22693.93916867946
 20
-6591.005467085849
 10
22696.00243871946
 20
-6591.005467085849
 10
22696.24746943946
 20
-6591.05558700585
 10
22696.58995555947
 20
-6591.153042405841
 10
22696.83777071947
 20
-6591.448193045847
 10
22696.98256159946
 20
-6591.743343685838
 10
22696.98256159946
 20
-6592.085829805842
 10
22696.83777071947
 20
-6592.431100365849
 10
22696.58995555947
 20
-6592.676131085839
 10
22696.24746943946
 20
-6592.823706405831
 10
22696.00243871946
 20
-6592.871041885836
 10
22693.93916867946
 20
-6592.871041885836
 10
22693.93916867946
 20
-6596.014674645831
 10
22693.79159335946
 20
-6596.40728068585
 97
        0
 75
     0
 76
     1
 98
        0
  0
HATCH
  5
309
330
1F
100
AcDbEntity
  8
Ech.1_5
  6
Continuous
 62
   136
420
    33651
440
 33554687
370
    20
390
5F
100
AcDbHatch
 10
0.0
 20
0.0
 30
0.0
210
0.0
220
0.0
230
1.0
  2
SOLID
 70
     1
 71
     0
 91
        3
 92
        3
 72
     0
 73
     1
 93
       18
 10
22707.87588438822
 20
-6603.922484245847
 10
22710.93260599946
 20
-6603.922484245847
 10
22716.18684427946
 20
-6603.334967405845
 10
22720.46095967947
 20
-6602.107029365846
 10
22723.79950323946
 20
-6600.583940685848
 10
22726.25537931946
 20
-6598.91327668585
 10
22727.92604331946
 20
-6597.390188005859
 10
22729.20410127946
 20
-6595.867099325839
 10
22729.44913199946
 20
-6595.326917965857
 10
22729.44913199946
 20
-6575.092392485848
 10
22729.10386143946
 20
-6575.585238365839
 10
22726.74822519946
 20
-6577.645723965853
 10
22723.01429115946
 20
-6579.954024725846
 10
22719.62562767946
 20
-6581.477113405844
 10
22715.49908759946
 20
-6582.705051445836
 10
22710.58733543946
 20
-6583.540383445853
 10
22707.78897323946
 20
-6583.687958765852
 10
22707.78897323946
 20
-6603.922484245847
 97
        0
 92
        3
 72
     0
 73
     1
 93
       30
 10
22715.59932743946
 20
-6595.326917965857
 10
22715.30417679947
 20
-6595.819763845834
 10
22714.66375559946
 20
-6596.309825285837
 10
22713.53605739946
 20
-6596.702431325842
 10
22712.84830071946
 20
-6596.702431325842
 10
22710.09727399946
 20
-6596.702431325842
 10
22709.90236319946
 20
-6596.702431325842
 10
22709.50697271946
 20
-6596.55485600585
 10
22709.21460651946
 20
-6596.309825285837
 10
22709.06703119946
 20
-6595.967339165841
 10
22709.06703119946
 20
-6588.009409645846
 10
22709.16448659946
 20
-6587.71425900584
 10
22709.26194199946
 20
-6587.566683685848
 10
22709.50697271946
 20
-6587.371772885836
 10
22709.85224327946
 20
-6587.224197565844
 10
22712.65060547946
 20
-6587.224197565844
 10
22713.19078683946
 20
-6587.274317485845
 10
22714.07623875946
 20
-6587.566683685848
 10
22714.76399543946
 20
-6588.207104885853
 10
22715.15660147946
 20
-6589.042436885841
 10
22715.15660147946
 20
-6589.925104365841
 10
22715.00902615946
 20
-6590.515405645839
 10
22714.71387551946
 20
-6591.005467085849
 10
22714.22381407947
 20
-6591.398073125853
 10
22713.92866343946
 20
-6591.545648445853
 10
22714.37138939946
 20
-6591.645888285854
 10
22715.10648155946
 20
-6592.038494325844
 10
22715.64666291946
 20
-6592.626011165846
 10
22715.94181355946
 20
-6593.414007685858
 10
22715.94181355946
 20
-6594.494370405851
 97
        0
 92
        3
 72
     0
 73
     1
 93
       35
 10
22725.17501659946
 20
-6596.702431325842
 10
22724.92998587946
 20
-6596.507520525844
 10
22724.78241055946
 20
-6596.262489805832
 10
22724.73229063946
 20
-6596.11491448584
 10
22724.33968459946
 20
-6594.836856525854
 10
22720.60853499946
 20
-6594.836856525854
 10
22720.21592895946
 20
-6596.11491448584
 10
22720.16580903946
 20
-6596.262489805832
 10
22720.01823371946
 20
-6596.507520525844
 10
22719.77320299946
 20
-6596.702431325842
 10
22719.42793243946
 20
-6596.80267116585
 10
22719.03532639946
 20
-6596.80267116585
 10
22718.69284027946
 20
-6596.655095845851
 10
22718.44780955946
 20
-6596.40728068585
 10
22718.30023423946
 20
-6596.064794565847
 10
22718.25011431946
 20
-6595.867099325839
 10
22718.30023423946
 20
-6595.574733125858
 10
22718.34756971947
 20
-6595.427157805851
 10
22721.05126095946
 20
-6588.156984965838
 10
22721.14871635946
 20
-6587.962074165834
 10
22721.39374707946
 20
-6587.566683685848
 10
22721.78635311946
 20
-6587.224197565844
 10
22722.22907907946
 20
-6587.076622245838
 10
22722.71914051946
 20
-6587.076622245838
 10
22723.16186647946
 20
-6587.224197565844
 10
22723.55447251946
 20
-6587.519348205836
 10
22723.79950323946
 20
-6587.962074165834
 10
22723.89974307946
 20
-6588.156984965838
 10
22726.50041003947
 20
-6595.427157805851
 10
22726.60064987946
 20
-6595.72230844585
 10
22726.60064987946
 20
-6596.11491448584
 10
22726.45307455946
 20
-6596.457400605844
 10
22726.20804383946
 20
-6596.655095845851
 10
22725.86277327946
 20
-6596.80267116585
 10
22725.52028715946
 20
-6596.80267116585
 97
        0
 75
     0
 76
     1
 98
        0
  0
HATCH
  5
30A
330
1F
100
AcDbEntity
  8
Ech.1_5
  6
Continuous
 62
   158
420
    12131
440
 33554687
370
    20
390
5F
100
AcDbHatch
 10
0.0
 20
0.0
 30
0.0
210
0.0
220
0.0
230
1.0
  2
SOLID
 70
     1
 71
     0
 91
        1
 92
        3
 72
     0
 73
     1
 93
        4
 10
22687.65190315947
 20
-6613.20580720584
 10
22687.65190315947
 20
-6609.817143725847
 10
22688.14196459946
 20
-6609.817143725847
 10
22688.14196459946
 20
-6613.20580720584
 97
        0
 75
     0
 76
     1
 98
        0
  0
HATCH
  5
30B
330
1F
100
AcDbEntity
  8
Ech.1_5
  6
Continuous
 62
   158
420
    12131
440
 33554687
370
    20
390
5F
100
AcDbHatch
 10
0.0
 20
0.0
 30
0.0
210
0.0
220
0.0
230
1.0
  2
SOLID
 70
     1
 71
     0
 91
        1
 92
        3
 72
     0
 73
     1
 93
       18
 10
22689.36990263946
 20
-6613.20580720584
 10
22689.36990263946
 20
-6609.817143725847
 10
22689.96020391947
 20
-6609.817143725847
 10
22691.04056663946
 20
-6611.635383045844
 10
22691.38583719946
 20
-6612.222899885845
 10
22691.48329259946
 20
-6612.420595125838
 10
22691.43317267946
 20
-6611.97786916584
 10
22691.43317267946
 20
-6611.535143205842
 10
22691.38583719946
 20
-6609.817143725847
 10
22691.87589863946
 20
-6609.817143725847
 10
22691.87589863946
 20
-6613.20580720584
 10
22691.38583719946
 20
-6613.20580720584
 10
22690.30547447946
 20
-6611.387567885843
 10
22690.05765931946
 20
-6611.045081765839
 10
22689.81262859946
 20
-6610.504900405857
 10
22689.81262859946
 20
-6610.800051045849
 10
22689.86274851946
 20
-6611.437687805844
 10
22689.86274851946
 20
-6613.20580720584
 97
        0
 75
     0
 76
     1
 98
        0
  0
HATCH
  5
30C
330
1F
100
AcDbEntity
  8
Ech.1_5
  6
Continuous
 62
   158
420
    12131
440
 33554687
370
    20
390
5F
100
AcDbHatch
 10
0.0
 20
0.0
 30
0.0
210
0.0
220
0.0
230
1.0
  2
SOLID
 70
     1
 71
     0
 91
        1
 92
        3
 72
     0
 73
     1
 93
       62
 10
22693.98928859946
 20
-6613.255927125848
 10
22693.69413795946
 20
-6613.255927125848
 10
22693.05371675946
 20
-6613.108351805856
 10
22692.76135055946
 20
-6612.960776485849
 10
22692.95626135946
 20
-6612.518050525851
 10
22693.25141199946
 20
-6612.665625845843
 10
22693.79159335946
 20
-6612.813201165843
 10
22694.03662407946
 20
-6612.813201165843
 10
22694.23431931946
 20
-6612.813201165843
 10
22694.47935003946
 20
-6612.763081245842
 10
22694.57680543946
 20
-6612.715745765837
 10
22694.72438075946
 20
-6612.56817044583
 10
22694.82183615946
 20
-6612.467930605836
 10
22694.82183615946
 20
-6612.370475205845
 10
22694.82183615946
 20
-6612.175564405848
 10
22694.77450067946
 20
-6612.027989085848
 10
22694.62692535947
 20
-6611.880413765856
 10
22694.33177471947
 20
-6611.780173925848
 10
22694.18419939946
 20
-6611.73283844585
 10
22693.69413795946
 20
-6611.58526312585
 10
22693.54656263947
 20
-6611.535143205842
 10
22693.20129207946
 20
-6611.387567885843
 10
22693.00638127946
 20
-6611.142537165852
 10
22692.90614143946
 20
-6610.89750644584
 10
22692.90614143946
 20
-6610.699811205855
 10
22692.90614143946
 20
-6610.602355805841
 10
22692.95626135946
 20
-6610.407445005844
 10
22693.05371675946
 20
-6610.209749765859
 10
22693.15395659946
 20
-6610.062174445859
 10
22693.39898731947
 20
-6609.914599125853
 10
22693.84171327946
 20
-6609.719688325856
 10
22694.13407947946
 20
-6609.719688325856
 10
22694.47935003946
 20
-6609.719688325856
 10
22695.06965131946
 20
-6609.914599125853
 10
22695.31468203946
 20
-6610.062174445859
 10
22695.06965131946
 20
-6610.454780485842
 10
22694.87195607946
 20
-6610.30720516585
 10
22694.38189463946
 20
-6610.159629845843
 10
22694.13407947946
 20
-6610.159629845843
 10
22693.98928859946
 20
-6610.159629845843
 10
22693.74147343946
 20
-6610.209749765859
 10
22693.59389811946
 20
-6610.30720516585
 10
22693.54656263947
 20
-6610.407445005844
 10
22693.49644271946
 20
-6610.504900405857
 10
22693.44632279946
 20
-6610.602355805841
 10
22693.44632279946
 20
-6610.699811205855
 10
22693.74147343946
 20
-6611.045081765839
 10
22694.03662407946
 20
-6611.142537165852
 10
22694.47935003946
 20
-6611.239992565836
 10
22694.67426083946
 20
-6611.290112485852
 10
22695.06965131946
 20
-6611.487807725837
 10
22695.16710671946
 20
-6611.58526312585
 10
22695.26456211946
 20
-6611.682718525834
 10
22695.41213743947
 20
-6612.027989085848
 10
22695.41213743947
 20
-6612.175564405848
 10
22695.41213743947
 20
-6612.320355285837
 10
22695.31468203946
 20
-6612.56817044583
 10
22695.21444219946
 20
-6612.813201165843
 10
22695.01953139946
 20
-6613.008111965847
 10
22694.87195607946
 20
-6613.058231885841
 10
22694.67426083946
 20
-6613.155687285846
 10
22694.23431931946
 20
-6613.255927125848
 97
        0
 75
     0
 76
     1
 98
        0
  0
LWPOLYLINE
  5
30D
330
1F
100
AcDbEntity
  8
Ech.1_5
  6
Continuous
 62
   190
370
    15
390
5F
100
AcDbPolyline
 90
        3
 70
     0
 43
0.0
 10
22821.75258036522
 20
-6032.591317182077
 10
23082.05342307356
 20
-5832.665130825936
 10
23102.05342307356
 20
-5832.665130825936
  0
INSERT
  5
30E
330
1F
100
AcDbEntity
  8
Ech.1_5
 62
   190
370
    15
100
AcDbBlockReference
  2
cw-line-extremity4
 10
22821.75258036522
 20
-6032.591317182077
 30
0.0
 50
37.52635859609896
  0
LWPOLYLINE
  5
30F
330
1F
100
AcDbEntity
  8
Ech.1_5
  6
Continuous
 62
   190
370
    15
390
5F
100
AcDbPolyline
 90
        3
 70
     0
 43
0.0
 10
22947.77230377065
 20
-6004.216690358157
 10
23125.63337352717
 20
-5936.734307858079
 10
23145.63337352717
 20
-5936.734307858079
  0
INSERT
  5
310
330
1F
100
AcDbEntity
  8
Ech.1_5
 62
   190
370
    15
100
AcDbBlockReference
  2
cw-line-extremity4
 10
22947.77230377065
 20
-6004.216690358157
 30
0.0
 50
20.77727826792933
  0
LWPOLYLINE
  5
311
330
1F
100
AcDbEntity
  8
Ech.1_5
  6
Continuous
 62
   190
370
    15
390
5F
100
AcDbPolyline
 90
        3
 70
     0
 43
0.0
 10
22797.59583453324
 20
-6258.549254393271
 10
22972.36123608531
 20
-6356.430406479006
 10
22992.36123608531
 20
-6356.430406479006
  0
INSERT
  5
312
330
1F
100
AcDbEntity
  8
Ech.1_5
 62
   190
370
    15
100
AcDbBlockReference
  2
cw-line-extremity4
 10
22797.59583453324
 20
-6258.549254393271
 30
0.0
 50
330.7480472576525
  0
LWPOLYLINE
  5
313
330
1F
100
AcDbEntity
  8
Ech.1_5
  6
Continuous
 62
   190
370
    15
390
5F
100
AcDbPolyline
 90
        3
 70
     0
 43
0.0
 10
23338.99382002315
 20
-5437.791260038052
 10
23134.40104735263
 20
-5322.659903572404
 10
23114.40104735263
 20
-5322.659903572404
  0
INSERT
  5
314
330
1F
100
AcDbEntity
  8
Ech.1_5
 62
   190
370
    15
100
AcDbBlockReference
  2
cw-line-extremity4
 10
23338.99382002315
 20
-5437.791260038052
 30
0.0
 50
150.6320527440114
  0
LWPOLYLINE
  5
315
330
1F
100
AcDbEntity
  8
Ech.1_5
  6
Continuous
 62
   190
370
    15
390
5F
100
AcDbPolyline
 90
        3
 70
     0
 43
0.0
 10
23337.61701886153
 20
-5479.972759715413
 10
23123.32986099579
 20
-5369.047642702561
 10
23103.32986099579
 20
-5369.047642702561
  0
INSERT
  5
316
330
1F
100
AcDbEntity
  8
Ech.1_5
 62
   190
370
    15
100
AcDbBlockReference
  2
cw-line-extremity4
 10
23337.61701886153
 20
-5479.972759715413
 30
0.0
 50
152.6317895711121
  0
MTEXT
  5
318
330
1F
100
AcDbEntity
  8
Ech.1_5
  6
Continuous
 62
     4
420
    65535
390
5F
100
AcDbMText
 10
23108.92842307356
 20
-5804.878797029485
 30
0.0
 40
13.75
 41
242.4160861638811
 46
0.0
 71
     1
 72
     1
  3
{\fArial|b0|i0;\W1.000000;\H13.750000;\c16711848;Montant non nécessaire}\P{\fArial|b0|i0;\W1.000000;\H13.750000;\c16711848;structurellement mais sert}\P{\fArial|b0|i0;\W1.000000;\H13.750000;\c16711848;à la fixation du tasseau}\P{\fArial|b0|i0;\W1.000
  1
000;\H13.750000;\c16711848;support de bardage}
  7
arial-
 73
     1
 44
1.07999975538982
 90
        3
 63
     9
421
 13158600
 45
1.5
441
 33554687
  0
MTEXT
  5
319
330
1F
100
AcDbEntity
  8
Ech.1_5
  6
Continuous
 62
     4
420
    65535
390
5F
100
AcDbMText
 10
23152.50837352717
 20
-5928.672597874164
 30
0.0
 40
13.75
 41
253.9957632896185
 46
0.0
 71
     1
 72
     1
  1
{\fArial|b0|i0;\W1.000000;\H13.750000;\c16711848;Si discontinuité du pare-pluie}\P{\fArial|b0|i0;\W1.000000;\H13.750000;\c16711848;recouvrement sous tasseaux}
  7
arial-
 73
     1
 44
1.07999975538982
 90
        3
 63
     9
421
 13158600
 45
1.5
441
 33554687
  0
MTEXT
  5
31A
330
1F
100
AcDbEntity
  8
Ech.1_5
  6
Continuous
 62
     4
420
    65535
390
5F
100
AcDbMText
 10
23225.80549915174
 20
-6495.769711429694
 30
0.0
 40
12.5
 41
488.3428846351962
 46
0.0
 71
     2
 72
     1
  1
{\fArial|b0|i0;\W1.000000;\H12.500000;\c16711848;Vue en coupe horizontale}
  7
arial-
 73
     1
 44
1.07999975538982
  0
MTEXT
  5
31B
330
1F
100
AcDbEntity
  8
Ech.1_5
  6
Continuous
 62
     4
420
    65535
390
5F
100
AcDbMText
 10
23546.12560917258
 20
-6495.602534937037
 30
0.0
 40
12.5
 41
127.2973354064961
 46
0.0
 71
     2
 72
     1
  1
{\fArial|b0|i0;\W1.000000;\H12.500000;\c16711848;Ech 1/5 }
  7
arial-
 73
     1
 44
1.07999975538982
  0
MTEXT
  5
31C
330
1F
100
AcDbEntity
  8
Ech.1_5
  6
Continuous
 62
     4
420
    65535
390
5F
100
AcDbMText
 10
22897.30644783646
 20
-6495.330778634559
 30
0.0
 40
12.5
 41
143.6552179953505
 46
0.0
 71
     2
 72
     1
  1
{\fArial|b0|i0;\W1.000000;\H12.500000;\c16711848;ME05-12}
  7
arial-
 73
     1
 44
1.07999975538982
  0
MTEXT
  5
31E
330
1F
100
AcDbEntity
  8
Ech.1_5
  6
Continuous
 62
   200
420
 11010303
390
5F
100
AcDbMText
 10
23123.52427687583
 20
-6518.349895971396
 30
0.0
 40
8.75
 41
976.25
 46
0.0
 71
     2
 72
     1
  3
{\fArial|b0|i1;\W1.000000;\H8.750000;\c16711848; Il est rappelé à l'utilisateur qui consulte le site et utilise les informations qu'il contient, qu'il doit les utiliser sous sa seule responsabilité en vérifiant leur pertinence, leur cohérence et leur
  1
 non obsolescence.}
  7
arial-i
 73
     1
 44
1.07999975538982
  0
MTEXT
  5
320
330
1F
100
AcDbEntity
  8
Ech.1_5
  6
Continuous
 62
   200
420
 11010303
390
5F
100
AcDbMText
 10
23123.52427687583
 20
-6404.688815628911
 30
0.0
 40
16.25
 41
968.75
 46
0.0
 71
     2
 72
     1
  1
{\fArial|b1|i0;\W1.000000;\H16.250000;\c16711848;MUR EXTERIEUR TYPE 5: Isolant en âme et contre-cloison isolée à ossature métallique}
  7
arial-b
 73
     1
 44
1.07999975538982
  0
MTEXT
  5
321
330
1F
100
AcDbEntity
  8
Ech.1_5
  6
Continuous
 62
     4
420
    65535
390
5F
100
AcDbMText
 10
23123.52427687583
 20
-6436.045778787147
 30
0.0
 40
16.25
 41
968.75
 46
0.0
 71
     2
 72
     1
  1
{\fArial|b0|i0;\W1.000000;\H16.250000;\c16711848;Détail d'angle entrant}
  7
arial-
 73
     1
 44
1.07999975538982
  0
MTEXT
  5
322
330
1F
100
AcDbEntity
  8
Ech.1_5
  6
Continuous
 62
   200
420
 11010303
390
5F
100
AcDbMText
 10
23123.52427687583
 20
-6467.705778634559
 30
0.0
 40
16.25
 41
968.75
 46
0.0
 71
     2
 72
     1
  1
{\fArial|b0|i0;\W1.000000;\H16.250000;\c16711848;En cas de préfabrication des murs en lot S ou SE}
  7
arial-
 73
     1
 44
1.07999975538982
  0
MTEXT
  5
323
330
1F
100
AcDbEntity
  8
Ech.1_5
  6
Continuous
 62
     4
420
    65535
390
5F
100
AcDbMText
 10
22999.23623608531
 20
-6348.368696495091
 30
0.0
 40
13.75
 41
228.0612457399911
 46
0.0
 71
     1
 72
     1
  1
{\fArial|b0|i0;\W1.000000;\H13.750000;\c16711848;Recouvrement de 100mm}
  7
arial-
 73
     1
 44
1.07999975538982
 90
        3
 63
     9
421
 13158600
 45
1.5
441
 33554687
  0
MTEXT
  5
324
330
1F
100
AcDbEntity
  8
Ech.1_5
  6
Continuous
 62
     4
420
    65535
390
5F
100
AcDbMText
 10
22671.53955129078
 20
-5329.889583365033
 30
0.0
 40
13.75
 41
231.0892037716512
 46
0.0
 71
     1
 72
     1
  1
{\fArial|b1|i0;\W1.000000;\H13.750000;\c16711848;COMPLEMENT LEGENDE}
  7
arial-b
 73
     1
 44
1.07999975538982
 90
        3
 63
     9
421
 13158600
 45
1.5
441
 33554687
  0
MTEXT
  5
325
330
1F
100
AcDbEntity
  8
Ech.1_5
  6
Continuous
 62
     4
420
    65535
390
5F
100
AcDbMText
 10
22721.64480787003
 20
-5356.578142990164
 30
0.0
 40
13.75
 41
193.8487666624569
 46
0.0
 71
     1
 72
     1
  1
{\fArial|b0|i0;\W1.000000;\H13.750000;\c16711848;Bande adhésive}
  7
arial-
 73
     1
 44
1.07999975538982
 90
        3
 63
     9
421
 13158600
 45
1.5
441
 33554687
  0
MTEXT
  5
326
330
1F
100
AcDbEntity
  8
Ech.1_5
  6
Continuous
 62
     4
420
    65535
390
5F
100
AcDbMText
 10
22723.54248153399
 20
-5384.309792652756
 30
0.0
 40
13.75
 41
193.8487666624569
 46
0.0
 71
     1
 72
     1
  1
{\fArial|b0|i0;\W1.000000;\H13.750000;\c16711848;Calfeutrement}
  7
arial-
 73
     1
 44
1.07999975538982
 90
        3
 63
     9
421
 13158600
 45
1.5
441
 33554687
  0
MTEXT
  5
327
330
1F
100
AcDbEntity
  8
Ech.1_5
  6
Continuous
 62
     7
390
5F
100
AcDbMText
 10
23107.52604735264
 20
-5315.81523768008
 30
0.0
 40
13.75
 41
199.4309434251772
 46
0.0
 71
     3
 72
     1
  1
{\fArial|b0|i0;\W1.000000;\H13.750000;\c16711848;Calfeutrement}
  7
arial-
 73
     1
 44
1.07999975538982
  0
MTEXT
  5
328
330
1F
100
AcDbEntity
  8
Ech.1_5
  6
Continuous
 62
     7
390
5F
100
AcDbMText
 10
23096.45486099579
 20
-5362.202976810238
 30
0.0
 40
13.75
 41
199.4309434251772
 46
0.0
 71
     3
 72
     1
  1
{\fArial|b0|i0;\W1.000000;\H13.750000;\c16711848;Cale}
  7
arial-
 73
     1
 44
1.07999975538982
  0
TEXT
  5
329
330
1F
100
AcDbEntity
  8
Ech.1_5
  6
Continuous
 62
   190
390
5F
100
AcDbText
 10
22684.06315141272
 20
-6508.040713459532
 30
0.0
 40
12.5
  1
30/01/2023
  7
arial-
100
AcDbText
  0
TEXT
  5
32A
330
1F
100
AcDbEntity
  8
Ech.1_5
  6
Continuous
 62
   190
390
5F
100
AcDbText
 10
23162.39240860371
 20
-5730.88803396094
 30
0.0
 40
15.0
  1
%%UVariante préfabriquée
  7
arial-
100
AcDbText
  0
TEXT
  5
32B
330
1F
100
AcDbEntity
  8
Ech.1_5
  6
Continuous
 62
   190
390
5F
100
AcDbText
 10
23471.27697210211
 20
-5315.919647644588
 30
0.0
 40
8.0
  1
Echelle en mm
  7
arial-
100
AcDbText
  0
TEXT
  5
32C
330
1F
100
AcDbEntity
  8
Ech.1_5
  6
Continuous
 62
   190
390
5F
100
AcDbText
 10
23457.29638735269
 20
-5344.129483174264
 30
0.0
 40
8.0
  1
0
  7
arial-
100
AcDbText
  0
TEXT
  5
32D
330
1F
100
AcDbEntity
  8
Ech.1_5
  6
Continuous
 62
   190
390
5F
100
AcDbText
 10
23543.89344524541
 20
-5344.129483174264
 30
0.0
 40
8.0
  1
100
  7
arial-
100
AcDbText
  0
TEXT
  5
32E
330
1F
100
AcDbEntity
  8
Ech.1_5
  6
Continuous
 62
   190
390
5F
100
AcDbText
 10
23505.15301367953
 20
-5344.129483174264
 30
0.0
 40
8.0
  1
50
  7
arial-
100
AcDbText
  0
TEXT
  5
32F
330
1F
100
AcDbEntity
  8
Ech.1_5
  6
Continuous
 62
   190
390
5F
100
AcDbText
 10
23013.97518172202
 20
-6563.299426171906
 30
0.0
 40
12.0
  1
catalogue-bois-construction.fr
  7
arial-i
100
AcDbText
  0
VIEWPORT
  5
217
330
211
100
AcDbEntity
 67
     1
  8
0
  6
Continuous
390
5F
100
AcDbViewport
 10
98.8
 20
135.8
 30
0.0
 40
209.0608
 41
287.3528000000001
 68
     1
 69
     1
 12
128.5
 22
97.5
 13
0.0
 23
0.0
 14
10.0
 24
10.0
 15
10.0
 25
10.0
 16
0.0
 26
0.0
 36
1.0
 17
0.0
 27
0.0
 37
0.0
 42
50.0
 43
0.0
 44
0.0
 45
222.18
 50
0.0
 51
0.0
 72
   100
 90
   557152
  1

281
     0
 71
     1
 74
     0
110
0.0
120
0.0
130
0.0
111
1.0
121
0.0
131
0.0
112
0.0
122
1.0
132
0.0
 79
     0
146
0.0
170
     0
 61
     5
348
2F
292
     1
282
     1
141
0.0
142
0.0
 63
   256
361
218
  0
VIEWPORT
  5
219
330
211
100
AcDbEntity
 67
     1
  8
0
  6
Continuous
 60
     1
390
5F
100
AcDbViewport
 10
98.8
 20
135.8
 30
0.0
 40
197.6
 41
271.6
 68
     2
 69
     2
 12
23123.52427687583
 22
-5951.993850699627
 13
0.0
 23
0.0
 14
10.0
 24
10.0
 15
10.0
 25
10.0
 16
0.0
 26
0.0
 36
1.0
 17
0.0
 27
0.0
 37
0.0
 42
50.0
 43
0.0
 44
0.0
 45
1358.0
 50
0.0
 51
0.0
 72
   100
 90
   557152
  1

281
     0
 71
     1
 74
     0
110
0.0
120
0.0
130
0.0
111
1.0
121
0.0
131
0.0
112
0.0
122
1.0
132
0.0
 79
     0
146
0.0
170
     0
 61
     5
348
2F
292
     1
282
     1
141
0.0
142
0.0
 63
   256
  0
ENDSEC
  0
SECTION
  2
OBJECTS
  0
DICTIONARY
  5
C
330
0
100
AcDbDictionary
281
     1
  3
ACAD_DETAILVIEWSTYLE
350
337
  3
ACAD_GROUP
350
D
  3
ACAD_IMAGE_VARS
350
60
  3
ACAD_LAYOUT
350
1A
  3
ACAD_MATERIAL
350
43
  3
ACAD_MLEADERSTYLE
350
5B
  3
ACAD_MLINESTYLE
350
17
  3
ACAD_PLOTSETTINGS
350
19
  3
ACAD_PLOTSTYLENAME
350
E
  3
ACAD_SCALELIST
350
47
  3
ACAD_SECTIONVIEWSTYLE
350
338
  3
ACAD_TABLESTYLE
350
59
  3
ACAD_VISUALSTYLE
350
2A
  3
ACAD_WIPEOUT_VARS
350
61
  3
ACDB_RECOMPOSE_DATA
350
334
  3
AcDbVariableDictionary
350
330
  0
SUN
  5
5D
330
29
100
AcDbSun
 90
        1
290
     0
 63
     7
421
 16777215
 40
1.0
291
     1
 91
  2455826
 92
 54000000
292
     0
 70
     2
 71
   256
280
     1
  0
SUN
  5
218
330
217
100
AcDbSun
 90
        1
290
     0
 63
     7
421
 16777215
 40
1.0
291
     1
 91
  2455826
 92
 54000000
292
     0
 70
     2
 71
   256
280
     1
  0
DICTIONARY
  5
337
102
{ACAD_REACTORS
330
C
102
}
330
C
100
AcDbDictionary
281
     1
  0
DICTIONARY
  5
D
102
{ACAD_REACTORS
330
C
102
}
330
C
100
AcDbDictionary
281
     1
  0
RASTERVARIABLES
  5
60
102
{ACAD_REACTORS
330
C
102
}
330
C
100
AcDbRasterVariables
 90
        0
 70
     0
 71
     1
 72
     1
  0
DICTIONARY
  5
1A
102
{ACAD_REACTORS
330
C
102
}
330
C
100
AcDbDictionary
281
     1
  3
CompleteLayout
350
1E
  3
Model
350
22
  3
PrintFrame_171
350
212
  0
DICTIONARY
  5
43
102
{ACAD_REACTORS
330
C
102
}
330
C
100
AcDbDictionary
281
     1
  3
ByBlock
350
45
  3
ByLayer
350
44
  3
Global
350
46
  0
DICTIONARY
  5
5B
102
{ACAD_REACTORS
330
C
102
}
330
C
100
AcDbDictionary
281
     1
  3
Standard
350
5C
  0
DICTIONARY
  5
17
102
{ACAD_REACTORS
330
C
102
}
330
C
100
AcDbDictionary
281
     1
  3
Standard
350
18
  0
DICTIONARY
  5
19
102
{ACAD_REACTORS
330
C
102
}
330
C
100
AcDbDictionary
281
     1
  3
PlotSettings_
350
215
  0
ACDBDICTIONARYWDFLT
  5
E
102
{ACAD_REACTORS
330
C
102
}
330
C
100
AcDbDictionary
281
     1
  3
flat
350
5F
  3
Normal
350
F
  3
round
350
25D
100
AcDbDictionaryWithDefault
340
F
  0
DICTIONARY
  5
47
102
{ACAD_REACTORS
330
C
102
}
330
C
100
AcDbDictionary
281
     1
  3
A0
350
48
  3
A1
350
49
  3
A2
350
4A
  3
A3
350
4B
  3
A4
350
4C
  3
A5
350
4D
  3
A6
350
4E
  3
A7
350
4F
  3
A8
350
50
  3
A9
350
51
  3
B0
350
52
  3
B1
350
53
  3
B2
350
54
  3
B3
350
55
  3
B4
350
56
  3
B5
350
57
  3
B6
350
58
  0
DICTIONARY
  5
338
102
{ACAD_REACTORS
330
C
102
}
330
C
100
AcDbDictionary
281
     1
  0
DICTIONARY
  5
59
102
{ACAD_REACTORS
330
C
102
}
330
C
100
AcDbDictionary
281
     1
  3
Standard
350
5A
  0
DICTIONARY
  5
2A
102
{ACAD_REACTORS
330
C
102
}
330
C
100
AcDbDictionary
281
     1
  3
2dWireframe
350
2F
  3
Basic
350
32
  3
Brighten
350
36
  3
ColorChange
350
3A
  3
Conceptual
350
34
  3
Dim
350
35
  3
EdgeColorOff
350
3D
  3
Facepattern
350
39
  3
Flat
350
2B
  3
FlatWithEdges
350
2C
  3
Gouraud
350
2D
  3
GouraudWithEdges
350
2E
  3
Hidden
350
31
  3
JitterOff
350
3B
  3
Linepattern
350
38
  3
OverhangOff
350
3C
  3
Realistic
350
33
  3
Shaded
350
42
  3
Shaded with edges
350
41
  3
Shades of Gray
350
3E
  3
Sketchy
350
3F
  3
Thicken
350
37
  3
Wireframe
350
30
  3
X-Ray
350
40
  0
WIPEOUTVARIABLES
  5
61
102
{ACAD_REACTORS
330
C
102
}
330
C
100
AcDbWipeoutVariables
 70
     0
  0
XRECORD
  5
334
102
{ACAD_REACTORS
330
C
102
}
330
C
100
AcDbXrecord
280
     1
 90
        1
330
5A
  0
DICTIONARY
  5
330
102
{ACAD_REACTORS
330
C
102
}
330
C
100
AcDbDictionary
281
     1
  3
CANNOSCALE
350
331
  3
CENTEREXE
350
33A
  3
CENTERLTYPEFILE
350
33B
  3
CMLEADERSTYLE
350
336
  3
CTABLESTYLE
350
335
  3
WIPEOUTFRAME
350
339
  0
LAYOUT
  5
1E
102
{ACAD_REACTORS
330
1A
102
}
330
1A
100
AcDbPlotSettings
  1

  2
none_device
  4

  6

 40
0.0
 41
0.0
 42
0.0
 43
0.0
 44
0.0
 45
0.0
 46
0.0
 47
0.0
 48
0.0
 49
0.0
140
0.0
141
0.0
142
1.0
143
1.0
 70
   688
 72
     1
 73
     0
 74
     5
  7

 75
    16
 76
     0
 77
     2
 78
   300
147
1.0
148
0.0
149
0.0
100
AcDbLayout
  1
CompleteLayout
 70
     1
 71
     1
 10
0.0
 20
0.0
 11
420.0
 21
297.0
 12
0.0
 22
0.0
 32
0.0
 14
1.000000000000000E+20
 24
1.000000000000000E+20
 34
1.000000000000000E+20
 15
-1.000000000000000E+20
 25
-1.000000000000000E+20
 35
-1.000000000000000E+20
146
0.0
 13
0.0
 23
0.0
 33
0.0
 16
1.0
 26
0.0
 36
0.0
 17
0.0
 27
1.0
 37
0.0
 76
     0
330
1B
  0
LAYOUT
  5
22
102
{ACAD_REACTORS
330
1A
102
}
330
1A
100
AcDbPlotSettings
  1

  2
none_device
  4
Letter_(8.50_x_11.00_Inches)
  6

 40
6.35
 41
6.35
 42
6.35000508
 43
6.35000508
 44
215.9
 45
279.4
 46
0.0
 47
0.0
 48
0.0
 49
0.0
140
0.0
141
0.0
142
1.0
143
1.0
 70
  1712
 72
     1
 73
     0
 74
     0
  7

 75
     0
 76
     0
 77
     2
 78
   300
147
1.0
148
0.0
149
0.0
100
AcDbLayout
  1
Model
 70
     1
 71
     0
 10
0.0
 20
0.0
 11
420.0
 21
297.0
 12
0.0
 22
0.0
 32
0.0
 14
9116.32829549663
 24
-7141.735316998213
 34
0.0
 15
31769.28913838763
 25
-4703.211407923024
 35
2500.0
146
0.0
 13
0.0
 23
0.0
 33
0.0
 16
1.0
 26
0.0
 36
0.0
 17
0.0
 27
1.0
 37
0.0
 76
     0
330
1F
331
29
  0
LAYOUT
  5
212
102
{ACAD_REACTORS
330
1A
102
}
330
1A
100
AcDbPlotSettings
  1
PlotSettings_
  2
Custom Device
  4
Custom_210.000000x297.000000_12.700000_12.700000_6.200000_6.200000
  6

 40
6.2
 41
12.7
 42
6.2
 43
12.7
 44
210.0
 45
297.0
 46
0.0000000000000142
 47
0.0
 48
0.0
 49
0.0
140
197.6
141
271.6
142
1.0
143
1.0
 70
   756
 72
     1
 73
     0
 74
     4
  7

 75
     0
 76
     0
 77
     2
 78
   300
147
1.0
148
0.0
149
0.0
100
AcDbLayout
  1
PrintFrame_171
 70
     0
 71
     2
 10
-20.0
 20
-7.5
 11
277.0
 21
202.5
 12
0.0
 22
0.0
 32
0.0
 14
-5.730400000000003
 24
-7.876400000000018
 34
0.0
 15
203.3304
 25
279.4764
 35
0.0
146
0.0
 13
0.0
 23
0.0
 33
0.0
 16
1.0
 26
0.0
 36
0.0
 17
0.0
 27
1.0
 37
0.0
 76
     0
330
211
331
217
1001
PLOTTRANSPARENCY
1071
        1
1000
layout-user-created
1070
     1
1000
layout-line-weight-scale
1042
1.0
  0
MATERIAL
  5
45
102
{ACAD_REACTORS
330
43
102
}
330
43
100
AcDbMaterial
  1
ByBlock
 72
     1
 94
      127
  0
MATERIAL
  5
44
102
{ACAD_REACTORS
330
43
102
}
330
43
100
AcDbMaterial
  1
ByLayer
 72
     1
 94
      127
  0
MATERIAL
  5
46
102
{ACAD_REACTORS
330
43
102
}
330
43
100
AcDbMaterial
  1
Global
 72
     1
 94
      127
  0
MLEADERSTYLE
  5
5C
102
{ACAD_REACTORS
330
5B
102
}
330
5B
100
AcDbMLeaderStyle
179
     2
170
     2
171
     1
172
     0
 90
        2
 40
0.0
 41
0.0
173
     1
 91
-1056964608
340
14
 92
       -2
290
     1
 42
2.0
291
     1
 43
8.0
  3
Standard
341
0
 44
4.0
300

342
11
174
     1
178
     6
175
     1
176
     0
 93
-1056964608
 45
4.0
292
     0
297
     0
 46
4.0
343
0
 94
-1056964608
 47
1.0
 49
1.0
140
1.0
293
     1
141
0.0
294
     1
177
     0
142
1.0
295
     0
296
     0
143
3.75
271
     0
272
     9
273
     9
298
     0
  0
MLINESTYLE
  5
18
102
{ACAD_REACTORS
330
17
102
}
330
17
100
AcDbMlineStyle
  2
Standard
 70
     0
  3

 62
   256
 51
90.0
 52
90.0
 71
     2
 49
0.5
 62
   256
  6
BYLAYER
 49
-0.5
 62
   256
  6
BYLAYER
  0
PLOTSETTINGS
  5
215
102
{ACAD_REACTORS
330
19
102
}
330
19
100
AcDbPlotSettings
  1
PlotSettings_
  2
Custom Device
  4
Custom_210.000000x297.000000_12.700000_12.700000_6.200000_6.200000
  6

 40
6.2
 41
12.7
 42
6.2
 43
12.7
 44
210.0
 45
297.0
 46
0.0000000000000142
 47
0.0
 48
0.0
 49
0.0
140
197.6
141
271.6
142
1.0
143
1.0
 70
   756
 72
     1
 73
     0
 74
     4
  7

 75
     0
 76
     0
 77
     2
 78
   300
147
1.0
148
0.0
149
0.0
1001
PLOTTRANSPARENCY
1071
        1
1000
layout-user-created
1070
     1
1000
layout-line-weight-scale
1042
1.0
  0
ACDBPLACEHOLDER
  5
5F
102
{ACAD_REACTORS
330
E
102
}
330
E
  0
ACDBPLACEHOLDER
  5
F
102
{ACAD_REACTORS
330
E
102
}
330
E
  0
ACDBPLACEHOLDER
  5
25D
102
{ACAD_REACTORS
330
E
102
}
330
E
  0
SCALE
  5
48
102
{ACAD_REACTORS
330
47
102
}
330
47
100
AcDbScale
 70
     0
300
1:1
140
1.0
141
1.0
290
     1
  0
SCALE
  5
49
102
{ACAD_REACTORS
330
47
102
}
330
47
100
AcDbScale
 70
     0
300
1:2
140
1.0
141
2.0
290
     0
  0
SCALE
  5
4A
102
{ACAD_REACTORS
330
47
102
}
330
47
100
AcDbScale
 70
     0
300
1:4
140
1.0
141
4.0
290
     0
  0
SCALE
  5
4B
102
{ACAD_REACTORS
330
47
102
}
330
47
100
AcDbScale
 70
     0
300
1:5
140
1.0
141
5.0
290
     0
  0
SCALE
  5
4C
102
{ACAD_REACTORS
330
47
102
}
330
47
100
AcDbScale
 70
     0
300
1:8
140
1.0
141
8.0
290
     0
  0
SCALE
  5
4D
102
{ACAD_REACTORS
330
47
102
}
330
47
100
AcDbScale
 70
     0
300
1:10
140
1.0
141
10.0
290
     0
  0
SCALE
  5
4E
102
{ACAD_REACTORS
330
47
102
}
330
47
100
AcDbScale
 70
     0
300
1:16
140
1.0
141
16.0
290
     0
  0
SCALE
  5
4F
102
{ACAD_REACTORS
330
47
102
}
330
47
100
AcDbScale
 70
     0
300
1:20
140
1.0
141
20.0
290
     0
  0
SCALE
  5
50
102
{ACAD_REACTORS
330
47
102
}
330
47
100
AcDbScale
 70
     0
300
1:30
140
1.0
141
30.0
290
     0
  0
SCALE
  5
51
102
{ACAD_REACTORS
330
47
102
}
330
47
100
AcDbScale
 70
     0
300
1:40
140
1.0
141
40.0
290
     0
  0
SCALE
  5
52
102
{ACAD_REACTORS
330
47
102
}
330
47
100
AcDbScale
 70
     0
300
1:50
140
1.0
141
50.0
290
     0
  0
SCALE
  5
53
102
{ACAD_REACTORS
330
47
102
}
330
47
100
AcDbScale
 70
     0
300
1:100
140
1.0
141
100.0
290
     0
  0
SCALE
  5
54
102
{ACAD_REACTORS
330
47
102
}
330
47
100
AcDbScale
 70
     0
300
2:1
140
2.0
141
1.0
290
     0
  0
SCALE
  5
55
102
{ACAD_REACTORS
330
47
102
}
330
47
100
AcDbScale
 70
     0
300
4:1
140
4.0
141
1.0
290
     0
  0
SCALE
  5
56
102
{ACAD_REACTORS
330
47
102
}
330
47
100
AcDbScale
 70
     0
300
8:1
140
8.0
141
1.0
290
     0
  0
SCALE
  5
57
102
{ACAD_REACTORS
330
47
102
}
330
47
100
AcDbScale
 70
     0
300
10:1
140
10.0
141
1.0
290
     0
  0
SCALE
  5
58
102
{ACAD_REACTORS
330
47
102
}
330
47
100
AcDbScale
 70
     0
300
100:1
140
100.0
141
1.0
290
     0
  0
TABLESTYLE
  5
5A
102
{ACAD_REACTORS
330
59
102
}
102
{ACAD_XDICTIONARY
360
332
102
}
330
59
100
AcDbTableStyle
  3
Standard
 70
     0
 71
     0
 40
0.06
 41
0.06
280
     0
281
     0
  7
Standard
140
4.5
170
     2
 62
     0
 63
   257
283
     0
 90
        4
 91
        0
  1

274
    -2
284
     1
 64
     0
275
    -2
285
     1
 65
     0
276
    -2
286
     1
 66
     0
277
    -2
287
     1
 67
     0
278
    -2
288
     1
 68
     0
279
    -2
289
     1
 69
     0
  7
Standard
140
6.0
170
     5
 62
     0
 63
   257
283
     0
 90
        4
 91
        0
  1

274
    -2
284
     1
 64
     0
275
    -2
285
     1
 65
     0
276
    -2
286
     1
 66
     0
277
    -2
287
     1
 67
     0
278
    -2
288
     1
 68
     0
279
    -2
289
     1
 69
     0
  7
Standard
140
4.5
170
     5
 62
     0
 63
   257
283
     0
 90
        4
 91
        0
  1

274
    -2
284
     1
 64
     0
275
    -2
285
     1
 65
     0
276
    -2
286
     1
 66
     0
277
    -2
287
     1
 67
     0
278
    -2
288
     1
 68
     0
279
    -2
289
     1
 69
     0
  0
VISUALSTYLE
  5
2F
102
{ACAD_REACTORS
330
2A
102
}
330
2A
100
AcDbVisualStyle
  2
2dWireframe
 70
     4
177
     3
291
     0
 70
    58
 90
        0
176
     1
 90
        2
176
     1
 90
        0
176
     1
 90
        0
176
     1
 40
0.6
176
     1
 40
30.0
176
     1
 62
     7
420
 16777215
176
     1
 90
        1
176
     1
 90
        4
176
     1
 62
     7
176
     1
 62
   257
176
     1
 90
        1
176
     1
 90
        1
176
     1
 40
1.0
176
     1
 90
        0
176
     1
 62
   257
176
     1
 40
1.0
176
     1
 90
        1
176
     1
 90
        6
176
     1
 90
        2
176
     1
 62
     7
176
     1
 90
        5
176
     1
 90
        0
176
     1
 90
        0
176
     1
290
     0
176
     1
 90
        1
176
     1
 40
0.0
176
     1
 90
        0
176
     1
290
     1
176
     1
290
     1
176
     1
290
     0
176
     1
290
     0
176
     1
290
     0
176
     1
290
     0
176
     1
290
     0
176
     1
290
     0
176
     1
290
     0
176
     1
 90
       50
176
     1
 40
0.0
176
     1
 40
1.0
176
     1
 90
        0
176
     1
 62
    18
420
        0
176
     1
 90
       50
176
     1
 90
        3
176
     1
 62
     5
420
      255
176
     1
290
     0
176
     1
 90
       50
176
     1
 90
       50
176
     1
 90
       50
176
     1
290
     0
176
     1
 90
       50
176
     1
 62
   256
176
     0
 40
1.0
176
     0
 90
        2
176
     1
  1
strokes_ogs.tif
176
     1
290
     0
176
     1
 40
1.0
176
     1
 40
1.0
176
     1
  0
VISUALSTYLE
  5
32
102
{ACAD_REACTORS
330
2A
102
}
330
2A
100
AcDbVisualStyle
  2
Basic
 70
     7
177
     3
291
     1
 70
    58
 90
        1
176
     1
 90
        0
176
     1
 90
        1
176
     1
 90
        0
176
     1
 40
0.6
176
     1
 40
30.0
176
     1
 62
     7
420
 16777215
176
     1
 90
        0
176
     1
 90
        4
176
     1
 62
     7
176
     1
 62
   257
176
     1
 90
        1
176
     1
 90
        1
176
     1
 40
1.0
176
     1
 90
        8
176
     1
 62
     7
176
     1
 40
1.0
176
     1
 90
        1
176
     1
 90
        6
176
     1
 90
        2
176
     1
 62
     7
176
     1
 90
        5
176
     1
 90
        0
176
     1
 90
        0
176
     1
290
     0
176
     1
 90
        1
176
     1
 40
0.0
176
     1
 90
        0
176
     1
290
     0
176
     1
290
     1
176
     1
290
     1
176
     1
290
     0
176
     1
290
     0
176
     1
290
     0
176
     1
290
     0
176
     1
290
     0
176
     1
290
     0
176
     1
 90
       50
176
     1
 40
0.0
176
     1
 40
1.0
176
     1
 90
        0
176
     1
 62
    18
420
        0
176
     1
 90
       50
176
     1
 90
        3
176
     1
 62
     5
420
      255
176
     1
290
     0
176
     1
 90
       50
176
     1
 90
       50
176
     1
 90
       50
176
     1
290
     0
176
     1
 90
       50
176
     1
 62
   256
176
     0
 40
1.0
176
     0
 90
        2
176
     1
  1
strokes_ogs.tif
176
     1
290
     0
176
     1
 40
1.0
176
     1
 40
1.0
176
     1
  0
VISUALSTYLE
  5
36
102
{ACAD_REACTORS
330
2A
102
}
330
2A
100
AcDbVisualStyle
  2
Brighten
 70
    12
177
     3
291
     1
 70
    58
 90
        2
176
     1
 90
        2
176
     1
 90
        0
176
     1
 90
        0
176
     1
 40
0.6
176
     1
 40
30.0
176
     1
 62
     7
420
 16777215
176
     1
 90
        1
176
     1
 90
        4
176
     1
 62
     7
176
     1
 62
   257
176
     1
 90
        1
176
     1
 90
        1
176
     1
 40
1.0
176
     1
 90
        8
176
     1
 62
     7
176
     1
 40
1.0
176
     1
 90
        1
176
     1
 90
        6
176
     1
 90
        2
176
     1
 62
     7
176
     1
 90
        5
176
     1
 90
        0
176
     1
 90
        0
176
     1
290
     0
176
     1
 90
        1
176
     1
 40
50.0
176
     1
 90
        0
176
     1
290
     0
176
     1
290
     1
176
     1
290
     1
176
     1
290
     0
176
     1
290
     0
176
     1
290
     0
176
     1
290
     0
176
     1
290
     0
176
     1
290
     0
176
     1
 90
       50
176
     1
 40
0.0
176
     1
 40
1.0
176
     1
 90
        0
176
     1
 62
    18
420
        0
176
     1
 90
       50
176
     1
 90
        3
176
     1
 62
     5
420
      255
176
     1
290
     0
176
     1
 90
       50
176
     1
 90
       50
176
     1
 90
       50
176
     1
290
     0
176
     1
 90
       50
176
     1
 62
   256
176
     0
 40
1.0
176
     0
 90
        2
176
     1
  1
strokes_ogs.tif
176
     1
290
     0
176
     1
 40
1.0
176
     1
 40
1.0
176
     1
  0
VISUALSTYLE
  5
3A
102
{ACAD_REACTORS
330
2A
102
}
330
2A
100
AcDbVisualStyle
  2
ColorChange
 70
    16
177
     3
291
     1
 70
    58
 90
        2
176
     1
 90
        2
176
     1
 90
        3
176
     1
 90
        0
176
     1
 40
0.6
176
     1
 40
30.0
176
     1
 62
     8
420
  8421504
176
     1
 90
        1
176
     1
 90
        4
176
     1
 62
     7
176
     1
 62
   257
176
     1
 90
        1
176
     1
 90
        1
176
     1
 40
1.0
176
     1
 90
        8
176
     1
 62
     8
420
  8421504
176
     1
 40
1.0
176
     1
 90
        1
176
     1
 90
        6
176
     1
 90
        2
176
     1
 62
     7
176
     1
 90
        5
176
     1
 90
        0
176
     1
 90
        0
176
     1
290
     0
176
     1
 90
        1
176
     1
 40
0.0
176
     1
 90
        0
176
     1
290
     0
176
     1
290
     1
176
     1
290
     1
176
     1
290
     0
176
     1
290
     0
176
     1
290
     0
176
     1
290
     0
176
     1
290
     0
176
     1
290
     0
176
     1
 90
       50
176
     1
 40
0.0
176
     1
 40
1.0
176
     1
 90
        0
176
     1
 62
    18
420
        0
176
     1
 90
       50
176
     1
 90
        3
176
     1
 62
     5
420
      255
176
     1
290
     0
176
     1
 90
       50
176
     1
 90
       50
176
     1
 90
       50
176
     1
290
     0
176
     1
 90
       50
176
     1
 62
   256
176
     0
 40
1.0
176
     0
 90
        2
176
     1
  1
strokes_ogs.tif
176
     1
290
     0
176
     1
 40
1.0
176
     1
 40
1.0
176
     1
  0
VISUALSTYLE
  5
34
102
{ACAD_REACTORS
330
2A
102
}
330
2A
100
AcDbVisualStyle
  2
Conceptual
 70
     9
177
     3
291
     0
 70
    58
 90
        3
176
     1
 90
        2
176
     1
 90
        0
176
     1
 90
        0
176
     1
 40
0.6
176
     1
 40
30.0
176
     1
 62
     7
420
 16777215
176
     1
 90
        2
176
     1
 90
        2
176
     1
 62
     7
176
     1
 62
   257
176
     1
 90
        1
176
     1
 90
        1
176
     1
 40
179.0
176
     1
 90
        8
176
     1
 62
     7
176
     1
 40
1.0
176
     1
 90
        1
176
     1
 90
        6
176
     1
 90
        2
176
     1
 62
     7
176
     1
 90
        3
176
     1
 90
        0
176
     1
 90
        0
176
     1
290
     0
176
     1
 90
        1
176
     1
 40
0.0
176
     1
 90
        0
176
     1
290
     0
176
     1
290
     1
176
     1
290
     1
176
     1
290
     0
176
     1
290
     0
176
     1
290
     0
176
     1
290
     0
176
     1
290
     0
176
     1
290
     0
176
     1
 90
       50
176
     1
 40
0.0
176
     1
 40
1.0
176
     1
 90
        0
176
     1
 62
    18
420
        0
176
     1
 90
       50
176
     1
 90
        3
176
     1
 62
     5
420
      255
176
     1
290
     0
176
     1
 90
       50
176
     1
 90
       50
176
     1
 90
       50
176
     1
290
     0
176
     1
 90
       50
176
     1
 62
   256
176
     0
 40
1.0
176
     0
 90
        2
176
     1
  1
strokes_ogs.tif
176
     1
290
     0
176
     1
 40
1.0
176
     1
 40
1.0
176
     1
  0
VISUALSTYLE
  5
35
102
{ACAD_REACTORS
330
2A
102
}
330
2A
100
AcDbVisualStyle
  2
Dim
 70
    11
177
     3
291
     1
 70
    58
 90
        2
176
     1
 90
        2
176
     1
 90
        0
176
     1
 90
        0
176
     1
 40
0.6
176
     1
 40
30.0
176
     1
 62
     7
420
 16777215
176
     1
 90
        1
176
     1
 90
        4
176
     1
 62
     7
176
     1
 62
   257
176
     1
 90
        1
176
     1
 90
        1
176
     1
 40
1.0
176
     1
 90
        8
176
     1
 62
     7
176
     1
 40
1.0
176
     1
 90
        1
176
     1
 90
        6
176
     1
 90
        2
176
     1
 62
     7
176
     1
 90
        5
176
     1
 90
        0
176
     1
 90
        0
176
     1
290
     0
176
     1
 90
        1
176
     1
 40
-50.0
176
     1
 90
        0
176
     1
290
     0
176
     1
290
     1
176
     1
290
     1
176
     1
290
     0
176
     1
290
     0
176
     1
290
     0
176
     1
290
     0
176
     1
290
     0
176
     1
290
     0
176
     1
 90
       50
176
     1
 40
0.0
176
     1
 40
1.0
176
     1
 90
        0
176
     1
 62
    18
420
        0
176
     1
 90
       50
176
     1
 90
        3
176
     1
 62
     5
420
      255
176
     1
290
     0
176
     1
 90
       50
176
     1
 90
       50
176
     1
 90
       50
176
     1
290
     0
176
     1
 90
       50
176
     1
 62
   256
176
     0
 40
1.0
176
     0
 90
        2
176
     1
  1
strokes_ogs.tif
176
     1
290
     0
176
     1
 40
1.0
176
     1
 40
1.0
176
     1
  0
VISUALSTYLE
  5
3D
102
{ACAD_REACTORS
330
2A
102
}
330
2A
100
AcDbVisualStyle
  2
EdgeColorOff
 70
    22
177
     3
291
     1
 70
    58
 90
        2
176
     0
 90
        2
176
     0
 90
        0
176
     0
 90
        0
176
     0
 40
0.6
176
     0
 40
30.0
176
     0
 62
     7
420
 16777215
176
     0
 90
        1
176
     0
 90
        4
176
     0
 62
     7
176
     0
 62
   257
176
     0
 90
        1
176
     0
 90
        1
176
     0
 40
1.0
176
     0
 90
        8
176
     2
 62
     7
176
     0
 40
1.0
176
     0
 90
        1
176
     0
 90
        6
176
     0
 90
        2
176
     0
 62
     7
176
     0
 90
        5
176
     0
 90
        0
176
     0
 90
        0
176
     0
290
     0
176
     0
 90
        1
176
     0
 40
0.0
176
     0
 90
        0
176
     0
290
     0
176
     0
290
     1
176
     0
290
     1
176
     0
290
     0
176
     0
290
     0
176
     0
290
     0
176
     0
290
     0
176
     0
290
     0
176
     0
290
     0
176
     0
 90
       50
176
     0
 40
0.0
176
     0
 40
1.0
176
     0
 90
        0
176
     0
 62
    18
420
        0
176
     0
 90
       50
176
     0
 90
        3
176
     0
 62
     5
420
      255
176
     0
290
     0
176
     0
 90
       50
176
     0
 90
       50
176
     0
 90
       50
176
     0
290
     0
176
     0
 90
       50
176
     0
 62
   256
176
     0
 40
1.0
176
     0
 90
        2
176
     0
  1
strokes_ogs.tif
176
     0
290
     0
176
     0
 40
1.0
176
     0
 40
1.0
176
     0
  0
VISUALSTYLE
  5
39
102
{ACAD_REACTORS
330
2A
102
}
330
2A
100
AcDbVisualStyle
  2
Facepattern
 70
    15
177
     3
291
     1
 70
    58
 90
        2
176
     1
 90
        2
176
     1
 90
        0
176
     1
 90
        0
176
     1
 40
0.6
176
     1
 40
30.0
176
     1
 62
     7
420
 16777215
176
     1
 90
        1
176
     1
 90
        4
176
     1
 62
     7
176
     1
 62
   257
176
     1
 90
        1
176
     1
 90
        1
176
     1
 40
1.0
176
     1
 90
        8
176
     1
 62
     7
176
     1
 40
1.0
176
     1
 90
        1
176
     1
 90
        6
176
     1
 90
        2
176
     1
 62
     7
176
     1
 90
        5
176
     1
 90
        0
176
     1
 90
        0
176
     1
290
     0
176
     1
 90
        1
176
     1
 40
0.0
176
     1
 90
        0
176
     1
290
     0
176
     1
290
     1
176
     1
290
     1
176
     1
290
     0
176
     1
290
     0
176
     1
290
     0
176
     1
290
     0
176
     1
290
     0
176
     1
290
     0
176
     1
 90
       50
176
     1
 40
0.0
176
     1
 40
1.0
176
     1
 90
        0
176
     1
 62
    18
420
        0
176
     1
 90
       50
176
     1
 90
        3
176
     1
 62
     5
420
      255
176
     1
290
     0
176
     1
 90
       50
176
     1
 90
       50
176
     1
 90
       50
176
     1
290
     0
176
     1
 90
       50
176
     1
 62
   256
176
     0
 40
1.0
176
     0
 90
        2
176
     1
  1
strokes_ogs.tif
176
     1
290
     0
176
     1
 40
1.0
176
     1
 40
1.0
176
     1
  0
VISUALSTYLE
  5
2B
102
{ACAD_REACTORS
330
2A
102
}
330
2A
100
AcDbVisualStyle
  2
Flat
 70
     0
177
     3
291
     1
 70
    58
 90
        2
176
     1
 90
        1
176
     1
 90
        1
176
     1
 90
        2
176
     1
 40
0.6
176
     1
 40
30.0
176
     1
 62
     7
420
 16777215
176
     1
 90
        0
176
     1
 90
        0
176
     1
 62
     7
176
     1
 62
   257
176
     1
 90
        1
176
     1
 90
        1
176
     1
 40
1.0
176
     1
 90
        8
176
     1
 62
     7
176
     1
 40
1.0
176
     1
 90
        1
176
     1
 90
        6
176
     1
 90
        2
176
     1
 62
     7
176
     1
 90
        5
176
     1
 90
        0
176
     1
 90
        0
176
     1
290
     0
176
     1
 90
       13
176
     1
 40
0.0
176
     1
 90
        0
176
     1
290
     0
176
     1
290
     1
176
     1
290
     1
176
     1
290
     0
176
     1
290
     0
176
     1
290
     0
176
     1
290
     0
176
     1
290
     0
176
     1
290
     0
176
     1
 90
       50
176
     1
 40
0.0
176
     1
 40
1.0
176
     1
 90
        0
176
     1
 62
    18
420
        0
176
     1
 90
       50
176
     1
 90
        3
176
     1
 62
     5
420
      255
176
     1
290
     0
176
     1
 90
       50
176
     1
 90
       50
176
     1
 90
       50
176
     1
290
     0
176
     1
 90
       50
176
     1
 62
   256
176
     0
 40
1.0
176
     0
 90
        2
176
     1
  1
strokes_ogs.tif
176
     1
290
     0
176
     1
 40
1.0
176
     1
 40
1.0
176
     1
  0
VISUALSTYLE
  5
2C
102
{ACAD_REACTORS
330
2A
102
}
330
2A
100
AcDbVisualStyle
  2
FlatWithEdges
 70
     1
177
     3
291
     1
 70
    58
 90
        2
176
     1
 90
        1
176
     1
 90
        1
176
     1
 90
        2
176
     1
 40
0.6
176
     1
 40
30.0
176
     1
 62
     7
420
 16777215
176
     1
 90
        1
176
     1
 90
        0
176
     1
 62
     7
176
     1
 62
   257
176
     1
 90
        1
176
     1
 90
        1
176
     1
 40
1.0
176
     1
 90
        0
176
     1
 62
   257
176
     1
 40
1.0
176
     1
 90
        1
176
     1
 90
        6
176
     1
 90
        2
176
     1
 62
     7
176
     1
 90
        5
176
     1
 90
        0
176
     1
 90
        0
176
     1
290
     0
176
     1
 90
       13
176
     1
 40
0.0
176
     1
 90
        0
176
     1
290
     0
176
     1
290
     1
176
     1
290
     1
176
     1
290
     0
176
     1
290
     0
176
     1
290
     0
176
     1
290
     0
176
     1
290
     0
176
     1
290
     0
176
     1
 90
       50
176
     1
 40
0.0
176
     1
 40
1.0
176
     1
 90
        0
176
     1
 62
    18
420
        0
176
     1
 90
       50
176
     1
 90
        3
176
     1
 62
     5
420
      255
176
     1
290
     0
176
     1
 90
       50
176
     1
 90
       50
176
     1
 90
       50
176
     1
290
     0
176
     1
 90
       50
176
     1
 62
   256
176
     0
 40
1.0
176
     0
 90
        2
176
     1
  1
strokes_ogs.tif
176
     1
290
     0
176
     1
 40
1.0
176
     1
 40
1.0
176
     1
  0
VISUALSTYLE
  5
2D
102
{ACAD_REACTORS
330
2A
102
}
330
2A
100
AcDbVisualStyle
  2
Gouraud
 70
     2
177
     3
291
     1
 70
    58
 90
        2
176
     1
 90
        2
176
     1
 90
        1
176
     1
 90
        2
176
     1
 40
0.6
176
     1
 40
30.0
176
     1
 62
     7
420
 16777215
176
     1
 90
        0
176
     1
 90
        0
176
     1
 62
     7
176
     1
 62
   257
176
     1
 90
        1
176
     1
 90
        1
176
     1
 40
1.0
176
     1
 90
        0
176
     1
 62
     7
176
     1
 40
1.0
176
     1
 90
        1
176
     1
 90
        6
176
     1
 90
        2
176
     1
 62
     7
176
     1
 90
        5
176
     1
 90
        0
176
     1
 90
        0
176
     1
290
     0
176
     1
 90
       13
176
     1
 40
0.0
176
     1
 90
        0
176
     1
290
     0
176
     1
290
     1
176
     1
290
     1
176
     1
290
     0
176
     1
290
     0
176
     1
290
     0
176
     1
290
     0
176
     1
290
     0
176
     1
290
     0
176
     1
 90
       50
176
     1
 40
0.0
176
     1
 40
1.0
176
     1
 90
        0
176
     1
 62
    18
420
        0
176
     1
 90
       50
176
     1
 90
        3
176
     1
 62
     5
420
      255
176
     1
290
     0
176
     1
 90
       50
176
     1
 90
       50
176
     1
 90
       50
176
     1
290
     0
176
     1
 90
       50
176
     1
 62
   256
176
     0
 40
1.0
176
     0
 90
        2
176
     1
  1
strokes_ogs.tif
176
     1
290
     0
176
     1
 40
1.0
176
     1
 40
1.0
176
     1
  0
VISUALSTYLE
  5
2E
102
{ACAD_REACTORS
330
2A
102
}
330
2A
100
AcDbVisualStyle
  2
GouraudWithEdges
 70
     3
177
     3
291
     1
 70
    58
 90
        2
176
     1
 90
        2
176
     1
 90
        1
176
     1
 90
        2
176
     1
 40
0.6
176
     1
 40
30.0
176
     1
 62
     7
420
 16777215
176
     1
 90
        1
176
     1
 90
        0
176
     1
 62
     7
176
     1
 62
   257
176
     1
 90
        1
176
     1
 90
        1
176
     1
 40
1.0
176
     1
 90
        0
176
     1
 62
   257
176
     1
 40
1.0
176
     1
 90
        1
176
     1
 90
        6
176
     1
 90
        2
176
     1
 62
     7
176
     1
 90
        5
176
     1
 90
        0
176
     1
 90
        0
176
     1
290
     0
176
     1
 90
       13
176
     1
 40
0.0
176
     1
 90
        0
176
     1
290
     0
176
     1
290
     1
176
     1
290
     1
176
     1
290
     0
176
     1
290
     0
176
     1
290
     0
176
     1
290
     0
176
     1
290
     0
176
     1
290
     0
176
     1
 90
       50
176
     1
 40
0.0
176
     1
 40
1.0
176
     1
 90
        0
176
     1
 62
    18
420
        0
176
     1
 90
       50
176
     1
 90
        3
176
     1
 62
     5
420
      255
176
     1
290
     0
176
     1
 90
       50
176
     1
 90
       50
176
     1
 90
       50
176
     1
290
     0
176
     1
 90
       50
176
     1
 62
   256
176
     0
 40
1.0
176
     0
 90
        2
176
     1
  1
strokes_ogs.tif
176
     1
290
     0
176
     1
 40
1.0
176
     1
 40
1.0
176
     1
  0
VISUALSTYLE
  5
31
102
{ACAD_REACTORS
330
2A
102
}
330
2A
100
AcDbVisualStyle
  2
Hidden
 70
     6
177
     3
291
     0
 70
    58
 90
        1
176
     1
 90
        2
176
     1
 90
        2
176
     1
 90
        0
176
     1
 40
0.6
176
     1
 40
30.0
176
     1
 62
     7
420
 16777215
176
     1
 90
        2
176
     1
 90
        2
176
     1
 62
     7
176
     1
 62
   257
176
     1
 90
        2
176
     1
 90
        1
176
     1
 40
40.0
176
     1
 90
        0
176
     1
 62
   257
176
     1
 40
1.0
176
     1
 90
        1
176
     1
 90
        6
176
     1
 90
        2
176
     1
 62
     7
176
     1
 90
        3
176
     1
 90
        0
176
     1
 90
        0
176
     1
290
     0
176
     1
 90
        1
176
     1
 40
0.0
176
     1
 90
        0
176
     1
290
     0
176
     1
290
     1
176
     1
290
     1
176
     1
290
     0
176
     1
290
     0
176
     1
290
     0
176
     1
290
     0
176
     1
290
     0
176
     1
290
     0
176
     1
 90
       50
176
     1
 40
0.0
176
     1
 40
1.0
176
     1
 90
        0
176
     1
 62
    18
420
        0
176
     1
 90
       50
176
     1
 90
        3
176
     1
 62
     5
420
      255
176
     1
290
     0
176
     1
 90
       50
176
     1
 90
       50
176
     1
 90
       50
176
     1
290
     0
176
     1
 90
       50
176
     1
 62
   256
176
     0
 40
1.0
176
     0
 90
        2
176
     1
  1
strokes_ogs.tif
176
     1
290
     0
176
     1
 40
1.0
176
     1
 40
1.0
176
     1
  0
VISUALSTYLE
  5
3B
102
{ACAD_REACTORS
330
2A
102
}
330
2A
100
AcDbVisualStyle
  2
JitterOff
 70
    20
177
     3
291
     1
 70
    58
 90
        2
176
     0
 90
        2
176
     0
 90
        0
176
     0
 90
        0
176
     0
 40
0.6
176
     0
 40
30.0
176
     0
 62
     7
420
 16777215
176
     0
 90
        1
176
     0
 90
        4
176
     0
 62
     7
176
     0
 62
   257
176
     0
 90
        1
176
     0
 90
        1
176
     0
 40
1.0
176
     0
 90
       10
176
     2
 62
     7
176
     0
 40
1.0
176
     0
 90
        1
176
     0
 90
        6
176
     0
 90
        2
176
     0
 62
     7
176
     0
 90
        5
176
     0
 90
        0
176
     0
 90
        0
176
     0
290
     0
176
     0
 90
        1
176
     0
 40
0.0
176
     0
 90
        0
176
     0
290
     0
176
     0
290
     1
176
     0
290
     1
176
     0
290
     0
176
     0
290
     0
176
     0
290
     0
176
     0
290
     0
176
     0
290
     0
176
     0
290
     0
176
     0
 90
       50
176
     0
 40
0.0
176
     0
 40
1.0
176
     0
 90
        0
176
     0
 62
    18
420
        0
176
     0
 90
       50
176
     0
 90
        3
176
     0
 62
     5
420
      255
176
     0
290
     0
176
     0
 90
       50
176
     0
 90
       50
176
     0
 90
       50
176
     0
290
     0
176
     0
 90
       50
176
     0
 62
   256
176
     0
 40
1.0
176
     0
 90
        2
176
     0
  1
strokes_ogs.tif
176
     0
290
     0
176
     0
 40
1.0
176
     0
 40
1.0
176
     0
  0
VISUALSTYLE
  5
38
102
{ACAD_REACTORS
330
2A
102
}
330
2A
100
AcDbVisualStyle
  2
Linepattern
 70
    14
177
     3
291
     1
 70
    58
 90
        2
176
     1
 90
        2
176
     1
 90
        0
176
     1
 90
        0
176
     1
 40
0.6
176
     1
 40
30.0
176
     1
 62
     7
420
 16777215
176
     1
 90
        1
176
     1
 90
        4
176
     1
 62
     7
176
     1
 62
   257
176
     1
 90
        7
176
     1
 90
        7
176
     1
 40
1.0
176
     1
 90
        8
176
     1
 62
     7
176
     1
 40
1.0
176
     1
 90
        1
176
     1
 90
        6
176
     1
 90
        2
176
     1
 62
     7
176
     1
 90
        5
176
     1
 90
        0
176
     1
 90
        0
176
     1
290
     0
176
     1
 90
        1
176
     1
 40
0.0
176
     1
 90
        0
176
     1
290
     0
176
     1
290
     1
176
     1
290
     1
176
     1
290
     0
176
     1
290
     0
176
     1
290
     0
176
     1
290
     0
176
     1
290
     0
176
     1
290
     0
176
     1
 90
       50
176
     1
 40
0.0
176
     1
 40
1.0
176
     1
 90
        0
176
     1
 62
    18
420
        0
176
     1
 90
       50
176
     1
 90
        3
176
     1
 62
     5
420
      255
176
     1
290
     0
176
     1
 90
       50
176
     1
 90
       50
176
     1
 90
       50
176
     1
290
     0
176
     1
 90
       50
176
     1
 62
   256
176
     0
 40
1.0
176
     0
 90
        2
176
     1
  1
strokes_ogs.tif
176
     1
290
     0
176
     1
 40
1.0
176
     1
 40
1.0
176
     1
  0
VISUALSTYLE
  5
3C
102
{ACAD_REACTORS
330
2A
102
}
330
2A
100
AcDbVisualStyle
  2
OverhangOff
 70
    21
177
     3
291
     1
 70
    58
 90
        2
176
     0
 90
        2
176
     0
 90
        0
176
     0
 90
        0
176
     0
 40
0.6
176
     0
 40
30.0
176
     0
 62
     7
420
 16777215
176
     0
 90
        1
176
     0
 90
        4
176
     0
 62
     7
176
     0
 62
   257
176
     0
 90
        1
176
     0
 90
        1
176
     0
 40
1.0
176
     0
 90
        9
176
     2
 62
     7
176
     0
 40
1.0
176
     0
 90
        1
176
     0
 90
        6
176
     0
 90
        2
176
     0
 62
     7
176
     0
 90
        5
176
     0
 90
        0
176
     0
 90
        0
176
     0
290
     0
176
     0
 90
        1
176
     0
 40
0.0
176
     0
 90
        0
176
     0
290
     0
176
     0
290
     1
176
     0
290
     1
176
     0
290
     0
176
     0
290
     0
176
     0
290
     0
176
     0
290
     0
176
     0
290
     0
176
     0
290
     0
176
     0
 90
       50
176
     0
 40
0.0
176
     0
 40
1.0
176
     0
 90
        0
176
     0
 62
    18
420
        0
176
     0
 90
       50
176
     0
 90
        3
176
     0
 62
     5
420
      255
176
     0
290
     0
176
     0
 90
       50
176
     0
 90
       50
176
     0
 90
       50
176
     0
290
     0
176
     0
 90
       50
176
     0
 62
   256
176
     0
 40
1.0
176
     0
 90
        2
176
     0
  1
strokes_ogs.tif
176
     0
290
     0
176
     0
 40
1.0
176
     0
 40
1.0
176
     0
  0
VISUALSTYLE
  5
33
102
{ACAD_REACTORS
330
2A
102
}
330
2A
100
AcDbVisualStyle
  2
Realistic
 70
     8
177
     3
291
     0
 70
    58
 90
        2
176
     1
 90
        3
176
     1
 90
        0
176
     1
 90
        2
176
     1
 40
0.6
176
     1
 40
30.0
176
     1
 62
     7
420
 16777215
176
     1
 90
        0
176
     1
 90
        0
176
     1
 62
     7
176
     1
 62
   257
176
     1
 90
        1
176
     1
 90
        1
176
     1
 40
1.0
176
     1
 90
        8
176
     1
 62
   257
176
     1
 40
1.0
176
     1
 90
        1
176
     1
 90
        6
176
     1
 90
        2
176
     1
 62
     7
176
     1
 90
        3
176
     1
 90
        0
176
     1
 90
        0
176
     1
290
     0
176
     1
 90
       13
176
     1
 40
0.0
176
     1
 90
        0
176
     1
290
     0
176
     1
290
     1
176
     1
290
     1
176
     1
290
     0
176
     1
290
     0
176
     1
290
     0
176
     1
290
     0
176
     1
290
     0
176
     1
290
     0
176
     1
 90
       50
176
     1
 40
0.0
176
     1
 40
1.0
176
     1
 90
        0
176
     1
 62
    18
420
        0
176
     1
 90
       50
176
     1
 90
        3
176
     1
 62
     5
420
      255
176
     1
290
     0
176
     1
 90
       50
176
     1
 90
       50
176
     1
 90
       50
176
     1
290
     0
176
     1
 90
       50
176
     1
 62
   256
176
     0
 40
1.0
176
     0
 90
        2
176
     1
  1
strokes_ogs.tif
176
     1
290
     0
176
     1
 40
1.0
176
     1
 40
1.0
176
     1
  0
VISUALSTYLE
  5
42
102
{ACAD_REACTORS
330
2A
102
}
330
2A
100
AcDbVisualStyle
  2
Shaded
 70
    27
177
     3
291
     0
 70
    58
 90
        2
176
     1
 90
        2
176
     1
 90
        1
176
     1
 90
        2
176
     1
 40
0.6
176
     1
 40
30.0
176
     1
 62
     7
420
 16777215
176
     1
 90
        0
176
     1
 90
        4
176
     1
 62
     7
176
     1
 62
   257
176
     1
 90
        1
176
     1
 90
        1
176
     1
 40
1.0
176
     1
 90
        8
176
     1
 62
   257
176
     1
 40
1.0
176
     1
 90
        1
176
     1
 90
        6
176
     1
 90
        2
176
     1
 62
     8
420
  7895160
176
     1
 90
        3
176
     1
 90
        0
176
     1
 90
        0
176
     1
290
     0
176
     1
 90
        5
176
     1
 40
0.0
176
     1
 90
        0
176
     1
290
     0
176
     1
290
     1
176
     1
290
     1
176
     1
290
     0
176
     1
290
     0
176
     1
290
     0
176
     1
290
     0
176
     1
290
     0
176
     1
290
     0
176
     1
 90
       50
176
     1
 40
0.0
176
     1
 40
1.0
176
     1
 90
        0
176
     1
 62
    18
420
        0
176
     1
 90
       50
176
     1
 90
        3
176
     1
 62
     5
420
      255
176
     1
290
     0
176
     1
 90
       50
176
     1
 90
       50
176
     1
 90
       50
176
     1
290
     0
176
     1
 90
       50
176
     1
 62
   256
176
     0
 40
1.0
176
     0
 90
        2
176
     1
  1
strokes_ogs.tif
176
     1
290
     0
176
     1
 40
1.0
176
     1
 40
1.0
176
     1
  0
VISUALSTYLE
  5
41
102
{ACAD_REACTORS
330
2A
102
}
330
2A
100
AcDbVisualStyle
  2
Shaded with edges
 70
    26
177
     3
291
     0
 70
    58
 90
        2
176
     1
 90
        2
176
     1
 90
        1
176
     1
 90
        2
176
     1
 40
0.6
176
     1
 40
30.0
176
     1
 62
     7
420
 16777215
176
     1
 90
        1
176
     1
 90
       10
176
     1
 62
     7
176
     1
 62
   257
176
     1
 90
        2
176
     1
 90
        1
176
     1
 40
1.0
176
     1
 90
        8
176
     1
 62
   257
176
     1
 40
1.0
176
     1
 90
        1
176
     1
 90
        6
176
     1
 90
        2
176
     1
 62
     7
176
     1
 90
        3
176
     1
 90
        0
176
     1
 90
        0
176
     1
290
     0
176
     1
 90
        5
176
     1
 40
0.0
176
     1
 90
        0
176
     1
290
     0
176
     1
290
     1
176
     1
290
     1
176
     1
290
     0
176
     1
290
     0
176
     1
290
     0
176
     1
290
     0
176
     1
290
     0
176
     1
290
     0
176
     1
 90
       50
176
     1
 40
0.0
176
     1
 40
1.0
176
     1
 90
        0
176
     1
 62
    18
420
        0
176
     1
 90
       50
176
     1
 90
        3
176
     1
 62
     5
420
      255
176
     1
290
     0
176
     1
 90
       50
176
     1
 90
       50
176
     1
 90
       50
176
     1
290
     0
176
     1
 90
       50
176
     1
 62
   256
176
     0
 40
1.0
176
     0
 90
        2
176
     1
  1
strokes_ogs.tif
176
     1
290
     0
176
     1
 40
1.0
176
     1
 40
1.0
176
     1
  0
VISUALSTYLE
  5
3E
102
{ACAD_REACTORS
330
2A
102
}
330
2A
100
AcDbVisualStyle
  2
Shades of Gray
 70
    23
177
     3
291
     0
 70
    58
 90
        2
176
     1
 90
        2
176
     1
 90
        3
176
     1
 90
        0
176
     1
 40
0.6
176
     1
 40
30.0
176
     1
 62
     7
420
 16777215
176
     1
 90
        2
176
     1
 90
        2
176
     1
 62
     7
176
     1
 62
     7
176
     1
 90
        1
176
     1
 90
        1
176
     1
 40
40.0
176
     1
 90
        8
176
     1
 62
     7
176
     1
 40
1.0
176
     1
 90
        1
176
     1
 90
        6
176
     1
 90
        2
176
     1
 62
     7
176
     1
 90
        3
176
     1
 90
        0
176
     1
 90
        0
176
     1
290
     0
176
     1
 90
        1
176
     1
 40
0.0
176
     1
 90
        0
176
     1
290
     0
176
     1
290
     1
176
     1
290
     1
176
     1
290
     0
176
     1
290
     0
176
     1
290
     0
176
     1
290
     0
176
     1
290
     0
176
     1
290
     0
176
     1
 90
       50
176
     1
 40
0.0
176
     1
 40
1.0
176
     1
 90
        0
176
     1
 62
    18
420
        0
176
     1
 90
       50
176
     1
 90
        3
176
     1
 62
     5
420
      255
176
     1
290
     0
176
     1
 90
       50
176
     1
 90
       50
176
     1
 90
       50
176
     1
290
     0
176
     1
 90
       50
176
     1
 62
   256
176
     0
 40
1.0
176
     0
 90
        2
176
     1
  1
strokes_ogs.tif
176
     1
290
     0
176
     1
 40
1.0
176
     1
 40
1.0
176
     1
  0
VISUALSTYLE
  5
3F
102
{ACAD_REACTORS
330
2A
102
}
330
2A
100
AcDbVisualStyle
  2
Sketchy
 70
    24
177
     3
291
     0
 70
    58
 90
        1
176
     1
 90
        2
176
     1
 90
        2
176
     1
 90
        0
176
     1
 40
0.6
176
     1
 40
30.0
176
     1
 62
     7
420
 16777215
176
     1
 90
        2
176
     1
 90
        2
176
     1
 62
     7
176
     1
 62
     7
176
     1
 90
        1
176
     1
 90
        1
176
     1
 40
40.0
176
     1
 90
       11
176
     1
 62
     7
176
     1
 40
1.0
176
     1
 90
        1
176
     1
 90
        6
176
     1
 90
        2
176
     1
 62
     7
176
     1
 90
        6
176
     1
 90
        0
176
     1
 90
        0
176
     1
290
     0
176
     1
 90
        1
176
     1
 40
0.0
176
     1
 90
        0
176
     1
290
     0
176
     1
290
     1
176
     1
290
     1
176
     1
290
     0
176
     1
290
     0
176
     1
290
     0
176
     1
290
     0
176
     1
290
     0
176
     1
290
     0
176
     1
 90
       50
176
     1
 40
0.0
176
     1
 40
1.0
176
     1
 90
        0
176
     1
 62
    18
420
        0
176
     1
 90
       50
176
     1
 90
        3
176
     1
 62
     5
420
      255
176
     1
290
     0
176
     1
 90
       50
176
     1
 90
       50
176
     1
 90
       50
176
     1
290
     0
176
     1
 90
       50
176
     1
 62
   256
176
     0
 40
1.0
176
     0
 90
        2
176
     1
  1
strokes_ogs.tif
176
     1
290
     0
176
     1
 40
1.0
176
     1
 40
1.0
176
     1
  0
VISUALSTYLE
  5
37
102
{ACAD_REACTORS
330
2A
102
}
330
2A
100
AcDbVisualStyle
  2
Thicken
 70
    13
177
     3
291
     1
 70
    58
 90
        2
176
     1
 90
        2
176
     1
 90
        0
176
     1
 90
        0
176
     1
 40
0.6
176
     1
 40
30.0
176
     1
 62
     7
420
 16777215
176
     1
 90
        1
176
     1
 90
        4
176
     1
 62
     7
176
     1
 62
   257
176
     1
 90
        1
176
     1
 90
        1
176
     1
 40
1.0
176
     1
 90
       12
176
     1
 62
     7
176
     1
 40
1.0
176
     1
 90
        1
176
     1
 90
        6
176
     1
 90
        2
176
     1
 62
     7
176
     1
 90
        5
176
     1
 90
        0
176
     1
 90
        0
176
     1
290
     0
176
     1
 90
        1
176
     1
 40
0.0
176
     1
 90
        0
176
     1
290
     0
176
     1
290
     1
176
     1
290
     1
176
     1
290
     0
176
     1
290
     0
176
     1
290
     0
176
     1
290
     0
176
     1
290
     0
176
     1
290
     0
176
     1
 90
       50
176
     1
 40
0.0
176
     1
 40
1.0
176
     1
 90
        0
176
     1
 62
    18
420
        0
176
     1
 90
       50
176
     1
 90
        3
176
     1
 62
     5
420
      255
176
     1
290
     0
176
     1
 90
       50
176
     1
 90
       50
176
     1
 90
       50
176
     1
290
     0
176
     1
 90
       50
176
     1
 62
   256
176
     0
 40
1.0
176
     0
 90
        2
176
     1
  1
strokes_ogs.tif
176
     1
290
     0
176
     1
 40
1.0
176
     1
 40
1.0
176
     1
  0
VISUALSTYLE
  5
30
102
{ACAD_REACTORS
330
2A
102
}
330
2A
100
AcDbVisualStyle
  2
Wireframe
 70
     5
177
     3
291
     0
 70
    58
 90
        0
176
     1
 90
        2
176
     1
 90
        0
176
     1
 90
        0
176
     1
 40
0.6
176
     1
 40
30.0
176
     1
 62
     7
420
 16777215
176
     1
 90
        1
176
     1
 90
        4
176
     1
 62
     7
176
     1
 62
   257
176
     1
 90
        1
176
     1
 90
        1
176
     1
 40
1.0
176
     1
 90
        0
176
     1
 62
   257
176
     1
 40
1.0
176
     1
 90
        1
176
     1
 90
        6
176
     1
 90
        2
176
     1
 62
     7
176
     1
 90
        3
176
     1
 90
        0
176
     1
 90
        0
176
     1
290
     0
176
     1
 90
        1
176
     1
 40
0.0
176
     1
 90
        0
176
     1
290
     0
176
     1
290
     1
176
     1
290
     1
176
     1
290
     0
176
     1
290
     0
176
     1
290
     0
176
     1
290
     0
176
     1
290
     0
176
     1
290
     0
176
     1
 90
       50
176
     1
 40
0.0
176
     1
 40
1.0
176
     1
 90
        0
176
     1
 62
    18
420
        0
176
     1
 90
       50
176
     1
 90
        3
176
     1
 62
     5
420
      255
176
     1
290
     0
176
     1
 90
       50
176
     1
 90
       50
176
     1
 90
       50
176
     1
290
     0
176
     1
 90
       50
176
     1
 62
   256
176
     0
 40
1.0
176
     0
 90
        2
176
     1
  1
strokes_ogs.tif
176
     1
290
     0
176
     1
 40
1.0
176
     1
 40
1.0
176
     1
  0
VISUALSTYLE
  5
40
102
{ACAD_REACTORS
330
2A
102
}
330
2A
100
AcDbVisualStyle
  2
X-Ray
 70
    25
177
     3
291
     0
 70
    58
 90
        2
176
     1
 90
        2
176
     1
 90
        1
176
     1
 90
        1
176
     1
 40
0.5
176
     1
 40
30.0
176
     1
 62
     7
420
 16777215
176
     1
 90
        1
176
     1
 90
        0
176
     1
 62
     7
176
     1
 62
   257
176
     1
 90
        1
176
     1
 90
        1
176
     1
 40
1.0
176
     1
 90
        8
176
     1
 62
     7
176
     1
 40
1.0
176
     1
 90
        1
176
     1
 90
        6
176
     1
 90
        2
176
     1
 62
     7
176
     1
 90
        3
176
     1
 90
        0
176
     1
 90
        0
176
     1
290
     0
176
     1
 90
       13
176
     1
 40
0.0
176
     1
 90
        0
176
     1
290
     0
176
     1
290
     1
176
     1
290
     1
176
     1
290
     0
176
     1
290
     0
176
     1
290
     0
176
     1
290
     0
176
     1
290
     0
176
     1
290
     0
176
     1
 90
       50
176
     1
 40
0.0
176
     1
 40
1.0
176
     1
 90
        0
176
     1
 62
    18
420
        0
176
     1
 90
       50
176
     1
 90
        3
176
     1
 62
     5
420
      255
176
     1
290
     0
176
     1
 90
       50
176
     1
 90
       50
176
     1
 90
       50
176
     1
290
     0
176
     1
 90
       50
176
     1
 62
   256
176
     0
 40
1.0
176
     0
 90
        2
176
     1
  1
strokes_ogs.tif
176
     1
290
     0
176
     1
 40
1.0
176
     1
 40
1.0
176
     1
  0
DICTIONARYVAR
  5
331
102
{ACAD_REACTORS
330
330
102
}
330
330
100
DictionaryVariables
280
     0
  1
1:1
  0
DICTIONARYVAR
  5
33A
102
{ACAD_REACTORS
330
330
102
}
330
330
100
DictionaryVariables
280
     0
  1
3.500000
  0
DICTIONARYVAR
  5
33B
102
{ACAD_REACTORS
330
330
102
}
330
330
100
DictionaryVariables
280
     0
  1
acadiso.lin
  0
DICTIONARYVAR
  5
336
102
{ACAD_REACTORS
330
330
102
}
330
330
100
DictionaryVariables
280
     0
  1
Standard
  0
DICTIONARYVAR
  5
335
102
{ACAD_REACTORS
330
330
102
}
330
330
100
DictionaryVariables
280
     0
  1
Standard
  0
DICTIONARYVAR
  5
339
102
{ACAD_REACTORS
330
330
102
}
330
330
100
DictionaryVariables
280
     0
  1
0
  0
DICTIONARY
  5
332
330
5A
100
AcDbDictionary
280
     1
281
     1
  3
ACAD_ROUNDTRIP_2008_TABLESTYLE_CELLSTYLEMAP
360
333
  0
CELLSTYLEMAP
  5
333
102
{ACAD_REACTORS
330
332
102
}
330
332
100
AcDbCellStyleMap
 90
        3
300
CELLSTYLE
  1
TABLEFORMAT_BEGIN
 90
        5
170
     1
 91
        0
 92
    32768
 62
   257
 93
        1
300
CONTENTFORMAT
  1
CONTENTFORMAT_BEGIN
 90
        0
 91
        0
 92
        4
 93
        0
300

 40
0.0
140
1.0
 94
        5
 62
     0
340
11
144
6.0
309
CONTENTFORMAT_END
171
     1
301
MARGIN
  1
CELLMARGIN_BEGIN
 40
1.5
 40
1.5
 40
1.5
 40
1.5
 40
1.5
 40
1.5
309
CELLMARGIN_END
 94
        6
 95
        1
302
GRIDFORMAT
  1
GRIDFORMAT_BEGIN
 90
        0
 91
        1
 62
     0
 92
       -2
340
14
 93
        0
 40
0.045
309
GRIDFORMAT_END
 95
        2
302
GRIDFORMAT
  1
GRIDFORMAT_BEGIN
 90
        0
 91
        1
 62
     0
 92
       -2
340
14
 93
        0
 40
0.045
309
GRIDFORMAT_END
 95
        4
302
GRIDFORMAT
  1
GRIDFORMAT_BEGIN
 90
        0
 91
        1
 62
     0
 92
       -2
340
14
 93
        0
 40
0.045
309
GRIDFORMAT_END
 95
        8
302
GRIDFORMAT
  1
GRIDFORMAT_BEGIN
 90
        0
 91
        1
 62
     0
 92
       -2
340
14
 93
        0
 40
0.045
309
GRIDFORMAT_END
 95
       16
302
GRIDFORMAT
  1
GRIDFORMAT_BEGIN
 90
        0
 91
        1
 62
     0
 92
       -2
340
14
 93
        0
 40
0.045
309
GRIDFORMAT_END
 95
       32
302
GRIDFORMAT
  1
GRIDFORMAT_BEGIN
 90
        0
 91
        1
 62
     0
 92
       -2
340
14
 93
        0
 40
0.045
309
GRIDFORMAT_END
309
TABLEFORMAT_END
  1
CELLSTYLE_BEGIN
 90
        1
 91
        1
300
_TITLE
309
CELLSTYLE_END
300
CELLSTYLE
  1
TABLEFORMAT_BEGIN
 90
        5
170
     1
 91
        0
 92
        0
 62
   257
 93
        1
300
CONTENTFORMAT
  1
CONTENTFORMAT_BEGIN
 90
        0
 91
        0
 92
        4
 93
        0
300

 40
0.0
140
1.0
 94
        5
 62
     0
340
11
144
4.5
309
CONTENTFORMAT_END
171
     1
301
MARGIN
  1
CELLMARGIN_BEGIN
 40
1.5
 40
1.5
 40
1.5
 40
1.5
 40
1.5
 40
1.5
309
CELLMARGIN_END
 94
        6
 95
        1
302
GRIDFORMAT
  1
GRIDFORMAT_BEGIN
 90
        0
 91
        1
 62
     0
 92
       -2
340
14
 93
        0
 40
0.045
309
GRIDFORMAT_END
 95
        2
302
GRIDFORMAT
  1
GRIDFORMAT_BEGIN
 90
        0
 91
        1
 62
     0
 92
       -2
340
14
 93
        0
 40
0.045
309
GRIDFORMAT_END
 95
        4
302
GRIDFORMAT
  1
GRIDFORMAT_BEGIN
 90
        0
 91
        1
 62
     0
 92
       -2
340
14
 93
        0
 40
0.045
309
GRIDFORMAT_END
 95
        8
302
GRIDFORMAT
  1
GRIDFORMAT_BEGIN
 90
        0
 91
        1
 62
     0
 92
       -2
340
14
 93
        0
 40
0.045
309
GRIDFORMAT_END
 95
       16
302
GRIDFORMAT
  1
GRIDFORMAT_BEGIN
 90
        0
 91
        1
 62
     0
 92
       -2
340
14
 93
        0
 40
0.045
309
GRIDFORMAT_END
 95
       32
302
GRIDFORMAT
  1
GRIDFORMAT_BEGIN
 90
        0
 91
        1
 62
     0
 92
       -2
340
14
 93
        0
 40
0.045
309
GRIDFORMAT_END
309
TABLEFORMAT_END
  1
CELLSTYLE_BEGIN
 90
        2
 91
        1
300
_HEADER
309
CELLSTYLE_END
300
CELLSTYLE
  1
TABLEFORMAT_BEGIN
 90
        5
170
     1
 91
        0
 92
        0
 62
   257
 93
        1
300
CONTENTFORMAT
  1
CONTENTFORMAT_BEGIN
 90
        0
 91
        0
 92
        4
 93
        0
300

 40
0.0
140
1.0
 94
        2
 62
     0
340
11
144
4.5
309
CONTENTFORMAT_END
171
     1
301
MARGIN
  1
CELLMARGIN_BEGIN
 40
1.5
 40
1.5
 40
1.5
 40
1.5
 40
1.5
 40
1.5
309
CELLMARGIN_END
 94
        6
 95
        1
302
GRIDFORMAT
  1
GRIDFORMAT_BEGIN
 90
        0
 91
        1
 62
     0
 92
       -2
340
14
 93
        0
 40
0.045
309
GRIDFORMAT_END
 95
        2
302
GRIDFORMAT
  1
GRIDFORMAT_BEGIN
 90
        0
 91
        1
 62
     0
 92
       -2
340
14
 93
        0
 40
0.045
309
GRIDFORMAT_END
 95
        4
302
GRIDFORMAT
  1
GRIDFORMAT_BEGIN
 90
        0
 91
        1
 62
     0
 92
       -2
340
14
 93
        0
 40
0.045
309
GRIDFORMAT_END
 95
        8
302
GRIDFORMAT
  1
GRIDFORMAT_BEGIN
 90
        0
 91
        1
 62
     0
 92
       -2
340
14
 93
        0
 40
0.045
309
GRIDFORMAT_END
 95
       16
302
GRIDFORMAT
  1
GRIDFORMAT_BEGIN
 90
        0
 91
        1
 62
     0
 92
       -2
340
14
 93
        0
 40
0.045
309
GRIDFORMAT_END
 95
       32
302
GRIDFORMAT
  1
GRIDFORMAT_BEGIN
 90
        0
 91
        1
 62
     0
 92
       -2
340
14
 93
        0
 40
0.045
309
GRIDFORMAT_END
309
TABLEFORMAT_END
  1
CELLSTYLE_BEGIN
 90
        3
 91
        2
300
_DATA
309
CELLSTYLE_END
  0
ENDSEC
  0
EOF
