  0
SECTION
  2
HEADER
  9
$ACADVER
  1
AC1027
  9
$ACADMAINTVER
 70
   105
  9
$DWGCODEPAGE
  3
ANSI_1252
  9
$LASTSAVEDBY
  1
mezergues
  9
$REQUIREDVERSIONS
160
                 0
  9
$INSBASE
 10
0.0
 20
0.0
 30
0.0
  9
$EXTMIN
 10
13002.90511884834
 20
-12472.97328384298
 30
0.0
  9
$EXTMAX
 10
13987.90511884834
 20
-11117.97328384298
 30
2500.0
  9
$LIMMIN
 10
0.0
 20
0.0
  9
$LIMMAX
 10
420.0
 20
297.0
  9
$ORTHOMODE
 70
     0
  9
$REGENMODE
 70
     1
  9
$FILLMODE
 70
     1
  9
$QTEXTMODE
 70
     0
  9
$MIRRTEXT
 70
     1
  9
$LTSCALE
 40
5.0
  9
$ATTMODE
 70
     1
  9
$TEXTSIZE
 40
2.5
  9
$TRACEWID
 40
1.0
  9
$TEXTSTYLE
  7
Standard
  9
$CLAYER
  8
0
  9
$CELTYPE
  6
Continuous
  9
$CECOLOR
 62
   256
  9
$CELTSCALE
 40
1.0
  9
$DISPSILH
 70
     0
  9
$DIMSCALE
 40
1.0
  9
$DIMASZ
 40
2.5
  9
$DIMEXO
 40
0.625
  9
$DIMDLI
 40
3.75
  9
$DIMRND
 40
0.0
  9
$DIMDLE
 40
0.0
  9
$DIMEXE
 40
1.25
  9
$DIMTP
 40
0.0
  9
$DIMTM
 40
0.0
  9
$DIMTXT
 40
2.5
  9
$DIMCEN
 40
2.5
  9
$DIMTSZ
 40
0.0
  9
$DIMTOL
 70
     0
  9
$DIMLIM
 70
     0
  9
$DIMTIH
 70
     0
  9
$DIMTOH
 70
     0
  9
$DIMSE1
 70
     0
  9
$DIMSE2
 70
     0
  9
$DIMTAD
 70
     1
  9
$DIMZIN
 70
     8
  9
$DIMBLK
  1

  9
$DIMASO
 70
     1
  9
$DIMSHO
 70
     1
  9
$DIMPOST
  1

  9
$DIMAPOST
  1

  9
$DIMALT
 70
     0
  9
$DIMALTD
 70
     3
  9
$DIMALTF
 40
0.03937007874016
  9
$DIMLFAC
 40
1.0
  9
$DIMTOFL
 70
     1
  9
$DIMTVP
 40
0.0
  9
$DIMTIX
 70
     0
  9
$DIMSOXD
 70
     1
  9
$DIMSAH
 70
     0
  9
$DIMBLK1
  1

  9
$DIMBLK2
  1

  9
$DIMSTYLE
  2
ISO-25
  9
$DIMCLRD
 70
     0
  9
$DIMCLRE
 70
     0
  9
$DIMCLRT
 70
     0
  9
$DIMTFAC
 40
1.0
  9
$DIMGAP
 40
0.625
  9
$DIMJUST
 70
     0
  9
$DIMSD1
 70
     0
  9
$DIMSD2
 70
     0
  9
$DIMTOLJ
 70
     0
  9
$DIMTZIN
 70
     8
  9
$DIMALTZ
 70
     0
  9
$DIMALTTZ
 70
     0
  9
$DIMUPT
 70
     0
  9
$DIMDEC
 70
     2
  9
$DIMTDEC
 70
     2
  9
$DIMALTU
 70
     2
  9
$DIMALTTD
 70
     3
  9
$DIMTXSTY
  7
Standard
  9
$DIMAUNIT
 70
     0
  9
$DIMADEC
 70
     0
  9
$DIMALTRND
 40
0.0
  9
$DIMAZIN
 70
     0
  9
$DIMDSEP
 70
    44
  9
$DIMATFIT
 70
     3
  9
$DIMFRAC
 70
     0
  9
$DIMLDRBLK
  1

  9
$DIMLUNIT
 70
     2
  9
$DIMLWD
 70
    -2
  9
$DIMLWE
 70
    -2
  9
$DIMTMOVE
 70
     2
  9
$DIMFXL
 40
1.0
  9
$DIMFXLON
 70
     0
  9
$DIMJOGANG
 40
0.7853981633974483
  9
$DIMTFILL
 70
     0
  9
$DIMTFILLCLR
 70
     0
  9
$DIMARCSYM
 70
     0
  9
$DIMLTYPE
  6

  9
$DIMLTEX1
  6

  9
$DIMLTEX2
  6

  9
$DIMTXTDIRECTION
 70
     0
  9
$LUNITS
 70
     2
  9
$LUPREC
 70
     4
  9
$SKETCHINC
 40
1.0
  9
$FILLETRAD
 40
0.0
  9
$AUNITS
 70
     0
  9
$AUPREC
 70
     0
  9
$MENU
  1
.
  9
$ELEVATION
 40
0.0
  9
$PELEVATION
 40
0.0
  9
$THICKNESS
 40
0.0
  9
$LIMCHECK
 70
     0
  9
$CHAMFERA
 40
0.0
  9
$CHAMFERB
 40
0.0
  9
$CHAMFERC
 40
0.0
  9
$CHAMFERD
 40
0.0
  9
$SKPOLY
 70
     0
  9
$TDCREATE
 40
2459677.710647026
  9
$TDUCREATE
 40
2459677.627313692
  9
$TDUPDATE
 40
2459677.710651817
  9
$TDUUPDATE
 40
2459677.627318484
  9
$TDINDWG
 40
0.0000000116
  9
$TDUSRTIMER
 40
0.0000000116
  9
$USRTIMER
 70
     1
  9
$ANGBASE
 50
0.0
  9
$ANGDIR
 70
     0
  9
$PDMODE
 70
     0
  9
$PDSIZE
 40
0.0
  9
$PLINEWID
 40
0.0
  9
$SPLFRAME
 70
     0
  9
$SPLINETYPE
 70
     6
  9
$SPLINESEGS
 70
     8
  9
$HANDSEED
  5
37F
  9
$SURFTAB1
 70
     6
  9
$SURFTAB2
 70
     6
  9
$SURFTYPE
 70
     6
  9
$SURFU
 70
     6
  9
$SURFV
 70
     6
  9
$UCSBASE
  2

  9
$UCSNAME
  2

  9
$UCSORG
 10
0.0
 20
0.0
 30
0.0
  9
$UCSXDIR
 10
1.0
 20
0.0
 30
0.0
  9
$UCSYDIR
 10
0.0
 20
1.0
 30
0.0
  9
$UCSORTHOREF
  2

  9
$UCSORTHOVIEW
 70
     0
  9
$UCSORGTOP
 10
0.0
 20
0.0
 30
0.0
  9
$UCSORGBOTTOM
 10
0.0
 20
0.0
 30
0.0
  9
$UCSORGLEFT
 10
0.0
 20
0.0
 30
0.0
  9
$UCSORGRIGHT
 10
0.0
 20
0.0
 30
0.0
  9
$UCSORGFRONT
 10
0.0
 20
0.0
 30
0.0
  9
$UCSORGBACK
 10
0.0
 20
0.0
 30
0.0
  9
$PUCSBASE
  2

  9
$PUCSNAME
  2

  9
$PUCSORG
 10
0.0
 20
0.0
 30
0.0
  9
$PUCSXDIR
 10
1.0
 20
0.0
 30
0.0
  9
$PUCSYDIR
 10
0.0
 20
1.0
 30
0.0
  9
$PUCSORTHOREF
  2

  9
$PUCSORTHOVIEW
 70
     0
  9
$PUCSORGTOP
 10
0.0
 20
0.0
 30
0.0
  9
$PUCSORGBOTTOM
 10
0.0
 20
0.0
 30
0.0
  9
$PUCSORGLEFT
 10
0.0
 20
0.0
 30
0.0
  9
$PUCSORGRIGHT
 10
0.0
 20
0.0
 30
0.0
  9
$PUCSORGFRONT
 10
0.0
 20
0.0
 30
0.0
  9
$PUCSORGBACK
 10
0.0
 20
0.0
 30
0.0
  9
$USERI1
 70
     0
  9
$USERI2
 70
     0
  9
$USERI3
 70
     0
  9
$USERI4
 70
     0
  9
$USERI5
 70
     0
  9
$USERR1
 40
0.0
  9
$USERR2
 40
0.0
  9
$USERR3
 40
0.0
  9
$USERR4
 40
0.0
  9
$USERR5
 40
0.0
  9
$WORLDVIEW
 70
     1
  9
$SHADEDGE
 70
     3
  9
$SHADEDIF
 70
    70
  9
$TILEMODE
 70
     1
  9
$MAXACTVP
 70
    64
  9
$PINSBASE
 10
0.0
 20
0.0
 30
0.0
  9
$PLIMCHECK
 70
     0
  9
$PEXTMIN
 10
-5.730400000000003
 20
-7.876400000000018
 30
0.0
  9
$PEXTMAX
 10
203.3304
 20
279.4764
 30
0.0
  9
$PLIMMIN
 10
-20.0
 20
-7.5
  9
$PLIMMAX
 10
277.0
 20
202.5
  9
$UNITMODE
 70
     0
  9
$VISRETAIN
 70
     1
  9
$PLINEGEN
 70
     0
  9
$PSLTSCALE
 70
     0
  9
$TREEDEPTH
 70
  3020
  9
$CMLSTYLE
  2
Standard
  9
$CMLJUST
 70
     0
  9
$CMLSCALE
 40
20.0
  9
$PROXYGRAPHICS
 70
     1
  9
$MEASUREMENT
 70
     1
  9
$CELWEIGHT
370
    -1
  9
$ENDCAPS
280
     0
  9
$JOINSTYLE
280
     0
  9
$LWDISPLAY
290
     0
  9
$INSUNITS
 70
     4
  9
$HYPERLINKBASE
  1

  9
$STYLESHEET
  1

  9
$XEDIT
290
     1
  9
$CEPSNTYPE
380
     3
  9
$CEPSNID
390
5F
  9
$PSTYLEMODE
290
     0
  9
$FINGERPRINTGUID
  2
{3a50dc27-694b-4f13-94e0-3c8e38f7cc25}
  9
$VERSIONGUID
  2
{FAEB1C32-E019-11D5-929B-00C0DF256EC4}
  9
$EXTNAMES
290
     1
  9
$PSVPSCALE
 40
0.0
  9
$OLESTARTUP
290
     0
  9
$SORTENTS
280
   127
  9
$INDEXCTL
280
     0
  9
$HIDETEXT
280
     1
  9
$XCLIPFRAME
280
     2
  9
$HALOGAP
280
     0
  9
$OBSCOLOR
 70
   257
  9
$OBSLTYPE
280
     0
  9
$INTERSECTIONDISPLAY
280
     0
  9
$INTERSECTIONCOLOR
 70
   257
  9
$DIMASSOC
280
     2
  9
$PROJECTNAME
  1

  9
$CAMERADISPLAY
290
     0
  9
$LENSLENGTH
 40
50.0
  9
$CAMERAHEIGHT
 40
0.0
  9
$STEPSPERSEC
 40
2.0
  9
$STEPSIZE
 40
6.0
  9
$3DDWFPREC
 40
2.0
  9
$PSOLWIDTH
 40
5.0
  9
$PSOLHEIGHT
 40
80.0
  9
$LOFTANG1
 40
1.570796326794897
  9
$LOFTANG2
 40
1.570796326794897
  9
$LOFTMAG1
 40
0.0
  9
$LOFTMAG2
 40
0.0
  9
$LOFTPARAM
 70
     7
  9
$LOFTNORMALS
280
     1
  9
$LATITUDE
 40
37.795
  9
$LONGITUDE
 40
-122.394
  9
$NORTHDIRECTION
 40
0.0
  9
$TIMEZONE
 70
 -8000
  9
$LIGHTGLYPHDISPLAY
280
     1
  9
$TILEMODELIGHTSYNCH
280
     1
  9
$CMATERIAL
347
44
  9
$SOLIDHIST
280
     0
  9
$SHOWHIST
280
     1
  9
$DWFFRAME
280
     2
  9
$DGNFRAME
280
     2
  9
$REALWORLDSCALE
290
     1
  9
$INTERFERECOLOR
 62
   256
  9
$CSHADOW
280
     0
  9
$SHADOWPLANELOCATION
 40
0.0
  0
ENDSEC
  0
SECTION
  2
CLASSES
  0
CLASS
  1
ACDBDICTIONARYWDFLT
  2
AcDbDictionaryWithDefault
  3
ObjectDBX Classes
 90
        0
 91
        3
280
     0
281
     0
  0
CLASS
  1
VISUALSTYLE
  2
AcDbVisualStyle
  3
ObjectDBX Classes
 90
     4095
 91
        3
280
     0
281
     0
  0
CLASS
  1
MATERIAL
  2
AcDbMaterial
  3
ObjectDBX Classes
 90
     1153
 91
        3
280
     0
281
     0
  0
CLASS
  1
SCALE
  2
AcDbScale
  3
ObjectDBX Classes
 90
     1153
 91
        3
280
     0
281
     0
  0
CLASS
  1
TABLESTYLE
  2
AcDbTableStyle
  3
ObjectDBX Classes
 90
     4095
 91
        3
280
     0
281
     0
  0
CLASS
  1
MLEADERSTYLE
  2
AcDbMLeaderStyle
  3
ACDB_MLEADERSTYLE_CLASS
 90
     4095
 91
        3
280
     0
281
     0
  0
CLASS
  1
SUN
  2
AcDbSun
  3
SCENEOE
 90
     1153
 91
        3
280
     0
281
     0
  0
CLASS
  1
RASTERVARIABLES
  2
AcDbRasterVariables
  3
ISM
 90
        0
 91
        3
280
     0
281
     0
  0
CLASS
  1
WIPEOUTVARIABLES
  2
AcDbWipeoutVariables
  3
WipeOut|AutoCAD Express Tool|expresstools@autodesk.com
 90
        0
 91
        3
280
     0
281
     0
  0
CLASS
  1
PLOTSETTINGS
  2
AcDbPlotSettings
  3
ObjectDBX Classes
 90
        0
 91
        3
280
     0
281
     0
  0
CLASS
  1
IMAGEDEF
  2
AcDbRasterImageDef
  3
ISM
 90
        0
 91
        3
280
     0
281
     0
  0
CLASS
  1
IMAGE
  2
AcDbRasterImage
  3
ISM
 90
      127
 91
        4
280
     0
281
     1
  0
CLASS
  1
IMAGEDEF_REACTOR
  2
AcDbRasterImageDefReactor
  3
ISM
 90
        1
 91
        3
280
     0
281
     0
  0
CLASS
  1
DICTIONARYVAR
  2
AcDbDictionaryVar
  3
ObjectDBX Classes
 90
        0
 91
        3
280
     0
281
     0
  0
CLASS
  1
CELLSTYLEMAP
  2
AcDbCellStyleMap
  3
ObjectDBX Classes
 90
     1152
 91
        3
280
     0
281
     0
  0
ENDSEC
  0
SECTION
  2
TABLES
  0
TABLE
  2
VPORT
  5
8
330
0
100
AcDbSymbolTable
 70
     1
  0
VPORT
  5
29
330
8
100
AcDbSymbolTableRecord
100
AcDbViewportTableRecord
  2
*Active
 70
     0
 10
0.0
 20
0.0
 11
1.0
 21
1.0
 12
344.1869158878504
 22
148.5
 13
0.0
 23
0.0
 14
10.0
 24
10.0
 15
10.0
 25
10.0
 16
0.0
 26
0.0
 36
1.0
 17
0.0
 27
0.0
 37
0.0
 40
297.0
 41
1.972972972850329
 42
50.0
 43
0.0
 44
0.0
 50
0.0
 51
0.0
 71
     0
 72
   100
 73
     1
 74
     3
 75
     0
 76
     0
 77
     0
 78
     0
281
     0
 65
     1
110
0.0
120
0.0
130
0.0
111
1.0
121
0.0
131
0.0
112
0.0
122
1.0
132
0.0
 79
     0
146
0.0
348
2F
 60
     3
 61
     5
292
     1
282
     1
141
0.0
142
0.0
 63
   250
361
5D
  0
ENDTAB
  0
TABLE
  2
LTYPE
  5
5
330
0
100
AcDbSymbolTable
 70
     3
  0
LTYPE
  5
14
330
5
100
AcDbSymbolTableRecord
100
AcDbLinetypeTableRecord
  2
ByBlock
 70
     0
  3

 72
    65
 73
     0
 40
0.0
  0
LTYPE
  5
15
330
5
100
AcDbSymbolTableRecord
100
AcDbLinetypeTableRecord
  2
ByLayer
 70
     0
  3

 72
    65
 73
     0
 40
0.0
  0
LTYPE
  5
16
330
5
100
AcDbSymbolTableRecord
100
AcDbLinetypeTableRecord
  2
Continuous
 70
     0
  3
Solid line
 72
    65
 73
     0
 40
0.0
  0
LTYPE
  5
164
330
5
100
AcDbSymbolTableRecord
100
AcDbLinetypeTableRecord
  2
CADWORK_3
 70
     0
  3

 72
    65
 73
     2
 40
4.0
 49
2.0
 74
     0
 49
-2.0
 74
     0
  0
LTYPE
  5
2A1
330
5
100
AcDbSymbolTableRecord
100
AcDbLinetypeTableRecord
  2
CADWORK_22
 70
     0
  3

 72
    65
 73
     0
 40
0.0
  0
ENDTAB
  0
TABLE
  2
LAYER
  5
2
330
0
100
AcDbSymbolTable
 70
     2
  0
LAYER
  5
10
330
2
100
AcDbSymbolTableRecord
100
AcDbLayerTableRecord
  2
0
 70
     0
 62
     7
  6
Continuous
370
    -3
390
F
347
46
348
0
  0
LAYER
  5
67
330
2
100
AcDbSymbolTableRecord
100
AcDbLayerTableRecord
  2
Ech.1_5
 70
     0
 62
     7
  6
Continuous
370
    -3
390
F
347
46
348
0
  0
ENDTAB
  0
TABLE
  2
STYLE
  5
3
330
0
100
AcDbSymbolTable
 70
    11
  0
STYLE
  5
11
330
3
100
AcDbSymbolTableRecord
100
AcDbTextStyleTableRecord
  2
Standard
 70
     0
 40
0.0
 41
1.0
 50
0.0
 71
     0
 42
2.5
  3
txt
  4

  0
STYLE
  5
62
330
3
100
AcDbSymbolTableRecord
100
AcDbTextStyleTableRecord
  2
CwStyleShx
 70
     0
 40
1.0
 41
1.0
 50
0.0
 71
     0
 42
2.5
  3

  4

  0
STYLE
  5
63
330
3
100
AcDbSymbolTableRecord
100
AcDbTextStyleTableRecord
  2
CwStyleShx16
 70
     0
 40
1.0
 41
1.0
 50
0.0
 71
     0
 42
2.5
  3

  4

  0
STYLE
  5
64
330
3
100
AcDbSymbolTableRecord
100
AcDbTextStyleTableRecord
  2
MONOTXT
 70
     0
 40
0.0
 41
1.0
 50
0.0
 71
     0
 42
2.5
  3
MONOTXT
  4

  0
STYLE
  5
65
330
3
100
AcDbSymbolTableRecord
100
AcDbTextStyleTableRecord
  2
SYMAP
 70
     0
 40
1.0
 41
1.0
 50
0.0
 71
     0
 42
2.5
  3
SYMAP
  4

  0
STYLE
  5
66
330
3
100
AcDbSymbolTableRecord
100
AcDbTextStyleTableRecord
  2
CwStyleTtf
 70
     0
 40
1.0
 41
1.0
 50
0.0
 71
     0
 42
2.5
  3
arial.ttf
  4

  0
STYLE
  5
2E4
330
3
100
AcDbSymbolTableRecord
100
AcDbTextStyleTableRecord
  2
arial-
 70
     0
 40
1.0
 41
1.0
 50
0.0
 71
     0
 42
2.5
  3
arial.ttf
  4

1001
ACAD
1000
Arial
1071
        0
  0
STYLE
  5
2E5
330
3
100
AcDbSymbolTableRecord
100
AcDbTextStyleTableRecord
  2
symbol-
 70
     0
 40
1.0
 41
1.0
 50
0.0
 71
     0
 42
2.5
  3
symbol.ttf
  4

1001
ACAD
1000
Symbol
1071
        0
  0
STYLE
  5
354
330
3
100
AcDbSymbolTableRecord
100
AcDbTextStyleTableRecord
  2
arial-i
 70
     0
 40
1.0
 41
1.0
 50
0.0
 71
     0
 42
2.5
  3
ariali.ttf
  4

1001
ACAD
1000
Arial
1071
 16777216
  0
STYLE
  5
366
330
3
100
AcDbSymbolTableRecord
100
AcDbTextStyleTableRecord
  2
arial-bi
 70
     0
 40
1.0
 41
1.0
 50
0.0
 71
     0
 42
2.5
  3
arialbi.ttf
  4

1001
ACAD
1000
Arial
1071
 50331648
  0
STYLE
  5
36A
330
3
100
AcDbSymbolTableRecord
100
AcDbTextStyleTableRecord
  2
arial-b
 70
     0
 40
1.0
 41
1.0
 50
0.0
 71
     0
 42
2.5
  3
arialbd.ttf
  4

1001
ACAD
1000
Arial
1071
 33554432
  0
ENDTAB
  0
TABLE
  2
VIEW
  5
6
330
0
100
AcDbSymbolTable
 70
     0
  0
ENDTAB
  0
TABLE
  2
UCS
  5
7
330
0
100
AcDbSymbolTable
 70
     0
  0
ENDTAB
  0
TABLE
  2
APPID
  5
9
330
0
100
AcDbSymbolTable
 70
     3
  0
APPID
  5
12
330
9
100
AcDbSymbolTableRecord
100
AcDbRegAppTableRecord
  2
ACAD
 70
     0
  0
APPID
  5
5E
330
9
100
AcDbSymbolTableRecord
100
AcDbRegAppTableRecord
  2
Cadwork
 70
     0
  0
APPID
  5
214
330
9
100
AcDbSymbolTableRecord
100
AcDbRegAppTableRecord
  2
PLOTTRANSPARENCY
 70
     0
  0
ENDTAB
  0
TABLE
  2
DIMSTYLE
  5
A
330
0
100
AcDbSymbolTable
 70
     1
100
AcDbDimStyleTable
  0
DIMSTYLE
105
27
330
A
100
AcDbSymbolTableRecord
100
AcDbDimStyleTableRecord
  2
ISO-25
 70
     0
 41
2.5
 42
0.625
 43
3.75
 44
1.25
 73
     0
 74
     0
 77
     1
 78
     8
140
2.5
141
2.5
143
0.03937007874016
147
0.625
171
     3
172
     1
178
     0
271
     2
272
     2
274
     3
278
    44
283
     0
284
     8
340
11
  0
ENDTAB
  0
TABLE
  2
BLOCK_RECORD
  5
1
330
0
100
AcDbSymbolTable
 70
    74
  0
BLOCK_RECORD
  5
1F
330
1
100
AcDbSymbolTableRecord
100
AcDbBlockTableRecord
  2
*Model_Space
340
22
 70
     0
280
     1
281
     0
  0
BLOCK_RECORD
  5
20F
330
1
100
AcDbSymbolTableRecord
100
AcDbBlockTableRecord
  2
*Paper_Space
340
210
 70
     0
280
     1
281
     0
  0
BLOCK_RECORD
  5
68
330
1
100
AcDbSymbolTableRecord
100
AcDbBlockTableRecord
  2
CDWK_PTTYP1
340
0
 70
     0
280
     1
281
     1
  0
BLOCK_RECORD
  5
6F
330
1
100
AcDbSymbolTableRecord
100
AcDbBlockTableRecord
  2
CDWK_PTTYP2
340
0
 70
     0
280
     1
281
     1
  0
BLOCK_RECORD
  5
74
330
1
100
AcDbSymbolTableRecord
100
AcDbBlockTableRecord
  2
CDWK_PTTYP4
340
0
 70
     0
280
     1
281
     1
  0
BLOCK_RECORD
  5
78
330
1
100
AcDbSymbolTableRecord
100
AcDbBlockTableRecord
  2
CDWK_PTTYP5
340
0
 70
     0
280
     1
281
     1
  0
BLOCK_RECORD
  5
81
330
1
100
AcDbSymbolTableRecord
100
AcDbBlockTableRecord
  2
CDWK_PTTYP6
340
0
 70
     0
280
     1
281
     1
  0
BLOCK_RECORD
  5
89
330
1
100
AcDbSymbolTableRecord
100
AcDbBlockTableRecord
  2
CDWK_PTTYP7
340
0
 70
     0
280
     1
281
     1
  0
BLOCK_RECORD
  5
92
330
1
100
AcDbSymbolTableRecord
100
AcDbBlockTableRecord
  2
CDWK_PTTYP8
340
0
 70
     0
280
     1
281
     1
  0
BLOCK_RECORD
  5
96
330
1
100
AcDbSymbolTableRecord
100
AcDbBlockTableRecord
  2
CDWK_PTTYP9
340
0
 70
     0
280
     1
281
     1
  0
BLOCK_RECORD
  5
9B
330
1
100
AcDbSymbolTableRecord
100
AcDbBlockTableRecord
  2
CDWK_PTTYP10
340
0
 70
     0
280
     1
281
     1
  0
BLOCK_RECORD
  5
9F
330
1
100
AcDbSymbolTableRecord
100
AcDbBlockTableRecord
  2
CDWK_PTTYP11
340
0
 70
     0
280
     1
281
     1
  0
BLOCK_RECORD
  5
A4
330
1
100
AcDbSymbolTableRecord
100
AcDbBlockTableRecord
  2
CDWK_PTTYP12
340
0
 70
     0
280
     1
281
     1
  0
BLOCK_RECORD
  5
A9
330
1
100
AcDbSymbolTableRecord
100
AcDbBlockTableRecord
  2
CDWK_PTTYP13
340
0
 70
     0
280
     1
281
     1
  0
BLOCK_RECORD
  5
AF
330
1
100
AcDbSymbolTableRecord
100
AcDbBlockTableRecord
  2
CDWK_PTTYP16
340
0
 70
     0
280
     1
281
     1
  0
BLOCK_RECORD
  5
B6
330
1
100
AcDbSymbolTableRecord
100
AcDbBlockTableRecord
  2
CDWK_PTTYP17
340
0
 70
     0
280
     1
281
     1
  0
BLOCK_RECORD
  5
BB
330
1
100
AcDbSymbolTableRecord
100
AcDbBlockTableRecord
  2
CDWK_PTTYP18
340
0
 70
     0
280
     1
281
     1
  0
BLOCK_RECORD
  5
C0
330
1
100
AcDbSymbolTableRecord
100
AcDbBlockTableRecord
  2
CDWK_PTTYP19
340
0
 70
     0
280
     1
281
     1
  0
BLOCK_RECORD
  5
C6
330
1
100
AcDbSymbolTableRecord
100
AcDbBlockTableRecord
  2
CDWK_PTTYP20
340
0
 70
     0
280
     1
281
     1
  0
BLOCK_RECORD
  5
CB
330
1
100
AcDbSymbolTableRecord
100
AcDbBlockTableRecord
  2
CDWK_PTTYP21
340
0
 70
     0
280
     1
281
     1
  0
BLOCK_RECORD
  5
D0
330
1
100
AcDbSymbolTableRecord
100
AcDbBlockTableRecord
  2
CDWK_PTTYP25
340
0
 70
     0
280
     1
281
     1
  0
BLOCK_RECORD
  5
D7
330
1
100
AcDbSymbolTableRecord
100
AcDbBlockTableRecord
  2
CDWK_PTTYP26
340
0
 70
     0
280
     1
281
     1
  0
BLOCK_RECORD
  5
DE
330
1
100
AcDbSymbolTableRecord
100
AcDbBlockTableRecord
  2
CDWK_PTTYP27
340
0
 70
     0
280
     1
281
     1
  0
BLOCK_RECORD
  5
E6
330
1
100
AcDbSymbolTableRecord
100
AcDbBlockTableRecord
  2
CDWK_PTTYP28
340
0
 70
     0
280
     1
281
     1
  0
BLOCK_RECORD
  5
ED
330
1
100
AcDbSymbolTableRecord
100
AcDbBlockTableRecord
  2
CDWK_PTTYP29
340
0
 70
     0
280
     1
281
     1
  0
BLOCK_RECORD
  5
F3
330
1
100
AcDbSymbolTableRecord
100
AcDbBlockTableRecord
  2
CDWK_PTTYP30
340
0
 70
     0
280
     1
281
     1
  0
BLOCK_RECORD
  5
FA
330
1
100
AcDbSymbolTableRecord
100
AcDbBlockTableRecord
  2
CDWK_PTTYP31
340
0
 70
     0
280
     1
281
     1
  0
BLOCK_RECORD
  5
102
330
1
100
AcDbSymbolTableRecord
100
AcDbBlockTableRecord
  2
CDWK_PTTYP32
340
0
 70
     0
280
     1
281
     1
  0
BLOCK_RECORD
  5
10B
330
1
100
AcDbSymbolTableRecord
100
AcDbBlockTableRecord
  2
CDWK_PTTYP33
340
0
 70
     0
280
     1
281
     1
  0
BLOCK_RECORD
  5
111
330
1
100
AcDbSymbolTableRecord
100
AcDbBlockTableRecord
  2
CDWK_PTTYP34
340
0
 70
     0
280
     1
281
     1
  0
BLOCK_RECORD
  5
117
330
1
100
AcDbSymbolTableRecord
100
AcDbBlockTableRecord
  2
CDWK_PTTYP35
340
0
 70
     0
280
     1
281
     1
  0
BLOCK_RECORD
  5
11D
330
1
100
AcDbSymbolTableRecord
100
AcDbBlockTableRecord
  2
CDWK_PTTYP36
340
0
 70
     0
280
     1
281
     1
  0
BLOCK_RECORD
  5
125
330
1
100
AcDbSymbolTableRecord
100
AcDbBlockTableRecord
  2
CDWK_PTTYP37
340
0
 70
     0
280
     1
281
     1
  0
BLOCK_RECORD
  5
12A
330
1
100
AcDbSymbolTableRecord
100
AcDbBlockTableRecord
  2
CDWK_PTTYP38
340
0
 70
     0
280
     1
281
     1
  0
BLOCK_RECORD
  5
130
330
1
100
AcDbSymbolTableRecord
100
AcDbBlockTableRecord
  2
CDWK_PTTYP41
340
0
 70
     0
280
     1
281
     1
  0
BLOCK_RECORD
  5
13A
330
1
100
AcDbSymbolTableRecord
100
AcDbBlockTableRecord
  2
CDWK_PTTYP42
340
0
 70
     0
280
     1
281
     1
  0
BLOCK_RECORD
  5
143
330
1
100
AcDbSymbolTableRecord
100
AcDbBlockTableRecord
  2
CDWK_PTTYP43
340
0
 70
     0
280
     1
281
     1
  0
BLOCK_RECORD
  5
149
330
1
100
AcDbSymbolTableRecord
100
AcDbBlockTableRecord
  2
CDWK_PTTYP44
340
0
 70
     0
280
     1
281
     1
  0
BLOCK_RECORD
  5
152
330
1
100
AcDbSymbolTableRecord
100
AcDbBlockTableRecord
  2
CDWK_PTTYP45
340
0
 70
     0
280
     1
281
     1
  0
BLOCK_RECORD
  5
157
330
1
100
AcDbSymbolTableRecord
100
AcDbBlockTableRecord
  2
CDWK_PTTYP46
340
0
 70
     0
280
     1
281
     1
  0
BLOCK_RECORD
  5
15C
330
1
100
AcDbSymbolTableRecord
100
AcDbBlockTableRecord
  2
CDWK_PTTYP47
340
0
 70
     0
280
     1
281
     1
  0
BLOCK_RECORD
  5
165
330
1
100
AcDbSymbolTableRecord
100
AcDbBlockTableRecord
  2
CDWK_PTTYP48
340
0
 70
     0
280
     1
281
     1
  0
BLOCK_RECORD
  5
16A
330
1
100
AcDbSymbolTableRecord
100
AcDbBlockTableRecord
  2
CDWK_PTTYP49
340
0
 70
     0
280
     1
281
     1
  0
BLOCK_RECORD
  5
171
330
1
100
AcDbSymbolTableRecord
100
AcDbBlockTableRecord
  2
CDWK_PTTYP50
340
0
 70
     0
280
     1
281
     1
  0
BLOCK_RECORD
  5
17B
330
1
100
AcDbSymbolTableRecord
100
AcDbBlockTableRecord
  2
CDWK_PTTYP51
340
0
 70
     0
280
     1
281
     1
  0
BLOCK_RECORD
  5
180
330
1
100
AcDbSymbolTableRecord
100
AcDbBlockTableRecord
  2
CDWK_PTTYP52
340
0
 70
     0
280
     1
281
     1
  0
BLOCK_RECORD
  5
186
330
1
100
AcDbSymbolTableRecord
100
AcDbBlockTableRecord
  2
cw-dimension-symbol1
340
0
 70
     0
280
     1
281
     0
  0
BLOCK_RECORD
  5
18D
330
1
100
AcDbSymbolTableRecord
100
AcDbBlockTableRecord
  2
cw-dimension-symbol2
340
0
 70
     0
280
     1
281
     0
  0
BLOCK_RECORD
  5
192
330
1
100
AcDbSymbolTableRecord
100
AcDbBlockTableRecord
  2
cw-dimension-symbol3
340
0
 70
     0
280
     1
281
     0
  0
BLOCK_RECORD
  5
197
330
1
100
AcDbSymbolTableRecord
100
AcDbBlockTableRecord
  2
cw-dimension-symbol5
340
0
 70
     0
280
     1
281
     0
  0
BLOCK_RECORD
  5
19E
330
1
100
AcDbSymbolTableRecord
100
AcDbBlockTableRecord
  2
cw-dimension-symbol6
340
0
 70
     0
280
     1
281
     0
  0
BLOCK_RECORD
  5
1A4
330
1
100
AcDbSymbolTableRecord
100
AcDbBlockTableRecord
  2
cw-dimension-symbol11
340
0
 70
     0
280
     1
281
     0
  0
BLOCK_RECORD
  5
1AA
330
1
100
AcDbSymbolTableRecord
100
AcDbBlockTableRecord
  2
cw-dimension-symbol13
340
0
 70
     0
280
     1
281
     0
  0
BLOCK_RECORD
  5
1B0
330
1
100
AcDbSymbolTableRecord
100
AcDbBlockTableRecord
  2
cw-dimension-symbol15
340
0
 70
     0
280
     1
281
     0
  0
BLOCK_RECORD
  5
1B7
330
1
100
AcDbSymbolTableRecord
100
AcDbBlockTableRecord
  2
cw-dimension-symbol16
340
0
 70
     0
280
     1
281
     0
  0
BLOCK_RECORD
  5
1BE
330
1
100
AcDbSymbolTableRecord
100
AcDbBlockTableRecord
  2
cw-dimension-symbol17
340
0
 70
     0
280
     1
281
     0
  0
BLOCK_RECORD
  5
1C5
330
1
100
AcDbSymbolTableRecord
100
AcDbBlockTableRecord
  2
cw-dimension-symbol18
340
0
 70
     0
280
     1
281
     0
  0
BLOCK_RECORD
  5
1CC
330
1
100
AcDbSymbolTableRecord
100
AcDbBlockTableRecord
  2
cw-dimension-symbol19
340
0
 70
     0
280
     1
281
     0
  0
BLOCK_RECORD
  5
1CF
330
1
100
AcDbSymbolTableRecord
100
AcDbBlockTableRecord
  2
cw-dimension-symbol20
340
0
 70
     0
280
     1
281
     0
  0
BLOCK_RECORD
  5
1D6
330
1
100
AcDbSymbolTableRecord
100
AcDbBlockTableRecord
  2
cw-dimension-symbol21
340
0
 70
     0
280
     1
281
     0
  0
BLOCK_RECORD
  5
1DD
330
1
100
AcDbSymbolTableRecord
100
AcDbBlockTableRecord
  2
cw-line-extremity0
340
0
 70
     0
280
     1
281
     0
  0
BLOCK_RECORD
  5
1E1
330
1
100
AcDbSymbolTableRecord
100
AcDbBlockTableRecord
  2
cw-line-extremity2
340
0
 70
     0
280
     1
281
     0
  0
BLOCK_RECORD
  5
1E6
330
1
100
AcDbSymbolTableRecord
100
AcDbBlockTableRecord
  2
cw-line-extremity3
340
0
 70
     0
280
     1
281
     0
  0
BLOCK_RECORD
  5
1EB
330
1
100
AcDbSymbolTableRecord
100
AcDbBlockTableRecord
  2
cw-line-extremity301
340
0
 70
     0
280
     1
281
     0
  0
BLOCK_RECORD
  5
1ED
330
1
100
AcDbSymbolTableRecord
100
AcDbBlockTableRecord
  2
cw-line-extremity4
340
0
102
{BLKREFS
331
2A5
331
2A7
331
2A9
331
2AC
331
2BA
331
2CD
331
2D0
331
2D1
331
2D3
331
2D5
331
2D7
331
2D9
331
2DB
331
2DD
331
2E0
331
2E3
102
}
 70
     0
280
     1
281
     0
  0
BLOCK_RECORD
  5
1EF
330
1
100
AcDbSymbolTableRecord
100
AcDbBlockTableRecord
  2
cw-line-extremity5
340
0
 70
     0
280
     1
281
     0
  0
BLOCK_RECORD
  5
1F1
330
1
100
AcDbSymbolTableRecord
100
AcDbBlockTableRecord
  2
cw-line-extremity6
340
0
 70
     0
280
     1
281
     0
  0
BLOCK_RECORD
  5
1F3
330
1
100
AcDbSymbolTableRecord
100
AcDbBlockTableRecord
  2
cw-line-extremity9
340
0
 70
     0
280
     1
281
     0
  0
BLOCK_RECORD
  5
1F5
330
1
100
AcDbSymbolTableRecord
100
AcDbBlockTableRecord
  2
cw-line-extremity10
340
0
 70
     0
280
     1
281
     0
  0
BLOCK_RECORD
  5
1F7
330
1
100
AcDbSymbolTableRecord
100
AcDbBlockTableRecord
  2
cw-line-extremity1
340
0
 70
     0
280
     1
281
     0
  0
BLOCK_RECORD
  5
1B
330
1
100
AcDbSymbolTableRecord
100
AcDbBlockTableRecord
  2
*Paper_Space69
340
1E
 70
     0
280
     1
281
     0
  0
BLOCK_RECORD
  5
2EE
330
1
100
AcDbSymbolTableRecord
100
AcDbBlockTableRecord
  2
DIM141
340
0
102
{BLKREFS
331
2FF
102
}
 70
     0
280
     1
281
     1
  0
BLOCK_RECORD
  5
301
330
1
100
AcDbSymbolTableRecord
100
AcDbBlockTableRecord
  2
DIM142
340
0
102
{BLKREFS
331
312
102
}
 70
     0
280
     1
281
     1
  0
BLOCK_RECORD
  5
314
330
1
100
AcDbSymbolTableRecord
100
AcDbBlockTableRecord
  2
DIM143
340
0
102
{BLKREFS
331
325
102
}
 70
     0
280
     1
281
     1
  0
BLOCK_RECORD
  5
327
330
1
100
AcDbSymbolTableRecord
100
AcDbBlockTableRecord
  2
DIM144
340
0
102
{BLKREFS
331
338
102
}
 70
     0
280
     1
281
     1
  0
BLOCK_RECORD
  5
33A
330
1
100
AcDbSymbolTableRecord
100
AcDbBlockTableRecord
  2
DIM145
340
0
102
{BLKREFS
331
34B
102
}
 70
     0
280
     1
281
     1
  0
ENDTAB
  0
ENDSEC
  0
SECTION
  2
BLOCKS
  0
BLOCK
  5
20
330
1F
100
AcDbEntity
  8
0
100
AcDbBlockBegin
  2
*Model_Space
 70
     0
 10
0.0
 20
0.0
 30
0.0
  3
*Model_Space
  1

  0
ENDBLK
  5
21
330
1F
100
AcDbEntity
  8
0
100
AcDbBlockEnd
  0
BLOCK
  5
211
330
20F
100
AcDbEntity
 67
     1
  8
0
100
AcDbBlockBegin
  2
*Paper_Space
 70
     0
 10
0.0
 20
0.0
 30
0.0
  3
*Paper_Space
  1

  0
ENDBLK
  5
212
330
20F
100
AcDbEntity
 67
     1
  8
0
100
AcDbBlockEnd
  0
BLOCK
  5
6D
330
68
100
AcDbEntity
  8
0
100
AcDbBlockBegin
  2
CDWK_PTTYP1
 70
     0
 10
0.0
 20
0.0
 30
0.0
  3
CDWK_PTTYP1
  1

  0
LINE
  5
69
330
68
100
AcDbEntity
  8
0
  6
Continuous
 62
     0
370
    -2
390
5F
100
AcDbLine
 10
-0.5
 20
0.5
 30
0.0
 11
0.5
 21
0.5
 31
0.0
  0
LINE
  5
6A
330
68
100
AcDbEntity
  8
0
  6
Continuous
 62
     0
370
    -2
390
5F
100
AcDbLine
 10
0.5
 20
0.5
 30
0.0
 11
0.5
 21
-0.5
 31
0.0
  0
LINE
  5
6B
330
68
100
AcDbEntity
  8
0
  6
Continuous
 62
     0
370
    -2
390
5F
100
AcDbLine
 10
0.5
 20
-0.5
 30
0.0
 11
-0.5
 21
-0.5
 31
0.0
  0
LINE
  5
6C
330
68
100
AcDbEntity
  8
0
  6
Continuous
 62
     0
370
    -2
390
5F
100
AcDbLine
 10
-0.5
 20
-0.5
 30
0.0
 11
-0.5
 21
0.5
 31
0.0
  0
ENDBLK
  5
6E
330
68
100
AcDbEntity
  8
0
100
AcDbBlockEnd
  0
BLOCK
  5
72
330
6F
100
AcDbEntity
  8
0
100
AcDbBlockBegin
  2
CDWK_PTTYP2
 70
     0
 10
0.0
 20
0.0
 30
0.0
  3
CDWK_PTTYP2
  1

  0
LINE
  5
70
330
6F
100
AcDbEntity
  8
0
  6
Continuous
 62
     0
370
    -2
390
5F
100
AcDbLine
 10
0.0
 20
0.5
 30
0.0
 11
0.0
 21
-0.5
 31
0.0
  0
LINE
  5
71
330
6F
100
AcDbEntity
  8
0
  6
Continuous
 62
     0
370
    -2
390
5F
100
AcDbLine
 10
0.5
 20
0.0
 30
0.0
 11
-0.5
 21
0.0
 31
0.0
  0
ENDBLK
  5
73
330
6F
100
AcDbEntity
  8
0
100
AcDbBlockEnd
  0
BLOCK
  5
76
330
74
100
AcDbEntity
  8
0
100
AcDbBlockBegin
  2
CDWK_PTTYP4
 70
     0
 10
0.0
 20
0.0
 30
0.0
  3
CDWK_PTTYP4
  1

  0
HATCH
  5
75
330
74
100
AcDbEntity
  8
0
  6
Continuous
 62
     0
370
    -2
390
5F
100
AcDbHatch
 10
0.0
 20
0.0
 30
0.0
210
0.0
220
0.0
230
1.0
  2
SOLID
 70
     1
 71
     0
 91
        1
 92
        1
 93
        1
 72
     2
 10
0.0
 20
0.0
 40
0.5
 50
0.0
 51
360.0
 73
     1
 97
        0
 75
     0
 76
     1
 98
        0
  0
ENDBLK
  5
77
330
74
100
AcDbEntity
  8
0
100
AcDbBlockEnd
  0
BLOCK
  5
7F
330
78
100
AcDbEntity
  8
0
100
AcDbBlockBegin
  2
CDWK_PTTYP5
 70
     0
 10
0.0
 20
0.0
 30
0.0
  3
CDWK_PTTYP5
  1

  0
LINE
  5
79
330
78
100
AcDbEntity
  8
0
  6
Continuous
 62
     0
370
    -2
390
5F
100
AcDbLine
 10
-0.5
 20
0.5
 30
0.0
 11
0.5
 21
0.5
 31
0.0
  0
LINE
  5
7A
330
78
100
AcDbEntity
  8
0
  6
Continuous
 62
     0
370
    -2
390
5F
100
AcDbLine
 10
0.5
 20
0.5
 30
0.0
 11
0.5
 21
-0.5
 31
0.0
  0
LINE
  5
7B
330
78
100
AcDbEntity
  8
0
  6
Continuous
 62
     0
370
    -2
390
5F
100
AcDbLine
 10
0.5
 20
-0.5
 30
0.0
 11
-0.5
 21
-0.5
 31
0.0
  0
LINE
  5
7C
330
78
100
AcDbEntity
  8
0
  6
Continuous
 62
     0
370
    -2
390
5F
100
AcDbLine
 10
-0.5
 20
-0.5
 30
0.0
 11
-0.5
 21
0.5
 31
0.0
  0
HATCH
  5
7D
330
78
100
AcDbEntity
  8
0
  6
Continuous
 62
     0
370
    -2
390
5F
100
AcDbHatch
 10
0.0
 20
0.0
 30
0.0
210
0.0
220
0.0
230
1.0
  2
SOLID
 70
     1
 71
     0
 91
        1
 92
        3
 72
     0
 73
     1
 93
        4
 10
-0.5
 20
0.0
 10
0.0
 20
0.0
 10
0.0
 20
-0.5
 10
-0.5
 20
-0.5
 97
        0
 75
     0
 76
     1
 98
        0
  0
HATCH
  5
7E
330
78
100
AcDbEntity
  8
0
  6
Continuous
 62
     0
370
    -2
390
5F
100
AcDbHatch
 10
0.0
 20
0.0
 30
0.0
210
0.0
220
0.0
230
1.0
  2
SOLID
 70
     1
 71
     0
 91
        1
 92
        3
 72
     0
 73
     1
 93
        4
 10
0.0
 20
0.0
 10
0.5
 20
0.0
 10
0.5
 20
0.5
 10
0.0
 20
0.5
 97
        0
 75
     0
 76
     1
 98
        0
  0
ENDBLK
  5
80
330
78
100
AcDbEntity
  8
0
100
AcDbBlockEnd
  0
BLOCK
  5
87
330
81
100
AcDbEntity
  8
0
100
AcDbBlockBegin
  2
CDWK_PTTYP6
 70
     0
 10
0.0
 20
0.0
 30
0.0
  3
CDWK_PTTYP6
  1

  0
LINE
  5
82
330
81
100
AcDbEntity
  8
0
  6
Continuous
 62
     0
370
    -2
390
5F
100
AcDbLine
 10
-0.5
 20
0.5
 30
0.0
 11
0.5
 21
0.5
 31
0.0
  0
LINE
  5
83
330
81
100
AcDbEntity
  8
0
  6
Continuous
 62
     0
370
    -2
390
5F
100
AcDbLine
 10
0.5
 20
0.5
 30
0.0
 11
0.5
 21
-0.5
 31
0.0
  0
LINE
  5
84
330
81
100
AcDbEntity
  8
0
  6
Continuous
 62
     0
370
    -2
390
5F
100
AcDbLine
 10
0.5
 20
-0.5
 30
0.0
 11
-0.5
 21
-0.5
 31
0.0
  0
LINE
  5
85
330
81
100
AcDbEntity
  8
0
  6
Continuous
 62
     0
370
    -2
390
5F
100
AcDbLine
 10
-0.5
 20
-0.5
 30
0.0
 11
-0.5
 21
0.5
 31
0.0
  0
HATCH
  5
86
330
81
100
AcDbEntity
  8
0
  6
Continuous
 62
     0
370
    -2
390
5F
100
AcDbHatch
 10
0.0
 20
0.0
 30
0.0
210
0.0
220
0.0
230
1.0
  2
SOLID
 70
     1
 71
     0
 91
        1
 92
        3
 72
     0
 73
     1
 93
        3
 10
-0.5
 20
-0.5
 10
-0.5
 20
0.5
 10
0.5
 20
0.5
 97
        0
 75
     0
 76
     1
 98
        0
  0
ENDBLK
  5
88
330
81
100
AcDbEntity
  8
0
100
AcDbBlockEnd
  0
BLOCK
  5
90
330
89
100
AcDbEntity
  8
0
100
AcDbBlockBegin
  2
CDWK_PTTYP7
 70
     0
 10
0.0
 20
0.0
 30
0.0
  3
CDWK_PTTYP7
  1

  0
LINE
  5
8A
330
89
100
AcDbEntity
  8
0
  6
Continuous
 62
     0
370
    -2
390
5F
100
AcDbLine
 10
-0.5
 20
0.5
 30
0.0
 11
0.5
 21
0.5
 31
0.0
  0
LINE
  5
8B
330
89
100
AcDbEntity
  8
0
  6
Continuous
 62
     0
370
    -2
390
5F
100
AcDbLine
 10
0.5
 20
0.5
 30
0.0
 11
0.5
 21
-0.5
 31
0.0
  0
LINE
  5
8C
330
89
100
AcDbEntity
  8
0
  6
Continuous
 62
     0
370
    -2
390
5F
100
AcDbLine
 10
0.5
 20
-0.5
 30
0.0
 11
-0.5
 21
-0.5
 31
0.0
  0
LINE
  5
8D
330
89
100
AcDbEntity
  8
0
  6
Continuous
 62
     0
370
    -2
390
5F
100
AcDbLine
 10
-0.5
 20
-0.5
 30
0.0
 11
-0.5
 21
0.5
 31
0.0
  0
LINE
  5
8E
330
89
100
AcDbEntity
  8
0
  6
Continuous
 62
     0
370
    -2
390
5F
100
AcDbLine
 10
0.0
 20
0.5
 30
0.0
 11
0.0
 21
-0.5
 31
0.0
  0
LINE
  5
8F
330
89
100
AcDbEntity
  8
0
  6
Continuous
 62
     0
370
    -2
390
5F
100
AcDbLine
 10
0.5
 20
0.0
 30
0.0
 11
-0.5
 21
0.0
 31
0.0
  0
ENDBLK
  5
91
330
89
100
AcDbEntity
  8
0
100
AcDbBlockEnd
  0
BLOCK
  5
94
330
92
100
AcDbEntity
  8
0
100
AcDbBlockBegin
  2
CDWK_PTTYP8
 70
     0
 10
0.0
 20
0.0
 30
0.0
  3
CDWK_PTTYP8
  1

  0
HATCH
  5
93
330
92
100
AcDbEntity
  8
0
  6
Continuous
 62
     0
370
    -2
390
5F
100
AcDbHatch
 10
0.0
 20
0.0
 30
0.0
210
0.0
220
0.0
230
1.0
  2
SOLID
 70
     1
 71
     0
 91
        1
 92
        3
 72
     0
 73
     1
 93
        4
 10
0.5
 20
0.5
 10
0.5
 20
-0.5
 10
-0.5
 20
-0.5
 10
-0.5
 20
0.5
 97
        0
 75
     0
 76
     1
 98
        0
  0
ENDBLK
  5
95
330
92
100
AcDbEntity
  8
0
100
AcDbBlockEnd
  0
BLOCK
  5
99
330
96
100
AcDbEntity
  8
0
100
AcDbBlockBegin
  2
CDWK_PTTYP9
 70
     0
 10
0.0
 20
0.0
 30
0.0
  3
CDWK_PTTYP9
  1

  0
CIRCLE
  5
97
330
96
100
AcDbEntity
  8
0
  6
Continuous
 62
     0
370
    -2
390
5F
100
AcDbCircle
 10
0.0
 20
0.0
 30
0.0
 40
0.1666666666666667
  0
CIRCLE
  5
98
330
96
100
AcDbEntity
  8
0
  6
Continuous
 62
     0
370
    -2
390
5F
100
AcDbCircle
 10
0.0
 20
0.0
 30
0.0
 40
0.5
  0
ENDBLK
  5
9A
330
96
100
AcDbEntity
  8
0
100
AcDbBlockEnd
  0
BLOCK
  5
9D
330
9B
100
AcDbEntity
  8
0
100
AcDbBlockBegin
  2
CDWK_PTTYP10
 70
     0
 10
0.0
 20
0.0
 30
0.0
  3
CDWK_PTTYP10
  1

  0
CIRCLE
  5
9C
330
9B
100
AcDbEntity
  8
0
  6
Continuous
 62
     0
370
    -2
390
5F
100
AcDbCircle
 10
0.0
 20
0.0
 30
0.0
 40
0.5
  0
ENDBLK
  5
9E
330
9B
100
AcDbEntity
  8
0
100
AcDbBlockEnd
  0
BLOCK
  5
A2
330
9F
100
AcDbEntity
  8
0
100
AcDbBlockBegin
  2
CDWK_PTTYP11
 70
     0
 10
0.0
 20
0.0
 30
0.0
  3
CDWK_PTTYP11
  1

  0
CIRCLE
  5
A0
330
9F
100
AcDbEntity
  8
0
  6
Continuous
 62
     0
370
    -2
390
5F
100
AcDbCircle
 10
0.0
 20
0.0
 30
0.0
 40
0.25
  0
CIRCLE
  5
A1
330
9F
100
AcDbEntity
  8
0
  6
Continuous
 62
     0
370
    -2
390
5F
100
AcDbCircle
 10
0.0
 20
0.0
 30
0.0
 40
0.5
  0
ENDBLK
  5
A3
330
9F
100
AcDbEntity
  8
0
100
AcDbBlockEnd
  0
BLOCK
  5
A7
330
A4
100
AcDbEntity
  8
0
100
AcDbBlockBegin
  2
CDWK_PTTYP12
 70
     0
 10
0.0
 20
0.0
 30
0.0
  3
CDWK_PTTYP12
  1

  0
CIRCLE
  5
A5
330
A4
100
AcDbEntity
  8
0
  6
Continuous
 62
     0
370
    -2
390
5F
100
AcDbCircle
 10
0.25
 20
0.0
 30
0.0
 40
0.25
  0
CIRCLE
  5
A6
330
A4
100
AcDbEntity
  8
0
  6
Continuous
 62
     0
370
    -2
390
5F
100
AcDbCircle
 10
0.0
 20
0.0
 30
0.0
 40
0.5
  0
ENDBLK
  5
A8
330
A4
100
AcDbEntity
  8
0
100
AcDbBlockEnd
  0
BLOCK
  5
AD
330
A9
100
AcDbEntity
  8
0
100
AcDbBlockBegin
  2
CDWK_PTTYP13
 70
     0
 10
0.0
 20
0.0
 30
0.0
  3
CDWK_PTTYP13
  1

  0
CIRCLE
  5
AA
330
A9
100
AcDbEntity
  8
0
  6
Continuous
 62
     0
370
    -2
390
5F
100
AcDbCircle
 10
-0.25
 20
0.0
 30
0.0
 40
0.25
  0
CIRCLE
  5
AB
330
A9
100
AcDbEntity
  8
0
  6
Continuous
 62
     0
370
    -2
390
5F
100
AcDbCircle
 10
0.25
 20
0.0
 30
0.0
 40
0.25
  0
CIRCLE
  5
AC
330
A9
100
AcDbEntity
  8
0
  6
Continuous
 62
     0
370
    -2
390
5F
100
AcDbCircle
 10
0.0
 20
0.0
 30
0.0
 40
0.5
  0
ENDBLK
  5
AE
330
A9
100
AcDbEntity
  8
0
100
AcDbBlockEnd
  0
BLOCK
  5
B4
330
AF
100
AcDbEntity
  8
0
100
AcDbBlockBegin
  2
CDWK_PTTYP16
 70
     0
 10
0.0
 20
0.0
 30
0.0
  3
CDWK_PTTYP16
  1

  0
LINE
  5
B0
330
AF
100
AcDbEntity
  8
0
  6
Continuous
 62
     0
370
    -2
390
5F
100
AcDbLine
 10
-0.5
 20
-0.289
 30
0.0
 11
0.5
 21
-0.289
 31
0.0
  0
LINE
  5
B1
330
AF
100
AcDbEntity
  8
0
  6
Continuous
 62
     0
370
    -2
390
5F
100
AcDbLine
 10
0.5
 20
-0.289
 30
0.0
 11
0.0
 21
0.577
 31
0.0
  0
LINE
  5
B2
330
AF
100
AcDbEntity
  8
0
  6
Continuous
 62
     0
370
    -2
390
5F
100
AcDbLine
 10
0.0
 20
0.577
 30
0.0
 11
-0.5
 21
-0.289
 31
0.0
  0
CIRCLE
  5
B3
330
AF
100
AcDbEntity
  8
0
  6
Continuous
 62
     0
370
    -2
390
5F
100
AcDbCircle
 10
0.0
 20
0.0
 30
0.0
 40
0.289
  0
ENDBLK
  5
B5
330
AF
100
AcDbEntity
  8
0
100
AcDbBlockEnd
  0
BLOCK
  5
B9
330
B6
100
AcDbEntity
  8
0
100
AcDbBlockBegin
  2
CDWK_PTTYP17
 70
     0
 10
0.0
 20
0.0
 30
0.0
  3
CDWK_PTTYP17
  1

  0
CIRCLE
  5
B7
330
B6
100
AcDbEntity
  8
0
  6
Continuous
 62
     0
370
    -2
390
5F
100
AcDbCircle
 10
0.0
 20
0.0
 30
0.0
 40
0.5
  0
HATCH
  5
B8
330
B6
100
AcDbEntity
  8
0
  6
Continuous
 62
     0
370
    -2
390
5F
100
AcDbHatch
 10
0.0
 20
0.0
 30
0.0
210
0.0
220
0.0
230
1.0
  2
SOLID
 70
     1
 71
     0
 91
        1
 92
        1
 93
        1
 72
     2
 10
0.0
 20
0.0
 40
0.25
 50
0.0
 51
360.0
 73
     1
 97
        0
 75
     0
 76
     1
 98
        0
  0
ENDBLK
  5
BA
330
B6
100
AcDbEntity
  8
0
100
AcDbBlockEnd
  0
BLOCK
  5
BE
330
BB
100
AcDbEntity
  8
0
100
AcDbBlockBegin
  2
CDWK_PTTYP18
 70
     0
 10
0.0
 20
0.0
 30
0.0
  3
CDWK_PTTYP18
  1

  0
CIRCLE
  5
BC
330
BB
100
AcDbEntity
  8
0
  6
Continuous
 62
     0
370
    -2
390
5F
100
AcDbCircle
 10
0.0
 20
0.0
 30
0.0
 40
0.5
  0
CIRCLE
  5
BD
330
BB
100
AcDbEntity
  8
0
  6
Continuous
 62
     0
370
    -2
390
5F
100
AcDbCircle
 10
0.0
 20
0.0
 30
0.0
 40
0.208
  0
ENDBLK
  5
BF
330
BB
100
AcDbEntity
  8
0
100
AcDbBlockEnd
  0
BLOCK
  5
C4
330
C0
100
AcDbEntity
  8
0
100
AcDbBlockBegin
  2
CDWK_PTTYP19
 70
     0
 10
0.0
 20
0.0
 30
0.0
  3
CDWK_PTTYP19
  1

  0
CIRCLE
  5
C1
330
C0
100
AcDbEntity
  8
0
  6
Continuous
 62
     0
370
    -2
390
5F
100
AcDbCircle
 10
0.0
 20
0.0
 30
0.0
 40
0.25
  0
CIRCLE
  5
C2
330
C0
100
AcDbEntity
  8
0
  6
Continuous
 62
     0
370
    -2
390
5F
100
AcDbCircle
 10
0.0
 20
0.0
 30
0.0
 40
0.35
  0
LINE
  5
C3
330
C0
100
AcDbEntity
  8
0
  6
Continuous
 62
     0
370
    -2
390
5F
100
AcDbLine
 10
-0.25
 20
0.0
 30
0.0
 11
0.25
 21
0.0
 31
0.0
  0
ENDBLK
  5
C5
330
C0
100
AcDbEntity
  8
0
100
AcDbBlockEnd
  0
BLOCK
  5
C9
330
C6
100
AcDbEntity
  8
0
100
AcDbBlockBegin
  2
CDWK_PTTYP20
 70
     0
 10
0.0
 20
0.0
 30
0.0
  3
CDWK_PTTYP20
  1

  0
CIRCLE
  5
C7
330
C6
100
AcDbEntity
  8
0
  6
Continuous
 62
     0
370
    -2
390
5F
100
AcDbCircle
 10
0.0
 20
0.0
 30
0.0
 40
0.3333333333333333
  0
CIRCLE
  5
C8
330
C6
100
AcDbEntity
  8
0
  6
Continuous
 62
     0
370
    -2
390
5F
100
AcDbCircle
 10
0.0
 20
0.0
 30
0.0
 40
0.5
  0
ENDBLK
  5
CA
330
C6
100
AcDbEntity
  8
0
100
AcDbBlockEnd
  0
BLOCK
  5
CE
330
CB
100
AcDbEntity
  8
0
100
AcDbBlockBegin
  2
CDWK_PTTYP21
 70
     0
 10
0.0
 20
0.0
 30
0.0
  3
CDWK_PTTYP21
  1

  0
CIRCLE
  5
CC
330
CB
100
AcDbEntity
  8
0
  6
Continuous
 62
     0
370
    -2
390
5F
100
AcDbCircle
 10
0.0
 20
0.0
 30
0.0
 40
0.5
  0
LINE
  5
CD
330
CB
100
AcDbEntity
  8
0
  6
Continuous
 62
     0
370
    -2
390
5F
100
AcDbLine
 10
-0.5
 20
0.0
 30
0.0
 11
0.5
 21
0.0
 31
0.0
  0
ENDBLK
  5
CF
330
CB
100
AcDbEntity
  8
0
100
AcDbBlockEnd
  0
BLOCK
  5
D5
330
D0
100
AcDbEntity
  8
0
100
AcDbBlockBegin
  2
CDWK_PTTYP25
 70
     0
 10
0.0
 20
0.0
 30
0.0
  3
CDWK_PTTYP25
  1

  0
LINE
  5
D1
330
D0
100
AcDbEntity
  8
0
  6
Continuous
 62
     0
370
    -2
390
5F
100
AcDbLine
 10
0.0
 20
0.5
 30
0.0
 11
-0.4330127018922193
 21
-0.25
 31
0.0
  0
LINE
  5
D2
330
D0
100
AcDbEntity
  8
0
  6
Continuous
 62
     0
370
    -2
390
5F
100
AcDbLine
 10
-0.4330127018922193
 20
-0.25
 30
0.0
 11
0.4330127018922193
 21
-0.25
 31
0.0
  0
LINE
  5
D3
330
D0
100
AcDbEntity
  8
0
  6
Continuous
 62
     0
370
    -2
390
5F
100
AcDbLine
 10
0.4330127018922193
 20
-0.25
 30
0.0
 11
0.0
 21
0.5
 31
0.0
  0
CIRCLE
  5
D4
330
D0
100
AcDbEntity
  8
0
  6
Continuous
 62
     0
370
    -2
390
5F
100
AcDbCircle
 10
0.0
 20
0.0
 30
0.0
 40
0.5
  0
ENDBLK
  5
D6
330
D0
100
AcDbEntity
  8
0
100
AcDbBlockEnd
  0
BLOCK
  5
DC
330
D7
100
AcDbEntity
  8
0
100
AcDbBlockBegin
  2
CDWK_PTTYP26
 70
     0
 10
0.0
 20
0.0
 30
0.0
  3
CDWK_PTTYP26
  1

  0
LINE
  5
D8
330
D7
100
AcDbEntity
  8
0
  6
Continuous
 62
     0
370
    -2
390
5F
100
AcDbLine
 10
-0.5
 20
-0.289
 30
0.0
 11
0.5
 21
-0.289
 31
0.0
  0
LINE
  5
D9
330
D7
100
AcDbEntity
  8
0
  6
Continuous
 62
     0
370
    -2
390
5F
100
AcDbLine
 10
0.5
 20
-0.289
 30
0.0
 11
0.0
 21
0.577
 31
0.0
  0
LINE
  5
DA
330
D7
100
AcDbEntity
  8
0
  6
Continuous
 62
     0
370
    -2
390
5F
100
AcDbLine
 10
0.0
 20
0.577
 30
0.0
 11
-0.5
 21
-0.289
 31
0.0
  0
CIRCLE
  5
DB
330
D7
100
AcDbEntity
  8
0
  6
Continuous
 62
     0
370
    -2
390
5F
100
AcDbCircle
 10
0.0
 20
0.0
 30
0.0
 40
0.125
  0
ENDBLK
  5
DD
330
D7
100
AcDbEntity
  8
0
100
AcDbBlockEnd
  0
BLOCK
  5
E4
330
DE
100
AcDbEntity
  8
0
100
AcDbBlockBegin
  2
CDWK_PTTYP27
 70
     0
 10
0.0
 20
0.0
 30
0.0
  3
CDWK_PTTYP27
  1

  0
LINE
  5
DF
330
DE
100
AcDbEntity
  8
0
  6
Continuous
 62
     0
370
    -2
390
5F
100
AcDbLine
 10
0.0
 20
0.5
 30
0.0
 11
-0.4330127018922193
 21
-0.25
 31
0.0
  0
LINE
  5
E0
330
DE
100
AcDbEntity
  8
0
  6
Continuous
 62
     0
370
    -2
390
5F
100
AcDbLine
 10
-0.4330127018922193
 20
-0.25
 30
0.0
 11
0.4330127018922193
 21
-0.25
 31
0.0
  0
LINE
  5
E1
330
DE
100
AcDbEntity
  8
0
  6
Continuous
 62
     0
370
    -2
390
5F
100
AcDbLine
 10
0.4330127018922193
 20
-0.25
 30
0.0
 11
0.0
 21
0.5
 31
0.0
  0
CIRCLE
  5
E2
330
DE
100
AcDbEntity
  8
0
  6
Continuous
 62
     0
370
    -2
390
5F
100
AcDbCircle
 10
0.0
 20
0.0
 30
0.0
 40
0.125
  0
CIRCLE
  5
E3
330
DE
100
AcDbEntity
  8
0
  6
Continuous
 62
     0
370
    -2
390
5F
100
AcDbCircle
 10
0.0
 20
0.0
 30
0.0
 40
0.5
  0
ENDBLK
  5
E5
330
DE
100
AcDbEntity
  8
0
100
AcDbBlockEnd
  0
BLOCK
  5
EB
330
E6
100
AcDbEntity
  8
0
100
AcDbBlockBegin
  2
CDWK_PTTYP28
 70
     0
 10
0.0
 20
0.0
 30
0.0
  3
CDWK_PTTYP28
  1

  0
LINE
  5
E7
330
E6
100
AcDbEntity
  8
0
  6
Continuous
 62
     0
370
    -2
390
5F
100
AcDbLine
 10
-0.5
 20
0.5
 30
0.0
 11
0.5
 21
0.5
 31
0.0
  0
LINE
  5
E8
330
E6
100
AcDbEntity
  8
0
  6
Continuous
 62
     0
370
    -2
390
5F
100
AcDbLine
 10
0.5
 20
0.5
 30
0.0
 11
-0.5
 21
-0.5
 31
0.0
  0
LINE
  5
E9
330
E6
100
AcDbEntity
  8
0
  6
Continuous
 62
     0
370
    -2
390
5F
100
AcDbLine
 10
0.5
 20
-0.5
 30
0.0
 11
-0.5
 21
-0.5
 31
0.0
  0
LINE
  5
EA
330
E6
100
AcDbEntity
  8
0
  6
Continuous
 62
     0
370
    -2
390
5F
100
AcDbLine
 10
-0.5
 20
0.5
 30
0.0
 11
0.5
 21
-0.5
 31
0.0
  0
ENDBLK
  5
EC
330
E6
100
AcDbEntity
  8
0
100
AcDbBlockEnd
  0
BLOCK
  5
F1
330
ED
100
AcDbEntity
  8
0
100
AcDbBlockBegin
  2
CDWK_PTTYP29
 70
     0
 10
0.0
 20
0.0
 30
0.0
  3
CDWK_PTTYP29
  1

  0
CIRCLE
  5
EE
330
ED
100
AcDbEntity
  8
0
  6
Continuous
 62
     0
370
    -2
390
5F
100
AcDbCircle
 10
0.0
 20
0.0
 30
0.0
 40
0.2
  0
CIRCLE
  5
EF
330
ED
100
AcDbEntity
  8
0
  6
Continuous
 62
     0
370
    -2
390
5F
100
AcDbCircle
 10
0.0
 20
0.0
 30
0.0
 40
0.35
  0
CIRCLE
  5
F0
330
ED
100
AcDbEntity
  8
0
  6
Continuous
 62
     0
370
    -2
390
5F
100
AcDbCircle
 10
0.0
 20
0.0
 30
0.0
 40
0.5
  0
ENDBLK
  5
F2
330
ED
100
AcDbEntity
  8
0
100
AcDbBlockEnd
  0
BLOCK
  5
F8
330
F3
100
AcDbEntity
  8
0
100
AcDbBlockBegin
  2
CDWK_PTTYP30
 70
     0
 10
0.0
 20
0.0
 30
0.0
  3
CDWK_PTTYP30
  1

  0
LINE
  5
F4
330
F3
100
AcDbEntity
  8
0
  6
Continuous
 62
     0
370
    -2
390
5F
100
AcDbLine
 10
-0.5
 20
0.5
 30
0.0
 11
-0.1
 21
0.1
 31
0.0
  0
LINE
  5
F5
330
F3
100
AcDbEntity
  8
0
  6
Continuous
 62
     0
370
    -2
390
5F
100
AcDbLine
 10
0.5
 20
0.5
 30
0.0
 11
0.1
 21
0.1
 31
0.0
  0
LINE
  5
F6
330
F3
100
AcDbEntity
  8
0
  6
Continuous
 62
     0
370
    -2
390
5F
100
AcDbLine
 10
0.5
 20
-0.5
 30
0.0
 11
0.1
 21
-0.1
 31
0.0
  0
LINE
  5
F7
330
F3
100
AcDbEntity
  8
0
  6
Continuous
 62
     0
370
    -2
390
5F
100
AcDbLine
 10
-0.5
 20
-0.5
 30
0.0
 11
-0.1
 21
-0.1
 31
0.0
  0
ENDBLK
  5
F9
330
F3
100
AcDbEntity
  8
0
100
AcDbBlockEnd
  0
BLOCK
  5
100
330
FA
100
AcDbEntity
  8
0
100
AcDbBlockBegin
  2
CDWK_PTTYP31
 70
     0
 10
0.0
 20
0.0
 30
0.0
  3
CDWK_PTTYP31
  1

  0
LINE
  5
FB
330
FA
100
AcDbEntity
  8
0
  6
Continuous
 62
     0
370
    -2
390
5F
100
AcDbLine
 10
-0.5
 20
0.0
 30
0.0
 11
-0.1
 21
0.0
 31
0.0
  0
LINE
  5
FC
330
FA
100
AcDbEntity
  8
0
  6
Continuous
 62
     0
370
    -2
390
5F
100
AcDbLine
 10
0.1
 20
0.0
 30
0.0
 11
0.5
 21
0.0
 31
0.0
  0
LINE
  5
FD
330
FA
100
AcDbEntity
  8
0
  6
Continuous
 62
     0
370
    -2
390
5F
100
AcDbLine
 10
0.0
 20
0.5
 30
0.0
 11
0.0
 21
0.1
 31
0.0
  0
LINE
  5
FE
330
FA
100
AcDbEntity
  8
0
  6
Continuous
 62
     0
370
    -2
390
5F
100
AcDbLine
 10
0.0
 20
-0.1
 30
0.0
 11
0.0
 21
-0.5
 31
0.0
  0
CIRCLE
  5
FF
330
FA
100
AcDbEntity
  8
0
  6
Continuous
 62
     0
370
    -2
390
5F
100
AcDbCircle
 10
0.0
 20
0.0
 30
0.0
 40
0.1
  0
ENDBLK
  5
101
330
FA
100
AcDbEntity
  8
0
100
AcDbBlockEnd
  0
BLOCK
  5
109
330
102
100
AcDbEntity
  8
0
100
AcDbBlockBegin
  2
CDWK_PTTYP32
 70
     0
 10
0.0
 20
0.0
 30
0.0
  3
CDWK_PTTYP32
  1

  0
CIRCLE
  5
103
330
102
100
AcDbEntity
  8
0
  6
Continuous
 62
     0
370
    -2
390
5F
100
AcDbCircle
 10
0.0
 20
0.0
 30
0.0
 40
0.2
  0
CIRCLE
  5
104
330
102
100
AcDbEntity
  8
0
  6
Continuous
 62
     0
370
    -2
390
5F
100
AcDbCircle
 10
0.0
 20
0.0
 30
0.0
 40
0.5
  0
LINE
  5
105
330
102
100
AcDbEntity
  8
0
  6
Continuous
 62
     0
370
    -2
390
5F
100
AcDbLine
 10
0.1414213562373095
 20
0.1414213562373095
 30
0.0
 11
0.3535533905932738
 21
0.3535533905932738
 31
0.0
  0
LINE
  5
106
330
102
100
AcDbEntity
  8
0
  6
Continuous
 62
     0
370
    -2
390
5F
100
AcDbLine
 10
-0.1414213562373095
 20
0.1414213562373095
 30
0.0
 11
-0.3535533905932738
 21
0.3535533905932738
 31
0.0
  0
LINE
  5
107
330
102
100
AcDbEntity
  8
0
  6
Continuous
 62
     0
370
    -2
390
5F
100
AcDbLine
 10
0.1414213562373095
 20
-0.1414213562373095
 30
0.0
 11
0.3535533905932738
 21
-0.3535533905932738
 31
0.0
  0
LINE
  5
108
330
102
100
AcDbEntity
  8
0
  6
Continuous
 62
     0
370
    -2
390
5F
100
AcDbLine
 10
-0.1414213562373095
 20
-0.1414213562373095
 30
0.0
 11
-0.3535533905932738
 21
-0.3535533905932738
 31
0.0
  0
ENDBLK
  5
10A
330
102
100
AcDbEntity
  8
0
100
AcDbBlockEnd
  0
BLOCK
  5
10F
330
10B
100
AcDbEntity
  8
0
100
AcDbBlockBegin
  2
CDWK_PTTYP33
 70
     0
 10
0.0
 20
0.0
 30
0.0
  3
CDWK_PTTYP33
  1

  0
LINE
  5
10C
330
10B
100
AcDbEntity
  8
0
  6
Continuous
 62
     0
370
    -2
390
5F
100
AcDbLine
 10
0.0
 20
-0.5
 30
0.0
 11
0.0
 21
0.5
 31
0.0
  0
LINE
  5
10D
330
10B
100
AcDbEntity
  8
0
  6
Continuous
 62
     0
370
    -2
390
5F
100
AcDbLine
 10
0.5
 20
0.0
 30
0.0
 11
-0.5
 21
0.0
 31
0.0
  0
CIRCLE
  5
10E
330
10B
100
AcDbEntity
  8
0
  6
Continuous
 62
     0
370
    -2
390
5F
100
AcDbCircle
 10
0.0
 20
0.0
 30
0.0
 40
0.5
  0
ENDBLK
  5
110
330
10B
100
AcDbEntity
  8
0
100
AcDbBlockEnd
  0
BLOCK
  5
115
330
111
100
AcDbEntity
  8
0
100
AcDbBlockBegin
  2
CDWK_PTTYP34
 70
     0
 10
0.0
 20
0.0
 30
0.0
  3
CDWK_PTTYP34
  1

  0
CIRCLE
  5
112
330
111
100
AcDbEntity
  8
0
  6
Continuous
 62
     0
370
    -2
390
5F
100
AcDbCircle
 10
0.0
 20
0.0
 30
0.0
 40
0.5
  0
LINE
  5
113
330
111
100
AcDbEntity
  8
0
  6
Continuous
 62
     0
370
    -2
390
5F
100
AcDbLine
 10
-0.4
 20
-0.3
 30
0.0
 11
0.3
 21
0.4
 31
0.0
  0
LINE
  5
114
330
111
100
AcDbEntity
  8
0
  6
Continuous
 62
     0
370
    -2
390
5F
100
AcDbLine
 10
-0.3
 20
-0.4
 30
0.0
 11
0.4
 21
0.3
 31
0.0
  0
ENDBLK
  5
116
330
111
100
AcDbEntity
  8
0
100
AcDbBlockEnd
  0
BLOCK
  5
11B
330
117
100
AcDbEntity
  8
0
100
AcDbBlockBegin
  2
CDWK_PTTYP35
 70
     0
 10
0.0
 20
0.0
 30
0.0
  3
CDWK_PTTYP35
  1

  0
LINE
  5
118
330
117
100
AcDbEntity
  8
0
  6
Continuous
 62
     0
370
    -2
390
5F
100
AcDbLine
 10
0.0
 20
0.2
 30
0.0
 11
0.0
 21
0.5
 31
0.0
  0
LINE
  5
119
330
117
100
AcDbEntity
  8
0
  6
Continuous
 62
     0
370
    -2
390
5F
100
AcDbLine
 10
0.0
 20
-0.2
 30
0.0
 11
0.0
 21
-0.5
 31
0.0
  0
CIRCLE
  5
11A
330
117
100
AcDbEntity
  8
0
  6
Continuous
 62
     0
370
    -2
390
5F
100
AcDbCircle
 10
0.0
 20
0.0
 30
0.0
 40
0.2
  0
ENDBLK
  5
11C
330
117
100
AcDbEntity
  8
0
100
AcDbBlockEnd
  0
BLOCK
  5
123
330
11D
100
AcDbEntity
  8
0
100
AcDbBlockBegin
  2
CDWK_PTTYP36
 70
     0
 10
0.0
 20
0.0
 30
0.0
  3
CDWK_PTTYP36
  1

  0
LINE
  5
11E
330
11D
100
AcDbEntity
  8
0
  6
Continuous
 62
     0
370
    -2
390
5F
100
AcDbLine
 10
-0.5
 20
0.2
 30
0.0
 11
0.5
 21
0.2
 31
0.0
  0
LINE
  5
11F
330
11D
100
AcDbEntity
  8
0
  6
Continuous
 62
     0
370
    -2
390
5F
100
AcDbLine
 10
0.5
 20
0.2
 30
0.0
 11
0.5
 21
-0.2
 31
0.0
  0
LINE
  5
120
330
11D
100
AcDbEntity
  8
0
  6
Continuous
 62
     0
370
    -2
390
5F
100
AcDbLine
 10
0.5
 20
-0.2
 30
0.0
 11
-0.5
 21
-0.2
 31
0.0
  0
LINE
  5
121
330
11D
100
AcDbEntity
  8
0
  6
Continuous
 62
     0
370
    -2
390
5F
100
AcDbLine
 10
-0.5
 20
-0.2
 30
0.0
 11
-0.5
 21
0.2
 31
0.0
  0
HATCH
  5
122
330
11D
100
AcDbEntity
  8
0
  6
Continuous
 62
     0
370
    -2
390
5F
100
AcDbHatch
 10
0.0
 20
0.0
 30
0.0
210
0.0
220
0.0
230
1.0
  2
SOLID
 70
     1
 71
     0
 91
        1
 92
        3
 72
     0
 73
     1
 93
        3
 10
-0.5
 20
-0.2
 10
0.5
 20
-0.2
 10
0.5
 20
0.2
 97
        0
 75
     0
 76
     1
 98
        0
  0
ENDBLK
  5
124
330
11D
100
AcDbEntity
  8
0
100
AcDbBlockEnd
  0
BLOCK
  5
128
330
125
100
AcDbEntity
  8
0
100
AcDbBlockBegin
  2
CDWK_PTTYP37
 70
     0
 10
0.0
 20
0.0
 30
0.0
  3
CDWK_PTTYP37
  1

  0
HATCH
  5
126
330
125
100
AcDbEntity
  8
0
  6
Continuous
 62
     0
370
    -2
390
5F
100
AcDbHatch
 10
0.0
 20
0.0
 30
0.0
210
0.0
220
0.0
230
1.0
  2
SOLID
 70
     1
 71
     0
 91
        1
 92
        3
 72
     0
 73
     1
 93
      202
 10
-0.3535533905932738
 20
-0.3535533905932738
 10
-0.3485533905932738
 20
-0.3535533905932737
 10
-0.3435533905932738
 20
-0.3584836591895546
 10
-0.3385533905932738
 20
-0.3632782236961988
 10
-0.3335533905932738
 20
-0.367942389128785
 10
-0.3285533905932738
 20
-0.372481054046687
 10
-0.3235533905932738
 20
-0.3768987523588579
 10
-0.3185533905932738
 20
-0.3811996897107819
 10
-0.3135533905932738
 20
-0.3853877752881235
 10
-0.3085533905932737
 20
-0.3894666497242888
 10
-0.3035533905932737
 20
-0.3934397096803965
 10
-0.2985533905932737
 20
-0.3973101295704999
 10
-0.2935533905932737
 20
-0.4010808808273714
 10
-0.2885533905932737
 20
-0.4047547490409382
 10
-0.2835533905932737
 20
-0.4083343492496384
 10
-0.2785533905932737
 20
-0.4118221396222626
 10
-0.2735533905932737
 20
-0.4152204337324827
 10
-0.2685533905932737
 20
-0.4185314115988474
 10
-0.2635533905932737
 20
-0.4217571296384408
 10
-0.2585533905932737
 20
-0.4248995296617653
 10
-0.2535533905932737
 20
-0.4279604470190231
 10
-0.2485533905932737
 20
-0.4309416179932669
 10
-0.2435533905932737
 20
-0.4338446865234004
 10
-0.2385533905932737
 20
-0.4366712103293738
 10
-0.2335533905932737
 20
-0.439422666502825
 10
-0.2285533905932737
 20
-0.4421004566186126
 10
-0.2235533905932737
 20
-0.4447059114159811
 10
-0.2185533905932737
 20
-0.4472402950923041
 10
-0.2135533905932737
 20
-0.4497048092473372
 10
-0.2085533905932737
 20
-0.4521005965115692
 10
-0.2035533905932737
 20
-0.4544287438884664
 10
-0.1985533905932736
 20
-0.456690285837111
 10
-0.1935533905932736
 20
-0.45888620711884
 10
-0.1885533905932736
 20
-0.4610174454289638
 10
-0.1835533905932736
 20
-0.4630848938324164
 10
-0.1785533905932736
 20
-0.4650894030202291
 10
-0.1735533905932736
 20
-0.4670317834019928
 10
-0.1685533905932736
 20
-0.46891280704794
 10
-0.1635533905932736
 20
-0.4707332094929264
 10
-0.1585533905932736
 20
-0.4724936914133818
 10
-0.1535533905932736
 20
-0.4741949201872336
 10
-0.1485533905932736
 20
-0.4758375313458466
 10
-0.1435533905932736
 20
-0.4774221299261716
 10
-0.1385533905932736
 20
-0.4789492917305286
 10
-0.1335533905932736
 20
-0.4804195645007682
 10
-0.1285533905932736
 20
-0.4818334690129366
 10
-0.1235533905932736
 20
-0.4831915000980183
 10
-0.1185533905932736
 20
-0.4844941275938295
 10
-0.1135533905932736
 20
-0.4857417972326848
 10
-0.1085533905932736
 20
-0.4869349314690531
 10
-0.1035533905932736
 20
-0.4880739302510473
 10
-0.0985533905932736
 20
-0.489159171739258
 10
-0.0935533905932736
 20
-0.4901910129761353
 10
-0.0885533905932736
 20
-0.4911697905088447
 10
-0.0835533905932735
 20
-0.4920958209682695
 10
-0.0785533905932735
 20
-0.4929694016065986
 10
-0.0735533905932735
 20
-0.4937908107957261
 10
-0.0685533905932735
 20
-0.494560308488493
 10
-0.0635533905932735
 20
-0.4952781366446192
 10
-0.0585533905932735
 20
-0.4959445196230107
 10
-0.0535533905932735
 20
-0.4965596645419678
 10
-0.0485533905932735
 20
-0.4971237616086806
 10
-0.0435533905932735
 20
-0.4976369844192622
 10
-0.0385533905932735
 20
-0.4980994902304456
 10
-0.0335533905932735
 20
-0.4985114202039533
 10
-0.0285533905932735
 20
-0.4988728996244386
 10
-0.0235533905932735
 20
-0.4991840380917923
 10
-0.0185533905932735
 20
-0.49944492968851
 10
-0.0135533905932735
 20
-0.4996556531227215
 10
-0.0085533905932735
 20
-0.4998162718473921
 10
-0.0035533905932735
 20
-0.4999268341561182
 10
0.0014466094067265
 20
-0.499987373255857
 10
0.0064466094067265
 20
-0.4999979073168451
 10
0.0114466094067265
 20
-0.4999584394998819
 10
0.0164466094067265
 20
-0.4998689579610739
 10
0.0214466094067265
 20
-0.4997294358340547
 10
0.0264466094067265
 20
-0.4995398311896213
 10
0.0314466094067265
 20
-0.4993000869726422
 10
0.0364466094067265
 20
-0.4990101309160174
 10
0.0414466094067265
 20
-0.4986698754313855
 10
0.0464466094067265
 20
-0.498279217476192
 10
0.0514466094067265
 20
-0.4978380383966446
 10
0.0564466094067265
 20
-0.497346203745994
 10
0.0614466094067265
 20
-0.4968035630774849
 10
0.0664466094067264
 20
-0.4962099497112257
 10
0.0714466094067265
 20
-0.4955651804741228
 10
0.0764466094067265
 20
-0.4948690554119167
 10
0.0814466094067265
 20
-0.4941213574722463
 10
0.0864466094067265
 20
-0.4933218521575424
 10
0.0914466094067265
 20
-0.4924702871464235
 10
0.0964466094067265
 20
-0.4915663918821278
 10
0.1014466094067265
 20
-0.4906098771263643
 10
0.1064466094067265
 20
-0.4896004344768079
 10
0.1114466094067265
 20
-0.4885377358462822
 10
0.1164466094067265
 20
-0.4874214329014929
 10
0.1214466094067265
 20
-0.4862511564589613
 10
0.1264466094067265
 20
-0.4850265158355881
 10
0.1314466094067265
 20
-0.4837470981510305
 10
0.1364466094067265
 20
-0.482412467578809
 10
0.1414466094067265
 20
-0.4810221645427664
 10
0.1464466094067265
 20
-0.4795757048551781
 10
0.1514466094067265
 20
-0.4780725787924608
 10
0.1564466094067265
 20
-0.4765122501040308
 10
0.1614466094067265
 20
-0.4748941549494363
 10
0.1664466094067265
 20
-0.4732177007584056
 10
0.1714466094067265
 20
-0.4714822650079264
 10
0.1764466094067265
 20
-0.4696871939098801
 10
0.1814466094067266
 20
-0.4678318010021017
 10
0.1864466094067266
 20
-0.4659153656350076
 10
0.1914466094067266
 20
-0.4639371313451162
 10
0.1964466094067266
 20
-0.4618963041058764
 10
0.2014466094067266
 20
-0.4597920504451997
 10
0.2064466094067266
 20
-0.4576234954179405
 10
0.2114466094067266
 20
-0.4553897204202862
 10
0.2164466094067266
 20
-0.4530897608315588
 10
0.2214466094067266
 20
-0.45072260346729
 10
0.2264466094067266
 20
-0.4482871838255748
 10
0.2314466094067266
 20
-0.4457823831065977
 10
0.2364466094067266
 20
-0.4432070249828292
 10
0.2414466094067266
 20
-0.4405598720946596
 10
0.2464466094067266
 20
-0.4378396222431172
 10
0.2514466094067266
 20
-0.4350449042477435
 10
0.2564466094067266
 20
-0.4321742734336012
 10
0.2614466094067266
 20
-0.4292262067066663
 10
0.2664466094067266
 20
-0.4261990971714118
 10
0.2714466094067266
 20
-0.4230912482380831
 10
0.2764466094067266
 20
-0.4199008671598476
 10
0.2814466094067266
 20
-0.4166260579314797
 10
0.2864466094067266
 20
-0.4132648134712868
 10
0.2914466094067266
 20
-0.4098150069963156
 10
0.2964466094067266
 20
-0.4062743824871597
 10
0.3014466094067266
 20
-0.4026405441224911
 10
0.3064466094067266
 20
-0.3989109445442534
 10
0.3114466094067266
 20
-0.3950828717916294
 10
0.3164466094067266
 20
-0.391153434714632
 10
0.3214466094067266
 20
-0.3871195466454601
 10
0.3264466094067267
 20
-0.3829779070663467
 10
0.3314466094067267
 20
-0.3787249809648844
 10
0.3364466094067267
 20
-0.3743569755097196
 10
0.3414466094067267
 20
-0.3698698136084067
 10
0.3464466094067267
 20
-0.3652591038217257
 10
0.3514466094067267
 20
-0.3605201060004601
 10
0.3564466094067267
 20
-0.3556476918757041
 10
0.3614466094067267
 20
-0.3506362996645505
 10
0.3664466094067267
 20
-0.34547988153926
 10
0.3714466094067267
 20
-0.3401718425359658
 10
0.3764466094067267
 20
-0.334704969129899
 10
0.3814466094067267
 20
-0.3290713452523318
 10
0.3864466094067267
 20
-0.3232622529342269
 10
0.3914466094067267
 20
-0.3172680539828188
 10
0.3964466094067267
 20
-0.3110780480586465
 10
0.4014466094067267
 20
-0.304680301118911
 10
0.4064466094067267
 20
-0.2980614362775617
 10
0.4114466094067267
 20
-0.291206376478565
 10
0.4164466094067267
 20
-0.2840980246459106
 10
0.4214466094067267
 20
-0.276716861635935
 10
0.4264466094067267
 20
-0.2690404345439063
 10
0.4314466094067267
 20
-0.2610426963649944
 10
0.4364466094067267
 20
-0.2526931404518915
 10
0.4414466094067268
 20
-0.2439556458403291
 10
0.4464466094067268
 20
-0.2347869056044327
 10
0.4514466094067268
 20
-0.2251342376211081
 10
0.4564466094067268
 20
-0.2149324518428296
 10
0.4614466094067268
 20
-0.2040992228331676
 10
0.4664466094067268
 20
-0.1925279893081412
 10
0.4714466094067268
 20
-0.1800765408735088
 10
0.4764466094067268
 20
-0.1665475742210051
 10
0.4814466094067268
 20
-0.1516529867323223
 10
0.4864466094067268
 20
-0.1349413290684758
 10
0.4914466094067268
 20
-0.1156274024472547
 10
0.4964466094067268
 20
-0.0920881648347501
 10
0.5
 20
0.0
 10
0.495
 20
0.0
 10
0.49
 20
0.0705336798983295
 10
0.485
 20
0.0994987437106621
 10
0.48
 20
0.1215524578114322
 10
0.475
 20
0.14
 10
0.47
 20
0.15612494995996
 10
0.465
 20
0.1705872210923199
 10
0.46
 20
0.1837797594948911
 10
0.455
 20
0.1959591794226544
 10
0.45
 20
0.2073041244162789
 10
0.445
 20
0.2179449471770338
 10
0.4399999999999999
 20
0.2279802623035601
 10
0.4349999999999999
 20
0.2374868417407584
 10
0.4299999999999999
 20
0.2465258607124211
 10
0.4249999999999999
 20
0.2551470164434615
 10
0.4199999999999999
 20
0.2633913438213186
 10
0.4149999999999999
 20
0.2712931993250108
 10
0.4099999999999999
 20
0.2788816953476869
 10
0.4049999999999999
 20
0.2861817604250838
 10
0.3999999999999999
 20
0.2932149382279151
 10
0.3949999999999999
 20
0.3000000000000002
 10
0.3899999999999999
 20
0.3065534211193868
 10
0.3849999999999999
 20
0.3128897569432404
 10
0.3799999999999999
 20
0.3190219428189855
 10
0.3749999999999999
 20
0.3249615361854385
 10
0.3699999999999999
 20
0.330718913883074
 10
0.3649999999999999
 20
0.3363034344160049
 10
0.3599999999999999
 20
0.3417235724968357
 10
0.3549999999999999
 20
0.3469870314579496
 10
0.3535533905932738
 20
0.3535533905932738
 97
        0
 75
     0
 76
     1
 98
        0
  0
CIRCLE
  5
127
330
125
100
AcDbEntity
  8
0
  6
Continuous
 62
     0
370
    -2
390
5F
100
AcDbCircle
 10
0.0
 20
0.0
 30
0.0
 40
0.5
  0
ENDBLK
  5
129
330
125
100
AcDbEntity
  8
0
100
AcDbBlockEnd
  0
BLOCK
  5
12E
330
12A
100
AcDbEntity
  8
0
100
AcDbBlockBegin
  2
CDWK_PTTYP38
 70
     0
 10
0.0
 20
0.0
 30
0.0
  3
CDWK_PTTYP38
  1

  0
HATCH
  5
12B
330
12A
100
AcDbEntity
  8
0
  6
Continuous
 62
     0
370
    -2
390
5F
100
AcDbHatch
 10
0.0
 20
0.0
 30
0.0
210
0.0
220
0.0
230
1.0
  2
SOLID
 70
     1
 71
     0
 91
        1
 92
        3
 72
     0
 73
     1
 93
      102
 10
0.0
 20
0.0
 10
0.0
 20
0.5
 10
0.005
 20
0.5
 10
0.01
 20
0.4999749993749688
 10
0.015
 20
0.4998999899979995
 10
0.02
 20
0.4997749493522059
 10
0.025
 20
0.4995998398718718
 10
0.03
 20
0.4993746088859545
 10
0.035
 20
0.4990991885387112
 10
0.04
 20
0.4987734956871706
 10
0.045
 20
0.4983974317750845
 10
0.05
 20
0.4979708826829135
 10
0.055
 20
0.49749371855331
 10
0.06
 20
0.4969657935914704
 10
0.065
 20
0.4963869458396343
 10
0.07
 20
0.4957569969249047
 10
0.075
 20
0.4950757517794626
 10
0.08
 20
0.4943429983321297
 10
0.085
 20
0.4935585071701227
 10
0.09
 20
0.4927220311697053
 10
0.095
 20
0.4918333050943175
 10
0.1
 20
0.4908920451586071
 10
0.105
 20
0.4898979485566356
 10
0.11
 20
0.4888506929523574
 10
0.115
 20
0.4877499359302879
 10
0.12
 20
0.4865953144040744
 10
0.125
 20
0.4853864439804639
 10
0.13
 20
0.4841229182759271
 10
0.135
 20
0.4828043081829325
 10
0.14
 20
0.4814301610825811
 10
0.145
 20
0.48
 10
0.15
 20
0.478513322698543
 10
0.1550000000000001
 20
0.4769696007084728
 10
0.1600000000000001
 20
0.4753682782853731
 10
0.1650000000000001
 20
0.4737087712930804
 10
0.1700000000000001
 20
0.4719904660054056
 10
0.1750000000000001
 20
0.4702127178203498
 10
0.1800000000000001
 20
0.4683748498798799
 10
0.1850000000000001
 20
0.466476151587624
 10
0.1900000000000001
 20
0.4645158770160606
 10
0.1950000000000001
 20
0.4624932431938871
 10
0.2000000000000001
 20
0.460407428263272
 10
0.2050000000000001
 20
0.4582575694955839
 10
0.2100000000000001
 20
0.4560427611529427
 10
0.2150000000000001
 20
0.4537620521815371
 10
0.2200000000000001
 20
0.4514144437210665
 10
0.2250000000000001
 20
0.4489988864128729
 10
0.2300000000000001
 20
0.4465142774872937
 10
0.2350000000000001
 20
0.4439594576084622
 10
0.2400000000000001
 20
0.4413332074521472
 10
0.2450000000000001
 20
0.4386342439892261
 10
0.2500000000000001
 20
0.4358612164439502
 10
0.2550000000000001
 20
0.4330127018922192
 10
0.2600000000000001
 20
0.4300872004605577
 10
0.2650000000000001
 20
0.4270831300812524
 10
0.2700000000000001
 20
0.423998820753077
 10
0.2750000000000001
 20
0.4208325082500162
 10
0.2800000000000001
 20
0.4175823272122516
 10
0.2850000000000001
 20
0.4142463035441595
 10
0.2900000000000001
 20
0.4108223460329293
 10
0.2950000000000002
 20
0.4073082370883259
 10
0.3000000000000002
 20
0.403701622488689
 10
0.3050000000000002
 20
0.3999999999999999
 10
0.3100000000000002
 20
0.3962007067131506
 10
0.3150000000000002
 20
0.3923009049186605
 10
0.3200000000000002
 20
0.3882975663070783
 10
0.3250000000000002
 20
0.3841874542459708
 10
0.3300000000000002
 20
0.3799671038392664
 10
0.3350000000000002
 20
0.3756327994198588
 10
0.3400000000000002
 20
0.3711805490593491
 10
0.3450000000000002
 20
0.366606055596467
 10
0.3500000000000002
 20
0.3619046835839512
 10
0.3550000000000002
 20
0.3570714214271423
 10
0.3600000000000002
 20
0.3521008378291649
 10
0.3650000000000002
 20
0.3469870314579492
 10
0.3700000000000002
 20
0.3417235724968353
 10
0.3750000000000002
 20
0.3363034344160045
 10
0.3800000000000002
 20
0.3307189138830736
 10
0.3850000000000002
 20
0.3249615361854382
 10
0.3900000000000002
 20
0.3190219428189851
 10
0.3950000000000002
 20
0.31288975694324
 10
0.4000000000000002
 20
0.3065534211193863
 10
0.4050000000000002
 20
0.2999999999999997
 10
0.4100000000000003
 20
0.2932149382279147
 10
0.4150000000000003
 20
0.2861817604250834
 10
0.4200000000000003
 20
0.2788816953476864
 10
0.4250000000000003
 20
0.2712931993250103
 10
0.4300000000000003
 20
0.263391343821318
 10
0.4350000000000003
 20
0.255147016443461
 10
0.4400000000000003
 20
0.2465258607124206
 10
0.4450000000000003
 20
0.2374868417407578
 10
0.4500000000000003
 20
0.2279802623035594
 10
0.4550000000000003
 20
0.2179449471770331
 10
0.4600000000000003
 20
0.2073041244162782
 10
0.4650000000000003
 20
0.1959591794226536
 10
0.4700000000000003
 20
0.1837797594948903
 10
0.4750000000000003
 20
0.170587221092319
 10
0.4800000000000003
 20
0.156124949959959
 10
0.4850000000000003
 20
0.1399999999999989
 10
0.4900000000000003
 20
0.1215524578114309
 10
0.4950000000000003
 20
0.0994987437106604
 10
0.5
 20
0.0
 97
        0
 75
     0
 76
     1
 98
        0
  0
HATCH
  5
12C
330
12A
100
AcDbEntity
  8
0
  6
Continuous
 62
     0
370
    -2
390
5F
100
AcDbHatch
 10
0.0
 20
0.0
 30
0.0
210
0.0
220
0.0
230
1.0
  2
SOLID
 70
     1
 71
     0
 91
        1
 92
        3
 72
     0
 73
     1
 93
      102
 10
0.0
 20
0.0
 10
-0.5
 20
0.0
 10
-0.495
 20
0.0
 10
-0.49
 20
-0.0705336798983295
 10
-0.485
 20
-0.0994987437106621
 10
-0.48
 20
-0.1215524578114322
 10
-0.475
 20
-0.14
 10
-0.47
 20
-0.15612494995996
 10
-0.465
 20
-0.1705872210923199
 10
-0.46
 20
-0.1837797594948911
 10
-0.455
 20
-0.1959591794226544
 10
-0.45
 20
-0.2073041244162789
 10
-0.445
 20
-0.2179449471770338
 10
-0.4399999999999999
 20
-0.2279802623035601
 10
-0.4349999999999999
 20
-0.2374868417407584
 10
-0.4299999999999999
 20
-0.2465258607124211
 10
-0.4249999999999999
 20
-0.2551470164434615
 10
-0.4199999999999999
 20
-0.2633913438213186
 10
-0.4149999999999999
 20
-0.2712931993250108
 10
-0.4099999999999999
 20
-0.2788816953476869
 10
-0.4049999999999999
 20
-0.2861817604250838
 10
-0.3999999999999999
 20
-0.2932149382279151
 10
-0.3949999999999999
 20
-0.3000000000000002
 10
-0.3899999999999999
 20
-0.3065534211193868
 10
-0.3849999999999999
 20
-0.3128897569432404
 10
-0.3799999999999999
 20
-0.3190219428189855
 10
-0.3749999999999999
 20
-0.3249615361854385
 10
-0.3699999999999999
 20
-0.330718913883074
 10
-0.3649999999999999
 20
-0.3363034344160049
 10
-0.3599999999999999
 20
-0.3417235724968357
 10
-0.3549999999999999
 20
-0.3469870314579496
 10
-0.3499999999999999
 20
-0.3521008378291652
 10
-0.3449999999999999
 20
-0.3570714214271427
 10
-0.3399999999999999
 20
-0.3619046835839516
 10
-0.3349999999999999
 20
-0.3666060555964674
 10
-0.3299999999999998
 20
-0.3711805490593494
 10
-0.3249999999999998
 20
-0.3756327994198591
 10
-0.3199999999999998
 20
-0.3799671038392667
 10
-0.3149999999999998
 20
-0.3841874542459711
 10
-0.3099999999999998
 20
-0.3882975663070786
 10
-0.3049999999999998
 20
-0.3923009049186608
 10
-0.2999999999999998
 20
-0.3962007067131507
 10
-0.2949999999999998
 20
-0.4000000000000001
 10
-0.2899999999999998
 20
-0.4037016224886891
 10
-0.2849999999999998
 20
-0.4073082370883261
 10
-0.2799999999999998
 20
-0.4108223460329296
 10
-0.2749999999999998
 20
-0.4142463035441597
 10
-0.2699999999999998
 20
-0.4175823272122518
 10
-0.2649999999999998
 20
-0.4208325082500164
 10
-0.2599999999999998
 20
-0.4239988207530773
 10
-0.2549999999999998
 20
-0.4270831300812526
 10
-0.2499999999999998
 20
-0.4300872004605579
 10
-0.2449999999999998
 20
-0.4330127018922195
 10
-0.2399999999999998
 20
-0.4358612164439503
 10
-0.2349999999999998
 20
-0.4386342439892263
 10
-0.2299999999999998
 20
-0.4413332074521473
 10
-0.2249999999999998
 20
-0.4439594576084624
 10
-0.2199999999999998
 20
-0.4465142774872939
 10
-0.2149999999999997
 20
-0.4489988864128731
 10
-0.2099999999999997
 20
-0.4514144437210667
 10
-0.2049999999999997
 20
-0.4537620521815372
 10
-0.1999999999999997
 20
-0.4560427611529429
 10
-0.1949999999999997
 20
-0.4582575694955841
 10
-0.1899999999999997
 20
-0.4604074282632722
 10
-0.1849999999999997
 20
-0.4624932431938872
 10
-0.1799999999999997
 20
-0.4645158770160608
 10
-0.1749999999999997
 20
-0.4664761515876241
 10
-0.1699999999999997
 20
-0.46837484987988
 10
-0.1649999999999997
 20
-0.47021271782035
 10
-0.1599999999999997
 20
-0.4719904660054058
 10
-0.1549999999999997
 20
-0.4737087712930805
 10
-0.1499999999999997
 20
-0.4753682782853733
 10
-0.1449999999999997
 20
-0.4769696007084729
 10
-0.1399999999999997
 20
-0.4785133226985431
 10
-0.1349999999999997
 20
-0.4800000000000001
 10
-0.1299999999999997
 20
-0.4814301610825812
 10
-0.1249999999999997
 20
-0.4828043081829325
 10
-0.1199999999999997
 20
-0.4841229182759272
 10
-0.1149999999999997
 20
-0.485386443980464
 10
-0.1099999999999997
 20
-0.4865953144040744
 10
-0.1049999999999996
 20
-0.487749935930288
 10
-0.0999999999999996
 20
-0.4888506929523574
 10
-0.0949999999999996
 20
-0.4898979485566357
 10
-0.0899999999999996
 20
-0.4908920451586072
 10
-0.0849999999999996
 20
-0.4918333050943176
 10
-0.0799999999999996
 20
-0.4927220311697053
 10
-0.0749999999999996
 20
-0.4935585071701227
 10
-0.0699999999999996
 20
-0.4943429983321298
 10
-0.0649999999999996
 20
-0.4950757517794626
 10
-0.0599999999999996
 20
-0.4957569969249048
 10
-0.0549999999999996
 20
-0.4963869458396343
 10
-0.0499999999999996
 20
-0.4969657935914705
 10
-0.0449999999999996
 20
-0.49749371855331
 10
-0.0399999999999996
 20
-0.4979708826829135
 10
-0.0349999999999996
 20
-0.4983974317750846
 10
-0.0299999999999996
 20
-0.4987734956871706
 10
-0.0249999999999996
 20
-0.4990991885387112
 10
-0.0199999999999996
 20
-0.4993746088859545
 10
-0.0149999999999996
 20
-0.4995998398718719
 10
-0.0099999999999996
 20
-0.499774949352206
 10
-0.0049999999999996
 20
-0.4998999899979995
 10
0.0
 20
-0.5
 97
        0
 75
     0
 76
     1
 98
        0
  0
CIRCLE
  5
12D
330
12A
100
AcDbEntity
  8
0
  6
Continuous
 62
     0
370
    -2
390
5F
100
AcDbCircle
 10
0.0
 20
0.0
 30
0.0
 40
0.5
  0
ENDBLK
  5
12F
330
12A
100
AcDbEntity
  8
0
100
AcDbBlockEnd
  0
BLOCK
  5
138
330
130
100
AcDbEntity
  8
0
100
AcDbBlockBegin
  2
CDWK_PTTYP41
 70
     0
 10
0.0
 20
0.0
 30
0.0
  3
CDWK_PTTYP41
  1

  0
LINE
  5
131
330
130
100
AcDbEntity
  8
0
  6
Continuous
 62
     0
370
    -2
390
5F
100
AcDbLine
 10
-0.5
 20
0.5
 30
0.0
 11
0.5
 21
0.5
 31
0.0
  0
LINE
  5
132
330
130
100
AcDbEntity
  8
0
  6
Continuous
 62
     0
370
    -2
390
5F
100
AcDbLine
 10
0.5
 20
0.5
 30
0.0
 11
0.5
 21
-0.5
 31
0.0
  0
LINE
  5
133
330
130
100
AcDbEntity
  8
0
  6
Continuous
 62
     0
370
    -2
390
5F
100
AcDbLine
 10
0.5
 20
-0.5
 30
0.0
 11
-0.5
 21
-0.5
 31
0.0
  0
LINE
  5
134
330
130
100
AcDbEntity
  8
0
  6
Continuous
 62
     0
370
    -2
390
5F
100
AcDbLine
 10
-0.5
 20
-0.5
 30
0.0
 11
-0.5
 21
0.5
 31
0.0
  0
LINE
  5
135
330
130
100
AcDbEntity
  8
0
  6
Continuous
 62
     0
370
    -2
390
5F
100
AcDbLine
 10
-0.375
 20
0.25
 30
0.0
 11
0.375
 21
0.25
 31
0.0
  0
LINE
  5
136
330
130
100
AcDbEntity
  8
0
  6
Continuous
 62
     0
370
    -2
390
5F
100
AcDbLine
 10
-0.375
 20
0.0
 30
0.0
 11
0.375
 21
0.0
 31
0.0
  0
LINE
  5
137
330
130
100
AcDbEntity
  8
0
  6
Continuous
 62
     0
370
    -2
390
5F
100
AcDbLine
 10
-0.375
 20
-0.25
 30
0.0
 11
0.375
 21
-0.25
 31
0.0
  0
ENDBLK
  5
139
330
130
100
AcDbEntity
  8
0
100
AcDbBlockEnd
  0
BLOCK
  5
141
330
13A
100
AcDbEntity
  8
0
100
AcDbBlockBegin
  2
CDWK_PTTYP42
 70
     0
 10
0.0
 20
0.0
 30
0.0
  3
CDWK_PTTYP42
  1

  0
LINE
  5
13B
330
13A
100
AcDbEntity
  8
0
  6
Continuous
 62
     0
370
    -2
390
5F
100
AcDbLine
 10
-0.5
 20
0.5
 30
0.0
 11
0.5
 21
0.5
 31
0.0
  0
LINE
  5
13C
330
13A
100
AcDbEntity
  8
0
  6
Continuous
 62
     0
370
    -2
390
5F
100
AcDbLine
 10
0.5
 20
0.5
 30
0.0
 11
0.5
 21
-0.5
 31
0.0
  0
LINE
  5
13D
330
13A
100
AcDbEntity
  8
0
  6
Continuous
 62
     0
370
    -2
390
5F
100
AcDbLine
 10
0.5
 20
-0.5
 30
0.0
 11
-0.5
 21
-0.5
 31
0.0
  0
LINE
  5
13E
330
13A
100
AcDbEntity
  8
0
  6
Continuous
 62
     0
370
    -2
390
5F
100
AcDbLine
 10
-0.5
 20
-0.5
 30
0.0
 11
-0.5
 21
0.5
 31
0.0
  0
LINE
  5
13F
330
13A
100
AcDbEntity
  8
0
  6
Continuous
 62
     0
370
    -2
390
5F
100
AcDbLine
 10
-0.375
 20
0.125
 30
0.0
 11
0.375
 21
0.125
 31
0.0
  0
LINE
  5
140
330
13A
100
AcDbEntity
  8
0
  6
Continuous
 62
     0
370
    -2
390
5F
100
AcDbLine
 10
-0.375
 20
-0.125
 30
0.0
 11
0.375
 21
-0.125
 31
0.0
  0
ENDBLK
  5
142
330
13A
100
AcDbEntity
  8
0
100
AcDbBlockEnd
  0
BLOCK
  5
147
330
143
100
AcDbEntity
  8
0
100
AcDbBlockBegin
  2
CDWK_PTTYP43
 70
     0
 10
0.0
 20
0.0
 30
0.0
  3
CDWK_PTTYP43
  1

  0
CIRCLE
  5
144
330
143
100
AcDbEntity
  8
0
  6
Continuous
 62
     0
370
    -2
390
5F
100
AcDbCircle
 10
0.0
 20
0.0
 30
0.0
 40
0.5
  0
LINE
  5
145
330
143
100
AcDbEntity
  8
0
  6
Continuous
 62
     0
370
    -2
390
5F
100
AcDbLine
 10
-0.375
 20
0.166
 30
0.0
 11
0.375
 21
0.166
 31
0.0
  0
LINE
  5
146
330
143
100
AcDbEntity
  8
0
  6
Continuous
 62
     0
370
    -2
390
5F
100
AcDbLine
 10
-0.375
 20
-0.166
 30
0.0
 11
0.375
 21
-0.166
 31
0.0
  0
ENDBLK
  5
148
330
143
100
AcDbEntity
  8
0
100
AcDbBlockEnd
  0
BLOCK
  5
150
330
149
100
AcDbEntity
  8
0
100
AcDbBlockBegin
  2
CDWK_PTTYP44
 70
     0
 10
0.0
 20
0.0
 30
0.0
  3
CDWK_PTTYP44
  1

  0
CIRCLE
  5
14A
330
149
100
AcDbEntity
  8
0
  6
Continuous
 62
     0
370
    -2
390
5F
100
AcDbCircle
 10
0.0
 20
0.0
 30
0.0
 40
0.5
  0
LINE
  5
14B
330
149
100
AcDbEntity
  8
0
  6
Continuous
 62
     0
370
    -2
390
5F
100
AcDbLine
 10
-0.375
 20
0.333
 30
0.0
 11
0.375
 21
0.333
 31
0.0
  0
LINE
  5
14C
330
149
100
AcDbEntity
  8
0
  6
Continuous
 62
     0
370
    -2
390
5F
100
AcDbLine
 10
-0.375
 20
0.166
 30
0.0
 11
0.375
 21
0.166
 31
0.0
  0
LINE
  5
14D
330
149
100
AcDbEntity
  8
0
  6
Continuous
 62
     0
370
    -2
390
5F
100
AcDbLine
 10
-0.375
 20
0.0
 30
0.0
 11
0.375
 21
0.0
 31
0.0
  0
LINE
  5
14E
330
149
100
AcDbEntity
  8
0
  6
Continuous
 62
     0
370
    -2
390
5F
100
AcDbLine
 10
-0.375
 20
-0.166
 30
0.0
 11
0.375
 21
-0.166
 31
0.0
  0
LINE
  5
14F
330
149
100
AcDbEntity
  8
0
  6
Continuous
 62
     0
370
    -2
390
5F
100
AcDbLine
 10
-0.375
 20
-0.333
 30
0.0
 11
0.375
 21
-0.333
 31
0.0
  0
ENDBLK
  5
151
330
149
100
AcDbEntity
  8
0
100
AcDbBlockEnd
  0
BLOCK
  5
155
330
152
100
AcDbEntity
  8
0
100
AcDbBlockBegin
  2
CDWK_PTTYP45
 70
     0
 10
0.0
 20
0.0
 30
0.0
  3
CDWK_PTTYP45
  1

  0
ELLIPSE
  5
153
330
152
100
AcDbEntity
  8
0
  6
Continuous
 62
     0
370
    -2
390
5F
100
AcDbEllipse
 10
0.0
 20
0.0
 30
0.0
 11
0.5
 21
0.0
 31
0.0
210
0.0
220
0.0
230
1.0
 40
0.82
 41
0.0
 42
6.283185307179586
  0
CIRCLE
  5
154
330
152
100
AcDbEntity
  8
0
  6
Continuous
 62
     0
370
    -2
390
5F
100
AcDbCircle
 10
-0.235
 20
0.0
 30
0.0
 40
0.26
  0
ENDBLK
  5
156
330
152
100
AcDbEntity
  8
0
100
AcDbBlockEnd
  0
BLOCK
  5
15A
330
157
100
AcDbEntity
  8
0
100
AcDbBlockBegin
  2
CDWK_PTTYP46
 70
     0
 10
0.0
 20
0.0
 30
0.0
  3
CDWK_PTTYP46
  1

  0
ELLIPSE
  5
158
330
157
100
AcDbEntity
  8
0
  6
Continuous
 62
     0
370
    -2
390
5F
100
AcDbEllipse
 10
0.0
 20
0.0
 30
0.0
 11
0.5
 21
0.0
 31
0.0
210
0.0
220
0.0
230
1.0
 40
0.82
 41
0.0
 42
6.283185307179586
  0
CIRCLE
  5
159
330
157
100
AcDbEntity
  8
0
  6
Continuous
 62
     0
370
    -2
390
5F
100
AcDbCircle
 10
0.0
 20
0.15
 30
0.0
 40
0.26
  0
ENDBLK
  5
15B
330
157
100
AcDbEntity
  8
0
100
AcDbBlockEnd
  0
BLOCK
  5
162
330
15C
100
AcDbEntity
  8
0
100
AcDbBlockBegin
  2
CDWK_PTTYP47
 70
     0
 10
0.0
 20
0.0
 30
0.0
  3
CDWK_PTTYP47
  1

  0
LINE
  5
15D
330
15C
100
AcDbEntity
  8
0
  6
Continuous
 62
     0
370
    -2
390
5F
100
AcDbLine
 10
-0.5
 20
0.166
 30
0.0
 11
0.5
 21
0.166
 31
0.0
  0
LINE
  5
15E
330
15C
100
AcDbEntity
  8
0
  6
Continuous
 62
     0
370
    -2
390
5F
100
AcDbLine
 10
0.5
 20
0.166
 30
0.0
 11
0.5
 21
-0.166
 31
0.0
  0
LINE
  5
15F
330
15C
100
AcDbEntity
  8
0
  6
Continuous
 62
     0
370
    -2
390
5F
100
AcDbLine
 10
0.5
 20
-0.166
 30
0.0
 11
-0.5
 21
-0.166
 31
0.0
  0
LINE
  5
160
330
15C
100
AcDbEntity
  8
0
  6
Continuous
 62
     0
370
    -2
390
5F
100
AcDbLine
 10
-0.5
 20
-0.166
 30
0.0
 11
-0.5
 21
0.166
 31
0.0
  0
CIRCLE
  5
161
330
15C
100
AcDbEntity
  8
0
  6
Continuous
 62
     0
370
    -2
390
5F
100
AcDbCircle
 10
0.0
 20
-0.313
 30
0.0
 40
0.4
  0
ENDBLK
  5
163
330
15C
100
AcDbEntity
  8
0
100
AcDbBlockEnd
  0
BLOCK
  5
168
330
165
100
AcDbEntity
  8
0
100
AcDbBlockBegin
  2
CDWK_PTTYP48
 70
     0
 10
0.0
 20
0.0
 30
0.0
  3
CDWK_PTTYP48
  1

  0
CIRCLE
  5
166
330
165
100
AcDbEntity
  8
0
  6
CADWORK_3
 62
     0
 48
0.1
370
    -2
390
5F
100
AcDbCircle
 10
0.0
 20
0.0
 30
0.0
 40
0.5
  0
CIRCLE
  5
167
330
165
100
AcDbEntity
  8
0
  6
Continuous
 62
     0
370
    -2
390
5F
100
AcDbCircle
 10
0.0
 20
0.0
 30
0.0
 40
0.25
  0
ENDBLK
  5
169
330
165
100
AcDbEntity
  8
0
100
AcDbBlockEnd
  0
BLOCK
  5
16F
330
16A
100
AcDbEntity
  8
0
100
AcDbBlockBegin
  2
CDWK_PTTYP49
 70
     0
 10
0.0
 20
0.0
 30
0.0
  3
CDWK_PTTYP49
  1

  0
LINE
  5
16B
330
16A
100
AcDbEntity
  8
0
  6
Continuous
 62
     0
370
    -2
390
5F
100
AcDbLine
 10
-0.5
 20
0.166
 30
0.0
 11
0.5
 21
0.166
 31
0.0
  0
LINE
  5
16C
330
16A
100
AcDbEntity
  8
0
  6
Continuous
 62
     0
370
    -2
390
5F
100
AcDbLine
 10
0.5
 20
0.166
 30
0.0
 11
0.5
 21
-0.166
 31
0.0
  0
LINE
  5
16D
330
16A
100
AcDbEntity
  8
0
  6
Continuous
 62
     0
370
    -2
390
5F
100
AcDbLine
 10
0.5
 20
-0.166
 30
0.0
 11
-0.5
 21
-0.166
 31
0.0
  0
LINE
  5
16E
330
16A
100
AcDbEntity
  8
0
  6
Continuous
 62
     0
370
    -2
390
5F
100
AcDbLine
 10
-0.5
 20
-0.166
 30
0.0
 11
-0.5
 21
0.166
 31
0.0
  0
ENDBLK
  5
170
330
16A
100
AcDbEntity
  8
0
100
AcDbBlockEnd
  0
BLOCK
  5
179
330
171
100
AcDbEntity
  8
0
100
AcDbBlockBegin
  2
CDWK_PTTYP50
 70
     0
 10
0.0
 20
0.0
 30
0.0
  3
CDWK_PTTYP50
  1

  0
LINE
  5
172
330
171
100
AcDbEntity
  8
0
  6
Continuous
 62
     0
370
    -2
390
5F
100
AcDbLine
 10
-0.5
 20
0.166
 30
0.0
 11
0.5
 21
0.166
 31
0.0
  0
LINE
  5
173
330
171
100
AcDbEntity
  8
0
  6
Continuous
 62
     0
370
    -2
390
5F
100
AcDbLine
 10
0.5
 20
0.166
 30
0.0
 11
0.5
 21
-0.166
 31
0.0
  0
LINE
  5
174
330
171
100
AcDbEntity
  8
0
  6
Continuous
 62
     0
370
    -2
390
5F
100
AcDbLine
 10
0.5
 20
-0.166
 30
0.0
 11
-0.5
 21
-0.166
 31
0.0
  0
LINE
  5
175
330
171
100
AcDbEntity
  8
0
  6
Continuous
 62
     0
370
    -2
390
5F
100
AcDbLine
 10
-0.5
 20
-0.166
 30
0.0
 11
-0.5
 21
0.166
 31
0.0
  0
LINE
  5
176
330
171
100
AcDbEntity
  8
0
  6
Continuous
 62
     0
370
    -2
390
5F
100
AcDbLine
 10
-0.25
 20
-0.166
 30
0.0
 11
-0.25
 21
0.166
 31
0.0
  0
LINE
  5
177
330
171
100
AcDbEntity
  8
0
  6
Continuous
 62
     0
370
    -2
390
5F
100
AcDbLine
 10
0.0
 20
-0.166
 30
0.0
 11
0.0
 21
0.166
 31
0.0
  0
LINE
  5
178
330
171
100
AcDbEntity
  8
0
  6
Continuous
 62
     0
370
    -2
390
5F
100
AcDbLine
 10
0.25
 20
-0.166
 30
0.0
 11
0.25
 21
0.166
 31
0.0
  0
ENDBLK
  5
17A
330
171
100
AcDbEntity
  8
0
100
AcDbBlockEnd
  0
BLOCK
  5
17E
330
17B
100
AcDbEntity
  8
0
100
AcDbBlockBegin
  2
CDWK_PTTYP51
 70
     0
 10
0.0
 20
0.0
 30
0.0
  3
CDWK_PTTYP51
  1

  0
SPLINE
  5
17C
330
17B
100
AcDbEntity
  8
0
  6
Continuous
 62
     0
370
    -2
390
5F
100
AcDbSpline
210
0.0
220
0.0
230
1.0
 70
  1064
 71
     3
 72
    12
 73
     8
 74
     6
 42
0.0000000001
 43
0.0000000001
 44
0.0000000001
 40
0.0
 40
0.0
 40
0.0
 40
0.0
 40
0.1690118339052032
 40
0.5175774661755118
 40
0.8011704844252565
 40
0.9154070810132151
 40
0.975822310881188
 40
0.975822310881188
 40
0.975822310881188
 40
0.975822310881188
 10
-0.5
 20
-0.077
 30
0.0
 10
-0.443824324006723
 20
-0.0900581618560981
 30
0.0
 10
-0.2717933876546281
 20
-0.1300471387828842
 30
0.0
 10
-0.0276699186086479
 20
-0.0006977790990417
 30
0.0
 10
0.2303349729129116
 20
0.0817803270207037
 30
0.0
 10
0.3686157174766292
 20
0.0066250198607167
 30
0.0
 10
0.4216533294581816
 20
-0.0168719667726145
 30
0.0
 10
0.44
 20
-0.025
 30
0.0
 11
-0.5
 21
-0.077
 31
0.0
 11
-0.333
 21
-0.103
 31
0.0
 11
0.0
 21
0.0
 31
0.0
 11
0.28
 21
0.045
 31
0.0
 11
0.385
 21
0.0
 31
0.0
 11
0.44
 21
-0.025
 31
0.0
  0
HATCH
  5
17D
330
17B
100
AcDbEntity
  8
0
  6
Continuous
 62
     0
370
    -2
390
5F
100
AcDbHatch
 10
0.0
 20
0.0
 30
0.0
210
0.0
220
0.0
230
1.0
  2
SOLID
 70
     1
 71
     0
 91
        1
 92
        3
 72
     0
 73
     1
 93
        3
 10
0.365
 20
-0.05
 10
0.5
 20
-0.042
 10
0.395
 20
0.045
 97
        0
 75
     0
 76
     1
 98
        0
  0
ENDBLK
  5
17F
330
17B
100
AcDbEntity
  8
0
100
AcDbBlockEnd
  0
BLOCK
  5
184
330
180
100
AcDbEntity
  8
0
100
AcDbBlockBegin
  2
CDWK_PTTYP52
 70
     0
 10
0.0
 20
0.0
 30
0.0
  3
CDWK_PTTYP52
  1

  0
LINE
  5
181
330
180
100
AcDbEntity
  8
0
  6
Continuous
 62
     0
370
    -2
390
5F
100
AcDbLine
 10
-0.5
 20
-0.289
 30
0.0
 11
0.5
 21
-0.289
 31
0.0
  0
LINE
  5
182
330
180
100
AcDbEntity
  8
0
  6
Continuous
 62
     0
370
    -2
390
5F
100
AcDbLine
 10
0.5
 20
-0.289
 30
0.0
 11
0.0
 21
0.577
 31
0.0
  0
LINE
  5
183
330
180
100
AcDbEntity
  8
0
  6
Continuous
 62
     0
370
    -2
390
5F
100
AcDbLine
 10
0.0
 20
0.577
 30
0.0
 11
-0.5
 21
-0.289
 31
0.0
  0
ENDBLK
  5
185
330
180
100
AcDbEntity
  8
0
100
AcDbBlockEnd
  0
BLOCK
  5
18B
330
186
100
AcDbEntity
  8
0
100
AcDbBlockBegin
  2
cw-dimension-symbol1
 70
     0
 10
0.0
 20
0.0
 30
0.0
  3
cw-dimension-symbol1
  1

  0
LINE
  5
187
330
186
100
AcDbEntity
  8
0
  6
Continuous
 62
     0
370
    -2
390
5F
100
AcDbLine
 10
0.0
 20
0.0
 30
0.0
 11
-1.0
 21
0.25
 31
0.0
  0
LINE
  5
188
330
186
100
AcDbEntity
  8
0
  6
Continuous
 62
     0
370
    -2
390
5F
100
AcDbLine
 10
0.0
 20
0.0
 30
0.0
 11
-1.0
 21
-0.25
 31
0.0
  0
LINE
  5
189
330
186
100
AcDbEntity
  8
0
  6
Continuous
 62
     0
370
    -2
390
5F
100
AcDbLine
 10
-1.0
 20
0.25
 30
0.0
 11
-1.0
 21
-0.25
 31
0.0
  0
LINE
  5
18A
330
186
100
AcDbEntity
  8
0
  6
Continuous
 62
     0
370
    -2
390
5F
100
AcDbLine
 10
0.0
 20
0.0
 30
0.0
 11
-1.0
 21
0.0
 31
0.0
  0
ENDBLK
  5
18C
330
186
100
AcDbEntity
  8
0
100
AcDbBlockEnd
  0
BLOCK
  5
190
330
18D
100
AcDbEntity
  8
0
100
AcDbBlockBegin
  2
cw-dimension-symbol2
 70
     0
 10
0.0
 20
0.0
 30
0.0
  3
cw-dimension-symbol2
  1

  0
LINE
  5
18E
330
18D
100
AcDbEntity
  8
0
  6
Continuous
 62
     0
370
    -2
390
5F
100
AcDbLine
 10
-1.0
 20
0.0
 30
0.0
 11
1.0
 21
0.0
 31
0.0
  0
LINE
  5
18F
330
18D
100
AcDbEntity
  8
0
  6
Continuous
 62
     0
370
    -2
390
5F
100
AcDbLine
 10
-0.5
 20
-0.5
 30
0.0
 11
0.5
 21
0.5
 31
0.0
  0
ENDBLK
  5
191
330
18D
100
AcDbEntity
  8
0
100
AcDbBlockEnd
  0
BLOCK
  5
195
330
192
100
AcDbEntity
  8
0
100
AcDbBlockBegin
  2
cw-dimension-symbol3
 70
     0
 10
0.0
 20
0.0
 30
0.0
  3
cw-dimension-symbol3
  1

  0
LINE
  5
193
330
192
100
AcDbEntity
  8
0
  6
Continuous
 62
     0
370
    -2
390
5F
100
AcDbLine
 10
-1.0
 20
0.0
 30
0.0
 11
1.0
 21
0.0
 31
0.0
  0
CIRCLE
  5
194
330
192
100
AcDbEntity
  8
0
  6
Continuous
 62
     0
370
    -2
390
5F
100
AcDbCircle
 10
0.0
 20
0.0
 30
0.0
 40
0.25
  0
ENDBLK
  5
196
330
192
100
AcDbEntity
  8
0
100
AcDbBlockEnd
  0
BLOCK
  5
19C
330
197
100
AcDbEntity
  8
0
100
AcDbBlockBegin
  2
cw-dimension-symbol5
 70
     0
 10
0.0
 20
0.0
 30
0.0
  3
cw-dimension-symbol5
  1

  0
HATCH
  5
198
330
197
100
AcDbEntity
  8
0
  6
Continuous
 62
     0
370
    -2
390
5F
100
AcDbHatch
 10
0.0
 20
0.0
 30
0.0
210
0.0
220
0.0
230
1.0
  2
SOLID
 70
     1
 71
     0
 91
        1
 92
        3
 72
     0
 73
     1
 93
        3
 10
0.0
 20
0.0
 10
-1.0
 20
0.25
 10
-1.0
 20
-0.25
 97
        0
 75
     0
 76
     1
 98
        0
  0
LINE
  5
199
330
197
100
AcDbEntity
  8
0
  6
Continuous
 62
     0
370
    -2
390
5F
100
AcDbLine
 10
0.0
 20
0.0
 30
0.0
 11
-1.0
 21
0.25
 31
0.0
  0
LINE
  5
19A
330
197
100
AcDbEntity
  8
0
  6
Continuous
 62
     0
370
    -2
390
5F
100
AcDbLine
 10
-1.0
 20
0.25
 30
0.0
 11
-1.0
 21
-0.25
 31
0.0
  0
LINE
  5
19B
330
197
100
AcDbEntity
  8
0
  6
Continuous
 62
     0
370
    -2
390
5F
100
AcDbLine
 10
-1.0
 20
-0.25
 30
0.0
 11
0.0
 21
0.0
 31
0.0
  0
ENDBLK
  5
19D
330
197
100
AcDbEntity
  8
0
100
AcDbBlockEnd
  0
BLOCK
  5
1A2
330
19E
100
AcDbEntity
  8
0
100
AcDbBlockBegin
  2
cw-dimension-symbol6
 70
     0
 10
0.0
 20
0.0
 30
0.0
  3
cw-dimension-symbol6
  1

  0
LINE
  5
19F
330
19E
100
AcDbEntity
  8
0
  6
Continuous
 62
     0
370
    -2
390
5F
100
AcDbLine
 10
0.0
 20
0.0
 30
0.0
 11
-1.0
 21
0.25
 31
0.0
  0
LINE
  5
1A0
330
19E
100
AcDbEntity
  8
0
  6
Continuous
 62
     0
370
    -2
390
5F
100
AcDbLine
 10
0.0
 20
0.0
 30
0.0
 11
-1.0
 21
-0.25
 31
0.0
  0
LINE
  5
1A1
330
19E
100
AcDbEntity
  8
0
  6
Continuous
 62
     0
370
    -2
390
5F
100
AcDbLine
 10
0.0
 20
0.0
 30
0.0
 11
-1.0
 21
0.0
 31
0.0
  0
ENDBLK
  5
1A3
330
19E
100
AcDbEntity
  8
0
100
AcDbBlockEnd
  0
BLOCK
  5
1A8
330
1A4
100
AcDbEntity
  8
0
100
AcDbBlockBegin
  2
cw-dimension-symbol11
 70
     0
 10
0.0
 20
0.0
 30
0.0
  3
cw-dimension-symbol11
  1

  0
LINE
  5
1A5
330
1A4
100
AcDbEntity
  8
0
  6
Continuous
 62
     0
370
    -2
390
5F
100
AcDbLine
 10
-1.0
 20
1.0
 30
0.0
 11
1.0
 21
1.0
 31
0.0
  0
LINE
  5
1A6
330
1A4
100
AcDbEntity
  8
0
  6
Continuous
 62
     0
370
    -2
390
5F
100
AcDbLine
 10
0.0
 20
0.0
 30
0.0
 11
-1.0
 21
1.0
 31
0.0
  0
LINE
  5
1A7
330
1A4
100
AcDbEntity
  8
0
  6
Continuous
 62
     0
370
    -2
390
5F
100
AcDbLine
 10
0.0
 20
0.0
 30
0.0
 11
1.0
 21
1.0
 31
0.0
  0
ENDBLK
  5
1A9
330
1A4
100
AcDbEntity
  8
0
100
AcDbBlockEnd
  0
BLOCK
  5
1AE
330
1AA
100
AcDbEntity
  8
0
100
AcDbBlockBegin
  2
cw-dimension-symbol13
 70
     0
 10
0.0
 20
0.0
 30
0.0
  3
cw-dimension-symbol13
  1

  0
LINE
  5
1AB
330
1AA
100
AcDbEntity
  8
0
  6
Continuous
 62
     0
370
    -2
390
5F
100
AcDbLine
 10
-1.0
 20
-1.0
 30
0.0
 11
1.0
 21
-1.0
 31
0.0
  0
LINE
  5
1AC
330
1AA
100
AcDbEntity
  8
0
  6
Continuous
 62
     0
370
    -2
390
5F
100
AcDbLine
 10
0.0
 20
0.0
 30
0.0
 11
-1.0
 21
-1.0
 31
0.0
  0
LINE
  5
1AD
330
1AA
100
AcDbEntity
  8
0
  6
Continuous
 62
     0
370
    -2
390
5F
100
AcDbLine
 10
0.0
 20
0.0
 30
0.0
 11
1.0
 21
-1.0
 31
0.0
  0
ENDBLK
  5
1AF
330
1AA
100
AcDbEntity
  8
0
100
AcDbBlockEnd
  0
BLOCK
  5
1B5
330
1B0
100
AcDbEntity
  8
0
100
AcDbBlockBegin
  2
cw-dimension-symbol15
 70
     0
 10
0.0
 20
0.0
 30
0.0
  3
cw-dimension-symbol15
  1

  0
HATCH
  5
1B1
330
1B0
100
AcDbEntity
  8
0
  6
Continuous
 62
     0
370
    -2
390
5F
100
AcDbHatch
 10
0.0
 20
0.0
 30
0.0
210
0.0
220
0.0
230
1.0
  2
SOLID
 70
     1
 71
     0
 91
        1
 92
        3
 72
     0
 73
     1
 93
        3
 10
0.0
 20
0.0
 10
-1.0
 20
1.0
 10
1.0
 20
1.0
 97
        0
 75
     0
 76
     1
 98
        0
  0
LINE
  5
1B2
330
1B0
100
AcDbEntity
  8
0
  6
Continuous
 62
     0
370
    -2
390
5F
100
AcDbLine
 10
0.0
 20
0.0
 30
0.0
 11
-1.0
 21
1.0
 31
0.0
  0
LINE
  5
1B3
330
1B0
100
AcDbEntity
  8
0
  6
Continuous
 62
     0
370
    -2
390
5F
100
AcDbLine
 10
-1.0
 20
1.0
 30
0.0
 11
1.0
 21
1.0
 31
0.0
  0
LINE
  5
1B4
330
1B0
100
AcDbEntity
  8
0
  6
Continuous
 62
     0
370
    -2
390
5F
100
AcDbLine
 10
1.0
 20
1.0
 30
0.0
 11
0.0
 21
0.0
 31
0.0
  0
ENDBLK
  5
1B6
330
1B0
100
AcDbEntity
  8
0
100
AcDbBlockEnd
  0
BLOCK
  5
1BC
330
1B7
100
AcDbEntity
  8
0
100
AcDbBlockBegin
  2
cw-dimension-symbol16
 70
     0
 10
0.0
 20
0.0
 30
0.0
  3
cw-dimension-symbol16
  1

  0
HATCH
  5
1B8
330
1B7
100
AcDbEntity
  8
0
  6
Continuous
 62
     0
370
    -2
390
5F
100
AcDbHatch
 10
0.0
 20
0.0
 30
0.0
210
0.0
220
0.0
230
1.0
  2
SOLID
 70
     1
 71
     0
 91
        1
 92
        3
 72
     0
 73
     1
 93
        3
 10
0.0
 20
0.0
 10
-1.0
 20
-1.0
 10
1.0
 20
-1.0
 97
        0
 75
     0
 76
     1
 98
        0
  0
LINE
  5
1B9
330
1B7
100
AcDbEntity
  8
0
  6
Continuous
 62
     0
370
    -2
390
5F
100
AcDbLine
 10
0.0
 20
0.0
 30
0.0
 11
-1.0
 21
-1.0
 31
0.0
  0
LINE
  5
1BA
330
1B7
100
AcDbEntity
  8
0
  6
Continuous
 62
     0
370
    -2
390
5F
100
AcDbLine
 10
-1.0
 20
-1.0
 30
0.0
 11
1.0
 21
-1.0
 31
0.0
  0
LINE
  5
1BB
330
1B7
100
AcDbEntity
  8
0
  6
Continuous
 62
     0
370
    -2
390
5F
100
AcDbLine
 10
1.0
 20
-1.0
 30
0.0
 11
0.0
 21
0.0
 31
0.0
  0
ENDBLK
  5
1BD
330
1B7
100
AcDbEntity
  8
0
100
AcDbBlockEnd
  0
BLOCK
  5
1C3
330
1BE
100
AcDbEntity
  8
0
100
AcDbBlockBegin
  2
cw-dimension-symbol17
 70
     0
 10
0.0
 20
0.0
 30
0.0
  3
cw-dimension-symbol17
  1

  0
LINE
  5
1BF
330
1BE
100
AcDbEntity
  8
0
  6
Continuous
 62
     0
370
    -2
390
5F
100
AcDbLine
 10
0.0
 20
0.0
 30
0.0
 11
1.0
 21
1.0
 31
0.0
  0
LINE
  5
1C0
330
1BE
100
AcDbEntity
  8
0
  6
Continuous
 62
     0
370
    -2
390
5F
100
AcDbLine
 10
1.0
 20
1.0
 30
0.0
 11
-1.0
 21
1.0
 31
0.0
  0
LINE
  5
1C1
330
1BE
100
AcDbEntity
  8
0
  6
Continuous
 62
     0
370
    -2
390
5F
100
AcDbLine
 10
-1.0
 20
1.0
 30
0.0
 11
0.0
 21
0.0
 31
0.0
  0
HATCH
  5
1C2
330
1BE
100
AcDbEntity
  8
0
  6
Continuous
 62
     0
370
    -2
390
5F
100
AcDbHatch
 10
0.0
 20
0.0
 30
0.0
210
0.0
220
0.0
230
1.0
  2
SOLID
 70
     1
 71
     0
 91
        1
 92
        3
 72
     0
 73
     1
 93
        3
 10
0.0
 20
0.0
 10
-1.0
 20
1.0
 10
0.0
 20
1.0
 97
        0
 75
     0
 76
     1
 98
        0
  0
ENDBLK
  5
1C4
330
1BE
100
AcDbEntity
  8
0
100
AcDbBlockEnd
  0
BLOCK
  5
1CA
330
1C5
100
AcDbEntity
  8
0
100
AcDbBlockBegin
  2
cw-dimension-symbol18
 70
     0
 10
0.0
 20
0.0
 30
0.0
  3
cw-dimension-symbol18
  1

  0
LINE
  5
1C6
330
1C5
100
AcDbEntity
  8
0
  6
Continuous
 62
     0
370
    -2
390
5F
100
AcDbLine
 10
0.0
 20
0.0
 30
0.0
 11
1.0
 21
-1.0
 31
0.0
  0
LINE
  5
1C7
330
1C5
100
AcDbEntity
  8
0
  6
Continuous
 62
     0
370
    -2
390
5F
100
AcDbLine
 10
1.0
 20
-1.0
 30
0.0
 11
-1.0
 21
-1.0
 31
0.0
  0
LINE
  5
1C8
330
1C5
100
AcDbEntity
  8
0
  6
Continuous
 62
     0
370
    -2
390
5F
100
AcDbLine
 10
-1.0
 20
-1.0
 30
0.0
 11
0.0
 21
0.0
 31
0.0
  0
HATCH
  5
1C9
330
1C5
100
AcDbEntity
  8
0
  6
Continuous
 62
     0
370
    -2
390
5F
100
AcDbHatch
 10
0.0
 20
0.0
 30
0.0
210
0.0
220
0.0
230
1.0
  2
SOLID
 70
     1
 71
     0
 91
        1
 92
        3
 72
     0
 73
     1
 93
        3
 10
0.0
 20
0.0
 10
-1.0
 20
-1.0
 10
0.0
 20
-1.0
 97
        0
 75
     0
 76
     1
 98
        0
  0
ENDBLK
  5
1CB
330
1C5
100
AcDbEntity
  8
0
100
AcDbBlockEnd
  0
BLOCK
  5
1CD
330
1CC
100
AcDbEntity
  8
0
100
AcDbBlockBegin
  2
cw-dimension-symbol19
 70
     0
 10
0.0
 20
0.0
 30
0.0
  3
cw-dimension-symbol19
  1

  0
ENDBLK
  5
1CE
330
1CC
100
AcDbEntity
  8
0
100
AcDbBlockEnd
  0
BLOCK
  5
1D4
330
1CF
100
AcDbEntity
  8
0
100
AcDbBlockBegin
  2
cw-dimension-symbol20
 70
     0
 10
0.0
 20
0.0
 30
0.0
  3
cw-dimension-symbol20
  1

  0
LINE
  5
1D0
330
1CF
100
AcDbEntity
  8
0
  6
Continuous
 62
     0
370
    -2
390
5F
100
AcDbLine
 10
0.0
 20
0.0
 30
0.0
 11
0.0
 21
2.0
 31
0.0
  0
LINE
  5
1D1
330
1CF
100
AcDbEntity
  8
0
  6
Continuous
 62
     0
370
    -2
390
5F
100
AcDbLine
 10
0.0
 20
0.0
 30
0.0
 11
-1.0
 21
0.33
 31
0.0
  0
LINE
  5
1D2
330
1CF
100
AcDbEntity
  8
0
  6
Continuous
 62
     0
370
    -2
390
5F
100
AcDbLine
 10
0.0
 20
0.0
 30
0.0
 11
1.0
 21
0.33
 31
0.0
  0
LINE
  5
1D3
330
1CF
100
AcDbEntity
  8
0
  6
Continuous
 62
     0
370
    -2
390
5F
100
AcDbLine
 10
0.0
 20
2.0
 30
0.0
 11
4.15
 21
2.0
 31
0.0
  0
ENDBLK
  5
1D5
330
1CF
100
AcDbEntity
  8
0
100
AcDbBlockEnd
  0
BLOCK
  5
1DB
330
1D6
100
AcDbEntity
  8
0
100
AcDbBlockBegin
  2
cw-dimension-symbol21
 70
     0
 10
0.0
 20
0.0
 30
0.0
  3
cw-dimension-symbol21
  1

  0
LINE
  5
1D7
330
1D6
100
AcDbEntity
  8
0
  6
Continuous
 62
     0
370
    -2
390
5F
100
AcDbLine
 10
0.0
 20
0.0
 30
0.0
 11
0.0
 21
-2.0
 31
0.0
  0
LINE
  5
1D8
330
1D6
100
AcDbEntity
  8
0
  6
Continuous
 62
     0
370
    -2
390
5F
100
AcDbLine
 10
0.0
 20
0.0
 30
0.0
 11
-1.0
 21
-0.33
 31
0.0
  0
LINE
  5
1D9
330
1D6
100
AcDbEntity
  8
0
  6
Continuous
 62
     0
370
    -2
390
5F
100
AcDbLine
 10
0.0
 20
0.0
 30
0.0
 11
1.0
 21
-0.33
 31
0.0
  0
LINE
  5
1DA
330
1D6
100
AcDbEntity
  8
0
  6
Continuous
 62
     0
370
    -2
390
5F
100
AcDbLine
 10
0.0
 20
-2.0
 30
0.0
 11
4.15
 21
-2.0
 31
0.0
  0
ENDBLK
  5
1DC
330
1D6
100
AcDbEntity
  8
0
100
AcDbBlockEnd
  0
BLOCK
  5
20D
330
1DD
100
AcDbEntity
  8
0
100
AcDbBlockBegin
  2
cw-line-extremity0
 70
     0
 10
0.0
 20
0.0
 30
0.0
  3
cw-line-extremity0
  1

  0
LINE
  5
1DE
330
1DD
100
AcDbEntity
  8
0
  6
Continuous
 62
     0
370
    -2
390
5F
100
AcDbLine
 10
0.0
 20
0.0
 30
0.0
 11
10.0
 21
2.5
 31
0.0
  0
LINE
  5
1DF
330
1DD
100
AcDbEntity
  8
0
  6
Continuous
 62
     0
370
    -2
390
5F
100
AcDbLine
 10
0.0
 20
0.0
 30
0.0
 11
10.0
 21
-2.5
 31
0.0
  0
LINE
  5
1E0
330
1DD
100
AcDbEntity
  8
0
  6
Continuous
 62
     0
370
    -2
390
5F
100
AcDbLine
 10
10.0
 20
2.5
 30
0.0
 11
10.0
 21
-2.5
 31
0.0
  0
ENDBLK
  5
20E
330
1DD
100
AcDbEntity
  8
0
100
AcDbBlockEnd
  0
BLOCK
  5
20B
330
1E1
100
AcDbEntity
  8
0
100
AcDbBlockBegin
  2
cw-line-extremity2
 70
     0
 10
0.0
 20
0.0
 30
0.0
  3
cw-line-extremity2
  1

  0
HATCH
  5
1E2
330
1E1
100
AcDbEntity
  8
0
  6
Continuous
 62
     0
370
     0
390
5F
100
AcDbHatch
 10
0.0
 20
0.0
 30
0.0
210
0.0
220
0.0
230
1.0
  2
SOLID
 70
     1
 71
     0
 91
        1
 92
        3
 72
     0
 73
     1
 93
        3
 10
0.0
 20
0.0
 10
10.0
 20
2.5
 10
10.0
 20
-2.5
 97
        0
 75
     0
 76
     1
 98
        0
  0
LINE
  5
1E3
330
1E1
100
AcDbEntity
  8
0
  6
Continuous
 62
     0
370
    -2
390
5F
100
AcDbLine
 10
0.0
 20
0.0
 30
0.0
 11
10.0
 21
2.5
 31
0.0
  0
LINE
  5
1E4
330
1E1
100
AcDbEntity
  8
0
  6
Continuous
 62
     0
370
    -2
390
5F
100
AcDbLine
 10
10.0
 20
2.5
 30
0.0
 11
10.0
 21
-2.5
 31
0.0
  0
LINE
  5
1E5
330
1E1
100
AcDbEntity
  8
0
  6
Continuous
 62
     0
370
    -2
390
5F
100
AcDbLine
 10
10.0
 20
-2.5
 30
0.0
 11
0.0
 21
0.0
 31
0.0
  0
ENDBLK
  5
20C
330
1E1
100
AcDbEntity
  8
0
100
AcDbBlockEnd
  0
BLOCK
  5
209
330
1E6
100
AcDbEntity
  8
0
100
AcDbBlockBegin
  2
cw-line-extremity3
 70
     0
 10
0.0
 20
0.0
 30
0.0
  3
cw-line-extremity3
  1

  0
HATCH
  5
1E7
330
1E6
100
AcDbEntity
  8
0
  6
Continuous
 62
     0
370
     0
390
5F
100
AcDbHatch
 10
0.0
 20
0.0
 30
0.0
210
0.0
220
0.0
230
1.0
  2
SOLID
 70
     1
 71
     0
 91
        1
 92
        3
 72
     0
 73
     1
 93
        3
 10
0.0
 20
0.0
 10
10.0
 20
2.5
 10
10.0
 20
-2.5
 97
        0
 75
     0
 76
     1
 98
        0
  0
LINE
  5
1E8
330
1E6
100
AcDbEntity
  8
0
  6
Continuous
 62
     0
370
    -2
390
5F
100
AcDbLine
 10
0.0
 20
0.0
 30
0.0
 11
10.0
 21
2.5
 31
0.0
  0
LINE
  5
1E9
330
1E6
100
AcDbEntity
  8
0
  6
Continuous
 62
     0
370
    -2
390
5F
100
AcDbLine
 10
10.0
 20
2.5
 30
0.0
 11
10.0
 21
-2.5
 31
0.0
  0
LINE
  5
1EA
330
1E6
100
AcDbEntity
  8
0
  6
Continuous
 62
     0
370
    -2
390
5F
100
AcDbLine
 10
10.0
 20
-2.5
 30
0.0
 11
0.0
 21
0.0
 31
0.0
  0
ENDBLK
  5
20A
330
1E6
100
AcDbEntity
  8
0
100
AcDbBlockEnd
  0
BLOCK
  5
207
330
1EB
100
AcDbEntity
  8
0
100
AcDbBlockBegin
  2
cw-line-extremity301
 70
     0
 10
0.0
 20
0.0
 30
0.0
  3
cw-line-extremity301
  1

  0
LINE
  5
1EC
330
1EB
100
AcDbEntity
  8
0
  6
Continuous
 62
     0
370
    -2
390
5F
100
AcDbLine
 10
0.0
 20
6.66665
 30
0.0
 11
0.0
 21
-6.66665
 31
0.0
  0
ENDBLK
  5
208
330
1EB
100
AcDbEntity
  8
0
100
AcDbBlockEnd
  0
BLOCK
  5
205
330
1ED
100
AcDbEntity
  8
0
100
AcDbBlockBegin
  2
cw-line-extremity4
 70
     0
 10
0.0
 20
0.0
 30
0.0
  3
cw-line-extremity4
  1

  0
HATCH
  5
1EE
330
1ED
100
AcDbEntity
  8
0
  6
Continuous
 62
     0
370
     5
390
5F
100
AcDbHatch
 10
0.0
 20
0.0
 30
0.0
210
0.0
220
0.0
230
1.0
  2
SOLID
 70
     1
 71
     0
 91
        1
 92
        1
 93
        1
 72
     2
 10
0.0
 20
0.0
 40
2.5
 50
0.0
 51
360.0
 73
     1
 97
        0
 75
     0
 76
     1
 98
        0
  0
ENDBLK
  5
206
330
1ED
100
AcDbEntity
  8
0
100
AcDbBlockEnd
  0
BLOCK
  5
203
330
1EF
100
AcDbEntity
  8
0
100
AcDbBlockBegin
  2
cw-line-extremity5
 70
     0
 10
0.0
 20
0.0
 30
0.0
  3
cw-line-extremity5
  1

  0
LINE
  5
1F0
330
1EF
100
AcDbEntity
  8
0
  6
Continuous
 62
     0
370
    -2
390
5F
100
AcDbLine
 10
0.0
 20
0.0
 30
0.0
 11
-2.5
 21
0.0
 31
0.0
  0
ENDBLK
  5
204
330
1EF
100
AcDbEntity
  8
0
100
AcDbBlockEnd
  0
BLOCK
  5
201
330
1F1
100
AcDbEntity
  8
0
100
AcDbBlockBegin
  2
cw-line-extremity6
 70
     0
 10
0.0
 20
0.0
 30
0.0
  3
cw-line-extremity6
  1

  0
LINE
  5
1F2
330
1F1
100
AcDbEntity
  8
0
  6
Continuous
 62
     0
370
    18
390
5F
100
AcDbLine
 10
0.0
 20
2.5
 30
0.0
 11
0.0
 21
-2.5
 31
0.0
  0
ENDBLK
  5
202
330
1F1
100
AcDbEntity
  8
0
100
AcDbBlockEnd
  0
BLOCK
  5
1FF
330
1F3
100
AcDbEntity
  8
0
100
AcDbBlockBegin
  2
cw-line-extremity9
 70
     0
 10
0.0
 20
0.0
 30
0.0
  3
cw-line-extremity9
  1

  0
LINE
  5
1F4
330
1F3
100
AcDbEntity
  8
0
  6
Continuous
 62
     0
370
    18
390
5F
100
AcDbLine
 10
-2.5
 20
-2.5
 30
0.0
 11
2.5
 21
2.5
 31
0.0
  0
ENDBLK
  5
200
330
1F3
100
AcDbEntity
  8
0
100
AcDbBlockEnd
  0
BLOCK
  5
1FD
330
1F5
100
AcDbEntity
  8
0
100
AcDbBlockBegin
  2
cw-line-extremity10
 70
     0
 10
0.0
 20
0.0
 30
0.0
  3
cw-line-extremity10
  1

  0
CIRCLE
  5
1F6
330
1F5
100
AcDbEntity
  8
0
  6
Continuous
 62
     0
370
    -2
390
5F
100
AcDbCircle
 10
0.0
 20
0.0
 30
0.0
 40
2.5
  0
ENDBLK
  5
1FE
330
1F5
100
AcDbEntity
  8
0
100
AcDbBlockEnd
  0
BLOCK
  5
1FB
330
1F7
100
AcDbEntity
  8
0
100
AcDbBlockBegin
  2
cw-line-extremity1
 70
     0
 10
0.0
 20
0.0
 30
0.0
  3
cw-line-extremity1
  1

  0
LINE
  5
1F8
330
1F7
100
AcDbEntity
  8
0
  6
Continuous
 62
     0
370
    -2
390
5F
100
AcDbLine
 10
0.0
 20
0.0
 30
0.0
 11
0.0
 21
2.5
 31
0.0
  0
LINE
  5
1F9
330
1F7
100
AcDbEntity
  8
0
  6
Continuous
 62
     0
370
    -2
390
5F
100
AcDbLine
 10
0.0
 20
2.5
 30
0.0
 11
1.25
 21
3.75
 31
0.0
  0
LINE
  5
1FA
330
1F7
100
AcDbEntity
  8
0
  6
Continuous
 62
     0
370
    -2
390
5F
100
AcDbLine
 10
1.25
 20
3.75
 30
0.0
 11
3.75
 21
3.75
 31
0.0
  0
ENDBLK
  5
1FC
330
1F7
100
AcDbEntity
  8
0
100
AcDbBlockEnd
  0
BLOCK
  5
1C
330
1B
100
AcDbEntity
  8
0
100
AcDbBlockBegin
  2
*Paper_Space69
 70
     0
 10
0.0
 20
0.0
 30
0.0
  3
*Paper_Space69
  1

  0
ENDBLK
  5
1D
330
1B
100
AcDbEntity
  8
0
100
AcDbBlockEnd
  0
BLOCK
  5
2FD
330
2EE
100
AcDbEntity
  8
0
100
AcDbBlockBegin
  2
DIM141
 70
     0
 10
0.0
 20
0.0
 30
0.0
  3
DIM141
  1

  0
LINE
  5
2EF
330
2EE
100
AcDbEntity
  8
Ech.1_5
  6
Continuous
 62
   200
420
 11010303
370
    15
390
5F
100
AcDbLine
 10
13204.43912903856
 20
-11787.83619677772
 30
0.0
 11
13204.43912903856
 21
-11800.33619677772
 31
0.0
  0
LINE
  5
2F0
330
2EE
100
AcDbEntity
  8
Ech.1_5
  6
Continuous
 62
   200
420
 11010303
370
    15
390
5F
100
AcDbLine
 10
13204.43912903856
 20
-11795.33619677772
 30
0.0
 11
13199.43912903856
 21
-11795.33619677772
 31
0.0
  0
LINE
  5
2F1
330
2EE
100
AcDbEntity
  8
Ech.1_5
  6
Continuous
 62
   200
420
 11010303
370
    25
390
5F
100
AcDbLine
 10
13201.93912903856
 20
-11797.83619677772
 30
0.0
 11
13206.93912903856
 21
-11792.83619677772
 31
0.0
  0
LINE
  5
2F2
330
2EE
100
AcDbEntity
  8
Ech.1_5
  6
Continuous
 62
   200
420
 11010303
370
    25
390
5F
100
AcDbLine
 10
13201.98912903855
 20
-11797.83619677772
 30
0.0
 11
13206.93912903856
 21
-11792.88619677772
 31
0.0
  0
LINE
  5
2F3
330
2EE
100
AcDbEntity
  8
Ech.1_5
  6
Continuous
 62
   200
420
 11010303
370
    25
390
5F
100
AcDbLine
 10
13201.93912903856
 20
-11797.78619677772
 30
0.0
 11
13206.88912903856
 21
-11792.83619677772
 31
0.0
  0
LINE
  5
2F4
330
2EE
100
AcDbEntity
  8
Ech.1_5
  6
Continuous
 62
   200
420
 11010303
370
    25
390
5F
100
AcDbLine
 10
13201.93912903856
 20
-11797.83619677772
 30
0.0
 11
13206.93912903856
 21
-11792.88619677772
 31
0.0
  0
LINE
  5
2F5
330
2EE
100
AcDbEntity
  8
Ech.1_5
  6
Continuous
 62
   200
420
 11010303
370
    25
390
5F
100
AcDbLine
 10
13201.93912903856
 20
-11797.83619677772
 30
0.0
 11
13206.93912903856
 21
-11792.83619677772
 31
0.0
  0
LINE
  5
2F6
330
2EE
100
AcDbEntity
  8
Ech.1_5
  6
Continuous
 62
   200
420
 11010303
370
    15
390
5F
100
AcDbLine
 10
13204.43912903856
 20
-11795.33619677772
 30
0.0
 11
13219.43912903856
 21
-11795.33619677772
 31
0.0
  0
LINE
  5
2F7
330
2EE
100
AcDbEntity
  8
Ech.1_5
  6
Continuous
 62
   200
420
 11010303
370
    25
390
5F
100
AcDbLine
 10
13216.93912903856
 20
-11792.83619677772
 30
0.0
 11
13211.93912903856
 21
-11797.83619677772
 31
0.0
  0
LINE
  5
2F8
330
2EE
100
AcDbEntity
  8
Ech.1_5
  6
Continuous
 62
   200
420
 11010303
370
    25
390
5F
100
AcDbLine
 10
13216.88912903856
 20
-11792.83619677772
 30
0.0
 11
13211.93912903856
 21
-11797.78619677772
 31
0.0
  0
LINE
  5
2F9
330
2EE
100
AcDbEntity
  8
Ech.1_5
  6
Continuous
 62
   200
420
 11010303
370
    25
390
5F
100
AcDbLine
 10
13216.93912903856
 20
-11792.88619677772
 30
0.0
 11
13211.98912903855
 21
-11797.83619677772
 31
0.0
  0
LINE
  5
2FA
330
2EE
100
AcDbEntity
  8
Ech.1_5
  6
Continuous
 62
   200
420
 11010303
370
    25
390
5F
100
AcDbLine
 10
13216.93912903856
 20
-11792.83619677772
 30
0.0
 11
13211.93912903856
 21
-11797.83619677772
 31
0.0
  0
LINE
  5
2FB
330
2EE
100
AcDbEntity
  8
Ech.1_5
  6
Continuous
 62
   200
420
 11010303
370
    25
390
5F
100
AcDbLine
 10
13216.93912903856
 20
-11792.88619677772
 30
0.0
 11
13211.98912903855
 21
-11797.83619677772
 31
0.0
  0
LINE
  5
2FC
330
2EE
100
AcDbEntity
  8
Ech.1_5
  6
Continuous
 62
   200
420
 11010303
370
    15
390
5F
100
AcDbLine
 10
13214.43912903856
 20
-11787.83619677772
 30
0.0
 11
13214.43912903856
 21
-11800.33619677772
 31
0.0
  0
ENDBLK
  5
2FE
330
2EE
100
AcDbEntity
  8
0
100
AcDbBlockEnd
  0
BLOCK
  5
310
330
301
100
AcDbEntity
  8
0
100
AcDbBlockBegin
  2
DIM142
 70
     0
 10
0.0
 20
0.0
 30
0.0
  3
DIM142
  1

  0
LINE
  5
302
330
301
100
AcDbEntity
  8
Ech.1_5
  6
Continuous
 62
   200
420
 11010303
370
    15
390
5F
100
AcDbLine
 10
13219.45016016599
 20
-11757.15067723727
 30
0.0
 11
13243.25016016599
 21
-11757.15067723727
 31
0.0
  0
LINE
  5
303
330
301
100
AcDbEntity
  8
Ech.1_5
  6
Continuous
 62
   200
420
 11010303
370
    15
390
5F
100
AcDbLine
 10
13238.25016016599
 20
-11757.15067723727
 30
0.0
 11
13238.25016016599
 21
-11752.15067723727
 31
0.0
  0
LINE
  5
304
330
301
100
AcDbEntity
  8
Ech.1_5
  6
Continuous
 62
   200
420
 11010303
370
    25
390
5F
100
AcDbLine
 10
13235.75016016599
 20
-11754.65067723727
 30
0.0
 11
13240.75016016599
 21
-11759.65067723727
 31
0.0
  0
LINE
  5
305
330
301
100
AcDbEntity
  8
Ech.1_5
  6
Continuous
 62
   200
420
 11010303
370
    25
390
5F
100
AcDbLine
 10
13235.75016016599
 20
-11754.70067723727
 30
0.0
 11
13240.70016016599
 21
-11759.65067723727
 31
0.0
  0
LINE
  5
306
330
301
100
AcDbEntity
  8
Ech.1_5
  6
Continuous
 62
   200
420
 11010303
370
    25
390
5F
100
AcDbLine
 10
13235.80016016599
 20
-11754.65067723727
 30
0.0
 11
13240.75016016599
 21
-11759.60067723727
 31
0.0
  0
LINE
  5
307
330
301
100
AcDbEntity
  8
Ech.1_5
  6
Continuous
 62
   200
420
 11010303
370
    25
390
5F
100
AcDbLine
 10
13235.75016016599
 20
-11754.65067723727
 30
0.0
 11
13240.70016016599
 21
-11759.65067723727
 31
0.0
  0
LINE
  5
308
330
301
100
AcDbEntity
  8
Ech.1_5
  6
Continuous
 62
   200
420
 11010303
370
    25
390
5F
100
AcDbLine
 10
13235.75016016599
 20
-11754.65067723727
 30
0.0
 11
13240.75016016599
 21
-11759.65067723727
 31
0.0
  0
LINE
  5
309
330
301
100
AcDbEntity
  8
Ech.1_5
  6
Continuous
 62
   200
420
 11010303
370
    15
390
5F
100
AcDbLine
 10
13238.25016016599
 20
-11757.15067723727
 30
0.0
 11
13238.25016016599
 21
-11772.15067723727
 31
0.0
  0
LINE
  5
30A
330
301
100
AcDbEntity
  8
Ech.1_5
  6
Continuous
 62
   200
420
 11010303
370
    25
390
5F
100
AcDbLine
 10
13240.75016016599
 20
-11769.65067723727
 30
0.0
 11
13235.75016016599
 21
-11764.65067723727
 31
0.0
  0
LINE
  5
30B
330
301
100
AcDbEntity
  8
Ech.1_5
  6
Continuous
 62
   200
420
 11010303
370
    25
390
5F
100
AcDbLine
 10
13240.75016016599
 20
-11769.60067723727
 30
0.0
 11
13235.80016016599
 21
-11764.65067723727
 31
0.0
  0
LINE
  5
30C
330
301
100
AcDbEntity
  8
Ech.1_5
  6
Continuous
 62
   200
420
 11010303
370
    25
390
5F
100
AcDbLine
 10
13240.70016016599
 20
-11769.65067723727
 30
0.0
 11
13235.75016016599
 21
-11764.70067723727
 31
0.0
  0
LINE
  5
30D
330
301
100
AcDbEntity
  8
Ech.1_5
  6
Continuous
 62
   200
420
 11010303
370
    25
390
5F
100
AcDbLine
 10
13240.75016016599
 20
-11769.65067723727
 30
0.0
 11
13235.75016016599
 21
-11764.65067723727
 31
0.0
  0
LINE
  5
30E
330
301
100
AcDbEntity
  8
Ech.1_5
  6
Continuous
 62
   200
420
 11010303
370
    25
390
5F
100
AcDbLine
 10
13240.70016016599
 20
-11769.65067723727
 30
0.0
 11
13235.75016016599
 21
-11764.70067723727
 31
0.0
  0
LINE
  5
30F
330
301
100
AcDbEntity
  8
Ech.1_5
  6
Continuous
 62
   200
420
 11010303
370
    15
390
5F
100
AcDbLine
 10
13229.45016016599
 20
-11767.15067723727
 30
0.0
 11
13243.25016016599
 21
-11767.15067723727
 31
0.0
  0
ENDBLK
  5
311
330
301
100
AcDbEntity
  8
0
100
AcDbBlockEnd
  0
BLOCK
  5
323
330
314
100
AcDbEntity
  8
0
100
AcDbBlockBegin
  2
DIM143
 70
     0
 10
0.0
 20
0.0
 30
0.0
  3
DIM143
  1

  0
LINE
  5
315
330
314
100
AcDbEntity
  8
Ech.1_5
  6
Continuous
 62
   200
420
 11010303
370
    15
390
5F
100
AcDbLine
 10
13214.43149268022
 20
-11822.15067682827
 30
0.0
 11
13214.43149268022
 21
-11857.35067682827
 31
0.0
  0
LINE
  5
316
330
314
100
AcDbEntity
  8
Ech.1_5
  6
Continuous
 62
   200
420
 11010303
370
    15
390
5F
100
AcDbLine
 10
13214.43149268022
 20
-11852.35067682827
 30
0.0
 11
13209.43149268022
 21
-11852.35067682827
 31
0.0
  0
LINE
  5
317
330
314
100
AcDbEntity
  8
Ech.1_5
  6
Continuous
 62
   200
420
 11010303
370
    25
390
5F
100
AcDbLine
 10
13211.93149268022
 20
-11854.85067682827
 30
0.0
 11
13216.93149268022
 21
-11849.85067682827
 31
0.0
  0
LINE
  5
318
330
314
100
AcDbEntity
  8
Ech.1_5
  6
Continuous
 62
   200
420
 11010303
370
    25
390
5F
100
AcDbLine
 10
13211.98149268022
 20
-11854.85067682827
 30
0.0
 11
13216.93149268022
 21
-11849.90067682827
 31
0.0
  0
LINE
  5
319
330
314
100
AcDbEntity
  8
Ech.1_5
  6
Continuous
 62
   200
420
 11010303
370
    25
390
5F
100
AcDbLine
 10
13211.93149268022
 20
-11854.80067682827
 30
0.0
 11
13216.88149268022
 21
-11849.85067682827
 31
0.0
  0
LINE
  5
31A
330
314
100
AcDbEntity
  8
Ech.1_5
  6
Continuous
 62
   200
420
 11010303
370
    25
390
5F
100
AcDbLine
 10
13211.93149268022
 20
-11854.85067682827
 30
0.0
 11
13216.93149268022
 21
-11849.90067682827
 31
0.0
  0
LINE
  5
31B
330
314
100
AcDbEntity
  8
Ech.1_5
  6
Continuous
 62
   200
420
 11010303
370
    25
390
5F
100
AcDbLine
 10
13211.93149268022
 20
-11854.85067682827
 30
0.0
 11
13216.93149268022
 21
-11849.85067682827
 31
0.0
  0
LINE
  5
31C
330
314
100
AcDbEntity
  8
Ech.1_5
  6
Continuous
 62
   200
420
 11010303
370
    15
390
5F
100
AcDbLine
 10
13214.43149268022
 20
-11852.35067682827
 30
0.0
 11
13345.48149268022
 21
-11852.35067682827
 31
0.0
  0
LINE
  5
31D
330
314
100
AcDbEntity
  8
Ech.1_5
  6
Continuous
 62
   200
420
 11010303
370
    25
390
5F
100
AcDbLine
 10
13342.98149268022
 20
-11849.85067682827
 30
0.0
 11
13337.98149268022
 21
-11854.85067682827
 31
0.0
  0
LINE
  5
31E
330
314
100
AcDbEntity
  8
Ech.1_5
  6
Continuous
 62
   200
420
 11010303
370
    25
390
5F
100
AcDbLine
 10
13342.93149268022
 20
-11849.85067682827
 30
0.0
 11
13337.98149268022
 21
-11854.80067682827
 31
0.0
  0
LINE
  5
31F
330
314
100
AcDbEntity
  8
Ech.1_5
  6
Continuous
 62
   200
420
 11010303
370
    25
390
5F
100
AcDbLine
 10
13342.98149268022
 20
-11849.90067682827
 30
0.0
 11
13338.03149268022
 21
-11854.85067682827
 31
0.0
  0
LINE
  5
320
330
314
100
AcDbEntity
  8
Ech.1_5
  6
Continuous
 62
   200
420
 11010303
370
    25
390
5F
100
AcDbLine
 10
13342.93149268022
 20
-11849.85067682827
 30
0.0
 11
13337.98149268022
 21
-11854.85067682827
 31
0.0
  0
LINE
  5
321
330
314
100
AcDbEntity
  8
Ech.1_5
  6
Continuous
 62
   200
420
 11010303
370
    25
390
5F
100
AcDbLine
 10
13342.98149268022
 20
-11849.90067682827
 30
0.0
 11
13337.98149268022
 21
-11854.85067682827
 31
0.0
  0
LINE
  5
322
330
314
100
AcDbEntity
  8
Ech.1_5
  6
Continuous
 62
   200
420
 11010303
370
    15
390
5F
100
AcDbLine
 10
13340.48149268022
 20
-11840.85067682827
 30
0.0
 11
13340.48149268022
 21
-11857.35067682827
 31
0.0
  0
ENDBLK
  5
324
330
314
100
AcDbEntity
  8
0
100
AcDbBlockEnd
  0
BLOCK
  5
336
330
327
100
AcDbEntity
  8
0
100
AcDbBlockBegin
  2
DIM144
 70
     0
 10
0.0
 20
0.0
 30
0.0
  3
DIM144
  1

  0
LINE
  5
328
330
327
100
AcDbEntity
  8
Ech.1_5
  6
Continuous
 62
   200
420
 11010303
370
    15
390
5F
100
AcDbLine
 10
13351.30655346047
 20
-11834.65067682827
 30
0.0
 11
13365.20655346047
 21
-11834.65067682827
 31
0.0
  0
LINE
  5
329
330
327
100
AcDbEntity
  8
Ech.1_5
  6
Continuous
 62
   200
420
 11010303
370
    15
390
5F
100
AcDbLine
 10
13360.20655346047
 20
-11834.65067682827
 30
0.0
 11
13360.20655346047
 21
-11839.65067682827
 31
0.0
  0
LINE
  5
32A
330
327
100
AcDbEntity
  8
Ech.1_5
  6
Continuous
 62
   200
420
 11010303
370
    25
390
5F
100
AcDbLine
 10
13362.70655346047
 20
-11837.15067682827
 30
0.0
 11
13357.70655346047
 21
-11832.15067682827
 31
0.0
  0
LINE
  5
32B
330
327
100
AcDbEntity
  8
Ech.1_5
  6
Continuous
 62
   200
420
 11010303
370
    25
390
5F
100
AcDbLine
 10
13362.70655346047
 20
-11837.10067682827
 30
0.0
 11
13357.75655346047
 21
-11832.15067682827
 31
0.0
  0
LINE
  5
32C
330
327
100
AcDbEntity
  8
Ech.1_5
  6
Continuous
 62
   200
420
 11010303
370
    25
390
5F
100
AcDbLine
 10
13362.65655346047
 20
-11837.15067682827
 30
0.0
 11
13357.70655346047
 21
-11832.20067682827
 31
0.0
  0
LINE
  5
32D
330
327
100
AcDbEntity
  8
Ech.1_5
  6
Continuous
 62
   200
420
 11010303
370
    25
390
5F
100
AcDbLine
 10
13362.70655346047
 20
-11837.15067682827
 30
0.0
 11
13357.70655346047
 21
-11832.15067682827
 31
0.0
  0
LINE
  5
32E
330
327
100
AcDbEntity
  8
Ech.1_5
  6
Continuous
 62
   200
420
 11010303
370
    25
390
5F
100
AcDbLine
 10
13362.65655346047
 20
-11837.15067682827
 30
0.0
 11
13357.70655346047
 21
-11832.15067682827
 31
0.0
  0
LINE
  5
32F
330
327
100
AcDbEntity
  8
Ech.1_5
  6
Continuous
 62
   200
420
 11010303
370
    15
390
5F
100
AcDbLine
 10
13360.20655346047
 20
-11834.65067682827
 30
0.0
 11
13360.20655346047
 21
-11819.65067682827
 31
0.0
  0
LINE
  5
330
330
327
100
AcDbEntity
  8
Ech.1_5
  6
Continuous
 62
   200
420
 11010303
370
    25
390
5F
100
AcDbLine
 10
13357.70655346047
 20
-11822.15067682827
 30
0.0
 11
13362.70655346047
 21
-11827.15067682827
 31
0.0
  0
LINE
  5
331
330
327
100
AcDbEntity
  8
Ech.1_5
  6
Continuous
 62
   200
420
 11010303
370
    25
390
5F
100
AcDbLine
 10
13357.70655346047
 20
-11822.20067682827
 30
0.0
 11
13362.65655346047
 21
-11827.15067682827
 31
0.0
  0
LINE
  5
332
330
327
100
AcDbEntity
  8
Ech.1_5
  6
Continuous
 62
   200
420
 11010303
370
    25
390
5F
100
AcDbLine
 10
13357.75655346047
 20
-11822.15067682827
 30
0.0
 11
13362.70655346047
 21
-11827.10067682827
 31
0.0
  0
LINE
  5
333
330
327
100
AcDbEntity
  8
Ech.1_5
  6
Continuous
 62
   200
420
 11010303
370
    25
390
5F
100
AcDbLine
 10
13357.70655346047
 20
-11822.15067682827
 30
0.0
 11
13362.65655346047
 21
-11827.15067682827
 31
0.0
  0
LINE
  5
334
330
327
100
AcDbEntity
  8
Ech.1_5
  6
Continuous
 62
   200
420
 11010303
370
    25
390
5F
100
AcDbLine
 10
13357.70655346047
 20
-11822.15067682827
 30
0.0
 11
13362.70655346047
 21
-11827.10067682827
 31
0.0
  0
LINE
  5
335
330
327
100
AcDbEntity
  8
Ech.1_5
  6
Continuous
 62
   200
420
 11010303
370
    15
390
5F
100
AcDbLine
 10
13351.30655346047
 20
-11824.65067682827
 30
0.0
 11
13365.20655346047
 21
-11824.65067682827
 31
0.0
  0
ENDBLK
  5
337
330
327
100
AcDbEntity
  8
0
100
AcDbBlockEnd
  0
BLOCK
  5
349
330
33A
100
AcDbEntity
  8
0
100
AcDbBlockBegin
  2
DIM145
 70
     0
 10
0.0
 20
0.0
 30
0.0
  3
DIM145
  1

  0
LINE
  5
33B
330
33A
100
AcDbEntity
  8
Ech.1_5
  6
Continuous
 62
   200
420
 11010303
370
    15
390
5F
100
AcDbLine
 10
13229.43149268022
 20
-11812.15067682827
 30
0.0
 11
13328.63149268022
 21
-11812.15067682827
 31
0.0
  0
LINE
  5
33C
330
33A
100
AcDbEntity
  8
Ech.1_5
  6
Continuous
 62
   200
420
 11010303
370
    15
390
5F
100
AcDbLine
 10
13323.63149268022
 20
-11812.15067682827
 30
0.0
 11
13323.63149268022
 21
-11817.15067682827
 31
0.0
  0
LINE
  5
33D
330
33A
100
AcDbEntity
  8
Ech.1_5
  6
Continuous
 62
   200
420
 11010303
370
    25
390
5F
100
AcDbLine
 10
13326.13149268022
 20
-11814.65067682827
 30
0.0
 11
13321.13149268022
 21
-11809.65067682827
 31
0.0
  0
LINE
  5
33E
330
33A
100
AcDbEntity
  8
Ech.1_5
  6
Continuous
 62
   200
420
 11010303
370
    25
390
5F
100
AcDbLine
 10
13326.13149268022
 20
-11814.60067682827
 30
0.0
 11
13321.18149268022
 21
-11809.65067682827
 31
0.0
  0
LINE
  5
33F
330
33A
100
AcDbEntity
  8
Ech.1_5
  6
Continuous
 62
   200
420
 11010303
370
    25
390
5F
100
AcDbLine
 10
13326.08149268022
 20
-11814.65067682827
 30
0.0
 11
13321.13149268022
 21
-11809.70067682827
 31
0.0
  0
LINE
  5
340
330
33A
100
AcDbEntity
  8
Ech.1_5
  6
Continuous
 62
   200
420
 11010303
370
    25
390
5F
100
AcDbLine
 10
13326.13149268022
 20
-11814.65067682827
 30
0.0
 11
13321.13149268022
 21
-11809.65067682827
 31
0.0
  0
LINE
  5
341
330
33A
100
AcDbEntity
  8
Ech.1_5
  6
Continuous
 62
   200
420
 11010303
370
    25
390
5F
100
AcDbLine
 10
13326.08149268022
 20
-11814.65067682827
 30
0.0
 11
13321.13149268022
 21
-11809.65067682827
 31
0.0
  0
LINE
  5
342
330
33A
100
AcDbEntity
  8
Ech.1_5
  6
Continuous
 62
   200
420
 11010303
370
    15
390
5F
100
AcDbLine
 10
13323.63149268022
 20
-11812.15067682827
 30
0.0
 11
13323.63149268022
 21
-11762.15067682827
 31
0.0
  0
LINE
  5
343
330
33A
100
AcDbEntity
  8
Ech.1_5
  6
Continuous
 62
   200
420
 11010303
370
    25
390
5F
100
AcDbLine
 10
13321.13149268022
 20
-11764.65067682827
 30
0.0
 11
13326.13149268022
 21
-11769.65067682827
 31
0.0
  0
LINE
  5
344
330
33A
100
AcDbEntity
  8
Ech.1_5
  6
Continuous
 62
   200
420
 11010303
370
    25
390
5F
100
AcDbLine
 10
13321.13149268022
 20
-11764.70067682827
 30
0.0
 11
13326.08149268022
 21
-11769.65067682827
 31
0.0
  0
LINE
  5
345
330
33A
100
AcDbEntity
  8
Ech.1_5
  6
Continuous
 62
   200
420
 11010303
370
    25
390
5F
100
AcDbLine
 10
13321.18149268022
 20
-11764.65067682827
 30
0.0
 11
13326.13149268022
 21
-11769.60067682827
 31
0.0
  0
LINE
  5
346
330
33A
100
AcDbEntity
  8
Ech.1_5
  6
Continuous
 62
   200
420
 11010303
370
    25
390
5F
100
AcDbLine
 10
13321.13149268022
 20
-11764.65067682827
 30
0.0
 11
13326.08149268022
 21
-11769.65067682827
 31
0.0
  0
LINE
  5
347
330
33A
100
AcDbEntity
  8
Ech.1_5
  6
Continuous
 62
   200
420
 11010303
370
    25
390
5F
100
AcDbLine
 10
13321.13149268022
 20
-11764.65067682827
 30
0.0
 11
13326.13149268022
 21
-11769.60067682827
 31
0.0
  0
LINE
  5
348
330
33A
100
AcDbEntity
  8
Ech.1_5
  6
Continuous
 62
   200
420
 11010303
370
    15
390
5F
100
AcDbLine
 10
13229.43149268022
 20
-11767.15067682827
 30
0.0
 11
13328.63149268022
 21
-11767.15067682827
 31
0.0
  0
ENDBLK
  5
34A
330
33A
100
AcDbEntity
  8
0
100
AcDbBlockEnd
  0
ENDSEC
  0
SECTION
  2
ENTITIES
  0
LWPOLYLINE
  5
218
102
{ACAD_REACTORS
330
219
102
}
330
1F
100
AcDbEntity
  8
Ech.1_5
  6
Continuous
 62
   190
370
    15
390
5F
100
AcDbPolyline
 90
        5
 70
     0
 43
0.0
 10
13987.90511884834
 20
-12472.97328384298
 10
13987.90511884834
 20
-11117.97328384298
 10
13002.90511884834
 20
-11117.97328384298
 10
13002.90511884834
 20
-12472.97328384298
 10
13987.90511884834
 20
-12472.97328384298
  0
LWPOLYLINE
  5
21A
102
{ACAD_REACTORS
330
219
330
21B
330
21C
102
}
330
1F
100
AcDbEntity
  8
Ech.1_5
  6
Continuous
 62
   190
370
    15
390
5F
100
AcDbPolyline
 90
        5
 70
     0
 43
0.0
 10
13002.90511884834
 20
-12335.56021177792
 10
13987.90511884834
 20
-12335.56021177792
 10
13987.90511884834
 20
-12472.97328384298
 10
13002.90511884834
 20
-12472.97328384298
 10
13002.90511884834
 20
-12335.56021177792
  0
LWPOLYLINE
  5
21D
102
{ACAD_REACTORS
330
219
330
21B
330
21C
102
}
330
1F
100
AcDbEntity
  8
Ech.1_5
  6
Continuous
 62
   190
370
    15
390
5F
100
AcDbPolyline
 90
        5
 70
     0
 43
0.0
 10
13987.90511884834
 20
-11213.49024684874
 10
13002.90511884834
 20
-11213.49024684874
 10
13002.90511884834
 20
-11117.97328384309
 10
13987.90511884834
 20
-11117.97328384309
 10
13987.90511884834
 20
-11213.49024684874
  0
LWPOLYLINE
  5
21E
102
{ACAD_REACTORS
330
219
330
21B
330
21C
102
}
330
1F
100
AcDbEntity
  8
Ech.1_5
  6
Continuous
 62
   190
370
    15
390
5F
100
AcDbPolyline
 90
        5
 70
     0
 43
0.0
 10
13987.90511884834
 20
-12357.56021177792
 10
13002.90511884834
 20
-12357.56021177792
 10
13002.90511884834
 20
-12335.56021177792
 10
13987.90511884834
 20
-12335.56021177792
 10
13987.90511884834
 20
-12357.56021177792
  0
LWPOLYLINE
  5
21F
102
{ACAD_REACTORS
330
219
330
21B
330
21C
102
}
330
1F
100
AcDbEntity
  8
Ech.1_5
  6
Continuous
 62
   190
370
    15
390
5F
100
AcDbPolyline
 90
        5
 70
     0
 43
0.0
 10
13987.90511884834
 20
-12414.43135700826
 10
13002.90511884834
 20
-12414.43135700826
 10
13002.90511884834
 20
-12390.70432869752
 10
13987.90511884834
 20
-12390.70432869752
 10
13987.90511884834
 20
-12414.43135700826
  0
LINE
  5
220
102
{ACAD_REACTORS
330
219
330
21B
330
21C
102
}
330
1F
100
AcDbEntity
  8
Ech.1_5
  6
Continuous
 62
   190
370
    15
390
5F
100
AcDbLine
 10
13191.1096808113
 20
-12335.56021177792
 30
0.0
 11
13191.1096808113
 21
-12357.56021177792
 31
0.0
  0
LINE
  5
221
102
{ACAD_REACTORS
330
219
330
21B
330
21C
102
}
330
1F
100
AcDbEntity
  8
Ech.1_5
  6
Continuous
 62
   190
370
    15
390
5F
100
AcDbLine
 10
13848.10778344185
 20
-12335.56021177792
 30
0.0
 11
13848.10778344185
 21
-12357.56021177792
 31
0.0
  0
LINE
  5
222
102
{ACAD_REACTORS
330
219
330
21B
330
21C
102
}
330
1F
100
AcDbEntity
  8
Ech.1_5
  6
Continuous
 62
   190
370
    15
390
5F
100
AcDbLine
 10
13347.26489880665
 20
-12335.56021177792
 30
0.0
 11
13347.26489880665
 21
-12357.56021177792
 31
0.0
  0
IMAGE
  5
225
102
{ACAD_REACTORS
330
219
330
21C
102
}
330
1F
100
AcDbEntity
  8
Ech.1_5
  6
Continuous
390
5F
160
                 8
310
0800000000000000
100
AcDbRasterImage
 90
        0
 10
13193.96936758922
 20
-12467.93773636193
 30
0.0
 11
0.2834551518263184
 21
0.0
 31
0.0
 12
0.0
 22
0.2834551571498179
 32
0.0
 13
247.0
 23
171.0
340
224
 70
     7
280
     0
281
    50
282
    50
283
     0
360
226
 71
     1
 91
        2
 14
-0.5
 24
-0.5
 14
246.5
 24
170.5
290
     0
  0
IMAGE
  5
228
102
{ACAD_REACTORS
330
219
102
}
330
1F
100
AcDbEntity
  8
Ech.1_5
  6
Continuous
390
5F
160
                 8
310
0800000000000000
100
AcDbRasterImage
 90
        0
 10
13455.0470388312
 20
-12470.49234866572
 30
0.0
 11
0.4035808001714759
 21
0.0
 31
0.0
 12
0.0
 22
0.4035808103925179
 32
0.0
 13
200.0
 23
133.0
340
227
 70
     7
280
     0
281
    50
282
    50
283
     0
360
229
 71
     1
 91
        2
 14
-0.5
 24
-0.5
 14
199.5
 24
132.5
290
     0
  0
LINE
  5
22A
330
1F
100
AcDbEntity
  8
Ech.1_5
  6
Continuous
 62
   190
370
    15
390
5F
100
AcDbLine
 10
13987.90511884834
 20
-11147.97328384309
 30
0.0
 11
13002.90511884834
 21
-11147.97328384309
 31
0.0
  0
LWPOLYLINE
  5
22B
330
1F
100
AcDbEntity
  8
Ech.1_5
 62
   190
370
    15
390
5F
100
AcDbPolyline
 90
        5
 70
     0
 43
0.0
 10
13830.01660313294
 20
-11237.06844043717
 10
13964.44538211889
 20
-11237.06844043717
 10
13964.44538211889
 20
-11293.79139924902
 10
13830.01660313294
 20
-11293.79139924902
 10
13830.01660313294
 20
-11237.06844043717
  0
HATCH
  5
22C
330
1F
100
AcDbEntity
  8
Ech.1_5
  6
Continuous
 62
   190
440
 33554687
370
    15
390
5F
100
AcDbHatch
 10
0.0
 20
0.0
 30
0.0
210
0.0
220
0.0
230
1.0
  2
SOLID
 70
     1
 71
     0
 91
        1
 92
        3
 72
     0
 73
     1
 93
        4
 10
13848.29664891826
 20
-11270.72525156612
 10
13898.29664891826
 20
-11270.72525156612
 10
13898.29664891826
 20
-11263.31011403221
 10
13848.29664891826
 20
-11263.31011403221
 97
        0
 75
     0
 76
     1
 98
        0
  0
LWPOLYLINE
  5
22D
330
1F
100
AcDbEntity
  8
Ech.1_5
 62
   190
370
    15
390
5F
100
AcDbPolyline
 90
        5
 70
     0
 43
0.0
 10
13848.29664891826
 20
-11270.72525156612
 10
13898.29664891826
 20
-11270.72525156612
 10
13898.29664891826
 20
-11263.31011403221
 10
13848.29664891826
 20
-11263.31011403221
 10
13848.29664891826
 20
-11270.72525156612
  0
LWPOLYLINE
  5
22E
330
1F
100
AcDbEntity
  8
Ech.1_5
 62
   190
370
    15
390
5F
100
AcDbPolyline
 90
        5
 70
     0
 43
0.0
 10
13898.29664891826
 20
-11270.72525156612
 10
13948.29664891826
 20
-11270.72525156612
 10
13948.29664891826
 20
-11263.31011403221
 10
13898.29664891826
 20
-11263.31011403221
 10
13898.29664891826
 20
-11270.72525156612
  0
HATCH
  5
22F
330
1F
100
AcDbEntity
  8
Ech.1_5
  6
Continuous
 62
   254
420
 16643007
440
 33554687
370
     5
390
5F
100
AcDbHatch
 10
0.0
 20
0.0
 30
0.0
210
0.0
220
0.0
230
1.0
  2
SOLID
 70
     1
 71
     0
 91
        1
 92
        3
 72
     0
 73
     1
 93
        8
 10
13609.28012862311
 20
-11722.15067723727
 10
13609.28012862311
 20
-11275.84147344084
 10
13519.64247934248
 20
-11275.84147344084
 10
13503.1569761866
 20
-11293.82045159789
 10
13517.2669162044
 20
-11257.86475167723
 10
13500.78056212289
 20
-11275.84310327025
 10
13464.28012862307
 20
-11275.84310327025
 10
13464.28012862307
 20
-11722.15067723727
 97
        0
 75
     0
 76
     1
 98
        0
  0
HATCH
  5
230
330
1F
100
AcDbEntity
  8
Ech.1_5
  6
Continuous
 62
     8
440
 33554687
370
    20
390
5F
100
AcDbHatch
 10
0.0
 20
0.0
 30
0.0
210
0.0
220
0.0
230
1.0
  2
CwHatchPattern_201
 70
     0
 71
     0
 91
        1
 92
        3
 72
     0
 73
     1
 93
        8
 10
13609.28012862311
 20
-11722.15067723727
 10
13609.28012862311
 20
-11275.84147344084
 10
13519.64247934248
 20
-11275.84147344084
 10
13503.1569761866
 20
-11293.82045159789
 10
13517.2669162044
 20
-11257.86475167723
 10
13500.78056212289
 20
-11275.84310327025
 10
13464.28012862307
 20
-11275.84310327025
 10
13464.28012862307
 20
-11722.15067723727
 97
        0
 75
     0
 76
     2
 52
90.0
 41
2.900000095367432
 77
     0
 78
    29
 53
90.0
 43
13609.28012862311
 44
-11725.38703381816
 45
-145.0000047683716
 46
0.0000000000000089
 79
     2
 49
6.472713161775587
 49
-17.69395934117938
 53
180.0000000000059
 43
13589.03517003346
 44
-11746.31733547981
 45
0.0000000000049953
 46
-48.33333031336451
 79
     2
 49
3.921713481170173
 49
-141.0782912872014
 53
180.0000000000059
 43
13488.44679592556
 44
-11722.15067723727
 45
0.0000000000049953
 46
-48.33333031336451
 79
     2
 49
3.921713481170173
 49
-141.0782912872014
 53
194.9324645996163
 43
13579.92944599535
 44
-11698.56001690271
 45
-144.9993095038583
 46
-48.3359814437894
 79
     2
 49
89.31476672155326
 49
-661.0203426301995
 53
165.0675354003956
 43
13579.92944599535
 44
-11697.40800725846
 45
144.9993095038682
 46
-48.33598144375943
 79
     2
 49
89.31476672155327
 49
-661.0203426301996
 53
105.2551193237315
 43
13609.28012862311
 44
-11718.91432065638
 45
-0.0000012956450574
 46
-48.33332879607747
 79
     2
 49
6.569094531198019
 49
-544.5157172931704
 53
254.7448883056749
 43
13609.28012862311
 44
-11725.38703381816
 45
0.0000077316271012
 46
-48.33332879607688
 79
     2
 49
6.569094531198019
 49
-544.5157172931704
 53
105.2551193237315
 43
13466.00856181212
 44
-11707.55799272685
 45
-0.0000012956450574
 46
-48.33332879607747
 79
     2
 49
6.569094531198019
 49
-544.5157172931704
 53
74.74488067626852
 43
13464.28012385474
 44
-11694.7476626299
 45
-0.0000012956450522
 46
48.33332879607747
 79
     2
 49
6.569094531198019
 49
-544.5157172931704
 53
120.9637565612813
 43
13607.55168504799
 44
-11712.57670350514
 45
0.0000003210802688
 46
-48.33333866514959
 79
     2
 49
6.310936569088454
 49
-275.5184006697027
 53
239.0362396240333
 43
13607.55168504799
 44
-11731.76040743934
 45
-0.0000035390569272
 46
-48.33333866514947
 79
     2
 49
6.310936569088454
 49
-275.5184006697027
 53
120.9637565612813
 43
13469.25552446621
 44
-11712.96956661287
 45
0.0000003210802688
 46
-48.33333866514959
 79
     2
 49
6.310936569088454
 49
-275.5184006697027
 53
59.03624343871866
 43
13466.00856181212
 44
-11688.41003143432
 45
0.0000003210802765
 46
48.33333866514959
 79
     2
 49
6.310936569088454
 49
-275.5184006697027
 53
135.000000000003
 43
13604.30472887592
 44
-11707.16512961912
 45
0.000000000002483
 46
-48.33334305883081
 79
     2
 49
5.366870520176406
 49
-199.6941079006228
 53
225.0000000000089
 43
13604.30472887592
 44
-11737.13622485541
 45
0.0000000000075056
 46
-48.33334305883082
 79
     2
 49
5.366870520176406
 49
-199.6941079006228
 53
135.000000000003
 43
13473.05046029428
 44
-11716.76450719441
 45
0.000000000002483
 46
-48.33334305883081
 79
     2
 49
5.366870520176406
 49
-199.6941079006228
 53
44.99999999999704
 43
13469.25552446621
 44
-11682.99845581977
 45
0.0000000000025036
 46
48.33334305883081
 79
     2
 49
5.366870520176406
 49
-199.6941079006228
 53
146.309932708744
 43
13600.50978872651
 44
-11703.37017477716
 45
0.000005471509411
 46
-48.33333736175739
 79
     2
 49
5.629320866217142
 49
-168.6389897490858
 53
213.6900634765706
 43
13600.50978872651
 44
-11740.93117969737
 45
-0.0000086894860024
 46
-48.33333736175692
 79
     2
 49
5.629320866217142
 49
-168.6389897490858
 53
146.309932708744
 43
13477.73434697633
 44
-11719.88709658724
 45
0.000005471509411
 46
-48.33333736175739
 79
     2
 49
5.629320866217142
 49
-168.6389897490858
 53
33.69006729125606
 43
13473.05046029428
 44
-11679.20350270634
 45
0.0000054715094032
 46
48.33333736175739
 79
     2
 49
5.629320866217142
 49
-168.6389897490858
 53
161.5650482177782
 43
13595.8259115514
 44
-11700.24758538434
 45
0.0000024231020311
 46
-48.3333407928251
 79
     2
 49
7.158070278124811
 49
-145.6853618847208
 53
198.4349517822336
 43
13595.8259115514
 44
-11744.0537690902
 45
-0.0000024230920451
 46
-48.3333407928251
 79
     2
 49
7.158070278124811
 49
-145.6853618847208
 53
161.5650482177782
 43
13484.52508244439
 44
-11722.15067723727
 45
0.0000024231020311
 46
-48.3333407928251
 79
     2
 49
7.158070278124811
 49
-145.6853618847208
 53
18.43495178222185
 43
13477.73434697633
 44
-11676.08092887033
 45
0.0000024231020286
 46
48.3333407928251
 79
     2
 49
7.158070278124811
 49
-145.6853618847208
 53
173.6598052978571
 43
13585.11347038057
 44
-11746.31733547981
 45
290.0000241734639
 46
-48.33334860488391
 79
     2
 49
5.215925790533547
 49
-432.4610318302621
 53
186.3401947021548
 43
13585.11347038057
 44
-11697.98401899472
 45
-290.0000241734539
 46
-48.33334860494386
 79
     2
 49
5.215925790533546
 49
-432.461031830262
 53
353.659820556658
 43
13488.44679592556
 44
-11722.15067723727
 45
-290.0000370454129
 46
48.33327137314426
 79
     2
 49
5.215925790533547
 49
-432.4610318302621
 53
6.340194702142933
 43
13488.44679592556
 44
-11722.15067723727
 45
290.0000241734639
 46
48.33334860488388
 79
     2
 49
5.215925790533547
 49
-432.4610318302621
 98
        0
1001
ACAD
1010
13609.28012862311
1020
-11722.15067723727
1030
0.0
  0
LWPOLYLINE
  5
231
330
1F
100
AcDbEntity
  8
Ech.1_5
  6
Continuous
 62
   190
370
    15
390
5F
100
AcDbPolyline
 90
        9
 70
     0
 43
0.0
 10
13609.28012862311
 20
-11722.15067723727
 10
13609.28012862311
 20
-11275.84147344084
 10
13519.64247934248
 20
-11275.84147344084
 10
13503.1569761866
 20
-11293.82045159789
 10
13517.2669162044
 20
-11257.86475167723
 10
13500.78056212289
 20
-11275.84310327025
 10
13464.28012862307
 20
-11275.84310327025
 10
13464.28012862307
 20
-11722.15067723727
 10
13609.28012862311
 20
-11722.15067723727
  0
HATCH
  5
232
330
1F
100
AcDbEntity
  8
Ech.1_5
  6
Continuous
 62
   254
420
 16643007
440
 33554687
370
     5
390
5F
100
AcDbHatch
 10
0.0
 20
0.0
 30
0.0
210
0.0
220
0.0
230
1.0
  2
SOLID
 70
     1
 71
     0
 91
        1
 92
        3
 72
     0
 73
     1
 93
        8
 10
13609.2801286231
 20
-12245.41259125358
 10
13609.2801286231
 20
-11857.15067723727
 10
13464.2801286231
 20
-11857.15067723727
 10
13464.2801286231
 20
-12245.41111496574
 10
13514.8905021407
 20
-12245.41111496574
 10
13531.37685622221
 20
-12263.38946655876
 10
13517.2669162044
 20
-12227.4337666381
 10
13533.75241936032
 20
-12245.41259125358
 97
        0
 75
     0
 76
     1
 98
        0
  0
HATCH
  5
233
330
1F
100
AcDbEntity
  8
Ech.1_5
  6
Continuous
 62
     8
440
 33554687
370
    20
390
5F
100
AcDbHatch
 10
0.0
 20
0.0
 30
0.0
210
0.0
220
0.0
230
1.0
  2
CwHatchPattern_201
 70
     0
 71
     0
 91
        1
 92
        3
 72
     0
 73
     1
 93
        8
 10
13609.2801286231
 20
-12245.41259125358
 10
13609.2801286231
 20
-11857.15067723727
 10
13464.2801286231
 20
-11857.15067723727
 10
13464.2801286231
 20
-12245.41111496574
 10
13514.8905021407
 20
-12245.41111496574
 10
13531.37685622221
 20
-12263.38946655876
 10
13517.2669162044
 20
-12227.4337666381
 10
13533.75241936032
 20
-12245.41259125358
 97
        0
 75
     0
 76
     2
 52
90.0
 41
2.900000095367432
 77
     0
 78
    29
 53
90.0
 43
13609.2801286231
 44
-12248.64894783447
 45
-145.0000047683716
 46
0.0000000000000089
 79
     2
 49
6.472713161775587
 49
-17.69395934117938
 53
180.0000000000059
 43
13589.03517003345
 44
-12269.57924949612
 45
0.0000000000049953
 46
-48.33333031336451
 79
     2
 49
3.921713481170173
 49
-141.0782912872014
 53
180.0000000000059
 43
13488.44679592555
 44
-12245.41259125358
 45
0.0000000000049953
 46
-48.33333031336451
 79
     2
 49
3.921713481170173
 49
-141.0782912872014
 53
194.9324645996163
 43
13579.92944599533
 44
-12221.82193091902
 45
-144.9993095038583
 46
-48.3359814437894
 79
     2
 49
89.31476672155326
 49
-661.0203426301995
 53
165.0675354003956
 43
13579.92944599533
 44
-12220.66992127478
 45
144.9993095038682
 46
-48.33598144375943
 79
     2
 49
89.31476672155327
 49
-661.0203426301996
 53
105.2551193237315
 43
13609.2801286231
 44
-12242.17623467269
 45
-0.0000012956450574
 46
-48.33332879607747
 79
     2
 49
6.569094531198019
 49
-544.5157172931704
 53
254.7448883056749
 43
13609.2801286231
 44
-12248.64894783447
 45
0.0000077316271012
 46
-48.33332879607688
 79
     2
 49
6.569094531198019
 49
-544.5157172931704
 53
105.2551193237315
 43
13466.00856181211
 44
-12230.81990674316
 45
-0.0000012956450574
 46
-48.33332879607747
 79
     2
 49
6.569094531198019
 49
-544.5157172931704
 53
74.74488067626852
 43
13464.28012385473
 44
-12218.00957664622
 45
-0.0000012956450522
 46
48.33332879607747
 79
     2
 49
6.569094531198019
 49
-544.5157172931704
 53
120.9637565612813
 43
13607.55168504798
 44
-12235.83861752146
 45
0.0000003210802688
 46
-48.33333866514959
 79
     2
 49
6.310936569088454
 49
-275.5184006697027
 53
239.0362396240333
 43
13607.55168504798
 44
-12255.02232145566
 45
-0.0000035390569272
 46
-48.33333866514947
 79
     2
 49
6.310936569088454
 49
-275.5184006697027
 53
120.9637565612813
 43
13469.25552446619
 44
-12236.23148062918
 45
0.0000003210802688
 46
-48.33333866514959
 79
     2
 49
6.310936569088454
 49
-275.5184006697027
 53
59.03624343871866
 43
13466.00856181211
 44
-12211.67194545063
 45
0.0000003210802765
 46
48.33333866514959
 79
     2
 49
6.310936569088454
 49
-275.5184006697027
 53
135.000000000003
 43
13604.3047288759
 44
-12230.42704363544
 45
0.000000000002483
 46
-48.33334305883081
 79
     2
 49
5.366870520176406
 49
-199.6941079006228
 53
225.0000000000089
 43
13604.3047288759
 44
-12260.39813887173
 45
0.0000000000075056
 46
-48.33334305883082
 79
     2
 49
5.366870520176406
 49
-199.6941079006228
 53
135.000000000003
 43
13473.05046029426
 44
-12240.02642121073
 45
0.000000000002483
 46
-48.33334305883081
 79
     2
 49
5.366870520176406
 49
-199.6941079006228
 53
44.99999999999704
 43
13469.25552446619
 44
-12206.26036983608
 45
0.0000000000025036
 46
48.33334305883081
 79
     2
 49
5.366870520176406
 49
-199.6941079006228
 53
146.309932708744
 43
13600.50978872649
 44
-12226.63208879348
 45
0.000005471509411
 46
-48.33333736175739
 79
     2
 49
5.629320866217142
 49
-168.6389897490858
 53
213.6900634765706
 43
13600.50978872649
 44
-12264.19309371368
 45
-0.0000086894860024
 46
-48.33333736175692
 79
     2
 49
5.629320866217142
 49
-168.6389897490858
 53
146.309932708744
 43
13477.73434697631
 44
-12243.14901060356
 45
0.000005471509411
 46
-48.33333736175739
 79
     2
 49
5.629320866217142
 49
-168.6389897490858
 53
33.69006729125606
 43
13473.05046029426
 44
-12202.46541672266
 45
0.0000054715094032
 46
48.33333736175739
 79
     2
 49
5.629320866217142
 49
-168.6389897490858
 53
161.5650482177782
 43
13595.82591155138
 44
-12223.50949940065
 45
0.0000024231020311
 46
-48.3333407928251
 79
     2
 49
7.158070278124811
 49
-145.6853618847208
 53
198.4349517822336
 43
13595.82591155138
 44
-12267.31568310651
 45
-0.0000024230920451
 46
-48.3333407928251
 79
     2
 49
7.158070278124811
 49
-145.6853618847208
 53
161.5650482177782
 43
13484.52508244438
 44
-12245.41259125358
 45
0.0000024231020311
 46
-48.3333407928251
 79
     2
 49
7.158070278124811
 49
-145.6853618847208
 53
18.43495178222185
 43
13477.73434697631
 44
-12199.34284288664
 45
0.0000024231020286
 46
48.3333407928251
 79
     2
 49
7.158070278124811
 49
-145.6853618847208
 53
173.6598052978571
 43
13585.11347038055
 44
-12269.57924949612
 45
290.0000241734639
 46
-48.33334860488391
 79
     2
 49
5.215925790533547
 49
-432.4610318302621
 53
186.3401947021548
 43
13585.11347038055
 44
-12221.24593301104
 45
-290.0000241734539
 46
-48.33334860494386
 79
     2
 49
5.215925790533546
 49
-432.461031830262
 53
353.659820556658
 43
13488.44679592555
 44
-12245.41259125358
 45
-290.0000370454129
 46
48.33327137314426
 79
     2
 49
5.215925790533547
 49
-432.4610318302621
 53
6.340194702142933
 43
13488.44679592555
 44
-12245.41259125358
 45
290.0000241734639
 46
48.33334860488388
 79
     2
 49
5.215925790533547
 49
-432.4610318302621
 98
        0
1001
ACAD
1010
13609.2801286231
1020
-12245.41259125358
1030
0.0
  0
LWPOLYLINE
  5
234
330
1F
100
AcDbEntity
  8
Ech.1_5
  6
Continuous
 62
   190
370
    15
390
5F
100
AcDbPolyline
 90
        9
 70
     0
 43
0.0
 10
13609.2801286231
 20
-12245.41259125358
 10
13609.2801286231
 20
-11857.15067723727
 10
13464.2801286231
 20
-11857.15067723727
 10
13464.2801286231
 20
-12245.41111496574
 10
13514.8905021407
 20
-12245.41111496574
 10
13531.37685622221
 20
-12263.38946655876
 10
13517.2669162044
 20
-12227.4337666381
 10
13533.75241936032
 20
-12245.41259125358
 10
13609.2801286231
 20
-12245.41259125358
  0
HATCH
  5
235
330
1F
100
AcDbEntity
  8
Ech.1_5
  6
Continuous
 62
     1
440
 33554687
370
     5
390
5F
100
AcDbHatch
 10
0.0
 20
0.0
 30
0.0
210
0.0
220
0.0
230
1.0
  2
SOLID
 70
     1
 71
     0
 91
        1
 92
        3
 72
     0
 73
     1
 93
        4
 10
13366.30589637886
 20
-11824.65067682827
 10
13395.2801286231
 20
-11824.65067682827
 10
13395.2801286231
 20
-11812.15067682827
 10
13366.30650359919
 20
-11812.15067682827
 97
        0
 75
     0
 76
     1
 98
        0
  0
HATCH
  5
236
330
1F
100
AcDbEntity
  8
Ech.1_5
  6
Continuous
 62
   190
440
 33554687
370
    15
390
5F
100
AcDbHatch
 10
0.0
 20
0.0
 30
0.0
210
0.0
220
0.0
230
1.0
  2
CwHatchPattern_74
 70
     0
 71
     0
 91
        1
 92
        3
 72
     0
 73
     1
 93
        4
 10
13366.30589637886
 20
-11824.65067682827
 10
13395.2801286231
 20
-11824.65067682827
 10
13395.2801286231
 20
-11812.15067682827
 10
13366.30650359919
 20
-11812.15067682827
 97
        0
 75
     0
 76
     2
 52
0.0
 41
3.0
 77
     0
 78
     3
 53
45.00000000000297
 43
0.0
 44
0.0
 45
-0.0000000000217213
 46
210.0
 79
     0
 53
45.00000000000297
 43
0.0
 44
54.0
 45
-0.0000000000217213
 46
210.0
 79
     0
 53
45.00000000000297
 43
0.0
 44
108.0
 45
-0.0000000000217213
 46
210.0
 79
     0
 98
        0
1001
ACAD
1010
0.0
1020
0.0
1030
0.0
  0
3DFACE
  5
237
330
1F
100
AcDbEntity
  8
Ech.1_5
  6
Continuous
 62
     7
370
    20
390
5F
100
AcDbFace
 10
13366.30589637886
 20
-11824.65067682827
 30
2500.0
 11
13395.2801286231
 21
-11824.65067682827
 31
2500.0
 12
13395.2801286231
 22
-11812.15067682827
 32
2500.0
 13
13366.30650359919
 23
-11812.15067682827
 33
2500.0
  0
HATCH
  5
238
330
1F
100
AcDbEntity
  8
Ech.1_5
  6
Continuous
 62
   254
420
 13882323
440
 33554687
370
    20
390
5F
100
AcDbHatch
 10
0.0
 20
0.0
 30
0.0
210
0.0
220
0.0
230
1.0
  2
SOLID
 70
     1
 71
     0
 91
        1
 92
        3
 72
     0
 73
     1
 93
        4
 10
13395.2801286231
 20
-11275.84254798201
 10
13366.30655346047
 20
-11275.84254798201
 10
13366.30655346047
 20
-11714.68629615659
 10
13395.2801286231
 20
-11714.68629615659
 97
        0
 75
     0
 76
     1
 98
        0
  0
LWPOLYLINE
  5
239
330
1F
100
AcDbEntity
  8
Ech.1_5
  6
Continuous
 62
     7
370
    20
390
5F
100
AcDbPolyline
 90
        5
 70
     0
 43
0.0
 10
13395.2801286231
 20
-11275.84254798201
 10
13366.30655346047
 20
-11275.84254798201
 10
13366.30655346047
 20
-11714.68629615659
 10
13395.2801286231
 20
-11714.68629615659
 10
13395.2801286231
 20
-11275.84254798201
  0
HATCH
  5
23A
330
1F
100
AcDbEntity
  8
Ech.1_5
  6
Continuous
 62
   254
420
 13882323
440
 33554687
370
    20
390
5F
100
AcDbHatch
 10
0.0
 20
0.0
 30
0.0
210
0.0
220
0.0
230
1.0
  2
SOLID
 70
     1
 71
     0
 91
        1
 92
        3
 72
     0
 73
     1
 93
        4
 10
13395.28012862308
 20
-12245.41111496574
 10
13395.2801286231
 20
-11834.65067682827
 10
13366.30655346047
 20
-11834.65067682827
 10
13366.30655346054
 20
-12245.41111496574
 97
        0
 75
     0
 76
     1
 98
        0
  0
LWPOLYLINE
  5
23B
330
1F
100
AcDbEntity
  8
Ech.1_5
  6
Continuous
 62
     7
370
    20
390
5F
100
AcDbPolyline
 90
        5
 70
     0
 43
0.0
 10
13395.28012862308
 20
-12245.41111496574
 10
13395.2801286231
 20
-11834.65067682827
 10
13366.30655346047
 20
-11834.65067682827
 10
13366.30655346054
 20
-12245.41111496574
 10
13395.28012862308
 20
-12245.41111496574
  0
HATCH
  5
23C
330
1F
100
AcDbEntity
  8
Ech.1_5
  6
Continuous
 62
    40
420
 16297258
440
 33554687
370
     5
390
5F
100
AcDbHatch
 10
0.0
 20
0.0
 30
0.0
210
0.0
220
0.0
230
1.0
  2
SOLID
 70
     1
 71
     0
 91
        1
 92
        3
 72
     0
 73
     1
 93
        4
 10
13464.2801286231
 20
-11767.10833901881
 10
13464.2801286231
 20
-11275.84310327025
 10
13455.2801286231
 20
-11275.84310327025
 10
13455.2801286231
 20
-11767.10833901881
 97
        0
 75
     0
 76
     1
 98
        0
  0
HATCH
  5
23D
330
1F
100
AcDbEntity
  8
Ech.1_5
  6
Continuous
 62
   190
440
 33554687
370
    15
390
5F
100
AcDbHatch
 10
0.0
 20
0.0
 30
0.0
210
0.0
220
0.0
230
1.0
  2
CwHatchPattern_74
 70
     0
 71
     0
 91
        1
 92
        3
 72
     0
 73
     1
 93
        4
 10
13464.2801286231
 20
-11767.10833901881
 10
13464.2801286231
 20
-11275.84310327025
 10
13455.2801286231
 20
-11275.84310327025
 10
13455.2801286231
 20
-11767.10833901881
 97
        0
 75
     0
 76
     2
 52
0.0
 41
0.6000000238418579
 77
     0
 78
     3
 53
45.00000000000297
 43
0.0
 44
0.0
 45
-0.0000000000043443
 46
42.00000166893005
 79
     0
 53
45.00000000000297
 43
0.0
 44
10.80000042915344
 45
-0.0000000000043443
 46
42.00000166893005
 79
     0
 53
45.00000000000297
 43
0.0
 44
21.60000085830688
 45
-0.0000000000043443
 46
42.00000166893005
 79
     0
 98
        0
1001
ACAD
1010
0.0
1020
0.0
1030
0.0
  0
LWPOLYLINE
  5
23E
330
1F
100
AcDbEntity
  8
Ech.1_5
  6
Continuous
 62
   190
370
    15
390
5F
100
AcDbPolyline
 90
        5
 70
     0
 43
0.0
 10
13464.2801286231
 20
-11767.10833901881
 10
13464.2801286231
 20
-11275.84310327025
 10
13455.2801286231
 20
-11275.84310327025
 10
13455.2801286231
 20
-11767.10833901881
 10
13464.2801286231
 20
-11767.10833901881
  0
HATCH
  5
23F
330
1F
100
AcDbEntity
  8
Ech.1_5
  6
Continuous
 62
    54
440
 33554687
370
     5
390
5F
100
AcDbHatch
 10
0.0
 20
0.0
 30
0.0
210
0.0
220
0.0
230
1.0
  2
SOLID
 70
     1
 71
     0
 91
        1
 92
        3
 72
     0
 73
     1
 93
        4
 10
13395.2801286231
 20
-11275.84310327025
 10
13395.2801286231
 20
-11677.10833901881
 10
13455.2801286231
 20
-11677.10833901881
 10
13455.2801286231
 20
-11275.84310327025
 97
        0
 75
     0
 76
     1
 98
        0
  0
HATCH
  5
240
330
1F
100
AcDbEntity
  8
Ech.1_5
  6
Continuous
 62
     8
440
 33554687
370
    20
390
5F
100
AcDbHatch
 10
0.0
 20
0.0
 30
0.0
210
0.0
220
0.0
230
1.0
  2
CwHatchPattern_201
 70
     0
 71
     0
 91
        1
 92
        3
 72
     0
 73
     1
 93
        4
 10
13395.2801286231
 20
-11275.84310327025
 10
13395.2801286231
 20
-11677.10833901881
 10
13455.2801286231
 20
-11677.10833901881
 10
13455.2801286231
 20
-11275.84310327025
 97
        0
 75
     0
 76
     2
 52
270.0
 41
1.200000047683716
 77
     0
 78
    29
 53
270.0
 43
13395.2801286231
 44
-11274.50392122761
 45
60.00000238418579
 46
0.0000000000000037
 79
     2
 49
2.678364085291385
 49
-7.321638398235564
 53
0.0000000000059286
 43
13403.65735292449
 44
-11265.84310668759
 45
-0.0000000000020695
 46
19.99999888737989
 79
     2
 49
1.622778003326175
 49
-58.37722438085962
 53
0.0000000000059286
 43
13445.28012870257
 44
-11275.84310327025
 45
-0.0000000000020695
 46
19.99999888737989
 79
     2
 49
1.622778003326175
 49
-58.37722438085962
 53
14.93246459961628
 43
13407.42523875918
 44
-11285.60475588936
 45
59.99971468852313
 46
20.00109590687356
 79
     2
 49
36.95783475867244
 49
-273.5256608933468
 53
345.0675354003956
 43
13407.42523875918
 44
-11286.08144953852
 45
-59.99971468852727
 46
20.00109590686114
 79
     2
 49
36.95783475867245
 49
-273.5256608933469
 53
285.2551193237315
 43
13395.2801286231
 44
-11277.1822853129
 45
0.0000005361289908
 46
19.99999825953697
 79
     2
 49
2.718246031532523
 49
-225.3168500787751
 53
74.74488830567492
 43
13395.2801286231
 44
-11274.50392122761
 45
-0.0000031992939895
 46
19.99999825953672
 79
     2
 49
2.718246031532523
 49
-225.3168500787751
 53
285.2551193237315
 43
13454.56491529588
 44
-11281.88145552283
 45
0.0000005361289908
 46
19.99999825953697
 79
     2
 49
2.718246031532523
 49
-225.3168500787751
 53
254.7448806762685
 43
13455.28013100728
 44
-11287.18228180616
 45
0.0000005361289929
 46
-19.99999825953697
 79
     2
 49
2.718246031532523
 49
-225.3168500787751
 53
300.9637565612813
 43
13395.99534665908
 44
-11279.80474760034
 45
-0.000000132860805
 46
20.00000234329098
 79
     2
 49
2.611422046479461
 49
-114.0076148513003
 53
59.03623962403325
 43
13395.99534665908
 44
-11271.86666315939
 45
0.0000014644373667
 46
20.00000234329093
 79
     2
 49
2.611422046479461
 49
-114.0076148513003
 53
300.9637565612813
 43
13453.22134453326
 44
-11279.64218355465
 45
-0.000000132860805
 46
20.00000234329098
 79
     2
 49
2.611422046479461
 49
-114.0076148513003
 53
239.0362434387187
 43
13454.56491529588
 44
-11289.80474990506
 45
-0.0000001328608018
 46
-20.00000234329098
 79
     2
 49
2.611422046479461
 49
-114.0076148513003
 53
315.000000000003
 43
13397.33891473949
 44
-11282.04401956852
 45
-0.000000000001036
 46
20.00000416136598
 79
     2
 49
2.220774023563621
 49
-82.63204521465468
 53
45.0000000000089
 43
13397.33891473949
 44
-11269.64218697199
 45
-0.0000000000031079
 46
20.00000416136598
 79
     2
 49
2.220774023563621
 49
-82.63204521465468
 53
315.000000000003
 43
13451.65102624882
 44
-11278.07186330325
 45
-0.000000000001036
 46
20.00000416136598
 79
     2
 49
2.220774023563621
 49
-82.63204521465468
 53
224.999999999997
 43
13453.22134453326
 44
-11292.04402258849
 45
-0.0000000000010274
 46
-20.00000416136598
 79
     2
 49
2.220774023563621
 49
-82.63204521465468
 53
326.3099327087439
 43
13398.90923481208
 44
-11283.61434572078
 45
-0.000002264072872
 46
20.00000180395627
 79
     2
 49
2.329374167496923
 49
-69.78165140873784
 53
33.69006347657064
 43
13398.90923481208
 44
-11268.07186081973
 45
0.0000035956494017
 46
20.00000180395607
 79
     2
 49
2.329374167496923
 49
-69.78165140873784
 53
326.3099327087439
 43
13449.71286622918
 44
-11276.77975733875
 45
-0.000002264072872
 46
20.00000180395627
 79
     2
 49
2.329374167496923
 49
-69.78165140873784
 53
213.690067291256
 43
13451.65102624882
 44
-11293.61434802549
 45
-0.0000022640728752
 46
-20.00000180395627
 79
     2
 49
2.329374167496923
 49
-69.78165140873784
 53
341.5650482177782
 43
13400.84739089781
 44
-11284.90645168528
 45
-0.0000010026629152
 46
20.00000322370844
 79
     2
 49
2.961960135378838
 49
-60.28359843427324
 53
18.43495178223369
 43
13400.84739089781
 44
-11266.77975485522
 45
0.0000010026587809
 46
20.00000322370844
 79
     2
 49
2.961960135378838
 49
-60.28359843427324
 53
341.5650482177782
 43
13446.9029067059
 44
-11275.84310327025
 45
-0.0000010026629152
 46
20.00000322370844
 79
     2
 49
2.961960135378838
 49
-60.28359843427324
 53
198.4349517822218
 43
13449.71286622918
 44
-11294.90644755269
 45
-0.0000010026629163
 46
-20.00000322370844
 79
     2
 49
2.961960135378838
 49
-60.28359843427324
 53
353.6598052978571
 43
13405.28012520577
 44
-11265.84310668759
 45
-120.0000108249457
 46
20.00000645628451
 79
     2
 49
2.158314135007622
 49
-178.9493937074894
 53
6.340194702154776
 43
13405.28012520577
 44
-11285.84309985292
 45
120.0000108249416
 46
20.00000645630931
 79
     2
 49
2.158314135007621
 49
-178.9493937074894
 53
173.659820556658
 43
13445.28012870257
 44
-11275.84310327025
 45
120.0000161512695
 46
-19.99997449832305
 79
     2
 49
2.158314135007622
 49
-178.9493937074894
 53
186.3401947021429
 43
13445.28012870257
 44
-11275.84310327025
 45
-120.0000108249457
 46
-20.00000645628452
 79
     2
 49
2.158314135007622
 49
-178.9493937074894
 98
        0
1001
ACAD
1010
13395.2801286231
1020
-11275.84310327025
1030
0.0
  0
3DFACE
  5
241
330
1F
100
AcDbEntity
  8
Ech.1_5
  6
Continuous
 62
   190
370
    15
390
5F
100
AcDbFace
 10
13395.2801286231
 20
-11275.84310327025
 30
2500.0
 11
13395.2801286231
 21
-11677.10833901881
 31
2500.0
 12
13455.2801286231
 22
-11677.10833901881
 32
2500.0
 13
13455.2801286231
 23
-11275.84310327025
 33
2500.0
  0
HATCH
  5
243
330
1F
100
AcDbEntity
  8
Ech.1_5
  6
Continuous
 62
   254
420
 14407639
440
 33554687
370
     5
390
5F
100
AcDbHatch
 10
0.0
 20
0.0
 30
0.0
210
0.0
220
0.0
230
1.0
  2
SOLID
 70
     1
 71
     0
 91
        1
 92
        3
 72
     0
 73
     1
 93
        4
 10
13682.2801286231
 20
-11748.10833901881
 10
13682.2801286231
 20
-11275.84161452804
 10
13669.2801286231
 20
-11275.84161452804
 10
13669.2801286231
 20
-11748.10833901881
 97
        0
 75
     0
 76
     1
 98
        0
  0
HATCH
  5
244
330
1F
100
AcDbEntity
  8
Ech.1_5
  6
Continuous
 62
   190
440
 33554687
370
    15
390
242
100
AcDbHatch
 10
0.0
 20
0.0
 30
0.0
210
0.0
220
0.0
230
1.0
  2
CwHatchPattern_84
 70
     0
 71
     0
 91
        1
 92
        3
 72
     0
 73
     1
 93
        4
 10
13682.2801286231
 20
-11748.10833901881
 10
13682.2801286231
 20
-11275.84161452804
 10
13669.2801286231
 20
-11275.84161452804
 10
13669.2801286231
 20
-11748.10833901881
 97
        0
 75
     0
 76
     2
 52
0.0
 41
1.0
 77
     0
 78
     2
 53
0.0
 43
0.0
 44
0.0
 45
0.0
 46
70.0
 79
     2
 49
0.0
 49
-70.0
 53
0.0
 43
35.0
 44
35.0
 45
0.0
 46
70.0
 79
     2
 49
0.0
 49
-70.0
 98
        0
1001
ACAD
1010
0.0
1020
0.0
1030
0.0
  0
LWPOLYLINE
  5
245
330
1F
100
AcDbEntity
  8
Ech.1_5
  6
Continuous
 62
   190
370
    15
390
5F
100
AcDbPolyline
 90
        5
 70
     0
 43
0.0
 10
13682.2801286231
 20
-11748.10833901881
 10
13682.2801286231
 20
-11275.84161452804
 10
13669.2801286231
 20
-11275.84161452804
 10
13669.2801286231
 20
-11748.10833901881
 10
13682.2801286231
 20
-11748.10833901881
  0
HATCH
  5
246
330
1F
100
AcDbEntity
  8
Ech.1_5
  6
Continuous
 62
   254
420
 13882323
440
 33554687
370
    20
390
5F
100
AcDbHatch
 10
0.0
 20
0.0
 30
0.0
210
0.0
220
0.0
230
1.0
  2
SOLID
 70
     1
 71
     0
 91
        1
 92
        3
 72
     0
 73
     1
 93
        4
 10
13366.30655346047
 20
-11714.68618841445
 10
13366.30655346047
 20
-11275.84254798201
 10
13340.30655346047
 20
-11275.84254798201
 10
13340.30655346047
 20
-11733.40600040821
 97
        0
 75
     0
 76
     1
 98
        0
  0
LWPOLYLINE
  5
247
330
1F
100
AcDbEntity
  8
Ech.1_5
  6
Continuous
 62
     7
370
    20
390
5F
100
AcDbPolyline
 90
        5
 70
     0
 43
0.0
 10
13366.30655346047
 20
-11714.68618841445
 10
13366.30655346047
 20
-11275.84254798201
 10
13340.30655346047
 20
-11275.84254798201
 10
13340.30655346047
 20
-11733.40600040821
 10
13366.30655346047
 20
-11714.68618841445
  0
HATCH
  5
248
330
1F
100
AcDbEntity
  8
Ech.1_5
  6
Continuous
 62
    33
420
 12426362
440
 33554687
370
    20
390
5F
100
AcDbHatch
 10
0.0
 20
0.0
 30
0.0
210
0.0
220
0.0
230
1.0
  2
SOLID
 70
     1
 71
     0
 91
        1
 92
        3
 72
     0
 73
     1
 93
        8
 10
13970.83405377358
 20
-11915.70134160684
 10
13952.8567053662
 20
-11899.21583845087
 10
13952.85619369129
 20
-11767.10833901881
 10
13655.7801286231
 20
-11767.10833901881
 10
13655.7801286231
 20
-11987.10833901881
 10
13952.85588308114
 20
-11987.10833901881
 10
13952.8567053662
 20
-11918.07775567046
 10
13934.87835376177
 20
-11901.59140158903
 97
        0
 75
     0
 76
     1
 98
        0
  0
LWPOLYLINE
  5
249
330
1F
100
AcDbEntity
  8
Ech.1_5
  6
Continuous
 62
     7
370
    20
390
5F
100
AcDbPolyline
 90
        9
 70
     0
 43
0.0
 10
13970.83405377358
 20
-11915.70134160684
 10
13952.8567053662
 20
-11899.21583845087
 10
13952.85619369129
 20
-11767.10833901881
 10
13655.7801286231
 20
-11767.10833901881
 10
13655.7801286231
 20
-11987.10833901881
 10
13952.85588308114
 20
-11987.10833901881
 10
13952.8567053662
 20
-11918.07775567046
 10
13934.87835376177
 20
-11901.59140158903
 10
13970.83405377358
 20
-11915.70134160684
  0
HATCH
  5
24A
330
1F
100
AcDbEntity
  8
Ech.1_5
  6
Continuous
 62
    40
420
 16297258
440
 33554687
370
     5
390
5F
100
AcDbHatch
 10
0.0
 20
0.0
 30
0.0
210
0.0
220
0.0
230
1.0
  2
SOLID
 70
     1
 71
     0
 91
        1
 92
        3
 72
     0
 73
     1
 93
        4
 10
13610.7801286231
 20
-11748.10833901881
 10
13610.7801286231
 20
-11767.10833901881
 10
13952.85522954757
 20
-11767.10833901881
 10
13952.85522954757
 20
-11748.10833901881
 97
        0
 75
     0
 76
     1
 98
        0
  0
HATCH
  5
24B
330
1F
100
AcDbEntity
  8
Ech.1_5
  6
Continuous
 62
   190
440
 33554687
370
    15
390
5F
100
AcDbHatch
 10
0.0
 20
0.0
 30
0.0
210
0.0
220
0.0
230
1.0
  2
CwHatchPattern_74
 70
     0
 71
     0
 91
        1
 92
        3
 72
     0
 73
     1
 93
        4
 10
13610.7801286231
 20
-11748.10833901881
 10
13610.7801286231
 20
-11767.10833901881
 10
13952.85522954757
 20
-11767.10833901881
 10
13952.85522954757
 20
-11748.10833901881
 97
        0
 75
     0
 76
     2
 52
0.0
 41
0.6000000238418579
 77
     0
 78
     3
 53
45.00000000000297
 43
0.0
 44
0.0
 45
-0.0000000000043443
 46
42.00000166893005
 79
     0
 53
45.00000000000297
 43
0.0
 44
10.80000042915344
 45
-0.0000000000043443
 46
42.00000166893005
 79
     0
 53
45.00000000000297
 43
0.0
 44
21.60000085830688
 45
-0.0000000000043443
 46
42.00000166893005
 79
     0
 98
        0
1001
ACAD
1010
0.0
1020
0.0
1030
0.0
  0
LWPOLYLINE
  5
24C
330
1F
100
AcDbEntity
  8
Ech.1_5
  6
Continuous
 62
   190
370
    15
390
5F
100
AcDbPolyline
 90
        5
 70
     0
 43
0.0
 10
13610.7801286231
 20
-11748.10833901881
 10
13610.7801286231
 20
-11767.10833901881
 10
13952.85522954757
 20
-11767.10833901881
 10
13952.85522954757
 20
-11748.10833901881
 10
13610.7801286231
 20
-11748.10833901881
  0
CIRCLE
  5
24D
102
{ACAD_REACTORS
330
24E
102
}
330
1F
100
AcDbEntity
  8
Ech.1_5
  6
Continuous
 62
     7
370
    20
390
5F
100
AcDbCircle
 10
13883.52562057381
 20
-11979.96829425007
 30
0.0
 40
2.51802372978799
  0
LINE
  5
24F
102
{ACAD_REACTORS
330
24E
102
}
330
1F
100
AcDbEntity
  8
Ech.1_5
  6
Continuous
 62
     7
370
    20
390
5F
100
AcDbLine
 10
13897.02572243573
 20
-11873.22121376415
 30
0.0
 11
13897.02559852148
 21
-11998.90748040924
 31
0.0
  0
CIRCLE
  5
250
102
{ACAD_REACTORS
330
24E
102
}
330
1F
100
AcDbEntity
  8
Ech.1_5
  6
Continuous
 62
     7
370
    20
390
5F
100
AcDbCircle
 10
13883.52567297075
 20
-11934.96829425012
 30
0.0
 40
2.518023729849729
  0
ARC
  5
251
102
{ACAD_REACTORS
330
24E
102
}
330
1F
100
AcDbEntity
  8
Ech.1_5
  6
Continuous
 62
     7
370
    20
390
5F
100
AcDbCircle
 10
13865.02559852152
 20
-11998.90744314923
 30
0.0
 40
5.00000000000756
100
AcDbArc
 50
269.9999332858021
 51
359.999933286886
  0
LINE
  5
252
102
{ACAD_REACTORS
330
24E
102
}
330
1F
100
AcDbEntity
  8
Ech.1_5
  6
Continuous
 62
     7
370
    20
390
5F
100
AcDbLine
 10
13864.79547981912
 20
-12012.98773925052
 30
0.0
 11
13864.79548214785
 21
-12010.98773925052
 31
0.0
  0
LINE
  5
253
102
{ACAD_REACTORS
330
24E
102
}
330
1F
100
AcDbEntity
  8
Ech.1_5
  6
Continuous
 62
     7
370
    20
390
5F
100
AcDbLine
 10
13861.0255926996
 20
-12003.90743849169
 30
0.0
 11
13865.0255926996
 21
-12003.90744314923
 31
0.0
  0
ARC
  5
254
102
{ACAD_REACTORS
330
24E
102
}
330
1F
100
AcDbEntity
  8
Ech.1_5
  6
Continuous
 62
     7
370
    20
390
5F
100
AcDbCircle
 10
13874.79187840574
 20
-11998.40296011354
 30
0.0
 40
14.82598746656075
100
AcDbArc
 50
201.7941043665461
 51
238.1350916396147
  0
ARC
  5
255
102
{ACAD_REACTORS
330
24E
102
}
330
1F
100
AcDbEntity
  8
Ech.1_5
  6
Continuous
 62
     7
370
    20
390
5F
100
AcDbCircle
 10
13873.33636421857
 20
-12011.87775010667
 30
0.0
 40
12.47697948297653
100
AcDbArc
 50
189.3621772419064
 51
254.6121143215859
  0
LINE
  5
256
102
{ACAD_REACTORS
330
24E
102
}
330
1F
100
AcDbEntity
  8
Ech.1_5
  6
Continuous
 62
     7
370
    20
390
5F
100
AcDbLine
 10
13864.79547981912
 20
-12012.98773925052
 30
0.0
 11
13860.66506588209
 21
-12012.98773444117
 31
0.0
  0
LINE
  5
257
102
{ACAD_REACTORS
330
24E
102
}
330
1F
100
AcDbEntity
  8
Ech.1_5
  6
Continuous
 62
     7
370
    20
390
5F
100
AcDbLine
 10
13860.66506588209
 20
-12012.98773444117
 30
0.0
 11
13860.66505316739
 21
-12023.9074380719
 31
0.0
  0
LINE
  5
258
102
{ACAD_REACTORS
330
24E
102
}
330
1F
100
AcDbEntity
  8
Ech.1_5
  6
Continuous
 62
     7
370
    20
390
5F
100
AcDbLine
 10
13864.79548214785
 20
-12010.98773925052
 30
0.0
 11
13858.66506821086
 21
-12010.98773211239
 31
0.0
  0
LINE
  5
259
102
{ACAD_REACTORS
330
24E
102
}
330
1F
100
AcDbEntity
  8
Ech.1_5
  6
Continuous
 62
     7
370
    20
390
5F
100
AcDbLine
 10
13858.66506821086
 20
-12010.98773211239
 30
0.0
 11
13858.66505083867
 21
-12025.90743574312
 31
0.0
  0
CIRCLE
  5
25A
102
{ACAD_REACTORS
330
24E
102
}
330
1F
100
AcDbEntity
  8
Ech.1_5
  6
Continuous
 62
     7
370
    20
390
5F
100
AcDbCircle
 10
13883.52563803943
 20
-11964.96829425012
 30
0.0
 40
2.518023729834294
  0
CIRCLE
  5
25B
102
{ACAD_REACTORS
330
24E
102
}
330
1F
100
AcDbEntity
  8
Ech.1_5
  6
Continuous
 62
     7
370
    20
390
5F
100
AcDbCircle
 10
13883.52560310817
 20
-11994.96829425007
 30
0.0
 40
2.518023729803425
  0
CIRCLE
  5
25C
102
{ACAD_REACTORS
330
24E
102
}
330
1F
100
AcDbEntity
  8
Ech.1_5
  6
Continuous
 62
     7
370
    20
390
5F
100
AcDbCircle
 10
13883.52565550508
 20
-11949.96829425012
 30
0.0
 40
2.518023729844584
  0
ARC
  5
25D
102
{ACAD_REACTORS
330
24E
102
}
330
1F
100
AcDbEntity
  8
Ech.1_5
  6
Continuous
 62
     7
370
    20
390
5F
100
AcDbCircle
 10
13892.25931981182
 20
-11998.4029804521
 30
0.0
 40
14.8259874668525
100
AcDbArc
 50
301.8647749334543
 51
338.2057622058321
  0
ARC
  5
25E
102
{ACAD_REACTORS
330
24E
102
}
330
1F
100
AcDbEntity
  8
Ech.1_5
  6
Continuous
 62
     7
370
    20
390
5F
100
AcDbCircle
 10
13903.88397666162
 20
-12010.76257594515
 30
0.0
 40
3.804859968893155
100
AcDbArc
 50
183.4966998898
 51
304.2538340884852
  0
ARC
  5
25F
102
{ACAD_REACTORS
330
24E
102
}
330
1F
100
AcDbEntity
  8
Ech.1_5
  6
Continuous
 62
     7
370
    20
390
5F
100
AcDbCircle
 10
13893.71480261998
 20
-12011.87777383499
 30
0.0
 40
12.47697948281858
100
AcDbArc
 50
285.3877522502009
 51
350.6376893311169
  0
LINE
  5
260
102
{ACAD_REACTORS
330
24E
102
}
330
1F
100
AcDbEntity
  8
Ech.1_5
  6
Continuous
 62
     7
370
    20
390
5F
100
AcDbLine
 10
13906.0255926996
 20
-12003.9074908886
 30
0.0
 11
13902.0255926996
 21
-12003.90748623117
 31
0.0
  0
ARC
  5
261
102
{ACAD_REACTORS
330
24E
102
}
330
1F
100
AcDbEntity
  8
Ech.1_5
  6
Continuous
 62
     7
370
    20
390
5F
100
AcDbCircle
 10
13902.02559852162
 20
-11998.90748623106
 30
0.0
 40
5.000000000106928
100
AcDbArc
 50
179.9999332867818
 51
269.9999332845724
  0
LINE
  5
262
102
{ACAD_REACTORS
330
24E
102
}
330
1F
100
AcDbEntity
  8
Ech.1_5
  6
Continuous
 62
     7
370
    20
390
5F
100
AcDbLine
 10
13902.25568443445
 20
-12012.98778286819
 30
0.0
 11
13902.25568676322
 21
-12010.98778286831
 31
0.0
  0
LINE
  5
263
102
{ACAD_REACTORS
330
24E
102
}
330
1F
100
AcDbEntity
  8
Ech.1_5
  6
Continuous
 62
     7
370
    20
390
5F
100
AcDbLine
 10
13902.25568443445
 20
-12012.98778286819
 30
0.0
 11
13906.38609837148
 21
-12012.98778767754
 31
0.0
  0
LINE
  5
264
102
{ACAD_REACTORS
330
24E
102
}
330
1F
100
AcDbEntity
  8
Ech.1_5
  6
Continuous
 62
     7
370
    20
390
5F
100
AcDbLine
 10
13906.38609837148
 20
-12012.98778767754
 30
0.0
 11
13906.38608565678
 21
-12023.90749130839
 31
0.0
  0
LINE
  5
265
102
{ACAD_REACTORS
330
24E
102
}
330
1F
100
AcDbEntity
  8
Ech.1_5
  6
Continuous
 62
     7
370
    20
390
5F
100
AcDbLine
 10
13902.25568676322
 20
-12010.98778286831
 30
0.0
 11
13908.38610070026
 21
-12010.98779000631
 31
0.0
  0
LINE
  5
266
102
{ACAD_REACTORS
330
24E
102
}
330
1F
100
AcDbEntity
  8
Ech.1_5
  6
Continuous
 62
     7
370
    20
390
5F
100
AcDbLine
 10
13908.38610070026
 20
-12010.98779000631
 30
0.0
 11
13908.38608332806
 21
-12025.90749363716
 31
0.0
  0
CIRCLE
  5
267
102
{ACAD_REACTORS
330
24E
102
}
330
1F
100
AcDbEntity
  8
Ech.1_5
  6
Continuous
 62
     7
370
    20
390
5F
100
AcDbCircle
 10
13883.52569043639
 20
-11919.96829425007
 30
0.0
 40
2.51802372978799
  0
LINE
  5
268
102
{ACAD_REACTORS
330
24E
102
}
330
1F
100
AcDbEntity
  8
Ech.1_5
  6
Continuous
 62
     7
370
    20
390
5F
100
AcDbLine
 10
13870.02572243575
 20
-11873.22118232607
 30
0.0
 11
13870.02559852152
 21
-11998.90744897105
 31
0.0
  0
CIRCLE
  5
269
102
{ACAD_REACTORS
330
24E
102
}
330
1F
100
AcDbEntity
  8
Ech.1_5
  6
Continuous
 62
     7
370
    20
390
5F
100
AcDbCircle
 10
13883.52570790202
 20
-11904.96829425012
 30
0.0
 40
2.518023729829149
  0
LINE
  5
26A
102
{ACAD_REACTORS
330
24E
102
}
330
1F
100
AcDbEntity
  8
Ech.1_5
  6
Continuous
 62
     7
370
    20
390
5F
100
AcDbLine
 10
13870.02572243575
 20
-11873.22118232607
 30
0.0
 11
13897.02572243573
 21
-11873.22121376415
 31
0.0
  0
LINE
  5
26B
102
{ACAD_REACTORS
330
24E
102
}
330
1F
100
AcDbEntity
  8
Ech.1_5
  6
Continuous
 62
     7
370
    20
390
5F
100
AcDbLine
 10
13906.38608565678
 20
-12023.90749130839
 30
0.0
 11
13860.66505316739
 21
-12023.9074380719
 31
0.0
  0
LINE
  5
26C
102
{ACAD_REACTORS
330
24E
102
}
330
1F
100
AcDbEntity
  8
Ech.1_5
  6
Continuous
 62
     7
370
    20
390
5F
100
AcDbLine
 10
13858.66505083867
 20
-12025.90743574312
 30
0.0
 11
13908.38608332806
 21
-12025.90749363716
 31
0.0
  0
ARC
  5
26D
102
{ACAD_REACTORS
330
24E
102
}
330
1F
100
AcDbEntity
  8
Ech.1_5
  6
Continuous
 62
     7
370
    20
390
5F
100
AcDbCircle
 10
13863.16719277378
 20
-12010.76252853548
 30
0.0
 40
3.804859968910015
100
AcDbArc
 50
235.7460324844612
 51
356.5031666827419
  0
HATCH
  5
26E
330
1F
100
AcDbEntity
  8
Ech.1_5
  6
Continuous
 62
   254
420
 14407639
440
 33554687
370
     5
390
5F
100
AcDbHatch
 10
0.0
 20
0.0
 30
0.0
210
0.0
220
0.0
230
1.0
  2
SOLID
 70
     1
 71
     0
 91
        1
 92
        3
 72
     0
 73
     1
 93
        4
 10
13952.85608281856
 20
-12038.90749363716
 10
13952.85608281856
 20
-12025.90749363716
 10
13610.7801286231
 20
-12025.90749363716
 10
13610.7801286231
 20
-12038.90749363716
 97
        0
 75
     0
 76
     1
 98
        0
  0
HATCH
  5
26F
330
1F
100
AcDbEntity
  8
Ech.1_5
  6
Continuous
 62
   190
440
 33554687
370
    15
390
242
100
AcDbHatch
 10
0.0
 20
0.0
 30
0.0
210
0.0
220
0.0
230
1.0
  2
CwHatchPattern_84
 70
     0
 71
     0
 91
        1
 92
        3
 72
     0
 73
     1
 93
        4
 10
13952.85608281856
 20
-12038.90749363716
 10
13952.85608281856
 20
-12025.90749363716
 10
13610.7801286231
 20
-12025.90749363716
 10
13610.7801286231
 20
-12038.90749363716
 97
        0
 75
     0
 76
     2
 52
0.0
 41
1.0
 77
     0
 78
     2
 53
0.0
 43
0.0
 44
0.0
 45
0.0
 46
70.0
 79
     2
 49
0.0
 49
-70.0
 53
0.0
 43
35.0
 44
35.0
 45
0.0
 46
70.0
 79
     2
 49
0.0
 49
-70.0
 98
        0
1001
ACAD
1010
0.0
1020
0.0
1030
0.0
  0
LWPOLYLINE
  5
270
330
1F
100
AcDbEntity
  8
Ech.1_5
  6
Continuous
 62
   190
370
    15
390
5F
100
AcDbPolyline
 90
        5
 70
     0
 43
0.0
 10
13952.85608281856
 20
-12038.90749363716
 10
13952.85608281856
 20
-12025.90749363716
 10
13610.7801286231
 20
-12025.90749363716
 10
13610.7801286231
 20
-12038.90749363716
 10
13952.85608281856
 20
-12038.90749363716
  0
HATCH
  5
271
330
1F
100
AcDbEntity
  8
Ech.1_5
  6
Continuous
 62
    40
420
 16297258
440
 33554687
370
     5
390
5F
100
AcDbHatch
 10
0.0
 20
0.0
 30
0.0
210
0.0
220
0.0
230
1.0
  2
SOLID
 70
     1
 71
     0
 91
        1
 92
        3
 72
     0
 73
     1
 93
        4
 10
13455.2801286231
 20
-11812.15067723727
 10
13455.2801286231
 20
-12245.41111496574
 10
13464.2801286231
 20
-12245.41111496574
 10
13464.2801286231
 20
-11812.15067723727
 97
        0
 75
     0
 76
     1
 98
        0
  0
HATCH
  5
272
330
1F
100
AcDbEntity
  8
Ech.1_5
  6
Continuous
 62
   190
440
 33554687
370
    15
390
5F
100
AcDbHatch
 10
0.0
 20
0.0
 30
0.0
210
0.0
220
0.0
230
1.0
  2
CwHatchPattern_74
 70
     0
 71
     0
 91
        1
 92
        3
 72
     0
 73
     1
 93
        4
 10
13455.2801286231
 20
-11812.15067723727
 10
13455.2801286231
 20
-12245.41111496574
 10
13464.2801286231
 20
-12245.41111496574
 10
13464.2801286231
 20
-11812.15067723727
 97
        0
 75
     0
 76
     2
 52
0.0
 41
0.6000000238418579
 77
     0
 78
     3
 53
45.00000000000297
 43
0.0
 44
0.0
 45
-0.0000000000043443
 46
42.00000166893005
 79
     0
 53
45.00000000000297
 43
0.0
 44
10.80000042915344
 45
-0.0000000000043443
 46
42.00000166893005
 79
     0
 53
45.00000000000297
 43
0.0
 44
21.60000085830688
 45
-0.0000000000043443
 46
42.00000166893005
 79
     0
 98
        0
1001
ACAD
1010
0.0
1020
0.0
1030
0.0
  0
LWPOLYLINE
  5
273
330
1F
100
AcDbEntity
  8
Ech.1_5
  6
Continuous
 62
   190
370
    15
390
5F
100
AcDbPolyline
 90
        5
 70
     0
 43
0.0
 10
13455.2801286231
 20
-11812.15067723727
 10
13455.2801286231
 20
-12245.41111496574
 10
13464.2801286231
 20
-12245.41111496574
 10
13464.2801286231
 20
-11812.15067723727
 10
13455.2801286231
 20
-11812.15067723727
  0
HATCH
  5
274
330
1F
100
AcDbEntity
  8
Ech.1_5
  6
Continuous
 62
    54
440
 33554687
370
     5
390
5F
100
AcDbHatch
 10
0.0
 20
0.0
 30
0.0
210
0.0
220
0.0
230
1.0
  2
SOLID
 70
     1
 71
     0
 91
        1
 92
        3
 72
     0
 73
     1
 93
        4
 10
13455.2801286231
 20
-12245.41111496574
 10
13455.2801286231
 20
-11848.15067723727
 10
13395.2801286231
 20
-11848.15067723727
 10
13395.2801286231
 20
-12245.41111496574
 97
        0
 75
     0
 76
     1
 98
        0
  0
HATCH
  5
275
330
1F
100
AcDbEntity
  8
Ech.1_5
  6
Continuous
 62
     8
440
 33554687
370
    20
390
5F
100
AcDbHatch
 10
0.0
 20
0.0
 30
0.0
210
0.0
220
0.0
230
1.0
  2
CwHatchPattern_201
 70
     0
 71
     0
 91
        1
 92
        3
 72
     0
 73
     1
 93
        4
 10
13455.2801286231
 20
-12245.41111496574
 10
13455.2801286231
 20
-11848.15067723727
 10
13395.2801286231
 20
-11848.15067723727
 10
13395.2801286231
 20
-12245.41111496574
 97
        0
 75
     0
 76
     2
 52
90.0
 41
1.200000047683716
 77
     0
 78
    29
 53
90.0
 43
13455.2801286231
 44
-12246.75029700839
 45
-60.00000238418579
 46
0.0000000000000037
 79
     2
 49
2.678364085291385
 49
-7.321638398235564
 53
180.0000000000059
 43
13446.90290432171
 44
-12255.41111154841
 45
0.000000000002067
 46
-19.99999888737989
 79
     2
 49
1.622778003326175
 49
-58.37722438085962
 53
180.0000000000059
 43
13405.28012854363
 44
-12245.41111496574
 45
0.000000000002067
 46
-19.99999888737989
 79
     2
 49
1.622778003326175
 49
-58.37722438085962
 53
194.9324645996163
 43
13443.13501848702
 44
-12235.64946234663
 45
-59.99971468852313
 46
-20.00109590687357
 79
     2
 49
36.95783475867244
 49
-273.5256608933468
 53
165.0675354003956
 43
13443.13501848702
 44
-12235.17276869747
 45
59.99971468852726
 46
-20.00109590686116
 79
     2
 49
36.95783475867245
 49
-273.5256608933469
 53
105.2551193237315
 43
13455.2801286231
 44
-12244.07193292309
 45
-0.0000005361289929
 46
-19.99999825953697
 79
     2
 49
2.718246031532523
 49
-225.3168500787751
 53
254.7448883056749
 43
13455.2801286231
 44
-12246.75029700839
 45
0.0000031992939948
 46
-19.99999825953672
 79
     2
 49
2.718246031532523
 49
-225.3168500787751
 53
105.2551193237315
 43
13395.99534195032
 44
-12239.37276271316
 45
-0.0000005361289929
 46
-19.99999825953697
 79
     2
 49
2.718246031532523
 49
-225.3168500787751
 53
74.74488067626852
 43
13395.28012623891
 44
-12234.07193642983
 45
-0.0000005361289908
 46
19.99999825953697
 79
     2
 49
2.718246031532523
 49
-225.3168500787751
 53
120.9637565612813
 43
13454.56491058711
 44
-12241.44947063565
 45
0.0000001328608018
 46
-20.00000234329098
 79
     2
 49
2.611422046479461
 49
-114.0076148513003
 53
239.0362396240333
 43
13454.56491058711
 44
-12249.3875550766
 45
-0.0000014644373592
 46
-20.00000234329093
 79
     2
 49
2.611422046479461
 49
-114.0076148513003
 53
120.9637565612813
 43
13397.33891271293
 44
-12241.61203468134
 45
0.0000001328608018
 46
-20.00000234329098
 79
     2
 49
2.611422046479461
 49
-114.0076148513003
 53
59.03624343871866
 43
13395.99534195032
 44
-12231.44946833094
 45
0.000000132860805
 46
20.00000234329098
 79
     2
 49
2.611422046479461
 49
-114.0076148513003
 53
135.000000000003
 43
13453.22134250671
 44
-12239.21019866747
 45
0.0000000000010274
 46
-20.00000416136598
 79
     2
 49
2.220774023563621
 49
-82.63204521465468
 53
225.0000000000089
 43
13453.22134250671
 44
-12251.61203126401
 45
0.0000000000031058
 46
-20.00000416136598
 79
     2
 49
2.220774023563621
 49
-82.63204521465468
 53
135.000000000003
 43
13398.90923099738
 44
-12243.18235493274
 45
0.0000000000010274
 46
-20.00000416136598
 79
     2
 49
2.220774023563621
 49
-82.63204521465468
 53
44.99999999999704
 43
13397.33891271293
 44
-12229.21019564751
 45
0.000000000001036
 46
20.00000416136598
 79
     2
 49
2.220774023563621
 49
-82.63204521465468
 53
146.309932708744
 43
13451.65102243412
 44
-12237.63987251522
 45
0.0000022640728752
 46
-20.00000180395627
 79
     2
 49
2.329374167496923
 49
-69.78165140873784
 53
213.6900634765706
 43
13451.65102243412
 44
-12253.18235741626
 45
-0.0000035956494049
 46
-20.00000180395607
 79
     2
 49
2.329374167496923
 49
-69.78165140873784
 53
146.309932708744
 43
13400.84739101702
 44
-12244.47446089724
 45
0.0000022640728752
 46
-20.00000180395627
 79
     2
 49
2.329374167496923
 49
-69.78165140873784
 53
33.69006729125606
 43
13398.90923099738
 44
-12227.6398702105
 45
0.000002264072872
 46
20.00000180395627
 79
     2
 49
2.329374167496923
 49
-69.78165140873784
 53
161.5650482177782
 43
13449.71286634839
 44
-12236.34776655071
 45
0.0000010026629163
 46
-20.00000322370844
 79
     2
 49
2.961960135378838
 49
-60.28359843427324
 53
198.4349517822336
 43
13449.71286634839
 44
-12254.47446338077
 45
-0.0000010026587841
 46
-20.00000322370844
 79
     2
 49
2.961960135378838
 49
-60.28359843427324
 53
161.5650482177782
 43
13403.6573505403
 44
-12245.41111496574
 45
0.0000010026629163
 46
-20.00000322370844
 79
     2
 49
2.961960135378838
 49
-60.28359843427324
 53
18.43495178222185
 43
13400.84739101702
 44
-12226.3477706833
 45
0.0000010026629152
 46
20.00000322370844
 79
     2
 49
2.961960135378838
 49
-60.28359843427324
 53
173.6598052978571
 43
13445.28013204043
 44
-12255.41111154841
 45
120.0000108249457
 46
-20.00000645628452
 79
     2
 49
2.158314135007622
 49
-178.9493937074894
 53
186.3401947021548
 43
13445.28013204043
 44
-12235.41111838307
 45
-120.0000108249416
 46
-20.00000645630933
 79
     2
 49
2.158314135007621
 49
-178.9493937074894
 53
353.659820556658
 43
13405.28012854363
 44
-12245.41111496574
 45
-120.0000161512695
 46
19.99997449832306
 79
     2
 49
2.158314135007622
 49
-178.9493937074894
 53
6.340194702142933
 43
13405.28012854363
 44
-12245.41111496574
 45
120.0000108249457
 46
20.00000645628451
 79
     2
 49
2.158314135007622
 49
-178.9493937074894
 98
        0
1001
ACAD
1010
13455.2801286231
1020
-12245.41111496574
1030
0.0
  0
3DFACE
  5
276
330
1F
100
AcDbEntity
  8
Ech.1_5
  6
Continuous
 62
   190
370
    15
390
5F
100
AcDbFace
 10
13455.2801286231
 20
-12245.41111496574
 30
2500.0
 11
13455.2801286231
 21
-11848.15067723727
 31
2500.0
 12
13395.2801286231
 22
-11848.15067723727
 32
2500.0
 13
13395.2801286231
 23
-12245.41111496574
 33
2500.0
  0
HATCH
  5
277
330
1F
100
AcDbEntity
  8
Ech.1_5
  6
Continuous
 62
   254
420
 14407639
440
 33554687
370
     5
390
5F
100
AcDbHatch
 10
0.0
 20
0.0
 30
0.0
210
0.0
220
0.0
230
1.0
  2
SOLID
 70
     1
 71
     0
 91
        1
 92
        3
 72
     0
 73
     1
 93
        4
 10
13669.2801286231
 20
-12038.90749363716
 10
13669.2801286231
 20
-12245.41316454975
 10
13682.2801286231
 20
-12245.41316454975
 10
13682.2801286231
 20
-12038.90749363716
 97
        0
 75
     0
 76
     1
 98
        0
  0
HATCH
  5
278
330
1F
100
AcDbEntity
  8
Ech.1_5
  6
Continuous
 62
   190
440
 33554687
370
    15
390
242
100
AcDbHatch
 10
0.0
 20
0.0
 30
0.0
210
0.0
220
0.0
230
1.0
  2
CwHatchPattern_84
 70
     0
 71
     0
 91
        1
 92
        3
 72
     0
 73
     1
 93
        4
 10
13669.2801286231
 20
-12038.90749363716
 10
13669.2801286231
 20
-12245.41316454975
 10
13682.2801286231
 20
-12245.41316454975
 10
13682.2801286231
 20
-12038.90749363716
 97
        0
 75
     0
 76
     2
 52
0.0
 41
1.0
 77
     0
 78
     2
 53
0.0
 43
0.0
 44
0.0
 45
0.0
 46
70.0
 79
     2
 49
0.0
 49
-70.0
 53
0.0
 43
35.0
 44
35.0
 45
0.0
 46
70.0
 79
     2
 49
0.0
 49
-70.0
 98
        0
1001
ACAD
1010
0.0
1020
0.0
1030
0.0
  0
LWPOLYLINE
  5
279
330
1F
100
AcDbEntity
  8
Ech.1_5
  6
Continuous
 62
   190
370
    15
390
5F
100
AcDbPolyline
 90
        5
 70
     0
 43
0.0
 10
13669.2801286231
 20
-12038.90749363716
 10
13669.2801286231
 20
-12245.41316454975
 10
13682.2801286231
 20
-12245.41316454975
 10
13682.2801286231
 20
-12038.90749363716
 10
13669.2801286231
 20
-12038.90749363716
  0
HATCH
  5
27A
330
1F
100
AcDbEntity
  8
Ech.1_5
  6
Continuous
 62
   254
420
 13882323
440
 33554687
370
    20
390
5F
100
AcDbHatch
 10
0.0
 20
0.0
 30
0.0
210
0.0
220
0.0
230
1.0
  2
SOLID
 70
     1
 71
     0
 91
        1
 92
        3
 72
     0
 73
     1
 93
        4
 10
13340.30655346047
 20
-11834.65067682827
 10
13340.30655346047
 20
-12245.41111496574
 10
13366.30655346047
 20
-12245.41111496574
 10
13366.30655346047
 20
-11834.65067682827
 97
        0
 75
     0
 76
     1
 98
        0
  0
LWPOLYLINE
  5
27B
330
1F
100
AcDbEntity
  8
Ech.1_5
  6
Continuous
 62
     7
370
    20
390
5F
100
AcDbPolyline
 90
        5
 70
     0
 43
0.0
 10
13340.30655346047
 20
-11834.65067682827
 10
13340.30655346047
 20
-12245.41111496574
 10
13366.30655346047
 20
-12245.41111496574
 10
13366.30655346047
 20
-11834.65067682827
 10
13340.30655346047
 20
-11834.65067682827
  0
HATCH
  5
27C
330
1F
100
AcDbEntity
  8
Ech.1_5
  6
Continuous
 62
    33
420
 12426362
440
 33554687
370
     5
390
5F
100
AcDbHatch
 10
0.0
 20
0.0
 30
0.0
210
0.0
220
0.0
230
1.0
  2
SOLID
 70
     1
 71
     0
 91
        1
 92
        3
 72
     0
 73
     1
 93
        4
 10
13610.7801286231
 20
-11987.10833901881
 10
13655.7801286231
 20
-11987.10833901881
 10
13655.7801286231
 20
-11767.10833901881
 10
13610.7801286231
 20
-11767.10833901881
 97
        0
 75
     0
 76
     1
 98
        0
  0
LINE
  5
27D
330
1F
100
AcDbEntity
  8
Ech.1_5
  6
Continuous
 62
   190
370
    15
390
5F
100
AcDbLine
 10
13655.7801286231
 20
-11987.10833901881
 30
0.0
 11
13610.7801286231
 21
-11767.10833901881
 31
0.0
  0
LINE
  5
27E
330
1F
100
AcDbEntity
  8
Ech.1_5
  6
Continuous
 62
   190
370
    15
390
5F
100
AcDbLine
 10
13655.7801286231
 20
-11767.10833901881
 30
0.0
 11
13610.7801286231
 21
-11987.10833901881
 31
0.0
  0
LWPOLYLINE
  5
27F
330
1F
100
AcDbEntity
  8
Ech.1_5
  6
Continuous
 62
     5
370
    40
390
5F
100
AcDbPolyline
 90
        5
 70
     0
 43
0.0
 10
13610.7801286231
 20
-11987.10833901881
 10
13655.7801286231
 20
-11987.10833901881
 10
13655.7801286231
 20
-11767.10833901881
 10
13610.7801286231
 20
-11767.10833901881
 10
13610.7801286231
 20
-11987.10833901881
  0
LWPOLYLINE
  5
280
330
1F
100
AcDbEntity
  8
Ech.1_5
  6
Continuous
 62
   190
370
    15
390
5F
100
AcDbPolyline
 90
        6
 70
     0
 43
0.0
 10
13702.2801286231
 20
-12245.4133216172
 10
13533.75241936032
 20
-12245.41199810634
 10
13517.2669162044
 20
-12227.4346497787
 10
13531.37685622221
 20
-12263.39034969936
 10
13514.8905021407
 20
-12245.41199810634
 10
13319.2801286231
 20
-12245.41262654928
  0
LWPOLYLINE
  5
281
330
1F
100
AcDbEntity
  8
Ech.1_5
  6
Continuous
 62
   190
370
    15
390
5F
100
AcDbPolyline
 90
        6
 70
     0
 43
0.0
 10
13952.85522954757
 20
-11714.1083390187
 10
13952.8567053662
 20
-11899.21583845087
 10
13970.83405377358
 20
-11915.70134160684
 10
13934.87835376177
 20
-11901.59140158903
 10
13952.8567053662
 20
-11918.07775567046
 10
13952.85588308114
 20
-12077.67435922548
  0
HATCH
  5
282
330
1F
100
AcDbEntity
  8
Ech.1_5
  6
Continuous
 62
   190
440
 33554687
370
    15
390
5F
100
AcDbHatch
 10
0.0
 20
0.0
 30
0.0
210
0.0
220
0.0
230
1.0
  2
SOLID
 70
     1
 71
     0
 91
        1
 92
        3
 72
     0
 73
     1
 93
       12
 10
13663.2801286231
 20
-12068.90749388764
 10
13669.27601706533
 20
-12068.90749388764
 10
13669.2801286231
 20
-12038.90749363716
 10
13621.2801286231
 20
-12038.90749363716
 10
13621.2801286231
 20
-12068.90749388764
 10
13627.2801286231
 20
-12068.90749388764
 10
13627.2801286231
 20
-12066.90749388764
 10
13623.2801286231
 20
-12066.90749388764
 10
13623.2801286231
 20
-12040.90749388764
 10
13667.2801286231
 20
-12040.90749388764
 10
13667.2801286231
 20
-12066.90749388764
 10
13663.2801286231
 20
-12066.90749388764
 97
        0
 75
     0
 76
     1
 98
        0
  0
LWPOLYLINE
  5
283
330
1F
100
AcDbEntity
  8
Ech.1_5
  6
Continuous
 62
   190
370
    15
390
5F
100
AcDbPolyline
 90
       13
 70
     0
 43
0.0
 10
13663.2801286231
 20
-12068.90749388764
 10
13669.27601706533
 20
-12068.90749388764
 10
13669.2801286231
 20
-12038.90749363716
 10
13621.2801286231
 20
-12038.90749363716
 10
13621.2801286231
 20
-12068.90749388764
 10
13627.2801286231
 20
-12068.90749388764
 10
13627.2801286231
 20
-12066.90749388764
 10
13623.2801286231
 20
-12066.90749388764
 10
13623.2801286231
 20
-12040.90749388764
 10
13667.2801286231
 20
-12040.90749388764
 10
13667.2801286231
 20
-12066.90749388764
 10
13663.2801286231
 20
-12066.90749388764
 10
13663.2801286231
 20
-12068.90749388764
  0
LWPOLYLINE
  5
284
330
1F
100
AcDbEntity
  8
Ech.1_5
  6
Continuous
 62
   177
370
    70
390
5F
100
AcDbPolyline
 90
        5
 70
     0
 43
0.0
 10
13392.2801286231
 20
-11703.40600040821
 10
13392.2801286231
 20
-11737.91546598115
 10
13204.45016016599
 20
-11757.15067723727
 10
13204.4230912442
 20
-11830.70308134837
 10
13212.97549202408
 20
-11822.15067682827
  0
HATCH
  5
285
330
1F
100
AcDbEntity
  8
Ech.1_5
  6
Continuous
 62
    44
420
 11039488
440
 33554687
370
     5
390
5F
100
AcDbHatch
 10
0.0
 20
0.0
 30
0.0
210
0.0
220
0.0
230
1.0
  2
SOLID
 70
     1
 71
     0
 91
        1
 92
        3
 72
     0
 73
     1
 93
        4
 10
13214.43149268022
 20
-11812.15067682827
 10
13536.78012862308
 20
-11812.15067682827
 10
13536.78012862308
 20
-11767.15067723727
 10
13214.44676654894
 20
-11767.15067723727
 97
        0
 75
     0
 76
     1
 98
        0
  0
HATCH
  5
286
330
1F
100
AcDbEntity
  8
Ech.1_5
  6
Continuous
 62
   190
440
 33554687
370
    15
390
5F
100
AcDbHatch
 10
0.0
 20
0.0
 30
0.0
210
0.0
220
0.0
230
1.0
  2
CwHatchPattern_23
 70
     0
 71
     0
 91
        1
 92
        3
 72
     0
 73
     1
 93
        4
 10
13214.43149268022
 20
-11812.15067682827
 10
13536.78012862308
 20
-11812.15067682827
 10
13536.78012862308
 20
-11767.15067723727
 10
13214.44676654894
 20
-11767.15067723727
 97
        0
 75
     0
 76
     2
 52
0.0
 41
1.0
 77
     0
 78
     1
 53
0.0
 43
0.0
 44
0.0
 45
0.0
 46
10.0
 79
     0
 98
        0
1001
ACAD
1010
0.0
1020
0.0
1030
0.0
  0
LWPOLYLINE
  5
287
330
1F
100
AcDbEntity
  8
Ech.1_5
  6
Continuous
 62
   190
370
    15
390
5F
100
AcDbPolyline
 90
        5
 70
     0
 43
0.0
 10
13214.43149268022
 20
-11812.15067682827
 10
13536.78012862308
 20
-11812.15067682827
 10
13536.78012862308
 20
-11767.15067723727
 10
13214.44676654894
 20
-11767.15067723727
 10
13214.43149268022
 20
-11812.15067682827
  0
HATCH
  5
288
330
1F
100
AcDbEntity
  8
Ech.1_5
  6
Continuous
 62
    33
420
 12426362
440
 33554687
370
     5
390
5F
100
AcDbHatch
 10
0.0
 20
0.0
 30
0.0
210
0.0
220
0.0
230
1.0
  2
SOLID
 70
     1
 71
     0
 91
        1
 92
        3
 72
     0
 73
     1
 93
        4
 10
13609.2801286231
 20
-11767.10833901881
 10
13536.78012862308
 20
-11767.10833901881
 10
13536.78012862308
 20
-11812.10833901881
 10
13609.2801286231
 20
-11812.10833901881
 97
        0
 75
     0
 76
     1
 98
        0
  0
LINE
  5
289
330
1F
100
AcDbEntity
  8
Ech.1_5
  6
Continuous
 62
   190
370
    15
390
5F
100
AcDbLine
 10
13536.78012862308
 20
-11767.10833901881
 30
0.0
 11
13609.2801286231
 21
-11812.10833901881
 31
0.0
  0
LINE
  5
28A
330
1F
100
AcDbEntity
  8
Ech.1_5
  6
Continuous
 62
   190
370
    15
390
5F
100
AcDbLine
 10
13536.78012862308
 20
-11812.10833901881
 30
0.0
 11
13609.2801286231
 21
-11767.10833901881
 31
0.0
  0
LWPOLYLINE
  5
28B
330
1F
100
AcDbEntity
  8
Ech.1_5
  6
Continuous
 62
     5
370
    40
390
5F
100
AcDbPolyline
 90
        5
 70
     0
 43
0.0
 10
13609.2801286231
 20
-11767.10833901881
 10
13536.78012862308
 20
-11767.10833901881
 10
13536.78012862308
 20
-11812.10833901881
 10
13609.2801286231
 20
-11812.10833901881
 10
13609.2801286231
 20
-11767.10833901881
  0
HATCH
  5
28C
102
{ACAD_REACTORS
330
28D
102
}
330
1F
100
AcDbEntity
  8
Ech.1_5
  6
Continuous
 62
    33
420
 12426362
440
 33554687
370
     5
390
5F
100
AcDbHatch
 10
0.0
 20
0.0
 30
0.0
210
0.0
220
0.0
230
1.0
  2
SOLID
 70
     1
 71
     0
 91
        1
 92
        3
 72
     0
 73
     1
 93
        4
 10
13464.2801286231
 20
-11812.15067723727
 10
13464.2801286231
 20
-11857.15067723727
 10
13609.2801286231
 20
-11857.15067723727
 10
13609.2801286231
 20
-11812.15067723727
 97
        0
 75
     0
 76
     1
 98
        0
  0
LINE
  5
28E
102
{ACAD_REACTORS
330
28D
102
}
330
1F
100
AcDbEntity
  8
Ech.1_5
  6
Continuous
 62
   190
370
    15
390
5F
100
AcDbLine
 10
13464.2801286231
 20
-11857.15067723727
 30
0.0
 11
13609.2801286231
 21
-11812.15067723727
 31
0.0
  0
LINE
  5
28F
102
{ACAD_REACTORS
330
28D
102
}
330
1F
100
AcDbEntity
  8
Ech.1_5
  6
Continuous
 62
   190
370
    15
390
5F
100
AcDbLine
 10
13609.2801286231
 20
-11857.15067723727
 30
0.0
 11
13464.2801286231
 21
-11812.15067723727
 31
0.0
  0
LWPOLYLINE
  5
290
102
{ACAD_REACTORS
330
28D
102
}
330
1F
100
AcDbEntity
  8
Ech.1_5
  6
Continuous
 62
     5
370
    40
390
5F
100
AcDbPolyline
 90
        5
 70
     0
 43
0.0
 10
13464.2801286231
 20
-11812.15067723727
 10
13464.2801286231
 20
-11857.15067723727
 10
13609.2801286231
 20
-11857.15067723727
 10
13609.2801286231
 20
-11812.15067723727
 10
13464.2801286231
 20
-11812.15067723727
  0
HATCH
  5
291
102
{ACAD_REACTORS
330
292
102
}
330
1F
100
AcDbEntity
  8
Ech.1_5
  6
Continuous
 62
    33
420
 12426362
440
 33554687
370
     5
390
5F
100
AcDbHatch
 10
0.0
 20
0.0
 30
0.0
210
0.0
220
0.0
230
1.0
  2
SOLID
 70
     1
 71
     0
 91
        1
 92
        3
 72
     0
 73
     1
 93
        4
 10
13464.2801286231
 20
-11722.10833901881
 10
13464.2801286231
 20
-11767.10833901881
 10
13609.2801286231
 20
-11767.10833901881
 10
13609.2801286231
 20
-11722.10833901881
 97
        0
 75
     0
 76
     1
 98
        0
  0
LINE
  5
293
102
{ACAD_REACTORS
330
292
102
}
330
1F
100
AcDbEntity
  8
Ech.1_5
  6
Continuous
 62
   190
370
    15
390
5F
100
AcDbLine
 10
13464.2801286231
 20
-11767.10833901881
 30
0.0
 11
13609.2801286231
 21
-11722.10833901881
 31
0.0
  0
LINE
  5
294
102
{ACAD_REACTORS
330
292
102
}
330
1F
100
AcDbEntity
  8
Ech.1_5
  6
Continuous
 62
   190
370
    15
390
5F
100
AcDbLine
 10
13609.2801286231
 20
-11767.10833901881
 30
0.0
 11
13464.2801286231
 21
-11722.10833901881
 31
0.0
  0
LWPOLYLINE
  5
295
102
{ACAD_REACTORS
330
292
102
}
330
1F
100
AcDbEntity
  8
Ech.1_5
  6
Continuous
 62
     5
370
    40
390
5F
100
AcDbPolyline
 90
        5
 70
     0
 43
0.0
 10
13464.2801286231
 20
-11722.10833901881
 10
13464.2801286231
 20
-11767.10833901881
 10
13609.2801286231
 20
-11767.10833901881
 10
13609.2801286231
 20
-11722.10833901881
 10
13464.2801286231
 20
-11722.10833901881
  0
LWPOLYLINE
  5
296
330
1F
100
AcDbEntity
  8
Ech.1_5
  6
Continuous
 62
   190
370
    15
390
5F
100
AcDbPolyline
 90
        6
 70
     0
 43
0.0
 10
13702.2801286231
 20
-11275.84144164511
 10
13519.64247934248
 20
-11275.84302039167
 10
13503.1569761866
 20
-11293.8203687193
 10
13517.2669162044
 20
-11257.86466879865
 10
13500.78056212289
 20
-11275.84302039167
 10
13319.2801286231
 20
-11275.84246510343
  0
LWPOLYLINE
  5
297
102
{ACAD_REACTORS
330
298
102
}
330
1F
100
AcDbEntity
  8
Ech.1_5
  6
Continuous
 62
   190
370
    15
390
5F
100
AcDbPolyline
 90
       28
 70
     0
 43
0.0
 10
13296.05663912179
 20
-11740.71066770937
 10
13300.91008829178
 20
-11740.56576254938
 10
13305.77446520179
 20
-11740.40810579938
 10
13310.66069760178
 20
-11740.22494588936
 10
13315.57971323178
 20
-11740.00353124937
 10
13320.54243983178
 20
-11739.73111028937
 10
13325.55980514178
 20
-11739.39493142937
 10
13330.64273691179
 20
-11738.98224308937
 10
13335.80216288178
 20
-11738.48029369937
 10
13341.04860969179
 20
-11737.87608436937
 10
13346.34941099178
 20
-11737.12998481937
 10
13351.59074245178
 20
-11736.15232545936
 10
13356.64982516179
 20
-11734.84791553937
 10
13361.40388018178
 20
-11733.12156435938
 10
13365.73012859178
 20
-11730.87808116937
 10
13369.50579147178
 20
-11728.02227525937
 10
13372.62342786178
 20
-11724.47684873937
 10
13375.10012435178
 20
-11720.30977380936
 10
13377.01347286178
 20
-11715.65960642937
 10
13378.44146698178
 20
-11710.66537113937
 10
13379.46210034179
 20
-11705.46609248937
 10
13380.15336652179
 20
-11700.20079501937
 10
13380.59194110178
 20
-11695.00220298937
 10
13380.83576282178
 20
-11689.91347879937
 10
13380.92883471178
 20
-11684.91117180936
 10
13380.91482835179
 20
-11679.97024732937
 10
13380.83741535178
 20
-11675.06567063936
 10
13380.79334104179
 20
-11672.85452145938
  0
LINE
  5
299
102
{ACAD_REACTORS
330
298
102
}
330
1F
100
AcDbEntity
  8
Ech.1_5
  6
Continuous
 62
   190
370
    15
390
5F
100
AcDbLine
 10
13380.79334104179
 20
-11672.85452145938
 30
0.0
 11
13376.71146338178
 21
-11682.48895888937
 31
0.0
  0
LINE
  5
29A
102
{ACAD_REACTORS
330
298
102
}
330
1F
100
AcDbEntity
  8
Ech.1_5
  6
Continuous
 62
   190
370
    15
390
5F
100
AcDbLine
 10
13380.79334104179
 20
-11672.85452145938
 30
0.0
 11
13384.87521871178
 21
-11682.48895888937
 31
0.0
  0
LINE
  5
29B
102
{ACAD_REACTORS
330
29C
330
29D
102
}
330
1F
100
AcDbEntity
  8
Ech.1_5
  6
Continuous
 62
   190
370
    15
390
5F
100
AcDbLine
 10
13323.44984554772
 20
-11861.31437272897
 30
0.0
 11
13330.08013801427
 21
-11857.33979953805
 31
0.0
  0
LINE
  5
29E
102
{ACAD_REACTORS
330
29C
330
29D
102
}
330
1F
100
AcDbEntity
  8
Ech.1_5
  6
Continuous
 62
   190
370
    15
390
5F
100
AcDbLine
 10
13323.44984554772
 20
-11861.31437272897
 30
0.0
 11
13323.44276071395
 21
-11854.12007171572
 31
0.0
  0
LWPOLYLINE
  5
29F
102
{ACAD_REACTORS
330
2A0
330
29D
102
}
330
1F
100
AcDbEntity
  8
Ech.1_5
  6
Continuous
 62
   190
370
    15
390
5F
100
AcDbPolyline
 90
      130
 70
     0
 43
0.0
 10
13380.79334104179
 20
-11876.49152273934
 10
13381.39951510903
 20
-11871.86726093599
 10
13381.68977416756
 20
-11869.56743732898
 10
13381.964639656
 20
-11867.28238247555
 10
13382.2189803843
 20
-11865.01701929358
 10
13382.44766516245
 20
-11862.77627070093
 10
13382.55078307332
 20
-11861.66666528743
 10
13382.64556280039
 20
-11860.56505961545
 10
13382.7313629449
 20
-11859.47206904974
 10
13382.8075421081
 20
-11858.38830895502
 10
13382.87345889124
 20
-11857.31439469603
 10
13382.92847189556
 20
-11856.2509416375
 10
13382.97193972229
 20
-11855.19856514415
 10
13383.00322097271
 20
-11854.15788058074
 10
13383.02167424804
 20
-11853.12950331198
 10
13383.02665814954
 20
-11852.11404870262
 10
13383.01753127844
 20
-11851.11213211738
 10
13382.99365223601
 20
-11850.124368921
 10
13382.95437962347
 20
-11849.1513744782
 10
13382.89907204208
 20
-11848.19376415373
 10
13382.82708809308
 20
-11847.25215331232
 10
13382.73778637773
 20
-11846.32715731869
 10
13382.63052549725
 20
-11845.41939153758
 10
13382.50466405291
 20
-11844.52947133373
 10
13382.35956064595
 20
-11843.65801207187
 10
13382.19457387761
 20
-11842.80562911672
 10
13382.00906234913
 20
-11841.97293783304
 10
13381.80238466177
 20
-11841.16055358553
 10
13381.57389941678
 20
-11840.36909173895
 10
13381.32296521539
 20
-11839.59916765802
 10
13381.04894065885
 20
-11838.85139670747
 10
13380.7511843484
 20
-11838.12639425204
 10
13380.42905488531
 20
-11837.42477565646
 10
13380.0819108708
 20
-11836.74715628546
 10
13379.70911090613
 20
-11836.09415150379
 10
13379.31001359254
 20
-11835.46637667616
 10
13378.88397753128
 20
-11834.86444716731
 10
13378.43036132359
 20
-11834.28897834198
 10
13377.94852357072
 20
-11833.7405855649
 10
13377.69682117773
 20
-11833.47673499593
 10
13377.43782287391
 20
-11833.21988420079
 10
13377.17144848443
 20
-11832.97011010009
 10
13376.89761783442
 20
-11832.72748961441
 10
13376.61625074906
 20
-11832.49209966433
 10
13376.32726705349
 20
-11832.26401717047
 10
13376.03058657287
 20
-11832.04331905339
 10
13375.72612913236
 20
-11831.8300822337
 10
13375.41381455711
 20
-11831.624383632
 10
13375.09356267227
 20
-11831.42630016886
 10
13374.76529330301
 20
-11831.23590876488
 10
13374.42892627448
 20
-11831.05328634066
 10
13374.08438696346
 20
-11830.8785049601
 10
13373.73174277704
 20
-11830.71151243606
 10
13373.37121160979
 20
-11830.55212493187
 10
13373.00301860106
 20
-11830.40015227289
 10
13372.62738889025
 20
-11830.25540428453
 10
13372.24454761671
 20
-11830.11769079216
 10
13371.45813093901
 20
-11829.86260659698
 10
13370.64556968295
 20
-11829.63337829047
 10
13369.80866496355
 20
-11829.42848447574
 10
13368.94921789581
 20
-11829.24640375589
 10
13368.06902959475
 20
-11829.08561473404
 10
13367.16990117536
 20
-11828.94459601329
 10
13366.25363375265
 20
-11828.82182619675
 10
13365.32202844163
 20
-11828.71578388754
 10
13364.37688635732
 20
-11828.62494768877
 10
13363.42000861471
 20
-11828.54779620354
 10
13362.45319632881
 20
-11828.48280803497
 10
13361.47825061463
 20
-11828.42846178617
 10
13359.51116336147
 20
-11828.3456094603
 10
13357.53303834161
 20
-11828.28844642883
 10
13355.5568961569
 20
-11828.2610969079
 10
13354.57339536699
 20
-11828.26273384112
 10
13353.59498013974
 20
-11828.27680831729
 10
13352.62317949593
 20
-11828.30499264674
 10
13351.65952245633
 20
-11828.34895913983
 10
13350.70553804172
 20
-11828.41038010692
 10
13349.76275527288
 20
-11828.49092785836
 10
13348.83270317059
 20
-11828.59227470451
 10
13347.91691075561
 20
-11828.71609295571
 10
13347.01690704874
 20
-11828.86405492233
 10
13346.13422107073
 20
-11829.03783291471
 10
13345.27038184238
 20
-11829.23909924321
 10
13344.42691838446
 20
-11829.46952621818
 10
13343.60535971773
 20
-11829.73078614998
 10
13343.20327250007
 20
-11829.87350107168
 10
13342.80723486299
 20
-11830.02455134897
 10
13342.41743793411
 20
-11830.18414602064
 10
13342.03407284101
 20
-11830.35249412548
 10
13341.65733071129
 20
-11830.5298047023
 10
13341.28740267256
 20
-11830.71628678989
 10
13340.9244798524
 20
-11830.91214942704
 10
13340.56875337841
 20
-11831.11760165254
 10
13340.2204143782
 20
-11831.33285250519
 10
13339.87965397936
 20
-11831.55811102378
 10
13339.54666330948
 20
-11831.79358624711
 10
13339.22161186166
 20
-11832.03946133523
 10
13338.90443502029
 20
-11832.29563941228
 10
13338.59492500038
 20
-11832.56185234616
 10
13338.29287196057
 20
-11832.837829545
 10
13337.99806605953
 20
-11833.12330041698
 10
13337.71029745591
 20
-11833.41799437022
 10
13337.42935630838
 20
-11833.72164081291
 10
13337.15503277559
 20
-11834.03396915318
 10
13336.88711701622
 20
-11834.35470879919
 10
13336.36966945235
 20
-11835.02033964107
 10
13335.87533488605
 20
-11835.71636860376
 10
13335.4024345866
 20
-11836.44063095251
 10
13334.94928982331
 20
-11837.19096195254
 10
13334.51422186545
 20
-11837.9651968691
 10
13334.09555198231
 20
-11838.76117096741
 10
13333.69160144319
 20
-11839.57671951271
 10
13333.30069151737
 20
-11840.40967777023
 10
13332.92114347413
 20
-11841.25788100521
 10
13332.55127858278
 20
-11842.11916448288
 10
13332.18941811258
 20
-11842.99136346848
 10
13331.48299551285
 20
-11844.75984902437
 10
13330.09233921607
 20
-11848.33255790155
 10
13329.38124582762
 20
-11850.10214546656
 10
13329.01588226589
 20
-11850.97517095899
 10
13328.64173581822
 20
-11851.83746461169
 10
13328.25712775388
 20
-11852.68686168988
 10
13327.86061324237
 20
-11853.52149453715
 10
13327.45252731586
 20
-11854.34175611356
 10
13327.03402322842
 20
-11855.14907860874
 10
13326.60625855348
 20
-11855.94489969838
 10
13326.17039086448
 20
-11856.73065705818
 10
13325.27897673805
 20
-11858.27773129101
 10
13324.36904143663
 20
-11859.80180271276
 10
13323.44984554772
 20
-11861.31437272897
  0
LWPOLYLINE
  5
2A2
330
1F
100
AcDbEntity
  8
Ech.1_5
  6
CADWORK_22
 62
     1
 48
0.6
370
    20
390
5F
100
AcDbPolyline
 90
        2
 70
   128
 43
0.0
 10
13611.28012862311
 20
-11275.84222826242
 10
13611.28012862311
 20
-11703.10917671898
  0
LWPOLYLINE
  5
2A3
330
1F
100
AcDbEntity
  8
Ech.1_5
  6
CADWORK_22
 62
     1
 48
0.6
370
    20
390
5F
100
AcDbPolyline
 90
        2
 70
   128
 43
0.0
 10
13611.28012862311
 20
-12245.41431209435
 10
13611.28012862311
 20
-11703.10917671898
  0
LWPOLYLINE
  5
2A4
330
1F
100
AcDbEntity
  8
Ech.1_5
  6
Continuous
 62
   190
370
    15
390
5F
100
AcDbPolyline
 90
        3
 70
     0
 43
0.0
 10
13675.7801286231
 20
-11356.50879006805
 10
13740.75071543427
 20
-11356.50879006805
 10
13760.75071543427
 20
-11356.50879006805
  0
INSERT
  5
2A5
330
1F
100
AcDbEntity
  8
Ech.1_5
 62
   190
370
    15
100
AcDbBlockReference
  2
cw-line-extremity4
 10
13675.7801286231
 20
-11356.50879006805
 30
0.0
  0
LWPOLYLINE
  5
2A6
330
1F
100
AcDbEntity
  8
Ech.1_5
  6
Continuous
 62
   190
370
    15
390
5F
100
AcDbPolyline
 90
        3
 70
     0
 43
0.0
 10
13610.7801286231
 20
-11505.41425210476
 10
13740.75071543427
 20
-11505.41425210476
 10
13760.75071543427
 20
-11505.41425210476
  0
INSERT
  5
2A7
330
1F
100
AcDbEntity
  8
Ech.1_5
 62
   190
370
    15
100
AcDbBlockReference
  2
cw-line-extremity4
 10
13610.7801286231
 20
-11505.41425210476
 30
0.0
  0
LWPOLYLINE
  5
2A8
330
1F
100
AcDbEntity
  8
Ech.1_5
  6
Continuous
 62
   190
370
    15
390
5F
100
AcDbPolyline
 90
        3
 70
     0
 43
0.0
 10
13537.53012862308
 20
-11579.21268072084
 10
13740.75071543427
 20
-11579.21268072084
 10
13760.75071543427
 20
-11579.21268072084
  0
INSERT
  5
2A9
330
1F
100
AcDbEntity
  8
Ech.1_5
 62
   190
370
    15
100
AcDbBlockReference
  2
cw-line-extremity4
 10
13537.53012862308
 20
-11579.21268072084
 30
0.0
  0
LWPOLYLINE
  5
2AA
102
{ACAD_REACTORS
330
2AB
102
}
330
1F
100
AcDbEntity
  8
Ech.1_5
  6
Continuous
 62
   190
370
    15
390
5F
100
AcDbPolyline
 90
        3
 70
     0
 43
0.0
 10
13723.89622856796
 20
-11999.47769337025
 10
13748.92746829957
 20
-12120.97960786206
 10
13760.75071543427
 20
-12120.97960786206
  0
INSERT
  5
2AC
102
{ACAD_REACTORS
330
2AB
102
}
330
1F
100
AcDbEntity
  8
Ech.1_5
 62
   190
370
    15
100
AcDbBlockReference
  2
cw-line-extremity4
 10
13723.89622856796
 20
-11999.47769337025
 30
0.0
 50
281.6409351959781
  0
HATCH
  5
2AD
330
1F
100
AcDbEntity
  8
Ech.1_5
  6
Continuous
 62
   190
440
 33554687
370
    15
390
5F
100
AcDbHatch
 10
0.0
 20
0.0
 30
0.0
210
0.0
220
0.0
230
1.0
  2
CwHatchPattern_201
 70
     0
 71
     0
 91
        1
 92
        3
 72
     0
 73
     1
 93
        6
 10
13612.2801286231
 20
-12025.90749363716
 10
13952.85612089597
 20
-12025.90735667087
 10
13952.85612089597
 20
-11925.90749363716
 10
13655.7801286231
 20
-11925.90749363716
 10
13655.7801286231
 20
-11987.10833901881
 10
13612.2801286231
 20
-11987.10833901881
 97
        0
 75
     0
 76
     2
 52
0.0000230421131103
 41
1.999999642372131
 77
     0
 78
    29
 53
0.0000230421131103
 43
13610.04815903982
 44
-12025.90749453477
 45
-0.000040216066848
 46
99.99998211859848
 79
     2
 49
4.463939166556603
 49
-12.20272799681482
 53
90.00002304211905
 43
13595.61346567951
 44
-12011.94546288894
 45
-33.33332419395234
 46
-0.0000134053577878
 79
     2
 49
2.704629414445776
 49
-97.29535270416079
 53
90.00002304211905
 43
13612.28009510971
 44
-11942.57417838391
 45
-33.33332419395234
 46
-0.0000134053577878
 79
     2
 49
2.704629414445776
 49
-97.29535270416079
 53
104.9324876417294
 43
13628.54953795878
 44
-12005.66564129131
 45
-33.33519277524955
 46
99.99948921984254
 79
     2
 49
61.59637780254087
 49
-455.8760018570274
 53
75.06755844250868
 43
13629.34402720041
 44
-12005.6656409718
 45
-33.33511234348082
 46
-99.99951603202874
 79
     2
 49
61.59637780254087
 49
-455.8760018570274
 53
15.25514236584458
 43
13614.51209820637
 44
-12025.90749273955
 45
-33.33332314754806
 46
-0.0000125118057897
 79
     2
 49
4.530409062431477
 49
-375.5280013928291
 53
164.744911347788
 43
13610.04815903982
 44
-12025.90749453477
 45
-33.33332314754514
 46
-0.0000187375093926
 79
     2
 49
4.530409062431477
 49
-375.5280013928291
 53
15.25514236584458
 43
13622.3440071079
 44
-11927.09953339641
 45
-33.33332314754806
 46
-0.0000125118057897
 79
     2
 49
4.530409062431477
 49
-375.5280013928291
 53
344.7449037183816
 43
13631.1787151699
 44
-11925.90750391828
 45
33.33332314754735
 46
0.0000142989020422
 79
     2
 49
4.530409062431477
 49
-375.5280013928291
 53
30.96377960339445
 43
13618.88286725083
 44
-12024.71546118234
 45
-33.33332995380281
 46
-0.0000136267912799
 79
     2
 49
4.352369126253741
 49
-190.0126498914926
 53
149.0362626661464
 43
13605.65272940736
 44
-12024.71546650298
 45
-33.33332995380379
 46
-0.0000109646282387
 79
     2
 49
4.352369126253741
 49
-190.0126498914926
 53
30.96377960339445
 43
13618.61188887715
 44
-11929.33881901228
 45
-33.33332995380281
 46
-0.0000136267912799
 79
     2
 49
4.352369126253741
 49
-190.0126498914926
 53
329.0362664808317
 43
13635.54949485888
 44
-11927.09952808568
 45
33.33332995380299
 46
0.0000131839220285
 79
     2
 49
4.35236912625374
 49
-190.0126498914926
 53
45.00002304211608
 43
13622.61498548158
 44
-12022.47618003681
 45
-33.33333298392724
 46
-0.0000134053595967
 79
     2
 49
3.701289230354448
 49
-137.7200452589864
 53
135.000023042122
 43
13601.94526900474
 44
-12022.47618834936
 45
-33.33333298392724
 46
-0.0000134053630429
 79
     2
 49
3.701289230354448
 49
-137.7200452589864
 53
45.00002304211608
 43
13615.99469008268
 44
-11931.95601663357
 45
-33.33333298392724
 46
-0.0000134053595967
 79
     2
 49
3.701289230354448
 49
-137.7200452589864
 53
315.0000230421101
 43
13639.28161608283
 44
-11929.33881069973
 45
33.33333298392724
 46
0.0000134053561435
 79
     2
 49
3.701289230354448
 49
-137.7200452589864
 53
56.30995575085706
 43
13625.23219411082
 44
-12019.85897943529
 45
-33.3333290549104
 46
-0.0000171788102547
 79
     2
 49
3.882289430685617
 49
-116.3027269298885
 53
123.6900865186837
 43
13599.32805827043
 44
-12019.85898985292
 45
-33.333329054914
 46
-0.0000074126085942
 79
     2
 49
3.882289430685617
 49
-116.3027269298885
 53
56.30995575085706
 43
13613.84118191157
 44
-11935.18628349305
 45
-33.3333290549104
 46
-0.0000171788102547
 79
     2
 49
3.882289430685617
 49
-116.3027269298885
 53
303.6900903333691
 43
13641.89882562504
 44
-11931.95600621594
 45
33.33332905491344
 46
0.0000096319023307
 79
     2
 49
3.882289430685617
 49
-116.3027269298885
 53
71.56507125989127
 43
13627.38570228193
 44
-12016.62871913232
 45
-33.33333142116433
 46
-0.0000150764617383
 79
     2
 49
4.936599146735662
 49
-100.4726420987856
 53
108.4349748243468
 43
13597.17454750115
 44
-12016.62873128206
 45
-33.33333142116567
 46
-0.0000117342596418
 79
     2
 49
4.936599146735662
 49
-100.4726420987856
 53
71.56507125989127
 43
13612.28009402201
 44
-11939.86954896946
 45
-33.33333142116433
 46
-0.0000150764617383
 79
     2
 49
4.936599146735662
 49
-100.4726420987856
 53
288.434974824335
 43
13644.05232566549
 44
-11935.18627134332
 45
33.33333142116567
 46
0.0000117342527549
 79
     2
 49
4.936599146735663
 49
-100.4726420987856
 53
83.65982833997018
 43
13595.61346459182
 44
-12009.24084301123
 45
-33.33325637665286
 46
-199.9999877368444
 79
     2
 49
3.5971894388455
 49
-298.2489243300597
 53
96.34021774426789
 43
13628.94677924903
 44
-12009.24082960588
 45
-33.33341724096972
 46
199.9999609261187
 79
     2
 49
3.5971894388455
 49
-298.2489243300597
 53
263.6598435987711
 43
13612.28009510971
 44
-11942.57417838391
 45
33.33320311339187
 46
199.9999966140273
 79
     2
 49
3.597189438845501
 49
-298.2489243300597
 53
276.3402177442561
 43
13612.28009510971
 44
-11942.57417838391
 45
33.3334172409284
 46
-199.9999609261256
 79
     2
 49
3.597189438845501
 49
-298.2489243300597
 98
        0
1001
ACAD
1010
13612.2801286231
1020
-12025.90749363716
1030
0.0
  0
LWPOLYLINE
  5
2AE
330
1F
100
AcDbEntity
  8
Ech.1_5
  6
Continuous
 62
   190
370
    15
390
5F
100
AcDbPolyline
 90
        7
 70
     0
 43
0.0
 10
13612.2801286231
 20
-12025.90749363716
 10
13952.85612089597
 20
-12025.90735667087
 10
13952.85612089597
 20
-11925.90749363716
 10
13655.7801286231
 20
-11925.90749363716
 10
13655.7801286231
 20
-11987.10833901881
 10
13612.2801286231
 20
-11987.10833901881
 10
13612.2801286231
 20
-12025.90749363716
  0
LWPOLYLINE
  5
2AF
330
1F
100
AcDbEntity
  8
Ech.1_5
 62
     3
370
    40
390
5F
100
AcDbPolyline
 90
        4
 70
     0
 43
0.0
 10
13392.2801286231
 20
-11691.76524073719
 10
13392.2801286231
 20
-11699.89661740354
 10
13388.50231822125
 20
-11703.40600040821
 10
13388.50231822125
 20
-11711.98547484956
  0
LINE
  5
2B0
102
{ACAD_REACTORS
330
2B1
102
}
330
1F
100
AcDbEntity
  8
Ech.1_5
  6
Continuous
 62
   190
370
    15
390
5F
100
AcDbLine
 10
13623.2801286231
 20
-11275.84174419023
 30
0.0
 11
13623.2801286231
 21
-11746.10833876833
 31
0.0
  0
LINE
  5
2B2
102
{ACAD_REACTORS
330
2B1
102
}
330
1F
100
AcDbEntity
  8
Ech.1_5
  6
Continuous
 62
   190
370
    15
390
5F
100
AcDbLine
 10
13621.28218446007
 20
-11275.84174419023
 30
0.0
 11
13621.28218446007
 21
-11746.10833876833
 31
0.0
  0
LINE
  5
2B3
102
{ACAD_REACTORS
330
2B1
102
}
330
1F
100
AcDbEntity
  8
Ech.1_5
  6
Continuous
 62
   190
370
    15
390
5F
100
AcDbLine
 10
13669.27807278612
 20
-11275.84174419023
 30
0.0
 11
13669.27807278612
 21
-11746.10833876833
 31
0.0
  0
LINE
  5
2B4
102
{ACAD_REACTORS
330
2B1
102
}
330
1F
100
AcDbEntity
  8
Ech.1_5
  6
Continuous
 62
   190
370
    15
390
5F
100
AcDbLine
 10
13667.2801286231
 20
-11275.84174419023
 30
0.0
 11
13667.2801286231
 21
-11746.10833876833
 31
0.0
  0
LINE
  5
2B5
102
{ACAD_REACTORS
330
2B1
102
}
330
1F
100
AcDbEntity
  8
Ech.1_5
  6
Continuous
 62
   190
370
    15
390
5F
100
AcDbLine
 10
13623.2801286231
 20
-12040.90749388764
 30
0.0
 11
13623.2801286231
 21
-12245.4133216172
 31
0.0
  0
LINE
  5
2B6
102
{ACAD_REACTORS
330
2B1
102
}
330
1F
100
AcDbEntity
  8
Ech.1_5
  6
Continuous
 62
   190
370
    15
390
5F
100
AcDbLine
 10
13621.28218446007
 20
-12040.90749388764
 30
0.0
 11
13621.28218446007
 21
-12245.4133216172
 31
0.0
  0
LINE
  5
2B7
102
{ACAD_REACTORS
330
2B1
102
}
330
1F
100
AcDbEntity
  8
Ech.1_5
  6
Continuous
 62
   190
370
    15
390
5F
100
AcDbLine
 10
13669.27807278612
 20
-12040.90749388764
 30
0.0
 11
13669.27807278612
 21
-12245.4133216172
 31
0.0
  0
LINE
  5
2B8
102
{ACAD_REACTORS
330
2B1
102
}
330
1F
100
AcDbEntity
  8
Ech.1_5
  6
Continuous
 62
   190
370
    15
390
5F
100
AcDbLine
 10
13667.2801286231
 20
-12040.90749388764
 30
0.0
 11
13667.2801286231
 21
-12245.4133216172
 31
0.0
  0
LWPOLYLINE
  5
2B9
330
1F
100
AcDbEntity
  8
Ech.1_5
  6
Continuous
 62
   190
370
    15
390
5F
100
AcDbPolyline
 90
        3
 70
     0
 43
0.0
 10
13647.49262861974
 20
-12040.90749388764
 10
13742.96321543094
 20
-12184.33273854617
 10
13762.96321543094
 20
-12184.33273854617
  0
INSERT
  5
2BA
330
1F
100
AcDbEntity
  8
Ech.1_5
 62
   190
370
    15
100
AcDbBlockReference
  2
cw-line-extremity4
 10
13647.49262861974
 20
-12040.90749388764
 30
0.0
 50
303.6496029010036
  0
HATCH
  5
2BB
330
1F
100
AcDbEntity
  8
Ech.1_5
  6
Continuous
 62
   190
440
 33554687
370
    15
390
5F
100
AcDbHatch
 10
0.0
 20
0.0
 30
0.0
210
0.0
220
0.0
230
1.0
  2
SOLID
 70
     1
 71
     0
 91
        1
 92
        3
 72
     0
 73
     1
 93
       12
 10
13663.2801286231
 20
-11718.10833876833
 10
13669.27601706533
 20
-11718.10833876833
 10
13669.2801286231
 20
-11748.10833901881
 10
13621.2801286231
 20
-11748.10833901881
 10
13621.2801286231
 20
-11718.10833876833
 10
13627.2801286231
 20
-11718.10833876833
 10
13627.2801286231
 20
-11720.10833876833
 10
13623.2801286231
 20
-11720.10833876833
 10
13623.2801286231
 20
-11746.10833876833
 10
13667.2801286231
 20
-11746.10833876833
 10
13667.2801286231
 20
-11720.10833876833
 10
13663.2801286231
 20
-11720.10833876833
 97
        0
 75
     0
 76
     1
 98
        0
  0
LWPOLYLINE
  5
2BC
330
1F
100
AcDbEntity
  8
Ech.1_5
  6
Continuous
 62
   190
370
    15
390
5F
100
AcDbPolyline
 90
       13
 70
     0
 43
0.0
 10
13663.2801286231
 20
-11718.10833876833
 10
13669.27601706533
 20
-11718.10833876833
 10
13669.2801286231
 20
-11748.10833901881
 10
13621.2801286231
 20
-11748.10833901881
 10
13621.2801286231
 20
-11718.10833876833
 10
13627.2801286231
 20
-11718.10833876833
 10
13627.2801286231
 20
-11720.10833876833
 10
13623.2801286231
 20
-11720.10833876833
 10
13623.2801286231
 20
-11746.10833876833
 10
13667.2801286231
 20
-11746.10833876833
 10
13667.2801286231
 20
-11720.10833876833
 10
13663.2801286231
 20
-11720.10833876833
 10
13663.2801286231
 20
-11718.10833876833
  0
HATCH
  5
2BD
102
{ACAD_REACTORS
330
2BE
102
}
330
1F
100
AcDbEntity
  8
Ech.1_5
  6
Continuous
 62
    33
420
 12426362
440
 33554687
370
     5
390
5F
100
AcDbHatch
 10
0.0
 20
0.0
 30
0.0
210
0.0
220
0.0
230
1.0
  2
SOLID
 70
     1
 71
     0
 91
        1
 92
        3
 72
     0
 73
     1
 93
        4
 10
13455.2801286231
 20
-11848.15067723727
 10
13455.2801286231
 20
-11812.15067723727
 10
13395.2801286231
 20
-11812.15067723727
 10
13395.2801286231
 20
-11848.15067723727
 97
        0
 75
     0
 76
     1
 98
        0
  0
LINE
  5
2BF
102
{ACAD_REACTORS
330
2BE
102
}
330
1F
100
AcDbEntity
  8
Ech.1_5
  6
Continuous
 62
   190
370
    15
390
5F
100
AcDbLine
 10
13455.2801286231
 20
-11812.15067723727
 30
0.0
 11
13395.2801286231
 21
-11848.15067723727
 31
0.0
  0
LINE
  5
2C0
102
{ACAD_REACTORS
330
2BE
102
}
330
1F
100
AcDbEntity
  8
Ech.1_5
  6
Continuous
 62
   190
370
    15
390
5F
100
AcDbLine
 10
13395.2801286231
 20
-11812.15067723727
 30
0.0
 11
13455.2801286231
 21
-11848.15067723727
 31
0.0
  0
LWPOLYLINE
  5
2C1
102
{ACAD_REACTORS
330
2BE
102
}
330
1F
100
AcDbEntity
  8
Ech.1_5
  6
Continuous
 62
     5
370
    40
390
5F
100
AcDbPolyline
 90
        5
 70
     0
 43
0.0
 10
13455.2801286231
 20
-11848.15067723727
 10
13455.2801286231
 20
-11812.15067723727
 10
13395.2801286231
 20
-11812.15067723727
 10
13395.2801286231
 20
-11848.15067723727
 10
13455.2801286231
 20
-11848.15067723727
  0
LWPOLYLINE
  5
2C2
102
{ACAD_REACTORS
330
2BE
102
}
330
1F
100
AcDbEntity
  8
Ech.1_5
  6
Continuous
 62
     5
370
    40
390
5F
100
AcDbPolyline
 90
        5
 70
     0
 43
0.0
 10
13455.2801286231
 20
-11848.15067723727
 10
13455.2801286231
 20
-11812.15067723727
 10
13395.2801286231
 20
-11812.15067723727
 10
13395.2801286231
 20
-11848.15067723727
 10
13455.2801286231
 20
-11848.15067723727
  0
HATCH
  5
2C3
102
{ACAD_REACTORS
330
2C4
102
}
330
1F
100
AcDbEntity
  8
Ech.1_5
  6
Continuous
 62
    33
420
 12426362
440
 33554687
370
     5
390
5F
100
AcDbHatch
 10
0.0
 20
0.0
 30
0.0
210
0.0
220
0.0
230
1.0
  2
SOLID
 70
     1
 71
     0
 91
        1
 92
        3
 72
     0
 73
     1
 93
        4
 10
13455.2801286231
 20
-11767.10833901881
 10
13455.2801286231
 20
-11677.10833901881
 10
13395.2801286231
 20
-11677.10833901881
 10
13395.2801286231
 20
-11767.10833901881
 97
        0
 75
     0
 76
     1
 98
        0
  0
LINE
  5
2C5
102
{ACAD_REACTORS
330
2C4
102
}
330
1F
100
AcDbEntity
  8
Ech.1_5
  6
Continuous
 62
   190
370
    15
390
5F
100
AcDbLine
 10
13455.2801286231
 20
-11677.10833901881
 30
0.0
 11
13395.2801286231
 21
-11767.10833901881
 31
0.0
  0
LINE
  5
2C6
102
{ACAD_REACTORS
330
2C4
102
}
330
1F
100
AcDbEntity
  8
Ech.1_5
  6
Continuous
 62
   190
370
    15
390
5F
100
AcDbLine
 10
13395.2801286231
 20
-11677.10833901881
 30
0.0
 11
13455.2801286231
 21
-11767.10833901881
 31
0.0
  0
LWPOLYLINE
  5
2C7
102
{ACAD_REACTORS
330
2C4
102
}
330
1F
100
AcDbEntity
  8
Ech.1_5
  6
Continuous
 62
     5
370
    40
390
5F
100
AcDbPolyline
 90
        5
 70
     0
 43
0.0
 10
13455.2801286231
 20
-11767.10833901881
 10
13455.2801286231
 20
-11677.10833901881
 10
13395.2801286231
 20
-11677.10833901881
 10
13395.2801286231
 20
-11767.10833901881
 10
13455.2801286231
 20
-11767.10833901881
  0
LWPOLYLINE
  5
2C8
102
{ACAD_REACTORS
330
2C4
102
}
330
1F
100
AcDbEntity
  8
Ech.1_5
  6
Continuous
 62
   190
370
    15
390
5F
100
AcDbPolyline
 90
        4
 70
     0
 43
0.0
 10
13395.2801286231
 20
-11767.10833901881
 10
13455.2801286231
 20
-11677.10833901881
 10
13395.2801286231
 20
-11677.10833901881
 10
13455.2801286231
 20
-11767.10822570763
  0
LWPOLYLINE
  5
2C9
102
{ACAD_REACTORS
330
2C4
102
}
330
1F
100
AcDbEntity
  8
Ech.1_5
  6
Continuous
 62
     5
370
    40
390
5F
100
AcDbPolyline
 90
        5
 70
     0
 43
0.0
 10
13455.2801286231
 20
-11767.10833901881
 10
13455.2801286231
 20
-11677.10833901881
 10
13395.2801286231
 20
-11677.10833901881
 10
13395.2801286231
 20
-11767.10833901881
 10
13455.2801286231
 20
-11767.10833901881
  0
LWPOLYLINE
  5
2CA
330
1F
100
AcDbEntity
  8
Ech.1_5
  6
CADWORK_22
 62
   140
420
  1483507
 48
0.6
370
    20
390
5F
100
AcDbPolyline
 90
        3
 70
   128
 43
0.0
 10
13393.7801286231
 20
-12245.41088807353
 10
13393.7801286231
 20
-11812.10802285037
 10
13455.2801286231
 20
-11812.10802285037
  0
LWPOLYLINE
  5
2CB
330
1F
100
AcDbEntity
  8
Ech.1_5
  6
CADWORK_22
 62
   140
420
  1483507
 48
0.6
370
    20
390
5F
100
AcDbPolyline
 90
        3
 70
   128
 43
0.0
 10
13455.2801286231
 20
-11767.10833901881
 10
13394.97340071085
 20
-11767.52915639618
 10
13394.97340071085
 20
-11275.84254798201
  0
LWPOLYLINE
  5
2CC
330
1F
100
AcDbEntity
  8
Ech.1_5
  6
Continuous
 62
   190
370
    15
390
5F
100
AcDbPolyline
 90
        3
 70
     0
 43
0.0
 10
13459.7801286231
 20
-12189.07460142991
 10
13287.99054747204
 20
-12189.07460142991
 10
13267.99054747204
 20
-12189.07460142991
  0
INSERT
  5
2CD
330
1F
100
AcDbEntity
  8
Ech.1_5
 62
   190
370
    15
100
AcDbBlockReference
  2
cw-line-extremity4
 10
13459.7801286231
 20
-12189.07460142991
 30
0.0
 50
180.0
  0
LINE
  5
2CE
102
{ACAD_REACTORS
330
2CF
102
}
330
1F
100
AcDbEntity
  8
Ech.1_5
  6
Continuous
 62
   190
370
    15
390
5F
100
AcDbLine
 10
13573.03012862308
 20
-11789.65067723728
 30
2500.0
 11
13573.03012862308
 21
-11834.65067723727
 31
2500.0
  0
INSERT
  5
2D0
102
{ACAD_REACTORS
330
2CF
102
}
330
1F
100
AcDbEntity
  8
Ech.1_5
 62
   190
370
    15
100
AcDbBlockReference
  2
cw-line-extremity4
 10
13573.03012862308
 20
-11834.65067723727
 30
0.0
 50
90.0
  0
INSERT
  5
2D1
102
{ACAD_REACTORS
330
2CF
102
}
330
1F
100
AcDbEntity
  8
Ech.1_5
 62
   190
370
    15
100
AcDbBlockReference
  2
cw-line-extremity4
 10
13573.03012862308
 20
-11789.65067723728
 30
0.0
 50
270.0
  0
LWPOLYLINE
  5
2D2
330
1F
100
AcDbEntity
  8
Ech.1_5
  6
Continuous
 62
   190
370
    15
390
5F
100
AcDbPolyline
 90
        3
 70
     0
 43
0.0
 10
13425.12676466697
 20
-11555.49611370392
 10
13287.99054747204
 20
-11555.49611370392
 10
13267.99054747204
 20
-11555.49611370392
  0
INSERT
  5
2D3
330
1F
100
AcDbEntity
  8
Ech.1_5
 62
   190
370
    15
100
AcDbBlockReference
  2
cw-line-extremity4
 10
13425.12676466697
 20
-11555.49611370392
 30
0.0
 50
180.0
  0
LWPOLYLINE
  5
2D4
330
1F
100
AcDbEntity
  8
Ech.1_5
  6
Continuous
 62
   190
370
    15
390
5F
100
AcDbPolyline
 90
        3
 70
     0
 43
0.0
 10
13353.30655346047
 20
-11317.57827716027
 10
13287.77719957165
 20
-11317.57827716027
 10
13267.77719957165
 20
-11317.57827716027
  0
INSERT
  5
2D5
330
1F
100
AcDbEntity
  8
Ech.1_5
 62
   190
370
    15
100
AcDbBlockReference
  2
cw-line-extremity4
 10
13353.30655346047
 20
-11317.57827716027
 30
0.0
 50
180.0
  0
LWPOLYLINE
  5
2D6
330
1F
100
AcDbEntity
  8
Ech.1_5
  6
Continuous
 62
   190
370
    15
390
5F
100
AcDbPolyline
 90
        3
 70
     0
 43
0.0
 10
13377.25732452305
 20
-11396.1085738875
 10
13287.77719957165
 20
-11396.1085738875
 10
13267.77719957165
 20
-11396.1085738875
  0
INSERT
  5
2D7
330
1F
100
AcDbEntity
  8
Ech.1_5
 62
   190
370
    15
100
AcDbBlockReference
  2
cw-line-extremity4
 10
13377.25732452305
 20
-11396.1085738875
 30
0.0
 50
180.0
  0
LWPOLYLINE
  5
2D8
330
1F
100
AcDbEntity
  8
Ech.1_5
  6
Continuous
 62
   190
370
    15
390
5F
100
AcDbPolyline
 90
        3
 70
     0
 43
0.0
 10
13395.2801286231
 20
-11473.80500273526
 10
13287.77719957165
 20
-11473.80500273526
 10
13267.77719957165
 20
-11473.80500273526
  0
INSERT
  5
2D9
330
1F
100
AcDbEntity
  8
Ech.1_5
 62
   190
370
    15
100
AcDbBlockReference
  2
cw-line-extremity4
 10
13395.2801286231
 20
-11473.80500273526
 30
0.0
 50
180.0
  0
LWPOLYLINE
  5
2DA
330
1F
100
AcDbEntity
  8
Ech.1_5
  6
Continuous
 62
   190
370
    15
390
5F
100
AcDbPolyline
 90
        3
 70
     0
 43
0.0
 10
13301.86402492957
 20
-11747.33158916031
 10
13287.99054747204
 20
-11729.07987484723
 10
13267.99054747204
 20
-11729.07987484723
  0
INSERT
  5
2DB
330
1F
100
AcDbEntity
  8
Ech.1_5
 62
   190
370
    15
100
AcDbBlockReference
  2
cw-line-extremity4
 10
13301.86402492957
 20
-11747.33158916031
 30
0.0
 50
127.2391608376732
  0
LWPOLYLINE
  5
2DC
330
1F
100
AcDbEntity
  8
Ech.1_5
  6
Continuous
 62
   190
370
    15
390
5F
100
AcDbPolyline
 90
        3
 70
     0
 43
0.0
 10
13348.74997078812
 20
-11792.60066146649
 10
13287.99054747204
 20
-11677.2749422713
 10
13267.99054747204
 20
-11677.2749422713
  0
INSERT
  5
2DD
330
1F
100
AcDbEntity
  8
Ech.1_5
 62
   190
370
    15
100
AcDbBlockReference
  2
cw-line-extremity4
 10
13348.74997078812
 20
-11792.60066146649
 30
0.0
 50
117.7825303559318
  0
LWPOLYLINE
  5
2DE
102
{ACAD_REACTORS
330
2DF
102
}
330
1F
100
AcDbEntity
  8
Ech.1_5
  6
Continuous
 62
   190
370
    15
390
5F
100
AcDbPolyline
 90
        3
 70
     0
 43
0.0
 10
13711.96880021101
 20
-11809.55610211685
 10
13748.92746829957
 20
-11656.21494135047
 10
13760.75071543427
 20
-11656.21494135047
  0
INSERT
  5
2E0
102
{ACAD_REACTORS
330
2DF
102
}
330
1F
100
AcDbEntity
  8
Ech.1_5
 62
   190
370
    15
100
AcDbBlockReference
  2
cw-line-extremity4
 10
13711.96880021101
 20
-11809.55610211685
 30
0.0
 50
76.44888600681553
  0
LWPOLYLINE
  5
2E1
102
{ACAD_REACTORS
330
2CF
102
}
330
1F
100
AcDbEntity
  8
Ech.1_5
  6
Continuous
 62
   190
370
    15
390
5F
100
AcDbPolyline
 90
        3
 70
     0
 43
0.0
 10
13573.03012862308
 20
-11812.15067723727
 10
13287.99054747204
 20
-12127.37644606501
 10
13267.99054747204
 20
-12127.37644606501
  0
LWPOLYLINE
  5
2E2
330
1F
100
AcDbEntity
  8
Ech.1_5
  6
Continuous
 62
   190
370
    15
390
5F
100
AcDbPolyline
 90
        3
 70
     0
 43
0.0
 10
13379.80687916138
 20
-11817.94548613284
 10
13287.99054747204
 20
-12026.49463816226
 10
13267.99054747204
 20
-12026.49463816226
  0
INSERT
  5
2E3
330
1F
100
AcDbEntity
  8
Ech.1_5
 62
   190
370
    15
100
AcDbBlockReference
  2
cw-line-extremity4
 10
13379.80687916138
 20
-11817.94548613284
 30
0.0
 50
246.2379151282323
  0
TEXT
  5
2E6
330
1F
100
AcDbEntity
  8
Ech.1_5
  6
Continuous
 62
     7
390
5F
100
AcDbText
 10
13017.99523410469
 20
-11549.96093187052
 30
0.0
 40
12.80143345905265
  1
Ecran thermique Laine de roche
 41
0.9831959028658737
  7
arial-
100
AcDbText
  0
TEXT
  5
2E7
330
1F
100
AcDbEntity
  8
Ech.1_5
  6
Continuous
 62
     7
390
5F
100
AcDbText
 10
13174.5809340482
 20
-11572.09942898418
 30
0.0
 40
11.84221957479273
  1
r
 41
0.9862266738510993
  7
symbol-
100
AcDbText
  0
TEXT
  5
2E8
330
1F
100
AcDbEntity
  8
Ech.1_5
  6
Continuous
 62
     7
390
5F
100
AcDbText
 10
13188.88626899698
 20
-11572.12743678339
 30
0.0
 40
12.02016950530164
  1
=
 41
0.9774618934313184
  7
symbol-
100
AcDbText
  0
TEXT
  5
2E9
330
1F
100
AcDbEntity
  8
Ech.1_5
  6
Continuous
 62
     7
390
5F
100
AcDbText
 10
13202.95644343083
 20
-11572.16982369691
 30
0.0
 40
12.65281000558068
  1
70kg/m
 41
1.005446216296177
  7
arial-
100
AcDbText
  0
TEXT
  5
2EA
330
1F
100
AcDbEntity
  8
Ech.1_5
  6
Continuous
 62
     7
390
5F
100
AcDbText
 10
13261.47792554132
 20
-11566.05802076157
 30
0.0
 40
8.216271335651312
  1
3
 41
0.983944086028589
  7
arial-
100
AcDbText
  0
IMAGE
  5
2EC
330
1F
100
AcDbEntity
  8
Ech.1_5
  6
Continuous
390
5F
160
                 8
310
0800000000000000
100
AcDbRasterImage
 90
        0
 10
13740.64641880104
 20
-12468.61425215406
 30
0.0
 11
0.1487334262910545
 21
0.0
 31
0.0
 12
0.0
 22
0.1487334272781531
 32
0.0
 13
954.0
 23
334.0
340
2EB
 70
     7
280
     0
281
    50
282
    50
283
     0
360
2ED
 71
     1
 91
        2
 14
-0.5
 24
-0.5
 14
953.5
 24
333.5
290
     0
  0
INSERT
  5
2FF
102
{ACAD_REACTORS
330
300
102
}
330
1F
100
AcDbEntity
  8
Ech.1_5
100
AcDbBlockReference
  2
DIM141
 10
0.0
 20
0.0
 30
0.0
  0
INSERT
  5
312
102
{ACAD_REACTORS
330
313
102
}
330
1F
100
AcDbEntity
  8
Ech.1_5
100
AcDbBlockReference
  2
DIM142
 10
0.0
 20
0.0
 30
0.0
  0
INSERT
  5
325
102
{ACAD_REACTORS
330
326
102
}
330
1F
100
AcDbEntity
  8
Ech.1_5
100
AcDbBlockReference
  2
DIM143
 10
0.0
 20
0.0
 30
0.0
  0
INSERT
  5
338
102
{ACAD_REACTORS
330
339
102
}
330
1F
100
AcDbEntity
  8
Ech.1_5
100
AcDbBlockReference
  2
DIM144
 10
0.0
 20
0.0
 30
0.0
  0
INSERT
  5
34B
102
{ACAD_REACTORS
330
34C
102
}
330
1F
100
AcDbEntity
  8
Ech.1_5
100
AcDbBlockReference
  2
DIM145
 10
0.0
 20
0.0
 30
0.0
  0
TEXT
  5
34D
102
{ACAD_REACTORS
330
300
102
}
330
1F
100
AcDbEntity
  8
Ech.1_5
  6
Continuous
 62
   190
390
5F
100
AcDbText
 10
13199.9357046821
 20
-11790.33619657322
 30
0.0
 40
12.5
  1
10
  7
arial-
100
AcDbText
  0
TEXT
  5
34E
102
{ACAD_REACTORS
330
313
102
}
330
1F
100
AcDbEntity
  8
Ech.1_5
  6
Continuous
 62
   190
390
5F
100
AcDbText
 10
13233.22729065204
 20
-11771.65410188174
 30
0.0
 40
12.5
  1
10
 50
90.0
  7
arial-
100
AcDbText
  0
TEXT
  5
34F
102
{ACAD_REACTORS
330
326
102
}
330
1F
100
AcDbEntity
  8
Ech.1_5
  6
Continuous
 62
   190
390
5F
100
AcDbText
 10
13271.75532689152
 20
-11847.35635278489
 30
0.0
 40
12.5
  1
X
  7
arial-
100
AcDbText
  0
TEXT
  5
350
102
{ACAD_REACTORS
330
339
102
}
330
1F
100
AcDbEntity
  8
Ech.1_5
  6
Continuous
 62
   190
390
5F
100
AcDbText
 10
13355.20633008523
 20
-11839.15410147274
 30
0.0
 40
12.5
  1
10
 50
90.0
  7
arial-
100
AcDbText
  0
TEXT
  5
351
102
{ACAD_REACTORS
330
34C
102
}
330
1F
100
AcDbEntity
  8
Ech.1_5
  6
Continuous
 62
   190
390
5F
100
AcDbText
 10
13318.61199877772
 20
-11817.21917182952
 30
0.0
 40
12.5
  1
45 mini
 50
90.0
  7
arial-
100
AcDbText
  0
MTEXT
  5
352
102
{ACAD_REACTORS
330
219
330
21B
330
21C
102
}
330
1F
100
AcDbEntity
  8
Ech.1_5
  6
Continuous
 62
     4
420
    65535
390
5F
100
AcDbMText
 10
13598.36134112313
 20
-12338.62414457306
 30
0.0
 40
11.25
 41
174.2426436413061
 46
0.0
 71
     2
 72
     1
  1
{\fArial|b0|i0;\W1.000000;\H11.250000;\c16711848;Vue en coupe verticale}
  7
arial-
 73
     1
 44
1.07999975538982
  0
MTEXT
  5
353
102
{ACAD_REACTORS
330
219
330
21B
330
21C
102
}
330
1F
100
AcDbEntity
  8
Ech.1_5
  6
Continuous
 62
     4
420
    65535
390
5F
100
AcDbMText
 10
13918.68145114398
 20
-12339.0819680804
 30
0.0
 40
12.5
 41
62.88904266245663
 46
0.0
 71
     2
 72
     1
  1
{\fArial|b0|i0;\W1.000000;\H12.500000;\c16711848;Ech 1/5 }
  7
arial-
 73
     1
 44
1.07999975538982
  0
MTEXT
  5
355
102
{ACAD_REACTORS
330
219
330
21B
330
21C
102
}
330
1F
100
AcDbEntity
  8
Ech.1_5
  6
Continuous
 62
   200
420
 11010303
390
5F
100
AcDbMText
 10
13495.76761884723
 20
-12360.57932911476
 30
0.0
 40
6.25
 41
762.8659533727932
 46
0.0
 71
     2
 72
     1
  3
{\fArial|b0|i1;\W1.000000;\H6.250000;\c16711848; Il est rappelé à l'utilisateur qui consulte le site et utilise les informations qu'il contient, qu'il doit les utiliser sous sa seule responsabilité en vérifiant leur pertinence, leur cohérence et leur
  1
 non obsolescence.}
  7
arial-i
 73
     1
 44
1.07999975538982
  0
MTEXT
  5
356
102
{ACAD_REACTORS
330
219
330
21B
330
21C
102
}
330
1F
100
AcDbEntity
  8
Ech.1_5
  6
Continuous
 62
   200
420
 11010303
390
5F
100
AcDbMText
 10
13495.86136884723
 20
-12394.74385700826
 30
0.0
 40
8.125
 41
171.8542349804193
 46
0.0
 71
     2
 72
     1
  1
{\fArial|b0|i1;\W1.000000;\H8.125000;\c16711848;www.catalogue-bois-construction.fr}
  7
arial-i
 73
     1
 44
1.07999975538982
  0
MTEXT
  5
357
102
{ACAD_REACTORS
330
219
102
}
330
1F
100
AcDbEntity
  8
Ech.1_5
  6
Continuous
 62
     4
420
    65535
390
5F
100
AcDbMText
 10
13496.26761884723
 20
-11188.88325626602
 30
0.0
 40
15.0
 41
622.913689898327
 46
0.0
 71
     2
 72
     1
  1
{\fArial|b0|i0;\W1.000000;\H15.000000;\c16711848;Paroi continue - Liaison plancher bois - Déflecteur bois renforcé}
  7
arial-
 73
     1
 44
1.07999975538982
  0
MTEXT
  5
358
330
1F
100
AcDbEntity
  8
Ech.1_5
  6
Continuous
 62
     4
420
    65535
390
5F
100
AcDbMText
 10
13767.00071543428
 20
-11636.33994167829
 30
0.0
 40
12.5
 41
212.2353651989233
 46
0.0
 71
     1
 72
     1
  1
{\fArial|b0|i0;\W1.000000;\H12.500000;\c16711848;Paroi horizontale en bois }\P{\fArial|b0|i0;\W1.000000;\H12.500000;\c16711848;REI selon réglementation}
  7
arial-
 73
     1
 44
1.07999975538982
  0
MTEXT
  5
359
330
1F
100
AcDbEntity
  8
Ech.1_5
  6
Continuous
 62
     4
420
    65535
390
5F
100
AcDbMText
 10
13767.00071543428
 20
-11349.00879006805
 30
0.0
 40
12.5
 41
207.2006056774389
 46
0.0
 71
     1
 72
     1
  1
{\fArial|b0|i0;\W1.000000;\H12.500000;\c16711848;Parement mural intérieur}
  7
arial-
 73
     1
 44
1.07999975538982
  0
MTEXT
  5
35A
330
1F
100
AcDbEntity
  8
Ech.1_5
  6
Continuous
 62
     4
420
    65535
390
5F
100
AcDbMText
 10
13767.00071543428
 20
-11497.87628065661
 30
0.0
 40
12.5
 41
104.5474341381323
 46
0.0
 71
     1
 72
     1
  1
{\fArial|b0|i0;\W1.000000;\H12.500000;\c16711848;Pare-vapeur}
  7
arial-
 73
     1
 44
1.07999975538982
  0
MTEXT
  5
35B
330
1F
100
AcDbEntity
  8
Ech.1_5
  6
Continuous
 62
     4
420
    65535
390
5F
100
AcDbMText
 10
13767.00071543428
 20
-11571.67470927269
 30
0.0
 40
12.5
 41
56.90368299372494
 46
0.0
 71
     1
 72
     1
  1
{\fArial|b0|i0;\W1.000000;\H12.500000;\c16711848;Isolant}
  7
arial-
 73
     1
 44
1.07999975538982
  0
MTEXT
  5
35C
330
1F
100
AcDbEntity
  8
Ech.1_5
  6
Continuous
 62
     4
420
    65535
390
5F
100
AcDbMText
 10
13767.00071543428
 20
-12113.47960786206
 30
0.0
 40
12.5
 41
194.7069404590857
 46
0.0
 71
     1
 72
     1
  1
{\fArial|b0|i0;\W1.000000;\H12.500000;\c16711848;Isolant pour acoustique}
  7
arial-
 73
     1
 44
1.07999975538982
  0
MTEXT
  5
35D
330
1F
100
AcDbEntity
  8
Ech.1_5
  6
Continuous
 62
     4
420
    65535
390
5F
100
AcDbMText
 10
13769.21321543094
 20
-12164.457738874
 30
0.0
 40
12.5
 41
207.2006056774426
 46
0.0
 71
     1
 72
     1
  1
{\fArial|b0|i0;\W1.000000;\H12.500000;\c16711848;Ossature métallique de contre-cloison}
  7
arial-
 73
     1
 44
1.07999975538982
  0
MTEXT
  5
35E
330
1F
100
AcDbEntity
  8
Ech.1_5
  6
Continuous
 62
     4
420
    65535
390
5F
100
AcDbMText
 10
13263.00219956941
 20
-11310.14776834041
 30
0.0
 40
12.5
 41
131.3994896877557
 46
0.0
 71
     3
 72
     1
  1
{\fArial|b0|i0;\W1.000000;\H12.500000;\c16711848;Bardage ventilé}
  7
arial-
 73
     1
 44
1.07999975538982
  0
MTEXT
  5
35F
330
1F
100
AcDbEntity
  8
Ech.1_5
  6
Continuous
 62
     4
420
    65535
390
5F
100
AcDbMText
 10
13263.00219956941
 20
-11466.93369218727
 30
0.0
 40
12.5
 41
86.83253650553524
 46
0.0
 71
     3
 72
     1
  1
{\fArial|b0|i0;\W1.000000;\H12.500000;\c16711848;Pare-pluie}
  7
arial-
 73
     1
 44
1.07999975538982
  0
MTEXT
  5
360
330
1F
100
AcDbEntity
  8
Ech.1_5
  6
Continuous
 62
     4
420
    65535
390
5F
100
AcDbMText
 10
13263.21554746981
 20
-11721.57987484723
 30
0.0
 40
12.5
 41
185.476545618847
 46
0.0
 71
     3
 72
     1
  1
{\fArial|b0|i0;\W1.000000;\H12.500000;\c16711848;Bavette acier (10/10e)}
  7
arial-
 73
     1
 44
1.07999975538982
 90
        3
 63
     9
421
 13158600
 45
1.5
441
 33554687
  0
MTEXT
  5
361
330
1F
100
AcDbEntity
  8
Ech.1_5
  6
Continuous
 62
     4
420
    65535
390
5F
100
AcDbMText
 10
13263.7396995683
 20
-11377.9071670025
 30
0.0
 40
12.5
 41
140.8163559902459
 46
0.0
 71
     3
 72
     1
  1
{\fArial|b0|i0;\W1.000000;\H12.500000;\c16711848;Tasseau support}\P{\fArial|b0|i0;\W1.000000;\H12.500000;\c16711848;de bardage}
  7
arial-
 73
     1
 44
1.07999975538982
  0
MTEXT
  5
362
330
1F
100
AcDbEntity
  8
Ech.1_5
  6
Continuous
 62
     4
420
    65535
390
5F
100
AcDbMText
 10
13261.74054747205
 20
-11969.56321946555
 30
0.0
 40
12.5
 41
236.7803068432277
 46
0.0
 71
     3
 72
     1
  1
{\fArial|b0|i0;\W1.000000;\H12.500000;\c16711848;Ecran thermique A2-s3,d0 de renforcement du déflecteur en sous-face (largeur = épaisseur lame d'air) }
  7
arial-
 73
     1
 44
1.07999975538982
 90
        3
 63
     9
421
 13158600
 45
1.5
441
 33554687
  0
MTEXT
  5
363
102
{ACAD_REACTORS
330
364
102
}
330
1F
100
AcDbEntity
  8
Ech.1_5
  6
Continuous
 62
     4
420
    65535
390
5F
100
AcDbMText
 10
13261.74054747205
 20
-12107.50144639284
 30
0.0
 40
12.5
 41
155.267983244732
 46
0.0
 71
     3
 72
     1
  1
{\fArial|b0|i0;\W1.000000;\H12.500000;\c16711848;Lisses Bois Massif}\P{\fArial|b0|i0;\W1.000000;\H12.500000;\c16711848;ép 70 mm mini}
  7
arial-
 73
     1
 44
1.07999975538982
 90
        3
 63
     9
421
 13158600
 45
1.5
441
 33554687
  0
MTEXT
  5
365
330
1F
100
AcDbEntity
  8
Ech.1_5
  6
Continuous
 62
     4
420
    65535
390
5F
100
AcDbMText
 10
13261.74054747205
 20
-12182.45292191445
 30
0.0
 40
12.5
 41
128.2294552791882
 46
0.0
 71
     3
 72
     1
  1
{\fArial|b0|i0;\W1.000000;\H12.500000;\c16711848;Voile travaillant}
  7
arial-
 73
     1
 44
1.07999975538982
  0
MTEXT
  5
367
330
1F
100
AcDbEntity
  8
Ech.1_5
  6
Continuous
 62
     4
420
    65535
390
5F
100
AcDbMText
 10
13331.0560740138
 20
-11862.57973140347
 30
0.0
 40
12.5
 41
275.636044787243
 46
0.0
 71
     3
 72
     1
  1
{\fArial|b1|i1;\W1.000000;\H12.500000;\c16711848;X mm selon le type de bardage et d'écran thermique défini dans le tableau des caractéristiques techniques}
  7
arial-bi
 73
     1
 44
1.07999975538982
  0
MTEXT
  5
368
330
1F
100
AcDbEntity
  8
Ech.1_5
  6
Continuous
 62
     4
420
    65535
390
5F
100
AcDbMText
 10
13269.18728980897
 20
-12338.81021177815
 30
0.0
 40
12.5
 41
87.68452078576956
 46
0.0
 71
     2
 72
     1
  1
{\fArial|b0|i0;\W1.000000;\H12.500000;\c16711848;MEF02-05}
  7
arial-
 73
     1
 44
1.07999975538982
  0
MTEXT
  5
369
330
1F
100
AcDbEntity
  8
Ech.1_5
  6
Continuous
 62
     4
420
    65535
390
5F
100
AcDbMText
 10
13261.74054747205
 20
-11657.39994259912
 30
0.0
 40
12.5
 41
244.4951939502516
 46
0.0
 71
     3
 72
     1
  1
{\fArial|b0|i0;\W1.000000;\H12.500000;\c16711848;Déflecteur de flamme à base de bois, ép mini 45 mm}
  7
arial-
 73
     1
 44
1.07999975538982
 90
        3
 63
     9
421
 13158600
 45
1.5
441
 33554687
  0
TEXT
  5
36B
330
1F
100
AcDbEntity
  8
Ech.1_5
  6
Continuous
 62
   190
390
5F
100
AcDbText
 10
13418.98217573311
 20
-11139.72328384304
 30
0.0
 40
13.5
  1
MUR EXTERIEUR
  7
arial-b
100
AcDbText
  0
TEXT
  5
36C
330
1F
100
AcDbEntity
  8
Ech.1_5
  6
Continuous
 62
   190
390
5F
100
AcDbText
 10
13219.00627831139
 20
-11172.10675163362
 30
0.0
 40
13.5
  1
pour exigences globales feu façade
  7
arial-b
100
AcDbText
  0
TEXT
  5
36D
330
1F
100
AcDbEntity
  8
Ech.1_5
  6
Continuous
 62
   190
390
5F
100
AcDbText
 10
13859.59094154398
 20
-11253.72411095022
 30
0.0
 40
8.0
  1
Echelle en mm
  7
arial-
100
AcDbText
  0
TEXT
  5
36E
330
1F
100
AcDbEntity
  8
Ech.1_5
  6
Continuous
 62
   190
390
5F
100
AcDbText
 10
13845.61035679455
 20
-11281.9339464799
 30
0.0
 40
8.0
  1
0
  7
arial-
100
AcDbText
  0
TEXT
  5
36F
330
1F
100
AcDbEntity
  8
Ech.1_5
  6
Continuous
 62
   190
390
5F
100
AcDbText
 10
13932.20741468728
 20
-11281.9339464799
 30
0.0
 40
8.0
  1
100
  7
arial-
100
AcDbText
  0
TEXT
  5
370
330
1F
100
AcDbEntity
  8
Ech.1_5
  6
Continuous
 62
   190
390
5F
100
AcDbText
 10
13893.4669831214
 20
-11281.9339464799
 30
0.0
 40
8.0
  1
50
  7
arial-
100
AcDbText
  0
TEXT
  5
371
330
1F
100
AcDbEntity
  8
Ech.1_5
  6
Continuous
 62
   190
390
5F
100
AcDbText
 10
13534.5804076081
 20
-11172.10675163362
 30
0.0
 40
13.5
  1
- écran thermique laine de roche
  7
arial-b
100
AcDbText
  0
MTEXT
  5
372
330
1F
100
AcDbEntity
  8
Ech.1_5
  6
Continuous
 62
   190
390
5F
100
AcDbMText
 10
13059.35576748616
 20
-12340.18916954575
 30
0.0
 40
12.5
 41
0.0
 46
0.0
 71
     1
 72
     1
  1
\A1;\fArial|b0|i0;\W1.000000;\H12.500000;10/02/2022
  7
arial-
 73
     1
 44
1.0
 90
        3
 63
     9
421
 13158600
 45
1.15
441
 33554687
  0
VIEWPORT
  5
215
330
20F
100
AcDbEntity
 67
     1
  8
0
  6
Continuous
390
5F
100
AcDbViewport
 10
98.8
 20
135.8
 30
0.0
 40
209.0608
 41
287.3528000000001
 68
     1
 69
     1
 12
128.5
 22
97.5
 13
0.0
 23
0.0
 14
10.0
 24
10.0
 15
10.0
 25
10.0
 16
0.0
 26
0.0
 36
1.0
 17
0.0
 27
0.0
 37
0.0
 42
50.0
 43
0.0
 44
0.0
 45
222.18
 50
0.0
 51
0.0
 72
   100
 90
   557152
  1

281
     0
 71
     1
 74
     0
110
0.0
120
0.0
130
0.0
111
1.0
121
0.0
131
0.0
112
0.0
122
1.0
132
0.0
 79
     0
146
0.0
170
     0
 61
     5
348
2F
292
     1
282
     1
141
0.0
142
0.0
 63
   256
361
216
  0
VIEWPORT
  5
217
330
20F
100
AcDbEntity
 67
     1
  8
0
  6
Continuous
 60
     1
390
5F
100
AcDbViewport
 10
98.8
 20
135.8
 30
0.0
 40
197.6
 41
271.6
 68
     2
 69
     2
 12
13495.40511884834
 22
-11795.47328384309
 13
0.0
 23
0.0
 14
10.0
 24
10.0
 15
10.0
 25
10.0
 16
0.0
 26
0.0
 36
1.0
 17
0.0
 27
0.0
 37
0.0
 42
50.0
 43
0.0
 44
0.0
 45
1358.0
 50
0.0
 51
0.0
 72
   100
 90
   557152
  1

281
     0
 71
     1
 74
     0
110
0.0
120
0.0
130
0.0
111
1.0
121
0.0
131
0.0
112
0.0
122
1.0
132
0.0
 79
     0
146
0.0
170
     0
 61
     5
348
2F
292
     1
282
     1
141
0.0
142
0.0
 63
   256
  0
ENDSEC
  0
SECTION
  2
OBJECTS
  0
DICTIONARY
  5
C
330
0
100
AcDbDictionary
281
     1
  3
ACAD_DETAILVIEWSTYLE
350
37A
  3
ACAD_GROUP
350
D
  3
ACAD_IMAGE_DICT
350
223
  3
ACAD_IMAGE_VARS
350
60
  3
ACAD_LAYOUT
350
1A
  3
ACAD_MATERIAL
350
43
  3
ACAD_MLEADERSTYLE
350
5B
  3
ACAD_MLINESTYLE
350
17
  3
ACAD_PLOTSETTINGS
350
19
  3
ACAD_PLOTSTYLENAME
350
E
  3
ACAD_SCALELIST
350
47
  3
ACAD_SECTIONVIEWSTYLE
350
37B
  3
ACAD_TABLESTYLE
350
59
  3
ACAD_VISUALSTYLE
350
2A
  3
ACAD_WIPEOUT_VARS
350
61
  3
ACDB_RECOMPOSE_DATA
350
377
  3
AcDbVariableDictionary
350
373
  0
SUN
  5
5D
330
29
100
AcDbSun
 90
        1
290
     0
 63
     7
421
 16777215
 40
1.0
291
     1
 91
  2455826
 92
 54000000
292
     0
 70
     2
 71
   256
280
     1
  0
IMAGEDEF_REACTOR
  5
226
330
225
100
AcDbRasterImageDefReactor
 90
        2
330
225
  0
IMAGEDEF_REACTOR
  5
229
330
228
100
AcDbRasterImageDefReactor
 90
        2
330
228
  0
IMAGEDEF_REACTOR
  5
2ED
330
2EC
100
AcDbRasterImageDefReactor
 90
        2
330
2EC
  0
SUN
  5
216
330
215
100
AcDbSun
 90
        1
290
     0
 63
     7
421
 16777215
 40
1.0
291
     1
 91
  2455826
 92
 54000000
292
     0
 70
     2
 71
   256
280
     1
  0
DICTIONARY
  5
37A
102
{ACAD_REACTORS
330
C
102
}
330
C
100
AcDbDictionary
281
     1
  0
DICTIONARY
  5
D
102
{ACAD_REACTORS
330
C
102
}
330
C
100
AcDbDictionary
281
     1
  3
1080
350
21C
  3
1178
350
29D
  3
194
350
219
  3
195
350
21B
  3
547
350
24E
  3
548
350
28D
  3
549
350
292
  3
550
350
2CF
  3
551
350
298
  3
552
350
29C
  3
553
350
2A0
  3
554
350
2DF
  3
555
350
2AB
  3
556
350
2B1
  3
557
350
2BE
  3
558
350
2C4
  3
996
350
364
  3
DIM141
350
300
  3
DIM142
350
313
  3
DIM143
350
326
  3
DIM144
350
339
  3
DIM145
350
34C
  0
DICTIONARY
  5
223
102
{ACAD_REACTORS
330
C
102
}
330
C
100
AcDbDictionary
281
     1
  3
CwRasterImage3132
350
224
  3
CwRasterImage3133
350
227
  3
CwRasterImage3134
350
2EB
  0
RASTERVARIABLES
  5
60
102
{ACAD_REACTORS
330
C
102
}
330
C
100
AcDbRasterVariables
 90
        0
 70
     0
 71
     1
 72
     1
  0
DICTIONARY
  5
1A
102
{ACAD_REACTORS
330
C
102
}
330
C
100
AcDbDictionary
281
     1
  3
CompleteLayout
350
1E
  3
Model
350
22
  3
PrintFrame_22
350
210
  0
DICTIONARY
  5
43
102
{ACAD_REACTORS
330
C
102
}
330
C
100
AcDbDictionary
281
     1
  3
ByBlock
350
45
  3
ByLayer
350
44
  3
Global
350
46
  0
DICTIONARY
  5
5B
102
{ACAD_REACTORS
330
C
102
}
330
C
100
AcDbDictionary
281
     1
  3
Standard
350
5C
  0
DICTIONARY
  5
17
102
{ACAD_REACTORS
330
C
102
}
330
C
100
AcDbDictionary
281
     1
  3
Standard
350
18
  0
DICTIONARY
  5
19
102
{ACAD_REACTORS
330
C
102
}
330
C
100
AcDbDictionary
281
     1
  3
PlotSettings_
350
213
  0
ACDBDICTIONARYWDFLT
  5
E
102
{ACAD_REACTORS
330
C
102
}
330
C
100
AcDbDictionary
281
     1
  3
flat
350
5F
  3
Normal
350
F
  3
round
350
242
100
AcDbDictionaryWithDefault
340
F
  0
DICTIONARY
  5
47
102
{ACAD_REACTORS
330
C
102
}
330
C
100
AcDbDictionary
281
     1
  3
A0
350
48
  3
A1
350
49
  3
A2
350
4A
  3
A3
350
4B
  3
A4
350
4C
  3
A5
350
4D
  3
A6
350
4E
  3
A7
350
4F
  3
A8
350
50
  3
A9
350
51
  3
B0
350
52
  3
B1
350
53
  3
B2
350
54
  3
B3
350
55
  3
B4
350
56
  3
B5
350
57
  3
B6
350
58
  0
DICTIONARY
  5
37B
102
{ACAD_REACTORS
330
C
102
}
330
C
100
AcDbDictionary
281
     1
  0
DICTIONARY
  5
59
102
{ACAD_REACTORS
330
C
102
}
330
C
100
AcDbDictionary
281
     1
  3
Standard
350
5A
  0
DICTIONARY
  5
2A
102
{ACAD_REACTORS
330
C
102
}
330
C
100
AcDbDictionary
281
     1
  3
2dWireframe
350
2F
  3
Basic
350
32
  3
Brighten
350
36
  3
ColorChange
350
3A
  3
Conceptual
350
34
  3
Dim
350
35
  3
EdgeColorOff
350
3D
  3
Facepattern
350
39
  3
Flat
350
2B
  3
FlatWithEdges
350
2C
  3
Gouraud
350
2D
  3
GouraudWithEdges
350
2E
  3
Hidden
350
31
  3
JitterOff
350
3B
  3
Linepattern
350
38
  3
OverhangOff
350
3C
  3
Realistic
350
33
  3
Shaded
350
42
  3
Shaded with edges
350
41
  3
Shades of Gray
350
3E
  3
Sketchy
350
3F
  3
Thicken
350
37
  3
Wireframe
350
30
  3
X-Ray
350
40
  0
WIPEOUTVARIABLES
  5
61
102
{ACAD_REACTORS
330
C
102
}
330
C
100
AcDbWipeoutVariables
 70
     0
  0
XRECORD
  5
377
102
{ACAD_REACTORS
330
C
102
}
330
C
100
AcDbXrecord
280
     1
 90
        1
330
5A
  0
DICTIONARY
  5
373
102
{ACAD_REACTORS
330
C
102
}
330
C
100
AcDbDictionary
281
     1
  3
CANNOSCALE
350
374
  3
CENTEREXE
350
37D
  3
CENTERLTYPEFILE
350
37E
  3
CMLEADERSTYLE
350
379
  3
CTABLESTYLE
350
378
  3
WIPEOUTFRAME
350
37C
  0
GROUP
  5
21C
102
{ACAD_REACTORS
330
D
102
}
330
D
100
AcDbGroup
300

 70
     0
 71
     1
340
21A
340
21D
340
21E
340
21F
340
220
340
221
340
222
340
225
340
352
340
353
340
355
340
356
  0
GROUP
  5
29D
102
{ACAD_REACTORS
330
D
102
}
330
D
100
AcDbGroup
300

 70
     0
 71
     1
340
29B
340
29E
340
29F
  0
GROUP
  5
219
102
{ACAD_REACTORS
330
D
102
}
330
D
100
AcDbGroup
300

 70
     0
 71
     1
340
218
340
21A
340
21D
340
21E
340
21F
340
220
340
221
340
222
340
225
340
228
340
352
340
353
340
355
340
356
340
357
  0
GROUP
  5
21B
102
{ACAD_REACTORS
330
D
102
}
330
D
100
AcDbGroup
300

 70
     0
 71
     1
340
21A
340
21D
340
21E
340
21F
340
220
340
221
340
222
340
352
340
353
340
355
340
356
  0
GROUP
  5
24E
102
{ACAD_REACTORS
330
D
102
}
330
D
100
AcDbGroup
300

 70
     0
 71
     1
340
24D
340
24F
340
250
340
251
340
252
340
253
340
254
340
255
340
256
340
257
340
258
340
259
340
25A
340
25B
340
25C
340
25D
340
25E
340
25F
340
260
340
261
340
262
340
263
340
264
340
265
340
266
340
267
340
268
340
269
340
26A
340
26B
340
26C
340
26D
  0
GROUP
  5
28D
102
{ACAD_REACTORS
330
D
102
}
330
D
100
AcDbGroup
300

 70
     0
 71
     1
340
28C
340
28E
340
28F
340
290
  0
GROUP
  5
292
102
{ACAD_REACTORS
330
D
102
}
330
D
100
AcDbGroup
300

 70
     0
 71
     1
340
291
340
293
340
294
340
295
  0
GROUP
  5
2CF
102
{ACAD_REACTORS
330
D
102
}
330
D
100
AcDbGroup
300

 70
     0
 71
     1
340
2CE
340
2D0
340
2D1
340
2E1
  0
GROUP
  5
298
102
{ACAD_REACTORS
330
D
102
}
330
D
100
AcDbGroup
300

 70
     0
 71
     1
340
297
340
299
340
29A
  0
GROUP
  5
29C
102
{ACAD_REACTORS
330
D
102
}
330
D
100
AcDbGroup
300

 70
     0
 71
     1
340
29B
340
29E
  0
GROUP
  5
2A0
102
{ACAD_REACTORS
330
D
102
}
330
D
100
AcDbGroup
300

 70
     0
 71
     1
340
29F
  0
GROUP
  5
2DF
102
{ACAD_REACTORS
330
D
102
}
330
D
100
AcDbGroup
300

 70
     0
 71
     1
340
2DE
340
2E0
  0
GROUP
  5
2AB
102
{ACAD_REACTORS
330
D
102
}
330
D
100
AcDbGroup
300

 70
     0
 71
     1
340
2AA
340
2AC
  0
GROUP
  5
2B1
102
{ACAD_REACTORS
330
D
102
}
330
D
100
AcDbGroup
300

 70
     0
 71
     1
340
2B0
340
2B2
340
2B3
340
2B4
340
2B5
340
2B6
340
2B7
340
2B8
  0
GROUP
  5
2BE
102
{ACAD_REACTORS
330
D
102
}
330
D
100
AcDbGroup
300

 70
     0
 71
     1
340
2BD
340
2BF
340
2C0
340
2C1
340
2C2
  0
GROUP
  5
2C4
102
{ACAD_REACTORS
330
D
102
}
330
D
100
AcDbGroup
300

 70
     0
 71
     1
340
2C3
340
2C5
340
2C6
340
2C7
340
2C8
340
2C9
  0
GROUP
  5
364
102
{ACAD_REACTORS
330
D
102
}
330
D
100
AcDbGroup
300

 70
     0
 71
     1
340
363
  0
GROUP
  5
300
102
{ACAD_REACTORS
330
D
102
}
330
D
100
AcDbGroup
300

 70
     0
 71
     1
340
2FF
340
34D
  0
GROUP
  5
313
102
{ACAD_REACTORS
330
D
102
}
330
D
100
AcDbGroup
300

 70
     0
 71
     1
340
312
340
34E
  0
GROUP
  5
326
102
{ACAD_REACTORS
330
D
102
}
330
D
100
AcDbGroup
300

 70
     0
 71
     1
340
325
340
34F
  0
GROUP
  5
339
102
{ACAD_REACTORS
330
D
102
}
330
D
100
AcDbGroup
300

 70
     0
 71
     1
340
338
340
350
  0
GROUP
  5
34C
102
{ACAD_REACTORS
330
D
102
}
330
D
100
AcDbGroup
300

 70
     0
 71
     1
340
34B
340
351
  0
IMAGEDEF
  5
224
102
{ACAD_REACTORS
330
223
330
226
102
}
330
223
100
AcDbRasterImageDef
 90
        0
  1
fcba.jpg
 10
247.0
 20
171.0
 11
0.3527336860670194
 21
0.3527336860670194
280
     1
281
     3
  0
IMAGEDEF
  5
227
102
{ACAD_REACTORS
330
223
330
229
102
}
330
223
100
AcDbRasterImageDef
 90
        0
  1
EXE_LOGO_FBF_soutien_Q_L.jpg
 10
200.0
 20
133.0
 11
0.3527336860670194
 21
0.3527336860670194
280
     1
281
     3
  0
IMAGEDEF
  5
2EB
102
{ACAD_REACTORS
330
223
330
2ED
102
}
330
223
100
AcDbRasterImageDef
 90
        0
  1
{3D18D2F7-F982-4527-A176-7E8FDB81B9D8}.TIFF
 10
954.0
 20
334.0
 11
0.2645502645502645
 21
0.2645502645502645
280
     1
281
     3
  0
LAYOUT
  5
1E
102
{ACAD_REACTORS
330
1A
102
}
330
1A
100
AcDbPlotSettings
  1

  2
none_device
  4

  6

 40
0.0
 41
0.0
 42
0.0
 43
0.0
 44
0.0
 45
0.0
 46
0.0
 47
0.0
 48
0.0
 49
0.0
140
0.0
141
0.0
142
1.0
143
1.0
 70
   688
 72
     1
 73
     0
 74
     5
  7

 75
    16
 76
     0
 77
     2
 78
   300
147
1.0
148
0.0
149
0.0
100
AcDbLayout
  1
CompleteLayout
 70
     1
 71
     1
 10
0.0
 20
0.0
 11
420.0
 21
297.0
 12
0.0
 22
0.0
 32
0.0
 14
1.000000000000000E+20
 24
1.000000000000000E+20
 34
1.000000000000000E+20
 15
-1.000000000000000E+20
 25
-1.000000000000000E+20
 35
-1.000000000000000E+20
146
0.0
 13
0.0
 23
0.0
 33
0.0
 16
1.0
 26
0.0
 36
0.0
 17
0.0
 27
1.0
 37
0.0
 76
     0
330
1B
  0
LAYOUT
  5
22
102
{ACAD_REACTORS
330
1A
102
}
330
1A
100
AcDbPlotSettings
  1

  2
none_device
  4
Letter_(8.50_x_11.00_Inches)
  6

 40
6.35
 41
6.35
 42
6.35000508
 43
6.35000508
 44
215.9
 45
279.4
 46
0.0
 47
0.0
 48
0.0
 49
0.0
140
0.0
141
0.0
142
1.0
143
1.0
 70
  1712
 72
     1
 73
     0
 74
     0
  7

 75
     0
 76
     0
 77
     2
 78
   300
147
1.0
148
0.0
149
0.0
100
AcDbLayout
  1
Model
 70
     1
 71
     0
 10
0.0
 20
0.0
 11
420.0
 21
297.0
 12
0.0
 22
0.0
 32
0.0
 14
13002.90511884834
 24
-12472.97328384298
 34
0.0
 15
13987.90511884834
 25
-11117.97328384298
 35
2500.0
146
0.0
 13
0.0
 23
0.0
 33
0.0
 16
1.0
 26
0.0
 36
0.0
 17
0.0
 27
1.0
 37
0.0
 76
     0
330
1F
331
29
  0
LAYOUT
  5
210
102
{ACAD_REACTORS
330
1A
102
}
330
1A
100
AcDbPlotSettings
  1
PlotSettings_
  2
Custom Device
  4
Custom_210.000000x297.000000_12.700000_12.700000_6.200000_6.200000
  6

 40
6.2
 41
12.7
 42
6.2
 43
12.7
 44
210.0
 45
297.0
 46
0.0000000000000142
 47
0.0
 48
0.0
 49
0.0
140
197.6
141
271.6
142
1.0
143
1.0
 70
   756
 72
     1
 73
     0
 74
     4
  7

 75
     0
 76
     0
 77
     2
 78
   300
147
1.0
148
0.0
149
0.0
100
AcDbLayout
  1
PrintFrame_22
 70
     0
 71
     2
 10
-20.0
 20
-7.5
 11
277.0
 21
202.5
 12
0.0
 22
0.0
 32
0.0
 14
-5.730400000000003
 24
-7.876400000000018
 34
0.0
 15
203.3304
 25
279.4764
 35
0.0
146
0.0
 13
0.0
 23
0.0
 33
0.0
 16
1.0
 26
0.0
 36
0.0
 17
0.0
 27
1.0
 37
0.0
 76
     0
330
20F
331
215
1001
PLOTTRANSPARENCY
1071
        1
1000
layout-user-created
1070
     1
1000
layout-line-weight-scale
1042
1.0
  0
MATERIAL
  5
45
102
{ACAD_REACTORS
330
43
102
}
330
43
100
AcDbMaterial
  1
ByBlock
 72
     1
 94
      127
  0
MATERIAL
  5
44
102
{ACAD_REACTORS
330
43
102
}
330
43
100
AcDbMaterial
  1
ByLayer
 72
     1
 94
      127
  0
MATERIAL
  5
46
102
{ACAD_REACTORS
330
43
102
}
330
43
100
AcDbMaterial
  1
Global
 72
     1
 94
      127
  0
MLEADERSTYLE
  5
5C
102
{ACAD_REACTORS
330
5B
102
}
330
5B
100
AcDbMLeaderStyle
179
     2
170
     2
171
     1
172
     0
 90
        2
 40
0.0
 41
0.0
173
     1
 91
-1056964608
340
14
 92
       -2
290
     1
 42
2.0
291
     1
 43
8.0
  3
Standard
341
0
 44
4.0
300

342
11
174
     1
178
     6
175
     1
176
     0
 93
-1056964608
 45
4.0
292
     0
297
     0
 46
4.0
343
0
 94
-1056964608
 47
1.0
 49
1.0
140
1.0
293
     1
141
0.0
294
     1
177
     0
142
1.0
295
     0
296
     0
143
3.75
271
     0
272
     9
273
     9
298
     0
  0
MLINESTYLE
  5
18
102
{ACAD_REACTORS
330
17
102
}
330
17
100
AcDbMlineStyle
  2
Standard
 70
     0
  3

 62
   256
 51
90.0
 52
90.0
 71
     2
 49
0.5
 62
   256
  6
BYLAYER
 49
-0.5
 62
   256
  6
BYLAYER
  0
PLOTSETTINGS
  5
213
102
{ACAD_REACTORS
330
19
102
}
330
19
100
AcDbPlotSettings
  1
PlotSettings_
  2
Custom Device
  4
Custom_210.000000x297.000000_12.700000_12.700000_6.200000_6.200000
  6

 40
6.2
 41
12.7
 42
6.2
 43
12.7
 44
210.0
 45
297.0
 46
0.0000000000000142
 47
0.0
 48
0.0
 49
0.0
140
197.6
141
271.6
142
1.0
143
1.0
 70
   756
 72
     1
 73
     0
 74
     4
  7

 75
     0
 76
     0
 77
     2
 78
   300
147
1.0
148
0.0
149
0.0
1001
PLOTTRANSPARENCY
1071
        1
1000
layout-user-created
1070
     1
1000
layout-line-weight-scale
1042
1.0
  0
ACDBPLACEHOLDER
  5
5F
102
{ACAD_REACTORS
330
E
102
}
330
E
  0
ACDBPLACEHOLDER
  5
F
102
{ACAD_REACTORS
330
E
102
}
330
E
  0
ACDBPLACEHOLDER
  5
242
102
{ACAD_REACTORS
330
E
102
}
330
E
  0
SCALE
  5
48
102
{ACAD_REACTORS
330
47
102
}
330
47
100
AcDbScale
 70
     0
300
1:1
140
1.0
141
1.0
290
     1
  0
SCALE
  5
49
102
{ACAD_REACTORS
330
47
102
}
330
47
100
AcDbScale
 70
     0
300
1:2
140
1.0
141
2.0
290
     0
  0
SCALE
  5
4A
102
{ACAD_REACTORS
330
47
102
}
330
47
100
AcDbScale
 70
     0
300
1:4
140
1.0
141
4.0
290
     0
  0
SCALE
  5
4B
102
{ACAD_REACTORS
330
47
102
}
330
47
100
AcDbScale
 70
     0
300
1:5
140
1.0
141
5.0
290
     0
  0
SCALE
  5
4C
102
{ACAD_REACTORS
330
47
102
}
330
47
100
AcDbScale
 70
     0
300
1:8
140
1.0
141
8.0
290
     0
  0
SCALE
  5
4D
102
{ACAD_REACTORS
330
47
102
}
330
47
100
AcDbScale
 70
     0
300
1:10
140
1.0
141
10.0
290
     0
  0
SCALE
  5
4E
102
{ACAD_REACTORS
330
47
102
}
330
47
100
AcDbScale
 70
     0
300
1:16
140
1.0
141
16.0
290
     0
  0
SCALE
  5
4F
102
{ACAD_REACTORS
330
47
102
}
330
47
100
AcDbScale
 70
     0
300
1:20
140
1.0
141
20.0
290
     0
  0
SCALE
  5
50
102
{ACAD_REACTORS
330
47
102
}
330
47
100
AcDbScale
 70
     0
300
1:30
140
1.0
141
30.0
290
     0
  0
SCALE
  5
51
102
{ACAD_REACTORS
330
47
102
}
330
47
100
AcDbScale
 70
     0
300
1:40
140
1.0
141
40.0
290
     0
  0
SCALE
  5
52
102
{ACAD_REACTORS
330
47
102
}
330
47
100
AcDbScale
 70
     0
300
1:50
140
1.0
141
50.0
290
     0
  0
SCALE
  5
53
102
{ACAD_REACTORS
330
47
102
}
330
47
100
AcDbScale
 70
     0
300
1:100
140
1.0
141
100.0
290
     0
  0
SCALE
  5
54
102
{ACAD_REACTORS
330
47
102
}
330
47
100
AcDbScale
 70
     0
300
2:1
140
2.0
141
1.0
290
     0
  0
SCALE
  5
55
102
{ACAD_REACTORS
330
47
102
}
330
47
100
AcDbScale
 70
     0
300
4:1
140
4.0
141
1.0
290
     0
  0
SCALE
  5
56
102
{ACAD_REACTORS
330
47
102
}
330
47
100
AcDbScale
 70
     0
300
8:1
140
8.0
141
1.0
290
     0
  0
SCALE
  5
57
102
{ACAD_REACTORS
330
47
102
}
330
47
100
AcDbScale
 70
     0
300
10:1
140
10.0
141
1.0
290
     0
  0
SCALE
  5
58
102
{ACAD_REACTORS
330
47
102
}
330
47
100
AcDbScale
 70
     0
300
100:1
140
100.0
141
1.0
290
     0
  0
TABLESTYLE
  5
5A
102
{ACAD_REACTORS
330
59
102
}
102
{ACAD_XDICTIONARY
360
375
102
}
330
59
100
AcDbTableStyle
  3
Standard
 70
     0
 71
     0
 40
0.06
 41
0.06
280
     0
281
     0
  7
Standard
140
4.5
170
     2
 62
     0
 63
   257
283
     0
 90
        4
 91
        0
  1

274
    -2
284
     1
 64
     0
275
    -2
285
     1
 65
     0
276
    -2
286
     1
 66
     0
277
    -2
287
     1
 67
     0
278
    -2
288
     1
 68
     0
279
    -2
289
     1
 69
     0
  7
Standard
140
6.0
170
     5
 62
     0
 63
   257
283
     0
 90
        4
 91
        0
  1

274
    -2
284
     1
 64
     0
275
    -2
285
     1
 65
     0
276
    -2
286
     1
 66
     0
277
    -2
287
     1
 67
     0
278
    -2
288
     1
 68
     0
279
    -2
289
     1
 69
     0
  7
Standard
140
4.5
170
     5
 62
     0
 63
   257
283
     0
 90
        4
 91
        0
  1

274
    -2
284
     1
 64
     0
275
    -2
285
     1
 65
     0
276
    -2
286
     1
 66
     0
277
    -2
287
     1
 67
     0
278
    -2
288
     1
 68
     0
279
    -2
289
     1
 69
     0
  0
VISUALSTYLE
  5
2F
102
{ACAD_REACTORS
330
2A
102
}
330
2A
100
AcDbVisualStyle
  2
2dWireframe
 70
     4
177
     3
291
     0
 70
    58
 90
        0
176
     1
 90
        2
176
     1
 90
        0
176
     1
 90
        0
176
     1
 40
0.6
176
     1
 40
30.0
176
     1
 62
     7
420
 16777215
176
     1
 90
        1
176
     1
 90
        4
176
     1
 62
     7
176
     1
 62
   257
176
     1
 90
        1
176
     1
 90
        1
176
     1
 40
1.0
176
     1
 90
        0
176
     1
 62
   257
176
     1
 40
1.0
176
     1
 90
        1
176
     1
 90
        6
176
     1
 90
        2
176
     1
 62
     7
176
     1
 90
        5
176
     1
 90
        0
176
     1
 90
        0
176
     1
290
     0
176
     1
 90
        1
176
     1
 40
0.0
176
     1
 90
        0
176
     1
290
     1
176
     1
290
     1
176
     1
290
     0
176
     1
290
     0
176
     1
290
     0
176
     1
290
     0
176
     1
290
     0
176
     1
290
     0
176
     1
290
     0
176
     1
 90
       50
176
     1
 40
0.0
176
     1
 40
1.0
176
     1
 90
        0
176
     1
 62
    18
420
        0
176
     1
 90
       50
176
     1
 90
        3
176
     1
 62
     5
420
      255
176
     1
290
     0
176
     1
 90
       50
176
     1
 90
       50
176
     1
 90
       50
176
     1
290
     0
176
     1
 90
       50
176
     1
 62
   256
176
     0
 40
1.0
176
     0
 90
        2
176
     1
  1
strokes_ogs.tif
176
     1
290
     0
176
     1
 40
1.0
176
     1
 40
1.0
176
     1
  0
VISUALSTYLE
  5
32
102
{ACAD_REACTORS
330
2A
102
}
330
2A
100
AcDbVisualStyle
  2
Basic
 70
     7
177
     3
291
     1
 70
    58
 90
        1
176
     1
 90
        0
176
     1
 90
        1
176
     1
 90
        0
176
     1
 40
0.6
176
     1
 40
30.0
176
     1
 62
     7
420
 16777215
176
     1
 90
        0
176
     1
 90
        4
176
     1
 62
     7
176
     1
 62
   257
176
     1
 90
        1
176
     1
 90
        1
176
     1
 40
1.0
176
     1
 90
        8
176
     1
 62
     7
176
     1
 40
1.0
176
     1
 90
        1
176
     1
 90
        6
176
     1
 90
        2
176
     1
 62
     7
176
     1
 90
        5
176
     1
 90
        0
176
     1
 90
        0
176
     1
290
     0
176
     1
 90
        1
176
     1
 40
0.0
176
     1
 90
        0
176
     1
290
     0
176
     1
290
     1
176
     1
290
     1
176
     1
290
     0
176
     1
290
     0
176
     1
290
     0
176
     1
290
     0
176
     1
290
     0
176
     1
290
     0
176
     1
 90
       50
176
     1
 40
0.0
176
     1
 40
1.0
176
     1
 90
        0
176
     1
 62
    18
420
        0
176
     1
 90
       50
176
     1
 90
        3
176
     1
 62
     5
420
      255
176
     1
290
     0
176
     1
 90
       50
176
     1
 90
       50
176
     1
 90
       50
176
     1
290
     0
176
     1
 90
       50
176
     1
 62
   256
176
     0
 40
1.0
176
     0
 90
        2
176
     1
  1
strokes_ogs.tif
176
     1
290
     0
176
     1
 40
1.0
176
     1
 40
1.0
176
     1
  0
VISUALSTYLE
  5
36
102
{ACAD_REACTORS
330
2A
102
}
330
2A
100
AcDbVisualStyle
  2
Brighten
 70
    12
177
     3
291
     1
 70
    58
 90
        2
176
     1
 90
        2
176
     1
 90
        0
176
     1
 90
        0
176
     1
 40
0.6
176
     1
 40
30.0
176
     1
 62
     7
420
 16777215
176
     1
 90
        1
176
     1
 90
        4
176
     1
 62
     7
176
     1
 62
   257
176
     1
 90
        1
176
     1
 90
        1
176
     1
 40
1.0
176
     1
 90
        8
176
     1
 62
     7
176
     1
 40
1.0
176
     1
 90
        1
176
     1
 90
        6
176
     1
 90
        2
176
     1
 62
     7
176
     1
 90
        5
176
     1
 90
        0
176
     1
 90
        0
176
     1
290
     0
176
     1
 90
        1
176
     1
 40
50.0
176
     1
 90
        0
176
     1
290
     0
176
     1
290
     1
176
     1
290
     1
176
     1
290
     0
176
     1
290
     0
176
     1
290
     0
176
     1
290
     0
176
     1
290
     0
176
     1
290
     0
176
     1
 90
       50
176
     1
 40
0.0
176
     1
 40
1.0
176
     1
 90
        0
176
     1
 62
    18
420
        0
176
     1
 90
       50
176
     1
 90
        3
176
     1
 62
     5
420
      255
176
     1
290
     0
176
     1
 90
       50
176
     1
 90
       50
176
     1
 90
       50
176
     1
290
     0
176
     1
 90
       50
176
     1
 62
   256
176
     0
 40
1.0
176
     0
 90
        2
176
     1
  1
strokes_ogs.tif
176
     1
290
     0
176
     1
 40
1.0
176
     1
 40
1.0
176
     1
  0
VISUALSTYLE
  5
3A
102
{ACAD_REACTORS
330
2A
102
}
330
2A
100
AcDbVisualStyle
  2
ColorChange
 70
    16
177
     3
291
     1
 70
    58
 90
        2
176
     1
 90
        2
176
     1
 90
        3
176
     1
 90
        0
176
     1
 40
0.6
176
     1
 40
30.0
176
     1
 62
     8
420
  8421504
176
     1
 90
        1
176
     1
 90
        4
176
     1
 62
     7
176
     1
 62
   257
176
     1
 90
        1
176
     1
 90
        1
176
     1
 40
1.0
176
     1
 90
        8
176
     1
 62
     8
420
  8421504
176
     1
 40
1.0
176
     1
 90
        1
176
     1
 90
        6
176
     1
 90
        2
176
     1
 62
     7
176
     1
 90
        5
176
     1
 90
        0
176
     1
 90
        0
176
     1
290
     0
176
     1
 90
        1
176
     1
 40
0.0
176
     1
 90
        0
176
     1
290
     0
176
     1
290
     1
176
     1
290
     1
176
     1
290
     0
176
     1
290
     0
176
     1
290
     0
176
     1
290
     0
176
     1
290
     0
176
     1
290
     0
176
     1
 90
       50
176
     1
 40
0.0
176
     1
 40
1.0
176
     1
 90
        0
176
     1
 62
    18
420
        0
176
     1
 90
       50
176
     1
 90
        3
176
     1
 62
     5
420
      255
176
     1
290
     0
176
     1
 90
       50
176
     1
 90
       50
176
     1
 90
       50
176
     1
290
     0
176
     1
 90
       50
176
     1
 62
   256
176
     0
 40
1.0
176
     0
 90
        2
176
     1
  1
strokes_ogs.tif
176
     1
290
     0
176
     1
 40
1.0
176
     1
 40
1.0
176
     1
  0
VISUALSTYLE
  5
34
102
{ACAD_REACTORS
330
2A
102
}
330
2A
100
AcDbVisualStyle
  2
Conceptual
 70
     9
177
     3
291
     0
 70
    58
 90
        3
176
     1
 90
        2
176
     1
 90
        0
176
     1
 90
        0
176
     1
 40
0.6
176
     1
 40
30.0
176
     1
 62
     7
420
 16777215
176
     1
 90
        2
176
     1
 90
        2
176
     1
 62
     7
176
     1
 62
   257
176
     1
 90
        1
176
     1
 90
        1
176
     1
 40
179.0
176
     1
 90
        8
176
     1
 62
     7
176
     1
 40
1.0
176
     1
 90
        1
176
     1
 90
        6
176
     1
 90
        2
176
     1
 62
     7
176
     1
 90
        3
176
     1
 90
        0
176
     1
 90
        0
176
     1
290
     0
176
     1
 90
        1
176
     1
 40
0.0
176
     1
 90
        0
176
     1
290
     0
176
     1
290
     1
176
     1
290
     1
176
     1
290
     0
176
     1
290
     0
176
     1
290
     0
176
     1
290
     0
176
     1
290
     0
176
     1
290
     0
176
     1
 90
       50
176
     1
 40
0.0
176
     1
 40
1.0
176
     1
 90
        0
176
     1
 62
    18
420
        0
176
     1
 90
       50
176
     1
 90
        3
176
     1
 62
     5
420
      255
176
     1
290
     0
176
     1
 90
       50
176
     1
 90
       50
176
     1
 90
       50
176
     1
290
     0
176
     1
 90
       50
176
     1
 62
   256
176
     0
 40
1.0
176
     0
 90
        2
176
     1
  1
strokes_ogs.tif
176
     1
290
     0
176
     1
 40
1.0
176
     1
 40
1.0
176
     1
  0
VISUALSTYLE
  5
35
102
{ACAD_REACTORS
330
2A
102
}
330
2A
100
AcDbVisualStyle
  2
Dim
 70
    11
177
     3
291
     1
 70
    58
 90
        2
176
     1
 90
        2
176
     1
 90
        0
176
     1
 90
        0
176
     1
 40
0.6
176
     1
 40
30.0
176
     1
 62
     7
420
 16777215
176
     1
 90
        1
176
     1
 90
        4
176
     1
 62
     7
176
     1
 62
   257
176
     1
 90
        1
176
     1
 90
        1
176
     1
 40
1.0
176
     1
 90
        8
176
     1
 62
     7
176
     1
 40
1.0
176
     1
 90
        1
176
     1
 90
        6
176
     1
 90
        2
176
     1
 62
     7
176
     1
 90
        5
176
     1
 90
        0
176
     1
 90
        0
176
     1
290
     0
176
     1
 90
        1
176
     1
 40
-50.0
176
     1
 90
        0
176
     1
290
     0
176
     1
290
     1
176
     1
290
     1
176
     1
290
     0
176
     1
290
     0
176
     1
290
     0
176
     1
290
     0
176
     1
290
     0
176
     1
290
     0
176
     1
 90
       50
176
     1
 40
0.0
176
     1
 40
1.0
176
     1
 90
        0
176
     1
 62
    18
420
        0
176
     1
 90
       50
176
     1
 90
        3
176
     1
 62
     5
420
      255
176
     1
290
     0
176
     1
 90
       50
176
     1
 90
       50
176
     1
 90
       50
176
     1
290
     0
176
     1
 90
       50
176
     1
 62
   256
176
     0
 40
1.0
176
     0
 90
        2
176
     1
  1
strokes_ogs.tif
176
     1
290
     0
176
     1
 40
1.0
176
     1
 40
1.0
176
     1
  0
VISUALSTYLE
  5
3D
102
{ACAD_REACTORS
330
2A
102
}
330
2A
100
AcDbVisualStyle
  2
EdgeColorOff
 70
    22
177
     3
291
     1
 70
    58
 90
        2
176
     0
 90
        2
176
     0
 90
        0
176
     0
 90
        0
176
     0
 40
0.6
176
     0
 40
30.0
176
     0
 62
     7
420
 16777215
176
     0
 90
        1
176
     0
 90
        4
176
     0
 62
     7
176
     0
 62
   257
176
     0
 90
        1
176
     0
 90
        1
176
     0
 40
1.0
176
     0
 90
        8
176
     2
 62
     7
176
     0
 40
1.0
176
     0
 90
        1
176
     0
 90
        6
176
     0
 90
        2
176
     0
 62
     7
176
     0
 90
        5
176
     0
 90
        0
176
     0
 90
        0
176
     0
290
     0
176
     0
 90
        1
176
     0
 40
0.0
176
     0
 90
        0
176
     0
290
     0
176
     0
290
     1
176
     0
290
     1
176
     0
290
     0
176
     0
290
     0
176
     0
290
     0
176
     0
290
     0
176
     0
290
     0
176
     0
290
     0
176
     0
 90
       50
176
     0
 40
0.0
176
     0
 40
1.0
176
     0
 90
        0
176
     0
 62
    18
420
        0
176
     0
 90
       50
176
     0
 90
        3
176
     0
 62
     5
420
      255
176
     0
290
     0
176
     0
 90
       50
176
     0
 90
       50
176
     0
 90
       50
176
     0
290
     0
176
     0
 90
       50
176
     0
 62
   256
176
     0
 40
1.0
176
     0
 90
        2
176
     0
  1
strokes_ogs.tif
176
     0
290
     0
176
     0
 40
1.0
176
     0
 40
1.0
176
     0
  0
VISUALSTYLE
  5
39
102
{ACAD_REACTORS
330
2A
102
}
330
2A
100
AcDbVisualStyle
  2
Facepattern
 70
    15
177
     3
291
     1
 70
    58
 90
        2
176
     1
 90
        2
176
     1
 90
        0
176
     1
 90
        0
176
     1
 40
0.6
176
     1
 40
30.0
176
     1
 62
     7
420
 16777215
176
     1
 90
        1
176
     1
 90
        4
176
     1
 62
     7
176
     1
 62
   257
176
     1
 90
        1
176
     1
 90
        1
176
     1
 40
1.0
176
     1
 90
        8
176
     1
 62
     7
176
     1
 40
1.0
176
     1
 90
        1
176
     1
 90
        6
176
     1
 90
        2
176
     1
 62
     7
176
     1
 90
        5
176
     1
 90
        0
176
     1
 90
        0
176
     1
290
     0
176
     1
 90
        1
176
     1
 40
0.0
176
     1
 90
        0
176
     1
290
     0
176
     1
290
     1
176
     1
290
     1
176
     1
290
     0
176
     1
290
     0
176
     1
290
     0
176
     1
290
     0
176
     1
290
     0
176
     1
290
     0
176
     1
 90
       50
176
     1
 40
0.0
176
     1
 40
1.0
176
     1
 90
        0
176
     1
 62
    18
420
        0
176
     1
 90
       50
176
     1
 90
        3
176
     1
 62
     5
420
      255
176
     1
290
     0
176
     1
 90
       50
176
     1
 90
       50
176
     1
 90
       50
176
     1
290
     0
176
     1
 90
       50
176
     1
 62
   256
176
     0
 40
1.0
176
     0
 90
        2
176
     1
  1
strokes_ogs.tif
176
     1
290
     0
176
     1
 40
1.0
176
     1
 40
1.0
176
     1
  0
VISUALSTYLE
  5
2B
102
{ACAD_REACTORS
330
2A
102
}
330
2A
100
AcDbVisualStyle
  2
Flat
 70
     0
177
     3
291
     1
 70
    58
 90
        2
176
     1
 90
        1
176
     1
 90
        1
176
     1
 90
        2
176
     1
 40
0.6
176
     1
 40
30.0
176
     1
 62
     7
420
 16777215
176
     1
 90
        0
176
     1
 90
        0
176
     1
 62
     7
176
     1
 62
   257
176
     1
 90
        1
176
     1
 90
        1
176
     1
 40
1.0
176
     1
 90
        8
176
     1
 62
     7
176
     1
 40
1.0
176
     1
 90
        1
176
     1
 90
        6
176
     1
 90
        2
176
     1
 62
     7
176
     1
 90
        5
176
     1
 90
        0
176
     1
 90
        0
176
     1
290
     0
176
     1
 90
       13
176
     1
 40
0.0
176
     1
 90
        0
176
     1
290
     0
176
     1
290
     1
176
     1
290
     1
176
     1
290
     0
176
     1
290
     0
176
     1
290
     0
176
     1
290
     0
176
     1
290
     0
176
     1
290
     0
176
     1
 90
       50
176
     1
 40
0.0
176
     1
 40
1.0
176
     1
 90
        0
176
     1
 62
    18
420
        0
176
     1
 90
       50
176
     1
 90
        3
176
     1
 62
     5
420
      255
176
     1
290
     0
176
     1
 90
       50
176
     1
 90
       50
176
     1
 90
       50
176
     1
290
     0
176
     1
 90
       50
176
     1
 62
   256
176
     0
 40
1.0
176
     0
 90
        2
176
     1
  1
strokes_ogs.tif
176
     1
290
     0
176
     1
 40
1.0
176
     1
 40
1.0
176
     1
  0
VISUALSTYLE
  5
2C
102
{ACAD_REACTORS
330
2A
102
}
330
2A
100
AcDbVisualStyle
  2
FlatWithEdges
 70
     1
177
     3
291
     1
 70
    58
 90
        2
176
     1
 90
        1
176
     1
 90
        1
176
     1
 90
        2
176
     1
 40
0.6
176
     1
 40
30.0
176
     1
 62
     7
420
 16777215
176
     1
 90
        1
176
     1
 90
        0
176
     1
 62
     7
176
     1
 62
   257
176
     1
 90
        1
176
     1
 90
        1
176
     1
 40
1.0
176
     1
 90
        0
176
     1
 62
   257
176
     1
 40
1.0
176
     1
 90
        1
176
     1
 90
        6
176
     1
 90
        2
176
     1
 62
     7
176
     1
 90
        5
176
     1
 90
        0
176
     1
 90
        0
176
     1
290
     0
176
     1
 90
       13
176
     1
 40
0.0
176
     1
 90
        0
176
     1
290
     0
176
     1
290
     1
176
     1
290
     1
176
     1
290
     0
176
     1
290
     0
176
     1
290
     0
176
     1
290
     0
176
     1
290
     0
176
     1
290
     0
176
     1
 90
       50
176
     1
 40
0.0
176
     1
 40
1.0
176
     1
 90
        0
176
     1
 62
    18
420
        0
176
     1
 90
       50
176
     1
 90
        3
176
     1
 62
     5
420
      255
176
     1
290
     0
176
     1
 90
       50
176
     1
 90
       50
176
     1
 90
       50
176
     1
290
     0
176
     1
 90
       50
176
     1
 62
   256
176
     0
 40
1.0
176
     0
 90
        2
176
     1
  1
strokes_ogs.tif
176
     1
290
     0
176
     1
 40
1.0
176
     1
 40
1.0
176
     1
  0
VISUALSTYLE
  5
2D
102
{ACAD_REACTORS
330
2A
102
}
330
2A
100
AcDbVisualStyle
  2
Gouraud
 70
     2
177
     3
291
     1
 70
    58
 90
        2
176
     1
 90
        2
176
     1
 90
        1
176
     1
 90
        2
176
     1
 40
0.6
176
     1
 40
30.0
176
     1
 62
     7
420
 16777215
176
     1
 90
        0
176
     1
 90
        0
176
     1
 62
     7
176
     1
 62
   257
176
     1
 90
        1
176
     1
 90
        1
176
     1
 40
1.0
176
     1
 90
        0
176
     1
 62
     7
176
     1
 40
1.0
176
     1
 90
        1
176
     1
 90
        6
176
     1
 90
        2
176
     1
 62
     7
176
     1
 90
        5
176
     1
 90
        0
176
     1
 90
        0
176
     1
290
     0
176
     1
 90
       13
176
     1
 40
0.0
176
     1
 90
        0
176
     1
290
     0
176
     1
290
     1
176
     1
290
     1
176
     1
290
     0
176
     1
290
     0
176
     1
290
     0
176
     1
290
     0
176
     1
290
     0
176
     1
290
     0
176
     1
 90
       50
176
     1
 40
0.0
176
     1
 40
1.0
176
     1
 90
        0
176
     1
 62
    18
420
        0
176
     1
 90
       50
176
     1
 90
        3
176
     1
 62
     5
420
      255
176
     1
290
     0
176
     1
 90
       50
176
     1
 90
       50
176
     1
 90
       50
176
     1
290
     0
176
     1
 90
       50
176
     1
 62
   256
176
     0
 40
1.0
176
     0
 90
        2
176
     1
  1
strokes_ogs.tif
176
     1
290
     0
176
     1
 40
1.0
176
     1
 40
1.0
176
     1
  0
VISUALSTYLE
  5
2E
102
{ACAD_REACTORS
330
2A
102
}
330
2A
100
AcDbVisualStyle
  2
GouraudWithEdges
 70
     3
177
     3
291
     1
 70
    58
 90
        2
176
     1
 90
        2
176
     1
 90
        1
176
     1
 90
        2
176
     1
 40
0.6
176
     1
 40
30.0
176
     1
 62
     7
420
 16777215
176
     1
 90
        1
176
     1
 90
        0
176
     1
 62
     7
176
     1
 62
   257
176
     1
 90
        1
176
     1
 90
        1
176
     1
 40
1.0
176
     1
 90
        0
176
     1
 62
   257
176
     1
 40
1.0
176
     1
 90
        1
176
     1
 90
        6
176
     1
 90
        2
176
     1
 62
     7
176
     1
 90
        5
176
     1
 90
        0
176
     1
 90
        0
176
     1
290
     0
176
     1
 90
       13
176
     1
 40
0.0
176
     1
 90
        0
176
     1
290
     0
176
     1
290
     1
176
     1
290
     1
176
     1
290
     0
176
     1
290
     0
176
     1
290
     0
176
     1
290
     0
176
     1
290
     0
176
     1
290
     0
176
     1
 90
       50
176
     1
 40
0.0
176
     1
 40
1.0
176
     1
 90
        0
176
     1
 62
    18
420
        0
176
     1
 90
       50
176
     1
 90
        3
176
     1
 62
     5
420
      255
176
     1
290
     0
176
     1
 90
       50
176
     1
 90
       50
176
     1
 90
       50
176
     1
290
     0
176
     1
 90
       50
176
     1
 62
   256
176
     0
 40
1.0
176
     0
 90
        2
176
     1
  1
strokes_ogs.tif
176
     1
290
     0
176
     1
 40
1.0
176
     1
 40
1.0
176
     1
  0
VISUALSTYLE
  5
31
102
{ACAD_REACTORS
330
2A
102
}
330
2A
100
AcDbVisualStyle
  2
Hidden
 70
     6
177
     3
291
     0
 70
    58
 90
        1
176
     1
 90
        2
176
     1
 90
        2
176
     1
 90
        0
176
     1
 40
0.6
176
     1
 40
30.0
176
     1
 62
     7
420
 16777215
176
     1
 90
        2
176
     1
 90
        2
176
     1
 62
     7
176
     1
 62
   257
176
     1
 90
        2
176
     1
 90
        1
176
     1
 40
40.0
176
     1
 90
        0
176
     1
 62
   257
176
     1
 40
1.0
176
     1
 90
        1
176
     1
 90
        6
176
     1
 90
        2
176
     1
 62
     7
176
     1
 90
        3
176
     1
 90
        0
176
     1
 90
        0
176
     1
290
     0
176
     1
 90
        1
176
     1
 40
0.0
176
     1
 90
        0
176
     1
290
     0
176
     1
290
     1
176
     1
290
     1
176
     1
290
     0
176
     1
290
     0
176
     1
290
     0
176
     1
290
     0
176
     1
290
     0
176
     1
290
     0
176
     1
 90
       50
176
     1
 40
0.0
176
     1
 40
1.0
176
     1
 90
        0
176
     1
 62
    18
420
        0
176
     1
 90
       50
176
     1
 90
        3
176
     1
 62
     5
420
      255
176
     1
290
     0
176
     1
 90
       50
176
     1
 90
       50
176
     1
 90
       50
176
     1
290
     0
176
     1
 90
       50
176
     1
 62
   256
176
     0
 40
1.0
176
     0
 90
        2
176
     1
  1
strokes_ogs.tif
176
     1
290
     0
176
     1
 40
1.0
176
     1
 40
1.0
176
     1
  0
VISUALSTYLE
  5
3B
102
{ACAD_REACTORS
330
2A
102
}
330
2A
100
AcDbVisualStyle
  2
JitterOff
 70
    20
177
     3
291
     1
 70
    58
 90
        2
176
     0
 90
        2
176
     0
 90
        0
176
     0
 90
        0
176
     0
 40
0.6
176
     0
 40
30.0
176
     0
 62
     7
420
 16777215
176
     0
 90
        1
176
     0
 90
        4
176
     0
 62
     7
176
     0
 62
   257
176
     0
 90
        1
176
     0
 90
        1
176
     0
 40
1.0
176
     0
 90
       10
176
     2
 62
     7
176
     0
 40
1.0
176
     0
 90
        1
176
     0
 90
        6
176
     0
 90
        2
176
     0
 62
     7
176
     0
 90
        5
176
     0
 90
        0
176
     0
 90
        0
176
     0
290
     0
176
     0
 90
        1
176
     0
 40
0.0
176
     0
 90
        0
176
     0
290
     0
176
     0
290
     1
176
     0
290
     1
176
     0
290
     0
176
     0
290
     0
176
     0
290
     0
176
     0
290
     0
176
     0
290
     0
176
     0
290
     0
176
     0
 90
       50
176
     0
 40
0.0
176
     0
 40
1.0
176
     0
 90
        0
176
     0
 62
    18
420
        0
176
     0
 90
       50
176
     0
 90
        3
176
     0
 62
     5
420
      255
176
     0
290
     0
176
     0
 90
       50
176
     0
 90
       50
176
     0
 90
       50
176
     0
290
     0
176
     0
 90
       50
176
     0
 62
   256
176
     0
 40
1.0
176
     0
 90
        2
176
     0
  1
strokes_ogs.tif
176
     0
290
     0
176
     0
 40
1.0
176
     0
 40
1.0
176
     0
  0
VISUALSTYLE
  5
38
102
{ACAD_REACTORS
330
2A
102
}
330
2A
100
AcDbVisualStyle
  2
Linepattern
 70
    14
177
     3
291
     1
 70
    58
 90
        2
176
     1
 90
        2
176
     1
 90
        0
176
     1
 90
        0
176
     1
 40
0.6
176
     1
 40
30.0
176
     1
 62
     7
420
 16777215
176
     1
 90
        1
176
     1
 90
        4
176
     1
 62
     7
176
     1
 62
   257
176
     1
 90
        7
176
     1
 90
        7
176
     1
 40
1.0
176
     1
 90
        8
176
     1
 62
     7
176
     1
 40
1.0
176
     1
 90
        1
176
     1
 90
        6
176
     1
 90
        2
176
     1
 62
     7
176
     1
 90
        5
176
     1
 90
        0
176
     1
 90
        0
176
     1
290
     0
176
     1
 90
        1
176
     1
 40
0.0
176
     1
 90
        0
176
     1
290
     0
176
     1
290
     1
176
     1
290
     1
176
     1
290
     0
176
     1
290
     0
176
     1
290
     0
176
     1
290
     0
176
     1
290
     0
176
     1
290
     0
176
     1
 90
       50
176
     1
 40
0.0
176
     1
 40
1.0
176
     1
 90
        0
176
     1
 62
    18
420
        0
176
     1
 90
       50
176
     1
 90
        3
176
     1
 62
     5
420
      255
176
     1
290
     0
176
     1
 90
       50
176
     1
 90
       50
176
     1
 90
       50
176
     1
290
     0
176
     1
 90
       50
176
     1
 62
   256
176
     0
 40
1.0
176
     0
 90
        2
176
     1
  1
strokes_ogs.tif
176
     1
290
     0
176
     1
 40
1.0
176
     1
 40
1.0
176
     1
  0
VISUALSTYLE
  5
3C
102
{ACAD_REACTORS
330
2A
102
}
330
2A
100
AcDbVisualStyle
  2
OverhangOff
 70
    21
177
     3
291
     1
 70
    58
 90
        2
176
     0
 90
        2
176
     0
 90
        0
176
     0
 90
        0
176
     0
 40
0.6
176
     0
 40
30.0
176
     0
 62
     7
420
 16777215
176
     0
 90
        1
176
     0
 90
        4
176
     0
 62
     7
176
     0
 62
   257
176
     0
 90
        1
176
     0
 90
        1
176
     0
 40
1.0
176
     0
 90
        9
176
     2
 62
     7
176
     0
 40
1.0
176
     0
 90
        1
176
     0
 90
        6
176
     0
 90
        2
176
     0
 62
     7
176
     0
 90
        5
176
     0
 90
        0
176
     0
 90
        0
176
     0
290
     0
176
     0
 90
        1
176
     0
 40
0.0
176
     0
 90
        0
176
     0
290
     0
176
     0
290
     1
176
     0
290
     1
176
     0
290
     0
176
     0
290
     0
176
     0
290
     0
176
     0
290
     0
176
     0
290
     0
176
     0
290
     0
176
     0
 90
       50
176
     0
 40
0.0
176
     0
 40
1.0
176
     0
 90
        0
176
     0
 62
    18
420
        0
176
     0
 90
       50
176
     0
 90
        3
176
     0
 62
     5
420
      255
176
     0
290
     0
176
     0
 90
       50
176
     0
 90
       50
176
     0
 90
       50
176
     0
290
     0
176
     0
 90
       50
176
     0
 62
   256
176
     0
 40
1.0
176
     0
 90
        2
176
     0
  1
strokes_ogs.tif
176
     0
290
     0
176
     0
 40
1.0
176
     0
 40
1.0
176
     0
  0
VISUALSTYLE
  5
33
102
{ACAD_REACTORS
330
2A
102
}
330
2A
100
AcDbVisualStyle
  2
Realistic
 70
     8
177
     3
291
     0
 70
    58
 90
        2
176
     1
 90
        3
176
     1
 90
        0
176
     1
 90
        2
176
     1
 40
0.6
176
     1
 40
30.0
176
     1
 62
     7
420
 16777215
176
     1
 90
        0
176
     1
 90
        0
176
     1
 62
     7
176
     1
 62
   257
176
     1
 90
        1
176
     1
 90
        1
176
     1
 40
1.0
176
     1
 90
        8
176
     1
 62
   257
176
     1
 40
1.0
176
     1
 90
        1
176
     1
 90
        6
176
     1
 90
        2
176
     1
 62
     7
176
     1
 90
        3
176
     1
 90
        0
176
     1
 90
        0
176
     1
290
     0
176
     1
 90
       13
176
     1
 40
0.0
176
     1
 90
        0
176
     1
290
     0
176
     1
290
     1
176
     1
290
     1
176
     1
290
     0
176
     1
290
     0
176
     1
290
     0
176
     1
290
     0
176
     1
290
     0
176
     1
290
     0
176
     1
 90
       50
176
     1
 40
0.0
176
     1
 40
1.0
176
     1
 90
        0
176
     1
 62
    18
420
        0
176
     1
 90
       50
176
     1
 90
        3
176
     1
 62
     5
420
      255
176
     1
290
     0
176
     1
 90
       50
176
     1
 90
       50
176
     1
 90
       50
176
     1
290
     0
176
     1
 90
       50
176
     1
 62
   256
176
     0
 40
1.0
176
     0
 90
        2
176
     1
  1
strokes_ogs.tif
176
     1
290
     0
176
     1
 40
1.0
176
     1
 40
1.0
176
     1
  0
VISUALSTYLE
  5
42
102
{ACAD_REACTORS
330
2A
102
}
330
2A
100
AcDbVisualStyle
  2
Shaded
 70
    27
177
     3
291
     0
 70
    58
 90
        2
176
     1
 90
        2
176
     1
 90
        1
176
     1
 90
        2
176
     1
 40
0.6
176
     1
 40
30.0
176
     1
 62
     7
420
 16777215
176
     1
 90
        0
176
     1
 90
        4
176
     1
 62
     7
176
     1
 62
   257
176
     1
 90
        1
176
     1
 90
        1
176
     1
 40
1.0
176
     1
 90
        8
176
     1
 62
   257
176
     1
 40
1.0
176
     1
 90
        1
176
     1
 90
        6
176
     1
 90
        2
176
     1
 62
     8
420
  7895160
176
     1
 90
        3
176
     1
 90
        0
176
     1
 90
        0
176
     1
290
     0
176
     1
 90
        5
176
     1
 40
0.0
176
     1
 90
        0
176
     1
290
     0
176
     1
290
     1
176
     1
290
     1
176
     1
290
     0
176
     1
290
     0
176
     1
290
     0
176
     1
290
     0
176
     1
290
     0
176
     1
290
     0
176
     1
 90
       50
176
     1
 40
0.0
176
     1
 40
1.0
176
     1
 90
        0
176
     1
 62
    18
420
        0
176
     1
 90
       50
176
     1
 90
        3
176
     1
 62
     5
420
      255
176
     1
290
     0
176
     1
 90
       50
176
     1
 90
       50
176
     1
 90
       50
176
     1
290
     0
176
     1
 90
       50
176
     1
 62
   256
176
     0
 40
1.0
176
     0
 90
        2
176
     1
  1
strokes_ogs.tif
176
     1
290
     0
176
     1
 40
1.0
176
     1
 40
1.0
176
     1
  0
VISUALSTYLE
  5
41
102
{ACAD_REACTORS
330
2A
102
}
330
2A
100
AcDbVisualStyle
  2
Shaded with edges
 70
    26
177
     3
291
     0
 70
    58
 90
        2
176
     1
 90
        2
176
     1
 90
        1
176
     1
 90
        2
176
     1
 40
0.6
176
     1
 40
30.0
176
     1
 62
     7
420
 16777215
176
     1
 90
        1
176
     1
 90
       10
176
     1
 62
     7
176
     1
 62
   257
176
     1
 90
        2
176
     1
 90
        1
176
     1
 40
1.0
176
     1
 90
        8
176
     1
 62
   257
176
     1
 40
1.0
176
     1
 90
        1
176
     1
 90
        6
176
     1
 90
        2
176
     1
 62
     7
176
     1
 90
        3
176
     1
 90
        0
176
     1
 90
        0
176
     1
290
     0
176
     1
 90
        5
176
     1
 40
0.0
176
     1
 90
        0
176
     1
290
     0
176
     1
290
     1
176
     1
290
     1
176
     1
290
     0
176
     1
290
     0
176
     1
290
     0
176
     1
290
     0
176
     1
290
     0
176
     1
290
     0
176
     1
 90
       50
176
     1
 40
0.0
176
     1
 40
1.0
176
     1
 90
        0
176
     1
 62
    18
420
        0
176
     1
 90
       50
176
     1
 90
        3
176
     1
 62
     5
420
      255
176
     1
290
     0
176
     1
 90
       50
176
     1
 90
       50
176
     1
 90
       50
176
     1
290
     0
176
     1
 90
       50
176
     1
 62
   256
176
     0
 40
1.0
176
     0
 90
        2
176
     1
  1
strokes_ogs.tif
176
     1
290
     0
176
     1
 40
1.0
176
     1
 40
1.0
176
     1
  0
VISUALSTYLE
  5
3E
102
{ACAD_REACTORS
330
2A
102
}
330
2A
100
AcDbVisualStyle
  2
Shades of Gray
 70
    23
177
     3
291
     0
 70
    58
 90
        2
176
     1
 90
        2
176
     1
 90
        3
176
     1
 90
        0
176
     1
 40
0.6
176
     1
 40
30.0
176
     1
 62
     7
420
 16777215
176
     1
 90
        2
176
     1
 90
        2
176
     1
 62
     7
176
     1
 62
     7
176
     1
 90
        1
176
     1
 90
        1
176
     1
 40
40.0
176
     1
 90
        8
176
     1
 62
     7
176
     1
 40
1.0
176
     1
 90
        1
176
     1
 90
        6
176
     1
 90
        2
176
     1
 62
     7
176
     1
 90
        3
176
     1
 90
        0
176
     1
 90
        0
176
     1
290
     0
176
     1
 90
        1
176
     1
 40
0.0
176
     1
 90
        0
176
     1
290
     0
176
     1
290
     1
176
     1
290
     1
176
     1
290
     0
176
     1
290
     0
176
     1
290
     0
176
     1
290
     0
176
     1
290
     0
176
     1
290
     0
176
     1
 90
       50
176
     1
 40
0.0
176
     1
 40
1.0
176
     1
 90
        0
176
     1
 62
    18
420
        0
176
     1
 90
       50
176
     1
 90
        3
176
     1
 62
     5
420
      255
176
     1
290
     0
176
     1
 90
       50
176
     1
 90
       50
176
     1
 90
       50
176
     1
290
     0
176
     1
 90
       50
176
     1
 62
   256
176
     0
 40
1.0
176
     0
 90
        2
176
     1
  1
strokes_ogs.tif
176
     1
290
     0
176
     1
 40
1.0
176
     1
 40
1.0
176
     1
  0
VISUALSTYLE
  5
3F
102
{ACAD_REACTORS
330
2A
102
}
330
2A
100
AcDbVisualStyle
  2
Sketchy
 70
    24
177
     3
291
     0
 70
    58
 90
        1
176
     1
 90
        2
176
     1
 90
        2
176
     1
 90
        0
176
     1
 40
0.6
176
     1
 40
30.0
176
     1
 62
     7
420
 16777215
176
     1
 90
        2
176
     1
 90
        2
176
     1
 62
     7
176
     1
 62
     7
176
     1
 90
        1
176
     1
 90
        1
176
     1
 40
40.0
176
     1
 90
       11
176
     1
 62
     7
176
     1
 40
1.0
176
     1
 90
        1
176
     1
 90
        6
176
     1
 90
        2
176
     1
 62
     7
176
     1
 90
        6
176
     1
 90
        0
176
     1
 90
        0
176
     1
290
     0
176
     1
 90
        1
176
     1
 40
0.0
176
     1
 90
        0
176
     1
290
     0
176
     1
290
     1
176
     1
290
     1
176
     1
290
     0
176
     1
290
     0
176
     1
290
     0
176
     1
290
     0
176
     1
290
     0
176
     1
290
     0
176
     1
 90
       50
176
     1
 40
0.0
176
     1
 40
1.0
176
     1
 90
        0
176
     1
 62
    18
420
        0
176
     1
 90
       50
176
     1
 90
        3
176
     1
 62
     5
420
      255
176
     1
290
     0
176
     1
 90
       50
176
     1
 90
       50
176
     1
 90
       50
176
     1
290
     0
176
     1
 90
       50
176
     1
 62
   256
176
     0
 40
1.0
176
     0
 90
        2
176
     1
  1
strokes_ogs.tif
176
     1
290
     0
176
     1
 40
1.0
176
     1
 40
1.0
176
     1
  0
VISUALSTYLE
  5
37
102
{ACAD_REACTORS
330
2A
102
}
330
2A
100
AcDbVisualStyle
  2
Thicken
 70
    13
177
     3
291
     1
 70
    58
 90
        2
176
     1
 90
        2
176
     1
 90
        0
176
     1
 90
        0
176
     1
 40
0.6
176
     1
 40
30.0
176
     1
 62
     7
420
 16777215
176
     1
 90
        1
176
     1
 90
        4
176
     1
 62
     7
176
     1
 62
   257
176
     1
 90
        1
176
     1
 90
        1
176
     1
 40
1.0
176
     1
 90
       12
176
     1
 62
     7
176
     1
 40
1.0
176
     1
 90
        1
176
     1
 90
        6
176
     1
 90
        2
176
     1
 62
     7
176
     1
 90
        5
176
     1
 90
        0
176
     1
 90
        0
176
     1
290
     0
176
     1
 90
        1
176
     1
 40
0.0
176
     1
 90
        0
176
     1
290
     0
176
     1
290
     1
176
     1
290
     1
176
     1
290
     0
176
     1
290
     0
176
     1
290
     0
176
     1
290
     0
176
     1
290
     0
176
     1
290
     0
176
     1
 90
       50
176
     1
 40
0.0
176
     1
 40
1.0
176
     1
 90
        0
176
     1
 62
    18
420
        0
176
     1
 90
       50
176
     1
 90
        3
176
     1
 62
     5
420
      255
176
     1
290
     0
176
     1
 90
       50
176
     1
 90
       50
176
     1
 90
       50
176
     1
290
     0
176
     1
 90
       50
176
     1
 62
   256
176
     0
 40
1.0
176
     0
 90
        2
176
     1
  1
strokes_ogs.tif
176
     1
290
     0
176
     1
 40
1.0
176
     1
 40
1.0
176
     1
  0
VISUALSTYLE
  5
30
102
{ACAD_REACTORS
330
2A
102
}
330
2A
100
AcDbVisualStyle
  2
Wireframe
 70
     5
177
     3
291
     0
 70
    58
 90
        0
176
     1
 90
        2
176
     1
 90
        0
176
     1
 90
        0
176
     1
 40
0.6
176
     1
 40
30.0
176
     1
 62
     7
420
 16777215
176
     1
 90
        1
176
     1
 90
        4
176
     1
 62
     7
176
     1
 62
   257
176
     1
 90
        1
176
     1
 90
        1
176
     1
 40
1.0
176
     1
 90
        0
176
     1
 62
   257
176
     1
 40
1.0
176
     1
 90
        1
176
     1
 90
        6
176
     1
 90
        2
176
     1
 62
     7
176
     1
 90
        3
176
     1
 90
        0
176
     1
 90
        0
176
     1
290
     0
176
     1
 90
        1
176
     1
 40
0.0
176
     1
 90
        0
176
     1
290
     0
176
     1
290
     1
176
     1
290
     1
176
     1
290
     0
176
     1
290
     0
176
     1
290
     0
176
     1
290
     0
176
     1
290
     0
176
     1
290
     0
176
     1
 90
       50
176
     1
 40
0.0
176
     1
 40
1.0
176
     1
 90
        0
176
     1
 62
    18
420
        0
176
     1
 90
       50
176
     1
 90
        3
176
     1
 62
     5
420
      255
176
     1
290
     0
176
     1
 90
       50
176
     1
 90
       50
176
     1
 90
       50
176
     1
290
     0
176
     1
 90
       50
176
     1
 62
   256
176
     0
 40
1.0
176
     0
 90
        2
176
     1
  1
strokes_ogs.tif
176
     1
290
     0
176
     1
 40
1.0
176
     1
 40
1.0
176
     1
  0
VISUALSTYLE
  5
40
102
{ACAD_REACTORS
330
2A
102
}
330
2A
100
AcDbVisualStyle
  2
X-Ray
 70
    25
177
     3
291
     0
 70
    58
 90
        2
176
     1
 90
        2
176
     1
 90
        1
176
     1
 90
        1
176
     1
 40
0.5
176
     1
 40
30.0
176
     1
 62
     7
420
 16777215
176
     1
 90
        1
176
     1
 90
        0
176
     1
 62
     7
176
     1
 62
   257
176
     1
 90
        1
176
     1
 90
        1
176
     1
 40
1.0
176
     1
 90
        8
176
     1
 62
     7
176
     1
 40
1.0
176
     1
 90
        1
176
     1
 90
        6
176
     1
 90
        2
176
     1
 62
     7
176
     1
 90
        3
176
     1
 90
        0
176
     1
 90
        0
176
     1
290
     0
176
     1
 90
       13
176
     1
 40
0.0
176
     1
 90
        0
176
     1
290
     0
176
     1
290
     1
176
     1
290
     1
176
     1
290
     0
176
     1
290
     0
176
     1
290
     0
176
     1
290
     0
176
     1
290
     0
176
     1
290
     0
176
     1
 90
       50
176
     1
 40
0.0
176
     1
 40
1.0
176
     1
 90
        0
176
     1
 62
    18
420
        0
176
     1
 90
       50
176
     1
 90
        3
176
     1
 62
     5
420
      255
176
     1
290
     0
176
     1
 90
       50
176
     1
 90
       50
176
     1
 90
       50
176
     1
290
     0
176
     1
 90
       50
176
     1
 62
   256
176
     0
 40
1.0
176
     0
 90
        2
176
     1
  1
strokes_ogs.tif
176
     1
290
     0
176
     1
 40
1.0
176
     1
 40
1.0
176
     1
  0
DICTIONARYVAR
  5
374
102
{ACAD_REACTORS
330
373
102
}
330
373
100
DictionaryVariables
280
     0
  1
1:1
  0
DICTIONARYVAR
  5
37D
102
{ACAD_REACTORS
330
373
102
}
330
373
100
DictionaryVariables
280
     0
  1
3.500000
  0
DICTIONARYVAR
  5
37E
102
{ACAD_REACTORS
330
373
102
}
330
373
100
DictionaryVariables
280
     0
  1
acadiso.lin
  0
DICTIONARYVAR
  5
379
102
{ACAD_REACTORS
330
373
102
}
330
373
100
DictionaryVariables
280
     0
  1
Standard
  0
DICTIONARYVAR
  5
378
102
{ACAD_REACTORS
330
373
102
}
330
373
100
DictionaryVariables
280
     0
  1
Standard
  0
DICTIONARYVAR
  5
37C
102
{ACAD_REACTORS
330
373
102
}
330
373
100
DictionaryVariables
280
     0
  1
0
  0
DICTIONARY
  5
375
330
5A
100
AcDbDictionary
280
     1
281
     1
  3
ACAD_ROUNDTRIP_2008_TABLESTYLE_CELLSTYLEMAP
360
376
  0
CELLSTYLEMAP
  5
376
102
{ACAD_REACTORS
330
375
102
}
330
375
100
AcDbCellStyleMap
 90
        3
300
CELLSTYLE
  1
TABLEFORMAT_BEGIN
 90
        5
170
     1
 91
        0
 92
    32768
 62
   257
 93
        1
300
CONTENTFORMAT
  1
CONTENTFORMAT_BEGIN
 90
        0
 91
        0
 92
        4
 93
        0
300

 40
0.0
140
1.0
 94
        5
 62
     0
340
11
144
6.0
309
CONTENTFORMAT_END
171
     1
301
MARGIN
  1
CELLMARGIN_BEGIN
 40
1.5
 40
1.5
 40
1.5
 40
1.5
 40
1.5
 40
1.5
309
CELLMARGIN_END
 94
        6
 95
        1
302
GRIDFORMAT
  1
GRIDFORMAT_BEGIN
 90
        0
 91
        1
 62
     0
 92
       -2
340
14
 93
        0
 40
0.045
309
GRIDFORMAT_END
 95
        2
302
GRIDFORMAT
  1
GRIDFORMAT_BEGIN
 90
        0
 91
        1
 62
     0
 92
       -2
340
14
 93
        0
 40
0.045
309
GRIDFORMAT_END
 95
        4
302
GRIDFORMAT
  1
GRIDFORMAT_BEGIN
 90
        0
 91
        1
 62
     0
 92
       -2
340
14
 93
        0
 40
0.045
309
GRIDFORMAT_END
 95
        8
302
GRIDFORMAT
  1
GRIDFORMAT_BEGIN
 90
        0
 91
        1
 62
     0
 92
       -2
340
14
 93
        0
 40
0.045
309
GRIDFORMAT_END
 95
       16
302
GRIDFORMAT
  1
GRIDFORMAT_BEGIN
 90
        0
 91
        1
 62
     0
 92
       -2
340
14
 93
        0
 40
0.045
309
GRIDFORMAT_END
 95
       32
302
GRIDFORMAT
  1
GRIDFORMAT_BEGIN
 90
        0
 91
        1
 62
     0
 92
       -2
340
14
 93
        0
 40
0.045
309
GRIDFORMAT_END
309
TABLEFORMAT_END
  1
CELLSTYLE_BEGIN
 90
        1
 91
        1
300
_TITLE
309
CELLSTYLE_END
300
CELLSTYLE
  1
TABLEFORMAT_BEGIN
 90
        5
170
     1
 91
        0
 92
        0
 62
   257
 93
        1
300
CONTENTFORMAT
  1
CONTENTFORMAT_BEGIN
 90
        0
 91
        0
 92
        4
 93
        0
300

 40
0.0
140
1.0
 94
        5
 62
     0
340
11
144
4.5
309
CONTENTFORMAT_END
171
     1
301
MARGIN
  1
CELLMARGIN_BEGIN
 40
1.5
 40
1.5
 40
1.5
 40
1.5
 40
1.5
 40
1.5
309
CELLMARGIN_END
 94
        6
 95
        1
302
GRIDFORMAT
  1
GRIDFORMAT_BEGIN
 90
        0
 91
        1
 62
     0
 92
       -2
340
14
 93
        0
 40
0.045
309
GRIDFORMAT_END
 95
        2
302
GRIDFORMAT
  1
GRIDFORMAT_BEGIN
 90
        0
 91
        1
 62
     0
 92
       -2
340
14
 93
        0
 40
0.045
309
GRIDFORMAT_END
 95
        4
302
GRIDFORMAT
  1
GRIDFORMAT_BEGIN
 90
        0
 91
        1
 62
     0
 92
       -2
340
14
 93
        0
 40
0.045
309
GRIDFORMAT_END
 95
        8
302
GRIDFORMAT
  1
GRIDFORMAT_BEGIN
 90
        0
 91
        1
 62
     0
 92
       -2
340
14
 93
        0
 40
0.045
309
GRIDFORMAT_END
 95
       16
302
GRIDFORMAT
  1
GRIDFORMAT_BEGIN
 90
        0
 91
        1
 62
     0
 92
       -2
340
14
 93
        0
 40
0.045
309
GRIDFORMAT_END
 95
       32
302
GRIDFORMAT
  1
GRIDFORMAT_BEGIN
 90
        0
 91
        1
 62
     0
 92
       -2
340
14
 93
        0
 40
0.045
309
GRIDFORMAT_END
309
TABLEFORMAT_END
  1
CELLSTYLE_BEGIN
 90
        2
 91
        1
300
_HEADER
309
CELLSTYLE_END
300
CELLSTYLE
  1
TABLEFORMAT_BEGIN
 90
        5
170
     1
 91
        0
 92
        0
 62
   257
 93
        1
300
CONTENTFORMAT
  1
CONTENTFORMAT_BEGIN
 90
        0
 91
        0
 92
        4
 93
        0
300

 40
0.0
140
1.0
 94
        2
 62
     0
340
11
144
4.5
309
CONTENTFORMAT_END
171
     1
301
MARGIN
  1
CELLMARGIN_BEGIN
 40
1.5
 40
1.5
 40
1.5
 40
1.5
 40
1.5
 40
1.5
309
CELLMARGIN_END
 94
        6
 95
        1
302
GRIDFORMAT
  1
GRIDFORMAT_BEGIN
 90
        0
 91
        1
 62
     0
 92
       -2
340
14
 93
        0
 40
0.045
309
GRIDFORMAT_END
 95
        2
302
GRIDFORMAT
  1
GRIDFORMAT_BEGIN
 90
        0
 91
        1
 62
     0
 92
       -2
340
14
 93
        0
 40
0.045
309
GRIDFORMAT_END
 95
        4
302
GRIDFORMAT
  1
GRIDFORMAT_BEGIN
 90
        0
 91
        1
 62
     0
 92
       -2
340
14
 93
        0
 40
0.045
309
GRIDFORMAT_END
 95
        8
302
GRIDFORMAT
  1
GRIDFORMAT_BEGIN
 90
        0
 91
        1
 62
     0
 92
       -2
340
14
 93
        0
 40
0.045
309
GRIDFORMAT_END
 95
       16
302
GRIDFORMAT
  1
GRIDFORMAT_BEGIN
 90
        0
 91
        1
 62
     0
 92
       -2
340
14
 93
        0
 40
0.045
309
GRIDFORMAT_END
 95
       32
302
GRIDFORMAT
  1
GRIDFORMAT_BEGIN
 90
        0
 91
        1
 62
     0
 92
       -2
340
14
 93
        0
 40
0.045
309
GRIDFORMAT_END
309
TABLEFORMAT_END
  1
CELLSTYLE_BEGIN
 90
        3
 91
        2
300
_DATA
309
CELLSTYLE_END
  0
ENDSEC
  0
EOF
