  0
SECTION
  2
HEADER
  9
$ACADVER
  1
AC1027
  9
$ACADMAINTVER
 70
   105
  9
$DWGCODEPAGE
  3
ANSI_1252
  9
$LASTSAVEDBY
  1
mezergues
  9
$REQUIREDVERSIONS
160
                 0
  9
$INSBASE
 10
0.0
 20
0.0
 30
0.0
  9
$EXTMIN
 10
19195.53154230327
 20
-10831.80898437359
 30
0.0
  9
$EXTMAX
 10
20180.53154230327
 20
-9476.808984373594
 30
2500.0
  9
$LIMMIN
 10
0.0
 20
0.0
  9
$LIMMAX
 10
420.0
 20
297.0
  9
$ORTHOMODE
 70
     0
  9
$REGENMODE
 70
     1
  9
$FILLMODE
 70
     1
  9
$QTEXTMODE
 70
     0
  9
$MIRRTEXT
 70
     1
  9
$LTSCALE
 40
5.0
  9
$ATTMODE
 70
     1
  9
$TEXTSIZE
 40
2.5
  9
$TRACEWID
 40
1.0
  9
$TEXTSTYLE
  7
Standard
  9
$CLAYER
  8
0
  9
$CELTYPE
  6
Continuous
  9
$CECOLOR
 62
   256
  9
$CELTSCALE
 40
1.0
  9
$DISPSILH
 70
     0
  9
$DIMSCALE
 40
1.0
  9
$DIMASZ
 40
2.5
  9
$DIMEXO
 40
0.625
  9
$DIMDLI
 40
3.75
  9
$DIMRND
 40
0.0
  9
$DIMDLE
 40
0.0
  9
$DIMEXE
 40
1.25
  9
$DIMTP
 40
0.0
  9
$DIMTM
 40
0.0
  9
$DIMTXT
 40
2.5
  9
$DIMCEN
 40
2.5
  9
$DIMTSZ
 40
0.0
  9
$DIMTOL
 70
     0
  9
$DIMLIM
 70
     0
  9
$DIMTIH
 70
     0
  9
$DIMTOH
 70
     0
  9
$DIMSE1
 70
     0
  9
$DIMSE2
 70
     0
  9
$DIMTAD
 70
     1
  9
$DIMZIN
 70
     8
  9
$DIMBLK
  1

  9
$DIMASO
 70
     1
  9
$DIMSHO
 70
     1
  9
$DIMPOST
  1

  9
$DIMAPOST
  1

  9
$DIMALT
 70
     0
  9
$DIMALTD
 70
     3
  9
$DIMALTF
 40
0.03937007874016
  9
$DIMLFAC
 40
1.0
  9
$DIMTOFL
 70
     1
  9
$DIMTVP
 40
0.0
  9
$DIMTIX
 70
     0
  9
$DIMSOXD
 70
     1
  9
$DIMSAH
 70
     0
  9
$DIMBLK1
  1

  9
$DIMBLK2
  1

  9
$DIMSTYLE
  2
ISO-25
  9
$DIMCLRD
 70
     0
  9
$DIMCLRE
 70
     0
  9
$DIMCLRT
 70
     0
  9
$DIMTFAC
 40
1.0
  9
$DIMGAP
 40
0.625
  9
$DIMJUST
 70
     0
  9
$DIMSD1
 70
     0
  9
$DIMSD2
 70
     0
  9
$DIMTOLJ
 70
     0
  9
$DIMTZIN
 70
     8
  9
$DIMALTZ
 70
     0
  9
$DIMALTTZ
 70
     0
  9
$DIMUPT
 70
     0
  9
$DIMDEC
 70
     2
  9
$DIMTDEC
 70
     2
  9
$DIMALTU
 70
     2
  9
$DIMALTTD
 70
     3
  9
$DIMTXSTY
  7
Standard
  9
$DIMAUNIT
 70
     0
  9
$DIMADEC
 70
     0
  9
$DIMALTRND
 40
0.0
  9
$DIMAZIN
 70
     0
  9
$DIMDSEP
 70
    44
  9
$DIMATFIT
 70
     3
  9
$DIMFRAC
 70
     0
  9
$DIMLDRBLK
  1

  9
$DIMLUNIT
 70
     2
  9
$DIMLWD
 70
    -2
  9
$DIMLWE
 70
    -2
  9
$DIMTMOVE
 70
     2
  9
$DIMFXL
 40
1.0
  9
$DIMFXLON
 70
     0
  9
$DIMJOGANG
 40
0.7853981633974483
  9
$DIMTFILL
 70
     0
  9
$DIMTFILLCLR
 70
     0
  9
$DIMARCSYM
 70
     0
  9
$DIMLTYPE
  6

  9
$DIMLTEX1
  6

  9
$DIMLTEX2
  6

  9
$DIMTXTDIRECTION
 70
     0
  9
$LUNITS
 70
     2
  9
$LUPREC
 70
     4
  9
$SKETCHINC
 40
1.0
  9
$FILLETRAD
 40
0.0
  9
$AUNITS
 70
     0
  9
$AUPREC
 70
     0
  9
$MENU
  1
.
  9
$ELEVATION
 40
0.0
  9
$PELEVATION
 40
0.0
  9
$THICKNESS
 40
0.0
  9
$LIMCHECK
 70
     0
  9
$CHAMFERA
 40
0.0
  9
$CHAMFERB
 40
0.0
  9
$CHAMFERC
 40
0.0
  9
$CHAMFERD
 40
0.0
  9
$SKPOLY
 70
     0
  9
$TDCREATE
 40
2459677.711201007
  9
$TDUCREATE
 40
2459677.627867674
  9
$TDUPDATE
 40
2459677.711204085
  9
$TDUUPDATE
 40
2459677.627870752
  9
$TDINDWG
 40
0.0000000116
  9
$TDUSRTIMER
 40
0.0000000116
  9
$USRTIMER
 70
     1
  9
$ANGBASE
 50
0.0
  9
$ANGDIR
 70
     0
  9
$PDMODE
 70
     0
  9
$PDSIZE
 40
0.0
  9
$PLINEWID
 40
0.0
  9
$SPLFRAME
 70
     0
  9
$SPLINETYPE
 70
     6
  9
$SPLINESEGS
 70
     8
  9
$HANDSEED
  5
35C
  9
$SURFTAB1
 70
     6
  9
$SURFTAB2
 70
     6
  9
$SURFTYPE
 70
     6
  9
$SURFU
 70
     6
  9
$SURFV
 70
     6
  9
$UCSBASE
  2

  9
$UCSNAME
  2

  9
$UCSORG
 10
0.0
 20
0.0
 30
0.0
  9
$UCSXDIR
 10
1.0
 20
0.0
 30
0.0
  9
$UCSYDIR
 10
0.0
 20
1.0
 30
0.0
  9
$UCSORTHOREF
  2

  9
$UCSORTHOVIEW
 70
     0
  9
$UCSORGTOP
 10
0.0
 20
0.0
 30
0.0
  9
$UCSORGBOTTOM
 10
0.0
 20
0.0
 30
0.0
  9
$UCSORGLEFT
 10
0.0
 20
0.0
 30
0.0
  9
$UCSORGRIGHT
 10
0.0
 20
0.0
 30
0.0
  9
$UCSORGFRONT
 10
0.0
 20
0.0
 30
0.0
  9
$UCSORGBACK
 10
0.0
 20
0.0
 30
0.0
  9
$PUCSBASE
  2

  9
$PUCSNAME
  2

  9
$PUCSORG
 10
0.0
 20
0.0
 30
0.0
  9
$PUCSXDIR
 10
1.0
 20
0.0
 30
0.0
  9
$PUCSYDIR
 10
0.0
 20
1.0
 30
0.0
  9
$PUCSORTHOREF
  2

  9
$PUCSORTHOVIEW
 70
     0
  9
$PUCSORGTOP
 10
0.0
 20
0.0
 30
0.0
  9
$PUCSORGBOTTOM
 10
0.0
 20
0.0
 30
0.0
  9
$PUCSORGLEFT
 10
0.0
 20
0.0
 30
0.0
  9
$PUCSORGRIGHT
 10
0.0
 20
0.0
 30
0.0
  9
$PUCSORGFRONT
 10
0.0
 20
0.0
 30
0.0
  9
$PUCSORGBACK
 10
0.0
 20
0.0
 30
0.0
  9
$USERI1
 70
     0
  9
$USERI2
 70
     0
  9
$USERI3
 70
     0
  9
$USERI4
 70
     0
  9
$USERI5
 70
     0
  9
$USERR1
 40
0.0
  9
$USERR2
 40
0.0
  9
$USERR3
 40
0.0
  9
$USERR4
 40
0.0
  9
$USERR5
 40
0.0
  9
$WORLDVIEW
 70
     1
  9
$SHADEDGE
 70
     3
  9
$SHADEDIF
 70
    70
  9
$TILEMODE
 70
     1
  9
$MAXACTVP
 70
    64
  9
$PINSBASE
 10
0.0
 20
0.0
 30
0.0
  9
$PLIMCHECK
 70
     0
  9
$PEXTMIN
 10
-5.730400000000003
 20
-7.876400000000018
 30
0.0
  9
$PEXTMAX
 10
203.3304
 20
279.4764
 30
0.0
  9
$PLIMMIN
 10
-20.0
 20
-7.5
  9
$PLIMMAX
 10
277.0
 20
202.5
  9
$UNITMODE
 70
     0
  9
$VISRETAIN
 70
     1
  9
$PLINEGEN
 70
     0
  9
$PSLTSCALE
 70
     0
  9
$TREEDEPTH
 70
  3020
  9
$CMLSTYLE
  2
Standard
  9
$CMLJUST
 70
     0
  9
$CMLSCALE
 40
20.0
  9
$PROXYGRAPHICS
 70
     1
  9
$MEASUREMENT
 70
     1
  9
$CELWEIGHT
370
    -1
  9
$ENDCAPS
280
     0
  9
$JOINSTYLE
280
     0
  9
$LWDISPLAY
290
     0
  9
$INSUNITS
 70
     4
  9
$HYPERLINKBASE
  1

  9
$STYLESHEET
  1

  9
$XEDIT
290
     1
  9
$CEPSNTYPE
380
     3
  9
$CEPSNID
390
5F
  9
$PSTYLEMODE
290
     0
  9
$FINGERPRINTGUID
  2
{8c1e9911-509a-4b1f-a92d-68792293b20f}
  9
$VERSIONGUID
  2
{FAEB1C32-E019-11D5-929B-00C0DF256EC4}
  9
$EXTNAMES
290
     1
  9
$PSVPSCALE
 40
0.0
  9
$OLESTARTUP
290
     0
  9
$SORTENTS
280
   127
  9
$INDEXCTL
280
     0
  9
$HIDETEXT
280
     1
  9
$XCLIPFRAME
280
     2
  9
$HALOGAP
280
     0
  9
$OBSCOLOR
 70
   257
  9
$OBSLTYPE
280
     0
  9
$INTERSECTIONDISPLAY
280
     0
  9
$INTERSECTIONCOLOR
 70
   257
  9
$DIMASSOC
280
     2
  9
$PROJECTNAME
  1

  9
$CAMERADISPLAY
290
     0
  9
$LENSLENGTH
 40
50.0
  9
$CAMERAHEIGHT
 40
0.0
  9
$STEPSPERSEC
 40
2.0
  9
$STEPSIZE
 40
6.0
  9
$3DDWFPREC
 40
2.0
  9
$PSOLWIDTH
 40
5.0
  9
$PSOLHEIGHT
 40
80.0
  9
$LOFTANG1
 40
1.570796326794897
  9
$LOFTANG2
 40
1.570796326794897
  9
$LOFTMAG1
 40
0.0
  9
$LOFTMAG2
 40
0.0
  9
$LOFTPARAM
 70
     7
  9
$LOFTNORMALS
280
     1
  9
$LATITUDE
 40
37.795
  9
$LONGITUDE
 40
-122.394
  9
$NORTHDIRECTION
 40
0.0
  9
$TIMEZONE
 70
 -8000
  9
$LIGHTGLYPHDISPLAY
280
     1
  9
$TILEMODELIGHTSYNCH
280
     1
  9
$CMATERIAL
347
44
  9
$SOLIDHIST
280
     0
  9
$SHOWHIST
280
     1
  9
$DWFFRAME
280
     2
  9
$DGNFRAME
280
     2
  9
$REALWORLDSCALE
290
     1
  9
$INTERFERECOLOR
 62
   256
  9
$CSHADOW
280
     0
  9
$SHADOWPLANELOCATION
 40
0.0
  0
ENDSEC
  0
SECTION
  2
CLASSES
  0
CLASS
  1
ACDBDICTIONARYWDFLT
  2
AcDbDictionaryWithDefault
  3
ObjectDBX Classes
 90
        0
 91
        3
280
     0
281
     0
  0
CLASS
  1
VISUALSTYLE
  2
AcDbVisualStyle
  3
ObjectDBX Classes
 90
     4095
 91
        3
280
     0
281
     0
  0
CLASS
  1
MATERIAL
  2
AcDbMaterial
  3
ObjectDBX Classes
 90
     1153
 91
        3
280
     0
281
     0
  0
CLASS
  1
SCALE
  2
AcDbScale
  3
ObjectDBX Classes
 90
     1153
 91
        3
280
     0
281
     0
  0
CLASS
  1
TABLESTYLE
  2
AcDbTableStyle
  3
ObjectDBX Classes
 90
     4095
 91
        3
280
     0
281
     0
  0
CLASS
  1
MLEADERSTYLE
  2
AcDbMLeaderStyle
  3
ACDB_MLEADERSTYLE_CLASS
 90
     4095
 91
        3
280
     0
281
     0
  0
CLASS
  1
SUN
  2
AcDbSun
  3
SCENEOE
 90
     1153
 91
        3
280
     0
281
     0
  0
CLASS
  1
RASTERVARIABLES
  2
AcDbRasterVariables
  3
ISM
 90
        0
 91
        3
280
     0
281
     0
  0
CLASS
  1
WIPEOUTVARIABLES
  2
AcDbWipeoutVariables
  3
WipeOut|AutoCAD Express Tool|expresstools@autodesk.com
 90
        0
 91
        3
280
     0
281
     0
  0
CLASS
  1
PLOTSETTINGS
  2
AcDbPlotSettings
  3
ObjectDBX Classes
 90
        0
 91
        3
280
     0
281
     0
  0
CLASS
  1
IMAGEDEF
  2
AcDbRasterImageDef
  3
ISM
 90
        0
 91
        3
280
     0
281
     0
  0
CLASS
  1
IMAGE
  2
AcDbRasterImage
  3
ISM
 90
      127
 91
        4
280
     0
281
     1
  0
CLASS
  1
IMAGEDEF_REACTOR
  2
AcDbRasterImageDefReactor
  3
ISM
 90
        1
 91
        3
280
     0
281
     0
  0
CLASS
  1
DICTIONARYVAR
  2
AcDbDictionaryVar
  3
ObjectDBX Classes
 90
        0
 91
        3
280
     0
281
     0
  0
CLASS
  1
CELLSTYLEMAP
  2
AcDbCellStyleMap
  3
ObjectDBX Classes
 90
     1152
 91
        3
280
     0
281
     0
  0
ENDSEC
  0
SECTION
  2
TABLES
  0
TABLE
  2
VPORT
  5
8
330
0
100
AcDbSymbolTable
 70
     1
  0
VPORT
  5
29
330
8
100
AcDbSymbolTableRecord
100
AcDbViewportTableRecord
  2
*Active
 70
     0
 10
0.0
 20
0.0
 11
1.0
 21
1.0
 12
344.1869158878504
 22
148.5
 13
0.0
 23
0.0
 14
10.0
 24
10.0
 15
10.0
 25
10.0
 16
0.0
 26
0.0
 36
1.0
 17
0.0
 27
0.0
 37
0.0
 40
297.0
 41
1.972972972850329
 42
50.0
 43
0.0
 44
0.0
 50
0.0
 51
0.0
 71
     0
 72
   100
 73
     1
 74
     3
 75
     0
 76
     0
 77
     0
 78
     0
281
     0
 65
     1
110
0.0
120
0.0
130
0.0
111
1.0
121
0.0
131
0.0
112
0.0
122
1.0
132
0.0
 79
     0
146
0.0
348
2F
 60
     3
 61
     5
292
     1
282
     1
141
0.0
142
0.0
 63
   250
361
5D
  0
ENDTAB
  0
TABLE
  2
LTYPE
  5
5
330
0
100
AcDbSymbolTable
 70
     3
  0
LTYPE
  5
14
330
5
100
AcDbSymbolTableRecord
100
AcDbLinetypeTableRecord
  2
ByBlock
 70
     0
  3

 72
    65
 73
     0
 40
0.0
  0
LTYPE
  5
15
330
5
100
AcDbSymbolTableRecord
100
AcDbLinetypeTableRecord
  2
ByLayer
 70
     0
  3

 72
    65
 73
     0
 40
0.0
  0
LTYPE
  5
16
330
5
100
AcDbSymbolTableRecord
100
AcDbLinetypeTableRecord
  2
Continuous
 70
     0
  3
Solid line
 72
    65
 73
     0
 40
0.0
  0
LTYPE
  5
164
330
5
100
AcDbSymbolTableRecord
100
AcDbLinetypeTableRecord
  2
CADWORK_3
 70
     0
  3

 72
    65
 73
     2
 40
4.0
 49
2.0
 74
     0
 49
-2.0
 74
     0
  0
LTYPE
  5
2AD
330
5
100
AcDbSymbolTableRecord
100
AcDbLinetypeTableRecord
  2
CADWORK_22
 70
     0
  3

 72
    65
 73
     0
 40
0.0
  0
ENDTAB
  0
TABLE
  2
LAYER
  5
2
330
0
100
AcDbSymbolTable
 70
     2
  0
LAYER
  5
10
330
2
100
AcDbSymbolTableRecord
100
AcDbLayerTableRecord
  2
0
 70
     0
 62
     7
  6
Continuous
370
    -3
390
F
347
46
348
0
  0
LAYER
  5
67
330
2
100
AcDbSymbolTableRecord
100
AcDbLayerTableRecord
  2
Ech.1_5
 70
     0
 62
     7
  6
Continuous
370
    -3
390
F
347
46
348
0
  0
ENDTAB
  0
TABLE
  2
STYLE
  5
3
330
0
100
AcDbSymbolTable
 70
    10
  0
STYLE
  5
11
330
3
100
AcDbSymbolTableRecord
100
AcDbTextStyleTableRecord
  2
Standard
 70
     0
 40
0.0
 41
1.0
 50
0.0
 71
     0
 42
2.5
  3
txt
  4

  0
STYLE
  5
62
330
3
100
AcDbSymbolTableRecord
100
AcDbTextStyleTableRecord
  2
CwStyleShx
 70
     0
 40
1.0
 41
1.0
 50
0.0
 71
     0
 42
2.5
  3

  4

  0
STYLE
  5
63
330
3
100
AcDbSymbolTableRecord
100
AcDbTextStyleTableRecord
  2
CwStyleShx16
 70
     0
 40
1.0
 41
1.0
 50
0.0
 71
     0
 42
2.5
  3

  4

  0
STYLE
  5
64
330
3
100
AcDbSymbolTableRecord
100
AcDbTextStyleTableRecord
  2
MONOTXT
 70
     0
 40
0.0
 41
1.0
 50
0.0
 71
     0
 42
2.5
  3
MONOTXT
  4

  0
STYLE
  5
65
330
3
100
AcDbSymbolTableRecord
100
AcDbTextStyleTableRecord
  2
SYMAP
 70
     0
 40
1.0
 41
1.0
 50
0.0
 71
     0
 42
2.5
  3
SYMAP
  4

  0
STYLE
  5
66
330
3
100
AcDbSymbolTableRecord
100
AcDbTextStyleTableRecord
  2
CwStyleTtf
 70
     0
 40
1.0
 41
1.0
 50
0.0
 71
     0
 42
2.5
  3
arial.ttf
  4

  0
STYLE
  5
329
330
3
100
AcDbSymbolTableRecord
100
AcDbTextStyleTableRecord
  2
arial-
 70
     0
 40
1.0
 41
1.0
 50
0.0
 71
     0
 42
2.5
  3
arial.ttf
  4

1001
ACAD
1000
Arial
1071
        0
  0
STYLE
  5
330
330
3
100
AcDbSymbolTableRecord
100
AcDbTextStyleTableRecord
  2
arial-i
 70
     0
 40
1.0
 41
1.0
 50
0.0
 71
     0
 42
2.5
  3
ariali.ttf
  4

1001
ACAD
1000
Arial
1071
 16777216
  0
STYLE
  5
343
330
3
100
AcDbSymbolTableRecord
100
AcDbTextStyleTableRecord
  2
arial-bi
 70
     0
 40
1.0
 41
1.0
 50
0.0
 71
     0
 42
2.5
  3
arialbi.ttf
  4

1001
ACAD
1000
Arial
1071
 50331648
  0
STYLE
  5
347
330
3
100
AcDbSymbolTableRecord
100
AcDbTextStyleTableRecord
  2
arial-b
 70
     0
 40
1.0
 41
1.0
 50
0.0
 71
     0
 42
2.5
  3
arialbd.ttf
  4

1001
ACAD
1000
Arial
1071
 33554432
  0
ENDTAB
  0
TABLE
  2
VIEW
  5
6
330
0
100
AcDbSymbolTable
 70
     0
  0
ENDTAB
  0
TABLE
  2
UCS
  5
7
330
0
100
AcDbSymbolTable
 70
     0
  0
ENDTAB
  0
TABLE
  2
APPID
  5
9
330
0
100
AcDbSymbolTable
 70
     3
  0
APPID
  5
12
330
9
100
AcDbSymbolTableRecord
100
AcDbRegAppTableRecord
  2
ACAD
 70
     0
  0
APPID
  5
5E
330
9
100
AcDbSymbolTableRecord
100
AcDbRegAppTableRecord
  2
Cadwork
 70
     0
  0
APPID
  5
214
330
9
100
AcDbSymbolTableRecord
100
AcDbRegAppTableRecord
  2
PLOTTRANSPARENCY
 70
     0
  0
ENDTAB
  0
TABLE
  2
DIMSTYLE
  5
A
330
0
100
AcDbSymbolTable
 70
     1
100
AcDbDimStyleTable
  0
DIMSTYLE
105
27
330
A
100
AcDbSymbolTableRecord
100
AcDbDimStyleTableRecord
  2
ISO-25
 70
     0
 41
2.5
 42
0.625
 43
3.75
 44
1.25
 73
     0
 74
     0
 77
     1
 78
     8
140
2.5
141
2.5
143
0.03937007874016
147
0.625
171
     3
172
     1
178
     0
271
     2
272
     2
274
     3
278
    44
283
     0
284
     8
340
11
  0
ENDTAB
  0
TABLE
  2
BLOCK_RECORD
  5
1
330
0
100
AcDbSymbolTable
 70
    73
  0
BLOCK_RECORD
  5
1F
330
1
100
AcDbSymbolTableRecord
100
AcDbBlockTableRecord
  2
*Model_Space
340
22
 70
     0
280
     1
281
     0
  0
BLOCK_RECORD
  5
20F
330
1
100
AcDbSymbolTableRecord
100
AcDbBlockTableRecord
  2
*Paper_Space
340
210
 70
     0
280
     1
281
     0
  0
BLOCK_RECORD
  5
68
330
1
100
AcDbSymbolTableRecord
100
AcDbBlockTableRecord
  2
CDWK_PTTYP1
340
0
 70
     0
280
     1
281
     1
  0
BLOCK_RECORD
  5
6F
330
1
100
AcDbSymbolTableRecord
100
AcDbBlockTableRecord
  2
CDWK_PTTYP2
340
0
 70
     0
280
     1
281
     1
  0
BLOCK_RECORD
  5
74
330
1
100
AcDbSymbolTableRecord
100
AcDbBlockTableRecord
  2
CDWK_PTTYP4
340
0
 70
     0
280
     1
281
     1
  0
BLOCK_RECORD
  5
78
330
1
100
AcDbSymbolTableRecord
100
AcDbBlockTableRecord
  2
CDWK_PTTYP5
340
0
 70
     0
280
     1
281
     1
  0
BLOCK_RECORD
  5
81
330
1
100
AcDbSymbolTableRecord
100
AcDbBlockTableRecord
  2
CDWK_PTTYP6
340
0
 70
     0
280
     1
281
     1
  0
BLOCK_RECORD
  5
89
330
1
100
AcDbSymbolTableRecord
100
AcDbBlockTableRecord
  2
CDWK_PTTYP7
340
0
 70
     0
280
     1
281
     1
  0
BLOCK_RECORD
  5
92
330
1
100
AcDbSymbolTableRecord
100
AcDbBlockTableRecord
  2
CDWK_PTTYP8
340
0
 70
     0
280
     1
281
     1
  0
BLOCK_RECORD
  5
96
330
1
100
AcDbSymbolTableRecord
100
AcDbBlockTableRecord
  2
CDWK_PTTYP9
340
0
 70
     0
280
     1
281
     1
  0
BLOCK_RECORD
  5
9B
330
1
100
AcDbSymbolTableRecord
100
AcDbBlockTableRecord
  2
CDWK_PTTYP10
340
0
 70
     0
280
     1
281
     1
  0
BLOCK_RECORD
  5
9F
330
1
100
AcDbSymbolTableRecord
100
AcDbBlockTableRecord
  2
CDWK_PTTYP11
340
0
 70
     0
280
     1
281
     1
  0
BLOCK_RECORD
  5
A4
330
1
100
AcDbSymbolTableRecord
100
AcDbBlockTableRecord
  2
CDWK_PTTYP12
340
0
 70
     0
280
     1
281
     1
  0
BLOCK_RECORD
  5
A9
330
1
100
AcDbSymbolTableRecord
100
AcDbBlockTableRecord
  2
CDWK_PTTYP13
340
0
 70
     0
280
     1
281
     1
  0
BLOCK_RECORD
  5
AF
330
1
100
AcDbSymbolTableRecord
100
AcDbBlockTableRecord
  2
CDWK_PTTYP16
340
0
 70
     0
280
     1
281
     1
  0
BLOCK_RECORD
  5
B6
330
1
100
AcDbSymbolTableRecord
100
AcDbBlockTableRecord
  2
CDWK_PTTYP17
340
0
 70
     0
280
     1
281
     1
  0
BLOCK_RECORD
  5
BB
330
1
100
AcDbSymbolTableRecord
100
AcDbBlockTableRecord
  2
CDWK_PTTYP18
340
0
 70
     0
280
     1
281
     1
  0
BLOCK_RECORD
  5
C0
330
1
100
AcDbSymbolTableRecord
100
AcDbBlockTableRecord
  2
CDWK_PTTYP19
340
0
 70
     0
280
     1
281
     1
  0
BLOCK_RECORD
  5
C6
330
1
100
AcDbSymbolTableRecord
100
AcDbBlockTableRecord
  2
CDWK_PTTYP20
340
0
 70
     0
280
     1
281
     1
  0
BLOCK_RECORD
  5
CB
330
1
100
AcDbSymbolTableRecord
100
AcDbBlockTableRecord
  2
CDWK_PTTYP21
340
0
 70
     0
280
     1
281
     1
  0
BLOCK_RECORD
  5
D0
330
1
100
AcDbSymbolTableRecord
100
AcDbBlockTableRecord
  2
CDWK_PTTYP25
340
0
 70
     0
280
     1
281
     1
  0
BLOCK_RECORD
  5
D7
330
1
100
AcDbSymbolTableRecord
100
AcDbBlockTableRecord
  2
CDWK_PTTYP26
340
0
 70
     0
280
     1
281
     1
  0
BLOCK_RECORD
  5
DE
330
1
100
AcDbSymbolTableRecord
100
AcDbBlockTableRecord
  2
CDWK_PTTYP27
340
0
 70
     0
280
     1
281
     1
  0
BLOCK_RECORD
  5
E6
330
1
100
AcDbSymbolTableRecord
100
AcDbBlockTableRecord
  2
CDWK_PTTYP28
340
0
 70
     0
280
     1
281
     1
  0
BLOCK_RECORD
  5
ED
330
1
100
AcDbSymbolTableRecord
100
AcDbBlockTableRecord
  2
CDWK_PTTYP29
340
0
 70
     0
280
     1
281
     1
  0
BLOCK_RECORD
  5
F3
330
1
100
AcDbSymbolTableRecord
100
AcDbBlockTableRecord
  2
CDWK_PTTYP30
340
0
 70
     0
280
     1
281
     1
  0
BLOCK_RECORD
  5
FA
330
1
100
AcDbSymbolTableRecord
100
AcDbBlockTableRecord
  2
CDWK_PTTYP31
340
0
 70
     0
280
     1
281
     1
  0
BLOCK_RECORD
  5
102
330
1
100
AcDbSymbolTableRecord
100
AcDbBlockTableRecord
  2
CDWK_PTTYP32
340
0
 70
     0
280
     1
281
     1
  0
BLOCK_RECORD
  5
10B
330
1
100
AcDbSymbolTableRecord
100
AcDbBlockTableRecord
  2
CDWK_PTTYP33
340
0
 70
     0
280
     1
281
     1
  0
BLOCK_RECORD
  5
111
330
1
100
AcDbSymbolTableRecord
100
AcDbBlockTableRecord
  2
CDWK_PTTYP34
340
0
 70
     0
280
     1
281
     1
  0
BLOCK_RECORD
  5
117
330
1
100
AcDbSymbolTableRecord
100
AcDbBlockTableRecord
  2
CDWK_PTTYP35
340
0
 70
     0
280
     1
281
     1
  0
BLOCK_RECORD
  5
11D
330
1
100
AcDbSymbolTableRecord
100
AcDbBlockTableRecord
  2
CDWK_PTTYP36
340
0
 70
     0
280
     1
281
     1
  0
BLOCK_RECORD
  5
125
330
1
100
AcDbSymbolTableRecord
100
AcDbBlockTableRecord
  2
CDWK_PTTYP37
340
0
 70
     0
280
     1
281
     1
  0
BLOCK_RECORD
  5
12A
330
1
100
AcDbSymbolTableRecord
100
AcDbBlockTableRecord
  2
CDWK_PTTYP38
340
0
 70
     0
280
     1
281
     1
  0
BLOCK_RECORD
  5
130
330
1
100
AcDbSymbolTableRecord
100
AcDbBlockTableRecord
  2
CDWK_PTTYP41
340
0
 70
     0
280
     1
281
     1
  0
BLOCK_RECORD
  5
13A
330
1
100
AcDbSymbolTableRecord
100
AcDbBlockTableRecord
  2
CDWK_PTTYP42
340
0
 70
     0
280
     1
281
     1
  0
BLOCK_RECORD
  5
143
330
1
100
AcDbSymbolTableRecord
100
AcDbBlockTableRecord
  2
CDWK_PTTYP43
340
0
 70
     0
280
     1
281
     1
  0
BLOCK_RECORD
  5
149
330
1
100
AcDbSymbolTableRecord
100
AcDbBlockTableRecord
  2
CDWK_PTTYP44
340
0
 70
     0
280
     1
281
     1
  0
BLOCK_RECORD
  5
152
330
1
100
AcDbSymbolTableRecord
100
AcDbBlockTableRecord
  2
CDWK_PTTYP45
340
0
 70
     0
280
     1
281
     1
  0
BLOCK_RECORD
  5
157
330
1
100
AcDbSymbolTableRecord
100
AcDbBlockTableRecord
  2
CDWK_PTTYP46
340
0
 70
     0
280
     1
281
     1
  0
BLOCK_RECORD
  5
15C
330
1
100
AcDbSymbolTableRecord
100
AcDbBlockTableRecord
  2
CDWK_PTTYP47
340
0
 70
     0
280
     1
281
     1
  0
BLOCK_RECORD
  5
165
330
1
100
AcDbSymbolTableRecord
100
AcDbBlockTableRecord
  2
CDWK_PTTYP48
340
0
 70
     0
280
     1
281
     1
  0
BLOCK_RECORD
  5
16A
330
1
100
AcDbSymbolTableRecord
100
AcDbBlockTableRecord
  2
CDWK_PTTYP49
340
0
 70
     0
280
     1
281
     1
  0
BLOCK_RECORD
  5
171
330
1
100
AcDbSymbolTableRecord
100
AcDbBlockTableRecord
  2
CDWK_PTTYP50
340
0
 70
     0
280
     1
281
     1
  0
BLOCK_RECORD
  5
17B
330
1
100
AcDbSymbolTableRecord
100
AcDbBlockTableRecord
  2
CDWK_PTTYP51
340
0
 70
     0
280
     1
281
     1
  0
BLOCK_RECORD
  5
180
330
1
100
AcDbSymbolTableRecord
100
AcDbBlockTableRecord
  2
CDWK_PTTYP52
340
0
 70
     0
280
     1
281
     1
  0
BLOCK_RECORD
  5
186
330
1
100
AcDbSymbolTableRecord
100
AcDbBlockTableRecord
  2
cw-dimension-symbol1
340
0
 70
     0
280
     1
281
     0
  0
BLOCK_RECORD
  5
18D
330
1
100
AcDbSymbolTableRecord
100
AcDbBlockTableRecord
  2
cw-dimension-symbol2
340
0
 70
     0
280
     1
281
     0
  0
BLOCK_RECORD
  5
192
330
1
100
AcDbSymbolTableRecord
100
AcDbBlockTableRecord
  2
cw-dimension-symbol3
340
0
 70
     0
280
     1
281
     0
  0
BLOCK_RECORD
  5
197
330
1
100
AcDbSymbolTableRecord
100
AcDbBlockTableRecord
  2
cw-dimension-symbol5
340
0
 70
     0
280
     1
281
     0
  0
BLOCK_RECORD
  5
19E
330
1
100
AcDbSymbolTableRecord
100
AcDbBlockTableRecord
  2
cw-dimension-symbol6
340
0
 70
     0
280
     1
281
     0
  0
BLOCK_RECORD
  5
1A4
330
1
100
AcDbSymbolTableRecord
100
AcDbBlockTableRecord
  2
cw-dimension-symbol11
340
0
 70
     0
280
     1
281
     0
  0
BLOCK_RECORD
  5
1AA
330
1
100
AcDbSymbolTableRecord
100
AcDbBlockTableRecord
  2
cw-dimension-symbol13
340
0
 70
     0
280
     1
281
     0
  0
BLOCK_RECORD
  5
1B0
330
1
100
AcDbSymbolTableRecord
100
AcDbBlockTableRecord
  2
cw-dimension-symbol15
340
0
 70
     0
280
     1
281
     0
  0
BLOCK_RECORD
  5
1B7
330
1
100
AcDbSymbolTableRecord
100
AcDbBlockTableRecord
  2
cw-dimension-symbol16
340
0
 70
     0
280
     1
281
     0
  0
BLOCK_RECORD
  5
1BE
330
1
100
AcDbSymbolTableRecord
100
AcDbBlockTableRecord
  2
cw-dimension-symbol17
340
0
 70
     0
280
     1
281
     0
  0
BLOCK_RECORD
  5
1C5
330
1
100
AcDbSymbolTableRecord
100
AcDbBlockTableRecord
  2
cw-dimension-symbol18
340
0
 70
     0
280
     1
281
     0
  0
BLOCK_RECORD
  5
1CC
330
1
100
AcDbSymbolTableRecord
100
AcDbBlockTableRecord
  2
cw-dimension-symbol19
340
0
 70
     0
280
     1
281
     0
  0
BLOCK_RECORD
  5
1CF
330
1
100
AcDbSymbolTableRecord
100
AcDbBlockTableRecord
  2
cw-dimension-symbol20
340
0
 70
     0
280
     1
281
     0
  0
BLOCK_RECORD
  5
1D6
330
1
100
AcDbSymbolTableRecord
100
AcDbBlockTableRecord
  2
cw-dimension-symbol21
340
0
 70
     0
280
     1
281
     0
  0
BLOCK_RECORD
  5
1DD
330
1
100
AcDbSymbolTableRecord
100
AcDbBlockTableRecord
  2
cw-line-extremity0
340
0
 70
     0
280
     1
281
     0
  0
BLOCK_RECORD
  5
1E1
330
1
100
AcDbSymbolTableRecord
100
AcDbBlockTableRecord
  2
cw-line-extremity2
340
0
 70
     0
280
     1
281
     0
  0
BLOCK_RECORD
  5
1E6
330
1
100
AcDbSymbolTableRecord
100
AcDbBlockTableRecord
  2
cw-line-extremity3
340
0
 70
     0
280
     1
281
     0
  0
BLOCK_RECORD
  5
1EB
330
1
100
AcDbSymbolTableRecord
100
AcDbBlockTableRecord
  2
cw-line-extremity301
340
0
 70
     0
280
     1
281
     0
  0
BLOCK_RECORD
  5
1ED
330
1
100
AcDbSymbolTableRecord
100
AcDbBlockTableRecord
  2
cw-line-extremity4
340
0
102
{BLKREFS
331
2B4
331
2B6
331
2B8
331
2BA
331
2BC
331
2BE
331
2C0
331
2C3
331
2C7
331
2C9
331
2CB
331
2CD
331
2CF
331
2D1
331
2D6
331
2D7
102
}
 70
     0
280
     1
281
     0
  0
BLOCK_RECORD
  5
1EF
330
1
100
AcDbSymbolTableRecord
100
AcDbBlockTableRecord
  2
cw-line-extremity5
340
0
 70
     0
280
     1
281
     0
  0
BLOCK_RECORD
  5
1F1
330
1
100
AcDbSymbolTableRecord
100
AcDbBlockTableRecord
  2
cw-line-extremity6
340
0
 70
     0
280
     1
281
     0
  0
BLOCK_RECORD
  5
1F3
330
1
100
AcDbSymbolTableRecord
100
AcDbBlockTableRecord
  2
cw-line-extremity9
340
0
 70
     0
280
     1
281
     0
  0
BLOCK_RECORD
  5
1F5
330
1
100
AcDbSymbolTableRecord
100
AcDbBlockTableRecord
  2
cw-line-extremity10
340
0
 70
     0
280
     1
281
     0
  0
BLOCK_RECORD
  5
1F7
330
1
100
AcDbSymbolTableRecord
100
AcDbBlockTableRecord
  2
cw-line-extremity1
340
0
 70
     0
280
     1
281
     0
  0
BLOCK_RECORD
  5
1B
330
1
100
AcDbSymbolTableRecord
100
AcDbBlockTableRecord
  2
*Paper_Space69
340
1E
 70
     0
280
     1
281
     0
  0
BLOCK_RECORD
  5
2DD
330
1
100
AcDbSymbolTableRecord
100
AcDbBlockTableRecord
  2
DIM11
340
0
102
{BLKREFS
331
2EE
102
}
 70
     0
280
     1
281
     1
  0
BLOCK_RECORD
  5
2F0
330
1
100
AcDbSymbolTableRecord
100
AcDbBlockTableRecord
  2
DIM12
340
0
102
{BLKREFS
331
301
102
}
 70
     0
280
     1
281
     1
  0
BLOCK_RECORD
  5
303
330
1
100
AcDbSymbolTableRecord
100
AcDbBlockTableRecord
  2
DIM13
340
0
102
{BLKREFS
331
314
102
}
 70
     0
280
     1
281
     1
  0
BLOCK_RECORD
  5
316
330
1
100
AcDbSymbolTableRecord
100
AcDbBlockTableRecord
  2
DIM14
340
0
102
{BLKREFS
331
327
102
}
 70
     0
280
     1
281
     1
  0
ENDTAB
  0
ENDSEC
  0
SECTION
  2
BLOCKS
  0
BLOCK
  5
20
330
1F
100
AcDbEntity
  8
0
100
AcDbBlockBegin
  2
*Model_Space
 70
     0
 10
0.0
 20
0.0
 30
0.0
  3
*Model_Space
  1

  0
ENDBLK
  5
21
330
1F
100
AcDbEntity
  8
0
100
AcDbBlockEnd
  0
BLOCK
  5
211
330
20F
100
AcDbEntity
 67
     1
  8
0
100
AcDbBlockBegin
  2
*Paper_Space
 70
     0
 10
0.0
 20
0.0
 30
0.0
  3
*Paper_Space
  1

  0
ENDBLK
  5
212
330
20F
100
AcDbEntity
 67
     1
  8
0
100
AcDbBlockEnd
  0
BLOCK
  5
6D
330
68
100
AcDbEntity
  8
0
100
AcDbBlockBegin
  2
CDWK_PTTYP1
 70
     0
 10
0.0
 20
0.0
 30
0.0
  3
CDWK_PTTYP1
  1

  0
LINE
  5
69
330
68
100
AcDbEntity
  8
0
  6
Continuous
 62
     0
370
    -2
390
5F
100
AcDbLine
 10
-0.5
 20
0.5
 30
0.0
 11
0.5
 21
0.5
 31
0.0
  0
LINE
  5
6A
330
68
100
AcDbEntity
  8
0
  6
Continuous
 62
     0
370
    -2
390
5F
100
AcDbLine
 10
0.5
 20
0.5
 30
0.0
 11
0.5
 21
-0.5
 31
0.0
  0
LINE
  5
6B
330
68
100
AcDbEntity
  8
0
  6
Continuous
 62
     0
370
    -2
390
5F
100
AcDbLine
 10
0.5
 20
-0.5
 30
0.0
 11
-0.5
 21
-0.5
 31
0.0
  0
LINE
  5
6C
330
68
100
AcDbEntity
  8
0
  6
Continuous
 62
     0
370
    -2
390
5F
100
AcDbLine
 10
-0.5
 20
-0.5
 30
0.0
 11
-0.5
 21
0.5
 31
0.0
  0
ENDBLK
  5
6E
330
68
100
AcDbEntity
  8
0
100
AcDbBlockEnd
  0
BLOCK
  5
72
330
6F
100
AcDbEntity
  8
0
100
AcDbBlockBegin
  2
CDWK_PTTYP2
 70
     0
 10
0.0
 20
0.0
 30
0.0
  3
CDWK_PTTYP2
  1

  0
LINE
  5
70
330
6F
100
AcDbEntity
  8
0
  6
Continuous
 62
     0
370
    -2
390
5F
100
AcDbLine
 10
0.0
 20
0.5
 30
0.0
 11
0.0
 21
-0.5
 31
0.0
  0
LINE
  5
71
330
6F
100
AcDbEntity
  8
0
  6
Continuous
 62
     0
370
    -2
390
5F
100
AcDbLine
 10
0.5
 20
0.0
 30
0.0
 11
-0.5
 21
0.0
 31
0.0
  0
ENDBLK
  5
73
330
6F
100
AcDbEntity
  8
0
100
AcDbBlockEnd
  0
BLOCK
  5
76
330
74
100
AcDbEntity
  8
0
100
AcDbBlockBegin
  2
CDWK_PTTYP4
 70
     0
 10
0.0
 20
0.0
 30
0.0
  3
CDWK_PTTYP4
  1

  0
HATCH
  5
75
330
74
100
AcDbEntity
  8
0
  6
Continuous
 62
     0
370
    -2
390
5F
100
AcDbHatch
 10
0.0
 20
0.0
 30
0.0
210
0.0
220
0.0
230
1.0
  2
SOLID
 70
     1
 71
     0
 91
        1
 92
        1
 93
        1
 72
     2
 10
0.0
 20
0.0
 40
0.5
 50
0.0
 51
360.0
 73
     1
 97
        0
 75
     0
 76
     1
 98
        0
  0
ENDBLK
  5
77
330
74
100
AcDbEntity
  8
0
100
AcDbBlockEnd
  0
BLOCK
  5
7F
330
78
100
AcDbEntity
  8
0
100
AcDbBlockBegin
  2
CDWK_PTTYP5
 70
     0
 10
0.0
 20
0.0
 30
0.0
  3
CDWK_PTTYP5
  1

  0
LINE
  5
79
330
78
100
AcDbEntity
  8
0
  6
Continuous
 62
     0
370
    -2
390
5F
100
AcDbLine
 10
-0.5
 20
0.5
 30
0.0
 11
0.5
 21
0.5
 31
0.0
  0
LINE
  5
7A
330
78
100
AcDbEntity
  8
0
  6
Continuous
 62
     0
370
    -2
390
5F
100
AcDbLine
 10
0.5
 20
0.5
 30
0.0
 11
0.5
 21
-0.5
 31
0.0
  0
LINE
  5
7B
330
78
100
AcDbEntity
  8
0
  6
Continuous
 62
     0
370
    -2
390
5F
100
AcDbLine
 10
0.5
 20
-0.5
 30
0.0
 11
-0.5
 21
-0.5
 31
0.0
  0
LINE
  5
7C
330
78
100
AcDbEntity
  8
0
  6
Continuous
 62
     0
370
    -2
390
5F
100
AcDbLine
 10
-0.5
 20
-0.5
 30
0.0
 11
-0.5
 21
0.5
 31
0.0
  0
HATCH
  5
7D
330
78
100
AcDbEntity
  8
0
  6
Continuous
 62
     0
370
    -2
390
5F
100
AcDbHatch
 10
0.0
 20
0.0
 30
0.0
210
0.0
220
0.0
230
1.0
  2
SOLID
 70
     1
 71
     0
 91
        1
 92
        3
 72
     0
 73
     1
 93
        4
 10
-0.5
 20
0.0
 10
0.0
 20
0.0
 10
0.0
 20
-0.5
 10
-0.5
 20
-0.5
 97
        0
 75
     0
 76
     1
 98
        0
  0
HATCH
  5
7E
330
78
100
AcDbEntity
  8
0
  6
Continuous
 62
     0
370
    -2
390
5F
100
AcDbHatch
 10
0.0
 20
0.0
 30
0.0
210
0.0
220
0.0
230
1.0
  2
SOLID
 70
     1
 71
     0
 91
        1
 92
        3
 72
     0
 73
     1
 93
        4
 10
0.0
 20
0.0
 10
0.5
 20
0.0
 10
0.5
 20
0.5
 10
0.0
 20
0.5
 97
        0
 75
     0
 76
     1
 98
        0
  0
ENDBLK
  5
80
330
78
100
AcDbEntity
  8
0
100
AcDbBlockEnd
  0
BLOCK
  5
87
330
81
100
AcDbEntity
  8
0
100
AcDbBlockBegin
  2
CDWK_PTTYP6
 70
     0
 10
0.0
 20
0.0
 30
0.0
  3
CDWK_PTTYP6
  1

  0
LINE
  5
82
330
81
100
AcDbEntity
  8
0
  6
Continuous
 62
     0
370
    -2
390
5F
100
AcDbLine
 10
-0.5
 20
0.5
 30
0.0
 11
0.5
 21
0.5
 31
0.0
  0
LINE
  5
83
330
81
100
AcDbEntity
  8
0
  6
Continuous
 62
     0
370
    -2
390
5F
100
AcDbLine
 10
0.5
 20
0.5
 30
0.0
 11
0.5
 21
-0.5
 31
0.0
  0
LINE
  5
84
330
81
100
AcDbEntity
  8
0
  6
Continuous
 62
     0
370
    -2
390
5F
100
AcDbLine
 10
0.5
 20
-0.5
 30
0.0
 11
-0.5
 21
-0.5
 31
0.0
  0
LINE
  5
85
330
81
100
AcDbEntity
  8
0
  6
Continuous
 62
     0
370
    -2
390
5F
100
AcDbLine
 10
-0.5
 20
-0.5
 30
0.0
 11
-0.5
 21
0.5
 31
0.0
  0
HATCH
  5
86
330
81
100
AcDbEntity
  8
0
  6
Continuous
 62
     0
370
    -2
390
5F
100
AcDbHatch
 10
0.0
 20
0.0
 30
0.0
210
0.0
220
0.0
230
1.0
  2
SOLID
 70
     1
 71
     0
 91
        1
 92
        3
 72
     0
 73
     1
 93
        3
 10
-0.5
 20
-0.5
 10
-0.5
 20
0.5
 10
0.5
 20
0.5
 97
        0
 75
     0
 76
     1
 98
        0
  0
ENDBLK
  5
88
330
81
100
AcDbEntity
  8
0
100
AcDbBlockEnd
  0
BLOCK
  5
90
330
89
100
AcDbEntity
  8
0
100
AcDbBlockBegin
  2
CDWK_PTTYP7
 70
     0
 10
0.0
 20
0.0
 30
0.0
  3
CDWK_PTTYP7
  1

  0
LINE
  5
8A
330
89
100
AcDbEntity
  8
0
  6
Continuous
 62
     0
370
    -2
390
5F
100
AcDbLine
 10
-0.5
 20
0.5
 30
0.0
 11
0.5
 21
0.5
 31
0.0
  0
LINE
  5
8B
330
89
100
AcDbEntity
  8
0
  6
Continuous
 62
     0
370
    -2
390
5F
100
AcDbLine
 10
0.5
 20
0.5
 30
0.0
 11
0.5
 21
-0.5
 31
0.0
  0
LINE
  5
8C
330
89
100
AcDbEntity
  8
0
  6
Continuous
 62
     0
370
    -2
390
5F
100
AcDbLine
 10
0.5
 20
-0.5
 30
0.0
 11
-0.5
 21
-0.5
 31
0.0
  0
LINE
  5
8D
330
89
100
AcDbEntity
  8
0
  6
Continuous
 62
     0
370
    -2
390
5F
100
AcDbLine
 10
-0.5
 20
-0.5
 30
0.0
 11
-0.5
 21
0.5
 31
0.0
  0
LINE
  5
8E
330
89
100
AcDbEntity
  8
0
  6
Continuous
 62
     0
370
    -2
390
5F
100
AcDbLine
 10
0.0
 20
0.5
 30
0.0
 11
0.0
 21
-0.5
 31
0.0
  0
LINE
  5
8F
330
89
100
AcDbEntity
  8
0
  6
Continuous
 62
     0
370
    -2
390
5F
100
AcDbLine
 10
0.5
 20
0.0
 30
0.0
 11
-0.5
 21
0.0
 31
0.0
  0
ENDBLK
  5
91
330
89
100
AcDbEntity
  8
0
100
AcDbBlockEnd
  0
BLOCK
  5
94
330
92
100
AcDbEntity
  8
0
100
AcDbBlockBegin
  2
CDWK_PTTYP8
 70
     0
 10
0.0
 20
0.0
 30
0.0
  3
CDWK_PTTYP8
  1

  0
HATCH
  5
93
330
92
100
AcDbEntity
  8
0
  6
Continuous
 62
     0
370
    -2
390
5F
100
AcDbHatch
 10
0.0
 20
0.0
 30
0.0
210
0.0
220
0.0
230
1.0
  2
SOLID
 70
     1
 71
     0
 91
        1
 92
        3
 72
     0
 73
     1
 93
        4
 10
0.5
 20
0.5
 10
0.5
 20
-0.5
 10
-0.5
 20
-0.5
 10
-0.5
 20
0.5
 97
        0
 75
     0
 76
     1
 98
        0
  0
ENDBLK
  5
95
330
92
100
AcDbEntity
  8
0
100
AcDbBlockEnd
  0
BLOCK
  5
99
330
96
100
AcDbEntity
  8
0
100
AcDbBlockBegin
  2
CDWK_PTTYP9
 70
     0
 10
0.0
 20
0.0
 30
0.0
  3
CDWK_PTTYP9
  1

  0
CIRCLE
  5
97
330
96
100
AcDbEntity
  8
0
  6
Continuous
 62
     0
370
    -2
390
5F
100
AcDbCircle
 10
0.0
 20
0.0
 30
0.0
 40
0.1666666666666667
  0
CIRCLE
  5
98
330
96
100
AcDbEntity
  8
0
  6
Continuous
 62
     0
370
    -2
390
5F
100
AcDbCircle
 10
0.0
 20
0.0
 30
0.0
 40
0.5
  0
ENDBLK
  5
9A
330
96
100
AcDbEntity
  8
0
100
AcDbBlockEnd
  0
BLOCK
  5
9D
330
9B
100
AcDbEntity
  8
0
100
AcDbBlockBegin
  2
CDWK_PTTYP10
 70
     0
 10
0.0
 20
0.0
 30
0.0
  3
CDWK_PTTYP10
  1

  0
CIRCLE
  5
9C
330
9B
100
AcDbEntity
  8
0
  6
Continuous
 62
     0
370
    -2
390
5F
100
AcDbCircle
 10
0.0
 20
0.0
 30
0.0
 40
0.5
  0
ENDBLK
  5
9E
330
9B
100
AcDbEntity
  8
0
100
AcDbBlockEnd
  0
BLOCK
  5
A2
330
9F
100
AcDbEntity
  8
0
100
AcDbBlockBegin
  2
CDWK_PTTYP11
 70
     0
 10
0.0
 20
0.0
 30
0.0
  3
CDWK_PTTYP11
  1

  0
CIRCLE
  5
A0
330
9F
100
AcDbEntity
  8
0
  6
Continuous
 62
     0
370
    -2
390
5F
100
AcDbCircle
 10
0.0
 20
0.0
 30
0.0
 40
0.25
  0
CIRCLE
  5
A1
330
9F
100
AcDbEntity
  8
0
  6
Continuous
 62
     0
370
    -2
390
5F
100
AcDbCircle
 10
0.0
 20
0.0
 30
0.0
 40
0.5
  0
ENDBLK
  5
A3
330
9F
100
AcDbEntity
  8
0
100
AcDbBlockEnd
  0
BLOCK
  5
A7
330
A4
100
AcDbEntity
  8
0
100
AcDbBlockBegin
  2
CDWK_PTTYP12
 70
     0
 10
0.0
 20
0.0
 30
0.0
  3
CDWK_PTTYP12
  1

  0
CIRCLE
  5
A5
330
A4
100
AcDbEntity
  8
0
  6
Continuous
 62
     0
370
    -2
390
5F
100
AcDbCircle
 10
0.25
 20
0.0
 30
0.0
 40
0.25
  0
CIRCLE
  5
A6
330
A4
100
AcDbEntity
  8
0
  6
Continuous
 62
     0
370
    -2
390
5F
100
AcDbCircle
 10
0.0
 20
0.0
 30
0.0
 40
0.5
  0
ENDBLK
  5
A8
330
A4
100
AcDbEntity
  8
0
100
AcDbBlockEnd
  0
BLOCK
  5
AD
330
A9
100
AcDbEntity
  8
0
100
AcDbBlockBegin
  2
CDWK_PTTYP13
 70
     0
 10
0.0
 20
0.0
 30
0.0
  3
CDWK_PTTYP13
  1

  0
CIRCLE
  5
AA
330
A9
100
AcDbEntity
  8
0
  6
Continuous
 62
     0
370
    -2
390
5F
100
AcDbCircle
 10
-0.25
 20
0.0
 30
0.0
 40
0.25
  0
CIRCLE
  5
AB
330
A9
100
AcDbEntity
  8
0
  6
Continuous
 62
     0
370
    -2
390
5F
100
AcDbCircle
 10
0.25
 20
0.0
 30
0.0
 40
0.25
  0
CIRCLE
  5
AC
330
A9
100
AcDbEntity
  8
0
  6
Continuous
 62
     0
370
    -2
390
5F
100
AcDbCircle
 10
0.0
 20
0.0
 30
0.0
 40
0.5
  0
ENDBLK
  5
AE
330
A9
100
AcDbEntity
  8
0
100
AcDbBlockEnd
  0
BLOCK
  5
B4
330
AF
100
AcDbEntity
  8
0
100
AcDbBlockBegin
  2
CDWK_PTTYP16
 70
     0
 10
0.0
 20
0.0
 30
0.0
  3
CDWK_PTTYP16
  1

  0
LINE
  5
B0
330
AF
100
AcDbEntity
  8
0
  6
Continuous
 62
     0
370
    -2
390
5F
100
AcDbLine
 10
-0.5
 20
-0.289
 30
0.0
 11
0.5
 21
-0.289
 31
0.0
  0
LINE
  5
B1
330
AF
100
AcDbEntity
  8
0
  6
Continuous
 62
     0
370
    -2
390
5F
100
AcDbLine
 10
0.5
 20
-0.289
 30
0.0
 11
0.0
 21
0.577
 31
0.0
  0
LINE
  5
B2
330
AF
100
AcDbEntity
  8
0
  6
Continuous
 62
     0
370
    -2
390
5F
100
AcDbLine
 10
0.0
 20
0.577
 30
0.0
 11
-0.5
 21
-0.289
 31
0.0
  0
CIRCLE
  5
B3
330
AF
100
AcDbEntity
  8
0
  6
Continuous
 62
     0
370
    -2
390
5F
100
AcDbCircle
 10
0.0
 20
0.0
 30
0.0
 40
0.289
  0
ENDBLK
  5
B5
330
AF
100
AcDbEntity
  8
0
100
AcDbBlockEnd
  0
BLOCK
  5
B9
330
B6
100
AcDbEntity
  8
0
100
AcDbBlockBegin
  2
CDWK_PTTYP17
 70
     0
 10
0.0
 20
0.0
 30
0.0
  3
CDWK_PTTYP17
  1

  0
CIRCLE
  5
B7
330
B6
100
AcDbEntity
  8
0
  6
Continuous
 62
     0
370
    -2
390
5F
100
AcDbCircle
 10
0.0
 20
0.0
 30
0.0
 40
0.5
  0
HATCH
  5
B8
330
B6
100
AcDbEntity
  8
0
  6
Continuous
 62
     0
370
    -2
390
5F
100
AcDbHatch
 10
0.0
 20
0.0
 30
0.0
210
0.0
220
0.0
230
1.0
  2
SOLID
 70
     1
 71
     0
 91
        1
 92
        1
 93
        1
 72
     2
 10
0.0
 20
0.0
 40
0.25
 50
0.0
 51
360.0
 73
     1
 97
        0
 75
     0
 76
     1
 98
        0
  0
ENDBLK
  5
BA
330
B6
100
AcDbEntity
  8
0
100
AcDbBlockEnd
  0
BLOCK
  5
BE
330
BB
100
AcDbEntity
  8
0
100
AcDbBlockBegin
  2
CDWK_PTTYP18
 70
     0
 10
0.0
 20
0.0
 30
0.0
  3
CDWK_PTTYP18
  1

  0
CIRCLE
  5
BC
330
BB
100
AcDbEntity
  8
0
  6
Continuous
 62
     0
370
    -2
390
5F
100
AcDbCircle
 10
0.0
 20
0.0
 30
0.0
 40
0.5
  0
CIRCLE
  5
BD
330
BB
100
AcDbEntity
  8
0
  6
Continuous
 62
     0
370
    -2
390
5F
100
AcDbCircle
 10
0.0
 20
0.0
 30
0.0
 40
0.208
  0
ENDBLK
  5
BF
330
BB
100
AcDbEntity
  8
0
100
AcDbBlockEnd
  0
BLOCK
  5
C4
330
C0
100
AcDbEntity
  8
0
100
AcDbBlockBegin
  2
CDWK_PTTYP19
 70
     0
 10
0.0
 20
0.0
 30
0.0
  3
CDWK_PTTYP19
  1

  0
CIRCLE
  5
C1
330
C0
100
AcDbEntity
  8
0
  6
Continuous
 62
     0
370
    -2
390
5F
100
AcDbCircle
 10
0.0
 20
0.0
 30
0.0
 40
0.25
  0
CIRCLE
  5
C2
330
C0
100
AcDbEntity
  8
0
  6
Continuous
 62
     0
370
    -2
390
5F
100
AcDbCircle
 10
0.0
 20
0.0
 30
0.0
 40
0.35
  0
LINE
  5
C3
330
C0
100
AcDbEntity
  8
0
  6
Continuous
 62
     0
370
    -2
390
5F
100
AcDbLine
 10
-0.25
 20
0.0
 30
0.0
 11
0.25
 21
0.0
 31
0.0
  0
ENDBLK
  5
C5
330
C0
100
AcDbEntity
  8
0
100
AcDbBlockEnd
  0
BLOCK
  5
C9
330
C6
100
AcDbEntity
  8
0
100
AcDbBlockBegin
  2
CDWK_PTTYP20
 70
     0
 10
0.0
 20
0.0
 30
0.0
  3
CDWK_PTTYP20
  1

  0
CIRCLE
  5
C7
330
C6
100
AcDbEntity
  8
0
  6
Continuous
 62
     0
370
    -2
390
5F
100
AcDbCircle
 10
0.0
 20
0.0
 30
0.0
 40
0.3333333333333333
  0
CIRCLE
  5
C8
330
C6
100
AcDbEntity
  8
0
  6
Continuous
 62
     0
370
    -2
390
5F
100
AcDbCircle
 10
0.0
 20
0.0
 30
0.0
 40
0.5
  0
ENDBLK
  5
CA
330
C6
100
AcDbEntity
  8
0
100
AcDbBlockEnd
  0
BLOCK
  5
CE
330
CB
100
AcDbEntity
  8
0
100
AcDbBlockBegin
  2
CDWK_PTTYP21
 70
     0
 10
0.0
 20
0.0
 30
0.0
  3
CDWK_PTTYP21
  1

  0
CIRCLE
  5
CC
330
CB
100
AcDbEntity
  8
0
  6
Continuous
 62
     0
370
    -2
390
5F
100
AcDbCircle
 10
0.0
 20
0.0
 30
0.0
 40
0.5
  0
LINE
  5
CD
330
CB
100
AcDbEntity
  8
0
  6
Continuous
 62
     0
370
    -2
390
5F
100
AcDbLine
 10
-0.5
 20
0.0
 30
0.0
 11
0.5
 21
0.0
 31
0.0
  0
ENDBLK
  5
CF
330
CB
100
AcDbEntity
  8
0
100
AcDbBlockEnd
  0
BLOCK
  5
D5
330
D0
100
AcDbEntity
  8
0
100
AcDbBlockBegin
  2
CDWK_PTTYP25
 70
     0
 10
0.0
 20
0.0
 30
0.0
  3
CDWK_PTTYP25
  1

  0
LINE
  5
D1
330
D0
100
AcDbEntity
  8
0
  6
Continuous
 62
     0
370
    -2
390
5F
100
AcDbLine
 10
0.0
 20
0.5
 30
0.0
 11
-0.4330127018922193
 21
-0.25
 31
0.0
  0
LINE
  5
D2
330
D0
100
AcDbEntity
  8
0
  6
Continuous
 62
     0
370
    -2
390
5F
100
AcDbLine
 10
-0.4330127018922193
 20
-0.25
 30
0.0
 11
0.4330127018922193
 21
-0.25
 31
0.0
  0
LINE
  5
D3
330
D0
100
AcDbEntity
  8
0
  6
Continuous
 62
     0
370
    -2
390
5F
100
AcDbLine
 10
0.4330127018922193
 20
-0.25
 30
0.0
 11
0.0
 21
0.5
 31
0.0
  0
CIRCLE
  5
D4
330
D0
100
AcDbEntity
  8
0
  6
Continuous
 62
     0
370
    -2
390
5F
100
AcDbCircle
 10
0.0
 20
0.0
 30
0.0
 40
0.5
  0
ENDBLK
  5
D6
330
D0
100
AcDbEntity
  8
0
100
AcDbBlockEnd
  0
BLOCK
  5
DC
330
D7
100
AcDbEntity
  8
0
100
AcDbBlockBegin
  2
CDWK_PTTYP26
 70
     0
 10
0.0
 20
0.0
 30
0.0
  3
CDWK_PTTYP26
  1

  0
LINE
  5
D8
330
D7
100
AcDbEntity
  8
0
  6
Continuous
 62
     0
370
    -2
390
5F
100
AcDbLine
 10
-0.5
 20
-0.289
 30
0.0
 11
0.5
 21
-0.289
 31
0.0
  0
LINE
  5
D9
330
D7
100
AcDbEntity
  8
0
  6
Continuous
 62
     0
370
    -2
390
5F
100
AcDbLine
 10
0.5
 20
-0.289
 30
0.0
 11
0.0
 21
0.577
 31
0.0
  0
LINE
  5
DA
330
D7
100
AcDbEntity
  8
0
  6
Continuous
 62
     0
370
    -2
390
5F
100
AcDbLine
 10
0.0
 20
0.577
 30
0.0
 11
-0.5
 21
-0.289
 31
0.0
  0
CIRCLE
  5
DB
330
D7
100
AcDbEntity
  8
0
  6
Continuous
 62
     0
370
    -2
390
5F
100
AcDbCircle
 10
0.0
 20
0.0
 30
0.0
 40
0.125
  0
ENDBLK
  5
DD
330
D7
100
AcDbEntity
  8
0
100
AcDbBlockEnd
  0
BLOCK
  5
E4
330
DE
100
AcDbEntity
  8
0
100
AcDbBlockBegin
  2
CDWK_PTTYP27
 70
     0
 10
0.0
 20
0.0
 30
0.0
  3
CDWK_PTTYP27
  1

  0
LINE
  5
DF
330
DE
100
AcDbEntity
  8
0
  6
Continuous
 62
     0
370
    -2
390
5F
100
AcDbLine
 10
0.0
 20
0.5
 30
0.0
 11
-0.4330127018922193
 21
-0.25
 31
0.0
  0
LINE
  5
E0
330
DE
100
AcDbEntity
  8
0
  6
Continuous
 62
     0
370
    -2
390
5F
100
AcDbLine
 10
-0.4330127018922193
 20
-0.25
 30
0.0
 11
0.4330127018922193
 21
-0.25
 31
0.0
  0
LINE
  5
E1
330
DE
100
AcDbEntity
  8
0
  6
Continuous
 62
     0
370
    -2
390
5F
100
AcDbLine
 10
0.4330127018922193
 20
-0.25
 30
0.0
 11
0.0
 21
0.5
 31
0.0
  0
CIRCLE
  5
E2
330
DE
100
AcDbEntity
  8
0
  6
Continuous
 62
     0
370
    -2
390
5F
100
AcDbCircle
 10
0.0
 20
0.0
 30
0.0
 40
0.125
  0
CIRCLE
  5
E3
330
DE
100
AcDbEntity
  8
0
  6
Continuous
 62
     0
370
    -2
390
5F
100
AcDbCircle
 10
0.0
 20
0.0
 30
0.0
 40
0.5
  0
ENDBLK
  5
E5
330
DE
100
AcDbEntity
  8
0
100
AcDbBlockEnd
  0
BLOCK
  5
EB
330
E6
100
AcDbEntity
  8
0
100
AcDbBlockBegin
  2
CDWK_PTTYP28
 70
     0
 10
0.0
 20
0.0
 30
0.0
  3
CDWK_PTTYP28
  1

  0
LINE
  5
E7
330
E6
100
AcDbEntity
  8
0
  6
Continuous
 62
     0
370
    -2
390
5F
100
AcDbLine
 10
-0.5
 20
0.5
 30
0.0
 11
0.5
 21
0.5
 31
0.0
  0
LINE
  5
E8
330
E6
100
AcDbEntity
  8
0
  6
Continuous
 62
     0
370
    -2
390
5F
100
AcDbLine
 10
0.5
 20
0.5
 30
0.0
 11
-0.5
 21
-0.5
 31
0.0
  0
LINE
  5
E9
330
E6
100
AcDbEntity
  8
0
  6
Continuous
 62
     0
370
    -2
390
5F
100
AcDbLine
 10
0.5
 20
-0.5
 30
0.0
 11
-0.5
 21
-0.5
 31
0.0
  0
LINE
  5
EA
330
E6
100
AcDbEntity
  8
0
  6
Continuous
 62
     0
370
    -2
390
5F
100
AcDbLine
 10
-0.5
 20
0.5
 30
0.0
 11
0.5
 21
-0.5
 31
0.0
  0
ENDBLK
  5
EC
330
E6
100
AcDbEntity
  8
0
100
AcDbBlockEnd
  0
BLOCK
  5
F1
330
ED
100
AcDbEntity
  8
0
100
AcDbBlockBegin
  2
CDWK_PTTYP29
 70
     0
 10
0.0
 20
0.0
 30
0.0
  3
CDWK_PTTYP29
  1

  0
CIRCLE
  5
EE
330
ED
100
AcDbEntity
  8
0
  6
Continuous
 62
     0
370
    -2
390
5F
100
AcDbCircle
 10
0.0
 20
0.0
 30
0.0
 40
0.2
  0
CIRCLE
  5
EF
330
ED
100
AcDbEntity
  8
0
  6
Continuous
 62
     0
370
    -2
390
5F
100
AcDbCircle
 10
0.0
 20
0.0
 30
0.0
 40
0.35
  0
CIRCLE
  5
F0
330
ED
100
AcDbEntity
  8
0
  6
Continuous
 62
     0
370
    -2
390
5F
100
AcDbCircle
 10
0.0
 20
0.0
 30
0.0
 40
0.5
  0
ENDBLK
  5
F2
330
ED
100
AcDbEntity
  8
0
100
AcDbBlockEnd
  0
BLOCK
  5
F8
330
F3
100
AcDbEntity
  8
0
100
AcDbBlockBegin
  2
CDWK_PTTYP30
 70
     0
 10
0.0
 20
0.0
 30
0.0
  3
CDWK_PTTYP30
  1

  0
LINE
  5
F4
330
F3
100
AcDbEntity
  8
0
  6
Continuous
 62
     0
370
    -2
390
5F
100
AcDbLine
 10
-0.5
 20
0.5
 30
0.0
 11
-0.1
 21
0.1
 31
0.0
  0
LINE
  5
F5
330
F3
100
AcDbEntity
  8
0
  6
Continuous
 62
     0
370
    -2
390
5F
100
AcDbLine
 10
0.5
 20
0.5
 30
0.0
 11
0.1
 21
0.1
 31
0.0
  0
LINE
  5
F6
330
F3
100
AcDbEntity
  8
0
  6
Continuous
 62
     0
370
    -2
390
5F
100
AcDbLine
 10
0.5
 20
-0.5
 30
0.0
 11
0.1
 21
-0.1
 31
0.0
  0
LINE
  5
F7
330
F3
100
AcDbEntity
  8
0
  6
Continuous
 62
     0
370
    -2
390
5F
100
AcDbLine
 10
-0.5
 20
-0.5
 30
0.0
 11
-0.1
 21
-0.1
 31
0.0
  0
ENDBLK
  5
F9
330
F3
100
AcDbEntity
  8
0
100
AcDbBlockEnd
  0
BLOCK
  5
100
330
FA
100
AcDbEntity
  8
0
100
AcDbBlockBegin
  2
CDWK_PTTYP31
 70
     0
 10
0.0
 20
0.0
 30
0.0
  3
CDWK_PTTYP31
  1

  0
LINE
  5
FB
330
FA
100
AcDbEntity
  8
0
  6
Continuous
 62
     0
370
    -2
390
5F
100
AcDbLine
 10
-0.5
 20
0.0
 30
0.0
 11
-0.1
 21
0.0
 31
0.0
  0
LINE
  5
FC
330
FA
100
AcDbEntity
  8
0
  6
Continuous
 62
     0
370
    -2
390
5F
100
AcDbLine
 10
0.1
 20
0.0
 30
0.0
 11
0.5
 21
0.0
 31
0.0
  0
LINE
  5
FD
330
FA
100
AcDbEntity
  8
0
  6
Continuous
 62
     0
370
    -2
390
5F
100
AcDbLine
 10
0.0
 20
0.5
 30
0.0
 11
0.0
 21
0.1
 31
0.0
  0
LINE
  5
FE
330
FA
100
AcDbEntity
  8
0
  6
Continuous
 62
     0
370
    -2
390
5F
100
AcDbLine
 10
0.0
 20
-0.1
 30
0.0
 11
0.0
 21
-0.5
 31
0.0
  0
CIRCLE
  5
FF
330
FA
100
AcDbEntity
  8
0
  6
Continuous
 62
     0
370
    -2
390
5F
100
AcDbCircle
 10
0.0
 20
0.0
 30
0.0
 40
0.1
  0
ENDBLK
  5
101
330
FA
100
AcDbEntity
  8
0
100
AcDbBlockEnd
  0
BLOCK
  5
109
330
102
100
AcDbEntity
  8
0
100
AcDbBlockBegin
  2
CDWK_PTTYP32
 70
     0
 10
0.0
 20
0.0
 30
0.0
  3
CDWK_PTTYP32
  1

  0
CIRCLE
  5
103
330
102
100
AcDbEntity
  8
0
  6
Continuous
 62
     0
370
    -2
390
5F
100
AcDbCircle
 10
0.0
 20
0.0
 30
0.0
 40
0.2
  0
CIRCLE
  5
104
330
102
100
AcDbEntity
  8
0
  6
Continuous
 62
     0
370
    -2
390
5F
100
AcDbCircle
 10
0.0
 20
0.0
 30
0.0
 40
0.5
  0
LINE
  5
105
330
102
100
AcDbEntity
  8
0
  6
Continuous
 62
     0
370
    -2
390
5F
100
AcDbLine
 10
0.1414213562373095
 20
0.1414213562373095
 30
0.0
 11
0.3535533905932738
 21
0.3535533905932738
 31
0.0
  0
LINE
  5
106
330
102
100
AcDbEntity
  8
0
  6
Continuous
 62
     0
370
    -2
390
5F
100
AcDbLine
 10
-0.1414213562373095
 20
0.1414213562373095
 30
0.0
 11
-0.3535533905932738
 21
0.3535533905932738
 31
0.0
  0
LINE
  5
107
330
102
100
AcDbEntity
  8
0
  6
Continuous
 62
     0
370
    -2
390
5F
100
AcDbLine
 10
0.1414213562373095
 20
-0.1414213562373095
 30
0.0
 11
0.3535533905932738
 21
-0.3535533905932738
 31
0.0
  0
LINE
  5
108
330
102
100
AcDbEntity
  8
0
  6
Continuous
 62
     0
370
    -2
390
5F
100
AcDbLine
 10
-0.1414213562373095
 20
-0.1414213562373095
 30
0.0
 11
-0.3535533905932738
 21
-0.3535533905932738
 31
0.0
  0
ENDBLK
  5
10A
330
102
100
AcDbEntity
  8
0
100
AcDbBlockEnd
  0
BLOCK
  5
10F
330
10B
100
AcDbEntity
  8
0
100
AcDbBlockBegin
  2
CDWK_PTTYP33
 70
     0
 10
0.0
 20
0.0
 30
0.0
  3
CDWK_PTTYP33
  1

  0
LINE
  5
10C
330
10B
100
AcDbEntity
  8
0
  6
Continuous
 62
     0
370
    -2
390
5F
100
AcDbLine
 10
0.0
 20
-0.5
 30
0.0
 11
0.0
 21
0.5
 31
0.0
  0
LINE
  5
10D
330
10B
100
AcDbEntity
  8
0
  6
Continuous
 62
     0
370
    -2
390
5F
100
AcDbLine
 10
0.5
 20
0.0
 30
0.0
 11
-0.5
 21
0.0
 31
0.0
  0
CIRCLE
  5
10E
330
10B
100
AcDbEntity
  8
0
  6
Continuous
 62
     0
370
    -2
390
5F
100
AcDbCircle
 10
0.0
 20
0.0
 30
0.0
 40
0.5
  0
ENDBLK
  5
110
330
10B
100
AcDbEntity
  8
0
100
AcDbBlockEnd
  0
BLOCK
  5
115
330
111
100
AcDbEntity
  8
0
100
AcDbBlockBegin
  2
CDWK_PTTYP34
 70
     0
 10
0.0
 20
0.0
 30
0.0
  3
CDWK_PTTYP34
  1

  0
CIRCLE
  5
112
330
111
100
AcDbEntity
  8
0
  6
Continuous
 62
     0
370
    -2
390
5F
100
AcDbCircle
 10
0.0
 20
0.0
 30
0.0
 40
0.5
  0
LINE
  5
113
330
111
100
AcDbEntity
  8
0
  6
Continuous
 62
     0
370
    -2
390
5F
100
AcDbLine
 10
-0.4
 20
-0.3
 30
0.0
 11
0.3
 21
0.4
 31
0.0
  0
LINE
  5
114
330
111
100
AcDbEntity
  8
0
  6
Continuous
 62
     0
370
    -2
390
5F
100
AcDbLine
 10
-0.3
 20
-0.4
 30
0.0
 11
0.4
 21
0.3
 31
0.0
  0
ENDBLK
  5
116
330
111
100
AcDbEntity
  8
0
100
AcDbBlockEnd
  0
BLOCK
  5
11B
330
117
100
AcDbEntity
  8
0
100
AcDbBlockBegin
  2
CDWK_PTTYP35
 70
     0
 10
0.0
 20
0.0
 30
0.0
  3
CDWK_PTTYP35
  1

  0
LINE
  5
118
330
117
100
AcDbEntity
  8
0
  6
Continuous
 62
     0
370
    -2
390
5F
100
AcDbLine
 10
0.0
 20
0.2
 30
0.0
 11
0.0
 21
0.5
 31
0.0
  0
LINE
  5
119
330
117
100
AcDbEntity
  8
0
  6
Continuous
 62
     0
370
    -2
390
5F
100
AcDbLine
 10
0.0
 20
-0.2
 30
0.0
 11
0.0
 21
-0.5
 31
0.0
  0
CIRCLE
  5
11A
330
117
100
AcDbEntity
  8
0
  6
Continuous
 62
     0
370
    -2
390
5F
100
AcDbCircle
 10
0.0
 20
0.0
 30
0.0
 40
0.2
  0
ENDBLK
  5
11C
330
117
100
AcDbEntity
  8
0
100
AcDbBlockEnd
  0
BLOCK
  5
123
330
11D
100
AcDbEntity
  8
0
100
AcDbBlockBegin
  2
CDWK_PTTYP36
 70
     0
 10
0.0
 20
0.0
 30
0.0
  3
CDWK_PTTYP36
  1

  0
LINE
  5
11E
330
11D
100
AcDbEntity
  8
0
  6
Continuous
 62
     0
370
    -2
390
5F
100
AcDbLine
 10
-0.5
 20
0.2
 30
0.0
 11
0.5
 21
0.2
 31
0.0
  0
LINE
  5
11F
330
11D
100
AcDbEntity
  8
0
  6
Continuous
 62
     0
370
    -2
390
5F
100
AcDbLine
 10
0.5
 20
0.2
 30
0.0
 11
0.5
 21
-0.2
 31
0.0
  0
LINE
  5
120
330
11D
100
AcDbEntity
  8
0
  6
Continuous
 62
     0
370
    -2
390
5F
100
AcDbLine
 10
0.5
 20
-0.2
 30
0.0
 11
-0.5
 21
-0.2
 31
0.0
  0
LINE
  5
121
330
11D
100
AcDbEntity
  8
0
  6
Continuous
 62
     0
370
    -2
390
5F
100
AcDbLine
 10
-0.5
 20
-0.2
 30
0.0
 11
-0.5
 21
0.2
 31
0.0
  0
HATCH
  5
122
330
11D
100
AcDbEntity
  8
0
  6
Continuous
 62
     0
370
    -2
390
5F
100
AcDbHatch
 10
0.0
 20
0.0
 30
0.0
210
0.0
220
0.0
230
1.0
  2
SOLID
 70
     1
 71
     0
 91
        1
 92
        3
 72
     0
 73
     1
 93
        3
 10
-0.5
 20
-0.2
 10
0.5
 20
-0.2
 10
0.5
 20
0.2
 97
        0
 75
     0
 76
     1
 98
        0
  0
ENDBLK
  5
124
330
11D
100
AcDbEntity
  8
0
100
AcDbBlockEnd
  0
BLOCK
  5
128
330
125
100
AcDbEntity
  8
0
100
AcDbBlockBegin
  2
CDWK_PTTYP37
 70
     0
 10
0.0
 20
0.0
 30
0.0
  3
CDWK_PTTYP37
  1

  0
HATCH
  5
126
330
125
100
AcDbEntity
  8
0
  6
Continuous
 62
     0
370
    -2
390
5F
100
AcDbHatch
 10
0.0
 20
0.0
 30
0.0
210
0.0
220
0.0
230
1.0
  2
SOLID
 70
     1
 71
     0
 91
        1
 92
        3
 72
     0
 73
     1
 93
      202
 10
-0.3535533905932738
 20
-0.3535533905932738
 10
-0.3485533905932738
 20
-0.3535533905932737
 10
-0.3435533905932738
 20
-0.3584836591895546
 10
-0.3385533905932738
 20
-0.3632782236961988
 10
-0.3335533905932738
 20
-0.367942389128785
 10
-0.3285533905932738
 20
-0.372481054046687
 10
-0.3235533905932738
 20
-0.3768987523588579
 10
-0.3185533905932738
 20
-0.3811996897107819
 10
-0.3135533905932738
 20
-0.3853877752881235
 10
-0.3085533905932737
 20
-0.3894666497242888
 10
-0.3035533905932737
 20
-0.3934397096803965
 10
-0.2985533905932737
 20
-0.3973101295704999
 10
-0.2935533905932737
 20
-0.4010808808273714
 10
-0.2885533905932737
 20
-0.4047547490409382
 10
-0.2835533905932737
 20
-0.4083343492496384
 10
-0.2785533905932737
 20
-0.4118221396222626
 10
-0.2735533905932737
 20
-0.4152204337324827
 10
-0.2685533905932737
 20
-0.4185314115988474
 10
-0.2635533905932737
 20
-0.4217571296384408
 10
-0.2585533905932737
 20
-0.4248995296617653
 10
-0.2535533905932737
 20
-0.4279604470190231
 10
-0.2485533905932737
 20
-0.4309416179932669
 10
-0.2435533905932737
 20
-0.4338446865234004
 10
-0.2385533905932737
 20
-0.4366712103293738
 10
-0.2335533905932737
 20
-0.439422666502825
 10
-0.2285533905932737
 20
-0.4421004566186126
 10
-0.2235533905932737
 20
-0.4447059114159811
 10
-0.2185533905932737
 20
-0.4472402950923041
 10
-0.2135533905932737
 20
-0.4497048092473372
 10
-0.2085533905932737
 20
-0.4521005965115692
 10
-0.2035533905932737
 20
-0.4544287438884664
 10
-0.1985533905932736
 20
-0.456690285837111
 10
-0.1935533905932736
 20
-0.45888620711884
 10
-0.1885533905932736
 20
-0.4610174454289638
 10
-0.1835533905932736
 20
-0.4630848938324164
 10
-0.1785533905932736
 20
-0.4650894030202291
 10
-0.1735533905932736
 20
-0.4670317834019928
 10
-0.1685533905932736
 20
-0.46891280704794
 10
-0.1635533905932736
 20
-0.4707332094929264
 10
-0.1585533905932736
 20
-0.4724936914133818
 10
-0.1535533905932736
 20
-0.4741949201872336
 10
-0.1485533905932736
 20
-0.4758375313458466
 10
-0.1435533905932736
 20
-0.4774221299261716
 10
-0.1385533905932736
 20
-0.4789492917305286
 10
-0.1335533905932736
 20
-0.4804195645007682
 10
-0.1285533905932736
 20
-0.4818334690129366
 10
-0.1235533905932736
 20
-0.4831915000980183
 10
-0.1185533905932736
 20
-0.4844941275938295
 10
-0.1135533905932736
 20
-0.4857417972326848
 10
-0.1085533905932736
 20
-0.4869349314690531
 10
-0.1035533905932736
 20
-0.4880739302510473
 10
-0.0985533905932736
 20
-0.489159171739258
 10
-0.0935533905932736
 20
-0.4901910129761353
 10
-0.0885533905932736
 20
-0.4911697905088447
 10
-0.0835533905932735
 20
-0.4920958209682695
 10
-0.0785533905932735
 20
-0.4929694016065986
 10
-0.0735533905932735
 20
-0.4937908107957261
 10
-0.0685533905932735
 20
-0.494560308488493
 10
-0.0635533905932735
 20
-0.4952781366446192
 10
-0.0585533905932735
 20
-0.4959445196230107
 10
-0.0535533905932735
 20
-0.4965596645419678
 10
-0.0485533905932735
 20
-0.4971237616086806
 10
-0.0435533905932735
 20
-0.4976369844192622
 10
-0.0385533905932735
 20
-0.4980994902304456
 10
-0.0335533905932735
 20
-0.4985114202039533
 10
-0.0285533905932735
 20
-0.4988728996244386
 10
-0.0235533905932735
 20
-0.4991840380917923
 10
-0.0185533905932735
 20
-0.49944492968851
 10
-0.0135533905932735
 20
-0.4996556531227215
 10
-0.0085533905932735
 20
-0.4998162718473921
 10
-0.0035533905932735
 20
-0.4999268341561182
 10
0.0014466094067265
 20
-0.499987373255857
 10
0.0064466094067265
 20
-0.4999979073168451
 10
0.0114466094067265
 20
-0.4999584394998819
 10
0.0164466094067265
 20
-0.4998689579610739
 10
0.0214466094067265
 20
-0.4997294358340547
 10
0.0264466094067265
 20
-0.4995398311896213
 10
0.0314466094067265
 20
-0.4993000869726422
 10
0.0364466094067265
 20
-0.4990101309160174
 10
0.0414466094067265
 20
-0.4986698754313855
 10
0.0464466094067265
 20
-0.498279217476192
 10
0.0514466094067265
 20
-0.4978380383966446
 10
0.0564466094067265
 20
-0.497346203745994
 10
0.0614466094067265
 20
-0.4968035630774849
 10
0.0664466094067264
 20
-0.4962099497112257
 10
0.0714466094067265
 20
-0.4955651804741228
 10
0.0764466094067265
 20
-0.4948690554119167
 10
0.0814466094067265
 20
-0.4941213574722463
 10
0.0864466094067265
 20
-0.4933218521575424
 10
0.0914466094067265
 20
-0.4924702871464235
 10
0.0964466094067265
 20
-0.4915663918821278
 10
0.1014466094067265
 20
-0.4906098771263643
 10
0.1064466094067265
 20
-0.4896004344768079
 10
0.1114466094067265
 20
-0.4885377358462822
 10
0.1164466094067265
 20
-0.4874214329014929
 10
0.1214466094067265
 20
-0.4862511564589613
 10
0.1264466094067265
 20
-0.4850265158355881
 10
0.1314466094067265
 20
-0.4837470981510305
 10
0.1364466094067265
 20
-0.482412467578809
 10
0.1414466094067265
 20
-0.4810221645427664
 10
0.1464466094067265
 20
-0.4795757048551781
 10
0.1514466094067265
 20
-0.4780725787924608
 10
0.1564466094067265
 20
-0.4765122501040308
 10
0.1614466094067265
 20
-0.4748941549494363
 10
0.1664466094067265
 20
-0.4732177007584056
 10
0.1714466094067265
 20
-0.4714822650079264
 10
0.1764466094067265
 20
-0.4696871939098801
 10
0.1814466094067266
 20
-0.4678318010021017
 10
0.1864466094067266
 20
-0.4659153656350076
 10
0.1914466094067266
 20
-0.4639371313451162
 10
0.1964466094067266
 20
-0.4618963041058764
 10
0.2014466094067266
 20
-0.4597920504451997
 10
0.2064466094067266
 20
-0.4576234954179405
 10
0.2114466094067266
 20
-0.4553897204202862
 10
0.2164466094067266
 20
-0.4530897608315588
 10
0.2214466094067266
 20
-0.45072260346729
 10
0.2264466094067266
 20
-0.4482871838255748
 10
0.2314466094067266
 20
-0.4457823831065977
 10
0.2364466094067266
 20
-0.4432070249828292
 10
0.2414466094067266
 20
-0.4405598720946596
 10
0.2464466094067266
 20
-0.4378396222431172
 10
0.2514466094067266
 20
-0.4350449042477435
 10
0.2564466094067266
 20
-0.4321742734336012
 10
0.2614466094067266
 20
-0.4292262067066663
 10
0.2664466094067266
 20
-0.4261990971714118
 10
0.2714466094067266
 20
-0.4230912482380831
 10
0.2764466094067266
 20
-0.4199008671598476
 10
0.2814466094067266
 20
-0.4166260579314797
 10
0.2864466094067266
 20
-0.4132648134712868
 10
0.2914466094067266
 20
-0.4098150069963156
 10
0.2964466094067266
 20
-0.4062743824871597
 10
0.3014466094067266
 20
-0.4026405441224911
 10
0.3064466094067266
 20
-0.3989109445442534
 10
0.3114466094067266
 20
-0.3950828717916294
 10
0.3164466094067266
 20
-0.391153434714632
 10
0.3214466094067266
 20
-0.3871195466454601
 10
0.3264466094067267
 20
-0.3829779070663467
 10
0.3314466094067267
 20
-0.3787249809648844
 10
0.3364466094067267
 20
-0.3743569755097196
 10
0.3414466094067267
 20
-0.3698698136084067
 10
0.3464466094067267
 20
-0.3652591038217257
 10
0.3514466094067267
 20
-0.3605201060004601
 10
0.3564466094067267
 20
-0.3556476918757041
 10
0.3614466094067267
 20
-0.3506362996645505
 10
0.3664466094067267
 20
-0.34547988153926
 10
0.3714466094067267
 20
-0.3401718425359658
 10
0.3764466094067267
 20
-0.334704969129899
 10
0.3814466094067267
 20
-0.3290713452523318
 10
0.3864466094067267
 20
-0.3232622529342269
 10
0.3914466094067267
 20
-0.3172680539828188
 10
0.3964466094067267
 20
-0.3110780480586465
 10
0.4014466094067267
 20
-0.304680301118911
 10
0.4064466094067267
 20
-0.2980614362775617
 10
0.4114466094067267
 20
-0.291206376478565
 10
0.4164466094067267
 20
-0.2840980246459106
 10
0.4214466094067267
 20
-0.276716861635935
 10
0.4264466094067267
 20
-0.2690404345439063
 10
0.4314466094067267
 20
-0.2610426963649944
 10
0.4364466094067267
 20
-0.2526931404518915
 10
0.4414466094067268
 20
-0.2439556458403291
 10
0.4464466094067268
 20
-0.2347869056044327
 10
0.4514466094067268
 20
-0.2251342376211081
 10
0.4564466094067268
 20
-0.2149324518428296
 10
0.4614466094067268
 20
-0.2040992228331676
 10
0.4664466094067268
 20
-0.1925279893081412
 10
0.4714466094067268
 20
-0.1800765408735088
 10
0.4764466094067268
 20
-0.1665475742210051
 10
0.4814466094067268
 20
-0.1516529867323223
 10
0.4864466094067268
 20
-0.1349413290684758
 10
0.4914466094067268
 20
-0.1156274024472547
 10
0.4964466094067268
 20
-0.0920881648347501
 10
0.5
 20
0.0
 10
0.495
 20
0.0
 10
0.49
 20
0.0705336798983295
 10
0.485
 20
0.0994987437106621
 10
0.48
 20
0.1215524578114322
 10
0.475
 20
0.14
 10
0.47
 20
0.15612494995996
 10
0.465
 20
0.1705872210923199
 10
0.46
 20
0.1837797594948911
 10
0.455
 20
0.1959591794226544
 10
0.45
 20
0.2073041244162789
 10
0.445
 20
0.2179449471770338
 10
0.4399999999999999
 20
0.2279802623035601
 10
0.4349999999999999
 20
0.2374868417407584
 10
0.4299999999999999
 20
0.2465258607124211
 10
0.4249999999999999
 20
0.2551470164434615
 10
0.4199999999999999
 20
0.2633913438213186
 10
0.4149999999999999
 20
0.2712931993250108
 10
0.4099999999999999
 20
0.2788816953476869
 10
0.4049999999999999
 20
0.2861817604250838
 10
0.3999999999999999
 20
0.2932149382279151
 10
0.3949999999999999
 20
0.3000000000000002
 10
0.3899999999999999
 20
0.3065534211193868
 10
0.3849999999999999
 20
0.3128897569432404
 10
0.3799999999999999
 20
0.3190219428189855
 10
0.3749999999999999
 20
0.3249615361854385
 10
0.3699999999999999
 20
0.330718913883074
 10
0.3649999999999999
 20
0.3363034344160049
 10
0.3599999999999999
 20
0.3417235724968357
 10
0.3549999999999999
 20
0.3469870314579496
 10
0.3535533905932738
 20
0.3535533905932738
 97
        0
 75
     0
 76
     1
 98
        0
  0
CIRCLE
  5
127
330
125
100
AcDbEntity
  8
0
  6
Continuous
 62
     0
370
    -2
390
5F
100
AcDbCircle
 10
0.0
 20
0.0
 30
0.0
 40
0.5
  0
ENDBLK
  5
129
330
125
100
AcDbEntity
  8
0
100
AcDbBlockEnd
  0
BLOCK
  5
12E
330
12A
100
AcDbEntity
  8
0
100
AcDbBlockBegin
  2
CDWK_PTTYP38
 70
     0
 10
0.0
 20
0.0
 30
0.0
  3
CDWK_PTTYP38
  1

  0
HATCH
  5
12B
330
12A
100
AcDbEntity
  8
0
  6
Continuous
 62
     0
370
    -2
390
5F
100
AcDbHatch
 10
0.0
 20
0.0
 30
0.0
210
0.0
220
0.0
230
1.0
  2
SOLID
 70
     1
 71
     0
 91
        1
 92
        3
 72
     0
 73
     1
 93
      102
 10
0.0
 20
0.0
 10
0.0
 20
0.5
 10
0.005
 20
0.5
 10
0.01
 20
0.4999749993749688
 10
0.015
 20
0.4998999899979995
 10
0.02
 20
0.4997749493522059
 10
0.025
 20
0.4995998398718718
 10
0.03
 20
0.4993746088859545
 10
0.035
 20
0.4990991885387112
 10
0.04
 20
0.4987734956871706
 10
0.045
 20
0.4983974317750845
 10
0.05
 20
0.4979708826829135
 10
0.055
 20
0.49749371855331
 10
0.06
 20
0.4969657935914704
 10
0.065
 20
0.4963869458396343
 10
0.07
 20
0.4957569969249047
 10
0.075
 20
0.4950757517794626
 10
0.08
 20
0.4943429983321297
 10
0.085
 20
0.4935585071701227
 10
0.09
 20
0.4927220311697053
 10
0.095
 20
0.4918333050943175
 10
0.1
 20
0.4908920451586071
 10
0.105
 20
0.4898979485566356
 10
0.11
 20
0.4888506929523574
 10
0.115
 20
0.4877499359302879
 10
0.12
 20
0.4865953144040744
 10
0.125
 20
0.4853864439804639
 10
0.13
 20
0.4841229182759271
 10
0.135
 20
0.4828043081829325
 10
0.14
 20
0.4814301610825811
 10
0.145
 20
0.48
 10
0.15
 20
0.478513322698543
 10
0.1550000000000001
 20
0.4769696007084728
 10
0.1600000000000001
 20
0.4753682782853731
 10
0.1650000000000001
 20
0.4737087712930804
 10
0.1700000000000001
 20
0.4719904660054056
 10
0.1750000000000001
 20
0.4702127178203498
 10
0.1800000000000001
 20
0.4683748498798799
 10
0.1850000000000001
 20
0.466476151587624
 10
0.1900000000000001
 20
0.4645158770160606
 10
0.1950000000000001
 20
0.4624932431938871
 10
0.2000000000000001
 20
0.460407428263272
 10
0.2050000000000001
 20
0.4582575694955839
 10
0.2100000000000001
 20
0.4560427611529427
 10
0.2150000000000001
 20
0.4537620521815371
 10
0.2200000000000001
 20
0.4514144437210665
 10
0.2250000000000001
 20
0.4489988864128729
 10
0.2300000000000001
 20
0.4465142774872937
 10
0.2350000000000001
 20
0.4439594576084622
 10
0.2400000000000001
 20
0.4413332074521472
 10
0.2450000000000001
 20
0.4386342439892261
 10
0.2500000000000001
 20
0.4358612164439502
 10
0.2550000000000001
 20
0.4330127018922192
 10
0.2600000000000001
 20
0.4300872004605577
 10
0.2650000000000001
 20
0.4270831300812524
 10
0.2700000000000001
 20
0.423998820753077
 10
0.2750000000000001
 20
0.4208325082500162
 10
0.2800000000000001
 20
0.4175823272122516
 10
0.2850000000000001
 20
0.4142463035441595
 10
0.2900000000000001
 20
0.4108223460329293
 10
0.2950000000000002
 20
0.4073082370883259
 10
0.3000000000000002
 20
0.403701622488689
 10
0.3050000000000002
 20
0.3999999999999999
 10
0.3100000000000002
 20
0.3962007067131506
 10
0.3150000000000002
 20
0.3923009049186605
 10
0.3200000000000002
 20
0.3882975663070783
 10
0.3250000000000002
 20
0.3841874542459708
 10
0.3300000000000002
 20
0.3799671038392664
 10
0.3350000000000002
 20
0.3756327994198588
 10
0.3400000000000002
 20
0.3711805490593491
 10
0.3450000000000002
 20
0.366606055596467
 10
0.3500000000000002
 20
0.3619046835839512
 10
0.3550000000000002
 20
0.3570714214271423
 10
0.3600000000000002
 20
0.3521008378291649
 10
0.3650000000000002
 20
0.3469870314579492
 10
0.3700000000000002
 20
0.3417235724968353
 10
0.3750000000000002
 20
0.3363034344160045
 10
0.3800000000000002
 20
0.3307189138830736
 10
0.3850000000000002
 20
0.3249615361854382
 10
0.3900000000000002
 20
0.3190219428189851
 10
0.3950000000000002
 20
0.31288975694324
 10
0.4000000000000002
 20
0.3065534211193863
 10
0.4050000000000002
 20
0.2999999999999997
 10
0.4100000000000003
 20
0.2932149382279147
 10
0.4150000000000003
 20
0.2861817604250834
 10
0.4200000000000003
 20
0.2788816953476864
 10
0.4250000000000003
 20
0.2712931993250103
 10
0.4300000000000003
 20
0.263391343821318
 10
0.4350000000000003
 20
0.255147016443461
 10
0.4400000000000003
 20
0.2465258607124206
 10
0.4450000000000003
 20
0.2374868417407578
 10
0.4500000000000003
 20
0.2279802623035594
 10
0.4550000000000003
 20
0.2179449471770331
 10
0.4600000000000003
 20
0.2073041244162782
 10
0.4650000000000003
 20
0.1959591794226536
 10
0.4700000000000003
 20
0.1837797594948903
 10
0.4750000000000003
 20
0.170587221092319
 10
0.4800000000000003
 20
0.156124949959959
 10
0.4850000000000003
 20
0.1399999999999989
 10
0.4900000000000003
 20
0.1215524578114309
 10
0.4950000000000003
 20
0.0994987437106604
 10
0.5
 20
0.0
 97
        0
 75
     0
 76
     1
 98
        0
  0
HATCH
  5
12C
330
12A
100
AcDbEntity
  8
0
  6
Continuous
 62
     0
370
    -2
390
5F
100
AcDbHatch
 10
0.0
 20
0.0
 30
0.0
210
0.0
220
0.0
230
1.0
  2
SOLID
 70
     1
 71
     0
 91
        1
 92
        3
 72
     0
 73
     1
 93
      102
 10
0.0
 20
0.0
 10
-0.5
 20
0.0
 10
-0.495
 20
0.0
 10
-0.49
 20
-0.0705336798983295
 10
-0.485
 20
-0.0994987437106621
 10
-0.48
 20
-0.1215524578114322
 10
-0.475
 20
-0.14
 10
-0.47
 20
-0.15612494995996
 10
-0.465
 20
-0.1705872210923199
 10
-0.46
 20
-0.1837797594948911
 10
-0.455
 20
-0.1959591794226544
 10
-0.45
 20
-0.2073041244162789
 10
-0.445
 20
-0.2179449471770338
 10
-0.4399999999999999
 20
-0.2279802623035601
 10
-0.4349999999999999
 20
-0.2374868417407584
 10
-0.4299999999999999
 20
-0.2465258607124211
 10
-0.4249999999999999
 20
-0.2551470164434615
 10
-0.4199999999999999
 20
-0.2633913438213186
 10
-0.4149999999999999
 20
-0.2712931993250108
 10
-0.4099999999999999
 20
-0.2788816953476869
 10
-0.4049999999999999
 20
-0.2861817604250838
 10
-0.3999999999999999
 20
-0.2932149382279151
 10
-0.3949999999999999
 20
-0.3000000000000002
 10
-0.3899999999999999
 20
-0.3065534211193868
 10
-0.3849999999999999
 20
-0.3128897569432404
 10
-0.3799999999999999
 20
-0.3190219428189855
 10
-0.3749999999999999
 20
-0.3249615361854385
 10
-0.3699999999999999
 20
-0.330718913883074
 10
-0.3649999999999999
 20
-0.3363034344160049
 10
-0.3599999999999999
 20
-0.3417235724968357
 10
-0.3549999999999999
 20
-0.3469870314579496
 10
-0.3499999999999999
 20
-0.3521008378291652
 10
-0.3449999999999999
 20
-0.3570714214271427
 10
-0.3399999999999999
 20
-0.3619046835839516
 10
-0.3349999999999999
 20
-0.3666060555964674
 10
-0.3299999999999998
 20
-0.3711805490593494
 10
-0.3249999999999998
 20
-0.3756327994198591
 10
-0.3199999999999998
 20
-0.3799671038392667
 10
-0.3149999999999998
 20
-0.3841874542459711
 10
-0.3099999999999998
 20
-0.3882975663070786
 10
-0.3049999999999998
 20
-0.3923009049186608
 10
-0.2999999999999998
 20
-0.3962007067131507
 10
-0.2949999999999998
 20
-0.4000000000000001
 10
-0.2899999999999998
 20
-0.4037016224886891
 10
-0.2849999999999998
 20
-0.4073082370883261
 10
-0.2799999999999998
 20
-0.4108223460329296
 10
-0.2749999999999998
 20
-0.4142463035441597
 10
-0.2699999999999998
 20
-0.4175823272122518
 10
-0.2649999999999998
 20
-0.4208325082500164
 10
-0.2599999999999998
 20
-0.4239988207530773
 10
-0.2549999999999998
 20
-0.4270831300812526
 10
-0.2499999999999998
 20
-0.4300872004605579
 10
-0.2449999999999998
 20
-0.4330127018922195
 10
-0.2399999999999998
 20
-0.4358612164439503
 10
-0.2349999999999998
 20
-0.4386342439892263
 10
-0.2299999999999998
 20
-0.4413332074521473
 10
-0.2249999999999998
 20
-0.4439594576084624
 10
-0.2199999999999998
 20
-0.4465142774872939
 10
-0.2149999999999997
 20
-0.4489988864128731
 10
-0.2099999999999997
 20
-0.4514144437210667
 10
-0.2049999999999997
 20
-0.4537620521815372
 10
-0.1999999999999997
 20
-0.4560427611529429
 10
-0.1949999999999997
 20
-0.4582575694955841
 10
-0.1899999999999997
 20
-0.4604074282632722
 10
-0.1849999999999997
 20
-0.4624932431938872
 10
-0.1799999999999997
 20
-0.4645158770160608
 10
-0.1749999999999997
 20
-0.4664761515876241
 10
-0.1699999999999997
 20
-0.46837484987988
 10
-0.1649999999999997
 20
-0.47021271782035
 10
-0.1599999999999997
 20
-0.4719904660054058
 10
-0.1549999999999997
 20
-0.4737087712930805
 10
-0.1499999999999997
 20
-0.4753682782853733
 10
-0.1449999999999997
 20
-0.4769696007084729
 10
-0.1399999999999997
 20
-0.4785133226985431
 10
-0.1349999999999997
 20
-0.4800000000000001
 10
-0.1299999999999997
 20
-0.4814301610825812
 10
-0.1249999999999997
 20
-0.4828043081829325
 10
-0.1199999999999997
 20
-0.4841229182759272
 10
-0.1149999999999997
 20
-0.485386443980464
 10
-0.1099999999999997
 20
-0.4865953144040744
 10
-0.1049999999999996
 20
-0.487749935930288
 10
-0.0999999999999996
 20
-0.4888506929523574
 10
-0.0949999999999996
 20
-0.4898979485566357
 10
-0.0899999999999996
 20
-0.4908920451586072
 10
-0.0849999999999996
 20
-0.4918333050943176
 10
-0.0799999999999996
 20
-0.4927220311697053
 10
-0.0749999999999996
 20
-0.4935585071701227
 10
-0.0699999999999996
 20
-0.4943429983321298
 10
-0.0649999999999996
 20
-0.4950757517794626
 10
-0.0599999999999996
 20
-0.4957569969249048
 10
-0.0549999999999996
 20
-0.4963869458396343
 10
-0.0499999999999996
 20
-0.4969657935914705
 10
-0.0449999999999996
 20
-0.49749371855331
 10
-0.0399999999999996
 20
-0.4979708826829135
 10
-0.0349999999999996
 20
-0.4983974317750846
 10
-0.0299999999999996
 20
-0.4987734956871706
 10
-0.0249999999999996
 20
-0.4990991885387112
 10
-0.0199999999999996
 20
-0.4993746088859545
 10
-0.0149999999999996
 20
-0.4995998398718719
 10
-0.0099999999999996
 20
-0.499774949352206
 10
-0.0049999999999996
 20
-0.4998999899979995
 10
0.0
 20
-0.5
 97
        0
 75
     0
 76
     1
 98
        0
  0
CIRCLE
  5
12D
330
12A
100
AcDbEntity
  8
0
  6
Continuous
 62
     0
370
    -2
390
5F
100
AcDbCircle
 10
0.0
 20
0.0
 30
0.0
 40
0.5
  0
ENDBLK
  5
12F
330
12A
100
AcDbEntity
  8
0
100
AcDbBlockEnd
  0
BLOCK
  5
138
330
130
100
AcDbEntity
  8
0
100
AcDbBlockBegin
  2
CDWK_PTTYP41
 70
     0
 10
0.0
 20
0.0
 30
0.0
  3
CDWK_PTTYP41
  1

  0
LINE
  5
131
330
130
100
AcDbEntity
  8
0
  6
Continuous
 62
     0
370
    -2
390
5F
100
AcDbLine
 10
-0.5
 20
0.5
 30
0.0
 11
0.5
 21
0.5
 31
0.0
  0
LINE
  5
132
330
130
100
AcDbEntity
  8
0
  6
Continuous
 62
     0
370
    -2
390
5F
100
AcDbLine
 10
0.5
 20
0.5
 30
0.0
 11
0.5
 21
-0.5
 31
0.0
  0
LINE
  5
133
330
130
100
AcDbEntity
  8
0
  6
Continuous
 62
     0
370
    -2
390
5F
100
AcDbLine
 10
0.5
 20
-0.5
 30
0.0
 11
-0.5
 21
-0.5
 31
0.0
  0
LINE
  5
134
330
130
100
AcDbEntity
  8
0
  6
Continuous
 62
     0
370
    -2
390
5F
100
AcDbLine
 10
-0.5
 20
-0.5
 30
0.0
 11
-0.5
 21
0.5
 31
0.0
  0
LINE
  5
135
330
130
100
AcDbEntity
  8
0
  6
Continuous
 62
     0
370
    -2
390
5F
100
AcDbLine
 10
-0.375
 20
0.25
 30
0.0
 11
0.375
 21
0.25
 31
0.0
  0
LINE
  5
136
330
130
100
AcDbEntity
  8
0
  6
Continuous
 62
     0
370
    -2
390
5F
100
AcDbLine
 10
-0.375
 20
0.0
 30
0.0
 11
0.375
 21
0.0
 31
0.0
  0
LINE
  5
137
330
130
100
AcDbEntity
  8
0
  6
Continuous
 62
     0
370
    -2
390
5F
100
AcDbLine
 10
-0.375
 20
-0.25
 30
0.0
 11
0.375
 21
-0.25
 31
0.0
  0
ENDBLK
  5
139
330
130
100
AcDbEntity
  8
0
100
AcDbBlockEnd
  0
BLOCK
  5
141
330
13A
100
AcDbEntity
  8
0
100
AcDbBlockBegin
  2
CDWK_PTTYP42
 70
     0
 10
0.0
 20
0.0
 30
0.0
  3
CDWK_PTTYP42
  1

  0
LINE
  5
13B
330
13A
100
AcDbEntity
  8
0
  6
Continuous
 62
     0
370
    -2
390
5F
100
AcDbLine
 10
-0.5
 20
0.5
 30
0.0
 11
0.5
 21
0.5
 31
0.0
  0
LINE
  5
13C
330
13A
100
AcDbEntity
  8
0
  6
Continuous
 62
     0
370
    -2
390
5F
100
AcDbLine
 10
0.5
 20
0.5
 30
0.0
 11
0.5
 21
-0.5
 31
0.0
  0
LINE
  5
13D
330
13A
100
AcDbEntity
  8
0
  6
Continuous
 62
     0
370
    -2
390
5F
100
AcDbLine
 10
0.5
 20
-0.5
 30
0.0
 11
-0.5
 21
-0.5
 31
0.0
  0
LINE
  5
13E
330
13A
100
AcDbEntity
  8
0
  6
Continuous
 62
     0
370
    -2
390
5F
100
AcDbLine
 10
-0.5
 20
-0.5
 30
0.0
 11
-0.5
 21
0.5
 31
0.0
  0
LINE
  5
13F
330
13A
100
AcDbEntity
  8
0
  6
Continuous
 62
     0
370
    -2
390
5F
100
AcDbLine
 10
-0.375
 20
0.125
 30
0.0
 11
0.375
 21
0.125
 31
0.0
  0
LINE
  5
140
330
13A
100
AcDbEntity
  8
0
  6
Continuous
 62
     0
370
    -2
390
5F
100
AcDbLine
 10
-0.375
 20
-0.125
 30
0.0
 11
0.375
 21
-0.125
 31
0.0
  0
ENDBLK
  5
142
330
13A
100
AcDbEntity
  8
0
100
AcDbBlockEnd
  0
BLOCK
  5
147
330
143
100
AcDbEntity
  8
0
100
AcDbBlockBegin
  2
CDWK_PTTYP43
 70
     0
 10
0.0
 20
0.0
 30
0.0
  3
CDWK_PTTYP43
  1

  0
CIRCLE
  5
144
330
143
100
AcDbEntity
  8
0
  6
Continuous
 62
     0
370
    -2
390
5F
100
AcDbCircle
 10
0.0
 20
0.0
 30
0.0
 40
0.5
  0
LINE
  5
145
330
143
100
AcDbEntity
  8
0
  6
Continuous
 62
     0
370
    -2
390
5F
100
AcDbLine
 10
-0.375
 20
0.166
 30
0.0
 11
0.375
 21
0.166
 31
0.0
  0
LINE
  5
146
330
143
100
AcDbEntity
  8
0
  6
Continuous
 62
     0
370
    -2
390
5F
100
AcDbLine
 10
-0.375
 20
-0.166
 30
0.0
 11
0.375
 21
-0.166
 31
0.0
  0
ENDBLK
  5
148
330
143
100
AcDbEntity
  8
0
100
AcDbBlockEnd
  0
BLOCK
  5
150
330
149
100
AcDbEntity
  8
0
100
AcDbBlockBegin
  2
CDWK_PTTYP44
 70
     0
 10
0.0
 20
0.0
 30
0.0
  3
CDWK_PTTYP44
  1

  0
CIRCLE
  5
14A
330
149
100
AcDbEntity
  8
0
  6
Continuous
 62
     0
370
    -2
390
5F
100
AcDbCircle
 10
0.0
 20
0.0
 30
0.0
 40
0.5
  0
LINE
  5
14B
330
149
100
AcDbEntity
  8
0
  6
Continuous
 62
     0
370
    -2
390
5F
100
AcDbLine
 10
-0.375
 20
0.333
 30
0.0
 11
0.375
 21
0.333
 31
0.0
  0
LINE
  5
14C
330
149
100
AcDbEntity
  8
0
  6
Continuous
 62
     0
370
    -2
390
5F
100
AcDbLine
 10
-0.375
 20
0.166
 30
0.0
 11
0.375
 21
0.166
 31
0.0
  0
LINE
  5
14D
330
149
100
AcDbEntity
  8
0
  6
Continuous
 62
     0
370
    -2
390
5F
100
AcDbLine
 10
-0.375
 20
0.0
 30
0.0
 11
0.375
 21
0.0
 31
0.0
  0
LINE
  5
14E
330
149
100
AcDbEntity
  8
0
  6
Continuous
 62
     0
370
    -2
390
5F
100
AcDbLine
 10
-0.375
 20
-0.166
 30
0.0
 11
0.375
 21
-0.166
 31
0.0
  0
LINE
  5
14F
330
149
100
AcDbEntity
  8
0
  6
Continuous
 62
     0
370
    -2
390
5F
100
AcDbLine
 10
-0.375
 20
-0.333
 30
0.0
 11
0.375
 21
-0.333
 31
0.0
  0
ENDBLK
  5
151
330
149
100
AcDbEntity
  8
0
100
AcDbBlockEnd
  0
BLOCK
  5
155
330
152
100
AcDbEntity
  8
0
100
AcDbBlockBegin
  2
CDWK_PTTYP45
 70
     0
 10
0.0
 20
0.0
 30
0.0
  3
CDWK_PTTYP45
  1

  0
ELLIPSE
  5
153
330
152
100
AcDbEntity
  8
0
  6
Continuous
 62
     0
370
    -2
390
5F
100
AcDbEllipse
 10
0.0
 20
0.0
 30
0.0
 11
0.5
 21
0.0
 31
0.0
210
0.0
220
0.0
230
1.0
 40
0.82
 41
0.0
 42
6.283185307179586
  0
CIRCLE
  5
154
330
152
100
AcDbEntity
  8
0
  6
Continuous
 62
     0
370
    -2
390
5F
100
AcDbCircle
 10
-0.235
 20
0.0
 30
0.0
 40
0.26
  0
ENDBLK
  5
156
330
152
100
AcDbEntity
  8
0
100
AcDbBlockEnd
  0
BLOCK
  5
15A
330
157
100
AcDbEntity
  8
0
100
AcDbBlockBegin
  2
CDWK_PTTYP46
 70
     0
 10
0.0
 20
0.0
 30
0.0
  3
CDWK_PTTYP46
  1

  0
ELLIPSE
  5
158
330
157
100
AcDbEntity
  8
0
  6
Continuous
 62
     0
370
    -2
390
5F
100
AcDbEllipse
 10
0.0
 20
0.0
 30
0.0
 11
0.5
 21
0.0
 31
0.0
210
0.0
220
0.0
230
1.0
 40
0.82
 41
0.0
 42
6.283185307179586
  0
CIRCLE
  5
159
330
157
100
AcDbEntity
  8
0
  6
Continuous
 62
     0
370
    -2
390
5F
100
AcDbCircle
 10
0.0
 20
0.15
 30
0.0
 40
0.26
  0
ENDBLK
  5
15B
330
157
100
AcDbEntity
  8
0
100
AcDbBlockEnd
  0
BLOCK
  5
162
330
15C
100
AcDbEntity
  8
0
100
AcDbBlockBegin
  2
CDWK_PTTYP47
 70
     0
 10
0.0
 20
0.0
 30
0.0
  3
CDWK_PTTYP47
  1

  0
LINE
  5
15D
330
15C
100
AcDbEntity
  8
0
  6
Continuous
 62
     0
370
    -2
390
5F
100
AcDbLine
 10
-0.5
 20
0.166
 30
0.0
 11
0.5
 21
0.166
 31
0.0
  0
LINE
  5
15E
330
15C
100
AcDbEntity
  8
0
  6
Continuous
 62
     0
370
    -2
390
5F
100
AcDbLine
 10
0.5
 20
0.166
 30
0.0
 11
0.5
 21
-0.166
 31
0.0
  0
LINE
  5
15F
330
15C
100
AcDbEntity
  8
0
  6
Continuous
 62
     0
370
    -2
390
5F
100
AcDbLine
 10
0.5
 20
-0.166
 30
0.0
 11
-0.5
 21
-0.166
 31
0.0
  0
LINE
  5
160
330
15C
100
AcDbEntity
  8
0
  6
Continuous
 62
     0
370
    -2
390
5F
100
AcDbLine
 10
-0.5
 20
-0.166
 30
0.0
 11
-0.5
 21
0.166
 31
0.0
  0
CIRCLE
  5
161
330
15C
100
AcDbEntity
  8
0
  6
Continuous
 62
     0
370
    -2
390
5F
100
AcDbCircle
 10
0.0
 20
-0.313
 30
0.0
 40
0.4
  0
ENDBLK
  5
163
330
15C
100
AcDbEntity
  8
0
100
AcDbBlockEnd
  0
BLOCK
  5
168
330
165
100
AcDbEntity
  8
0
100
AcDbBlockBegin
  2
CDWK_PTTYP48
 70
     0
 10
0.0
 20
0.0
 30
0.0
  3
CDWK_PTTYP48
  1

  0
CIRCLE
  5
166
330
165
100
AcDbEntity
  8
0
  6
CADWORK_3
 62
     0
 48
0.1
370
    -2
390
5F
100
AcDbCircle
 10
0.0
 20
0.0
 30
0.0
 40
0.5
  0
CIRCLE
  5
167
330
165
100
AcDbEntity
  8
0
  6
Continuous
 62
     0
370
    -2
390
5F
100
AcDbCircle
 10
0.0
 20
0.0
 30
0.0
 40
0.25
  0
ENDBLK
  5
169
330
165
100
AcDbEntity
  8
0
100
AcDbBlockEnd
  0
BLOCK
  5
16F
330
16A
100
AcDbEntity
  8
0
100
AcDbBlockBegin
  2
CDWK_PTTYP49
 70
     0
 10
0.0
 20
0.0
 30
0.0
  3
CDWK_PTTYP49
  1

  0
LINE
  5
16B
330
16A
100
AcDbEntity
  8
0
  6
Continuous
 62
     0
370
    -2
390
5F
100
AcDbLine
 10
-0.5
 20
0.166
 30
0.0
 11
0.5
 21
0.166
 31
0.0
  0
LINE
  5
16C
330
16A
100
AcDbEntity
  8
0
  6
Continuous
 62
     0
370
    -2
390
5F
100
AcDbLine
 10
0.5
 20
0.166
 30
0.0
 11
0.5
 21
-0.166
 31
0.0
  0
LINE
  5
16D
330
16A
100
AcDbEntity
  8
0
  6
Continuous
 62
     0
370
    -2
390
5F
100
AcDbLine
 10
0.5
 20
-0.166
 30
0.0
 11
-0.5
 21
-0.166
 31
0.0
  0
LINE
  5
16E
330
16A
100
AcDbEntity
  8
0
  6
Continuous
 62
     0
370
    -2
390
5F
100
AcDbLine
 10
-0.5
 20
-0.166
 30
0.0
 11
-0.5
 21
0.166
 31
0.0
  0
ENDBLK
  5
170
330
16A
100
AcDbEntity
  8
0
100
AcDbBlockEnd
  0
BLOCK
  5
179
330
171
100
AcDbEntity
  8
0
100
AcDbBlockBegin
  2
CDWK_PTTYP50
 70
     0
 10
0.0
 20
0.0
 30
0.0
  3
CDWK_PTTYP50
  1

  0
LINE
  5
172
330
171
100
AcDbEntity
  8
0
  6
Continuous
 62
     0
370
    -2
390
5F
100
AcDbLine
 10
-0.5
 20
0.166
 30
0.0
 11
0.5
 21
0.166
 31
0.0
  0
LINE
  5
173
330
171
100
AcDbEntity
  8
0
  6
Continuous
 62
     0
370
    -2
390
5F
100
AcDbLine
 10
0.5
 20
0.166
 30
0.0
 11
0.5
 21
-0.166
 31
0.0
  0
LINE
  5
174
330
171
100
AcDbEntity
  8
0
  6
Continuous
 62
     0
370
    -2
390
5F
100
AcDbLine
 10
0.5
 20
-0.166
 30
0.0
 11
-0.5
 21
-0.166
 31
0.0
  0
LINE
  5
175
330
171
100
AcDbEntity
  8
0
  6
Continuous
 62
     0
370
    -2
390
5F
100
AcDbLine
 10
-0.5
 20
-0.166
 30
0.0
 11
-0.5
 21
0.166
 31
0.0
  0
LINE
  5
176
330
171
100
AcDbEntity
  8
0
  6
Continuous
 62
     0
370
    -2
390
5F
100
AcDbLine
 10
-0.25
 20
-0.166
 30
0.0
 11
-0.25
 21
0.166
 31
0.0
  0
LINE
  5
177
330
171
100
AcDbEntity
  8
0
  6
Continuous
 62
     0
370
    -2
390
5F
100
AcDbLine
 10
0.0
 20
-0.166
 30
0.0
 11
0.0
 21
0.166
 31
0.0
  0
LINE
  5
178
330
171
100
AcDbEntity
  8
0
  6
Continuous
 62
     0
370
    -2
390
5F
100
AcDbLine
 10
0.25
 20
-0.166
 30
0.0
 11
0.25
 21
0.166
 31
0.0
  0
ENDBLK
  5
17A
330
171
100
AcDbEntity
  8
0
100
AcDbBlockEnd
  0
BLOCK
  5
17E
330
17B
100
AcDbEntity
  8
0
100
AcDbBlockBegin
  2
CDWK_PTTYP51
 70
     0
 10
0.0
 20
0.0
 30
0.0
  3
CDWK_PTTYP51
  1

  0
SPLINE
  5
17C
330
17B
100
AcDbEntity
  8
0
  6
Continuous
 62
     0
370
    -2
390
5F
100
AcDbSpline
210
0.0
220
0.0
230
1.0
 70
  1064
 71
     3
 72
    12
 73
     8
 74
     6
 42
0.0000000001
 43
0.0000000001
 44
0.0000000001
 40
0.0
 40
0.0
 40
0.0
 40
0.0
 40
0.1690118339052032
 40
0.5175774661755118
 40
0.8011704844252565
 40
0.9154070810132151
 40
0.975822310881188
 40
0.975822310881188
 40
0.975822310881188
 40
0.975822310881188
 10
-0.5
 20
-0.077
 30
0.0
 10
-0.443824324006723
 20
-0.0900581618560981
 30
0.0
 10
-0.2717933876546281
 20
-0.1300471387828842
 30
0.0
 10
-0.0276699186086479
 20
-0.0006977790990417
 30
0.0
 10
0.2303349729129116
 20
0.0817803270207037
 30
0.0
 10
0.3686157174766292
 20
0.0066250198607167
 30
0.0
 10
0.4216533294581816
 20
-0.0168719667726145
 30
0.0
 10
0.44
 20
-0.025
 30
0.0
 11
-0.5
 21
-0.077
 31
0.0
 11
-0.333
 21
-0.103
 31
0.0
 11
0.0
 21
0.0
 31
0.0
 11
0.28
 21
0.045
 31
0.0
 11
0.385
 21
0.0
 31
0.0
 11
0.44
 21
-0.025
 31
0.0
  0
HATCH
  5
17D
330
17B
100
AcDbEntity
  8
0
  6
Continuous
 62
     0
370
    -2
390
5F
100
AcDbHatch
 10
0.0
 20
0.0
 30
0.0
210
0.0
220
0.0
230
1.0
  2
SOLID
 70
     1
 71
     0
 91
        1
 92
        3
 72
     0
 73
     1
 93
        3
 10
0.365
 20
-0.05
 10
0.5
 20
-0.042
 10
0.395
 20
0.045
 97
        0
 75
     0
 76
     1
 98
        0
  0
ENDBLK
  5
17F
330
17B
100
AcDbEntity
  8
0
100
AcDbBlockEnd
  0
BLOCK
  5
184
330
180
100
AcDbEntity
  8
0
100
AcDbBlockBegin
  2
CDWK_PTTYP52
 70
     0
 10
0.0
 20
0.0
 30
0.0
  3
CDWK_PTTYP52
  1

  0
LINE
  5
181
330
180
100
AcDbEntity
  8
0
  6
Continuous
 62
     0
370
    -2
390
5F
100
AcDbLine
 10
-0.5
 20
-0.289
 30
0.0
 11
0.5
 21
-0.289
 31
0.0
  0
LINE
  5
182
330
180
100
AcDbEntity
  8
0
  6
Continuous
 62
     0
370
    -2
390
5F
100
AcDbLine
 10
0.5
 20
-0.289
 30
0.0
 11
0.0
 21
0.577
 31
0.0
  0
LINE
  5
183
330
180
100
AcDbEntity
  8
0
  6
Continuous
 62
     0
370
    -2
390
5F
100
AcDbLine
 10
0.0
 20
0.577
 30
0.0
 11
-0.5
 21
-0.289
 31
0.0
  0
ENDBLK
  5
185
330
180
100
AcDbEntity
  8
0
100
AcDbBlockEnd
  0
BLOCK
  5
18B
330
186
100
AcDbEntity
  8
0
100
AcDbBlockBegin
  2
cw-dimension-symbol1
 70
     0
 10
0.0
 20
0.0
 30
0.0
  3
cw-dimension-symbol1
  1

  0
LINE
  5
187
330
186
100
AcDbEntity
  8
0
  6
Continuous
 62
     0
370
    -2
390
5F
100
AcDbLine
 10
0.0
 20
0.0
 30
0.0
 11
-1.0
 21
0.25
 31
0.0
  0
LINE
  5
188
330
186
100
AcDbEntity
  8
0
  6
Continuous
 62
     0
370
    -2
390
5F
100
AcDbLine
 10
0.0
 20
0.0
 30
0.0
 11
-1.0
 21
-0.25
 31
0.0
  0
LINE
  5
189
330
186
100
AcDbEntity
  8
0
  6
Continuous
 62
     0
370
    -2
390
5F
100
AcDbLine
 10
-1.0
 20
0.25
 30
0.0
 11
-1.0
 21
-0.25
 31
0.0
  0
LINE
  5
18A
330
186
100
AcDbEntity
  8
0
  6
Continuous
 62
     0
370
    -2
390
5F
100
AcDbLine
 10
0.0
 20
0.0
 30
0.0
 11
-1.0
 21
0.0
 31
0.0
  0
ENDBLK
  5
18C
330
186
100
AcDbEntity
  8
0
100
AcDbBlockEnd
  0
BLOCK
  5
190
330
18D
100
AcDbEntity
  8
0
100
AcDbBlockBegin
  2
cw-dimension-symbol2
 70
     0
 10
0.0
 20
0.0
 30
0.0
  3
cw-dimension-symbol2
  1

  0
LINE
  5
18E
330
18D
100
AcDbEntity
  8
0
  6
Continuous
 62
     0
370
    -2
390
5F
100
AcDbLine
 10
-1.0
 20
0.0
 30
0.0
 11
1.0
 21
0.0
 31
0.0
  0
LINE
  5
18F
330
18D
100
AcDbEntity
  8
0
  6
Continuous
 62
     0
370
    -2
390
5F
100
AcDbLine
 10
-0.5
 20
-0.5
 30
0.0
 11
0.5
 21
0.5
 31
0.0
  0
ENDBLK
  5
191
330
18D
100
AcDbEntity
  8
0
100
AcDbBlockEnd
  0
BLOCK
  5
195
330
192
100
AcDbEntity
  8
0
100
AcDbBlockBegin
  2
cw-dimension-symbol3
 70
     0
 10
0.0
 20
0.0
 30
0.0
  3
cw-dimension-symbol3
  1

  0
LINE
  5
193
330
192
100
AcDbEntity
  8
0
  6
Continuous
 62
     0
370
    -2
390
5F
100
AcDbLine
 10
-1.0
 20
0.0
 30
0.0
 11
1.0
 21
0.0
 31
0.0
  0
CIRCLE
  5
194
330
192
100
AcDbEntity
  8
0
  6
Continuous
 62
     0
370
    -2
390
5F
100
AcDbCircle
 10
0.0
 20
0.0
 30
0.0
 40
0.25
  0
ENDBLK
  5
196
330
192
100
AcDbEntity
  8
0
100
AcDbBlockEnd
  0
BLOCK
  5
19C
330
197
100
AcDbEntity
  8
0
100
AcDbBlockBegin
  2
cw-dimension-symbol5
 70
     0
 10
0.0
 20
0.0
 30
0.0
  3
cw-dimension-symbol5
  1

  0
HATCH
  5
198
330
197
100
AcDbEntity
  8
0
  6
Continuous
 62
     0
370
    -2
390
5F
100
AcDbHatch
 10
0.0
 20
0.0
 30
0.0
210
0.0
220
0.0
230
1.0
  2
SOLID
 70
     1
 71
     0
 91
        1
 92
        3
 72
     0
 73
     1
 93
        3
 10
0.0
 20
0.0
 10
-1.0
 20
0.25
 10
-1.0
 20
-0.25
 97
        0
 75
     0
 76
     1
 98
        0
  0
LINE
  5
199
330
197
100
AcDbEntity
  8
0
  6
Continuous
 62
     0
370
    -2
390
5F
100
AcDbLine
 10
0.0
 20
0.0
 30
0.0
 11
-1.0
 21
0.25
 31
0.0
  0
LINE
  5
19A
330
197
100
AcDbEntity
  8
0
  6
Continuous
 62
     0
370
    -2
390
5F
100
AcDbLine
 10
-1.0
 20
0.25
 30
0.0
 11
-1.0
 21
-0.25
 31
0.0
  0
LINE
  5
19B
330
197
100
AcDbEntity
  8
0
  6
Continuous
 62
     0
370
    -2
390
5F
100
AcDbLine
 10
-1.0
 20
-0.25
 30
0.0
 11
0.0
 21
0.0
 31
0.0
  0
ENDBLK
  5
19D
330
197
100
AcDbEntity
  8
0
100
AcDbBlockEnd
  0
BLOCK
  5
1A2
330
19E
100
AcDbEntity
  8
0
100
AcDbBlockBegin
  2
cw-dimension-symbol6
 70
     0
 10
0.0
 20
0.0
 30
0.0
  3
cw-dimension-symbol6
  1

  0
LINE
  5
19F
330
19E
100
AcDbEntity
  8
0
  6
Continuous
 62
     0
370
    -2
390
5F
100
AcDbLine
 10
0.0
 20
0.0
 30
0.0
 11
-1.0
 21
0.25
 31
0.0
  0
LINE
  5
1A0
330
19E
100
AcDbEntity
  8
0
  6
Continuous
 62
     0
370
    -2
390
5F
100
AcDbLine
 10
0.0
 20
0.0
 30
0.0
 11
-1.0
 21
-0.25
 31
0.0
  0
LINE
  5
1A1
330
19E
100
AcDbEntity
  8
0
  6
Continuous
 62
     0
370
    -2
390
5F
100
AcDbLine
 10
0.0
 20
0.0
 30
0.0
 11
-1.0
 21
0.0
 31
0.0
  0
ENDBLK
  5
1A3
330
19E
100
AcDbEntity
  8
0
100
AcDbBlockEnd
  0
BLOCK
  5
1A8
330
1A4
100
AcDbEntity
  8
0
100
AcDbBlockBegin
  2
cw-dimension-symbol11
 70
     0
 10
0.0
 20
0.0
 30
0.0
  3
cw-dimension-symbol11
  1

  0
LINE
  5
1A5
330
1A4
100
AcDbEntity
  8
0
  6
Continuous
 62
     0
370
    -2
390
5F
100
AcDbLine
 10
-1.0
 20
1.0
 30
0.0
 11
1.0
 21
1.0
 31
0.0
  0
LINE
  5
1A6
330
1A4
100
AcDbEntity
  8
0
  6
Continuous
 62
     0
370
    -2
390
5F
100
AcDbLine
 10
0.0
 20
0.0
 30
0.0
 11
-1.0
 21
1.0
 31
0.0
  0
LINE
  5
1A7
330
1A4
100
AcDbEntity
  8
0
  6
Continuous
 62
     0
370
    -2
390
5F
100
AcDbLine
 10
0.0
 20
0.0
 30
0.0
 11
1.0
 21
1.0
 31
0.0
  0
ENDBLK
  5
1A9
330
1A4
100
AcDbEntity
  8
0
100
AcDbBlockEnd
  0
BLOCK
  5
1AE
330
1AA
100
AcDbEntity
  8
0
100
AcDbBlockBegin
  2
cw-dimension-symbol13
 70
     0
 10
0.0
 20
0.0
 30
0.0
  3
cw-dimension-symbol13
  1

  0
LINE
  5
1AB
330
1AA
100
AcDbEntity
  8
0
  6
Continuous
 62
     0
370
    -2
390
5F
100
AcDbLine
 10
-1.0
 20
-1.0
 30
0.0
 11
1.0
 21
-1.0
 31
0.0
  0
LINE
  5
1AC
330
1AA
100
AcDbEntity
  8
0
  6
Continuous
 62
     0
370
    -2
390
5F
100
AcDbLine
 10
0.0
 20
0.0
 30
0.0
 11
-1.0
 21
-1.0
 31
0.0
  0
LINE
  5
1AD
330
1AA
100
AcDbEntity
  8
0
  6
Continuous
 62
     0
370
    -2
390
5F
100
AcDbLine
 10
0.0
 20
0.0
 30
0.0
 11
1.0
 21
-1.0
 31
0.0
  0
ENDBLK
  5
1AF
330
1AA
100
AcDbEntity
  8
0
100
AcDbBlockEnd
  0
BLOCK
  5
1B5
330
1B0
100
AcDbEntity
  8
0
100
AcDbBlockBegin
  2
cw-dimension-symbol15
 70
     0
 10
0.0
 20
0.0
 30
0.0
  3
cw-dimension-symbol15
  1

  0
HATCH
  5
1B1
330
1B0
100
AcDbEntity
  8
0
  6
Continuous
 62
     0
370
    -2
390
5F
100
AcDbHatch
 10
0.0
 20
0.0
 30
0.0
210
0.0
220
0.0
230
1.0
  2
SOLID
 70
     1
 71
     0
 91
        1
 92
        3
 72
     0
 73
     1
 93
        3
 10
0.0
 20
0.0
 10
-1.0
 20
1.0
 10
1.0
 20
1.0
 97
        0
 75
     0
 76
     1
 98
        0
  0
LINE
  5
1B2
330
1B0
100
AcDbEntity
  8
0
  6
Continuous
 62
     0
370
    -2
390
5F
100
AcDbLine
 10
0.0
 20
0.0
 30
0.0
 11
-1.0
 21
1.0
 31
0.0
  0
LINE
  5
1B3
330
1B0
100
AcDbEntity
  8
0
  6
Continuous
 62
     0
370
    -2
390
5F
100
AcDbLine
 10
-1.0
 20
1.0
 30
0.0
 11
1.0
 21
1.0
 31
0.0
  0
LINE
  5
1B4
330
1B0
100
AcDbEntity
  8
0
  6
Continuous
 62
     0
370
    -2
390
5F
100
AcDbLine
 10
1.0
 20
1.0
 30
0.0
 11
0.0
 21
0.0
 31
0.0
  0
ENDBLK
  5
1B6
330
1B0
100
AcDbEntity
  8
0
100
AcDbBlockEnd
  0
BLOCK
  5
1BC
330
1B7
100
AcDbEntity
  8
0
100
AcDbBlockBegin
  2
cw-dimension-symbol16
 70
     0
 10
0.0
 20
0.0
 30
0.0
  3
cw-dimension-symbol16
  1

  0
HATCH
  5
1B8
330
1B7
100
AcDbEntity
  8
0
  6
Continuous
 62
     0
370
    -2
390
5F
100
AcDbHatch
 10
0.0
 20
0.0
 30
0.0
210
0.0
220
0.0
230
1.0
  2
SOLID
 70
     1
 71
     0
 91
        1
 92
        3
 72
     0
 73
     1
 93
        3
 10
0.0
 20
0.0
 10
-1.0
 20
-1.0
 10
1.0
 20
-1.0
 97
        0
 75
     0
 76
     1
 98
        0
  0
LINE
  5
1B9
330
1B7
100
AcDbEntity
  8
0
  6
Continuous
 62
     0
370
    -2
390
5F
100
AcDbLine
 10
0.0
 20
0.0
 30
0.0
 11
-1.0
 21
-1.0
 31
0.0
  0
LINE
  5
1BA
330
1B7
100
AcDbEntity
  8
0
  6
Continuous
 62
     0
370
    -2
390
5F
100
AcDbLine
 10
-1.0
 20
-1.0
 30
0.0
 11
1.0
 21
-1.0
 31
0.0
  0
LINE
  5
1BB
330
1B7
100
AcDbEntity
  8
0
  6
Continuous
 62
     0
370
    -2
390
5F
100
AcDbLine
 10
1.0
 20
-1.0
 30
0.0
 11
0.0
 21
0.0
 31
0.0
  0
ENDBLK
  5
1BD
330
1B7
100
AcDbEntity
  8
0
100
AcDbBlockEnd
  0
BLOCK
  5
1C3
330
1BE
100
AcDbEntity
  8
0
100
AcDbBlockBegin
  2
cw-dimension-symbol17
 70
     0
 10
0.0
 20
0.0
 30
0.0
  3
cw-dimension-symbol17
  1

  0
LINE
  5
1BF
330
1BE
100
AcDbEntity
  8
0
  6
Continuous
 62
     0
370
    -2
390
5F
100
AcDbLine
 10
0.0
 20
0.0
 30
0.0
 11
1.0
 21
1.0
 31
0.0
  0
LINE
  5
1C0
330
1BE
100
AcDbEntity
  8
0
  6
Continuous
 62
     0
370
    -2
390
5F
100
AcDbLine
 10
1.0
 20
1.0
 30
0.0
 11
-1.0
 21
1.0
 31
0.0
  0
LINE
  5
1C1
330
1BE
100
AcDbEntity
  8
0
  6
Continuous
 62
     0
370
    -2
390
5F
100
AcDbLine
 10
-1.0
 20
1.0
 30
0.0
 11
0.0
 21
0.0
 31
0.0
  0
HATCH
  5
1C2
330
1BE
100
AcDbEntity
  8
0
  6
Continuous
 62
     0
370
    -2
390
5F
100
AcDbHatch
 10
0.0
 20
0.0
 30
0.0
210
0.0
220
0.0
230
1.0
  2
SOLID
 70
     1
 71
     0
 91
        1
 92
        3
 72
     0
 73
     1
 93
        3
 10
0.0
 20
0.0
 10
-1.0
 20
1.0
 10
0.0
 20
1.0
 97
        0
 75
     0
 76
     1
 98
        0
  0
ENDBLK
  5
1C4
330
1BE
100
AcDbEntity
  8
0
100
AcDbBlockEnd
  0
BLOCK
  5
1CA
330
1C5
100
AcDbEntity
  8
0
100
AcDbBlockBegin
  2
cw-dimension-symbol18
 70
     0
 10
0.0
 20
0.0
 30
0.0
  3
cw-dimension-symbol18
  1

  0
LINE
  5
1C6
330
1C5
100
AcDbEntity
  8
0
  6
Continuous
 62
     0
370
    -2
390
5F
100
AcDbLine
 10
0.0
 20
0.0
 30
0.0
 11
1.0
 21
-1.0
 31
0.0
  0
LINE
  5
1C7
330
1C5
100
AcDbEntity
  8
0
  6
Continuous
 62
     0
370
    -2
390
5F
100
AcDbLine
 10
1.0
 20
-1.0
 30
0.0
 11
-1.0
 21
-1.0
 31
0.0
  0
LINE
  5
1C8
330
1C5
100
AcDbEntity
  8
0
  6
Continuous
 62
     0
370
    -2
390
5F
100
AcDbLine
 10
-1.0
 20
-1.0
 30
0.0
 11
0.0
 21
0.0
 31
0.0
  0
HATCH
  5
1C9
330
1C5
100
AcDbEntity
  8
0
  6
Continuous
 62
     0
370
    -2
390
5F
100
AcDbHatch
 10
0.0
 20
0.0
 30
0.0
210
0.0
220
0.0
230
1.0
  2
SOLID
 70
     1
 71
     0
 91
        1
 92
        3
 72
     0
 73
     1
 93
        3
 10
0.0
 20
0.0
 10
-1.0
 20
-1.0
 10
0.0
 20
-1.0
 97
        0
 75
     0
 76
     1
 98
        0
  0
ENDBLK
  5
1CB
330
1C5
100
AcDbEntity
  8
0
100
AcDbBlockEnd
  0
BLOCK
  5
1CD
330
1CC
100
AcDbEntity
  8
0
100
AcDbBlockBegin
  2
cw-dimension-symbol19
 70
     0
 10
0.0
 20
0.0
 30
0.0
  3
cw-dimension-symbol19
  1

  0
ENDBLK
  5
1CE
330
1CC
100
AcDbEntity
  8
0
100
AcDbBlockEnd
  0
BLOCK
  5
1D4
330
1CF
100
AcDbEntity
  8
0
100
AcDbBlockBegin
  2
cw-dimension-symbol20
 70
     0
 10
0.0
 20
0.0
 30
0.0
  3
cw-dimension-symbol20
  1

  0
LINE
  5
1D0
330
1CF
100
AcDbEntity
  8
0
  6
Continuous
 62
     0
370
    -2
390
5F
100
AcDbLine
 10
0.0
 20
0.0
 30
0.0
 11
0.0
 21
2.0
 31
0.0
  0
LINE
  5
1D1
330
1CF
100
AcDbEntity
  8
0
  6
Continuous
 62
     0
370
    -2
390
5F
100
AcDbLine
 10
0.0
 20
0.0
 30
0.0
 11
-1.0
 21
0.33
 31
0.0
  0
LINE
  5
1D2
330
1CF
100
AcDbEntity
  8
0
  6
Continuous
 62
     0
370
    -2
390
5F
100
AcDbLine
 10
0.0
 20
0.0
 30
0.0
 11
1.0
 21
0.33
 31
0.0
  0
LINE
  5
1D3
330
1CF
100
AcDbEntity
  8
0
  6
Continuous
 62
     0
370
    -2
390
5F
100
AcDbLine
 10
0.0
 20
2.0
 30
0.0
 11
4.15
 21
2.0
 31
0.0
  0
ENDBLK
  5
1D5
330
1CF
100
AcDbEntity
  8
0
100
AcDbBlockEnd
  0
BLOCK
  5
1DB
330
1D6
100
AcDbEntity
  8
0
100
AcDbBlockBegin
  2
cw-dimension-symbol21
 70
     0
 10
0.0
 20
0.0
 30
0.0
  3
cw-dimension-symbol21
  1

  0
LINE
  5
1D7
330
1D6
100
AcDbEntity
  8
0
  6
Continuous
 62
     0
370
    -2
390
5F
100
AcDbLine
 10
0.0
 20
0.0
 30
0.0
 11
0.0
 21
-2.0
 31
0.0
  0
LINE
  5
1D8
330
1D6
100
AcDbEntity
  8
0
  6
Continuous
 62
     0
370
    -2
390
5F
100
AcDbLine
 10
0.0
 20
0.0
 30
0.0
 11
-1.0
 21
-0.33
 31
0.0
  0
LINE
  5
1D9
330
1D6
100
AcDbEntity
  8
0
  6
Continuous
 62
     0
370
    -2
390
5F
100
AcDbLine
 10
0.0
 20
0.0
 30
0.0
 11
1.0
 21
-0.33
 31
0.0
  0
LINE
  5
1DA
330
1D6
100
AcDbEntity
  8
0
  6
Continuous
 62
     0
370
    -2
390
5F
100
AcDbLine
 10
0.0
 20
-2.0
 30
0.0
 11
4.15
 21
-2.0
 31
0.0
  0
ENDBLK
  5
1DC
330
1D6
100
AcDbEntity
  8
0
100
AcDbBlockEnd
  0
BLOCK
  5
20D
330
1DD
100
AcDbEntity
  8
0
100
AcDbBlockBegin
  2
cw-line-extremity0
 70
     0
 10
0.0
 20
0.0
 30
0.0
  3
cw-line-extremity0
  1

  0
LINE
  5
1DE
330
1DD
100
AcDbEntity
  8
0
  6
Continuous
 62
     0
370
    -2
390
5F
100
AcDbLine
 10
0.0
 20
0.0
 30
0.0
 11
10.0
 21
2.5
 31
0.0
  0
LINE
  5
1DF
330
1DD
100
AcDbEntity
  8
0
  6
Continuous
 62
     0
370
    -2
390
5F
100
AcDbLine
 10
0.0
 20
0.0
 30
0.0
 11
10.0
 21
-2.5
 31
0.0
  0
LINE
  5
1E0
330
1DD
100
AcDbEntity
  8
0
  6
Continuous
 62
     0
370
    -2
390
5F
100
AcDbLine
 10
10.0
 20
2.5
 30
0.0
 11
10.0
 21
-2.5
 31
0.0
  0
ENDBLK
  5
20E
330
1DD
100
AcDbEntity
  8
0
100
AcDbBlockEnd
  0
BLOCK
  5
20B
330
1E1
100
AcDbEntity
  8
0
100
AcDbBlockBegin
  2
cw-line-extremity2
 70
     0
 10
0.0
 20
0.0
 30
0.0
  3
cw-line-extremity2
  1

  0
HATCH
  5
1E2
330
1E1
100
AcDbEntity
  8
0
  6
Continuous
 62
     0
370
     0
390
5F
100
AcDbHatch
 10
0.0
 20
0.0
 30
0.0
210
0.0
220
0.0
230
1.0
  2
SOLID
 70
     1
 71
     0
 91
        1
 92
        3
 72
     0
 73
     1
 93
        3
 10
0.0
 20
0.0
 10
10.0
 20
2.5
 10
10.0
 20
-2.5
 97
        0
 75
     0
 76
     1
 98
        0
  0
LINE
  5
1E3
330
1E1
100
AcDbEntity
  8
0
  6
Continuous
 62
     0
370
    -2
390
5F
100
AcDbLine
 10
0.0
 20
0.0
 30
0.0
 11
10.0
 21
2.5
 31
0.0
  0
LINE
  5
1E4
330
1E1
100
AcDbEntity
  8
0
  6
Continuous
 62
     0
370
    -2
390
5F
100
AcDbLine
 10
10.0
 20
2.5
 30
0.0
 11
10.0
 21
-2.5
 31
0.0
  0
LINE
  5
1E5
330
1E1
100
AcDbEntity
  8
0
  6
Continuous
 62
     0
370
    -2
390
5F
100
AcDbLine
 10
10.0
 20
-2.5
 30
0.0
 11
0.0
 21
0.0
 31
0.0
  0
ENDBLK
  5
20C
330
1E1
100
AcDbEntity
  8
0
100
AcDbBlockEnd
  0
BLOCK
  5
209
330
1E6
100
AcDbEntity
  8
0
100
AcDbBlockBegin
  2
cw-line-extremity3
 70
     0
 10
0.0
 20
0.0
 30
0.0
  3
cw-line-extremity3
  1

  0
HATCH
  5
1E7
330
1E6
100
AcDbEntity
  8
0
  6
Continuous
 62
     0
370
     0
390
5F
100
AcDbHatch
 10
0.0
 20
0.0
 30
0.0
210
0.0
220
0.0
230
1.0
  2
SOLID
 70
     1
 71
     0
 91
        1
 92
        3
 72
     0
 73
     1
 93
        3
 10
0.0
 20
0.0
 10
10.0
 20
2.5
 10
10.0
 20
-2.5
 97
        0
 75
     0
 76
     1
 98
        0
  0
LINE
  5
1E8
330
1E6
100
AcDbEntity
  8
0
  6
Continuous
 62
     0
370
    -2
390
5F
100
AcDbLine
 10
0.0
 20
0.0
 30
0.0
 11
10.0
 21
2.5
 31
0.0
  0
LINE
  5
1E9
330
1E6
100
AcDbEntity
  8
0
  6
Continuous
 62
     0
370
    -2
390
5F
100
AcDbLine
 10
10.0
 20
2.5
 30
0.0
 11
10.0
 21
-2.5
 31
0.0
  0
LINE
  5
1EA
330
1E6
100
AcDbEntity
  8
0
  6
Continuous
 62
     0
370
    -2
390
5F
100
AcDbLine
 10
10.0
 20
-2.5
 30
0.0
 11
0.0
 21
0.0
 31
0.0
  0
ENDBLK
  5
20A
330
1E6
100
AcDbEntity
  8
0
100
AcDbBlockEnd
  0
BLOCK
  5
207
330
1EB
100
AcDbEntity
  8
0
100
AcDbBlockBegin
  2
cw-line-extremity301
 70
     0
 10
0.0
 20
0.0
 30
0.0
  3
cw-line-extremity301
  1

  0
LINE
  5
1EC
330
1EB
100
AcDbEntity
  8
0
  6
Continuous
 62
     0
370
    -2
390
5F
100
AcDbLine
 10
0.0
 20
6.66665
 30
0.0
 11
0.0
 21
-6.66665
 31
0.0
  0
ENDBLK
  5
208
330
1EB
100
AcDbEntity
  8
0
100
AcDbBlockEnd
  0
BLOCK
  5
205
330
1ED
100
AcDbEntity
  8
0
100
AcDbBlockBegin
  2
cw-line-extremity4
 70
     0
 10
0.0
 20
0.0
 30
0.0
  3
cw-line-extremity4
  1

  0
HATCH
  5
1EE
330
1ED
100
AcDbEntity
  8
0
  6
Continuous
 62
     0
370
     5
390
5F
100
AcDbHatch
 10
0.0
 20
0.0
 30
0.0
210
0.0
220
0.0
230
1.0
  2
SOLID
 70
     1
 71
     0
 91
        1
 92
        1
 93
        1
 72
     2
 10
0.0
 20
0.0
 40
2.5
 50
0.0
 51
360.0
 73
     1
 97
        0
 75
     0
 76
     1
 98
        0
  0
ENDBLK
  5
206
330
1ED
100
AcDbEntity
  8
0
100
AcDbBlockEnd
  0
BLOCK
  5
203
330
1EF
100
AcDbEntity
  8
0
100
AcDbBlockBegin
  2
cw-line-extremity5
 70
     0
 10
0.0
 20
0.0
 30
0.0
  3
cw-line-extremity5
  1

  0
LINE
  5
1F0
330
1EF
100
AcDbEntity
  8
0
  6
Continuous
 62
     0
370
    -2
390
5F
100
AcDbLine
 10
0.0
 20
0.0
 30
0.0
 11
-2.5
 21
0.0
 31
0.0
  0
ENDBLK
  5
204
330
1EF
100
AcDbEntity
  8
0
100
AcDbBlockEnd
  0
BLOCK
  5
201
330
1F1
100
AcDbEntity
  8
0
100
AcDbBlockBegin
  2
cw-line-extremity6
 70
     0
 10
0.0
 20
0.0
 30
0.0
  3
cw-line-extremity6
  1

  0
LINE
  5
1F2
330
1F1
100
AcDbEntity
  8
0
  6
Continuous
 62
     0
370
    18
390
5F
100
AcDbLine
 10
0.0
 20
2.5
 30
0.0
 11
0.0
 21
-2.5
 31
0.0
  0
ENDBLK
  5
202
330
1F1
100
AcDbEntity
  8
0
100
AcDbBlockEnd
  0
BLOCK
  5
1FF
330
1F3
100
AcDbEntity
  8
0
100
AcDbBlockBegin
  2
cw-line-extremity9
 70
     0
 10
0.0
 20
0.0
 30
0.0
  3
cw-line-extremity9
  1

  0
LINE
  5
1F4
330
1F3
100
AcDbEntity
  8
0
  6
Continuous
 62
     0
370
    18
390
5F
100
AcDbLine
 10
-2.5
 20
-2.5
 30
0.0
 11
2.5
 21
2.5
 31
0.0
  0
ENDBLK
  5
200
330
1F3
100
AcDbEntity
  8
0
100
AcDbBlockEnd
  0
BLOCK
  5
1FD
330
1F5
100
AcDbEntity
  8
0
100
AcDbBlockBegin
  2
cw-line-extremity10
 70
     0
 10
0.0
 20
0.0
 30
0.0
  3
cw-line-extremity10
  1

  0
CIRCLE
  5
1F6
330
1F5
100
AcDbEntity
  8
0
  6
Continuous
 62
     0
370
    -2
390
5F
100
AcDbCircle
 10
0.0
 20
0.0
 30
0.0
 40
2.5
  0
ENDBLK
  5
1FE
330
1F5
100
AcDbEntity
  8
0
100
AcDbBlockEnd
  0
BLOCK
  5
1FB
330
1F7
100
AcDbEntity
  8
0
100
AcDbBlockBegin
  2
cw-line-extremity1
 70
     0
 10
0.0
 20
0.0
 30
0.0
  3
cw-line-extremity1
  1

  0
LINE
  5
1F8
330
1F7
100
AcDbEntity
  8
0
  6
Continuous
 62
     0
370
    -2
390
5F
100
AcDbLine
 10
0.0
 20
0.0
 30
0.0
 11
0.0
 21
2.5
 31
0.0
  0
LINE
  5
1F9
330
1F7
100
AcDbEntity
  8
0
  6
Continuous
 62
     0
370
    -2
390
5F
100
AcDbLine
 10
0.0
 20
2.5
 30
0.0
 11
1.25
 21
3.75
 31
0.0
  0
LINE
  5
1FA
330
1F7
100
AcDbEntity
  8
0
  6
Continuous
 62
     0
370
    -2
390
5F
100
AcDbLine
 10
1.25
 20
3.75
 30
0.0
 11
3.75
 21
3.75
 31
0.0
  0
ENDBLK
  5
1FC
330
1F7
100
AcDbEntity
  8
0
100
AcDbBlockEnd
  0
BLOCK
  5
1C
330
1B
100
AcDbEntity
  8
0
100
AcDbBlockBegin
  2
*Paper_Space69
 70
     0
 10
0.0
 20
0.0
 30
0.0
  3
*Paper_Space69
  1

  0
ENDBLK
  5
1D
330
1B
100
AcDbEntity
  8
0
100
AcDbBlockEnd
  0
BLOCK
  5
2EC
330
2DD
100
AcDbEntity
  8
0
100
AcDbBlockBegin
  2
DIM11
 70
     0
 10
0.0
 20
0.0
 30
0.0
  3
DIM11
  1

  0
LINE
  5
2DE
330
2DD
100
AcDbEntity
  8
Ech.1_5
  6
Continuous
 62
   200
420
 11010303
370
    15
390
5F
100
AcDbLine
 10
19419.5394739394
 20
-10097.94403914044
 30
0.0
 11
19419.5394739394
 21
-10120.64403914044
 31
0.0
  0
LINE
  5
2DF
330
2DD
100
AcDbEntity
  8
Ech.1_5
  6
Continuous
 62
   200
420
 11010303
370
    15
390
5F
100
AcDbLine
 10
19419.5394739394
 20
-10115.64403914044
 30
0.0
 11
19414.5394739394
 21
-10115.64403914044
 31
0.0
  0
LINE
  5
2E0
330
2DD
100
AcDbEntity
  8
Ech.1_5
  6
Continuous
 62
   200
420
 11010303
370
    25
390
5F
100
AcDbLine
 10
19417.0394739394
 20
-10118.14403914044
 30
0.0
 11
19422.0394739394
 21
-10113.14403914044
 31
0.0
  0
LINE
  5
2E1
330
2DD
100
AcDbEntity
  8
Ech.1_5
  6
Continuous
 62
   200
420
 11010303
370
    25
390
5F
100
AcDbLine
 10
19417.0894739394
 20
-10118.14403914044
 30
0.0
 11
19422.0394739394
 21
-10113.19403914044
 31
0.0
  0
LINE
  5
2E2
330
2DD
100
AcDbEntity
  8
Ech.1_5
  6
Continuous
 62
   200
420
 11010303
370
    25
390
5F
100
AcDbLine
 10
19417.0394739394
 20
-10118.09403914043
 30
0.0
 11
19421.9894739394
 21
-10113.14403914044
 31
0.0
  0
LINE
  5
2E3
330
2DD
100
AcDbEntity
  8
Ech.1_5
  6
Continuous
 62
   200
420
 11010303
370
    25
390
5F
100
AcDbLine
 10
19417.0394739394
 20
-10118.14403914044
 30
0.0
 11
19422.0394739394
 21
-10113.19403914044
 31
0.0
  0
LINE
  5
2E4
330
2DD
100
AcDbEntity
  8
Ech.1_5
  6
Continuous
 62
   200
420
 11010303
370
    25
390
5F
100
AcDbLine
 10
19417.0394739394
 20
-10118.14403914044
 30
0.0
 11
19422.0394739394
 21
-10113.14403914044
 31
0.0
  0
LINE
  5
2E5
330
2DD
100
AcDbEntity
  8
Ech.1_5
  6
Continuous
 62
   200
420
 11010303
370
    15
390
5F
100
AcDbLine
 10
19419.5394739394
 20
-10115.64403914044
 30
0.0
 11
19551.88947393939
 21
-10115.64403914044
 31
0.0
  0
LINE
  5
2E6
330
2DD
100
AcDbEntity
  8
Ech.1_5
  6
Continuous
 62
   200
420
 11010303
370
    25
390
5F
100
AcDbLine
 10
19549.38947393939
 20
-10113.14403914044
 30
0.0
 11
19544.38947393939
 21
-10118.14403914044
 31
0.0
  0
LINE
  5
2E7
330
2DD
100
AcDbEntity
  8
Ech.1_5
  6
Continuous
 62
   200
420
 11010303
370
    25
390
5F
100
AcDbLine
 10
19549.3394739394
 20
-10113.14403914044
 30
0.0
 11
19544.38947393939
 21
-10118.09403914043
 31
0.0
  0
LINE
  5
2E8
330
2DD
100
AcDbEntity
  8
Ech.1_5
  6
Continuous
 62
   200
420
 11010303
370
    25
390
5F
100
AcDbLine
 10
19549.38947393939
 20
-10113.19403914044
 30
0.0
 11
19544.4394739394
 21
-10118.14403914044
 31
0.0
  0
LINE
  5
2E9
330
2DD
100
AcDbEntity
  8
Ech.1_5
  6
Continuous
 62
   200
420
 11010303
370
    25
390
5F
100
AcDbLine
 10
19549.3394739394
 20
-10113.14403914044
 30
0.0
 11
19544.38947393939
 21
-10118.14403914044
 31
0.0
  0
LINE
  5
2EA
330
2DD
100
AcDbEntity
  8
Ech.1_5
  6
Continuous
 62
   200
420
 11010303
370
    25
390
5F
100
AcDbLine
 10
19549.38947393939
 20
-10113.19403914044
 30
0.0
 11
19544.38947393939
 21
-10118.14403914044
 31
0.0
  0
LINE
  5
2EB
330
2DD
100
AcDbEntity
  8
Ech.1_5
  6
Continuous
 62
   200
420
 11010303
370
    15
390
5F
100
AcDbLine
 10
19546.88947393939
 20
-10110.44403914044
 30
0.0
 11
19546.88947393939
 21
-10120.64403914044
 31
0.0
  0
ENDBLK
  5
2ED
330
2DD
100
AcDbEntity
  8
0
100
AcDbBlockEnd
  0
BLOCK
  5
2FF
330
2F0
100
AcDbEntity
  8
0
100
AcDbBlockBegin
  2
DIM12
 70
     0
 10
0.0
 20
0.0
 30
0.0
  3
DIM12
  1

  0
LINE
  5
2F1
330
2F0
100
AcDbEntity
  8
Ech.1_5
  6
Continuous
 62
   200
420
 11010303
370
    15
390
5F
100
AcDbLine
 10
19411.00060762043
 20
-10054.720241605
 30
0.0
 11
19411.00060762043
 21
-10074.070241605
 31
0.0
  0
LINE
  5
2F2
330
2F0
100
AcDbEntity
  8
Ech.1_5
  6
Continuous
 62
   200
420
 11010303
370
    15
390
5F
100
AcDbLine
 10
19411.00060762043
 20
-10069.070241605
 30
0.0
 11
19406.00060762043
 21
-10069.070241605
 31
0.0
  0
LINE
  5
2F3
330
2F0
100
AcDbEntity
  8
Ech.1_5
  6
Continuous
 62
   200
420
 11010303
370
    25
390
5F
100
AcDbLine
 10
19408.50060762043
 20
-10071.570241605
 30
0.0
 11
19413.50060762043
 21
-10066.570241605
 31
0.0
  0
LINE
  5
2F4
330
2F0
100
AcDbEntity
  8
Ech.1_5
  6
Continuous
 62
   200
420
 11010303
370
    25
390
5F
100
AcDbLine
 10
19408.55060762043
 20
-10071.570241605
 30
0.0
 11
19413.50060762043
 21
-10066.620241605
 31
0.0
  0
LINE
  5
2F5
330
2F0
100
AcDbEntity
  8
Ech.1_5
  6
Continuous
 62
   200
420
 11010303
370
    25
390
5F
100
AcDbLine
 10
19408.50060762043
 20
-10071.520241605
 30
0.0
 11
19413.45060762043
 21
-10066.570241605
 31
0.0
  0
LINE
  5
2F6
330
2F0
100
AcDbEntity
  8
Ech.1_5
  6
Continuous
 62
   200
420
 11010303
370
    25
390
5F
100
AcDbLine
 10
19408.50060762043
 20
-10071.570241605
 30
0.0
 11
19413.50060762043
 21
-10066.620241605
 31
0.0
  0
LINE
  5
2F7
330
2F0
100
AcDbEntity
  8
Ech.1_5
  6
Continuous
 62
   200
420
 11010303
370
    25
390
5F
100
AcDbLine
 10
19408.50060762043
 20
-10071.570241605
 30
0.0
 11
19413.50060762043
 21
-10066.570241605
 31
0.0
  0
LINE
  5
2F8
330
2F0
100
AcDbEntity
  8
Ech.1_5
  6
Continuous
 62
   200
420
 11010303
370
    15
390
5F
100
AcDbLine
 10
19411.00060762043
 20
-10069.070241605
 30
0.0
 11
19426.00060762043
 21
-10069.070241605
 31
0.0
  0
LINE
  5
2F9
330
2F0
100
AcDbEntity
  8
Ech.1_5
  6
Continuous
 62
   200
420
 11010303
370
    25
390
5F
100
AcDbLine
 10
19423.50060762043
 20
-10066.570241605
 30
0.0
 11
19418.50060762043
 21
-10071.570241605
 31
0.0
  0
LINE
  5
2FA
330
2F0
100
AcDbEntity
  8
Ech.1_5
  6
Continuous
 62
   200
420
 11010303
370
    25
390
5F
100
AcDbLine
 10
19423.45060762043
 20
-10066.570241605
 30
0.0
 11
19418.50060762043
 21
-10071.520241605
 31
0.0
  0
LINE
  5
2FB
330
2F0
100
AcDbEntity
  8
Ech.1_5
  6
Continuous
 62
   200
420
 11010303
370
    25
390
5F
100
AcDbLine
 10
19423.50060762043
 20
-10066.620241605
 30
0.0
 11
19418.55060762043
 21
-10071.570241605
 31
0.0
  0
LINE
  5
2FC
330
2F0
100
AcDbEntity
  8
Ech.1_5
  6
Continuous
 62
   200
420
 11010303
370
    25
390
5F
100
AcDbLine
 10
19423.50060762043
 20
-10066.570241605
 30
0.0
 11
19418.50060762043
 21
-10071.570241605
 31
0.0
  0
LINE
  5
2FD
330
2F0
100
AcDbEntity
  8
Ech.1_5
  6
Continuous
 62
   200
420
 11010303
370
    25
390
5F
100
AcDbLine
 10
19423.50060762043
 20
-10066.620241605
 30
0.0
 11
19418.55060762043
 21
-10071.570241605
 31
0.0
  0
LINE
  5
2FE
330
2F0
100
AcDbEntity
  8
Ech.1_5
  6
Continuous
 62
   200
420
 11010303
370
    15
390
5F
100
AcDbLine
 10
19421.00060762043
 20
-10080.420241605
 30
0.0
 11
19421.00060762043
 21
-10064.070241605
 31
0.0
  0
ENDBLK
  5
300
330
2F0
100
AcDbEntity
  8
0
100
AcDbBlockEnd
  0
BLOCK
  5
312
330
303
100
AcDbEntity
  8
0
100
AcDbBlockBegin
  2
DIM13
 70
     0
 10
0.0
 20
0.0
 30
0.0
  3
DIM13
  1

  0
LINE
  5
304
330
303
100
AcDbEntity
  8
Ech.1_5
  6
Continuous
 62
   200
420
 11010303
370
    15
390
5F
100
AcDbLine
 10
19436.01074846428
 20
-10042.94403954943
 30
0.0
 11
19446.01074846428
 21
-10042.94403954943
 31
0.0
  0
LINE
  5
305
330
303
100
AcDbEntity
  8
Ech.1_5
  6
Continuous
 62
   200
420
 11010303
370
    15
390
5F
100
AcDbLine
 10
19441.01074846428
 20
-10042.94403954943
 30
0.0
 11
19441.01074846428
 21
-10047.94403954943
 31
0.0
  0
LINE
  5
306
330
303
100
AcDbEntity
  8
Ech.1_5
  6
Continuous
 62
   200
420
 11010303
370
    25
390
5F
100
AcDbLine
 10
19443.51074846428
 20
-10045.44403954943
 30
0.0
 11
19438.51074846428
 21
-10040.44403954943
 31
0.0
  0
LINE
  5
307
330
303
100
AcDbEntity
  8
Ech.1_5
  6
Continuous
 62
   200
420
 11010303
370
    25
390
5F
100
AcDbLine
 10
19443.51074846428
 20
-10045.39403954943
 30
0.0
 11
19438.56074846428
 21
-10040.44403954943
 31
0.0
  0
LINE
  5
308
330
303
100
AcDbEntity
  8
Ech.1_5
  6
Continuous
 62
   200
420
 11010303
370
    25
390
5F
100
AcDbLine
 10
19443.46074846428
 20
-10045.44403954943
 30
0.0
 11
19438.51074846428
 21
-10040.49403954943
 31
0.0
  0
LINE
  5
309
330
303
100
AcDbEntity
  8
Ech.1_5
  6
Continuous
 62
   200
420
 11010303
370
    25
390
5F
100
AcDbLine
 10
19443.51074846428
 20
-10045.44403954943
 30
0.0
 11
19438.51074846428
 21
-10040.44403954943
 31
0.0
  0
LINE
  5
30A
330
303
100
AcDbEntity
  8
Ech.1_5
  6
Continuous
 62
   200
420
 11010303
370
    25
390
5F
100
AcDbLine
 10
19443.46074846428
 20
-10045.44403954943
 30
0.0
 11
19438.51074846428
 21
-10040.44403954943
 31
0.0
  0
LINE
  5
30B
330
303
100
AcDbEntity
  8
Ech.1_5
  6
Continuous
 62
   200
420
 11010303
370
    15
390
5F
100
AcDbLine
 10
19441.01074846428
 20
-10042.94403954943
 30
0.0
 11
19441.01074846428
 21
-10027.94403954943
 31
0.0
  0
LINE
  5
30C
330
303
100
AcDbEntity
  8
Ech.1_5
  6
Continuous
 62
   200
420
 11010303
370
    25
390
5F
100
AcDbLine
 10
19438.51074846428
 20
-10030.44403954943
 30
0.0
 11
19443.51074846428
 21
-10035.44403954943
 31
0.0
  0
LINE
  5
30D
330
303
100
AcDbEntity
  8
Ech.1_5
  6
Continuous
 62
   200
420
 11010303
370
    25
390
5F
100
AcDbLine
 10
19438.51074846428
 20
-10030.49403954943
 30
0.0
 11
19443.46074846428
 21
-10035.44403954943
 31
0.0
  0
LINE
  5
30E
330
303
100
AcDbEntity
  8
Ech.1_5
  6
Continuous
 62
   200
420
 11010303
370
    25
390
5F
100
AcDbLine
 10
19438.56074846428
 20
-10030.44403954943
 30
0.0
 11
19443.51074846428
 21
-10035.39403954943
 31
0.0
  0
LINE
  5
30F
330
303
100
AcDbEntity
  8
Ech.1_5
  6
Continuous
 62
   200
420
 11010303
370
    25
390
5F
100
AcDbLine
 10
19438.51074846428
 20
-10030.44403954943
 30
0.0
 11
19443.46074846428
 21
-10035.44403954943
 31
0.0
  0
LINE
  5
310
330
303
100
AcDbEntity
  8
Ech.1_5
  6
Continuous
 62
   200
420
 11010303
370
    25
390
5F
100
AcDbLine
 10
19438.51074846428
 20
-10030.44403954943
 30
0.0
 11
19443.51074846428
 21
-10035.39403954943
 31
0.0
  0
LINE
  5
311
330
303
100
AcDbEntity
  8
Ech.1_5
  6
Continuous
 62
   200
420
 11010303
370
    15
390
5F
100
AcDbLine
 10
19426.01074846428
 20
-10032.94403954943
 30
0.0
 11
19446.01074846428
 21
-10032.94403954943
 31
0.0
  0
ENDBLK
  5
313
330
303
100
AcDbEntity
  8
0
100
AcDbBlockEnd
  0
BLOCK
  5
325
330
316
100
AcDbEntity
  8
0
100
AcDbBlockBegin
  2
DIM14
 70
     0
 10
0.0
 20
0.0
 30
0.0
  3
DIM14
  1

  0
LINE
  5
317
330
316
100
AcDbEntity
  8
Ech.1_5
  6
Continuous
 62
   200
420
 11010303
370
    15
390
5F
100
AcDbLine
 10
19435.99547459555
 20
-10087.94403914044
 30
0.0
 11
19535.19547459556
 21
-10087.94403914044
 31
0.0
  0
LINE
  5
318
330
316
100
AcDbEntity
  8
Ech.1_5
  6
Continuous
 62
   200
420
 11010303
370
    15
390
5F
100
AcDbLine
 10
19530.19547459556
 20
-10087.94403914044
 30
0.0
 11
19530.19547459556
 21
-10092.94403914044
 31
0.0
  0
LINE
  5
319
330
316
100
AcDbEntity
  8
Ech.1_5
  6
Continuous
 62
   200
420
 11010303
370
    25
390
5F
100
AcDbLine
 10
19532.69547459556
 20
-10090.44403914044
 30
0.0
 11
19527.69547459556
 21
-10085.44403914044
 31
0.0
  0
LINE
  5
31A
330
316
100
AcDbEntity
  8
Ech.1_5
  6
Continuous
 62
   200
420
 11010303
370
    25
390
5F
100
AcDbLine
 10
19532.69547459556
 20
-10090.39403914044
 30
0.0
 11
19527.74547459555
 21
-10085.44403914044
 31
0.0
  0
LINE
  5
31B
330
316
100
AcDbEntity
  8
Ech.1_5
  6
Continuous
 62
   200
420
 11010303
370
    25
390
5F
100
AcDbLine
 10
19532.64547459556
 20
-10090.44403914044
 30
0.0
 11
19527.69547459556
 21
-10085.49403914043
 31
0.0
  0
LINE
  5
31C
330
316
100
AcDbEntity
  8
Ech.1_5
  6
Continuous
 62
   200
420
 11010303
370
    25
390
5F
100
AcDbLine
 10
19532.69547459556
 20
-10090.44403914044
 30
0.0
 11
19527.69547459556
 21
-10085.44403914044
 31
0.0
  0
LINE
  5
31D
330
316
100
AcDbEntity
  8
Ech.1_5
  6
Continuous
 62
   200
420
 11010303
370
    25
390
5F
100
AcDbLine
 10
19532.64547459556
 20
-10090.44403914044
 30
0.0
 11
19527.69547459556
 21
-10085.44403914044
 31
0.0
  0
LINE
  5
31E
330
316
100
AcDbEntity
  8
Ech.1_5
  6
Continuous
 62
   200
420
 11010303
370
    15
390
5F
100
AcDbLine
 10
19530.19547459556
 20
-10087.94403914044
 30
0.0
 11
19530.19547459556
 21
-10037.94403914044
 31
0.0
  0
LINE
  5
31F
330
316
100
AcDbEntity
  8
Ech.1_5
  6
Continuous
 62
   200
420
 11010303
370
    25
390
5F
100
AcDbLine
 10
19527.69547459556
 20
-10040.44403914044
 30
0.0
 11
19532.69547459556
 21
-10045.44403914044
 31
0.0
  0
LINE
  5
320
330
316
100
AcDbEntity
  8
Ech.1_5
  6
Continuous
 62
   200
420
 11010303
370
    25
390
5F
100
AcDbLine
 10
19527.69547459556
 20
-10040.49403914043
 30
0.0
 11
19532.64547459556
 21
-10045.44403914044
 31
0.0
  0
LINE
  5
321
330
316
100
AcDbEntity
  8
Ech.1_5
  6
Continuous
 62
   200
420
 11010303
370
    25
390
5F
100
AcDbLine
 10
19527.74547459555
 20
-10040.44403914044
 30
0.0
 11
19532.69547459556
 21
-10045.39403914044
 31
0.0
  0
LINE
  5
322
330
316
100
AcDbEntity
  8
Ech.1_5
  6
Continuous
 62
   200
420
 11010303
370
    25
390
5F
100
AcDbLine
 10
19527.69547459556
 20
-10040.44403914044
 30
0.0
 11
19532.64547459556
 21
-10045.44403914044
 31
0.0
  0
LINE
  5
323
330
316
100
AcDbEntity
  8
Ech.1_5
  6
Continuous
 62
   200
420
 11010303
370
    25
390
5F
100
AcDbLine
 10
19527.69547459556
 20
-10040.44403914044
 30
0.0
 11
19532.69547459556
 21
-10045.39403914044
 31
0.0
  0
LINE
  5
324
330
316
100
AcDbEntity
  8
Ech.1_5
  6
Continuous
 62
   200
420
 11010303
370
    15
390
5F
100
AcDbLine
 10
19435.99547459555
 20
-10042.94403914044
 30
0.0
 11
19535.19547459556
 21
-10042.94403914044
 31
0.0
  0
ENDBLK
  5
326
330
316
100
AcDbEntity
  8
0
100
AcDbBlockEnd
  0
ENDSEC
  0
SECTION
  2
ENTITIES
  0
HATCH
  5
218
330
1F
100
AcDbEntity
  8
Ech.1_5
  6
Continuous
 62
   254
420
 16643007
440
 33554687
370
     5
390
5F
100
AcDbHatch
 10
0.0
 20
0.0
 30
0.0
210
0.0
220
0.0
230
1.0
  2
SOLID
 70
     1
 71
     0
 91
        1
 92
        3
 72
     0
 73
     1
 93
        8
 10
19768.34411053843
 20
-9997.943382467827
 10
19768.34411053843
 20
-9634.677091092875
 10
19678.7064612578
 20
-9634.677091092875
 10
19662.22095810191
 20
-9652.656069249919
 10
19676.33089811972
 20
-9616.700369329265
 10
19659.84454403821
 20
-9634.678720922282
 10
19623.34411053839
 20
-9634.678720922282
 10
19623.34411053839
 20
-9997.943382467827
 97
        0
 75
     0
 76
     1
 98
        0
  0
HATCH
  5
219
330
1F
100
AcDbEntity
  8
Ech.1_5
  6
Continuous
 62
     8
440
 33554687
370
    20
390
5F
100
AcDbHatch
 10
0.0
 20
0.0
 30
0.0
210
0.0
220
0.0
230
1.0
  2
CwHatchPattern_201
 70
     0
 71
     0
 91
        1
 92
        3
 72
     0
 73
     1
 93
        8
 10
19768.34411053843
 20
-9997.943382467827
 10
19768.34411053843
 20
-9634.677091092875
 10
19678.7064612578
 20
-9634.677091092875
 10
19662.22095810191
 20
-9652.656069249919
 10
19676.33089811972
 20
-9616.700369329265
 10
19659.84454403821
 20
-9634.678720922282
 10
19623.34411053839
 20
-9634.678720922282
 10
19623.34411053839
 20
-9997.943382467827
 97
        0
 75
     0
 76
     2
 52
90.0
 41
2.900000095367432
 77
     0
 78
    29
 53
90.0
 43
19768.34411053843
 44
-10001.17973904872
 45
-145.0000047683716
 46
0.0000000000000089
 79
     2
 49
6.472713161775587
 49
-17.69395934117938
 53
180.0000000000059
 43
19748.09915194878
 44
-10022.11004071037
 45
0.0000000000049953
 46
-48.33333031336451
 79
     2
 49
3.921713481170173
 49
-141.0782912872014
 53
180.0000000000059
 43
19647.51077784087
 44
-9997.943382467827
 45
0.0000000000049953
 46
-48.33333031336451
 79
     2
 49
3.921713481170173
 49
-141.0782912872014
 53
194.9324645996163
 43
19738.99342791066
 44
-9974.352722133268
 45
-144.9993095038583
 46
-48.3359814437894
 79
     2
 49
89.31476672155326
 49
-661.0203426301995
 53
165.0675354003956
 43
19738.99342791066
 44
-9973.200712489022
 45
144.9993095038682
 46
-48.33598144375943
 79
     2
 49
89.31476672155327
 49
-661.0203426301996
 53
105.2551193237315
 43
19768.34411053843
 44
-9994.707025886939
 45
-0.0000012956450574
 46
-48.33332879607747
 79
     2
 49
6.569094531198019
 49
-544.5157172931704
 53
254.7448883056749
 43
19768.34411053843
 44
-10001.17973904872
 45
0.0000077316271012
 46
-48.33332879607688
 79
     2
 49
6.569094531198019
 49
-544.5157172931704
 53
105.2551193237315
 43
19625.07254372744
 44
-9983.350697957409
 45
-0.0000012956450574
 46
-48.33332879607747
 79
     2
 49
6.569094531198019
 49
-544.5157172931704
 53
74.74488067626852
 43
19623.34410577005
 44
-9970.540367860463
 45
-0.0000012956450522
 46
48.33332879607747
 79
     2
 49
6.569094531198019
 49
-544.5157172931704
 53
120.9637565612813
 43
19766.61566696331
 44
-9988.369408735702
 45
0.0000003210802688
 46
-48.33333866514959
 79
     2
 49
6.310936569088454
 49
-275.5184006697027
 53
239.0362396240333
 43
19766.61566696331
 44
-10007.5531126699
 45
-0.0000035390569272
 46
-48.33333866514947
 79
     2
 49
6.310936569088454
 49
-275.5184006697027
 53
120.9637565612813
 43
19628.31950638152
 44
-9988.762271843429
 45
0.0000003210802688
 46
-48.33333866514959
 79
     2
 49
6.310936569088454
 49
-275.5184006697027
 53
59.03624343871866
 43
19625.07254372744
 44
-9964.20273666488
 45
0.0000003210802765
 46
48.33333866514959
 79
     2
 49
6.310936569088454
 49
-275.5184006697027
 53
135.000000000003
 43
19763.36871079123
 44
-9982.957834849683
 45
0.000000000002483
 46
-48.33334305883081
 79
     2
 49
5.366870520176406
 49
-199.6941079006228
 53
225.0000000000089
 43
19763.36871079123
 44
-10012.92893008597
 45
0.0000000000075056
 46
-48.33334305883082
 79
     2
 49
5.366870520176406
 49
-199.6941079006228
 53
135.000000000003
 43
19632.11444220959
 44
-9992.557212424974
 45
0.000000000002483
 46
-48.33334305883081
 79
     2
 49
5.366870520176406
 49
-199.6941079006228
 53
44.99999999999704
 43
19628.31950638152
 44
-9958.791161050327
 45
0.0000000000025036
 46
48.33334305883081
 79
     2
 49
5.366870520176406
 49
-199.6941079006228
 53
146.309932708744
 43
19759.57377064182
 44
-9979.162880007725
 45
0.000005471509411
 46
-48.33333736175739
 79
     2
 49
5.629320866217142
 49
-168.6389897490858
 53
213.6900634765706
 43
19759.57377064182
 44
-10016.72388492793
 45
-0.0000086894860024
 46
-48.33333736175692
 79
     2
 49
5.629320866217142
 49
-168.6389897490858
 53
146.309932708744
 43
19636.79832889164
 44
-9995.679801817803
 45
0.000005471509411
 46
-48.33333736175739
 79
     2
 49
5.629320866217142
 49
-168.6389897490858
 53
33.69006729125606
 43
19632.11444220959
 44
-9954.996207936903
 45
0.0000054715094032
 46
48.33333736175739
 79
     2
 49
5.629320866217142
 49
-168.6389897490858
 53
161.5650482177782
 43
19754.88989346671
 44
-9976.040290614896
 45
0.0000024231020311
 46
-48.3333407928251
 79
     2
 49
7.158070278124811
 49
-145.6853618847208
 53
198.4349517822336
 43
19754.88989346671
 44
-10019.84647432076
 45
-0.0000024230920451
 46
-48.3333407928251
 79
     2
 49
7.158070278124811
 49
-145.6853618847208
 53
161.5650482177782
 43
19643.5890643597
 44
-9997.943382467827
 45
0.0000024231020311
 46
-48.3333407928251
 79
     2
 49
7.158070278124811
 49
-145.6853618847208
 53
18.43495178222185
 43
19636.79832889164
 44
-9951.873634100888
 45
0.0000024231020286
 46
48.3333407928251
 79
     2
 49
7.158070278124811
 49
-145.6853618847208
 53
173.6598052978571
 43
19744.17745229588
 44
-10022.11004071037
 45
290.0000241734639
 46
-48.33334860488391
 79
     2
 49
5.215925790533547
 49
-432.4610318302621
 53
186.3401947021548
 43
19744.17745229588
 44
-9973.776724225285
 45
-290.0000241734539
 46
-48.33334860494386
 79
     2
 49
5.215925790533546
 49
-432.461031830262
 53
353.659820556658
 43
19647.51077784087
 44
-9997.943382467827
 45
-290.0000370454129
 46
48.33327137314426
 79
     2
 49
5.215925790533547
 49
-432.4610318302621
 53
6.340194702142933
 43
19647.51077784087
 44
-9997.943382467827
 45
290.0000241734639
 46
48.33334860488388
 79
     2
 49
5.215925790533547
 49
-432.4610318302621
 98
        0
1001
ACAD
1010
19768.34411053843
1020
-9997.943382467827
1030
0.0
  0
LWPOLYLINE
  5
21A
330
1F
100
AcDbEntity
  8
Ech.1_5
  6
Continuous
 62
   190
370
    15
390
5F
100
AcDbPolyline
 90
        9
 70
     0
 43
0.0
 10
19768.34411053843
 20
-9997.943382467827
 10
19768.34411053843
 20
-9634.677091092875
 10
19678.7064612578
 20
-9634.677091092875
 10
19662.22095810191
 20
-9652.656069249919
 10
19676.33089811972
 20
-9616.700369329265
 10
19659.84454403821
 20
-9634.678720922282
 10
19623.34411053839
 20
-9634.678720922282
 10
19623.34411053839
 20
-9997.943382467827
 10
19768.34411053843
 20
-9997.943382467827
  0
HATCH
  5
21B
330
1F
100
AcDbEntity
  8
Ech.1_5
  6
Continuous
 62
   254
420
 16643007
440
 33554687
370
     5
390
5F
100
AcDbHatch
 10
0.0
 20
0.0
 30
0.0
210
0.0
220
0.0
230
1.0
  2
SOLID
 70
     1
 71
     0
 91
        1
 92
        3
 72
     0
 73
     1
 93
        8
 10
19768.34411053841
 20
-10604.24917492481
 10
19768.34411053841
 20
-10416.94403954943
 10
19623.34411053841
 20
-10416.94403954943
 10
19623.34411053841
 20
-10604.24769863697
 10
19673.95448405602
 20
-10604.24769863697
 10
19690.44083813753
 20
-10622.22605022999
 10
19676.33089811972
 20
-10586.27035030934
 10
19692.81640127563
 20
-10604.24917492481
 97
        0
 75
     0
 76
     1
 98
        0
  0
HATCH
  5
21C
330
1F
100
AcDbEntity
  8
Ech.1_5
  6
Continuous
 62
     8
440
 33554687
370
    20
390
5F
100
AcDbHatch
 10
0.0
 20
0.0
 30
0.0
210
0.0
220
0.0
230
1.0
  2
CwHatchPattern_201
 70
     0
 71
     0
 91
        1
 92
        3
 72
     0
 73
     1
 93
        8
 10
19768.34411053841
 20
-10604.24917492481
 10
19768.34411053841
 20
-10416.94403954943
 10
19623.34411053841
 20
-10416.94403954943
 10
19623.34411053841
 20
-10604.24769863697
 10
19673.95448405602
 20
-10604.24769863697
 10
19690.44083813753
 20
-10622.22605022999
 10
19676.33089811972
 20
-10586.27035030934
 10
19692.81640127563
 20
-10604.24917492481
 97
        0
 75
     0
 76
     2
 52
90.0
 41
2.900000095367432
 77
     0
 78
    29
 53
90.0
 43
19768.34411053841
 44
-10607.4855315057
 45
-145.0000047683716
 46
0.0000000000000089
 79
     2
 49
6.472713161775587
 49
-17.69395934117938
 53
180.0000000000059
 43
19748.09915194876
 44
-10628.41583316736
 45
0.0000000000049953
 46
-48.33333031336451
 79
     2
 49
3.921713481170173
 49
-141.0782912872014
 53
180.0000000000059
 43
19647.51077784086
 44
-10604.24917492481
 45
0.0000000000049953
 46
-48.33333031336451
 79
     2
 49
3.921713481170173
 49
-141.0782912872014
 53
194.9324645996163
 43
19738.99342791065
 44
-10580.65851459026
 45
-144.9993095038583
 46
-48.3359814437894
 79
     2
 49
89.31476672155326
 49
-661.0203426301995
 53
165.0675354003956
 43
19738.99342791065
 44
-10579.50650494601
 45
144.9993095038682
 46
-48.33598144375943
 79
     2
 49
89.31476672155327
 49
-661.0203426301996
 53
105.2551193237315
 43
19768.34411053841
 44
-10601.01281834393
 45
-0.0000012956450574
 46
-48.33332879607747
 79
     2
 49
6.569094531198019
 49
-544.5157172931704
 53
254.7448883056749
 43
19768.34411053841
 44
-10607.4855315057
 45
0.0000077316271012
 46
-48.33332879607688
 79
     2
 49
6.569094531198019
 49
-544.5157172931704
 53
105.2551193237315
 43
19625.07254372742
 44
-10589.6564904144
 45
-0.0000012956450574
 46
-48.33332879607747
 79
     2
 49
6.569094531198019
 49
-544.5157172931704
 53
74.74488067626852
 43
19623.34410577004
 44
-10576.84616031745
 45
-0.0000012956450522
 46
48.33332879607747
 79
     2
 49
6.569094531198019
 49
-544.5157172931704
 53
120.9637565612813
 43
19766.61566696329
 44
-10594.67520119269
 45
0.0000003210802688
 46
-48.33333866514959
 79
     2
 49
6.310936569088454
 49
-275.5184006697027
 53
239.0362396240333
 43
19766.61566696329
 44
-10613.85890512689
 45
-0.0000035390569272
 46
-48.33333866514947
 79
     2
 49
6.310936569088454
 49
-275.5184006697027
 53
120.9637565612813
 43
19628.3195063815
 44
-10595.06806430042
 45
0.0000003210802688
 46
-48.33333866514959
 79
     2
 49
6.310936569088454
 49
-275.5184006697027
 53
59.03624343871866
 43
19625.07254372742
 44
-10570.50852912187
 45
0.0000003210802765
 46
48.33333866514959
 79
     2
 49
6.310936569088454
 49
-275.5184006697027
 53
135.000000000003
 43
19763.36871079122
 44
-10589.26362730667
 45
0.000000000002483
 46
-48.33334305883081
 79
     2
 49
5.366870520176406
 49
-199.6941079006228
 53
225.0000000000089
 43
19763.36871079122
 44
-10619.23472254296
 45
0.0000000000075056
 46
-48.33334305883082
 79
     2
 49
5.366870520176406
 49
-199.6941079006228
 53
135.000000000003
 43
19632.11444220958
 44
-10598.86300488196
 45
0.000000000002483
 46
-48.33334305883081
 79
     2
 49
5.366870520176406
 49
-199.6941079006228
 53
44.99999999999704
 43
19628.3195063815
 44
-10565.09695350731
 45
0.0000000000025036
 46
48.33334305883081
 79
     2
 49
5.366870520176406
 49
-199.6941079006228
 53
146.309932708744
 43
19759.5737706418
 44
-10585.46867246471
 45
0.000005471509411
 46
-48.33333736175739
 79
     2
 49
5.629320866217142
 49
-168.6389897490858
 53
213.6900634765706
 43
19759.5737706418
 44
-10623.02967738492
 45
-0.0000086894860024
 46
-48.33333736175692
 79
     2
 49
5.629320866217142
 49
-168.6389897490858
 53
146.309932708744
 43
19636.79832889163
 44
-10601.98559427479
 45
0.000005471509411
 46
-48.33333736175739
 79
     2
 49
5.629320866217142
 49
-168.6389897490858
 53
33.69006729125606
 43
19632.11444220958
 44
-10561.30200039389
 45
0.0000054715094032
 46
48.33333736175739
 79
     2
 49
5.629320866217142
 49
-168.6389897490858
 53
161.5650482177782
 43
19754.8898934667
 44
-10582.34608307188
 45
0.0000024231020311
 46
-48.3333407928251
 79
     2
 49
7.158070278124811
 49
-145.6853618847208
 53
198.4349517822336
 43
19754.8898934667
 44
-10626.15226677775
 45
-0.0000024230920451
 46
-48.3333407928251
 79
     2
 49
7.158070278124811
 49
-145.6853618847208
 53
161.5650482177782
 43
19643.58906435969
 44
-10604.24917492481
 45
0.0000024231020311
 46
-48.3333407928251
 79
     2
 49
7.158070278124811
 49
-145.6853618847208
 53
18.43495178222185
 43
19636.79832889163
 44
-10558.17942655788
 45
0.0000024231020286
 46
48.3333407928251
 79
     2
 49
7.158070278124811
 49
-145.6853618847208
 53
173.6598052978571
 43
19744.17745229587
 44
-10628.41583316736
 45
290.0000241734639
 46
-48.33334860488391
 79
     2
 49
5.215925790533547
 49
-432.4610318302621
 53
186.3401947021548
 43
19744.17745229587
 44
-10580.08251668227
 45
-290.0000241734539
 46
-48.33334860494386
 79
     2
 49
5.215925790533546
 49
-432.461031830262
 53
353.659820556658
 43
19647.51077784086
 44
-10604.24917492481
 45
-290.0000370454129
 46
48.33327137314426
 79
     2
 49
5.215925790533547
 49
-432.4610318302621
 53
6.340194702142933
 43
19647.51077784086
 44
-10604.24917492481
 45
290.0000241734639
 46
48.33334860488388
 79
     2
 49
5.215925790533547
 49
-432.4610318302621
 98
        0
1001
ACAD
1010
19768.34411053841
1020
-10604.24917492481
1030
0.0
  0
LWPOLYLINE
  5
21D
330
1F
100
AcDbEntity
  8
Ech.1_5
  6
Continuous
 62
   190
370
    15
390
5F
100
AcDbPolyline
 90
        9
 70
     0
 43
0.0
 10
19768.34411053841
 20
-10604.24917492481
 10
19768.34411053841
 20
-10416.94403954943
 10
19623.34411053841
 20
-10416.94403954943
 10
19623.34411053841
 20
-10604.24769863697
 10
19673.95448405602
 20
-10604.24769863697
 10
19690.44083813753
 20
-10622.22605022999
 10
19676.33089811972
 20
-10586.27035030934
 10
19692.81640127563
 20
-10604.24917492481
 10
19768.34411053841
 20
-10604.24917492481
  0
HATCH
  5
21E
330
1F
100
AcDbEntity
  8
Ech.1_5
  6
Continuous
 62
   254
420
 16643007
440
 33554687
370
     5
390
5F
100
AcDbHatch
 10
0.0
 20
0.0
 30
0.0
210
0.0
220
0.0
230
1.0
  2
SOLID
 70
     1
 71
     0
 91
        1
 92
        3
 72
     0
 73
     1
 93
        4
 10
19778.3441105384
 20
-10085.94403929896
 10
19778.3441105384
 20
-9634.677091092875
 10
19828.3441105384
 20
-9634.677091092875
 10
19828.3441105384
 20
-10085.94403929896
 97
        0
 75
     0
 76
     1
 98
        0
  0
HATCH
  5
21F
330
1F
100
AcDbEntity
  8
Ech.1_5
  6
Continuous
 62
     8
440
 33554687
370
    20
390
5F
100
AcDbHatch
 10
0.0
 20
0.0
 30
0.0
210
0.0
220
0.0
230
1.0
  2
CwHatchPattern_201
 70
     0
 71
     0
 91
        1
 92
        3
 72
     0
 73
     1
 93
        4
 10
19778.3441105384
 20
-10085.94403929896
 10
19778.3441105384
 20
-9634.677091092875
 10
19828.3441105384
 20
-9634.677091092875
 10
19828.3441105384
 20
-10085.94403929896
 97
        0
 75
     0
 76
     2
 52
90.0
 41
1.0
 77
     0
 78
    29
 53
90.0
 43
19778.3441105384
 44
-10087.06002429016
 45
-50.0
 46
0.0000000000000031
 79
     2
 49
2.231969982385635
 49
-6.101365089416504
 53
180.0000000000059
 43
19771.36309056465
 44
-10094.27736945338
 45
0.0000000000017225
 46
-16.66666507720947
 79
     2
 49
1.352314949035645
 49
-48.64768505096436
 53
180.0000000000059
 43
19736.6774454612
 44
-10085.94403929896
 45
0.0000000000017225
 46
-16.66666507720947
 79
     2
 49
1.352314949035645
 49
-48.64768505096436
 53
194.9324645996163
 43
19768.22318582718
 44
-10077.80932910628
 45
-49.99976025362398
 46
-16.66757926008454
 79
     2
 49
30.79819440841674
 49
-227.9380416870117
 53
165.0675354003956
 43
19768.22318582718
 44
-10077.41208441443
 45
49.99976025362742
 46
-16.66757926007421
 79
     2
 49
30.79819440841675
 49
-227.9380416870117
 53
105.2551193237315
 43
19778.3441105384
 44
-10084.82805430777
 45
-0.000000446774143
 46
-16.66666455400706
 79
     2
 49
2.265204936265945
 49
-187.7640342712402
 53
254.7448883056749
 43
19778.3441105384
 44
-10087.06002429016
 45
0.0000026660782231
 46
-16.66666455400686
 79
     2
 49
2.265204936265945
 49
-187.7640342712402
 53
105.2551193237315
 43
19728.94012360756
 44
-10080.91207928844
 45
-0.000000446774143
 46
-16.66666455400706
 79
     2
 49
2.265204936265945
 49
-187.7640342712402
 53
74.74488067626852
 43
19728.3441105384
 44
-10076.49472422786
 45
-0.0000004467741412
 46
16.66666455400706
 79
     2
 49
2.265204936265945
 49
-187.7640342712402
 53
120.9637565612813
 43
19777.7480955321
 44
-10082.64266915507
 45
0.0000001107173304
 46
-16.66666795713527
 79
     2
 49
2.176184952259064
 49
-95.0063419342041
 53
239.0362396240333
 43
19777.7480955321
 44
-10089.25773925967
 45
-0.0000012203644175
 46
-16.66666795713522
 79
     2
 49
2.176184952259064
 49
-95.0063419342041
 53
120.9637565612813
 43
19730.05976586525
 44
-10082.77813918777
 45
0.0000001107173304
 46
-16.66666795713527
 79
     2
 49
2.176184952259064
 49
-95.0063419342041
 53
59.03624343871866
 43
19728.94012360756
 44
-10074.30933423228
 45
0.0000001107173331
 46
16.66666795713527
 79
     2
 49
2.176184952259064
 49
-95.0063419342041
 53
135.000000000003
 43
19776.62845550958
 44
-10080.77660925574
 45
0.0000000000008562
 46
-16.66666947219771
 79
     2
 49
1.850644946098328
 49
-68.86003494262695
 53
225.0000000000089
 43
19776.62845550958
 44
-10091.11146934218
 45
0.0000000000025882
 46
-16.66666947219771
 79
     2
 49
1.850644946098328
 49
-68.86003494262695
 53
135.000000000003
 43
19731.36836438362
 44
-10084.08673934526
 45
0.0000000000008562
 46
-16.66666947219771
 79
     2
 49
1.850644946098328
 49
-68.86003494262695
 53
44.99999999999704
 43
19730.05976586525
 44
-10072.44327373691
 45
0.0000000000008633
 46
16.66666947219771
 79
     2
 49
1.850644946098328
 49
-68.86003494262695
 53
146.309932708744
 43
19775.3198555011
 44
-10079.46800418086
 45
0.000001886727321
 46
-16.6666675076897
 79
     2
 49
1.941145062446594
 49
-58.15137386322021
 53
213.6900634765706
 43
19775.3198555011
 44
-10092.42007441707
 45
-0.0000029963743851
 46
-16.66666750768953
 79
     2
 49
1.941145062446594
 49
-58.15137386322021
 53
146.309932708744
 43
19732.98349766914
 44
-10085.1634942729
 45
0.000001886727321
 46
-16.6666675076897
 79
     2
 49
1.941145062446594
 49
-58.15137386322021
 53
33.69006729125606
 43
19731.36836438362
 44
-10071.13466925807
 45
0.0000018867273184
 46
16.6666675076897
 79
     2
 49
1.941145062446594
 49
-58.15137386322021
 53
161.5650482177782
 43
19773.70472549383
 44
-10078.39124925323
 45
0.000000835552397
 46
-16.66666869081645
 79
     2
 49
2.468300014734268
 49
-50.23633003234863
 53
198.4349517822336
 43
19773.70472549383
 44
-10093.4968293447
 45
-0.0000008355489536
 46
-16.66666869081645
 79
     2
 49
2.468300014734268
 49
-50.23633003234863
 53
161.5650482177782
 43
19735.32513051216
 44
-10085.94403929896
 45
0.000000835552397
 46
-16.66666869081645
 79
     2
 49
2.468300014734268
 49
-50.23633003234863
 53
18.43495178222185
 43
19732.98349766914
 44
-10070.05791969485
 45
0.0000008355523962
 46
16.66666869081645
 79
     2
 49
2.468300014734268
 49
-50.23633003234863
 53
173.6598052978571
 43
19770.01078038399
 44
-10094.27736945338
 45
100.0000050471449
 46
-16.66667138462975
 79
     2
 49
1.798595041036606
 49
-149.1244888305664
 53
186.3401947021548
 43
19770.01078038399
 44
-10077.61070914454
 45
-100.0000050471415
 46
-16.66667138465042
 79
     2
 49
1.798595041036606
 49
-149.1244888305664
 53
353.659820556658
 43
19736.6774454612
 44
-10085.94403929896
 45
-100.0000094857479
 46
16.66664475299626
 79
     2
 49
1.798595041036606
 49
-149.1244888305664
 53
6.340194702142933
 43
19736.6774454612
 44
-10085.94403929896
 45
100.0000050471449
 46
16.66667138462974
 79
     2
 49
1.798595041036606
 49
-149.1244888305664
 98
        0
1001
ACAD
1010
19778.3441105384
1020
-10085.94403929896
1030
0.0
  0
LWPOLYLINE
  5
220
330
1F
100
AcDbEntity
  8
Ech.1_5
  6
Continuous
 62
   190
370
    15
390
5F
100
AcDbPolyline
 90
        5
 70
     0
 43
0.0
 10
19778.3441105384
 20
-10085.94403929896
 10
19778.3441105384
 20
-9634.677091092875
 10
19828.3441105384
 20
-9634.677091092875
 10
19828.3441105384
 20
-10085.94403929896
 10
19778.3441105384
 20
-10085.94403929896
  0
HATCH
  5
221
330
1F
100
AcDbEntity
  8
Ech.1_5
  6
Continuous
 62
   254
420
 16643007
440
 33554687
370
     5
390
5F
100
AcDbHatch
 10
0.0
 20
0.0
 30
0.0
210
0.0
220
0.0
230
1.0
  2
SOLID
 70
     1
 71
     0
 91
        1
 92
        3
 72
     0
 73
     1
 93
        4
 10
19778.3441105384
 20
-10380.74319441828
 10
19778.3441105384
 20
-10604.24917492481
 10
19828.3441105384
 20
-10604.24917492481
 10
19828.3441105384
 20
-10380.74319441828
 97
        0
 75
     0
 76
     1
 98
        0
  0
HATCH
  5
222
330
1F
100
AcDbEntity
  8
Ech.1_5
  6
Continuous
 62
     8
440
 33554687
370
    20
390
5F
100
AcDbHatch
 10
0.0
 20
0.0
 30
0.0
210
0.0
220
0.0
230
1.0
  2
CwHatchPattern_201
 70
     0
 71
     0
 91
        1
 92
        3
 72
     0
 73
     1
 93
        4
 10
19778.3441105384
 20
-10380.74319441828
 10
19778.3441105384
 20
-10604.24917492481
 10
19828.3441105384
 20
-10604.24917492481
 10
19828.3441105384
 20
-10380.74319441828
 97
        0
 75
     0
 76
     2
 52
270.0
 41
1.0
 77
     0
 78
    29
 53
270.0
 43
19778.3441105384
 44
-10379.62720942708
 45
50.0
 46
0.0000000000000031
 79
     2
 49
2.231969982385635
 49
-6.101365089416504
 53
0.0000000000059286
 43
19785.32513051216
 44
-10372.40986426386
 45
-0.0000000000017245
 46
16.66666507720947
 79
     2
 49
1.352314949035645
 49
-48.64768505096436
 53
0.0000000000059286
 43
19820.01077561561
 44
-10380.74319441828
 45
-0.0000000000017245
 46
16.66666507720947
 79
     2
 49
1.352314949035645
 49
-48.64768505096436
 53
14.93246459961628
 43
19788.46503524963
 44
-10388.87790461096
 45
49.99976025362398
 46
16.66757926008454
 79
     2
 49
30.79819440841674
 49
-227.9380416870117
 53
345.0675354003956
 43
19788.46503524963
 44
-10389.2751493028
 45
-49.99976025362743
 46
16.66757926007419
 79
     2
 49
30.79819440841675
 49
-227.9380416870117
 53
285.2551193237315
 43
19778.3441105384
 44
-10381.85917940947
 45
0.0000004467741412
 46
16.66666455400706
 79
     2
 49
2.265204936265945
 49
-187.7640342712402
 53
74.74488830567492
 43
19778.3441105384
 44
-10379.62720942708
 45
-0.0000026660782186
 46
16.66666455400686
 79
     2
 49
2.265204936265945
 49
-187.7640342712402
 53
285.2551193237315
 43
19827.74809746925
 44
-10385.7751544288
 45
0.0000004467741412
 46
16.66666455400706
 79
     2
 49
2.265204936265945
 49
-187.7640342712402
 53
254.7448806762685
 43
19828.3441105384
 44
-10390.19250948938
 45
0.000000446774143
 46
-16.66666455400706
 79
     2
 49
2.265204936265945
 49
-187.7640342712402
 53
300.9637565612813
 43
19778.94012554471
 44
-10384.04456456217
 45
-0.0000001107173331
 46
16.66666795713527
 79
     2
 49
2.176184952259064
 49
-95.0063419342041
 53
59.03623962403325
 43
19778.94012554471
 44
-10377.42949445757
 45
0.0000012203644237
 46
16.66666795713522
 79
     2
 49
2.176184952259064
 49
-95.0063419342041
 53
300.9637565612813
 43
19826.62845521156
 44
-10383.90909452947
 45
-0.0000001107173331
 46
16.66666795713527
 79
     2
 49
2.176184952259064
 49
-95.0063419342041
 53
239.0362434387187
 43
19827.74809746925
 44
-10392.37789948496
 45
-0.0000001107173304
 46
-16.66666795713527
 79
     2
 49
2.176184952259064
 49
-95.0063419342041
 53
315.000000000003
 43
19780.05976556722
 44
-10385.9106244615
 45
-0.0000000000008633
 46
16.66666947219771
 79
     2
 49
1.850644946098328
 49
-68.86003494262695
 53
45.0000000000089
 43
19780.05976556722
 44
-10375.57576437505
 45
-0.0000000000025899
 46
16.66666947219771
 79
     2
 49
1.850644946098328
 49
-68.86003494262695
 53
315.000000000003
 43
19825.31985669319
 44
-10382.60049437197
 45
-0.0000000000008633
 46
16.66666947219771
 79
     2
 49
1.850644946098328
 49
-68.86003494262695
 53
224.999999999997
 43
19826.62845521156
 44
-10394.24395998033
 45
-0.0000000000008562
 46
-16.66666947219771
 79
     2
 49
1.850644946098328
 49
-68.86003494262695
 53
326.3099327087439
 43
19781.36836557571
 44
-10387.21922953638
 45
-0.0000018867273184
 46
16.6666675076897
 79
     2
 49
1.941145062446594
 49
-58.15137386322021
 53
33.69006347657064
 43
19781.36836557571
 44
-10374.26715930017
 45
0.0000029963743824
 46
16.66666750768953
 79
     2
 49
1.941145062446594
 49
-58.15137386322021
 53
326.3099327087439
 43
19823.70472340767
 44
-10381.52373944434
 45
-0.0000018867273184
 46
16.6666675076897
 79
     2
 49
1.941145062446594
 49
-58.15137386322021
 53
213.690067291256
 43
19825.31985669319
 44
-10395.55256445917
 45
-0.000001886727321
 46
-16.6666675076897
 79
     2
 49
1.941145062446594
 49
-58.15137386322021
 53
341.5650482177782
 43
19782.98349558298
 44
-10388.29598446401
 45
-0.0000008355523962
 46
16.66666869081645
 79
     2
 49
2.468300014734268
 49
-50.23633003234863
 53
18.43495178223369
 43
19782.98349558298
 44
-10373.19040437254
 45
0.0000008355489509
 46
16.66666869081645
 79
     2
 49
2.468300014734268
 49
-50.23633003234863
 53
341.5650482177782
 43
19821.36309056465
 44
-10380.74319441828
 45
-0.0000008355523962
 46
16.66666869081645
 79
     2
 49
2.468300014734268
 49
-50.23633003234863
 53
198.4349517822218
 43
19823.70472340767
 44
-10396.62931402239
 45
-0.000000835552397
 46
-16.66666869081645
 79
     2
 49
2.468300014734268
 49
-50.23633003234863
 53
353.6598052978571
 43
19786.67744069282
 44
-10372.40986426386
 45
-100.0000050471449
 46
16.66667138462974
 79
     2
 49
1.798595041036606
 49
-149.1244888305664
 53
6.340194702154776
 43
19786.67744069282
 44
-10389.07652457269
 45
100.0000050471415
 46
16.66667138465041
 79
     2
 49
1.798595041036606
 49
-149.1244888305664
 53
173.659820556658
 43
19820.01077561561
 44
-10380.74319441828
 45
100.0000094857479
 46
-16.66664475299625
 79
     2
 49
1.798595041036606
 49
-149.1244888305664
 53
186.3401947021429
 43
19820.01077561561
 44
-10380.74319441828
 45
-100.0000050471449
 46
-16.66667138462975
 79
     2
 49
1.798595041036606
 49
-149.1244888305664
 98
        0
1001
ACAD
1010
19778.3441105384
1020
-10380.74319441828
1030
0.0
  0
LWPOLYLINE
  5
223
330
1F
100
AcDbEntity
  8
Ech.1_5
  6
Continuous
 62
   190
370
    15
390
5F
100
AcDbPolyline
 90
        5
 70
     0
 43
0.0
 10
19778.3441105384
 20
-10380.74319441828
 10
19778.3441105384
 20
-10604.24917492481
 10
19828.3441105384
 20
-10604.24917492481
 10
19828.3441105384
 20
-10380.74319441828
 10
19778.3441105384
 20
-10380.74319441828
  0
HATCH
  5
224
330
1F
100
AcDbEntity
  8
Ech.1_5
  6
Continuous
 62
   254
420
 16643007
440
 33554687
370
     5
390
5F
100
AcDbHatch
 10
0.0
 20
0.0
 30
0.0
210
0.0
220
0.0
230
1.0
  2
SOLID
 70
     1
 71
     0
 91
        1
 92
        3
 72
     0
 73
     1
 93
        4
 10
19673.34411053841
 20
-10326.94403954943
 10
19673.34411053841
 20
-10123.94403954943
 10
19623.34411053841
 20
-10123.94403954943
 10
19623.34411053841
 20
-10326.94403954943
 97
        0
 75
     0
 76
     1
 98
        0
  0
HATCH
  5
225
330
1F
100
AcDbEntity
  8
Ech.1_5
  6
Continuous
 62
     8
440
 33554687
370
    20
390
5F
100
AcDbHatch
 10
0.0
 20
0.0
 30
0.0
210
0.0
220
0.0
230
1.0
  2
CwHatchPattern_201
 70
     0
 71
     0
 91
        1
 92
        3
 72
     0
 73
     1
 93
        4
 10
19673.34411053841
 20
-10326.94403954943
 10
19673.34411053841
 20
-10123.94403954943
 10
19623.34411053841
 20
-10123.94403954943
 10
19623.34411053841
 20
-10326.94403954943
 97
        0
 75
     0
 76
     2
 52
90.0
 41
1.0
 77
     0
 78
    29
 53
90.0
 43
19673.34411053841
 44
-10328.06002454063
 45
-50.0
 46
0.0000000000000031
 79
     2
 49
2.231969982385635
 49
-6.101365089416504
 53
180.0000000000059
 43
19666.36309056466
 44
-10335.27736970385
 45
0.0000000000017225
 46
-16.66666507720947
 79
     2
 49
1.352314949035645
 49
-48.64768505096436
 53
180.0000000000059
 43
19631.6774454612
 44
-10326.94403954943
 45
0.0000000000017225
 46
-16.66666507720947
 79
     2
 49
1.352314949035645
 49
-48.64768505096436
 53
194.9324645996163
 43
19663.22318582718
 44
-10318.80932935675
 45
-49.99976025362398
 46
-16.66757926008454
 79
     2
 49
30.79819440841674
 49
-227.9380416870117
 53
165.0675354003956
 43
19663.22318582718
 44
-10318.4120846649
 45
49.99976025362742
 46
-16.66757926007421
 79
     2
 49
30.79819440841675
 49
-227.9380416870117
 53
105.2551193237315
 43
19673.34411053841
 44
-10325.82805455824
 45
-0.000000446774143
 46
-16.66666455400706
 79
     2
 49
2.265204936265945
 49
-187.7640342712402
 53
254.7448883056749
 43
19673.34411053841
 44
-10328.06002454063
 45
0.0000026660782231
 46
-16.66666455400686
 79
     2
 49
2.265204936265945
 49
-187.7640342712402
 53
105.2551193237315
 43
19623.94012360756
 44
-10321.9120795389
 45
-0.000000446774143
 46
-16.66666455400706
 79
     2
 49
2.265204936265945
 49
-187.7640342712402
 53
74.74488067626852
 43
19623.34411053841
 44
-10317.49472447833
 45
-0.0000004467741412
 46
16.66666455400706
 79
     2
 49
2.265204936265945
 49
-187.7640342712402
 53
120.9637565612813
 43
19672.74809553211
 44
-10323.64266940554
 45
0.0000001107173304
 46
-16.66666795713527
 79
     2
 49
2.176184952259064
 49
-95.0063419342041
 53
239.0362396240333
 43
19672.74809553211
 44
-10330.25773951014
 45
-0.0000012203644175
 46
-16.66666795713522
 79
     2
 49
2.176184952259064
 49
-95.0063419342041
 53
120.9637565612813
 43
19625.05976586526
 44
-10323.77813943823
 45
0.0000001107173304
 46
-16.66666795713527
 79
     2
 49
2.176184952259064
 49
-95.0063419342041
 53
59.03624343871866
 43
19623.94012360756
 44
-10315.30933448275
 45
0.0000001107173331
 46
16.66666795713527
 79
     2
 49
2.176184952259064
 49
-95.0063419342041
 53
135.000000000003
 43
19671.62845550959
 44
-10321.77660950621
 45
0.0000000000008562
 46
-16.66666947219771
 79
     2
 49
1.850644946098328
 49
-68.86003494262695
 53
225.0000000000089
 43
19671.62845550959
 44
-10332.11146959265
 45
0.0000000000025882
 46
-16.66666947219771
 79
     2
 49
1.850644946098328
 49
-68.86003494262695
 53
135.000000000003
 43
19626.36836438363
 44
-10325.08673959573
 45
0.0000000000008562
 46
-16.66666947219771
 79
     2
 49
1.850644946098328
 49
-68.86003494262695
 53
44.99999999999704
 43
19625.05976586526
 44
-10313.44327398738
 45
0.0000000000008633
 46
16.66666947219771
 79
     2
 49
1.850644946098328
 49
-68.86003494262695
 53
146.309932708744
 43
19670.3198555011
 44
-10320.46800443133
 45
0.000001886727321
 46
-16.6666675076897
 79
     2
 49
1.941145062446594
 49
-58.15137386322021
 53
213.6900634765706
 43
19670.3198555011
 44
-10333.42007466754
 45
-0.0000029963743851
 46
-16.66666750768953
 79
     2
 49
1.941145062446594
 49
-58.15137386322021
 53
146.309932708744
 43
19627.98349766915
 44
-10326.16349452337
 45
0.000001886727321
 46
-16.6666675076897
 79
     2
 49
1.941145062446594
 49
-58.15137386322021
 53
33.69006729125606
 43
19626.36836438363
 44
-10312.13466950854
 45
0.0000018867273184
 46
16.6666675076897
 79
     2
 49
1.941145062446594
 49
-58.15137386322021
 53
161.5650482177782
 43
19668.70472549384
 44
-10319.39124950369
 45
0.000000835552397
 46
-16.66666869081645
 79
     2
 49
2.468300014734268
 49
-50.23633003234863
 53
198.4349517822336
 43
19668.70472549384
 44
-10334.49682959517
 45
-0.0000008355489536
 46
-16.66666869081645
 79
     2
 49
2.468300014734268
 49
-50.23633003234863
 53
161.5650482177782
 43
19630.32513051217
 44
-10326.94403954943
 45
0.000000835552397
 46
-16.66666869081645
 79
     2
 49
2.468300014734268
 49
-50.23633003234863
 53
18.43495178222185
 43
19627.98349766915
 44
-10311.05791994532
 45
0.0000008355523962
 46
16.66666869081645
 79
     2
 49
2.468300014734268
 49
-50.23633003234863
 53
173.6598052978571
 43
19665.01078038399
 44
-10335.27736970385
 45
100.0000050471449
 46
-16.66667138462975
 79
     2
 49
1.798595041036606
 49
-149.1244888305664
 53
186.3401947021548
 43
19665.01078038399
 44
-10318.61070939501
 45
-100.0000050471415
 46
-16.66667138465042
 79
     2
 49
1.798595041036606
 49
-149.1244888305664
 53
353.659820556658
 43
19631.6774454612
 44
-10326.94403954943
 45
-100.0000094857479
 46
16.66664475299626
 79
     2
 49
1.798595041036606
 49
-149.1244888305664
 53
6.340194702142933
 43
19631.6774454612
 44
-10326.94403954943
 45
100.0000050471449
 46
16.66667138462974
 79
     2
 49
1.798595041036606
 49
-149.1244888305664
 98
        0
1001
ACAD
1010
19673.34411053841
1020
-10326.94403954943
1030
0.0
  0
LWPOLYLINE
  5
226
330
1F
100
AcDbEntity
  8
Ech.1_5
  6
Continuous
 62
   190
370
    15
390
5F
100
AcDbPolyline
 90
        5
 70
     0
 43
0.0
 10
19673.34411053841
 20
-10326.94403954943
 10
19673.34411053841
 20
-10123.94403954943
 10
19623.34411053841
 20
-10123.94403954943
 10
19623.34411053841
 20
-10326.94403954943
 10
19673.34411053841
 20
-10326.94403954943
  0
LWPOLYLINE
  5
227
102
{ACAD_REACTORS
330
228
102
}
330
1F
100
AcDbEntity
  8
Ech.1_5
  6
Continuous
 62
   190
370
    15
390
5F
100
AcDbPolyline
 90
        5
 70
     0
 43
0.0
 10
20180.53154230327
 20
-10831.80898437359
 10
20180.53154230327
 20
-9476.808984373594
 10
19195.53154230327
 20
-9476.808984373594
 10
19195.53154230327
 20
-10831.80898437359
 10
20180.53154230327
 20
-10831.80898437359
  0
LWPOLYLINE
  5
229
102
{ACAD_REACTORS
330
228
330
22A
330
22B
102
}
330
1F
100
AcDbEntity
  8
Ech.1_5
  6
Continuous
 62
   190
370
    15
390
5F
100
AcDbPolyline
 90
        5
 70
     0
 43
0.0
 10
19195.53154230327
 20
-10694.39591230855
 10
20180.53154230327
 20
-10694.39591230855
 10
20180.53154230327
 20
-10831.80898437359
 10
19195.53154230327
 20
-10831.80898437359
 10
19195.53154230327
 20
-10694.39591230855
  0
LWPOLYLINE
  5
22C
102
{ACAD_REACTORS
330
228
330
22A
330
22B
102
}
330
1F
100
AcDbEntity
  8
Ech.1_5
  6
Continuous
 62
   190
370
    15
390
5F
100
AcDbPolyline
 90
        5
 70
     0
 43
0.0
 10
20180.53154230327
 20
-9572.325947379359
 10
19195.53154230327
 20
-9572.325947379359
 10
19195.53154230327
 20
-9476.80898437371
 10
20180.53154230327
 20
-9476.80898437371
 10
20180.53154230327
 20
-9572.325947379359
  0
LWPOLYLINE
  5
22D
102
{ACAD_REACTORS
330
228
330
22A
330
22B
102
}
330
1F
100
AcDbEntity
  8
Ech.1_5
  6
Continuous
 62
   190
370
    15
390
5F
100
AcDbPolyline
 90
        5
 70
     0
 43
0.0
 10
20180.53154230327
 20
-10716.39591230855
 10
19195.53154230327
 20
-10716.39591230855
 10
19195.53154230327
 20
-10694.39591230855
 10
20180.53154230327
 20
-10694.39591230855
 10
20180.53154230327
 20
-10716.39591230855
  0
LWPOLYLINE
  5
22E
102
{ACAD_REACTORS
330
228
330
22A
330
22B
102
}
330
1F
100
AcDbEntity
  8
Ech.1_5
  6
Continuous
 62
   190
370
    15
390
5F
100
AcDbPolyline
 90
        5
 70
     0
 43
0.0
 10
20180.53154230327
 20
-10773.26705753888
 10
19195.53154230327
 20
-10773.26705753888
 10
19195.53154230327
 20
-10749.54002922816
 10
20180.53154230327
 20
-10749.54002922816
 10
20180.53154230327
 20
-10773.26705753888
  0
LINE
  5
22F
102
{ACAD_REACTORS
330
228
330
22A
330
22B
102
}
330
1F
100
AcDbEntity
  8
Ech.1_5
  6
Continuous
 62
   190
370
    15
390
5F
100
AcDbLine
 10
19383.73610426622
 20
-10694.39591230855
 30
0.0
 11
19383.73610426622
 21
-10716.39591230855
 31
0.0
  0
LINE
  5
230
102
{ACAD_REACTORS
330
228
330
22A
330
22B
102
}
330
1F
100
AcDbEntity
  8
Ech.1_5
  6
Continuous
 62
   190
370
    15
390
5F
100
AcDbLine
 10
20040.73420689677
 20
-10694.39591230855
 30
0.0
 11
20040.73420689677
 21
-10716.39591230855
 31
0.0
  0
LINE
  5
231
102
{ACAD_REACTORS
330
228
330
22A
330
22B
102
}
330
1F
100
AcDbEntity
  8
Ech.1_5
  6
Continuous
 62
   190
370
    15
390
5F
100
AcDbLine
 10
19539.89132226157
 20
-10694.39591230855
 30
0.0
 11
19539.89132226157
 21
-10716.39591230855
 31
0.0
  0
IMAGE
  5
234
102
{ACAD_REACTORS
330
228
330
22B
102
}
330
1F
100
AcDbEntity
  8
Ech.1_5
  6
Continuous
390
5F
160
                 8
310
0800000000000000
100
AcDbRasterImage
 90
        0
 10
19386.59579104414
 20
-10826.77343689254
 30
0.0
 11
0.283455151826311
 21
0.0
 31
0.0
 12
0.0
 22
0.2834551571498179
 32
0.0
 13
247.0
 23
171.0
340
233
 70
     7
280
     0
281
    50
282
    50
283
     0
360
235
 71
     1
 91
        2
 14
-0.5
 24
-0.5
 14
246.5
 24
170.5
290
     0
  0
IMAGE
  5
237
102
{ACAD_REACTORS
330
228
102
}
330
1F
100
AcDbEntity
  8
Ech.1_5
  6
Continuous
390
5F
160
                 8
310
0800000000000000
100
AcDbRasterImage
 90
        0
 10
19647.67346228613
 20
-10829.32804919634
 30
0.0
 11
0.4035808001714759
 21
0.0
 31
0.0
 12
0.0
 22
0.4035808103925179
 32
0.0
 13
200.0
 23
133.0
340
236
 70
     7
280
     0
281
    50
282
    50
283
     0
360
238
 71
     1
 91
        2
 14
-0.5
 24
-0.5
 14
199.5
 24
132.5
290
     0
  0
LINE
  5
239
330
1F
100
AcDbEntity
  8
Ech.1_5
  6
Continuous
 62
   190
370
    15
390
5F
100
AcDbLine
 10
20180.53154230327
 20
-9506.80898437371
 30
0.0
 11
19195.53154230327
 21
-9506.80898437371
 31
0.0
  0
LWPOLYLINE
  5
23A
330
1F
100
AcDbEntity
  8
Ech.1_5
 62
   190
370
    15
390
5F
100
AcDbPolyline
 90
        5
 70
     0
 43
0.0
 10
20022.64302658787
 20
-9595.904140967788
 10
20157.07180557382
 20
-9595.904140967788
 10
20157.07180557382
 20
-9652.627099779638
 10
20022.64302658787
 20
-9652.627099779638
 10
20022.64302658787
 20
-9595.904140967788
  0
HATCH
  5
23B
330
1F
100
AcDbEntity
  8
Ech.1_5
  6
Continuous
 62
   190
440
 33554687
370
    15
390
5F
100
AcDbHatch
 10
0.0
 20
0.0
 30
0.0
210
0.0
220
0.0
230
1.0
  2
SOLID
 70
     1
 71
     0
 91
        1
 92
        3
 72
     0
 73
     1
 93
        4
 10
20040.92307237318
 20
-9629.560952096741
 10
20090.92307237318
 20
-9629.560952096741
 10
20090.92307237318
 20
-9622.145814562828
 10
20040.92307237318
 20
-9622.145814562828
 97
        0
 75
     0
 76
     1
 98
        0
  0
LWPOLYLINE
  5
23C
330
1F
100
AcDbEntity
  8
Ech.1_5
 62
   190
370
    15
390
5F
100
AcDbPolyline
 90
        5
 70
     0
 43
0.0
 10
20040.92307237318
 20
-9629.560952096741
 10
20090.92307237318
 20
-9629.560952096741
 10
20090.92307237318
 20
-9622.145814562828
 10
20040.92307237318
 20
-9622.145814562828
 10
20040.92307237318
 20
-9629.560952096741
  0
LWPOLYLINE
  5
23D
330
1F
100
AcDbEntity
  8
Ech.1_5
 62
   190
370
    15
390
5F
100
AcDbPolyline
 90
        5
 70
     0
 43
0.0
 10
20090.92307237318
 20
-9629.560952096741
 10
20140.92307237318
 20
-9629.560952096741
 10
20140.92307237318
 20
-9622.145814562828
 10
20090.92307237318
 20
-9622.145814562828
 10
20090.92307237318
 20
-9629.560952096741
  0
HATCH
  5
23E
330
1F
100
AcDbEntity
  8
Ech.1_5
  6
Continuous
 62
     1
440
 33554687
370
     5
390
5F
100
AcDbHatch
 10
0.0
 20
0.0
 30
0.0
210
0.0
220
0.0
230
1.0
  2
SOLID
 70
     1
 71
     0
 91
        1
 92
        3
 72
     0
 73
     1
 93
        4
 10
19614.34411053841
 20
-10042.94338246783
 10
19614.34411053841
 20
-9634.678720922282
 10
19601.84411053841
 20
-9634.678720922282
 10
19601.84411053841
 20
-10042.94403954943
 97
        0
 75
     0
 76
     1
 98
        0
  0
HATCH
  5
23F
330
1F
100
AcDbEntity
  8
Ech.1_5
  6
Continuous
 62
   190
440
 33554687
370
    15
390
5F
100
AcDbHatch
 10
0.0
 20
0.0
 30
0.0
210
0.0
220
0.0
230
1.0
  2
CwHatchPattern_74
 70
     0
 71
     0
 91
        1
 92
        3
 72
     0
 73
     1
 93
        4
 10
19614.34411053841
 20
-10042.94338246783
 10
19614.34411053841
 20
-9634.678720922282
 10
19601.84411053841
 20
-9634.678720922282
 10
19601.84411053841
 20
-10042.94403954943
 97
        0
 75
     0
 76
     2
 52
0.0
 41
3.0
 77
     0
 78
     3
 53
45.00000000000297
 43
0.0
 44
0.0
 45
-0.0000000000217213
 46
210.0
 79
     0
 53
45.00000000000297
 43
0.0
 44
54.0
 45
-0.0000000000217213
 46
210.0
 79
     0
 53
45.00000000000297
 43
0.0
 44
108.0
 45
-0.0000000000217213
 46
210.0
 79
     0
 98
        0
1001
ACAD
1010
0.0
1020
0.0
1030
0.0
  0
3DFACE
  5
240
330
1F
100
AcDbEntity
  8
Ech.1_5
  6
Continuous
 62
     7
370
    20
390
5F
100
AcDbFace
 10
19614.34411053841
 20
-10042.94338246783
 30
2500.0
 11
19614.34411053841
 21
-9634.678720922282
 31
2500.0
 12
19601.84411053841
 22
-9634.678720922282
 32
2500.0
 13
19601.84411053841
 23
-10042.94403954943
 33
2500.0
  0
HATCH
  5
242
330
1F
100
AcDbEntity
  8
Ech.1_5
  6
Continuous
 62
   254
420
 14407639
440
 33554687
370
     5
390
5F
100
AcDbHatch
 10
0.0
 20
0.0
 30
0.0
210
0.0
220
0.0
230
1.0
  2
SOLID
 70
     1
 71
     0
 91
        1
 92
        3
 72
     0
 73
     1
 93
        4
 10
19841.34411053841
 20
-10087.94403954943
 10
19841.34411053841
 20
-9634.677091092875
 10
19828.34411053841
 20
-9634.677091092875
 10
19828.34411053841
 20
-10087.94403954943
 97
        0
 75
     0
 76
     1
 98
        0
  0
HATCH
  5
243
330
1F
100
AcDbEntity
  8
Ech.1_5
  6
Continuous
 62
   190
440
 33554687
370
    15
390
241
100
AcDbHatch
 10
0.0
 20
0.0
 30
0.0
210
0.0
220
0.0
230
1.0
  2
CwHatchPattern_84
 70
     0
 71
     0
 91
        1
 92
        3
 72
     0
 73
     1
 93
        4
 10
19841.34411053841
 20
-10087.94403954943
 10
19841.34411053841
 20
-9634.677091092875
 10
19828.34411053841
 20
-9634.677091092875
 10
19828.34411053841
 20
-10087.94403954943
 97
        0
 75
     0
 76
     2
 52
0.0
 41
1.0
 77
     0
 78
     2
 53
0.0
 43
0.0
 44
0.0
 45
0.0
 46
70.0
 79
     2
 49
0.0
 49
-70.0
 53
0.0
 43
35.0
 44
35.0
 45
0.0
 46
70.0
 79
     2
 49
0.0
 49
-70.0
 98
        0
1001
ACAD
1010
0.0
1020
0.0
1030
0.0
  0
LWPOLYLINE
  5
244
330
1F
100
AcDbEntity
  8
Ech.1_5
  6
Continuous
 62
   190
370
    15
390
5F
100
AcDbPolyline
 90
        5
 70
     0
 43
0.0
 10
19841.34411053841
 20
-10087.94403954943
 10
19841.34411053841
 20
-9634.677091092875
 10
19828.34411053841
 20
-9634.677091092875
 10
19828.34411053841
 20
-10087.94403954943
 10
19841.34411053841
 20
-10087.94403954943
  0
HATCH
  5
245
330
1F
100
AcDbEntity
  8
Ech.1_5
  6
Continuous
 62
   254
420
 13882323
440
 33554687
370
    20
390
5F
100
AcDbHatch
 10
0.0
 20
0.0
 30
0.0
210
0.0
220
0.0
230
1.0
  2
SOLID
 70
     1
 71
     0
 91
        1
 92
        3
 72
     0
 73
     1
 93
        4
 10
19572.87053537579
 20
-9990.47955072661
 10
19572.87053537579
 20
-9634.678356254779
 10
19546.87053537579
 20
-9634.678248512631
 10
19546.87053537579
 20
-10009.19936272038
 97
        0
 75
     0
 76
     1
 98
        0
  0
LWPOLYLINE
  5
246
330
1F
100
AcDbEntity
  8
Ech.1_5
  6
Continuous
 62
     7
370
    20
390
5F
100
AcDbPolyline
 90
        5
 70
     0
 43
0.0
 10
19572.87053537579
 20
-9990.47955072661
 10
19572.87053537579
 20
-9634.678356254779
 10
19546.87053537579
 20
-9634.678248512631
 10
19546.87053537579
 20
-10009.19936272038
 10
19572.87053537579
 20
-9990.47955072661
  0
HATCH
  5
247
330
1F
100
AcDbEntity
  8
Ech.1_5
  6
Continuous
 62
    33
420
 12426362
440
 33554687
370
    20
390
5F
100
AcDbHatch
 10
0.0
 20
0.0
 30
0.0
210
0.0
220
0.0
230
1.0
  2
SOLID
 70
     1
 71
     0
 91
        1
 92
        3
 72
     0
 73
     1
 93
        8
 10
20129.8980356889
 20
-10255.53704213745
 10
20111.92068728152
 20
-10239.05153898148
 10
20111.9201756066
 20
-10106.94403954943
 10
19718.34411053841
 20
-10106.94403954943
 10
19718.34411053841
 20
-10326.94403954943
 10
20111.91986499645
 20
-10326.94403954943
 10
20111.92068728152
 20
-10257.91345620107
 10
20093.94233567709
 20
-10241.42710211965
 97
        0
 75
     0
 76
     1
 98
        0
  0
LWPOLYLINE
  5
248
330
1F
100
AcDbEntity
  8
Ech.1_5
  6
Continuous
 62
     7
370
    20
390
5F
100
AcDbPolyline
 90
        9
 70
     0
 43
0.0
 10
20129.8980356889
 20
-10255.53704213745
 10
20111.92068728152
 20
-10239.05153898148
 10
20111.9201756066
 20
-10106.94403954943
 10
19718.34411053841
 20
-10106.94403954943
 10
19718.34411053841
 20
-10326.94403954943
 10
20111.91986499645
 20
-10326.94403954943
 10
20111.92068728152
 20
-10257.91345620107
 10
20093.94233567709
 20
-10241.42710211965
 10
20129.8980356889
 20
-10255.53704213745
  0
HATCH
  5
249
330
1F
100
AcDbEntity
  8
Ech.1_5
  6
Continuous
 62
    33
420
 12426362
440
 33554687
370
    20
390
5F
100
AcDbHatch
 10
0.0
 20
0.0
 30
0.0
210
0.0
220
0.0
230
1.0
  2
SOLID
 70
     1
 71
     0
 91
        1
 92
        3
 72
     0
 73
     1
 93
        4
 10
19718.34411053841
 20
-10106.94403954943
 10
19673.34411053841
 20
-10106.94403954943
 10
19673.34411053841
 20
-10326.94403954943
 10
19718.34411053841
 20
-10326.94403954943
 97
        0
 75
     0
 76
     1
 98
        0
  0
LWPOLYLINE
  5
24A
330
1F
100
AcDbEntity
  8
Ech.1_5
  6
Continuous
 62
   190
370
    15
390
5F
100
AcDbPolyline
 90
        5
 70
     0
 43
0.0
 10
19718.34411053841
 20
-10106.94403954943
 10
19673.34411053841
 20
-10106.94403954943
 10
19673.34411053841
 20
-10326.94403954943
 10
19718.34411053841
 20
-10326.94403954943
 10
19718.34411053841
 20
-10106.94403954943
  0
HATCH
  5
24B
330
1F
100
AcDbEntity
  8
Ech.1_5
  6
Continuous
 62
    40
420
 16297258
440
 33554687
370
     5
390
5F
100
AcDbHatch
 10
0.0
 20
0.0
 30
0.0
210
0.0
220
0.0
230
1.0
  2
SOLID
 70
     1
 71
     0
 91
        1
 92
        3
 72
     0
 73
     1
 93
        4
 10
19673.34411053841
 20
-10087.94403954943
 10
19673.34411053841
 20
-10106.94403954943
 10
20111.91921146288
 20
-10106.94403954943
 10
20111.91921146288
 20
-10087.94403954943
 97
        0
 75
     0
 76
     1
 98
        0
  0
HATCH
  5
24C
330
1F
100
AcDbEntity
  8
Ech.1_5
  6
Continuous
 62
   190
440
 33554687
370
    15
390
5F
100
AcDbHatch
 10
0.0
 20
0.0
 30
0.0
210
0.0
220
0.0
230
1.0
  2
CwHatchPattern_74
 70
     0
 71
     0
 91
        1
 92
        3
 72
     0
 73
     1
 93
        4
 10
19673.34411053841
 20
-10087.94403954943
 10
19673.34411053841
 20
-10106.94403954943
 10
20111.91921146288
 20
-10106.94403954943
 10
20111.91921146288
 20
-10087.94403954943
 97
        0
 75
     0
 76
     2
 52
0.0
 41
0.6000000238418579
 77
     0
 78
     3
 53
45.00000000000297
 43
0.0
 44
0.0
 45
-0.0000000000043443
 46
42.00000166893005
 79
     0
 53
45.00000000000297
 43
0.0
 44
10.80000042915344
 45
-0.0000000000043443
 46
42.00000166893005
 79
     0
 53
45.00000000000297
 43
0.0
 44
21.60000085830688
 45
-0.0000000000043443
 46
42.00000166893005
 79
     0
 98
        0
1001
ACAD
1010
0.0
1020
0.0
1030
0.0
  0
LWPOLYLINE
  5
24D
330
1F
100
AcDbEntity
  8
Ech.1_5
  6
Continuous
 62
   190
370
    15
390
5F
100
AcDbPolyline
 90
        5
 70
     0
 43
0.0
 10
19673.34411053841
 20
-10087.94403954943
 10
19673.34411053841
 20
-10106.94403954943
 10
20111.91921146288
 20
-10106.94403954943
 10
20111.91921146288
 20
-10087.94403954943
 10
19673.34411053841
 20
-10087.94403954943
  0
CIRCLE
  5
24E
102
{ACAD_REACTORS
330
24F
102
}
330
1F
100
AcDbEntity
  8
Ech.1_5
  6
Continuous
 62
     7
370
    20
390
5F
100
AcDbCircle
 10
20042.58960248913
 20
-10319.80399478068
 30
0.0
 40
2.51802372978799
  0
LINE
  5
250
102
{ACAD_REACTORS
330
24F
102
}
330
1F
100
AcDbEntity
  8
Ech.1_5
  6
Continuous
 62
     7
370
    20
390
5F
100
AcDbLine
 10
20056.08970435105
 20
-10213.05691429476
 30
0.0
 11
20056.08958043679
 21
-10338.74318093985
 31
0.0
  0
LINE
  5
251
102
{ACAD_REACTORS
330
24F
102
}
330
1F
100
AcDbEntity
  8
Ech.1_5
  6
Continuous
 62
     7
370
    20
390
5F
100
AcDbLine
 10
20023.85946173444
 20
-10352.82343978113
 30
0.0
 11
20019.7290477974
 21
-10352.82343497178
 31
0.0
  0
LINE
  5
252
102
{ACAD_REACTORS
330
24F
102
}
330
1F
100
AcDbEntity
  8
Ech.1_5
  6
Continuous
 62
     7
370
    20
390
5F
100
AcDbLine
 10
20019.7290477974
 20
-10352.82343497178
 30
0.0
 11
20019.72903508271
 21
-10363.74313860251
 31
0.0
  0
LINE
  5
253
102
{ACAD_REACTORS
330
24F
102
}
330
1F
100
AcDbEntity
  8
Ech.1_5
  6
Continuous
 62
     7
370
    20
390
5F
100
AcDbLine
 10
20020.08957461492
 20
-10343.74313902231
 30
0.0
 11
20024.08957461492
 21
-10343.74314367985
 31
0.0
  0
CIRCLE
  5
254
102
{ACAD_REACTORS
330
24F
102
}
330
1F
100
AcDbEntity
  8
Ech.1_5
  6
Continuous
 62
     7
370
    20
390
5F
100
AcDbCircle
 10
20042.58965488606
 20
-10274.80399478074
 30
0.0
 40
2.518023729849729
  0
ARC
  5
255
102
{ACAD_REACTORS
330
24F
102
}
330
1F
100
AcDbEntity
  8
Ech.1_5
  6
Continuous
 62
     7
370
    20
390
5F
100
AcDbCircle
 10
20024.08958043683
 20
-10338.74314367985
 30
0.0
 40
5.00000000000756
100
AcDbArc
 50
269.9999332858021
 51
359.999933286886
  0
LINE
  5
256
102
{ACAD_REACTORS
330
24F
102
}
330
1F
100
AcDbEntity
  8
Ech.1_5
  6
Continuous
 62
     7
370
    20
390
5F
100
AcDbLine
 10
20023.85946173444
 20
-10352.82343978113
 30
0.0
 11
20023.85946406316
 21
-10350.82343978113
 31
0.0
  0
LINE
  5
257
102
{ACAD_REACTORS
330
24F
102
}
330
1F
100
AcDbEntity
  8
Ech.1_5
  6
Continuous
 62
     7
370
    20
390
5F
100
AcDbLine
 10
20023.85946406316
 20
-10350.82343978113
 30
0.0
 11
20017.72905012617
 21
-10350.82343264301
 31
0.0
  0
HATCH
  5
258
330
1F
100
AcDbEntity
  8
Ech.1_5
  6
Continuous
 62
   254
420
 13882323
440
 33554687
370
    20
390
5F
100
AcDbHatch
 10
0.0
 20
0.0
 30
0.0
210
0.0
220
0.0
230
1.0
  2
SOLID
 70
     1
 71
     0
 91
        1
 92
        3
 72
     0
 73
     1
 93
        4
 10
19601.8441105384
 20
-10604.24769863697
 10
19601.84411053841
 20
-10110.44403914044
 10
19572.87053537579
 20
-10110.44403914044
 10
19572.87053537586
 20
-10604.24769863697
 97
        0
 75
     0
 76
     1
 98
        0
  0
LWPOLYLINE
  5
259
330
1F
100
AcDbEntity
  8
Ech.1_5
  6
Continuous
 62
     7
370
    20
390
5F
100
AcDbPolyline
 90
        5
 70
     0
 43
0.0
 10
19601.8441105384
 20
-10604.24769863697
 10
19601.84411053841
 20
-10110.44403914044
 10
19572.87053537579
 20
-10110.44403914044
 10
19572.87053537586
 20
-10604.24769863697
 10
19601.8441105384
 20
-10604.24769863697
  0
ARC
  5
25A
102
{ACAD_REACTORS
330
24F
102
}
330
1F
100
AcDbEntity
  8
Ech.1_5
  6
Continuous
 62
     7
370
    20
390
5F
100
AcDbCircle
 10
20033.85586032105
 20
-10338.23866064416
 30
0.0
 40
14.82598746656075
100
AcDbArc
 50
201.7941043665487
 51
238.1350916396207
  0
ARC
  5
25B
102
{ACAD_REACTORS
330
24F
102
}
330
1F
100
AcDbEntity
  8
Ech.1_5
  6
Continuous
 62
     7
370
    20
390
5F
100
AcDbCircle
 10
20032.40034613389
 20
-10351.71345063728
 30
0.0
 40
12.47697948297653
100
AcDbArc
 50
189.362177241905
 51
254.6121143215778
  0
HATCH
  5
25C
330
1F
100
AcDbEntity
  8
Ech.1_5
  6
Continuous
 62
   254
420
 13882323
440
 33554687
370
    20
390
5F
100
AcDbHatch
 10
0.0
 20
0.0
 30
0.0
210
0.0
220
0.0
230
1.0
  2
SOLID
 70
     1
 71
     0
 91
        1
 92
        3
 72
     0
 73
     1
 93
        4
 10
19601.84411053841
 20
-9990.479658468757
 10
19601.84411053841
 20
-9634.678356254779
 10
19572.87053537579
 20
-9634.678356254779
 10
19572.87053537579
 20
-9990.479658468757
 97
        0
 75
     0
 76
     1
 98
        0
  0
LWPOLYLINE
  5
25D
330
1F
100
AcDbEntity
  8
Ech.1_5
  6
Continuous
 62
     7
370
    20
390
5F
100
AcDbPolyline
 90
        5
 70
     0
 43
0.0
 10
19601.84411053841
 20
-9990.479658468757
 10
19601.84411053841
 20
-9634.678356254779
 10
19572.87053537579
 20
-9634.678356254779
 10
19572.87053537579
 20
-9990.479658468757
 10
19601.84411053841
 20
-9990.479658468757
  0
HATCH
  5
25E
330
1F
100
AcDbEntity
  8
Ech.1_5
  6
Continuous
 62
    40
420
 16297258
440
 33554687
370
     5
390
5F
100
AcDbHatch
 10
0.0
 20
0.0
 30
0.0
210
0.0
220
0.0
230
1.0
  2
SOLID
 70
     1
 71
     0
 91
        1
 92
        3
 72
     0
 73
     1
 93
        4
 10
19623.34411053841
 20
-10042.94338246783
 10
19623.34411053841
 20
-9634.678720922282
 10
19614.34411053841
 20
-9634.678720922282
 10
19614.34411053841
 20
-10042.94338246783
 97
        0
 75
     0
 76
     1
 98
        0
  0
HATCH
  5
25F
330
1F
100
AcDbEntity
  8
Ech.1_5
  6
Continuous
 62
   190
440
 33554687
370
    15
390
5F
100
AcDbHatch
 10
0.0
 20
0.0
 30
0.0
210
0.0
220
0.0
230
1.0
  2
CwHatchPattern_74
 70
     0
 71
     0
 91
        1
 92
        3
 72
     0
 73
     1
 93
        4
 10
19623.34411053841
 20
-10042.94338246783
 10
19623.34411053841
 20
-9634.678720922282
 10
19614.34411053841
 20
-9634.678720922282
 10
19614.34411053841
 20
-10042.94338246783
 97
        0
 75
     0
 76
     2
 52
0.0
 41
0.6000000238418579
 77
     0
 78
     3
 53
45.00000000000297
 43
0.0
 44
0.0
 45
-0.0000000000043443
 46
42.00000166893005
 79
     0
 53
45.00000000000297
 43
0.0
 44
10.80000042915344
 45
-0.0000000000043443
 46
42.00000166893005
 79
     0
 53
45.00000000000297
 43
0.0
 44
21.60000085830688
 45
-0.0000000000043443
 46
42.00000166893005
 79
     0
 98
        0
1001
ACAD
1010
0.0
1020
0.0
1030
0.0
  0
LWPOLYLINE
  5
260
330
1F
100
AcDbEntity
  8
Ech.1_5
  6
Continuous
 62
   190
370
    15
390
5F
100
AcDbPolyline
 90
        5
 70
     0
 43
0.0
 10
19623.34411053841
 20
-10042.94338246783
 10
19623.34411053841
 20
-9634.678720922282
 10
19614.34411053841
 20
-9634.678720922282
 10
19614.34411053841
 20
-10042.94338246783
 10
19623.34411053841
 20
-10042.94338246783
  0
LINE
  5
261
102
{ACAD_REACTORS
330
24F
102
}
330
1F
100
AcDbEntity
  8
Ech.1_5
  6
Continuous
 62
     7
370
    20
390
5F
100
AcDbLine
 10
20017.72905012617
 20
-10350.82343264301
 30
0.0
 11
20017.72903275398
 21
-10365.74313627374
 31
0.0
  0
CIRCLE
  5
262
102
{ACAD_REACTORS
330
24F
102
}
330
1F
100
AcDbEntity
  8
Ech.1_5
  6
Continuous
 62
     7
370
    20
390
5F
100
AcDbCircle
 10
20042.58961995475
 20
-10304.80399478074
 30
0.0
 40
2.518023729834294
  0
CIRCLE
  5
263
102
{ACAD_REACTORS
330
24F
102
}
330
1F
100
AcDbEntity
  8
Ech.1_5
  6
Continuous
 62
     7
370
    20
390
5F
100
AcDbCircle
 10
20042.58958502349
 20
-10334.80399478068
 30
0.0
 40
2.518023729803425
  0
CIRCLE
  5
264
102
{ACAD_REACTORS
330
24F
102
}
330
1F
100
AcDbEntity
  8
Ech.1_5
  6
Continuous
 62
     7
370
    20
390
5F
100
AcDbCircle
 10
20042.58963742039
 20
-10289.80399478074
 30
0.0
 40
2.518023729844584
  0
ARC
  5
265
102
{ACAD_REACTORS
330
24F
102
}
330
1F
100
AcDbEntity
  8
Ech.1_5
  6
Continuous
 62
     7
370
    20
390
5F
100
AcDbCircle
 10
20051.32330172714
 20
-10338.23868098271
 30
0.0
 40
14.8259874668525
100
AcDbArc
 50
301.8647749334484
 51
338.2057622058294
  0
ARC
  5
266
102
{ACAD_REACTORS
330
24F
102
}
330
1F
100
AcDbEntity
  8
Ech.1_5
  6
Continuous
 62
     7
370
    20
390
5F
100
AcDbCircle
 10
20062.94795857694
 20
-10350.59827647576
 30
0.0
 40
3.804859968893155
100
AcDbArc
 50
183.4966998898
 51
304.2538340884852
  0
ARC
  5
267
102
{ACAD_REACTORS
330
24F
102
}
330
1F
100
AcDbEntity
  8
Ech.1_5
  6
Continuous
 62
     7
370
    20
390
5F
100
AcDbCircle
 10
20052.77878453529
 20
-10351.71347436561
 30
0.0
 40
12.47697948281858
100
AcDbArc
 50
285.3877522502009
 51
350.6376893311169
  0
LINE
  5
268
102
{ACAD_REACTORS
330
24F
102
}
330
1F
100
AcDbEntity
  8
Ech.1_5
  6
Continuous
 62
     7
370
    20
390
5F
100
AcDbLine
 10
20065.08957461492
 20
-10343.74319141921
 30
0.0
 11
20061.08957461492
 21
-10343.74318676179
 31
0.0
  0
ARC
  5
269
102
{ACAD_REACTORS
330
24F
102
}
330
1F
100
AcDbEntity
  8
Ech.1_5
  6
Continuous
 62
     7
370
    20
390
5F
100
AcDbCircle
 10
20061.08958043694
 20
-10338.74318676168
 30
0.0
 40
5.000000000106928
100
AcDbArc
 50
179.9999332867818
 51
269.9999332845932
  0
LINE
  5
26A
102
{ACAD_REACTORS
330
24F
102
}
330
1F
100
AcDbEntity
  8
Ech.1_5
  6
Continuous
 62
     7
370
    20
390
5F
100
AcDbLine
 10
20061.31966634977
 20
-10352.82348339881
 30
0.0
 11
20061.31966867854
 21
-10350.82348339893
 31
0.0
  0
LINE
  5
26B
102
{ACAD_REACTORS
330
24F
102
}
330
1F
100
AcDbEntity
  8
Ech.1_5
  6
Continuous
 62
     7
370
    20
390
5F
100
AcDbLine
 10
20061.31966634977
 20
-10352.82348339881
 30
0.0
 11
20065.4500802868
 21
-10352.82348820816
 31
0.0
  0
LINE
  5
26C
102
{ACAD_REACTORS
330
24F
102
}
330
1F
100
AcDbEntity
  8
Ech.1_5
  6
Continuous
 62
     7
370
    20
390
5F
100
AcDbLine
 10
20065.4500802868
 20
-10352.82348820816
 30
0.0
 11
20065.45006757209
 21
-10363.74319183901
 31
0.0
  0
LINE
  5
26D
102
{ACAD_REACTORS
330
24F
102
}
330
1F
100
AcDbEntity
  8
Ech.1_5
  6
Continuous
 62
     7
370
    20
390
5F
100
AcDbLine
 10
20061.31966867854
 20
-10350.82348339893
 30
0.0
 11
20067.45008261557
 21
-10350.82349053693
 31
0.0
  0
LINE
  5
26E
102
{ACAD_REACTORS
330
24F
102
}
330
1F
100
AcDbEntity
  8
Ech.1_5
  6
Continuous
 62
     7
370
    20
390
5F
100
AcDbLine
 10
20067.45008261557
 20
-10350.82349053693
 30
0.0
 11
20067.45006524338
 21
-10365.74319416778
 31
0.0
  0
CIRCLE
  5
26F
102
{ACAD_REACTORS
330
24F
102
}
330
1F
100
AcDbEntity
  8
Ech.1_5
  6
Continuous
 62
     7
370
    20
390
5F
100
AcDbCircle
 10
20042.58967235171
 20
-10259.80399478068
 30
0.0
 40
2.51802372978799
  0
LINE
  5
270
102
{ACAD_REACTORS
330
24F
102
}
330
1F
100
AcDbEntity
  8
Ech.1_5
  6
Continuous
 62
     7
370
    20
390
5F
100
AcDbLine
 10
20029.08970435106
 20
-10213.05688285669
 30
0.0
 11
20029.08958043683
 21
-10338.74314950166
 31
0.0
  0
CIRCLE
  5
271
102
{ACAD_REACTORS
330
24F
102
}
330
1F
100
AcDbEntity
  8
Ech.1_5
  6
Continuous
 62
     7
370
    20
390
5F
100
AcDbCircle
 10
20042.58968981734
 20
-10244.80399478074
 30
0.0
 40
2.518023729829149
  0
LINE
  5
272
102
{ACAD_REACTORS
330
24F
102
}
330
1F
100
AcDbEntity
  8
Ech.1_5
  6
Continuous
 62
     7
370
    20
390
5F
100
AcDbLine
 10
20029.08970435106
 20
-10213.05688285669
 30
0.0
 11
20056.08970435105
 21
-10213.05691429476
 31
0.0
  0
LINE
  5
273
102
{ACAD_REACTORS
330
24F
102
}
330
1F
100
AcDbEntity
  8
Ech.1_5
  6
Continuous
 62
     7
370
    20
390
5F
100
AcDbLine
 10
20065.45006757209
 20
-10363.74319183901
 30
0.0
 11
20019.72903508271
 21
-10363.74313860251
 31
0.0
  0
LINE
  5
274
102
{ACAD_REACTORS
330
24F
102
}
330
1F
100
AcDbEntity
  8
Ech.1_5
  6
Continuous
 62
     7
370
    20
390
5F
100
AcDbLine
 10
20017.72903275398
 20
-10365.74313627374
 30
0.0
 11
20067.45006524338
 21
-10365.74319416778
 31
0.0
  0
ARC
  5
275
102
{ACAD_REACTORS
330
24F
102
}
330
1F
100
AcDbEntity
  8
Ech.1_5
  6
Continuous
 62
     7
370
    20
390
5F
100
AcDbCircle
 10
20022.23117468909
 20
-10350.59822906609
 30
0.0
 40
3.804859968910015
100
AcDbArc
 50
235.7460324844839
 51
356.5031666827437
  0
HATCH
  5
276
330
1F
100
AcDbEntity
  8
Ech.1_5
  6
Continuous
 62
   254
420
 14407639
440
 33554687
370
     5
390
5F
100
AcDbHatch
 10
0.0
 20
0.0
 30
0.0
210
0.0
220
0.0
230
1.0
  2
SOLID
 70
     1
 71
     0
 91
        1
 92
        3
 72
     0
 73
     1
 93
        4
 10
20111.92006473388
 20
-10378.74319416778
 10
20111.92006473388
 20
-10365.74319416778
 10
19769.84411053841
 20
-10365.74319416778
 10
19769.84411053841
 20
-10378.74319416778
 97
        0
 75
     0
 76
     1
 98
        0
  0
HATCH
  5
277
330
1F
100
AcDbEntity
  8
Ech.1_5
  6
Continuous
 62
   190
440
 33554687
370
    15
390
241
100
AcDbHatch
 10
0.0
 20
0.0
 30
0.0
210
0.0
220
0.0
230
1.0
  2
CwHatchPattern_84
 70
     0
 71
     0
 91
        1
 92
        3
 72
     0
 73
     1
 93
        4
 10
20111.92006473388
 20
-10378.74319416778
 10
20111.92006473388
 20
-10365.74319416778
 10
19769.84411053841
 20
-10365.74319416778
 10
19769.84411053841
 20
-10378.74319416778
 97
        0
 75
     0
 76
     2
 52
0.0
 41
1.0
 77
     0
 78
     2
 53
0.0
 43
0.0
 44
0.0
 45
0.0
 46
70.0
 79
     2
 49
0.0
 49
-70.0
 53
0.0
 43
35.0
 44
35.0
 45
0.0
 46
70.0
 79
     2
 49
0.0
 49
-70.0
 98
        0
1001
ACAD
1010
0.0
1020
0.0
1030
0.0
  0
LWPOLYLINE
  5
278
330
1F
100
AcDbEntity
  8
Ech.1_5
  6
Continuous
 62
   190
370
    15
390
5F
100
AcDbPolyline
 90
        5
 70
     0
 43
0.0
 10
20111.92006473388
 20
-10378.74319416778
 10
20111.92006473388
 20
-10365.74319416778
 10
19769.84411053841
 20
-10365.74319416778
 10
19769.84411053841
 20
-10378.74319416778
 10
20111.92006473388
 20
-10378.74319416778
  0
HATCH
  5
279
330
1F
100
AcDbEntity
  8
Ech.1_5
  6
Continuous
 62
    40
420
 16297258
440
 33554687
370
     5
390
5F
100
AcDbHatch
 10
0.0
 20
0.0
 30
0.0
210
0.0
220
0.0
230
1.0
  2
SOLID
 70
     1
 71
     0
 91
        1
 92
        3
 72
     0
 73
     1
 93
        4
 10
19614.34411053841
 20
-10604.24769863697
 10
19623.34411053841
 20
-10604.24769863697
 10
19623.34411053841
 20
-10371.94403954943
 10
19614.34411053841
 20
-10371.94403954943
 97
        0
 75
     0
 76
     1
 98
        0
  0
HATCH
  5
27A
330
1F
100
AcDbEntity
  8
Ech.1_5
  6
Continuous
 62
   190
440
 33554687
370
    15
390
5F
100
AcDbHatch
 10
0.0
 20
0.0
 30
0.0
210
0.0
220
0.0
230
1.0
  2
CwHatchPattern_74
 70
     0
 71
     0
 91
        1
 92
        3
 72
     0
 73
     1
 93
        4
 10
19614.34411053841
 20
-10604.24769863697
 10
19623.34411053841
 20
-10604.24769863697
 10
19623.34411053841
 20
-10371.94403954943
 10
19614.34411053841
 20
-10371.94403954943
 97
        0
 75
     0
 76
     2
 52
0.0
 41
0.6000000238418579
 77
     0
 78
     3
 53
45.00000000000297
 43
0.0
 44
0.0
 45
-0.0000000000043443
 46
42.00000166893005
 79
     0
 53
45.00000000000297
 43
0.0
 44
10.80000042915344
 45
-0.0000000000043443
 46
42.00000166893005
 79
     0
 53
45.00000000000297
 43
0.0
 44
21.60000085830688
 45
-0.0000000000043443
 46
42.00000166893005
 79
     0
 98
        0
1001
ACAD
1010
0.0
1020
0.0
1030
0.0
  0
LWPOLYLINE
  5
27B
330
1F
100
AcDbEntity
  8
Ech.1_5
  6
Continuous
 62
   190
370
    15
390
5F
100
AcDbPolyline
 90
        5
 70
     0
 43
0.0
 10
19614.34411053841
 20
-10604.24769863697
 10
19623.34411053841
 20
-10604.24769863697
 10
19623.34411053841
 20
-10371.94403954943
 10
19614.34411053841
 20
-10371.94403954943
 10
19614.34411053841
 20
-10604.24769863697
  0
HATCH
  5
27C
330
1F
100
AcDbEntity
  8
Ech.1_5
  6
Continuous
 62
    40
420
 16297258
440
 33554687
370
     5
390
5F
100
AcDbHatch
 10
0.0
 20
0.0
 30
0.0
210
0.0
220
0.0
230
1.0
  2
SOLID
 70
     1
 71
     0
 91
        1
 92
        3
 72
     0
 73
     1
 93
        4
 10
19623.3441105384
 20
-10087.94403914044
 10
19614.3441105384
 20
-10087.94403914044
 10
19614.3441105384
 20
-10367.94403954943
 10
19623.3441105384
 20
-10367.94403954943
 97
        0
 75
     0
 76
     1
 98
        0
  0
HATCH
  5
27D
330
1F
100
AcDbEntity
  8
Ech.1_5
  6
Continuous
 62
   190
440
 33554687
370
    15
390
5F
100
AcDbHatch
 10
0.0
 20
0.0
 30
0.0
210
0.0
220
0.0
230
1.0
  2
CwHatchPattern_74
 70
     0
 71
     0
 91
        1
 92
        3
 72
     0
 73
     1
 93
        4
 10
19623.3441105384
 20
-10087.94403914044
 10
19614.3441105384
 20
-10087.94403914044
 10
19614.3441105384
 20
-10367.94403954943
 10
19623.3441105384
 20
-10367.94403954943
 97
        0
 75
     0
 76
     2
 52
0.0
 41
0.6000000238418579
 77
     0
 78
     3
 53
45.00000000000297
 43
0.0
 44
0.0
 45
-0.0000000000043443
 46
42.00000166893005
 79
     0
 53
45.00000000000297
 43
0.0
 44
10.80000042915344
 45
-0.0000000000043443
 46
42.00000166893005
 79
     0
 53
45.00000000000297
 43
0.0
 44
21.60000085830688
 45
-0.0000000000043443
 46
42.00000166893005
 79
     0
 98
        0
1001
ACAD
1010
0.0
1020
0.0
1030
0.0
  0
LWPOLYLINE
  5
27E
330
1F
100
AcDbEntity
  8
Ech.1_5
  6
Continuous
 62
   190
370
    15
390
5F
100
AcDbPolyline
 90
        5
 70
     0
 43
0.0
 10
19623.3441105384
 20
-10087.94403914044
 10
19614.3441105384
 20
-10087.94403914044
 10
19614.3441105384
 20
-10367.94403954943
 10
19623.3441105384
 20
-10367.94403954943
 10
19623.3441105384
 20
-10087.94403914044
  0
HATCH
  5
27F
330
1F
100
AcDbEntity
  8
Ech.1_5
  6
Continuous
 62
     1
440
 33554687
370
     5
390
5F
100
AcDbHatch
 10
0.0
 20
0.0
 30
0.0
210
0.0
220
0.0
230
1.0
  2
SOLID
 70
     1
 71
     0
 91
        1
 92
        3
 72
     0
 73
     1
 93
        4
 10
19601.84411053841
 20
-10604.24769863697
 10
19614.34411053841
 20
-10604.24769863697
 10
19614.34411053841
 20
-10371.94403954943
 10
19601.84411053841
 20
-10371.94403954943
 97
        0
 75
     0
 76
     1
 98
        0
  0
HATCH
  5
280
330
1F
100
AcDbEntity
  8
Ech.1_5
  6
Continuous
 62
   190
440
 33554687
370
    15
390
5F
100
AcDbHatch
 10
0.0
 20
0.0
 30
0.0
210
0.0
220
0.0
230
1.0
  2
CwHatchPattern_74
 70
     0
 71
     0
 91
        1
 92
        3
 72
     0
 73
     1
 93
        4
 10
19601.84411053841
 20
-10604.24769863697
 10
19614.34411053841
 20
-10604.24769863697
 10
19614.34411053841
 20
-10371.94403954943
 10
19601.84411053841
 20
-10371.94403954943
 97
        0
 75
     0
 76
     2
 52
0.0
 41
3.0
 77
     0
 78
     3
 53
45.00000000000297
 43
0.0
 44
0.0
 45
-0.0000000000217213
 46
210.0
 79
     0
 53
45.00000000000297
 43
0.0
 44
54.0
 45
-0.0000000000217213
 46
210.0
 79
     0
 53
45.00000000000297
 43
0.0
 44
108.0
 45
-0.0000000000217213
 46
210.0
 79
     0
 98
        0
1001
ACAD
1010
0.0
1020
0.0
1030
0.0
  0
3DFACE
  5
281
330
1F
100
AcDbEntity
  8
Ech.1_5
  6
Continuous
 62
     7
370
    20
390
5F
100
AcDbFace
 10
19601.84411053841
 20
-10604.24769863697
 30
2500.0
 11
19614.34411053841
 21
-10604.24769863697
 31
2500.0
 12
19614.34411053841
 22
-10371.94403954943
 32
2500.0
 13
19601.84411053841
 23
-10371.94403954943
 33
2500.0
  0
HATCH
  5
282
330
1F
100
AcDbEntity
  8
Ech.1_5
  6
Continuous
 62
     1
440
 33554687
370
     5
390
5F
100
AcDbHatch
 10
0.0
 20
0.0
 30
0.0
210
0.0
220
0.0
230
1.0
  2
SOLID
 70
     1
 71
     0
 91
        1
 92
        3
 72
     0
 73
     1
 93
        4
 10
19601.84411053841
 20
-10087.94338205883
 10
19601.84411053841
 20
-10367.94403954943
 10
19614.3441105384
 20
-10367.94403954943
 10
19614.3441105384
 20
-10087.94403914044
 97
        0
 75
     0
 76
     1
 98
        0
  0
HATCH
  5
283
330
1F
100
AcDbEntity
  8
Ech.1_5
  6
Continuous
 62
   190
440
 33554687
370
    15
390
5F
100
AcDbHatch
 10
0.0
 20
0.0
 30
0.0
210
0.0
220
0.0
230
1.0
  2
CwHatchPattern_74
 70
     0
 71
     0
 91
        1
 92
        3
 72
     0
 73
     1
 93
        4
 10
19601.84411053841
 20
-10087.94338205883
 10
19601.84411053841
 20
-10367.94403954943
 10
19614.3441105384
 20
-10367.94403954943
 10
19614.3441105384
 20
-10087.94403914044
 97
        0
 75
     0
 76
     2
 52
0.0
 41
3.0
 77
     0
 78
     3
 53
45.00000000000297
 43
0.0
 44
0.0
 45
-0.0000000000217213
 46
210.0
 79
     0
 53
45.00000000000297
 43
0.0
 44
54.0
 45
-0.0000000000217213
 46
210.0
 79
     0
 53
45.00000000000297
 43
0.0
 44
108.0
 45
-0.0000000000217213
 46
210.0
 79
     0
 98
        0
1001
ACAD
1010
0.0
1020
0.0
1030
0.0
  0
3DFACE
  5
284
330
1F
100
AcDbEntity
  8
Ech.1_5
  6
Continuous
 62
     7
370
    20
390
5F
100
AcDbFace
 10
19601.84411053841
 20
-10087.94338205883
 30
2500.0
 11
19601.84411053841
 21
-10367.94403954943
 31
2500.0
 12
19614.3441105384
 22
-10367.94403954943
 32
2500.0
 13
19614.3441105384
 23
-10087.94403914044
 33
2500.0
  0
HATCH
  5
285
330
1F
100
AcDbEntity
  8
Ech.1_5
  6
Continuous
 62
   254
420
 14407639
440
 33554687
370
     5
390
5F
100
AcDbHatch
 10
0.0
 20
0.0
 30
0.0
210
0.0
220
0.0
230
1.0
  2
SOLID
 70
     1
 71
     0
 91
        1
 92
        3
 72
     0
 73
     1
 93
        4
 10
19828.34411053841
 20
-10378.74319416778
 10
19828.34411053841
 20
-10604.24917492481
 10
19841.34411053841
 20
-10604.24917492481
 10
19841.34411053841
 20
-10378.74319416778
 97
        0
 75
     0
 76
     1
 98
        0
  0
HATCH
  5
286
330
1F
100
AcDbEntity
  8
Ech.1_5
  6
Continuous
 62
   190
440
 33554687
370
    15
390
241
100
AcDbHatch
 10
0.0
 20
0.0
 30
0.0
210
0.0
220
0.0
230
1.0
  2
CwHatchPattern_84
 70
     0
 71
     0
 91
        1
 92
        3
 72
     0
 73
     1
 93
        4
 10
19828.34411053841
 20
-10378.74319416778
 10
19828.34411053841
 20
-10604.24917492481
 10
19841.34411053841
 20
-10604.24917492481
 10
19841.34411053841
 20
-10378.74319416778
 97
        0
 75
     0
 76
     2
 52
0.0
 41
1.0
 77
     0
 78
     2
 53
0.0
 43
0.0
 44
0.0
 45
0.0
 46
70.0
 79
     2
 49
0.0
 49
-70.0
 53
0.0
 43
35.0
 44
35.0
 45
0.0
 46
70.0
 79
     2
 49
0.0
 49
-70.0
 98
        0
1001
ACAD
1010
0.0
1020
0.0
1030
0.0
  0
LWPOLYLINE
  5
287
330
1F
100
AcDbEntity
  8
Ech.1_5
  6
Continuous
 62
   190
370
    15
390
5F
100
AcDbPolyline
 90
        5
 70
     0
 43
0.0
 10
19828.34411053841
 20
-10378.74319416778
 10
19828.34411053841
 20
-10604.24917492481
 10
19841.34411053841
 20
-10604.24917492481
 10
19841.34411053841
 20
-10378.74319416778
 10
19828.34411053841
 20
-10378.74319416778
  0
HATCH
  5
288
330
1F
100
AcDbEntity
  8
Ech.1_5
  6
Continuous
 62
   254
420
 13882323
440
 33554687
370
    20
390
5F
100
AcDbHatch
 10
0.0
 20
0.0
 30
0.0
210
0.0
220
0.0
230
1.0
  2
SOLID
 70
     1
 71
     0
 91
        1
 92
        3
 72
     0
 73
     1
 93
        4
 10
19546.87053537579
 20
-10110.44403914044
 10
19546.87053537579
 20
-10604.24769863697
 10
19572.87053537579
 20
-10604.24769863697
 10
19572.87053537579
 20
-10110.44403914044
 97
        0
 75
     0
 76
     1
 98
        0
  0
LWPOLYLINE
  5
289
330
1F
100
AcDbEntity
  8
Ech.1_5
  6
Continuous
 62
     7
370
    20
390
5F
100
AcDbPolyline
 90
        5
 70
     0
 43
0.0
 10
19546.87053537579
 20
-10110.44403914044
 10
19546.87053537579
 20
-10604.24769863697
 10
19572.87053537579
 20
-10604.24769863697
 10
19572.87053537579
 20
-10110.44403914044
 10
19546.87053537579
 20
-10110.44403914044
  0
HATCH
  5
28A
330
1F
100
AcDbEntity
  8
Ech.1_5
  6
Continuous
 62
    33
420
 12426362
440
 33554687
370
     5
390
5F
100
AcDbHatch
 10
0.0
 20
0.0
 30
0.0
210
0.0
220
0.0
230
1.0
  2
SOLID
 70
     1
 71
     0
 91
        1
 92
        3
 72
     0
 73
     1
 93
        4
 10
19673.34411053841
 20
-10326.94403954943
 10
19718.34411053841
 20
-10326.94403954943
 10
19718.34411053841
 20
-10106.94403954943
 10
19673.34411053841
 20
-10106.94403954943
 97
        0
 75
     0
 76
     1
 98
        0
  0
LINE
  5
28B
330
1F
100
AcDbEntity
  8
Ech.1_5
  6
Continuous
 62
   190
370
    15
390
5F
100
AcDbLine
 10
19718.34411053841
 20
-10326.94403954943
 30
0.0
 11
19673.34411053841
 21
-10106.94403954943
 31
0.0
  0
LINE
  5
28C
330
1F
100
AcDbEntity
  8
Ech.1_5
  6
Continuous
 62
   190
370
    15
390
5F
100
AcDbLine
 10
19718.34411053841
 20
-10106.94403954943
 30
0.0
 11
19673.34411053841
 21
-10326.94403954943
 31
0.0
  0
LWPOLYLINE
  5
28D
330
1F
100
AcDbEntity
  8
Ech.1_5
  6
Continuous
 62
     5
370
    40
390
5F
100
AcDbPolyline
 90
        5
 70
     0
 43
0.0
 10
19673.34411053841
 20
-10326.94403954943
 10
19718.34411053841
 20
-10326.94403954943
 10
19718.34411053841
 20
-10106.94403954943
 10
19673.34411053841
 20
-10106.94403954943
 10
19673.34411053841
 20
-10326.94403954943
  0
HATCH
  5
28E
330
1F
100
AcDbEntity
  8
Ech.1_5
  6
Continuous
 62
   190
440
 33554687
370
    15
390
5F
100
AcDbHatch
 10
0.0
 20
0.0
 30
0.0
210
0.0
220
0.0
230
1.0
  2
CwHatchPattern_20
 70
     0
 71
     0
 91
        1
 92
        3
 72
     1
 73
     1
 93
        8
 10
19595.67014225826
 20
-9912.987319817461
 42
0.4895109521029934
 10
19585.8441105384
 20
-9898.341751844724
 42
0.4895109521029934
 10
19576.01807881855
 20
-9912.987319817461
 42
0.0
 10
19576.01807881855
 20
-9913.416747060997
 42
0.0
 10
19576.01807881855
 20
-9962.237997436037
 42
0.4895109521029934
 10
19585.8441105384
 20
-9976.883565408774
 42
0.4895109521035658
 10
19595.67014225826
 20
-9962.237997436037
 42
0.0
 10
19595.67014225826
 20
-9961.808570192501
 42
0.0
 97
        0
 75
     0
 76
     2
 52
0.0
 41
1.0
 77
     0
 78
     2
 53
45.00000000000297
 43
0.0
 44
0.0
 45
-7.071067811865841
 46
7.07106781186511
 79
     0
 53
135.0000000000089
 43
0.0
 44
0.0
 45
-7.071067811864377
 46
-7.071067811866573
 79
     0
 98
        0
1001
ACAD
1010
0.0
1020
0.0
1030
0.0
  0
LWPOLYLINE
  5
28F
330
1F
100
AcDbEntity
  8
Ech.1_5
  6
Continuous
 62
   190
370
    15
390
5F
100
AcDbPolyline
 90
        9
 70
   128
 43
0.0
 10
19595.67014225826
 20
-9912.987319817461
 42
0.489510952103106
 10
19585.8441105384
 20
-9898.341751844724
 42
0.489510952103106
 10
19576.01807881855
 20
-9912.987319817461
 10
19576.01807881855
 20
-9913.416747060997
 10
19576.01807881855
 20
-9962.237997436037
 42
0.489510952103106
 10
19585.8441105384
 20
-9976.883565408774
 42
0.4895109521037915
 10
19595.67014225826
 20
-9962.237997436037
 10
19595.67014225826
 20
-9961.808570192501
 10
19595.67014225826
 20
-9912.987319817461
  0
LINE
  5
290
330
1F
100
AcDbEntity
  8
Ech.1_5
  6
Continuous
 62
   190
370
    15
390
5F
100
AcDbLine
 10
19768.34411053841
 20
-9661.73321289978
 30
0.0
 11
19768.34411053841
 21
-9634.677091092875
 31
0.0
  0
LWPOLYLINE
  5
291
330
1F
100
AcDbEntity
  8
Ech.1_5
  6
Continuous
 62
   190
370
    15
390
5F
100
AcDbPolyline
 90
        6
 70
     0
 43
0.0
 10
19861.34411053841
 20
-9634.67714217573
 10
19678.7064612578
 20
-9634.678720922282
 10
19662.22095810191
 20
-9652.656069249919
 10
19676.33089811972
 20
-9616.700369329265
 10
19659.84454403821
 20
-9634.678720922282
 10
19525.84411053841
 20
-9634.67816563406
  0
LWPOLYLINE
  5
292
330
1F
100
AcDbEntity
  8
Ech.1_5
  6
Continuous
 62
   190
370
    15
390
5F
100
AcDbPolyline
 90
        6
 70
     0
 43
0.0
 10
19861.34411053841
 20
-10604.24902214784
 10
19692.81640127563
 20
-10604.24769863697
 10
19676.33089811972
 20
-10586.27035030934
 10
19690.44083813753
 20
-10622.22605022999
 10
19673.95448405602
 20
-10604.24769863697
 10
19525.84411053841
 20
-10604.24832707991
  0
LWPOLYLINE
  5
293
330
1F
100
AcDbEntity
  8
Ech.1_5
  6
Continuous
 62
   190
370
    15
390
5F
100
AcDbPolyline
 90
        6
 70
     0
 43
0.0
 10
20111.91921146288
 20
-10053.94403954931
 10
20111.92068728152
 20
-10239.05153898148
 10
20129.8980356889
 20
-10255.53704213745
 10
20093.94233567709
 20
-10241.42710211965
 10
20111.92068728152
 20
-10257.91345620107
 10
20111.91986499645
 20
-10417.5100597561
  0
HATCH
  5
294
330
1F
100
AcDbEntity
  8
Ech.1_5
  6
Continuous
 62
   190
440
 33554687
370
    15
390
5F
100
AcDbHatch
 10
0.0
 20
0.0
 30
0.0
210
0.0
220
0.0
230
1.0
  2
SOLID
 70
     1
 71
     0
 91
        1
 92
        3
 72
     0
 73
     1
 93
       12
 10
19822.34411053841
 20
-10057.94403929896
 10
19828.33999898065
 20
-10057.94403929896
 10
19828.34411053841
 20
-10087.94403954943
 10
19780.34411053841
 20
-10087.94403954943
 10
19780.34411053841
 20
-10057.94403929896
 10
19786.34411053841
 20
-10057.94403929896
 10
19786.34411053841
 20
-10059.94403929896
 10
19782.34411053841
 20
-10059.94403929896
 10
19782.34411053841
 20
-10085.94403929896
 10
19826.34411053841
 20
-10085.94403929896
 10
19826.34411053841
 20
-10059.94403929896
 10
19822.34411053841
 20
-10059.94403929896
 97
        0
 75
     0
 76
     1
 98
        0
  0
LWPOLYLINE
  5
295
330
1F
100
AcDbEntity
  8
Ech.1_5
  6
Continuous
 62
   190
370
    15
390
5F
100
AcDbPolyline
 90
       13
 70
     0
 43
0.0
 10
19822.34411053841
 20
-10057.94403929896
 10
19828.33999898065
 20
-10057.94403929896
 10
19828.34411053841
 20
-10087.94403954943
 10
19780.34411053841
 20
-10087.94403954943
 10
19780.34411053841
 20
-10057.94403929896
 10
19786.34411053841
 20
-10057.94403929896
 10
19786.34411053841
 20
-10059.94403929896
 10
19782.34411053841
 20
-10059.94403929896
 10
19782.34411053841
 20
-10085.94403929896
 10
19826.34411053841
 20
-10085.94403929896
 10
19826.34411053841
 20
-10059.94403929896
 10
19822.34411053841
 20
-10059.94403929896
 10
19822.34411053841
 20
-10057.94403929896
  0
HATCH
  5
296
330
1F
100
AcDbEntity
  8
Ech.1_5
  6
Continuous
 62
   190
440
 33554687
370
    15
390
5F
100
AcDbHatch
 10
0.0
 20
0.0
 30
0.0
210
0.0
220
0.0
230
1.0
  2
SOLID
 70
     1
 71
     0
 91
        1
 92
        3
 72
     0
 73
     1
 93
       12
 10
19822.34411053841
 20
-10408.74319441828
 10
19828.33999898065
 20
-10408.74319441828
 10
19828.34411053841
 20
-10378.74319416778
 10
19780.34411053841
 20
-10378.74319416778
 10
19780.34411053841
 20
-10408.74319441828
 10
19786.34411053841
 20
-10408.74319441828
 10
19786.34411053841
 20
-10406.74319441828
 10
19782.34411053841
 20
-10406.74319441828
 10
19782.34411053841
 20
-10380.74319441828
 10
19826.34411053841
 20
-10380.74319441828
 10
19826.34411053841
 20
-10406.74319441828
 10
19822.34411053841
 20
-10406.74319441828
 97
        0
 75
     0
 76
     1
 98
        0
  0
LWPOLYLINE
  5
297
330
1F
100
AcDbEntity
  8
Ech.1_5
  6
Continuous
 62
   190
370
    15
390
5F
100
AcDbPolyline
 90
       13
 70
     0
 43
0.0
 10
19822.34411053841
 20
-10408.74319441828
 10
19828.33999898065
 20
-10408.74319441828
 10
19828.34411053841
 20
-10378.74319416778
 10
19780.34411053841
 20
-10378.74319416778
 10
19780.34411053841
 20
-10408.74319441828
 10
19786.34411053841
 20
-10408.74319441828
 10
19786.34411053841
 20
-10406.74319441828
 10
19782.34411053841
 20
-10406.74319441828
 10
19782.34411053841
 20
-10380.74319441828
 10
19826.34411053841
 20
-10380.74319441828
 10
19826.34411053841
 20
-10406.74319441828
 10
19822.34411053841
 20
-10406.74319441828
 10
19822.34411053841
 20
-10408.74319441828
  0
LWPOLYLINE
  5
298
330
1F
100
AcDbEntity
  8
Ech.1_5
  6
Continuous
 62
   177
370
    70
390
5F
100
AcDbPolyline
 90
        5
 70
     0
 43
0.0
 10
19597.84411053843
 20
-9979.199362720377
 10
19597.84411053843
 20
-10013.70882829333
 10
19411.01414208133
 20
-10032.94403954943
 10
19410.98707315952
 20
-10106.49644366054
 10
19419.5394739394
 20
-10097.94403914044
  0
HATCH
  5
299
330
1F
100
AcDbEntity
  8
Ech.1_5
  6
Continuous
 62
    33
420
 12426362
440
 33554687
370
     5
390
5F
100
AcDbHatch
 10
0.0
 20
0.0
 30
0.0
210
0.0
220
0.0
230
1.0
  2
SOLID
 70
     1
 71
     0
 91
        1
 92
        3
 72
     0
 73
     1
 93
        4
 10
19768.34411053841
 20
-10042.94338246783
 10
19623.34411053841
 20
-10042.94338246783
 10
19623.34411053841
 20
-9997.943382467827
 10
19768.34411053841
 20
-9997.943382467827
 97
        0
 75
     0
 76
     1
 98
        0
  0
LINE
  5
29A
330
1F
100
AcDbEntity
  8
Ech.1_5
  6
Continuous
 62
   190
370
    15
390
5F
100
AcDbLine
 10
19623.34411053841
 20
-10042.94338246783
 30
0.0
 11
19768.34411053841
 21
-9997.943382467827
 31
0.0
  0
LINE
  5
29B
330
1F
100
AcDbEntity
  8
Ech.1_5
  6
Continuous
 62
   190
370
    15
390
5F
100
AcDbLine
 10
19623.34411053841
 20
-9997.943382467827
 30
0.0
 11
19768.34411053841
 21
-10042.94338246783
 31
0.0
  0
LWPOLYLINE
  5
29C
330
1F
100
AcDbEntity
  8
Ech.1_5
  6
Continuous
 62
     5
370
    40
390
5F
100
AcDbPolyline
 90
        5
 70
     0
 43
0.0
 10
19768.34411053841
 20
-10042.94338246783
 10
19623.34411053841
 20
-10042.94338246783
 10
19623.34411053841
 20
-9997.943382467827
 10
19768.34411053841
 20
-9997.943382467827
 10
19768.34411053841
 20
-10042.94338246783
  0
HATCH
  5
29D
330
1F
100
AcDbEntity
  8
Ech.1_5
  6
Continuous
 62
    33
420
 12426362
440
 33554687
370
     5
390
5F
100
AcDbHatch
 10
0.0
 20
0.0
 30
0.0
210
0.0
220
0.0
230
1.0
  2
SOLID
 70
     1
 71
     0
 91
        1
 92
        3
 72
     0
 73
     1
 93
        4
 10
19768.34411053841
 20
-10416.94403954943
 10
19623.34411053841
 20
-10416.94403954943
 10
19623.34411053841
 20
-10371.94403954943
 10
19768.34411053841
 20
-10371.94403954943
 97
        0
 75
     0
 76
     1
 98
        0
  0
LINE
  5
29E
330
1F
100
AcDbEntity
  8
Ech.1_5
  6
Continuous
 62
   190
370
    15
390
5F
100
AcDbLine
 10
19623.34411053841
 20
-10416.94403954943
 30
0.0
 11
19768.34411053841
 21
-10371.94403954943
 31
0.0
  0
LINE
  5
29F
330
1F
100
AcDbEntity
  8
Ech.1_5
  6
Continuous
 62
   190
370
    15
390
5F
100
AcDbLine
 10
19623.34411053841
 20
-10371.94403954943
 30
0.0
 11
19768.34411053841
 21
-10416.94403954943
 31
0.0
  0
LWPOLYLINE
  5
2A0
330
1F
100
AcDbEntity
  8
Ech.1_5
  6
Continuous
 62
     5
370
    40
390
5F
100
AcDbPolyline
 90
        5
 70
     0
 43
0.0
 10
19768.34411053841
 20
-10416.94403954943
 10
19623.34411053841
 20
-10416.94403954943
 10
19623.34411053841
 20
-10371.94403954943
 10
19768.34411053841
 20
-10371.94403954943
 10
19768.34411053841
 20
-10416.94403954943
  0
HATCH
  5
2A1
330
1F
100
AcDbEntity
  8
Ech.1_5
  6
Continuous
 62
    33
420
 12426362
440
 33554687
370
     5
390
5F
100
AcDbHatch
 10
0.0
 20
0.0
 30
0.0
210
0.0
220
0.0
230
1.0
  2
SOLID
 70
     1
 71
     0
 91
        1
 92
        3
 72
     0
 73
     1
 93
        4
 10
19768.34411053841
 20
-10371.94403954943
 10
19623.34411053841
 20
-10371.94403954943
 10
19623.34411053841
 20
-10326.94403954943
 10
19768.34411053841
 20
-10326.94403954943
 97
        0
 75
     0
 76
     1
 98
        0
  0
LINE
  5
2A2
330
1F
100
AcDbEntity
  8
Ech.1_5
  6
Continuous
 62
   190
370
    15
390
5F
100
AcDbLine
 10
19623.34411053841
 20
-10371.94403954943
 30
0.0
 11
19768.34411053841
 21
-10326.94403954943
 31
0.0
  0
LINE
  5
2A3
330
1F
100
AcDbEntity
  8
Ech.1_5
  6
Continuous
 62
   190
370
    15
390
5F
100
AcDbLine
 10
19623.34411053841
 20
-10326.94403954943
 30
0.0
 11
19768.34411053841
 21
-10371.94403954943
 31
0.0
  0
LWPOLYLINE
  5
2A4
330
1F
100
AcDbEntity
  8
Ech.1_5
  6
Continuous
 62
     5
370
    40
390
5F
100
AcDbPolyline
 90
        5
 70
     0
 43
0.0
 10
19768.34411053841
 20
-10371.94403954943
 10
19623.34411053841
 20
-10371.94403954943
 10
19623.34411053841
 20
-10326.94403954943
 10
19768.34411053841
 20
-10326.94403954943
 10
19768.34411053841
 20
-10371.94403954943
  0
HATCH
  5
2A5
102
{ACAD_REACTORS
330
2A6
102
}
330
1F
100
AcDbEntity
  8
Ech.1_5
  6
Continuous
 62
    35
420
  9529928
440
 33554687
370
    20
390
5F
100
AcDbHatch
 10
0.0
 20
0.0
 30
0.0
210
0.0
220
0.0
230
1.0
  2
SOLID
 70
     1
 71
     0
 91
        1
 92
        3
 72
     0
 73
     1
 93
        4
 10
19673.34411053841
 20
-10123.94403954943
 10
19673.34411053841
 20
-10087.94403954943
 10
19623.34411053841
 20
-10087.94403954943
 10
19623.34411053841
 20
-10123.94403954943
 97
        0
 75
     0
 76
     1
 98
        0
  0
LWPOLYLINE
  5
2A7
102
{ACAD_REACTORS
330
2A6
102
}
330
1F
100
AcDbEntity
  8
Ech.1_5
  6
Continuous
 62
   190
370
    15
390
5F
100
AcDbPolyline
 90
        5
 70
     0
 43
0.0
 10
19673.34411053841
 20
-10123.94403954943
 10
19673.34411053841
 20
-10087.94403954943
 10
19623.34411053841
 20
-10087.94403954943
 10
19623.34411053841
 20
-10123.94403954943
 10
19673.34411053841
 20
-10123.94403954943
  0
LWPOLYLINE
  5
2A8
102
{ACAD_REACTORS
330
2A6
102
}
330
1F
100
AcDbEntity
  8
Ech.1_5
  6
Continuous
 62
   190
370
    15
390
5F
100
AcDbPolyline
 90
        4
 70
     0
 43
0.0
 10
19623.34411053841
 20
-10123.94403954943
 10
19673.34411053841
 20
-10087.94403954943
 10
19623.34411053841
 20
-10087.94403954943
 10
19673.34411053841
 20
-10123.94403954943
  0
LWPOLYLINE
  5
2A9
102
{ACAD_REACTORS
330
2A6
102
}
330
1F
100
AcDbEntity
  8
Ech.1_5
  6
Continuous
 62
     5
370
    40
390
5F
100
AcDbPolyline
 90
        5
 70
     0
 43
0.0
 10
19673.34411053841
 20
-10123.94403954943
 10
19673.34411053841
 20
-10087.94403954943
 10
19623.34411053841
 20
-10087.94403954943
 10
19623.34411053841
 20
-10123.94403954943
 10
19673.34411053841
 20
-10123.94403954943
  0
HATCH
  5
2AA
330
1F
100
AcDbEntity
  8
Ech.1_5
  6
Continuous
 62
    44
420
 11039488
440
 33554687
370
     5
390
5F
100
AcDbHatch
 10
0.0
 20
0.0
 30
0.0
210
0.0
220
0.0
230
1.0
  2
SOLID
 70
     1
 71
     0
 91
        1
 92
        3
 72
     0
 73
     1
 93
        4
 10
19768.34411053843
 20
-10042.94403954943
 10
19421.01074846428
 20
-10042.94403954943
 10
19420.99547459555
 20
-10087.94403914044
 10
19768.32880792888
 20
-10087.94403914044
 97
        0
 75
     0
 76
     1
 98
        0
  0
HATCH
  5
2AB
330
1F
100
AcDbEntity
  8
Ech.1_5
  6
Continuous
 62
   190
440
 33554687
370
    15
390
5F
100
AcDbHatch
 10
0.0
 20
0.0
 30
0.0
210
0.0
220
0.0
230
1.0
  2
CwHatchPattern_23
 70
     0
 71
     0
 91
        1
 92
        3
 72
     0
 73
     1
 93
        4
 10
19768.34411053843
 20
-10042.94403954943
 10
19421.01074846428
 20
-10042.94403954943
 10
19420.99547459555
 20
-10087.94403914044
 10
19768.32880792888
 20
-10087.94403914044
 97
        0
 75
     0
 76
     2
 52
0.0
 41
1.0
 77
     0
 78
     1
 53
0.0
 43
0.0
 44
0.0
 45
0.0
 46
10.0
 79
     0
 98
        0
1001
ACAD
1010
0.0
1020
0.0
1030
0.0
  0
LWPOLYLINE
  5
2AC
330
1F
100
AcDbEntity
  8
Ech.1_5
  6
Continuous
 62
   190
370
    15
390
5F
100
AcDbPolyline
 90
        5
 70
     0
 43
0.0
 10
19768.34411053843
 20
-10042.94403954943
 10
19421.01074846428
 20
-10042.94403954943
 10
19420.99547459555
 20
-10087.94403914044
 10
19768.32880792888
 20
-10087.94403914044
 10
19768.34411053843
 20
-10042.94403954943
  0
LWPOLYLINE
  5
2AE
330
1F
100
AcDbEntity
  8
Ech.1_5
  6
CADWORK_22
 62
     1
 48
0.6
370
    20
390
5F
100
AcDbPolyline
 90
        6
 70
   128
 43
0.0
 10
19770.34411053841
 20
-10604.24917492481
 10
19770.34411053841
 20
-10326.94403954943
 10
19673.34411053841
 20
-10326.94403954943
 10
19673.34411053841
 20
-10087.94403954943
 10
19770.34411053841
 20
-10087.94403954943
 10
19770.34411053841
 20
-9634.677091092875
  0
LWPOLYLINE
  5
2AF
330
1F
100
AcDbEntity
  8
Ech.1_5
  6
CADWORK_22
 62
   140
420
  1483507
 48
0.6
370
    20
390
5F
100
AcDbPolyline
 90
        4
 70
   128
 43
0.0
 10
19598.09740586371
 20
-10407.03647192131
 10
19598.09740586371
 20
-10371.52700634838
 10
19600.34411053841
 20
-10369.58915011467
 10
19600.34411053841
 20
-10087.94338205883
  0
HATCH
  5
2B0
330
1F
100
AcDbEntity
  8
Ech.1_5
  6
Continuous
 62
     8
440
 33554687
370
    20
390
5F
100
AcDbHatch
 10
0.0
 20
0.0
 30
0.0
210
0.0
220
0.0
230
1.0
  2
CwHatchPattern_201
 70
     0
 71
     0
 91
        1
 92
        3
 72
     0
 73
     1
 93
        6
 10
20111.92010281129
 20
-10265.74319416778
 10
19718.34411053841
 20
-10265.74319416778
 10
19718.34411053841
 20
-10326.94403954943
 10
19769.84411053841
 20
-10326.94403954943
 10
19769.84411053841
 20
-10365.74319416778
 10
20111.92010281129
 20
-10365.74305720149
 97
        0
 75
     0
 76
     2
 52
180.0
 41
2.0
 77
     0
 78
    29
 53
180.0
 43
20114.15207279368
 44
-10265.74319416778
 45
-0.0000000000000122
 46
-100.0
 79
     2
 49
4.463939964771271
 49
-12.20273017883301
 53
270.0000000000059
 43
20128.58676312013
 44
-10279.70523411529
 45
33.33333015441895
 46
0.0000000000034282
 79
     2
 49
2.704629898071289
 49
-97.29537010192871
 53
270.0000000000059
 43
20111.92010281129
 44
-10349.0765243222
 45
33.33333015441895
 46
0.0000000000034282
 79
     2
 49
2.704629898071289
 49
-97.29537010192871
 53
284.9324645996163
 43
20095.65068242593
 44
-10285.98504359023
 45
33.33515852016909
 46
-99.99952050724796
 79
     2
 49
61.59638881683349
 49
-455.8760833740234
 53
255.0675354003955
 43
20094.85619304224
 44
-10285.98504359023
 45
33.33515852014843
 46
99.99952050725484
 79
     2
 49
61.5963888168335
 49
-455.8760833740234
 53
195.2551193237314
 43
20109.68813282891
 44
-10265.74319416778
 45
33.33332910801413
 46
-0.0000008935482967
 79
     2
 49
4.530409872531891
 49
-375.5280685424805
 53
344.744888305675
 43
20114.15207279368
 44
-10265.74319416778
 45
33.33332910801371
 46
0.0000053321564444
 79
     2
 49
4.530409872531891
 49
-375.5280685424805
 53
195.2551193237314
 43
20101.85618279024
 44
-10364.55116802947
 45
33.33332910801413
 46
-0.0000008935482967
 79
     2
 49
4.530409872531891
 49
-375.5280685424805
 53
164.7448806762685
 43
20093.02147266908
 44
-10365.74319416778
 45
-33.33332910801413
 46
-0.0000008935482878
 79
     2
 49
4.530409872531891
 49
-375.5280685424805
 53
210.9637565612813
 43
20105.31736252351
 44
-10266.93522418039
 45
33.33333591427053
 46
0.0000002214346608
 79
     2
 49
4.352369904518127
 49
-190.0126838684082
 53
329.0362396240333
 43
20118.54750273271
 44
-10266.93522418039
 45
33.33333591427045
 46
-0.0000024407288386
 79
     2
 49
4.352369904518127
 49
-190.0126838684082
 53
210.9637565612813
 43
20105.5883025889
 44
-10362.31188351409
 45
33.33333591427053
 46
0.0000002214346608
 79
     2
 49
4.352369904518127
 49
-190.0126838684082
 53
149.0362434387187
 43
20088.65069267793
 44
-10364.55116802947
 45
-33.33333591427053
 46
0.0000002214346679
 79
     2
 49
4.352369904518127
 49
-190.0126838684082
 53
225.0000000000029
 43
20101.58524272485
 44
-10269.17450422542
 45
33.33333894439541
 46
0.0000000000017124
 79
     2
 49
3.701289892196655
 49
-137.7200698852539
 53
315.0000000000089
 43
20122.25496289774
 44
-10269.17450422542
 45
33.33333894439541
 46
0.0000000000051728
 79
     2
 49
3.701289892196655
 49
-137.7200698852539
 53
225.0000000000029
 43
20108.2055029039
 44
-10359.69468647735
 45
33.33333894439541
 46
0.0000000000017124
 79
     2
 49
3.701289892196655
 49
-137.7200698852539
 53
134.999999999997
 43
20084.91857168718
 44
-10362.31188351409
 45
-33.33333894439541
 46
0.0000000000017195
 79
     2
 49
3.701289892196655
 49
-137.7200698852539
 53
236.309932708744
 43
20098.96803257509
 44
-10271.79170424239
 45
33.33333501537939
 46
0.0000037734546403
 79
     2
 49
3.882290124893188
 49
-116.3027477264404
 53
303.6900634765706
 43
20124.8721730475
 44
-10271.79170424239
 45
33.33333501537906
 46
-0.0000059927487843
 79
     2
 49
3.882290124893188
 49
-116.3027477264404
 53
236.309932708744
 43
20110.35901275917
 44
-10356.4644199063
 45
33.33333501537939
 46
0.0000037734546403
 79
     2
 49
3.882290124893188
 49
-116.3027477264404
 53
123.690067291256
 43
20082.30136272951
 44
-10359.69468647735
 45
-33.33333501537939
 46
0.0000037734546474
 79
     2
 49
3.882290124893188
 49
-116.3027477264404
 53
251.5650482177782
 43
20096.81452271982
 44
-10275.02196425693
 45
33.3333373816329
 46
0.0000016711047923
 79
     2
 49
4.936600029468536
 49
-100.4726600646973
 53
288.4349517822337
 43
20127.02568290277
 44
-10275.02196425693
 45
33.3333373816329
 46
-0.0000016710979089
 79
     2
 49
4.936600029468536
 49
-100.4726600646973
 53
251.5650482177782
 43
20111.92010281129
 44
-10351.78115422027
 45
33.3333373816329
 46
0.0000016711047923
 79
     2
 49
4.936600029468536
 49
-100.4726600646973
 53
108.4349517822219
 43
20080.14786360307
 44
-10356.4644199063
 45
-33.3333373816329
 46
0.0000016711047941
 79
     2
 49
4.936600029468536
 49
-100.4726600646973
 53
263.6598052978571
 43
20128.58676312013
 44
-10282.40985447662
 45
33.33334276925951
 46
200.0000100942898
 79
     2
 49
3.597190082073212
 49
-298.2489776611328
 53
276.3401947021548
 43
20095.25344250246
 44
-10282.40985447662
 45
33.33334276930083
 46
-200.0000100942829
 79
     2
 49
3.597190082073211
 49
-298.2489776611328
 53
83.65982055665796
 43
20111.92010281129
 44
-10349.0765243222
 45
-33.33328950599253
 46
-200.0000189714958
 79
     2
 49
3.597190082073212
 49
-298.2489776611328
 53
96.34019470214294
 43
20111.92010281129
 44
-10349.0765243222
 45
-33.33334276925946
 46
200.0000100942898
 79
     2
 49
3.597190082073212
 49
-298.2489776611328
 98
        0
1001
ACAD
1010
20111.92010281129
1020
-10265.74319416778
1030
0.0
  0
LWPOLYLINE
  5
2B1
330
1F
100
AcDbEntity
  8
Ech.1_5
  6
Continuous
 62
   190
370
    15
390
5F
100
AcDbPolyline
 90
        7
 70
     0
 43
0.0
 10
20111.92010281129
 20
-10265.74319416778
 10
19718.34411053841
 20
-10265.74319416778
 10
19718.34411053841
 20
-10326.94403954943
 10
19769.84411053841
 20
-10326.94403954943
 10
19769.84411053841
 20
-10365.74319416778
 10
20111.92010281129
 20
-10365.74305720149
 10
20111.92010281129
 20
-10265.74319416778
  0
LWPOLYLINE
  5
2B2
102
{ACAD_REACTORS
330
2B3
102
}
330
1F
100
AcDbEntity
  8
Ech.1_5
  6
Continuous
 62
   190
370
    15
390
5F
100
AcDbPolyline
 90
        3
 70
     0
 43
0.0
 10
19882.96021048327
 20
-10339.31339390088
 10
19907.9914502149
 20
-10460.81530839267
 10
19919.8146973496
 20
-10460.81530839267
  0
INSERT
  5
2B4
102
{ACAD_REACTORS
330
2B3
102
}
330
1F
100
AcDbEntity
  8
Ech.1_5
 62
   190
370
    15
100
AcDbBlockReference
  2
cw-line-extremity4
 10
19882.96021048327
 20
-10339.31339390088
 30
0.0
 50
281.6409351959827
  0
LWPOLYLINE
  5
2B5
330
1F
100
AcDbEntity
  8
Ech.1_5
  6
Continuous
 62
   190
370
    15
390
5F
100
AcDbPolyline
 90
        3
 70
     0
 43
0.0
 10
19696.5941105384
 20
-9908.596105769699
 10
19899.8146973496
 20
-9908.596105769699
 10
19919.8146973496
 20
-9908.596105769699
  0
INSERT
  5
2B6
330
1F
100
AcDbEntity
  8
Ech.1_5
 62
   190
370
    15
100
AcDbBlockReference
  2
cw-line-extremity4
 10
19696.5941105384
 20
-9908.596105769699
 30
0.0
  0
LWPOLYLINE
  5
2B7
330
1F
100
AcDbEntity
  8
Ech.1_5
  6
Continuous
 62
   190
370
    15
390
5F
100
AcDbPolyline
 90
        3
 70
     0
 43
0.0
 10
19769.84411053841
 20
-9845.249952635393
 10
19899.8146973496
 20
-9845.249952635393
 10
19919.8146973496
 20
-9845.249952635393
  0
INSERT
  5
2B8
330
1F
100
AcDbEntity
  8
Ech.1_5
 62
   190
370
    15
100
AcDbBlockReference
  2
cw-line-extremity4
 10
19769.84411053841
 20
-9845.249952635393
 30
0.0
  0
LWPOLYLINE
  5
2B9
330
1F
100
AcDbEntity
  8
Ech.1_5
  6
Continuous
 62
   190
370
    15
390
5F
100
AcDbPolyline
 90
        3
 70
     0
 43
0.0
 10
19614.42622463485
 20
-10064.9825188286
 10
19494.55452938738
 20
-10310.50681896094
 10
19474.55452938738
 20
-10310.50681896094
  0
INSERT
  5
2BA
330
1F
100
AcDbEntity
  8
Ech.1_5
 62
   190
370
    15
100
AcDbBlockReference
  2
cw-line-extremity4
 10
19614.42622463485
 20
-10064.9825188286
 30
0.0
 50
243.9771011150111
  0
LWPOLYLINE
  5
2BB
330
1F
100
AcDbEntity
  8
Ech.1_5
  6
Continuous
 62
   190
370
    15
390
5F
100
AcDbPolyline
 90
        3
 70
     0
 43
0.0
 10
19513.00026767131
 20
-10022.6640783527
 10
19494.55452938736
 20
-9998.397174363869
 10
19474.55452938736
 20
-9998.397174363869
  0
INSERT
  5
2BC
330
1F
100
AcDbEntity
  8
Ech.1_5
 62
   190
370
    15
100
AcDbBlockReference
  2
cw-line-extremity4
 10
19513.00026767131
 20
-10022.6640783527
 30
0.0
 50
127.239160837642
  0
LWPOLYLINE
  5
2BD
330
1F
100
AcDbEntity
  8
Ech.1_5
  6
Continuous
 62
   190
370
    15
390
5F
100
AcDbPolyline
 90
        3
 70
     0
 43
0.0
 10
19803.34411053841
 20
-9772.393932850668
 10
19899.8146973496
 20
-9772.393932850668
 10
19919.8146973496
 20
-9772.393932850668
  0
INSERT
  5
2BE
330
1F
100
AcDbEntity
  8
Ech.1_5
 62
   190
370
    15
100
AcDbBlockReference
  2
cw-line-extremity4
 10
19803.34411053841
 20
-9772.393932850668
 30
0.0
  0
LWPOLYLINE
  5
2BF
330
1F
100
AcDbEntity
  8
Ech.1_5
  6
Continuous
 62
   190
370
    15
390
5F
100
AcDbPolyline
 90
        3
 70
     0
 43
0.0
 10
19834.84411053841
 20
-9715.344490598669
 10
19899.8146973496
 20
-9715.344490598669
 10
19919.8146973496
 20
-9715.344490598669
  0
INSERT
  5
2C0
330
1F
100
AcDbEntity
  8
Ech.1_5
 62
   190
370
    15
100
AcDbBlockReference
  2
cw-line-extremity4
 10
19834.84411053841
 20
-9715.344490598669
 30
0.0
  0
LWPOLYLINE
  5
2C1
102
{ACAD_REACTORS
330
2C2
102
}
330
1F
100
AcDbEntity
  8
Ech.1_5
  6
Continuous
 62
   190
370
    15
390
5F
100
AcDbPolyline
 90
        3
 70
     0
 43
0.0
 10
19863.07662753251
 20
-10235.04947850683
 10
19907.99145021489
 20
-9996.050641881084
 10
19919.8146973496
 20
-9996.050641881084
  0
INSERT
  5
2C3
102
{ACAD_REACTORS
330
2C2
102
}
330
1F
100
AcDbEntity
  8
Ech.1_5
 62
   190
370
    15
100
AcDbBlockReference
  2
cw-line-extremity4
 10
19863.07662753251
 20
-10235.04947850683
 30
0.0
 50
79.35659908118843
  0
LWPOLYLINE
  5
2C4
330
1F
100
AcDbEntity
  8
Ech.1_5
  6
CADWORK_22
 62
   140
420
  1483507
 48
0.6
370
    20
390
5F
100
AcDbPolyline
 90
        3
 70
   128
 43
0.0
 10
19767.15083845066
 20
-10371.94403954943
 10
19600.34411053841
 20
-10371.52322217207
 10
19600.34411053841
 20
-10604.24801285843
  0
LWPOLYLINE
  5
2C5
330
1F
100
AcDbEntity
  8
Ech.1_5
  6
CADWORK_22
 62
   140
420
  1483507
 48
0.6
370
    20
390
5F
100
AcDbPolyline
 90
        3
 70
   128
 43
0.0
 10
19767.15083845066
 20
-10042.52256509046
 10
19600.34411053841
 20
-10042.94338246783
 10
19600.34411053841
 20
-9634.678474356726
  0
LWPOLYLINE
  5
2C6
330
1F
100
AcDbEntity
  8
Ech.1_5
  6
Continuous
 62
   190
370
    15
390
5F
100
AcDbPolyline
 90
        3
 70
     0
 43
0.0
 10
19618.8441105384
 20
-10519.85978653672
 10
19494.55452938736
 20
-10519.85978653672
 10
19474.55452938736
 20
-10519.85978653672
  0
INSERT
  5
2C7
330
1F
100
AcDbEntity
  8
Ech.1_5
 62
   190
370
    15
100
AcDbBlockReference
  2
cw-line-extremity4
 10
19618.8441105384
 20
-10519.85978653672
 30
0.0
 50
180.0
  0
LWPOLYLINE
  5
2C8
330
1F
100
AcDbEntity
  8
Ech.1_5
  6
Continuous
 62
   190
370
    15
390
5F
100
AcDbPolyline
 90
        3
 70
     0
 43
0.0
 10
19559.87053537579
 20
-9648.76728828148
 10
19494.34118148697
 20
-9648.76728828148
 10
19474.34118148697
 20
-9648.76728828148
  0
INSERT
  5
2C9
330
1F
100
AcDbEntity
  8
Ech.1_5
 62
   190
370
    15
100
AcDbBlockReference
  2
cw-line-extremity4
 10
19559.87053537579
 20
-9648.76728828148
 30
0.0
 50
180.0
  0
LWPOLYLINE
  5
2CA
330
1F
100
AcDbEntity
  8
Ech.1_5
  6
Continuous
 62
   190
370
    15
390
5F
100
AcDbPolyline
 90
        3
 70
     0
 43
0.0
 10
19607.79345607664
 20
-9808.52145684394
 10
19494.55452938736
 20
-9808.52145684394
 10
19474.55452938736
 20
-9808.52145684394
  0
INSERT
  5
2CB
330
1F
100
AcDbEntity
  8
Ech.1_5
 62
   190
370
    15
100
AcDbBlockReference
  2
cw-line-extremity4
 10
19607.79345607664
 20
-9808.52145684394
 30
0.0
 50
180.0
  0
LWPOLYLINE
  5
2CC
330
1F
100
AcDbEntity
  8
Ech.1_5
  6
Continuous
 62
   190
370
    15
390
5F
100
AcDbPolyline
 90
        3
 70
     0
 43
0.0
 10
19583.82130643837
 20
-9698.197113863673
 10
19494.34118148697
 20
-9698.197113863673
 10
19474.34118148697
 20
-9698.197113863673
  0
INSERT
  5
2CD
330
1F
100
AcDbEntity
  8
Ech.1_5
 62
   190
370
    15
100
AcDbBlockReference
  2
cw-line-extremity4
 10
19583.82130643837
 20
-9698.197113863673
 30
0.0
 50
180.0
  0
LWPOLYLINE
  5
2CE
330
1F
100
AcDbEntity
  8
Ech.1_5
  6
Continuous
 62
   190
370
    15
390
5F
100
AcDbPolyline
 90
        3
 70
     0
 43
0.0
 10
19598.37053537579
 20
-9749.782200342568
 10
19494.34118148697
 20
-9749.782200342568
 10
19474.34118148697
 20
-9749.782200342568
  0
INSERT
  5
2CF
330
1F
100
AcDbEntity
  8
Ech.1_5
 62
   190
370
    15
100
AcDbBlockReference
  2
cw-line-extremity4
 10
19598.37053537579
 20
-9749.782200342568
 30
0.0
 50
180.0
  0
LWPOLYLINE
  5
2D0
330
1F
100
AcDbEntity
  8
Ech.1_5
  6
Continuous
 62
   190
370
    15
390
5F
100
AcDbPolyline
 90
        3
 70
     0
 43
0.0
 10
19585.87557235581
 20
-9948.708965561687
 10
19494.55452938736
 20
-9903.943321884042
 10
19474.55452938736
 20
-9903.943321884042
  0
INSERT
  5
2D1
330
1F
100
AcDbEntity
  8
Ech.1_5
 62
   190
370
    15
100
AcDbBlockReference
  2
cw-line-extremity4
 10
19585.87557235581
 20
-9948.708965561687
 30
0.0
 50
153.8858716037647
  0
LWPOLYLINE
  5
2D2
330
1F
100
AcDbEntity
  8
Ech.1_5
 62
     3
370
    40
390
5F
100
AcDbPolyline
 90
        4
 70
     0
 43
0.0
 10
19597.84411053843
 20
-9967.558603049358
 10
19597.84411053843
 20
-9975.689979715724
 10
19594.06630013658
 20
-9979.199362720377
 10
19594.06630013658
 20
-9987.77883716172
  0
LWPOLYLINE
  5
2D3
330
1F
100
AcDbEntity
  8
Ech.1_5
 62
     3
370
    40
390
5F
100
AcDbPolyline
 90
        4
 70
     0
 43
0.0
 10
19598.09740586371
 20
-10418.67723159233
 10
19598.09740586371
 20
-10410.54585492598
 10
19594.31959546187
 20
-10407.03647192131
 10
19594.31959546186
 20
-10398.45699747997
  0
LINE
  5
2D4
102
{ACAD_REACTORS
330
2D5
102
}
330
1F
100
AcDbEntity
  8
Ech.1_5
  6
Continuous
 62
   190
370
    15
390
5F
100
AcDbLine
 10
19695.8441105384
 20
-10349.44403954943
 30
2500.0
 11
19695.8441105384
 21
-10394.44403954943
 31
2500.0
  0
INSERT
  5
2D6
102
{ACAD_REACTORS
330
2D5
102
}
330
1F
100
AcDbEntity
  8
Ech.1_5
 62
   190
370
    15
100
AcDbBlockReference
  2
cw-line-extremity4
 10
19695.8441105384
 20
-10394.44403954943
 30
0.0
 50
90.0
  0
INSERT
  5
2D7
102
{ACAD_REACTORS
330
2D5
102
}
330
1F
100
AcDbEntity
  8
Ech.1_5
 62
   190
370
    15
100
AcDbBlockReference
  2
cw-line-extremity4
 10
19695.8441105384
 20
-10349.44403954943
 30
0.0
 50
270.0
  0
LWPOLYLINE
  5
2D8
102
{ACAD_REACTORS
330
2D5
102
}
330
1F
100
AcDbEntity
  8
Ech.1_5
  6
Continuous
 62
   190
370
    15
390
5F
100
AcDbPolyline
 90
        3
 70
     0
 43
0.0
 10
19695.8441105384
 20
-10371.94403954943
 10
19493.52810454998
 20
-10444.08533167224
 10
19473.52810454998
 20
-10444.08533167224
  0
LWPOLYLINE
  5
2D9
330
1F
100
AcDbEntity
  8
Ech.1_5
  6
CADWORK_22
 62
   140
420
  1483507
 48
0.6
370
    20
390
5F
100
AcDbPolyline
 90
        2
 70
   128
 43
0.0
 10
19600.02710120718
 20
-10087.94338205883
 10
19651.89261934473
 20
-10087.94338205883
  0
IMAGE
  5
2DB
330
1F
100
AcDbEntity
  8
Ech.1_5
  6
Continuous
390
5F
160
                 8
310
0800000000000000
100
AcDbRasterImage
 90
        0
 10
19933.27284225597
 20
-10827.44995268456
 30
0.0
 11
0.1487334262910545
 21
0.0
 31
0.0
 12
0.0
 22
0.1487334272781476
 32
0.0
 13
954.0
 23
334.0
340
2DA
 70
     7
280
     0
281
    50
282
    50
283
     0
360
2DC
 71
     1
 91
        2
 14
-0.5
 24
-0.5
 14
953.5
 24
333.5
290
     0
  0
INSERT
  5
2EE
102
{ACAD_REACTORS
330
2EF
102
}
330
1F
100
AcDbEntity
  8
Ech.1_5
100
AcDbBlockReference
  2
DIM11
 10
0.0
 20
0.0
 30
0.0
  0
INSERT
  5
301
102
{ACAD_REACTORS
330
302
102
}
330
1F
100
AcDbEntity
  8
Ech.1_5
100
AcDbBlockReference
  2
DIM12
 10
0.0
 20
0.0
 30
0.0
  0
INSERT
  5
314
102
{ACAD_REACTORS
330
315
102
}
330
1F
100
AcDbEntity
  8
Ech.1_5
100
AcDbBlockReference
  2
DIM13
 10
0.0
 20
0.0
 30
0.0
  0
INSERT
  5
327
102
{ACAD_REACTORS
330
328
102
}
330
1F
100
AcDbEntity
  8
Ech.1_5
100
AcDbBlockReference
  2
DIM14
 10
0.0
 20
0.0
 30
0.0
  0
TEXT
  5
32A
102
{ACAD_REACTORS
330
2EF
102
}
330
1F
100
AcDbEntity
  8
Ech.1_5
  6
Continuous
 62
   190
390
5F
100
AcDbText
 10
19477.51151176819
 20
-10110.64971509705
 30
0.0
 40
12.5
  1
X
  7
arial-
100
AcDbText
  0
TEXT
  5
32B
102
{ACAD_REACTORS
330
302
102
}
330
1F
100
AcDbEntity
  8
Ech.1_5
  6
Continuous
 62
   190
390
5F
100
AcDbText
 10
19406.49843493071
 20
-10064.07441345784
 30
0.0
 40
12.5
  1
10
  7
arial-
100
AcDbText
  0
TEXT
  5
32C
102
{ACAD_REACTORS
330
315
102
}
330
1F
100
AcDbEntity
  8
Ech.1_5
  6
Continuous
 62
   190
390
5F
100
AcDbText
 10
19435.98773167378
 20
-10047.4474641939
 30
0.0
 40
12.5
  1
10
 50
90.0
  7
arial-
100
AcDbText
  0
TEXT
  5
32D
102
{ACAD_REACTORS
330
328
102
}
330
1F
100
AcDbEntity
  8
Ech.1_5
  6
Continuous
 62
   190
390
5F
100
AcDbText
 10
19525.17598069304
 20
-10093.0125341417
 30
0.0
 40
12.5
  1
45 mini
 50
90.0
  7
arial-
100
AcDbText
  0
MTEXT
  5
32E
102
{ACAD_REACTORS
330
228
330
22A
330
22B
102
}
330
1F
100
AcDbEntity
  8
Ech.1_5
  6
Continuous
 62
     4
420
    65535
390
5F
100
AcDbMText
 10
19790.98776457805
 20
-10697.45984510369
 30
0.0
 40
11.25
 41
174.242643641308
 46
0.0
 71
     2
 72
     1
  1
{\fArial|b0|i0;\W1.000000;\H11.250000;\c16711848;Vue en coupe verticale}
  7
arial-
 73
     1
 44
1.07999975538982
  0
MTEXT
  5
32F
102
{ACAD_REACTORS
330
228
330
22A
330
22B
102
}
330
1F
100
AcDbEntity
  8
Ech.1_5
  6
Continuous
 62
     4
420
    65535
390
5F
100
AcDbMText
 10
20111.3078745989
 20
-10697.91766861101
 30
0.0
 40
12.5
 41
62.88904266245663
 46
0.0
 71
     2
 72
     1
  1
{\fArial|b0|i0;\W1.000000;\H12.500000;\c16711848;Ech 1/5 }
  7
arial-
 73
     1
 44
1.07999975538982
  0
MTEXT
  5
331
102
{ACAD_REACTORS
330
228
330
22A
330
22B
102
}
330
1F
100
AcDbEntity
  8
Ech.1_5
  6
Continuous
 62
   200
420
 11010303
390
5F
100
AcDbMText
 10
19688.39404230215
 20
-10719.41502964539
 30
0.0
 40
6.25
 41
762.8659533727914
 46
0.0
 71
     2
 72
     1
  3
{\fArial|b0|i1;\W1.000000;\H6.250000;\c16711848; Il est rappelé à l'utilisateur qui consulte le site et utilise les informations qu'il contient, qu'il doit les utiliser sous sa seule responsabilité en vérifiant leur pertinence, leur cohérence et leur
  1
 non obsolescence.}
  7
arial-i
 73
     1
 44
1.07999975538982
  0
MTEXT
  5
332
102
{ACAD_REACTORS
330
228
330
22A
330
22B
102
}
330
1F
100
AcDbEntity
  8
Ech.1_5
  6
Continuous
 62
   200
420
 11010303
390
5F
100
AcDbMText
 10
19688.48779230215
 20
-10753.57955753888
 30
0.0
 40
8.125
 41
171.8542349804193
 46
0.0
 71
     2
 72
     1
  1
{\fArial|b0|i1;\W1.000000;\H8.125000;\c16711848;www.catalogue-bois-construction.fr}
  7
arial-i
 73
     1
 44
1.07999975538982
  0
MTEXT
  5
333
102
{ACAD_REACTORS
330
228
102
}
330
1F
100
AcDbEntity
  8
Ech.1_5
  6
Continuous
 62
     4
420
    65535
390
5F
100
AcDbMText
 10
19688.89404230215
 20
-9547.718956796642
 30
0.0
 40
15.0
 41
570.243656443432
 46
0.0
 71
     2
 72
     1
  1
{\fArial|b0|i0;\W1.000000;\H15.000000;\c16711848;Paroi interrompue - Liaison plancher bois - Déflecteur bois}
  7
arial-
 73
     1
 44
1.07999975538982
  0
MTEXT
  5
334
330
1F
100
AcDbEntity
  8
Ech.1_5
  6
Continuous
 62
     4
420
    65535
390
5F
100
AcDbMText
 10
19926.0646973496
 20
-9901.058134321545
 30
0.0
 40
12.5
 41
56.90368299372494
 46
0.0
 71
     1
 72
     1
  1
{\fArial|b0|i0;\W1.000000;\H12.500000;\c16711848;Isolant}
  7
arial-
 73
     1
 44
1.07999975538982
  0
MTEXT
  5
335
330
1F
100
AcDbEntity
  8
Ech.1_5
  6
Continuous
 62
     4
420
    65535
390
5F
100
AcDbMText
 10
19926.0646973496
 20
-9837.71198118724
 30
0.0
 40
12.5
 41
104.5474341381341
 46
0.0
 71
     1
 72
     1
  1
{\fArial|b0|i0;\W1.000000;\H12.500000;\c16711848;Pare-vapeur}
  7
arial-
 73
     1
 44
1.07999975538982
  0
MTEXT
  5
336
330
1F
100
AcDbEntity
  8
Ech.1_5
  6
Continuous
 62
     4
420
    65535
390
5F
100
AcDbMText
 10
19926.0646973496
 20
-9976.264412623888
 30
0.0
 40
12.5
 41
212.2353651989251
 46
0.0
 71
     1
 72
     1
  1
{\fArial|b0|i0;\W1.000000;\H12.500000;\c16711848;Paroi horizontale en bois }\P{\fArial|b0|i0;\W1.000000;\H12.500000;\c16711848;REI selon réglementation}
  7
arial-
 73
     1
 44
1.07999975538982
  0
MTEXT
  5
337
330
1F
100
AcDbEntity
  8
Ech.1_5
  6
Continuous
 62
     4
420
    65535
390
5F
100
AcDbMText
 10
19926.0646973496
 20
-10453.31530839267
 30
0.0
 40
12.5
 41
194.7069404590875
 46
0.0
 71
     1
 72
     1
  1
{\fArial|b0|i0;\W1.000000;\H12.500000;\c16711848;Isolant pour acoustique}
  7
arial-
 73
     1
 44
1.07999975538982
  0
MTEXT
  5
338
330
1F
100
AcDbEntity
  8
Ech.1_5
  6
Continuous
 62
     4
420
    65535
390
5F
100
AcDbMText
 10
19469.04202938624
 20
-9990.897174363869
 30
0.0
 40
12.5
 41
185.476545618847
 46
0.0
 71
     3
 72
     1
  1
{\fArial|b0|i0;\W1.000000;\H12.500000;\c16711848;Bavette acier (10/10e)}
  7
arial-
 73
     1
 44
1.07999975538982
 90
        3
 63
     9
421
 13158600
 45
1.5
441
 33554687
  0
MTEXT
  5
339
330
1F
100
AcDbEntity
  8
Ech.1_5
  6
Continuous
 62
     4
420
    65535
390
5F
100
AcDbMText
 10
19926.0646973496
 20
-9707.844490598669
 30
0.0
 40
12.5
 41
207.2006056774408
 46
0.0
 71
     1
 72
     1
  1
{\fArial|b0|i0;\W1.000000;\H12.500000;\c16711848;Parement mural intérieur}
  7
arial-
 73
     1
 44
1.07999975538982
  0
MTEXT
  5
33A
330
1F
100
AcDbEntity
  8
Ech.1_5
  6
Continuous
 62
     4
420
    65535
390
5F
100
AcDbMText
 10
19926.0646973496
 20
-9752.58660575209
 30
0.0
 40
12.5
 41
194.9866500366479
 46
0.0
 71
     1
 72
     1
  1
{\fArial|b0|i0;\W1.000000;\H12.500000;\c16711848;Complément d'isolation par l' intérieur}
  7
arial-
 73
     1
 44
1.07999975538982
  0
MTEXT
  5
33B
330
1F
100
AcDbEntity
  8
Ech.1_5
  6
Continuous
 62
     4
420
    65535
390
5F
100
AcDbMText
 10
19469.77952938512
 20
-10513.23810702126
 30
0.0
 40
12.5
 41
128.2294552791864
 46
0.0
 71
     3
 72
     1
  1
{\fArial|b0|i0;\W1.000000;\H12.500000;\c16711848;Voile travaillant}
  7
arial-
 73
     1
 44
1.07999975538982
  0
MTEXT
  5
33C
102
{ACAD_REACTORS
330
33D
102
}
330
1F
100
AcDbEntity
  8
Ech.1_5
  6
Continuous
 62
     4
420
    65535
390
5F
100
AcDbMText
 10
19469.77952938512
 20
-10424.21033200006
 30
0.0
 40
12.5
 41
155.267983244732
 46
0.0
 71
     3
 72
     1
  1
{\fArial|b0|i0;\W1.000000;\H12.500000;\c16711848;Lisses Bois Massif}\P{\fArial|b0|i0;\W1.000000;\H12.500000;\c16711848;ép 70 mm mini}
  7
arial-
 73
     1
 44
1.07999975538982
 90
        3
 63
     9
421
 13158600
 45
1.5
441
 33554687
  0
MTEXT
  5
33E
330
1F
100
AcDbEntity
  8
Ech.1_5
  6
Continuous
 62
     4
420
    65535
390
5F
100
AcDbMText
 10
19469.56618148473
 20
-9641.336779461606
 30
0.0
 40
12.5
 41
131.3994896877557
 46
0.0
 71
     3
 72
     1
  1
{\fArial|b0|i0;\W1.000000;\H12.500000;\c16711848;Bardage ventilé}
  7
arial-
 73
     1
 44
1.07999975538982
  0
MTEXT
  5
33F
330
1F
100
AcDbEntity
  8
Ech.1_5
  6
Continuous
 62
     4
420
    65535
390
5F
100
AcDbMText
 10
19469.77952938512
 20
-9788.660114475075
 30
0.0
 40
12.5
 41
199.8349373806268
 46
0.0
 71
     3
 72
     1
  1
{\fArial|b0|i0;\W1.000000;\H12.500000;\c16711848;Ecran thermique plaque A2-s3,d0}
  7
arial-
 73
     1
 44
1.07999975538982
  0
MTEXT
  5
340
330
1F
100
AcDbEntity
  8
Ech.1_5
  6
Continuous
 62
     4
420
    65535
390
5F
100
AcDbMText
 10
19469.56618148474
 20
-9742.910889794584
 30
0.0
 40
12.5
 41
86.83253650553524
 46
0.0
 71
     3
 72
     1
  1
{\fArial|b0|i0;\W1.000000;\H12.500000;\c16711848;Pare-pluie}
  7
arial-
 73
     1
 44
1.07999975538982
  0
MTEXT
  5
341
330
1F
100
AcDbEntity
  8
Ech.1_5
  6
Continuous
 62
     4
420
    65535
390
5F
100
AcDbMText
 10
19469.04202938624
 20
-9846.943323195344
 30
0.0
 40
12.5
 41
230.6961544025689
 46
0.0
 71
     3
 72
     1
  1
{\fArial|b0|i0;\W1.000000;\H12.500000;\c16711848;Système d'obturation de lame d'air en cas d'incendie selon les cas (voir tableau des caractéristiques techniques)}
  7
arial-
 73
     1
 44
1.07999975538982
  0
MTEXT
  5
342
330
1F
100
AcDbEntity
  8
Ech.1_5
  6
Continuous
 62
     4
420
    65535
390
5F
100
AcDbMText
 10
19470.30368148362
 20
-9679.995706978676
 30
0.0
 40
12.5
 41
150.0467493999749
 46
0.0
 71
     3
 72
     1
  1
{\fArial|b0|i0;\W1.000000;\H12.500000;\c16711848;Tasseaux support}\P{\fArial|b0|i0;\W1.000000;\H12.500000;\c16711848;de bardage}
  7
arial-
 73
     1
 44
1.07999975538982
  0
MTEXT
  5
344
330
1F
100
AcDbEntity
  8
Ech.1_5
  6
Continuous
 62
     4
420
    65535
390
5F
100
AcDbMText
 10
19536.16405527298
 20
-10125.87309371564
 30
0.0
 40
12.5
 41
275.6360447872503
 46
0.0
 71
     3
 72
     1
  1
{\fArial|b1|i1;\W1.000000;\H12.500000;\c16711848;X mm selon le type de bardage et d'écran thermique défini dans le tableau des caractéristiques techniques}
  7
arial-bi
 73
     1
 44
1.07999975538982
  0
MTEXT
  5
345
330
1F
100
AcDbEntity
  8
Ech.1_5
  6
Continuous
 62
     4
420
    65535
390
5F
100
AcDbMText
 10
19461.81371326389
 20
-10697.64591230855
 30
0.0
 40
12.5
 41
87.68452078576956
 46
0.0
 71
     2
 72
     1
  1
{\fArial|b0|i0;\W1.000000;\H12.500000;\c16711848;MEF01-07}
  7
arial-
 73
     1
 44
1.07999975538982
  0
MTEXT
  5
346
330
1F
100
AcDbEntity
  8
Ech.1_5
  6
Continuous
 62
     4
420
    65535
390
5F
100
AcDbMText
 10
19468.30452938738
 20
-10290.63181928877
 30
0.0
 40
12.5
 41
244.4951939502425
 46
0.0
 71
     3
 72
     1
  1
{\fArial|b0|i0;\W1.000000;\H12.500000;\c16711848;Déflecteur de flamme à base de bois, ép mini 45 mm}
  7
arial-
 73
     1
 44
1.07999975538982
 90
        3
 63
     9
421
 13158600
 45
1.5
441
 33554687
  0
TEXT
  5
348
330
1F
100
AcDbEntity
  8
Ech.1_5
  6
Continuous
 62
   190
390
5F
100
AcDbText
 10
19727.41609230384
 20
-9530.942452164236
 30
0.0
 40
13.5
  1
- écran thermique plaque A2
  7
arial-b
100
AcDbText
  0
TEXT
  5
349
330
1F
100
AcDbEntity
  8
Ech.1_5
  6
Continuous
 62
   190
390
5F
100
AcDbText
 10
19611.60859918803
 20
-9498.558984373652
 30
0.0
 40
13.5
  1
MUR EXTERIEUR
  7
arial-b
100
AcDbText
  0
TEXT
  5
34A
330
1F
100
AcDbEntity
  8
Ech.1_5
  6
Continuous
 62
   190
390
5F
100
AcDbText
 10
19411.63270176631
 20
-9530.942452164236
 30
0.0
 40
13.5
  1
pour exigences globales feu façade
  7
arial-b
100
AcDbText
  0
TEXT
  5
34B
330
1F
100
AcDbEntity
  8
Ech.1_5
  6
Continuous
 62
   190
390
5F
100
AcDbText
 10
20052.21736499891
 20
-9612.559811480838
 30
0.0
 40
8.0
  1
Echelle en mm
  7
arial-
100
AcDbText
  0
TEXT
  5
34C
330
1F
100
AcDbEntity
  8
Ech.1_5
  6
Continuous
 62
   190
390
5F
100
AcDbText
 10
20038.23678024948
 20
-9640.769647010515
 30
0.0
 40
8.0
  1
0
  7
arial-
100
AcDbText
  0
TEXT
  5
34D
330
1F
100
AcDbEntity
  8
Ech.1_5
  6
Continuous
 62
   190
390
5F
100
AcDbText
 10
20124.8338381422
 20
-9640.769647010515
 30
0.0
 40
8.0
  1
100
  7
arial-
100
AcDbText
  0
TEXT
  5
34E
330
1F
100
AcDbEntity
  8
Ech.1_5
  6
Continuous
 62
   190
390
5F
100
AcDbText
 10
20086.09340657632
 20
-9640.769647010515
 30
0.0
 40
8.0
  1
50
  7
arial-
100
AcDbText
  0
MTEXT
  5
34F
330
1F
100
AcDbEntity
  8
Ech.1_5
  6
Continuous
 62
   190
390
5F
100
AcDbMText
 10
19251.98219094108
 20
-10699.02487007637
 30
0.0
 40
12.5
 41
0.0
 46
0.0
 71
     1
 72
     1
  1
\A1;\fArial|b0|i0;\W1.000000;\H12.500000;10/02/2022
  7
arial-
 73
     1
 44
1.0
 90
        3
 63
     9
421
 13158600
 45
1.15
441
 33554687
  0
VIEWPORT
  5
215
330
20F
100
AcDbEntity
 67
     1
  8
0
  6
Continuous
390
5F
100
AcDbViewport
 10
98.8
 20
135.8
 30
0.0
 40
209.0608
 41
287.3528000000001
 68
     1
 69
     1
 12
128.5
 22
97.5
 13
0.0
 23
0.0
 14
10.0
 24
10.0
 15
10.0
 25
10.0
 16
0.0
 26
0.0
 36
1.0
 17
0.0
 27
0.0
 37
0.0
 42
50.0
 43
0.0
 44
0.0
 45
222.18
 50
0.0
 51
0.0
 72
   100
 90
   557152
  1

281
     0
 71
     1
 74
     0
110
0.0
120
0.0
130
0.0
111
1.0
121
0.0
131
0.0
112
0.0
122
1.0
132
0.0
 79
     0
146
0.0
170
     0
 61
     5
348
2F
292
     1
282
     1
141
0.0
142
0.0
 63
   256
361
216
  0
VIEWPORT
  5
217
330
20F
100
AcDbEntity
 67
     1
  8
0
  6
Continuous
 60
     1
390
5F
100
AcDbViewport
 10
98.8
 20
135.8
 30
0.0
 40
197.6
 41
271.6
 68
     2
 69
     2
 12
19688.03154230327
 22
-10154.30898437359
 13
0.0
 23
0.0
 14
10.0
 24
10.0
 15
10.0
 25
10.0
 16
0.0
 26
0.0
 36
1.0
 17
0.0
 27
0.0
 37
0.0
 42
50.0
 43
0.0
 44
0.0
 45
1358.0
 50
0.0
 51
0.0
 72
   100
 90
   557152
  1

281
     0
 71
     1
 74
     0
110
0.0
120
0.0
130
0.0
111
1.0
121
0.0
131
0.0
112
0.0
122
1.0
132
0.0
 79
     0
146
0.0
170
     0
 61
     5
348
2F
292
     1
282
     1
141
0.0
142
0.0
 63
   256
  0
ENDSEC
  0
SECTION
  2
OBJECTS
  0
DICTIONARY
  5
C
330
0
100
AcDbDictionary
281
     1
  3
ACAD_DETAILVIEWSTYLE
350
357
  3
ACAD_GROUP
350
D
  3
ACAD_IMAGE_DICT
350
232
  3
ACAD_IMAGE_VARS
350
60
  3
ACAD_LAYOUT
350
1A
  3
ACAD_MATERIAL
350
43
  3
ACAD_MLEADERSTYLE
350
5B
  3
ACAD_MLINESTYLE
350
17
  3
ACAD_PLOTSETTINGS
350
19
  3
ACAD_PLOTSTYLENAME
350
E
  3
ACAD_SCALELIST
350
47
  3
ACAD_SECTIONVIEWSTYLE
350
358
  3
ACAD_TABLESTYLE
350
59
  3
ACAD_VISUALSTYLE
350
2A
  3
ACAD_WIPEOUT_VARS
350
61
  3
ACDB_RECOMPOSE_DATA
350
354
  3
AcDbVariableDictionary
350
350
  0
SUN
  5
5D
330
29
100
AcDbSun
 90
        1
290
     0
 63
     7
421
 16777215
 40
1.0
291
     1
 91
  2455826
 92
 54000000
292
     0
 70
     2
 71
   256
280
     1
  0
IMAGEDEF_REACTOR
  5
235
330
234
100
AcDbRasterImageDefReactor
 90
        2
330
234
  0
IMAGEDEF_REACTOR
  5
238
330
237
100
AcDbRasterImageDefReactor
 90
        2
330
237
  0
IMAGEDEF_REACTOR
  5
2DC
330
2DB
100
AcDbRasterImageDefReactor
 90
        2
330
2DB
  0
SUN
  5
216
330
215
100
AcDbSun
 90
        1
290
     0
 63
     7
421
 16777215
 40
1.0
291
     1
 91
  2455826
 92
 54000000
292
     0
 70
     2
 71
   256
280
     1
  0
DICTIONARY
  5
357
102
{ACAD_REACTORS
330
C
102
}
330
C
100
AcDbDictionary
281
     1
  0
DICTIONARY
  5
D
102
{ACAD_REACTORS
330
C
102
}
330
C
100
AcDbDictionary
281
     1
  3
1073
350
22B
  3
162
350
228
  3
163
350
22A
  3
179
350
24F
  3
180
350
2B3
  3
186
350
2A6
  3
354
350
2D5
  3
355
350
2C2
  3
988
350
33D
  3
DIM11
350
2EF
  3
DIM12
350
302
  3
DIM13
350
315
  3
DIM14
350
328
  0
DICTIONARY
  5
232
102
{ACAD_REACTORS
330
C
102
}
330
C
100
AcDbDictionary
281
     1
  3
CwRasterImage3235
350
233
  3
CwRasterImage3236
350
236
  3
CwRasterImage3237
350
2DA
  0
RASTERVARIABLES
  5
60
102
{ACAD_REACTORS
330
C
102
}
330
C
100
AcDbRasterVariables
 90
        0
 70
     0
 71
     1
 72
     1
  0
DICTIONARY
  5
1A
102
{ACAD_REACTORS
330
C
102
}
330
C
100
AcDbDictionary
281
     1
  3
CompleteLayout
350
1E
  3
Model
350
22
  3
PrintFrame_7
350
210
  0
DICTIONARY
  5
43
102
{ACAD_REACTORS
330
C
102
}
330
C
100
AcDbDictionary
281
     1
  3
ByBlock
350
45
  3
ByLayer
350
44
  3
Global
350
46
  0
DICTIONARY
  5
5B
102
{ACAD_REACTORS
330
C
102
}
330
C
100
AcDbDictionary
281
     1
  3
Standard
350
5C
  0
DICTIONARY
  5
17
102
{ACAD_REACTORS
330
C
102
}
330
C
100
AcDbDictionary
281
     1
  3
Standard
350
18
  0
DICTIONARY
  5
19
102
{ACAD_REACTORS
330
C
102
}
330
C
100
AcDbDictionary
281
     1
  3
PlotSettings_
350
213
  0
ACDBDICTIONARYWDFLT
  5
E
102
{ACAD_REACTORS
330
C
102
}
330
C
100
AcDbDictionary
281
     1
  3
flat
350
5F
  3
Normal
350
F
  3
round
350
241
100
AcDbDictionaryWithDefault
340
F
  0
DICTIONARY
  5
47
102
{ACAD_REACTORS
330
C
102
}
330
C
100
AcDbDictionary
281
     1
  3
A0
350
48
  3
A1
350
49
  3
A2
350
4A
  3
A3
350
4B
  3
A4
350
4C
  3
A5
350
4D
  3
A6
350
4E
  3
A7
350
4F
  3
A8
350
50
  3
A9
350
51
  3
B0
350
52
  3
B1
350
53
  3
B2
350
54
  3
B3
350
55
  3
B4
350
56
  3
B5
350
57
  3
B6
350
58
  0
DICTIONARY
  5
358
102
{ACAD_REACTORS
330
C
102
}
330
C
100
AcDbDictionary
281
     1
  0
DICTIONARY
  5
59
102
{ACAD_REACTORS
330
C
102
}
330
C
100
AcDbDictionary
281
     1
  3
Standard
350
5A
  0
DICTIONARY
  5
2A
102
{ACAD_REACTORS
330
C
102
}
330
C
100
AcDbDictionary
281
     1
  3
2dWireframe
350
2F
  3
Basic
350
32
  3
Brighten
350
36
  3
ColorChange
350
3A
  3
Conceptual
350
34
  3
Dim
350
35
  3
EdgeColorOff
350
3D
  3
Facepattern
350
39
  3
Flat
350
2B
  3
FlatWithEdges
350
2C
  3
Gouraud
350
2D
  3
GouraudWithEdges
350
2E
  3
Hidden
350
31
  3
JitterOff
350
3B
  3
Linepattern
350
38
  3
OverhangOff
350
3C
  3
Realistic
350
33
  3
Shaded
350
42
  3
Shaded with edges
350
41
  3
Shades of Gray
350
3E
  3
Sketchy
350
3F
  3
Thicken
350
37
  3
Wireframe
350
30
  3
X-Ray
350
40
  0
WIPEOUTVARIABLES
  5
61
102
{ACAD_REACTORS
330
C
102
}
330
C
100
AcDbWipeoutVariables
 70
     0
  0
XRECORD
  5
354
102
{ACAD_REACTORS
330
C
102
}
330
C
100
AcDbXrecord
280
     1
 90
        1
330
5A
  0
DICTIONARY
  5
350
102
{ACAD_REACTORS
330
C
102
}
330
C
100
AcDbDictionary
281
     1
  3
CANNOSCALE
350
351
  3
CENTEREXE
350
35A
  3
CENTERLTYPEFILE
350
35B
  3
CMLEADERSTYLE
350
356
  3
CTABLESTYLE
350
355
  3
WIPEOUTFRAME
350
359
  0
GROUP
  5
22B
102
{ACAD_REACTORS
330
D
102
}
330
D
100
AcDbGroup
300

 70
     0
 71
     1
340
229
340
22C
340
22D
340
22E
340
22F
340
230
340
231
340
234
340
32E
340
32F
340
331
340
332
  0
GROUP
  5
228
102
{ACAD_REACTORS
330
D
102
}
330
D
100
AcDbGroup
300

 70
     0
 71
     1
340
227
340
229
340
22C
340
22D
340
22E
340
22F
340
230
340
231
340
234
340
237
340
32E
340
32F
340
331
340
332
340
333
  0
GROUP
  5
22A
102
{ACAD_REACTORS
330
D
102
}
330
D
100
AcDbGroup
300

 70
     0
 71
     1
340
229
340
22C
340
22D
340
22E
340
22F
340
230
340
231
340
32E
340
32F
340
331
340
332
  0
GROUP
  5
24F
102
{ACAD_REACTORS
330
D
102
}
330
D
100
AcDbGroup
300

 70
     0
 71
     1
340
24E
340
250
340
251
340
252
340
253
340
254
340
255
340
256
340
257
340
25A
340
25B
340
261
340
262
340
263
340
264
340
265
340
266
340
267
340
268
340
269
340
26A
340
26B
340
26C
340
26D
340
26E
340
26F
340
270
340
271
340
272
340
273
340
274
340
275
  0
GROUP
  5
2B3
102
{ACAD_REACTORS
330
D
102
}
330
D
100
AcDbGroup
300

 70
     0
 71
     1
340
2B2
340
2B4
  0
GROUP
  5
2A6
102
{ACAD_REACTORS
330
D
102
}
330
D
100
AcDbGroup
300

 70
     0
 71
     1
340
2A5
340
2A7
340
2A8
340
2A9
  0
GROUP
  5
2D5
102
{ACAD_REACTORS
330
D
102
}
330
D
100
AcDbGroup
300

 70
     0
 71
     1
340
2D4
340
2D6
340
2D7
340
2D8
  0
GROUP
  5
2C2
102
{ACAD_REACTORS
330
D
102
}
330
D
100
AcDbGroup
300

 70
     0
 71
     1
340
2C1
340
2C3
  0
GROUP
  5
33D
102
{ACAD_REACTORS
330
D
102
}
330
D
100
AcDbGroup
300

 70
     0
 71
     1
340
33C
  0
GROUP
  5
2EF
102
{ACAD_REACTORS
330
D
102
}
330
D
100
AcDbGroup
300

 70
     0
 71
     1
340
2EE
340
32A
  0
GROUP
  5
302
102
{ACAD_REACTORS
330
D
102
}
330
D
100
AcDbGroup
300

 70
     0
 71
     1
340
301
340
32B
  0
GROUP
  5
315
102
{ACAD_REACTORS
330
D
102
}
330
D
100
AcDbGroup
300

 70
     0
 71
     1
340
314
340
32C
  0
GROUP
  5
328
102
{ACAD_REACTORS
330
D
102
}
330
D
100
AcDbGroup
300

 70
     0
 71
     1
340
327
340
32D
  0
IMAGEDEF
  5
233
102
{ACAD_REACTORS
330
232
330
235
102
}
330
232
100
AcDbRasterImageDef
 90
        0
  1
fcba.jpg
 10
247.0
 20
171.0
 11
0.3527336860670194
 21
0.3527336860670194
280
     1
281
     3
  0
IMAGEDEF
  5
236
102
{ACAD_REACTORS
330
232
330
238
102
}
330
232
100
AcDbRasterImageDef
 90
        0
  1
EXE_LOGO_FBF_soutien_Q_L.jpg
 10
200.0
 20
133.0
 11
0.3527336860670194
 21
0.3527336860670194
280
     1
281
     3
  0
IMAGEDEF
  5
2DA
102
{ACAD_REACTORS
330
232
330
2DC
102
}
330
232
100
AcDbRasterImageDef
 90
        0
  1
{3D18D2F7-F982-4527-A176-7E8FDB81B9D8}.TIFF
 10
954.0
 20
334.0
 11
0.2645502645502645
 21
0.2645502645502645
280
     1
281
     3
  0
LAYOUT
  5
1E
102
{ACAD_REACTORS
330
1A
102
}
330
1A
100
AcDbPlotSettings
  1

  2
none_device
  4

  6

 40
0.0
 41
0.0
 42
0.0
 43
0.0
 44
0.0
 45
0.0
 46
0.0
 47
0.0
 48
0.0
 49
0.0
140
0.0
141
0.0
142
1.0
143
1.0
 70
   688
 72
     1
 73
     0
 74
     5
  7

 75
    16
 76
     0
 77
     2
 78
   300
147
1.0
148
0.0
149
0.0
100
AcDbLayout
  1
CompleteLayout
 70
     1
 71
     1
 10
0.0
 20
0.0
 11
420.0
 21
297.0
 12
0.0
 22
0.0
 32
0.0
 14
1.000000000000000E+20
 24
1.000000000000000E+20
 34
1.000000000000000E+20
 15
-1.000000000000000E+20
 25
-1.000000000000000E+20
 35
-1.000000000000000E+20
146
0.0
 13
0.0
 23
0.0
 33
0.0
 16
1.0
 26
0.0
 36
0.0
 17
0.0
 27
1.0
 37
0.0
 76
     0
330
1B
  0
LAYOUT
  5
22
102
{ACAD_REACTORS
330
1A
102
}
330
1A
100
AcDbPlotSettings
  1

  2
none_device
  4
Letter_(8.50_x_11.00_Inches)
  6

 40
6.35
 41
6.35
 42
6.35000508
 43
6.35000508
 44
215.9
 45
279.4
 46
0.0
 47
0.0
 48
0.0
 49
0.0
140
0.0
141
0.0
142
1.0
143
1.0
 70
  1712
 72
     1
 73
     0
 74
     0
  7

 75
     0
 76
     0
 77
     2
 78
   300
147
1.0
148
0.0
149
0.0
100
AcDbLayout
  1
Model
 70
     1
 71
     0
 10
0.0
 20
0.0
 11
420.0
 21
297.0
 12
0.0
 22
0.0
 32
0.0
 14
19195.53154230327
 24
-10831.80898437359
 34
0.0
 15
20180.53154230327
 25
-9476.808984373594
 35
2500.0
146
0.0
 13
0.0
 23
0.0
 33
0.0
 16
1.0
 26
0.0
 36
0.0
 17
0.0
 27
1.0
 37
0.0
 76
     0
330
1F
331
29
  0
LAYOUT
  5
210
102
{ACAD_REACTORS
330
1A
102
}
330
1A
100
AcDbPlotSettings
  1
PlotSettings_
  2
Custom Device
  4
Custom_210.000000x297.000000_12.700000_12.700000_6.200000_6.200000
  6

 40
6.2
 41
12.7
 42
6.2
 43
12.7
 44
210.0
 45
297.0
 46
0.0000000000000142
 47
0.0
 48
0.0
 49
0.0
140
197.6
141
271.6
142
1.0
143
1.0
 70
   756
 72
     1
 73
     0
 74
     4
  7

 75
     0
 76
     0
 77
     2
 78
   300
147
1.0
148
0.0
149
0.0
100
AcDbLayout
  1
PrintFrame_7
 70
     0
 71
     2
 10
-20.0
 20
-7.5
 11
277.0
 21
202.5
 12
0.0
 22
0.0
 32
0.0
 14
-5.730400000000003
 24
-7.876400000000018
 34
0.0
 15
203.3304
 25
279.4764
 35
0.0
146
0.0
 13
0.0
 23
0.0
 33
0.0
 16
1.0
 26
0.0
 36
0.0
 17
0.0
 27
1.0
 37
0.0
 76
     0
330
20F
331
215
1001
PLOTTRANSPARENCY
1071
        1
1000
layout-user-created
1070
     1
1000
layout-line-weight-scale
1042
1.0
  0
MATERIAL
  5
45
102
{ACAD_REACTORS
330
43
102
}
330
43
100
AcDbMaterial
  1
ByBlock
 72
     1
 94
      127
  0
MATERIAL
  5
44
102
{ACAD_REACTORS
330
43
102
}
330
43
100
AcDbMaterial
  1
ByLayer
 72
     1
 94
      127
  0
MATERIAL
  5
46
102
{ACAD_REACTORS
330
43
102
}
330
43
100
AcDbMaterial
  1
Global
 72
     1
 94
      127
  0
MLEADERSTYLE
  5
5C
102
{ACAD_REACTORS
330
5B
102
}
330
5B
100
AcDbMLeaderStyle
179
     2
170
     2
171
     1
172
     0
 90
        2
 40
0.0
 41
0.0
173
     1
 91
-1056964608
340
14
 92
       -2
290
     1
 42
2.0
291
     1
 43
8.0
  3
Standard
341
0
 44
4.0
300

342
11
174
     1
178
     6
175
     1
176
     0
 93
-1056964608
 45
4.0
292
     0
297
     0
 46
4.0
343
0
 94
-1056964608
 47
1.0
 49
1.0
140
1.0
293
     1
141
0.0
294
     1
177
     0
142
1.0
295
     0
296
     0
143
3.75
271
     0
272
     9
273
     9
298
     0
  0
MLINESTYLE
  5
18
102
{ACAD_REACTORS
330
17
102
}
330
17
100
AcDbMlineStyle
  2
Standard
 70
     0
  3

 62
   256
 51
90.0
 52
90.0
 71
     2
 49
0.5
 62
   256
  6
BYLAYER
 49
-0.5
 62
   256
  6
BYLAYER
  0
PLOTSETTINGS
  5
213
102
{ACAD_REACTORS
330
19
102
}
330
19
100
AcDbPlotSettings
  1
PlotSettings_
  2
Custom Device
  4
Custom_210.000000x297.000000_12.700000_12.700000_6.200000_6.200000
  6

 40
6.2
 41
12.7
 42
6.2
 43
12.7
 44
210.0
 45
297.0
 46
0.0000000000000142
 47
0.0
 48
0.0
 49
0.0
140
197.6
141
271.6
142
1.0
143
1.0
 70
   756
 72
     1
 73
     0
 74
     4
  7

 75
     0
 76
     0
 77
     2
 78
   300
147
1.0
148
0.0
149
0.0
1001
PLOTTRANSPARENCY
1071
        1
1000
layout-user-created
1070
     1
1000
layout-line-weight-scale
1042
1.0
  0
ACDBPLACEHOLDER
  5
5F
102
{ACAD_REACTORS
330
E
102
}
330
E
  0
ACDBPLACEHOLDER
  5
F
102
{ACAD_REACTORS
330
E
102
}
330
E
  0
ACDBPLACEHOLDER
  5
241
102
{ACAD_REACTORS
330
E
102
}
330
E
  0
SCALE
  5
48
102
{ACAD_REACTORS
330
47
102
}
330
47
100
AcDbScale
 70
     0
300
1:1
140
1.0
141
1.0
290
     1
  0
SCALE
  5
49
102
{ACAD_REACTORS
330
47
102
}
330
47
100
AcDbScale
 70
     0
300
1:2
140
1.0
141
2.0
290
     0
  0
SCALE
  5
4A
102
{ACAD_REACTORS
330
47
102
}
330
47
100
AcDbScale
 70
     0
300
1:4
140
1.0
141
4.0
290
     0
  0
SCALE
  5
4B
102
{ACAD_REACTORS
330
47
102
}
330
47
100
AcDbScale
 70
     0
300
1:5
140
1.0
141
5.0
290
     0
  0
SCALE
  5
4C
102
{ACAD_REACTORS
330
47
102
}
330
47
100
AcDbScale
 70
     0
300
1:8
140
1.0
141
8.0
290
     0
  0
SCALE
  5
4D
102
{ACAD_REACTORS
330
47
102
}
330
47
100
AcDbScale
 70
     0
300
1:10
140
1.0
141
10.0
290
     0
  0
SCALE
  5
4E
102
{ACAD_REACTORS
330
47
102
}
330
47
100
AcDbScale
 70
     0
300
1:16
140
1.0
141
16.0
290
     0
  0
SCALE
  5
4F
102
{ACAD_REACTORS
330
47
102
}
330
47
100
AcDbScale
 70
     0
300
1:20
140
1.0
141
20.0
290
     0
  0
SCALE
  5
50
102
{ACAD_REACTORS
330
47
102
}
330
47
100
AcDbScale
 70
     0
300
1:30
140
1.0
141
30.0
290
     0
  0
SCALE
  5
51
102
{ACAD_REACTORS
330
47
102
}
330
47
100
AcDbScale
 70
     0
300
1:40
140
1.0
141
40.0
290
     0
  0
SCALE
  5
52
102
{ACAD_REACTORS
330
47
102
}
330
47
100
AcDbScale
 70
     0
300
1:50
140
1.0
141
50.0
290
     0
  0
SCALE
  5
53
102
{ACAD_REACTORS
330
47
102
}
330
47
100
AcDbScale
 70
     0
300
1:100
140
1.0
141
100.0
290
     0
  0
SCALE
  5
54
102
{ACAD_REACTORS
330
47
102
}
330
47
100
AcDbScale
 70
     0
300
2:1
140
2.0
141
1.0
290
     0
  0
SCALE
  5
55
102
{ACAD_REACTORS
330
47
102
}
330
47
100
AcDbScale
 70
     0
300
4:1
140
4.0
141
1.0
290
     0
  0
SCALE
  5
56
102
{ACAD_REACTORS
330
47
102
}
330
47
100
AcDbScale
 70
     0
300
8:1
140
8.0
141
1.0
290
     0
  0
SCALE
  5
57
102
{ACAD_REACTORS
330
47
102
}
330
47
100
AcDbScale
 70
     0
300
10:1
140
10.0
141
1.0
290
     0
  0
SCALE
  5
58
102
{ACAD_REACTORS
330
47
102
}
330
47
100
AcDbScale
 70
     0
300
100:1
140
100.0
141
1.0
290
     0
  0
TABLESTYLE
  5
5A
102
{ACAD_REACTORS
330
59
102
}
102
{ACAD_XDICTIONARY
360
352
102
}
330
59
100
AcDbTableStyle
  3
Standard
 70
     0
 71
     0
 40
0.06
 41
0.06
280
     0
281
     0
  7
Standard
140
4.5
170
     2
 62
     0
 63
   257
283
     0
 90
        4
 91
        0
  1

274
    -2
284
     1
 64
     0
275
    -2
285
     1
 65
     0
276
    -2
286
     1
 66
     0
277
    -2
287
     1
 67
     0
278
    -2
288
     1
 68
     0
279
    -2
289
     1
 69
     0
  7
Standard
140
6.0
170
     5
 62
     0
 63
   257
283
     0
 90
        4
 91
        0
  1

274
    -2
284
     1
 64
     0
275
    -2
285
     1
 65
     0
276
    -2
286
     1
 66
     0
277
    -2
287
     1
 67
     0
278
    -2
288
     1
 68
     0
279
    -2
289
     1
 69
     0
  7
Standard
140
4.5
170
     5
 62
     0
 63
   257
283
     0
 90
        4
 91
        0
  1

274
    -2
284
     1
 64
     0
275
    -2
285
     1
 65
     0
276
    -2
286
     1
 66
     0
277
    -2
287
     1
 67
     0
278
    -2
288
     1
 68
     0
279
    -2
289
     1
 69
     0
  0
VISUALSTYLE
  5
2F
102
{ACAD_REACTORS
330
2A
102
}
330
2A
100
AcDbVisualStyle
  2
2dWireframe
 70
     4
177
     3
291
     0
 70
    58
 90
        0
176
     1
 90
        2
176
     1
 90
        0
176
     1
 90
        0
176
     1
 40
0.6
176
     1
 40
30.0
176
     1
 62
     7
420
 16777215
176
     1
 90
        1
176
     1
 90
        4
176
     1
 62
     7
176
     1
 62
   257
176
     1
 90
        1
176
     1
 90
        1
176
     1
 40
1.0
176
     1
 90
        0
176
     1
 62
   257
176
     1
 40
1.0
176
     1
 90
        1
176
     1
 90
        6
176
     1
 90
        2
176
     1
 62
     7
176
     1
 90
        5
176
     1
 90
        0
176
     1
 90
        0
176
     1
290
     0
176
     1
 90
        1
176
     1
 40
0.0
176
     1
 90
        0
176
     1
290
     1
176
     1
290
     1
176
     1
290
     0
176
     1
290
     0
176
     1
290
     0
176
     1
290
     0
176
     1
290
     0
176
     1
290
     0
176
     1
290
     0
176
     1
 90
       50
176
     1
 40
0.0
176
     1
 40
1.0
176
     1
 90
        0
176
     1
 62
    18
420
        0
176
     1
 90
       50
176
     1
 90
        3
176
     1
 62
     5
420
      255
176
     1
290
     0
176
     1
 90
       50
176
     1
 90
       50
176
     1
 90
       50
176
     1
290
     0
176
     1
 90
       50
176
     1
 62
   256
176
     0
 40
1.0
176
     0
 90
        2
176
     1
  1
strokes_ogs.tif
176
     1
290
     0
176
     1
 40
1.0
176
     1
 40
1.0
176
     1
  0
VISUALSTYLE
  5
32
102
{ACAD_REACTORS
330
2A
102
}
330
2A
100
AcDbVisualStyle
  2
Basic
 70
     7
177
     3
291
     1
 70
    58
 90
        1
176
     1
 90
        0
176
     1
 90
        1
176
     1
 90
        0
176
     1
 40
0.6
176
     1
 40
30.0
176
     1
 62
     7
420
 16777215
176
     1
 90
        0
176
     1
 90
        4
176
     1
 62
     7
176
     1
 62
   257
176
     1
 90
        1
176
     1
 90
        1
176
     1
 40
1.0
176
     1
 90
        8
176
     1
 62
     7
176
     1
 40
1.0
176
     1
 90
        1
176
     1
 90
        6
176
     1
 90
        2
176
     1
 62
     7
176
     1
 90
        5
176
     1
 90
        0
176
     1
 90
        0
176
     1
290
     0
176
     1
 90
        1
176
     1
 40
0.0
176
     1
 90
        0
176
     1
290
     0
176
     1
290
     1
176
     1
290
     1
176
     1
290
     0
176
     1
290
     0
176
     1
290
     0
176
     1
290
     0
176
     1
290
     0
176
     1
290
     0
176
     1
 90
       50
176
     1
 40
0.0
176
     1
 40
1.0
176
     1
 90
        0
176
     1
 62
    18
420
        0
176
     1
 90
       50
176
     1
 90
        3
176
     1
 62
     5
420
      255
176
     1
290
     0
176
     1
 90
       50
176
     1
 90
       50
176
     1
 90
       50
176
     1
290
     0
176
     1
 90
       50
176
     1
 62
   256
176
     0
 40
1.0
176
     0
 90
        2
176
     1
  1
strokes_ogs.tif
176
     1
290
     0
176
     1
 40
1.0
176
     1
 40
1.0
176
     1
  0
VISUALSTYLE
  5
36
102
{ACAD_REACTORS
330
2A
102
}
330
2A
100
AcDbVisualStyle
  2
Brighten
 70
    12
177
     3
291
     1
 70
    58
 90
        2
176
     1
 90
        2
176
     1
 90
        0
176
     1
 90
        0
176
     1
 40
0.6
176
     1
 40
30.0
176
     1
 62
     7
420
 16777215
176
     1
 90
        1
176
     1
 90
        4
176
     1
 62
     7
176
     1
 62
   257
176
     1
 90
        1
176
     1
 90
        1
176
     1
 40
1.0
176
     1
 90
        8
176
     1
 62
     7
176
     1
 40
1.0
176
     1
 90
        1
176
     1
 90
        6
176
     1
 90
        2
176
     1
 62
     7
176
     1
 90
        5
176
     1
 90
        0
176
     1
 90
        0
176
     1
290
     0
176
     1
 90
        1
176
     1
 40
50.0
176
     1
 90
        0
176
     1
290
     0
176
     1
290
     1
176
     1
290
     1
176
     1
290
     0
176
     1
290
     0
176
     1
290
     0
176
     1
290
     0
176
     1
290
     0
176
     1
290
     0
176
     1
 90
       50
176
     1
 40
0.0
176
     1
 40
1.0
176
     1
 90
        0
176
     1
 62
    18
420
        0
176
     1
 90
       50
176
     1
 90
        3
176
     1
 62
     5
420
      255
176
     1
290
     0
176
     1
 90
       50
176
     1
 90
       50
176
     1
 90
       50
176
     1
290
     0
176
     1
 90
       50
176
     1
 62
   256
176
     0
 40
1.0
176
     0
 90
        2
176
     1
  1
strokes_ogs.tif
176
     1
290
     0
176
     1
 40
1.0
176
     1
 40
1.0
176
     1
  0
VISUALSTYLE
  5
3A
102
{ACAD_REACTORS
330
2A
102
}
330
2A
100
AcDbVisualStyle
  2
ColorChange
 70
    16
177
     3
291
     1
 70
    58
 90
        2
176
     1
 90
        2
176
     1
 90
        3
176
     1
 90
        0
176
     1
 40
0.6
176
     1
 40
30.0
176
     1
 62
     8
420
  8421504
176
     1
 90
        1
176
     1
 90
        4
176
     1
 62
     7
176
     1
 62
   257
176
     1
 90
        1
176
     1
 90
        1
176
     1
 40
1.0
176
     1
 90
        8
176
     1
 62
     8
420
  8421504
176
     1
 40
1.0
176
     1
 90
        1
176
     1
 90
        6
176
     1
 90
        2
176
     1
 62
     7
176
     1
 90
        5
176
     1
 90
        0
176
     1
 90
        0
176
     1
290
     0
176
     1
 90
        1
176
     1
 40
0.0
176
     1
 90
        0
176
     1
290
     0
176
     1
290
     1
176
     1
290
     1
176
     1
290
     0
176
     1
290
     0
176
     1
290
     0
176
     1
290
     0
176
     1
290
     0
176
     1
290
     0
176
     1
 90
       50
176
     1
 40
0.0
176
     1
 40
1.0
176
     1
 90
        0
176
     1
 62
    18
420
        0
176
     1
 90
       50
176
     1
 90
        3
176
     1
 62
     5
420
      255
176
     1
290
     0
176
     1
 90
       50
176
     1
 90
       50
176
     1
 90
       50
176
     1
290
     0
176
     1
 90
       50
176
     1
 62
   256
176
     0
 40
1.0
176
     0
 90
        2
176
     1
  1
strokes_ogs.tif
176
     1
290
     0
176
     1
 40
1.0
176
     1
 40
1.0
176
     1
  0
VISUALSTYLE
  5
34
102
{ACAD_REACTORS
330
2A
102
}
330
2A
100
AcDbVisualStyle
  2
Conceptual
 70
     9
177
     3
291
     0
 70
    58
 90
        3
176
     1
 90
        2
176
     1
 90
        0
176
     1
 90
        0
176
     1
 40
0.6
176
     1
 40
30.0
176
     1
 62
     7
420
 16777215
176
     1
 90
        2
176
     1
 90
        2
176
     1
 62
     7
176
     1
 62
   257
176
     1
 90
        1
176
     1
 90
        1
176
     1
 40
179.0
176
     1
 90
        8
176
     1
 62
     7
176
     1
 40
1.0
176
     1
 90
        1
176
     1
 90
        6
176
     1
 90
        2
176
     1
 62
     7
176
     1
 90
        3
176
     1
 90
        0
176
     1
 90
        0
176
     1
290
     0
176
     1
 90
        1
176
     1
 40
0.0
176
     1
 90
        0
176
     1
290
     0
176
     1
290
     1
176
     1
290
     1
176
     1
290
     0
176
     1
290
     0
176
     1
290
     0
176
     1
290
     0
176
     1
290
     0
176
     1
290
     0
176
     1
 90
       50
176
     1
 40
0.0
176
     1
 40
1.0
176
     1
 90
        0
176
     1
 62
    18
420
        0
176
     1
 90
       50
176
     1
 90
        3
176
     1
 62
     5
420
      255
176
     1
290
     0
176
     1
 90
       50
176
     1
 90
       50
176
     1
 90
       50
176
     1
290
     0
176
     1
 90
       50
176
     1
 62
   256
176
     0
 40
1.0
176
     0
 90
        2
176
     1
  1
strokes_ogs.tif
176
     1
290
     0
176
     1
 40
1.0
176
     1
 40
1.0
176
     1
  0
VISUALSTYLE
  5
35
102
{ACAD_REACTORS
330
2A
102
}
330
2A
100
AcDbVisualStyle
  2
Dim
 70
    11
177
     3
291
     1
 70
    58
 90
        2
176
     1
 90
        2
176
     1
 90
        0
176
     1
 90
        0
176
     1
 40
0.6
176
     1
 40
30.0
176
     1
 62
     7
420
 16777215
176
     1
 90
        1
176
     1
 90
        4
176
     1
 62
     7
176
     1
 62
   257
176
     1
 90
        1
176
     1
 90
        1
176
     1
 40
1.0
176
     1
 90
        8
176
     1
 62
     7
176
     1
 40
1.0
176
     1
 90
        1
176
     1
 90
        6
176
     1
 90
        2
176
     1
 62
     7
176
     1
 90
        5
176
     1
 90
        0
176
     1
 90
        0
176
     1
290
     0
176
     1
 90
        1
176
     1
 40
-50.0
176
     1
 90
        0
176
     1
290
     0
176
     1
290
     1
176
     1
290
     1
176
     1
290
     0
176
     1
290
     0
176
     1
290
     0
176
     1
290
     0
176
     1
290
     0
176
     1
290
     0
176
     1
 90
       50
176
     1
 40
0.0
176
     1
 40
1.0
176
     1
 90
        0
176
     1
 62
    18
420
        0
176
     1
 90
       50
176
     1
 90
        3
176
     1
 62
     5
420
      255
176
     1
290
     0
176
     1
 90
       50
176
     1
 90
       50
176
     1
 90
       50
176
     1
290
     0
176
     1
 90
       50
176
     1
 62
   256
176
     0
 40
1.0
176
     0
 90
        2
176
     1
  1
strokes_ogs.tif
176
     1
290
     0
176
     1
 40
1.0
176
     1
 40
1.0
176
     1
  0
VISUALSTYLE
  5
3D
102
{ACAD_REACTORS
330
2A
102
}
330
2A
100
AcDbVisualStyle
  2
EdgeColorOff
 70
    22
177
     3
291
     1
 70
    58
 90
        2
176
     0
 90
        2
176
     0
 90
        0
176
     0
 90
        0
176
     0
 40
0.6
176
     0
 40
30.0
176
     0
 62
     7
420
 16777215
176
     0
 90
        1
176
     0
 90
        4
176
     0
 62
     7
176
     0
 62
   257
176
     0
 90
        1
176
     0
 90
        1
176
     0
 40
1.0
176
     0
 90
        8
176
     2
 62
     7
176
     0
 40
1.0
176
     0
 90
        1
176
     0
 90
        6
176
     0
 90
        2
176
     0
 62
     7
176
     0
 90
        5
176
     0
 90
        0
176
     0
 90
        0
176
     0
290
     0
176
     0
 90
        1
176
     0
 40
0.0
176
     0
 90
        0
176
     0
290
     0
176
     0
290
     1
176
     0
290
     1
176
     0
290
     0
176
     0
290
     0
176
     0
290
     0
176
     0
290
     0
176
     0
290
     0
176
     0
290
     0
176
     0
 90
       50
176
     0
 40
0.0
176
     0
 40
1.0
176
     0
 90
        0
176
     0
 62
    18
420
        0
176
     0
 90
       50
176
     0
 90
        3
176
     0
 62
     5
420
      255
176
     0
290
     0
176
     0
 90
       50
176
     0
 90
       50
176
     0
 90
       50
176
     0
290
     0
176
     0
 90
       50
176
     0
 62
   256
176
     0
 40
1.0
176
     0
 90
        2
176
     0
  1
strokes_ogs.tif
176
     0
290
     0
176
     0
 40
1.0
176
     0
 40
1.0
176
     0
  0
VISUALSTYLE
  5
39
102
{ACAD_REACTORS
330
2A
102
}
330
2A
100
AcDbVisualStyle
  2
Facepattern
 70
    15
177
     3
291
     1
 70
    58
 90
        2
176
     1
 90
        2
176
     1
 90
        0
176
     1
 90
        0
176
     1
 40
0.6
176
     1
 40
30.0
176
     1
 62
     7
420
 16777215
176
     1
 90
        1
176
     1
 90
        4
176
     1
 62
     7
176
     1
 62
   257
176
     1
 90
        1
176
     1
 90
        1
176
     1
 40
1.0
176
     1
 90
        8
176
     1
 62
     7
176
     1
 40
1.0
176
     1
 90
        1
176
     1
 90
        6
176
     1
 90
        2
176
     1
 62
     7
176
     1
 90
        5
176
     1
 90
        0
176
     1
 90
        0
176
     1
290
     0
176
     1
 90
        1
176
     1
 40
0.0
176
     1
 90
        0
176
     1
290
     0
176
     1
290
     1
176
     1
290
     1
176
     1
290
     0
176
     1
290
     0
176
     1
290
     0
176
     1
290
     0
176
     1
290
     0
176
     1
290
     0
176
     1
 90
       50
176
     1
 40
0.0
176
     1
 40
1.0
176
     1
 90
        0
176
     1
 62
    18
420
        0
176
     1
 90
       50
176
     1
 90
        3
176
     1
 62
     5
420
      255
176
     1
290
     0
176
     1
 90
       50
176
     1
 90
       50
176
     1
 90
       50
176
     1
290
     0
176
     1
 90
       50
176
     1
 62
   256
176
     0
 40
1.0
176
     0
 90
        2
176
     1
  1
strokes_ogs.tif
176
     1
290
     0
176
     1
 40
1.0
176
     1
 40
1.0
176
     1
  0
VISUALSTYLE
  5
2B
102
{ACAD_REACTORS
330
2A
102
}
330
2A
100
AcDbVisualStyle
  2
Flat
 70
     0
177
     3
291
     1
 70
    58
 90
        2
176
     1
 90
        1
176
     1
 90
        1
176
     1
 90
        2
176
     1
 40
0.6
176
     1
 40
30.0
176
     1
 62
     7
420
 16777215
176
     1
 90
        0
176
     1
 90
        0
176
     1
 62
     7
176
     1
 62
   257
176
     1
 90
        1
176
     1
 90
        1
176
     1
 40
1.0
176
     1
 90
        8
176
     1
 62
     7
176
     1
 40
1.0
176
     1
 90
        1
176
     1
 90
        6
176
     1
 90
        2
176
     1
 62
     7
176
     1
 90
        5
176
     1
 90
        0
176
     1
 90
        0
176
     1
290
     0
176
     1
 90
       13
176
     1
 40
0.0
176
     1
 90
        0
176
     1
290
     0
176
     1
290
     1
176
     1
290
     1
176
     1
290
     0
176
     1
290
     0
176
     1
290
     0
176
     1
290
     0
176
     1
290
     0
176
     1
290
     0
176
     1
 90
       50
176
     1
 40
0.0
176
     1
 40
1.0
176
     1
 90
        0
176
     1
 62
    18
420
        0
176
     1
 90
       50
176
     1
 90
        3
176
     1
 62
     5
420
      255
176
     1
290
     0
176
     1
 90
       50
176
     1
 90
       50
176
     1
 90
       50
176
     1
290
     0
176
     1
 90
       50
176
     1
 62
   256
176
     0
 40
1.0
176
     0
 90
        2
176
     1
  1
strokes_ogs.tif
176
     1
290
     0
176
     1
 40
1.0
176
     1
 40
1.0
176
     1
  0
VISUALSTYLE
  5
2C
102
{ACAD_REACTORS
330
2A
102
}
330
2A
100
AcDbVisualStyle
  2
FlatWithEdges
 70
     1
177
     3
291
     1
 70
    58
 90
        2
176
     1
 90
        1
176
     1
 90
        1
176
     1
 90
        2
176
     1
 40
0.6
176
     1
 40
30.0
176
     1
 62
     7
420
 16777215
176
     1
 90
        1
176
     1
 90
        0
176
     1
 62
     7
176
     1
 62
   257
176
     1
 90
        1
176
     1
 90
        1
176
     1
 40
1.0
176
     1
 90
        0
176
     1
 62
   257
176
     1
 40
1.0
176
     1
 90
        1
176
     1
 90
        6
176
     1
 90
        2
176
     1
 62
     7
176
     1
 90
        5
176
     1
 90
        0
176
     1
 90
        0
176
     1
290
     0
176
     1
 90
       13
176
     1
 40
0.0
176
     1
 90
        0
176
     1
290
     0
176
     1
290
     1
176
     1
290
     1
176
     1
290
     0
176
     1
290
     0
176
     1
290
     0
176
     1
290
     0
176
     1
290
     0
176
     1
290
     0
176
     1
 90
       50
176
     1
 40
0.0
176
     1
 40
1.0
176
     1
 90
        0
176
     1
 62
    18
420
        0
176
     1
 90
       50
176
     1
 90
        3
176
     1
 62
     5
420
      255
176
     1
290
     0
176
     1
 90
       50
176
     1
 90
       50
176
     1
 90
       50
176
     1
290
     0
176
     1
 90
       50
176
     1
 62
   256
176
     0
 40
1.0
176
     0
 90
        2
176
     1
  1
strokes_ogs.tif
176
     1
290
     0
176
     1
 40
1.0
176
     1
 40
1.0
176
     1
  0
VISUALSTYLE
  5
2D
102
{ACAD_REACTORS
330
2A
102
}
330
2A
100
AcDbVisualStyle
  2
Gouraud
 70
     2
177
     3
291
     1
 70
    58
 90
        2
176
     1
 90
        2
176
     1
 90
        1
176
     1
 90
        2
176
     1
 40
0.6
176
     1
 40
30.0
176
     1
 62
     7
420
 16777215
176
     1
 90
        0
176
     1
 90
        0
176
     1
 62
     7
176
     1
 62
   257
176
     1
 90
        1
176
     1
 90
        1
176
     1
 40
1.0
176
     1
 90
        0
176
     1
 62
     7
176
     1
 40
1.0
176
     1
 90
        1
176
     1
 90
        6
176
     1
 90
        2
176
     1
 62
     7
176
     1
 90
        5
176
     1
 90
        0
176
     1
 90
        0
176
     1
290
     0
176
     1
 90
       13
176
     1
 40
0.0
176
     1
 90
        0
176
     1
290
     0
176
     1
290
     1
176
     1
290
     1
176
     1
290
     0
176
     1
290
     0
176
     1
290
     0
176
     1
290
     0
176
     1
290
     0
176
     1
290
     0
176
     1
 90
       50
176
     1
 40
0.0
176
     1
 40
1.0
176
     1
 90
        0
176
     1
 62
    18
420
        0
176
     1
 90
       50
176
     1
 90
        3
176
     1
 62
     5
420
      255
176
     1
290
     0
176
     1
 90
       50
176
     1
 90
       50
176
     1
 90
       50
176
     1
290
     0
176
     1
 90
       50
176
     1
 62
   256
176
     0
 40
1.0
176
     0
 90
        2
176
     1
  1
strokes_ogs.tif
176
     1
290
     0
176
     1
 40
1.0
176
     1
 40
1.0
176
     1
  0
VISUALSTYLE
  5
2E
102
{ACAD_REACTORS
330
2A
102
}
330
2A
100
AcDbVisualStyle
  2
GouraudWithEdges
 70
     3
177
     3
291
     1
 70
    58
 90
        2
176
     1
 90
        2
176
     1
 90
        1
176
     1
 90
        2
176
     1
 40
0.6
176
     1
 40
30.0
176
     1
 62
     7
420
 16777215
176
     1
 90
        1
176
     1
 90
        0
176
     1
 62
     7
176
     1
 62
   257
176
     1
 90
        1
176
     1
 90
        1
176
     1
 40
1.0
176
     1
 90
        0
176
     1
 62
   257
176
     1
 40
1.0
176
     1
 90
        1
176
     1
 90
        6
176
     1
 90
        2
176
     1
 62
     7
176
     1
 90
        5
176
     1
 90
        0
176
     1
 90
        0
176
     1
290
     0
176
     1
 90
       13
176
     1
 40
0.0
176
     1
 90
        0
176
     1
290
     0
176
     1
290
     1
176
     1
290
     1
176
     1
290
     0
176
     1
290
     0
176
     1
290
     0
176
     1
290
     0
176
     1
290
     0
176
     1
290
     0
176
     1
 90
       50
176
     1
 40
0.0
176
     1
 40
1.0
176
     1
 90
        0
176
     1
 62
    18
420
        0
176
     1
 90
       50
176
     1
 90
        3
176
     1
 62
     5
420
      255
176
     1
290
     0
176
     1
 90
       50
176
     1
 90
       50
176
     1
 90
       50
176
     1
290
     0
176
     1
 90
       50
176
     1
 62
   256
176
     0
 40
1.0
176
     0
 90
        2
176
     1
  1
strokes_ogs.tif
176
     1
290
     0
176
     1
 40
1.0
176
     1
 40
1.0
176
     1
  0
VISUALSTYLE
  5
31
102
{ACAD_REACTORS
330
2A
102
}
330
2A
100
AcDbVisualStyle
  2
Hidden
 70
     6
177
     3
291
     0
 70
    58
 90
        1
176
     1
 90
        2
176
     1
 90
        2
176
     1
 90
        0
176
     1
 40
0.6
176
     1
 40
30.0
176
     1
 62
     7
420
 16777215
176
     1
 90
        2
176
     1
 90
        2
176
     1
 62
     7
176
     1
 62
   257
176
     1
 90
        2
176
     1
 90
        1
176
     1
 40
40.0
176
     1
 90
        0
176
     1
 62
   257
176
     1
 40
1.0
176
     1
 90
        1
176
     1
 90
        6
176
     1
 90
        2
176
     1
 62
     7
176
     1
 90
        3
176
     1
 90
        0
176
     1
 90
        0
176
     1
290
     0
176
     1
 90
        1
176
     1
 40
0.0
176
     1
 90
        0
176
     1
290
     0
176
     1
290
     1
176
     1
290
     1
176
     1
290
     0
176
     1
290
     0
176
     1
290
     0
176
     1
290
     0
176
     1
290
     0
176
     1
290
     0
176
     1
 90
       50
176
     1
 40
0.0
176
     1
 40
1.0
176
     1
 90
        0
176
     1
 62
    18
420
        0
176
     1
 90
       50
176
     1
 90
        3
176
     1
 62
     5
420
      255
176
     1
290
     0
176
     1
 90
       50
176
     1
 90
       50
176
     1
 90
       50
176
     1
290
     0
176
     1
 90
       50
176
     1
 62
   256
176
     0
 40
1.0
176
     0
 90
        2
176
     1
  1
strokes_ogs.tif
176
     1
290
     0
176
     1
 40
1.0
176
     1
 40
1.0
176
     1
  0
VISUALSTYLE
  5
3B
102
{ACAD_REACTORS
330
2A
102
}
330
2A
100
AcDbVisualStyle
  2
JitterOff
 70
    20
177
     3
291
     1
 70
    58
 90
        2
176
     0
 90
        2
176
     0
 90
        0
176
     0
 90
        0
176
     0
 40
0.6
176
     0
 40
30.0
176
     0
 62
     7
420
 16777215
176
     0
 90
        1
176
     0
 90
        4
176
     0
 62
     7
176
     0
 62
   257
176
     0
 90
        1
176
     0
 90
        1
176
     0
 40
1.0
176
     0
 90
       10
176
     2
 62
     7
176
     0
 40
1.0
176
     0
 90
        1
176
     0
 90
        6
176
     0
 90
        2
176
     0
 62
     7
176
     0
 90
        5
176
     0
 90
        0
176
     0
 90
        0
176
     0
290
     0
176
     0
 90
        1
176
     0
 40
0.0
176
     0
 90
        0
176
     0
290
     0
176
     0
290
     1
176
     0
290
     1
176
     0
290
     0
176
     0
290
     0
176
     0
290
     0
176
     0
290
     0
176
     0
290
     0
176
     0
290
     0
176
     0
 90
       50
176
     0
 40
0.0
176
     0
 40
1.0
176
     0
 90
        0
176
     0
 62
    18
420
        0
176
     0
 90
       50
176
     0
 90
        3
176
     0
 62
     5
420
      255
176
     0
290
     0
176
     0
 90
       50
176
     0
 90
       50
176
     0
 90
       50
176
     0
290
     0
176
     0
 90
       50
176
     0
 62
   256
176
     0
 40
1.0
176
     0
 90
        2
176
     0
  1
strokes_ogs.tif
176
     0
290
     0
176
     0
 40
1.0
176
     0
 40
1.0
176
     0
  0
VISUALSTYLE
  5
38
102
{ACAD_REACTORS
330
2A
102
}
330
2A
100
AcDbVisualStyle
  2
Linepattern
 70
    14
177
     3
291
     1
 70
    58
 90
        2
176
     1
 90
        2
176
     1
 90
        0
176
     1
 90
        0
176
     1
 40
0.6
176
     1
 40
30.0
176
     1
 62
     7
420
 16777215
176
     1
 90
        1
176
     1
 90
        4
176
     1
 62
     7
176
     1
 62
   257
176
     1
 90
        7
176
     1
 90
        7
176
     1
 40
1.0
176
     1
 90
        8
176
     1
 62
     7
176
     1
 40
1.0
176
     1
 90
        1
176
     1
 90
        6
176
     1
 90
        2
176
     1
 62
     7
176
     1
 90
        5
176
     1
 90
        0
176
     1
 90
        0
176
     1
290
     0
176
     1
 90
        1
176
     1
 40
0.0
176
     1
 90
        0
176
     1
290
     0
176
     1
290
     1
176
     1
290
     1
176
     1
290
     0
176
     1
290
     0
176
     1
290
     0
176
     1
290
     0
176
     1
290
     0
176
     1
290
     0
176
     1
 90
       50
176
     1
 40
0.0
176
     1
 40
1.0
176
     1
 90
        0
176
     1
 62
    18
420
        0
176
     1
 90
       50
176
     1
 90
        3
176
     1
 62
     5
420
      255
176
     1
290
     0
176
     1
 90
       50
176
     1
 90
       50
176
     1
 90
       50
176
     1
290
     0
176
     1
 90
       50
176
     1
 62
   256
176
     0
 40
1.0
176
     0
 90
        2
176
     1
  1
strokes_ogs.tif
176
     1
290
     0
176
     1
 40
1.0
176
     1
 40
1.0
176
     1
  0
VISUALSTYLE
  5
3C
102
{ACAD_REACTORS
330
2A
102
}
330
2A
100
AcDbVisualStyle
  2
OverhangOff
 70
    21
177
     3
291
     1
 70
    58
 90
        2
176
     0
 90
        2
176
     0
 90
        0
176
     0
 90
        0
176
     0
 40
0.6
176
     0
 40
30.0
176
     0
 62
     7
420
 16777215
176
     0
 90
        1
176
     0
 90
        4
176
     0
 62
     7
176
     0
 62
   257
176
     0
 90
        1
176
     0
 90
        1
176
     0
 40
1.0
176
     0
 90
        9
176
     2
 62
     7
176
     0
 40
1.0
176
     0
 90
        1
176
     0
 90
        6
176
     0
 90
        2
176
     0
 62
     7
176
     0
 90
        5
176
     0
 90
        0
176
     0
 90
        0
176
     0
290
     0
176
     0
 90
        1
176
     0
 40
0.0
176
     0
 90
        0
176
     0
290
     0
176
     0
290
     1
176
     0
290
     1
176
     0
290
     0
176
     0
290
     0
176
     0
290
     0
176
     0
290
     0
176
     0
290
     0
176
     0
290
     0
176
     0
 90
       50
176
     0
 40
0.0
176
     0
 40
1.0
176
     0
 90
        0
176
     0
 62
    18
420
        0
176
     0
 90
       50
176
     0
 90
        3
176
     0
 62
     5
420
      255
176
     0
290
     0
176
     0
 90
       50
176
     0
 90
       50
176
     0
 90
       50
176
     0
290
     0
176
     0
 90
       50
176
     0
 62
   256
176
     0
 40
1.0
176
     0
 90
        2
176
     0
  1
strokes_ogs.tif
176
     0
290
     0
176
     0
 40
1.0
176
     0
 40
1.0
176
     0
  0
VISUALSTYLE
  5
33
102
{ACAD_REACTORS
330
2A
102
}
330
2A
100
AcDbVisualStyle
  2
Realistic
 70
     8
177
     3
291
     0
 70
    58
 90
        2
176
     1
 90
        3
176
     1
 90
        0
176
     1
 90
        2
176
     1
 40
0.6
176
     1
 40
30.0
176
     1
 62
     7
420
 16777215
176
     1
 90
        0
176
     1
 90
        0
176
     1
 62
     7
176
     1
 62
   257
176
     1
 90
        1
176
     1
 90
        1
176
     1
 40
1.0
176
     1
 90
        8
176
     1
 62
   257
176
     1
 40
1.0
176
     1
 90
        1
176
     1
 90
        6
176
     1
 90
        2
176
     1
 62
     7
176
     1
 90
        3
176
     1
 90
        0
176
     1
 90
        0
176
     1
290
     0
176
     1
 90
       13
176
     1
 40
0.0
176
     1
 90
        0
176
     1
290
     0
176
     1
290
     1
176
     1
290
     1
176
     1
290
     0
176
     1
290
     0
176
     1
290
     0
176
     1
290
     0
176
     1
290
     0
176
     1
290
     0
176
     1
 90
       50
176
     1
 40
0.0
176
     1
 40
1.0
176
     1
 90
        0
176
     1
 62
    18
420
        0
176
     1
 90
       50
176
     1
 90
        3
176
     1
 62
     5
420
      255
176
     1
290
     0
176
     1
 90
       50
176
     1
 90
       50
176
     1
 90
       50
176
     1
290
     0
176
     1
 90
       50
176
     1
 62
   256
176
     0
 40
1.0
176
     0
 90
        2
176
     1
  1
strokes_ogs.tif
176
     1
290
     0
176
     1
 40
1.0
176
     1
 40
1.0
176
     1
  0
VISUALSTYLE
  5
42
102
{ACAD_REACTORS
330
2A
102
}
330
2A
100
AcDbVisualStyle
  2
Shaded
 70
    27
177
     3
291
     0
 70
    58
 90
        2
176
     1
 90
        2
176
     1
 90
        1
176
     1
 90
        2
176
     1
 40
0.6
176
     1
 40
30.0
176
     1
 62
     7
420
 16777215
176
     1
 90
        0
176
     1
 90
        4
176
     1
 62
     7
176
     1
 62
   257
176
     1
 90
        1
176
     1
 90
        1
176
     1
 40
1.0
176
     1
 90
        8
176
     1
 62
   257
176
     1
 40
1.0
176
     1
 90
        1
176
     1
 90
        6
176
     1
 90
        2
176
     1
 62
     8
420
  7895160
176
     1
 90
        3
176
     1
 90
        0
176
     1
 90
        0
176
     1
290
     0
176
     1
 90
        5
176
     1
 40
0.0
176
     1
 90
        0
176
     1
290
     0
176
     1
290
     1
176
     1
290
     1
176
     1
290
     0
176
     1
290
     0
176
     1
290
     0
176
     1
290
     0
176
     1
290
     0
176
     1
290
     0
176
     1
 90
       50
176
     1
 40
0.0
176
     1
 40
1.0
176
     1
 90
        0
176
     1
 62
    18
420
        0
176
     1
 90
       50
176
     1
 90
        3
176
     1
 62
     5
420
      255
176
     1
290
     0
176
     1
 90
       50
176
     1
 90
       50
176
     1
 90
       50
176
     1
290
     0
176
     1
 90
       50
176
     1
 62
   256
176
     0
 40
1.0
176
     0
 90
        2
176
     1
  1
strokes_ogs.tif
176
     1
290
     0
176
     1
 40
1.0
176
     1
 40
1.0
176
     1
  0
VISUALSTYLE
  5
41
102
{ACAD_REACTORS
330
2A
102
}
330
2A
100
AcDbVisualStyle
  2
Shaded with edges
 70
    26
177
     3
291
     0
 70
    58
 90
        2
176
     1
 90
        2
176
     1
 90
        1
176
     1
 90
        2
176
     1
 40
0.6
176
     1
 40
30.0
176
     1
 62
     7
420
 16777215
176
     1
 90
        1
176
     1
 90
       10
176
     1
 62
     7
176
     1
 62
   257
176
     1
 90
        2
176
     1
 90
        1
176
     1
 40
1.0
176
     1
 90
        8
176
     1
 62
   257
176
     1
 40
1.0
176
     1
 90
        1
176
     1
 90
        6
176
     1
 90
        2
176
     1
 62
     7
176
     1
 90
        3
176
     1
 90
        0
176
     1
 90
        0
176
     1
290
     0
176
     1
 90
        5
176
     1
 40
0.0
176
     1
 90
        0
176
     1
290
     0
176
     1
290
     1
176
     1
290
     1
176
     1
290
     0
176
     1
290
     0
176
     1
290
     0
176
     1
290
     0
176
     1
290
     0
176
     1
290
     0
176
     1
 90
       50
176
     1
 40
0.0
176
     1
 40
1.0
176
     1
 90
        0
176
     1
 62
    18
420
        0
176
     1
 90
       50
176
     1
 90
        3
176
     1
 62
     5
420
      255
176
     1
290
     0
176
     1
 90
       50
176
     1
 90
       50
176
     1
 90
       50
176
     1
290
     0
176
     1
 90
       50
176
     1
 62
   256
176
     0
 40
1.0
176
     0
 90
        2
176
     1
  1
strokes_ogs.tif
176
     1
290
     0
176
     1
 40
1.0
176
     1
 40
1.0
176
     1
  0
VISUALSTYLE
  5
3E
102
{ACAD_REACTORS
330
2A
102
}
330
2A
100
AcDbVisualStyle
  2
Shades of Gray
 70
    23
177
     3
291
     0
 70
    58
 90
        2
176
     1
 90
        2
176
     1
 90
        3
176
     1
 90
        0
176
     1
 40
0.6
176
     1
 40
30.0
176
     1
 62
     7
420
 16777215
176
     1
 90
        2
176
     1
 90
        2
176
     1
 62
     7
176
     1
 62
     7
176
     1
 90
        1
176
     1
 90
        1
176
     1
 40
40.0
176
     1
 90
        8
176
     1
 62
     7
176
     1
 40
1.0
176
     1
 90
        1
176
     1
 90
        6
176
     1
 90
        2
176
     1
 62
     7
176
     1
 90
        3
176
     1
 90
        0
176
     1
 90
        0
176
     1
290
     0
176
     1
 90
        1
176
     1
 40
0.0
176
     1
 90
        0
176
     1
290
     0
176
     1
290
     1
176
     1
290
     1
176
     1
290
     0
176
     1
290
     0
176
     1
290
     0
176
     1
290
     0
176
     1
290
     0
176
     1
290
     0
176
     1
 90
       50
176
     1
 40
0.0
176
     1
 40
1.0
176
     1
 90
        0
176
     1
 62
    18
420
        0
176
     1
 90
       50
176
     1
 90
        3
176
     1
 62
     5
420
      255
176
     1
290
     0
176
     1
 90
       50
176
     1
 90
       50
176
     1
 90
       50
176
     1
290
     0
176
     1
 90
       50
176
     1
 62
   256
176
     0
 40
1.0
176
     0
 90
        2
176
     1
  1
strokes_ogs.tif
176
     1
290
     0
176
     1
 40
1.0
176
     1
 40
1.0
176
     1
  0
VISUALSTYLE
  5
3F
102
{ACAD_REACTORS
330
2A
102
}
330
2A
100
AcDbVisualStyle
  2
Sketchy
 70
    24
177
     3
291
     0
 70
    58
 90
        1
176
     1
 90
        2
176
     1
 90
        2
176
     1
 90
        0
176
     1
 40
0.6
176
     1
 40
30.0
176
     1
 62
     7
420
 16777215
176
     1
 90
        2
176
     1
 90
        2
176
     1
 62
     7
176
     1
 62
     7
176
     1
 90
        1
176
     1
 90
        1
176
     1
 40
40.0
176
     1
 90
       11
176
     1
 62
     7
176
     1
 40
1.0
176
     1
 90
        1
176
     1
 90
        6
176
     1
 90
        2
176
     1
 62
     7
176
     1
 90
        6
176
     1
 90
        0
176
     1
 90
        0
176
     1
290
     0
176
     1
 90
        1
176
     1
 40
0.0
176
     1
 90
        0
176
     1
290
     0
176
     1
290
     1
176
     1
290
     1
176
     1
290
     0
176
     1
290
     0
176
     1
290
     0
176
     1
290
     0
176
     1
290
     0
176
     1
290
     0
176
     1
 90
       50
176
     1
 40
0.0
176
     1
 40
1.0
176
     1
 90
        0
176
     1
 62
    18
420
        0
176
     1
 90
       50
176
     1
 90
        3
176
     1
 62
     5
420
      255
176
     1
290
     0
176
     1
 90
       50
176
     1
 90
       50
176
     1
 90
       50
176
     1
290
     0
176
     1
 90
       50
176
     1
 62
   256
176
     0
 40
1.0
176
     0
 90
        2
176
     1
  1
strokes_ogs.tif
176
     1
290
     0
176
     1
 40
1.0
176
     1
 40
1.0
176
     1
  0
VISUALSTYLE
  5
37
102
{ACAD_REACTORS
330
2A
102
}
330
2A
100
AcDbVisualStyle
  2
Thicken
 70
    13
177
     3
291
     1
 70
    58
 90
        2
176
     1
 90
        2
176
     1
 90
        0
176
     1
 90
        0
176
     1
 40
0.6
176
     1
 40
30.0
176
     1
 62
     7
420
 16777215
176
     1
 90
        1
176
     1
 90
        4
176
     1
 62
     7
176
     1
 62
   257
176
     1
 90
        1
176
     1
 90
        1
176
     1
 40
1.0
176
     1
 90
       12
176
     1
 62
     7
176
     1
 40
1.0
176
     1
 90
        1
176
     1
 90
        6
176
     1
 90
        2
176
     1
 62
     7
176
     1
 90
        5
176
     1
 90
        0
176
     1
 90
        0
176
     1
290
     0
176
     1
 90
        1
176
     1
 40
0.0
176
     1
 90
        0
176
     1
290
     0
176
     1
290
     1
176
     1
290
     1
176
     1
290
     0
176
     1
290
     0
176
     1
290
     0
176
     1
290
     0
176
     1
290
     0
176
     1
290
     0
176
     1
 90
       50
176
     1
 40
0.0
176
     1
 40
1.0
176
     1
 90
        0
176
     1
 62
    18
420
        0
176
     1
 90
       50
176
     1
 90
        3
176
     1
 62
     5
420
      255
176
     1
290
     0
176
     1
 90
       50
176
     1
 90
       50
176
     1
 90
       50
176
     1
290
     0
176
     1
 90
       50
176
     1
 62
   256
176
     0
 40
1.0
176
     0
 90
        2
176
     1
  1
strokes_ogs.tif
176
     1
290
     0
176
     1
 40
1.0
176
     1
 40
1.0
176
     1
  0
VISUALSTYLE
  5
30
102
{ACAD_REACTORS
330
2A
102
}
330
2A
100
AcDbVisualStyle
  2
Wireframe
 70
     5
177
     3
291
     0
 70
    58
 90
        0
176
     1
 90
        2
176
     1
 90
        0
176
     1
 90
        0
176
     1
 40
0.6
176
     1
 40
30.0
176
     1
 62
     7
420
 16777215
176
     1
 90
        1
176
     1
 90
        4
176
     1
 62
     7
176
     1
 62
   257
176
     1
 90
        1
176
     1
 90
        1
176
     1
 40
1.0
176
     1
 90
        0
176
     1
 62
   257
176
     1
 40
1.0
176
     1
 90
        1
176
     1
 90
        6
176
     1
 90
        2
176
     1
 62
     7
176
     1
 90
        3
176
     1
 90
        0
176
     1
 90
        0
176
     1
290
     0
176
     1
 90
        1
176
     1
 40
0.0
176
     1
 90
        0
176
     1
290
     0
176
     1
290
     1
176
     1
290
     1
176
     1
290
     0
176
     1
290
     0
176
     1
290
     0
176
     1
290
     0
176
     1
290
     0
176
     1
290
     0
176
     1
 90
       50
176
     1
 40
0.0
176
     1
 40
1.0
176
     1
 90
        0
176
     1
 62
    18
420
        0
176
     1
 90
       50
176
     1
 90
        3
176
     1
 62
     5
420
      255
176
     1
290
     0
176
     1
 90
       50
176
     1
 90
       50
176
     1
 90
       50
176
     1
290
     0
176
     1
 90
       50
176
     1
 62
   256
176
     0
 40
1.0
176
     0
 90
        2
176
     1
  1
strokes_ogs.tif
176
     1
290
     0
176
     1
 40
1.0
176
     1
 40
1.0
176
     1
  0
VISUALSTYLE
  5
40
102
{ACAD_REACTORS
330
2A
102
}
330
2A
100
AcDbVisualStyle
  2
X-Ray
 70
    25
177
     3
291
     0
 70
    58
 90
        2
176
     1
 90
        2
176
     1
 90
        1
176
     1
 90
        1
176
     1
 40
0.5
176
     1
 40
30.0
176
     1
 62
     7
420
 16777215
176
     1
 90
        1
176
     1
 90
        0
176
     1
 62
     7
176
     1
 62
   257
176
     1
 90
        1
176
     1
 90
        1
176
     1
 40
1.0
176
     1
 90
        8
176
     1
 62
     7
176
     1
 40
1.0
176
     1
 90
        1
176
     1
 90
        6
176
     1
 90
        2
176
     1
 62
     7
176
     1
 90
        3
176
     1
 90
        0
176
     1
 90
        0
176
     1
290
     0
176
     1
 90
       13
176
     1
 40
0.0
176
     1
 90
        0
176
     1
290
     0
176
     1
290
     1
176
     1
290
     1
176
     1
290
     0
176
     1
290
     0
176
     1
290
     0
176
     1
290
     0
176
     1
290
     0
176
     1
290
     0
176
     1
 90
       50
176
     1
 40
0.0
176
     1
 40
1.0
176
     1
 90
        0
176
     1
 62
    18
420
        0
176
     1
 90
       50
176
     1
 90
        3
176
     1
 62
     5
420
      255
176
     1
290
     0
176
     1
 90
       50
176
     1
 90
       50
176
     1
 90
       50
176
     1
290
     0
176
     1
 90
       50
176
     1
 62
   256
176
     0
 40
1.0
176
     0
 90
        2
176
     1
  1
strokes_ogs.tif
176
     1
290
     0
176
     1
 40
1.0
176
     1
 40
1.0
176
     1
  0
DICTIONARYVAR
  5
351
102
{ACAD_REACTORS
330
350
102
}
330
350
100
DictionaryVariables
280
     0
  1
1:1
  0
DICTIONARYVAR
  5
35A
102
{ACAD_REACTORS
330
350
102
}
330
350
100
DictionaryVariables
280
     0
  1
3.500000
  0
DICTIONARYVAR
  5
35B
102
{ACAD_REACTORS
330
350
102
}
330
350
100
DictionaryVariables
280
     0
  1
acadiso.lin
  0
DICTIONARYVAR
  5
356
102
{ACAD_REACTORS
330
350
102
}
330
350
100
DictionaryVariables
280
     0
  1
Standard
  0
DICTIONARYVAR
  5
355
102
{ACAD_REACTORS
330
350
102
}
330
350
100
DictionaryVariables
280
     0
  1
Standard
  0
DICTIONARYVAR
  5
359
102
{ACAD_REACTORS
330
350
102
}
330
350
100
DictionaryVariables
280
     0
  1
0
  0
DICTIONARY
  5
352
330
5A
100
AcDbDictionary
280
     1
281
     1
  3
ACAD_ROUNDTRIP_2008_TABLESTYLE_CELLSTYLEMAP
360
353
  0
CELLSTYLEMAP
  5
353
102
{ACAD_REACTORS
330
352
102
}
330
352
100
AcDbCellStyleMap
 90
        3
300
CELLSTYLE
  1
TABLEFORMAT_BEGIN
 90
        5
170
     1
 91
        0
 92
    32768
 62
   257
 93
        1
300
CONTENTFORMAT
  1
CONTENTFORMAT_BEGIN
 90
        0
 91
        0
 92
        4
 93
        0
300

 40
0.0
140
1.0
 94
        5
 62
     0
340
11
144
6.0
309
CONTENTFORMAT_END
171
     1
301
MARGIN
  1
CELLMARGIN_BEGIN
 40
1.5
 40
1.5
 40
1.5
 40
1.5
 40
1.5
 40
1.5
309
CELLMARGIN_END
 94
        6
 95
        1
302
GRIDFORMAT
  1
GRIDFORMAT_BEGIN
 90
        0
 91
        1
 62
     0
 92
       -2
340
14
 93
        0
 40
0.045
309
GRIDFORMAT_END
 95
        2
302
GRIDFORMAT
  1
GRIDFORMAT_BEGIN
 90
        0
 91
        1
 62
     0
 92
       -2
340
14
 93
        0
 40
0.045
309
GRIDFORMAT_END
 95
        4
302
GRIDFORMAT
  1
GRIDFORMAT_BEGIN
 90
        0
 91
        1
 62
     0
 92
       -2
340
14
 93
        0
 40
0.045
309
GRIDFORMAT_END
 95
        8
302
GRIDFORMAT
  1
GRIDFORMAT_BEGIN
 90
        0
 91
        1
 62
     0
 92
       -2
340
14
 93
        0
 40
0.045
309
GRIDFORMAT_END
 95
       16
302
GRIDFORMAT
  1
GRIDFORMAT_BEGIN
 90
        0
 91
        1
 62
     0
 92
       -2
340
14
 93
        0
 40
0.045
309
GRIDFORMAT_END
 95
       32
302
GRIDFORMAT
  1
GRIDFORMAT_BEGIN
 90
        0
 91
        1
 62
     0
 92
       -2
340
14
 93
        0
 40
0.045
309
GRIDFORMAT_END
309
TABLEFORMAT_END
  1
CELLSTYLE_BEGIN
 90
        1
 91
        1
300
_TITLE
309
CELLSTYLE_END
300
CELLSTYLE
  1
TABLEFORMAT_BEGIN
 90
        5
170
     1
 91
        0
 92
        0
 62
   257
 93
        1
300
CONTENTFORMAT
  1
CONTENTFORMAT_BEGIN
 90
        0
 91
        0
 92
        4
 93
        0
300

 40
0.0
140
1.0
 94
        5
 62
     0
340
11
144
4.5
309
CONTENTFORMAT_END
171
     1
301
MARGIN
  1
CELLMARGIN_BEGIN
 40
1.5
 40
1.5
 40
1.5
 40
1.5
 40
1.5
 40
1.5
309
CELLMARGIN_END
 94
        6
 95
        1
302
GRIDFORMAT
  1
GRIDFORMAT_BEGIN
 90
        0
 91
        1
 62
     0
 92
       -2
340
14
 93
        0
 40
0.045
309
GRIDFORMAT_END
 95
        2
302
GRIDFORMAT
  1
GRIDFORMAT_BEGIN
 90
        0
 91
        1
 62
     0
 92
       -2
340
14
 93
        0
 40
0.045
309
GRIDFORMAT_END
 95
        4
302
GRIDFORMAT
  1
GRIDFORMAT_BEGIN
 90
        0
 91
        1
 62
     0
 92
       -2
340
14
 93
        0
 40
0.045
309
GRIDFORMAT_END
 95
        8
302
GRIDFORMAT
  1
GRIDFORMAT_BEGIN
 90
        0
 91
        1
 62
     0
 92
       -2
340
14
 93
        0
 40
0.045
309
GRIDFORMAT_END
 95
       16
302
GRIDFORMAT
  1
GRIDFORMAT_BEGIN
 90
        0
 91
        1
 62
     0
 92
       -2
340
14
 93
        0
 40
0.045
309
GRIDFORMAT_END
 95
       32
302
GRIDFORMAT
  1
GRIDFORMAT_BEGIN
 90
        0
 91
        1
 62
     0
 92
       -2
340
14
 93
        0
 40
0.045
309
GRIDFORMAT_END
309
TABLEFORMAT_END
  1
CELLSTYLE_BEGIN
 90
        2
 91
        1
300
_HEADER
309
CELLSTYLE_END
300
CELLSTYLE
  1
TABLEFORMAT_BEGIN
 90
        5
170
     1
 91
        0
 92
        0
 62
   257
 93
        1
300
CONTENTFORMAT
  1
CONTENTFORMAT_BEGIN
 90
        0
 91
        0
 92
        4
 93
        0
300

 40
0.0
140
1.0
 94
        2
 62
     0
340
11
144
4.5
309
CONTENTFORMAT_END
171
     1
301
MARGIN
  1
CELLMARGIN_BEGIN
 40
1.5
 40
1.5
 40
1.5
 40
1.5
 40
1.5
 40
1.5
309
CELLMARGIN_END
 94
        6
 95
        1
302
GRIDFORMAT
  1
GRIDFORMAT_BEGIN
 90
        0
 91
        1
 62
     0
 92
       -2
340
14
 93
        0
 40
0.045
309
GRIDFORMAT_END
 95
        2
302
GRIDFORMAT
  1
GRIDFORMAT_BEGIN
 90
        0
 91
        1
 62
     0
 92
       -2
340
14
 93
        0
 40
0.045
309
GRIDFORMAT_END
 95
        4
302
GRIDFORMAT
  1
GRIDFORMAT_BEGIN
 90
        0
 91
        1
 62
     0
 92
       -2
340
14
 93
        0
 40
0.045
309
GRIDFORMAT_END
 95
        8
302
GRIDFORMAT
  1
GRIDFORMAT_BEGIN
 90
        0
 91
        1
 62
     0
 92
       -2
340
14
 93
        0
 40
0.045
309
GRIDFORMAT_END
 95
       16
302
GRIDFORMAT
  1
GRIDFORMAT_BEGIN
 90
        0
 91
        1
 62
     0
 92
       -2
340
14
 93
        0
 40
0.045
309
GRIDFORMAT_END
 95
       32
302
GRIDFORMAT
  1
GRIDFORMAT_BEGIN
 90
        0
 91
        1
 62
     0
 92
       -2
340
14
 93
        0
 40
0.045
309
GRIDFORMAT_END
309
TABLEFORMAT_END
  1
CELLSTYLE_BEGIN
 90
        3
 91
        2
300
_DATA
309
CELLSTYLE_END
  0
ENDSEC
  0
EOF
