  0
SECTION
  2
HEADER
  9
$ACADVER
  1
AC1027
  9
$ACADMAINTVER
 70
   105
  9
$DWGCODEPAGE
  3
ANSI_1252
  9
$LASTSAVEDBY
  1
mezergues
  9
$REQUIREDVERSIONS
160
                 0
  9
$INSBASE
 10
0.0
 20
0.0
 30
0.0
  9
$EXTMIN
 10
19504.33364439737
 20
-4370.927815377101
 30
-265.0000000000077
  9
$EXTMAX
 10
21333.47353496286
 20
-3015.927815377101
 30
0.0
  9
$LIMMIN
 10
0.0
 20
0.0
  9
$LIMMAX
 10
420.0
 20
297.0
  9
$ORTHOMODE
 70
     0
  9
$REGENMODE
 70
     1
  9
$FILLMODE
 70
     1
  9
$QTEXTMODE
 70
     0
  9
$MIRRTEXT
 70
     1
  9
$LTSCALE
 40
5.0
  9
$ATTMODE
 70
     1
  9
$TEXTSIZE
 40
2.5
  9
$TRACEWID
 40
1.0
  9
$TEXTSTYLE
  7
Standard
  9
$CLAYER
  8
0
  9
$CELTYPE
  6
Continuous
  9
$CECOLOR
 62
   256
  9
$CELTSCALE
 40
1.0
  9
$DISPSILH
 70
     0
  9
$DIMSCALE
 40
1.0
  9
$DIMASZ
 40
2.5
  9
$DIMEXO
 40
0.625
  9
$DIMDLI
 40
3.75
  9
$DIMRND
 40
0.0
  9
$DIMDLE
 40
0.0
  9
$DIMEXE
 40
1.25
  9
$DIMTP
 40
0.0
  9
$DIMTM
 40
0.0
  9
$DIMTXT
 40
2.5
  9
$DIMCEN
 40
2.5
  9
$DIMTSZ
 40
0.0
  9
$DIMTOL
 70
     0
  9
$DIMLIM
 70
     0
  9
$DIMTIH
 70
     0
  9
$DIMTOH
 70
     0
  9
$DIMSE1
 70
     0
  9
$DIMSE2
 70
     0
  9
$DIMTAD
 70
     1
  9
$DIMZIN
 70
     8
  9
$DIMBLK
  1

  9
$DIMASO
 70
     1
  9
$DIMSHO
 70
     1
  9
$DIMPOST
  1

  9
$DIMAPOST
  1

  9
$DIMALT
 70
     0
  9
$DIMALTD
 70
     3
  9
$DIMALTF
 40
0.03937007874016
  9
$DIMLFAC
 40
1.0
  9
$DIMTOFL
 70
     1
  9
$DIMTVP
 40
0.0
  9
$DIMTIX
 70
     0
  9
$DIMSOXD
 70
     1
  9
$DIMSAH
 70
     0
  9
$DIMBLK1
  1

  9
$DIMBLK2
  1

  9
$DIMSTYLE
  2
ISO-25
  9
$DIMCLRD
 70
     0
  9
$DIMCLRE
 70
     0
  9
$DIMCLRT
 70
     0
  9
$DIMTFAC
 40
1.0
  9
$DIMGAP
 40
0.625
  9
$DIMJUST
 70
     0
  9
$DIMSD1
 70
     0
  9
$DIMSD2
 70
     0
  9
$DIMTOLJ
 70
     0
  9
$DIMTZIN
 70
     8
  9
$DIMALTZ
 70
     0
  9
$DIMALTTZ
 70
     0
  9
$DIMUPT
 70
     0
  9
$DIMDEC
 70
     2
  9
$DIMTDEC
 70
     2
  9
$DIMALTU
 70
     2
  9
$DIMALTTD
 70
     3
  9
$DIMTXSTY
  7
Standard
  9
$DIMAUNIT
 70
     0
  9
$DIMADEC
 70
     0
  9
$DIMALTRND
 40
0.0
  9
$DIMAZIN
 70
     0
  9
$DIMDSEP
 70
    44
  9
$DIMATFIT
 70
     3
  9
$DIMFRAC
 70
     0
  9
$DIMLDRBLK
  1

  9
$DIMLUNIT
 70
     2
  9
$DIMLWD
 70
    -2
  9
$DIMLWE
 70
    -2
  9
$DIMTMOVE
 70
     2
  9
$DIMFXL
 40
1.0
  9
$DIMFXLON
 70
     0
  9
$DIMJOGANG
 40
0.7853981633974483
  9
$DIMTFILL
 70
     0
  9
$DIMTFILLCLR
 70
     0
  9
$DIMARCSYM
 70
     0
  9
$DIMLTYPE
  6

  9
$DIMLTEX1
  6

  9
$DIMLTEX2
  6

  9
$DIMTXTDIRECTION
 70
     0
  9
$LUNITS
 70
     2
  9
$LUPREC
 70
     4
  9
$SKETCHINC
 40
1.0
  9
$FILLETRAD
 40
0.0
  9
$AUNITS
 70
     0
  9
$AUPREC
 70
     0
  9
$MENU
  1
.
  9
$ELEVATION
 40
0.0
  9
$PELEVATION
 40
0.0
  9
$THICKNESS
 40
0.0
  9
$LIMCHECK
 70
     0
  9
$CHAMFERA
 40
0.0
  9
$CHAMFERB
 40
0.0
  9
$CHAMFERC
 40
0.0
  9
$CHAMFERD
 40
0.0
  9
$SKPOLY
 70
     0
  9
$TDCREATE
 40
2459678.432069063
  9
$TDUCREATE
 40
2459678.348735729
  9
$TDUPDATE
 40
2459678.432076482
  9
$TDUUPDATE
 40
2459678.348743148
  9
$TDINDWG
 40
0.0000000116
  9
$TDUSRTIMER
 40
0.0000000116
  9
$USRTIMER
 70
     1
  9
$ANGBASE
 50
0.0
  9
$ANGDIR
 70
     0
  9
$PDMODE
 70
     0
  9
$PDSIZE
 40
0.0
  9
$PLINEWID
 40
0.0
  9
$SPLFRAME
 70
     0
  9
$SPLINETYPE
 70
     6
  9
$SPLINESEGS
 70
     8
  9
$HANDSEED
  5
515
  9
$SURFTAB1
 70
     6
  9
$SURFTAB2
 70
     6
  9
$SURFTYPE
 70
     6
  9
$SURFU
 70
     6
  9
$SURFV
 70
     6
  9
$UCSBASE
  2

  9
$UCSNAME
  2

  9
$UCSORG
 10
0.0
 20
0.0
 30
0.0
  9
$UCSXDIR
 10
1.0
 20
0.0
 30
0.0
  9
$UCSYDIR
 10
0.0
 20
1.0
 30
0.0
  9
$UCSORTHOREF
  2

  9
$UCSORTHOVIEW
 70
     0
  9
$UCSORGTOP
 10
0.0
 20
0.0
 30
0.0
  9
$UCSORGBOTTOM
 10
0.0
 20
0.0
 30
0.0
  9
$UCSORGLEFT
 10
0.0
 20
0.0
 30
0.0
  9
$UCSORGRIGHT
 10
0.0
 20
0.0
 30
0.0
  9
$UCSORGFRONT
 10
0.0
 20
0.0
 30
0.0
  9
$UCSORGBACK
 10
0.0
 20
0.0
 30
0.0
  9
$PUCSBASE
  2

  9
$PUCSNAME
  2

  9
$PUCSORG
 10
0.0
 20
0.0
 30
0.0
  9
$PUCSXDIR
 10
1.0
 20
0.0
 30
0.0
  9
$PUCSYDIR
 10
0.0
 20
1.0
 30
0.0
  9
$PUCSORTHOREF
  2

  9
$PUCSORTHOVIEW
 70
     0
  9
$PUCSORGTOP
 10
0.0
 20
0.0
 30
0.0
  9
$PUCSORGBOTTOM
 10
0.0
 20
0.0
 30
0.0
  9
$PUCSORGLEFT
 10
0.0
 20
0.0
 30
0.0
  9
$PUCSORGRIGHT
 10
0.0
 20
0.0
 30
0.0
  9
$PUCSORGFRONT
 10
0.0
 20
0.0
 30
0.0
  9
$PUCSORGBACK
 10
0.0
 20
0.0
 30
0.0
  9
$USERI1
 70
     0
  9
$USERI2
 70
     0
  9
$USERI3
 70
     0
  9
$USERI4
 70
     0
  9
$USERI5
 70
     0
  9
$USERR1
 40
0.0
  9
$USERR2
 40
0.0
  9
$USERR3
 40
0.0
  9
$USERR4
 40
0.0
  9
$USERR5
 40
0.0
  9
$WORLDVIEW
 70
     1
  9
$SHADEDGE
 70
     3
  9
$SHADEDIF
 70
    70
  9
$TILEMODE
 70
     1
  9
$MAXACTVP
 70
    64
  9
$PINSBASE
 10
0.0
 20
0.0
 30
0.0
  9
$PLIMCHECK
 70
     0
  9
$PEXTMIN
 10
-5.730400000000003
 20
-7.876400000000018
 30
0.0
  9
$PEXTMAX
 10
203.3304
 20
279.4764
 30
0.0
  9
$PLIMMIN
 10
-20.0
 20
-7.5
  9
$PLIMMAX
 10
277.0
 20
202.5
  9
$UNITMODE
 70
     0
  9
$VISRETAIN
 70
     1
  9
$PLINEGEN
 70
     0
  9
$PSLTSCALE
 70
     0
  9
$TREEDEPTH
 70
  3020
  9
$CMLSTYLE
  2
Standard
  9
$CMLJUST
 70
     0
  9
$CMLSCALE
 40
20.0
  9
$PROXYGRAPHICS
 70
     1
  9
$MEASUREMENT
 70
     1
  9
$CELWEIGHT
370
    -1
  9
$ENDCAPS
280
     0
  9
$JOINSTYLE
280
     0
  9
$LWDISPLAY
290
     0
  9
$INSUNITS
 70
     4
  9
$HYPERLINKBASE
  1

  9
$STYLESHEET
  1

  9
$XEDIT
290
     1
  9
$CEPSNTYPE
380
     3
  9
$CEPSNID
390
5F
  9
$PSTYLEMODE
290
     0
  9
$FINGERPRINTGUID
  2
{12f20636-983c-4bbe-9c6a-858b3ea1b284}
  9
$VERSIONGUID
  2
{FAEB1C32-E019-11D5-929B-00C0DF256EC4}
  9
$EXTNAMES
290
     1
  9
$PSVPSCALE
 40
0.0
  9
$OLESTARTUP
290
     0
  9
$SORTENTS
280
   127
  9
$INDEXCTL
280
     0
  9
$HIDETEXT
280
     1
  9
$XCLIPFRAME
280
     2
  9
$HALOGAP
280
     0
  9
$OBSCOLOR
 70
   257
  9
$OBSLTYPE
280
     0
  9
$INTERSECTIONDISPLAY
280
     0
  9
$INTERSECTIONCOLOR
 70
   257
  9
$DIMASSOC
280
     2
  9
$PROJECTNAME
  1

  9
$CAMERADISPLAY
290
     0
  9
$LENSLENGTH
 40
50.0
  9
$CAMERAHEIGHT
 40
0.0
  9
$STEPSPERSEC
 40
2.0
  9
$STEPSIZE
 40
6.0
  9
$3DDWFPREC
 40
2.0
  9
$PSOLWIDTH
 40
5.0
  9
$PSOLHEIGHT
 40
80.0
  9
$LOFTANG1
 40
1.570796326794897
  9
$LOFTANG2
 40
1.570796326794897
  9
$LOFTMAG1
 40
0.0
  9
$LOFTMAG2
 40
0.0
  9
$LOFTPARAM
 70
     7
  9
$LOFTNORMALS
280
     1
  9
$LATITUDE
 40
37.795
  9
$LONGITUDE
 40
-122.394
  9
$NORTHDIRECTION
 40
0.0
  9
$TIMEZONE
 70
 -8000
  9
$LIGHTGLYPHDISPLAY
280
     1
  9
$TILEMODELIGHTSYNCH
280
     1
  9
$CMATERIAL
347
44
  9
$SOLIDHIST
280
     0
  9
$SHOWHIST
280
     1
  9
$DWFFRAME
280
     2
  9
$DGNFRAME
280
     2
  9
$REALWORLDSCALE
290
     1
  9
$INTERFERECOLOR
 62
   256
  9
$CSHADOW
280
     0
  9
$SHADOWPLANELOCATION
 40
0.0
  0
ENDSEC
  0
SECTION
  2
CLASSES
  0
CLASS
  1
ACDBDICTIONARYWDFLT
  2
AcDbDictionaryWithDefault
  3
ObjectDBX Classes
 90
        0
 91
        3
280
     0
281
     0
  0
CLASS
  1
VISUALSTYLE
  2
AcDbVisualStyle
  3
ObjectDBX Classes
 90
     4095
 91
        3
280
     0
281
     0
  0
CLASS
  1
MATERIAL
  2
AcDbMaterial
  3
ObjectDBX Classes
 90
     1153
 91
        3
280
     0
281
     0
  0
CLASS
  1
SCALE
  2
AcDbScale
  3
ObjectDBX Classes
 90
     1153
 91
        3
280
     0
281
     0
  0
CLASS
  1
TABLESTYLE
  2
AcDbTableStyle
  3
ObjectDBX Classes
 90
     4095
 91
        3
280
     0
281
     0
  0
CLASS
  1
MLEADERSTYLE
  2
AcDbMLeaderStyle
  3
ACDB_MLEADERSTYLE_CLASS
 90
     4095
 91
        3
280
     0
281
     0
  0
CLASS
  1
SUN
  2
AcDbSun
  3
SCENEOE
 90
     1153
 91
        3
280
     0
281
     0
  0
CLASS
  1
RASTERVARIABLES
  2
AcDbRasterVariables
  3
ISM
 90
        0
 91
        3
280
     0
281
     0
  0
CLASS
  1
WIPEOUTVARIABLES
  2
AcDbWipeoutVariables
  3
WipeOut|AutoCAD Express Tool|expresstools@autodesk.com
 90
        0
 91
        3
280
     0
281
     0
  0
CLASS
  1
PLOTSETTINGS
  2
AcDbPlotSettings
  3
ObjectDBX Classes
 90
        0
 91
        3
280
     0
281
     0
  0
CLASS
  1
IMAGEDEF
  2
AcDbRasterImageDef
  3
ISM
 90
        0
 91
        3
280
     0
281
     0
  0
CLASS
  1
IMAGE
  2
AcDbRasterImage
  3
ISM
 90
      127
 91
        4
280
     0
281
     1
  0
CLASS
  1
IMAGEDEF_REACTOR
  2
AcDbRasterImageDefReactor
  3
ISM
 90
        1
 91
        3
280
     0
281
     0
  0
CLASS
  1
DICTIONARYVAR
  2
AcDbDictionaryVar
  3
ObjectDBX Classes
 90
        0
 91
        3
280
     0
281
     0
  0
CLASS
  1
CELLSTYLEMAP
  2
AcDbCellStyleMap
  3
ObjectDBX Classes
 90
     1152
 91
        3
280
     0
281
     0
  0
ENDSEC
  0
SECTION
  2
TABLES
  0
TABLE
  2
VPORT
  5
8
330
0
100
AcDbSymbolTable
 70
     1
  0
VPORT
  5
29
330
8
100
AcDbSymbolTableRecord
100
AcDbViewportTableRecord
  2
*Active
 70
     0
 10
0.0
 20
0.0
 11
1.0
 21
1.0
 12
344.1869158878504
 22
148.5
 13
0.0
 23
0.0
 14
10.0
 24
10.0
 15
10.0
 25
10.0
 16
0.0
 26
0.0
 36
1.0
 17
0.0
 27
0.0
 37
0.0
 40
297.0
 41
1.972972972850329
 42
50.0
 43
0.0
 44
0.0
 50
0.0
 51
0.0
 71
     0
 72
   100
 73
     1
 74
     3
 75
     0
 76
     0
 77
     0
 78
     0
281
     0
 65
     1
110
0.0
120
0.0
130
0.0
111
1.0
121
0.0
131
0.0
112
0.0
122
1.0
132
0.0
 79
     0
146
0.0
348
2F
 60
     3
 61
     5
292
     1
282
     1
141
0.0
142
0.0
 63
   250
361
5D
  0
ENDTAB
  0
TABLE
  2
LTYPE
  5
5
330
0
100
AcDbSymbolTable
 70
     2
  0
LTYPE
  5
14
330
5
100
AcDbSymbolTableRecord
100
AcDbLinetypeTableRecord
  2
ByBlock
 70
     0
  3

 72
    65
 73
     0
 40
0.0
  0
LTYPE
  5
15
330
5
100
AcDbSymbolTableRecord
100
AcDbLinetypeTableRecord
  2
ByLayer
 70
     0
  3

 72
    65
 73
     0
 40
0.0
  0
LTYPE
  5
16
330
5
100
AcDbSymbolTableRecord
100
AcDbLinetypeTableRecord
  2
Continuous
 70
     0
  3
Solid line
 72
    65
 73
     0
 40
0.0
  0
LTYPE
  5
16C
330
5
100
AcDbSymbolTableRecord
100
AcDbLinetypeTableRecord
  2
CADWORK_3
 70
     0
  3

 72
    65
 73
     2
 40
4.0
 49
2.0
 74
     0
 49
-2.0
 74
     0
  0
ENDTAB
  0
TABLE
  2
LAYER
  5
2
330
0
100
AcDbSymbolTable
 70
    10
  0
LAYER
  5
10
330
2
100
AcDbSymbolTableRecord
100
AcDbLayerTableRecord
  2
0
 70
     0
 62
     7
  6
Continuous
370
    -3
390
F
347
46
348
0
  0
LAYER
  5
67
330
2
100
AcDbSymbolTableRecord
100
AcDbLayerTableRecord
  2
Ech.1_1
 70
     0
 62
     7
  6
Continuous
370
    -3
390
F
347
46
348
0
  0
LAYER
  5
68
330
2
100
AcDbSymbolTableRecord
100
AcDbLayerTableRecord
  2
Ech.1_2
 70
     0
 62
     7
  6
Continuous
370
    -3
390
F
347
46
348
0
  0
LAYER
  5
69
330
2
100
AcDbSymbolTableRecord
100
AcDbLayerTableRecord
  2
Ech.1_5
 70
     0
 62
     7
  6
Continuous
370
    -3
390
F
347
46
348
0
  0
LAYER
  5
6A
330
2
100
AcDbSymbolTableRecord
100
AcDbLayerTableRecord
  2
Ech.1_10
 70
     0
 62
     7
  6
Continuous
370
    -3
390
F
347
46
348
0
  0
LAYER
  5
6B
330
2
100
AcDbSymbolTableRecord
100
AcDbLayerTableRecord
  2
Ech.1_20
 70
     0
 62
     7
  6
Continuous
370
    -3
390
F
347
46
348
0
  0
LAYER
  5
6C
330
2
100
AcDbSymbolTableRecord
100
AcDbLayerTableRecord
  2
Layer_17
 70
     0
 62
     7
  6
Continuous
370
    -3
390
F
347
46
348
0
  0
LAYER
  5
6D
330
2
100
AcDbSymbolTableRecord
100
AcDbLayerTableRecord
  2
Cadres laser
 70
     0
 62
     7
  6
Continuous
370
    -3
390
F
347
46
348
0
  0
LAYER
  5
6E
330
2
100
AcDbSymbolTableRecord
100
AcDbLayerTableRecord
  2
DEFPOINTS
 70
     0
 62
     7
  6
Continuous
290
     0
370
    -3
390
F
347
46
348
0
  0
LAYER
  5
6F
330
2
100
AcDbSymbolTableRecord
100
AcDbLayerTableRecord
  2
ASSY
 70
     0
 62
     7
  6
Continuous
370
    -3
390
F
347
46
348
0
  0
ENDTAB
  0
TABLE
  2
STYLE
  5
3
330
0
100
AcDbSymbolTable
 70
    10
  0
STYLE
  5
11
330
3
100
AcDbSymbolTableRecord
100
AcDbTextStyleTableRecord
  2
Standard
 70
     0
 40
0.0
 41
1.0
 50
0.0
 71
     0
 42
2.5
  3
txt
  4

  0
STYLE
  5
62
330
3
100
AcDbSymbolTableRecord
100
AcDbTextStyleTableRecord
  2
CwStyleShx
 70
     0
 40
1.0
 41
1.0
 50
0.0
 71
     0
 42
2.5
  3

  4

  0
STYLE
  5
63
330
3
100
AcDbSymbolTableRecord
100
AcDbTextStyleTableRecord
  2
CwStyleShx16
 70
     0
 40
1.0
 41
1.0
 50
0.0
 71
     0
 42
2.5
  3

  4

  0
STYLE
  5
64
330
3
100
AcDbSymbolTableRecord
100
AcDbTextStyleTableRecord
  2
MONOTXT
 70
     0
 40
0.0
 41
1.0
 50
0.0
 71
     0
 42
2.5
  3
MONOTXT
  4

  0
STYLE
  5
65
330
3
100
AcDbSymbolTableRecord
100
AcDbTextStyleTableRecord
  2
SYMAP
 70
     0
 40
1.0
 41
1.0
 50
0.0
 71
     0
 42
2.5
  3
SYMAP
  4

  0
STYLE
  5
66
330
3
100
AcDbSymbolTableRecord
100
AcDbTextStyleTableRecord
  2
CwStyleTtf
 70
     0
 40
1.0
 41
1.0
 50
0.0
 71
     0
 42
2.5
  3
arial.ttf
  4

  0
STYLE
  5
237
330
3
100
AcDbSymbolTableRecord
100
AcDbTextStyleTableRecord
  2
arial-
 70
     0
 40
1.0
 41
1.0
 50
0.0
 71
     0
 42
2.5
  3
arial.ttf
  4

1001
ACAD
1000
Arial
1071
        0
  0
STYLE
  5
238
330
3
100
AcDbSymbolTableRecord
100
AcDbTextStyleTableRecord
  2
symbol-
 70
     0
 40
1.0
 41
1.0
 50
0.0
 71
     0
 42
2.5
  3
symbol.ttf
  4

1001
ACAD
1000
Symbol
1071
        0
  0
STYLE
  5
4FA
330
3
100
AcDbSymbolTableRecord
100
AcDbTextStyleTableRecord
  2
arial-i
 70
     0
 40
1.0
 41
1.0
 50
0.0
 71
     0
 42
2.5
  3
ariali.ttf
  4

1001
ACAD
1000
Arial
1071
 16777216
  0
STYLE
  5
4FF
330
3
100
AcDbSymbolTableRecord
100
AcDbTextStyleTableRecord
  2
arial-b
 70
     0
 40
1.0
 41
1.0
 50
0.0
 71
     0
 42
2.5
  3
arialbd.ttf
  4

1001
ACAD
1000
Arial
1071
 33554432
  0
ENDTAB
  0
TABLE
  2
VIEW
  5
6
330
0
100
AcDbSymbolTable
 70
     0
  0
ENDTAB
  0
TABLE
  2
UCS
  5
7
330
0
100
AcDbSymbolTable
 70
     0
  0
ENDTAB
  0
TABLE
  2
APPID
  5
9
330
0
100
AcDbSymbolTable
 70
     3
  0
APPID
  5
12
330
9
100
AcDbSymbolTableRecord
100
AcDbRegAppTableRecord
  2
ACAD
 70
     0
  0
APPID
  5
5E
330
9
100
AcDbSymbolTableRecord
100
AcDbRegAppTableRecord
  2
Cadwork
 70
     0
  0
APPID
  5
21C
330
9
100
AcDbSymbolTableRecord
100
AcDbRegAppTableRecord
  2
PLOTTRANSPARENCY
 70
     0
  0
ENDTAB
  0
TABLE
  2
DIMSTYLE
  5
A
330
0
100
AcDbSymbolTable
 70
     1
100
AcDbDimStyleTable
  0
DIMSTYLE
105
27
330
A
100
AcDbSymbolTableRecord
100
AcDbDimStyleTableRecord
  2
ISO-25
 70
     0
 41
2.5
 42
0.625
 43
3.75
 44
1.25
 73
     0
 74
     0
 77
     1
 78
     8
140
2.5
141
2.5
143
0.03937007874016
147
0.625
171
     3
172
     1
178
     0
271
     2
272
     2
274
     3
278
    44
283
     0
284
     8
340
11
  0
ENDTAB
  0
TABLE
  2
BLOCK_RECORD
  5
1
330
0
100
AcDbSymbolTable
 70
    72
  0
BLOCK_RECORD
  5
1F
330
1
100
AcDbSymbolTableRecord
100
AcDbBlockTableRecord
  2
*Model_Space
340
22
 70
     0
280
     1
281
     0
  0
BLOCK_RECORD
  5
217
330
1
100
AcDbSymbolTableRecord
100
AcDbBlockTableRecord
  2
*Paper_Space
340
218
 70
     0
280
     1
281
     0
  0
BLOCK_RECORD
  5
70
330
1
100
AcDbSymbolTableRecord
100
AcDbBlockTableRecord
  2
CDWK_PTTYP1
340
0
102
{BLKREFS
331
4EE
331
4EF
331
4F0
331
4F1
331
4F2
331
4F3
102
}
 70
     0
280
     1
281
     1
  0
BLOCK_RECORD
  5
77
330
1
100
AcDbSymbolTableRecord
100
AcDbBlockTableRecord
  2
CDWK_PTTYP2
340
0
 70
     0
280
     1
281
     1
  0
BLOCK_RECORD
  5
7C
330
1
100
AcDbSymbolTableRecord
100
AcDbBlockTableRecord
  2
CDWK_PTTYP4
340
0
 70
     0
280
     1
281
     1
  0
BLOCK_RECORD
  5
80
330
1
100
AcDbSymbolTableRecord
100
AcDbBlockTableRecord
  2
CDWK_PTTYP5
340
0
 70
     0
280
     1
281
     1
  0
BLOCK_RECORD
  5
89
330
1
100
AcDbSymbolTableRecord
100
AcDbBlockTableRecord
  2
CDWK_PTTYP6
340
0
 70
     0
280
     1
281
     1
  0
BLOCK_RECORD
  5
91
330
1
100
AcDbSymbolTableRecord
100
AcDbBlockTableRecord
  2
CDWK_PTTYP7
340
0
 70
     0
280
     1
281
     1
  0
BLOCK_RECORD
  5
9A
330
1
100
AcDbSymbolTableRecord
100
AcDbBlockTableRecord
  2
CDWK_PTTYP8
340
0
 70
     0
280
     1
281
     1
  0
BLOCK_RECORD
  5
9E
330
1
100
AcDbSymbolTableRecord
100
AcDbBlockTableRecord
  2
CDWK_PTTYP9
340
0
 70
     0
280
     1
281
     1
  0
BLOCK_RECORD
  5
A3
330
1
100
AcDbSymbolTableRecord
100
AcDbBlockTableRecord
  2
CDWK_PTTYP10
340
0
 70
     0
280
     1
281
     1
  0
BLOCK_RECORD
  5
A7
330
1
100
AcDbSymbolTableRecord
100
AcDbBlockTableRecord
  2
CDWK_PTTYP11
340
0
 70
     0
280
     1
281
     1
  0
BLOCK_RECORD
  5
AC
330
1
100
AcDbSymbolTableRecord
100
AcDbBlockTableRecord
  2
CDWK_PTTYP12
340
0
 70
     0
280
     1
281
     1
  0
BLOCK_RECORD
  5
B1
330
1
100
AcDbSymbolTableRecord
100
AcDbBlockTableRecord
  2
CDWK_PTTYP13
340
0
 70
     0
280
     1
281
     1
  0
BLOCK_RECORD
  5
B7
330
1
100
AcDbSymbolTableRecord
100
AcDbBlockTableRecord
  2
CDWK_PTTYP16
340
0
 70
     0
280
     1
281
     1
  0
BLOCK_RECORD
  5
BE
330
1
100
AcDbSymbolTableRecord
100
AcDbBlockTableRecord
  2
CDWK_PTTYP17
340
0
 70
     0
280
     1
281
     1
  0
BLOCK_RECORD
  5
C3
330
1
100
AcDbSymbolTableRecord
100
AcDbBlockTableRecord
  2
CDWK_PTTYP18
340
0
 70
     0
280
     1
281
     1
  0
BLOCK_RECORD
  5
C8
330
1
100
AcDbSymbolTableRecord
100
AcDbBlockTableRecord
  2
CDWK_PTTYP19
340
0
 70
     0
280
     1
281
     1
  0
BLOCK_RECORD
  5
CE
330
1
100
AcDbSymbolTableRecord
100
AcDbBlockTableRecord
  2
CDWK_PTTYP20
340
0
 70
     0
280
     1
281
     1
  0
BLOCK_RECORD
  5
D3
330
1
100
AcDbSymbolTableRecord
100
AcDbBlockTableRecord
  2
CDWK_PTTYP21
340
0
 70
     0
280
     1
281
     1
  0
BLOCK_RECORD
  5
D8
330
1
100
AcDbSymbolTableRecord
100
AcDbBlockTableRecord
  2
CDWK_PTTYP25
340
0
 70
     0
280
     1
281
     1
  0
BLOCK_RECORD
  5
DF
330
1
100
AcDbSymbolTableRecord
100
AcDbBlockTableRecord
  2
CDWK_PTTYP26
340
0
 70
     0
280
     1
281
     1
  0
BLOCK_RECORD
  5
E6
330
1
100
AcDbSymbolTableRecord
100
AcDbBlockTableRecord
  2
CDWK_PTTYP27
340
0
 70
     0
280
     1
281
     1
  0
BLOCK_RECORD
  5
EE
330
1
100
AcDbSymbolTableRecord
100
AcDbBlockTableRecord
  2
CDWK_PTTYP28
340
0
 70
     0
280
     1
281
     1
  0
BLOCK_RECORD
  5
F5
330
1
100
AcDbSymbolTableRecord
100
AcDbBlockTableRecord
  2
CDWK_PTTYP29
340
0
 70
     0
280
     1
281
     1
  0
BLOCK_RECORD
  5
FB
330
1
100
AcDbSymbolTableRecord
100
AcDbBlockTableRecord
  2
CDWK_PTTYP30
340
0
 70
     0
280
     1
281
     1
  0
BLOCK_RECORD
  5
102
330
1
100
AcDbSymbolTableRecord
100
AcDbBlockTableRecord
  2
CDWK_PTTYP31
340
0
 70
     0
280
     1
281
     1
  0
BLOCK_RECORD
  5
10A
330
1
100
AcDbSymbolTableRecord
100
AcDbBlockTableRecord
  2
CDWK_PTTYP32
340
0
 70
     0
280
     1
281
     1
  0
BLOCK_RECORD
  5
113
330
1
100
AcDbSymbolTableRecord
100
AcDbBlockTableRecord
  2
CDWK_PTTYP33
340
0
 70
     0
280
     1
281
     1
  0
BLOCK_RECORD
  5
119
330
1
100
AcDbSymbolTableRecord
100
AcDbBlockTableRecord
  2
CDWK_PTTYP34
340
0
 70
     0
280
     1
281
     1
  0
BLOCK_RECORD
  5
11F
330
1
100
AcDbSymbolTableRecord
100
AcDbBlockTableRecord
  2
CDWK_PTTYP35
340
0
 70
     0
280
     1
281
     1
  0
BLOCK_RECORD
  5
125
330
1
100
AcDbSymbolTableRecord
100
AcDbBlockTableRecord
  2
CDWK_PTTYP36
340
0
 70
     0
280
     1
281
     1
  0
BLOCK_RECORD
  5
12D
330
1
100
AcDbSymbolTableRecord
100
AcDbBlockTableRecord
  2
CDWK_PTTYP37
340
0
 70
     0
280
     1
281
     1
  0
BLOCK_RECORD
  5
132
330
1
100
AcDbSymbolTableRecord
100
AcDbBlockTableRecord
  2
CDWK_PTTYP38
340
0
 70
     0
280
     1
281
     1
  0
BLOCK_RECORD
  5
138
330
1
100
AcDbSymbolTableRecord
100
AcDbBlockTableRecord
  2
CDWK_PTTYP41
340
0
 70
     0
280
     1
281
     1
  0
BLOCK_RECORD
  5
142
330
1
100
AcDbSymbolTableRecord
100
AcDbBlockTableRecord
  2
CDWK_PTTYP42
340
0
 70
     0
280
     1
281
     1
  0
BLOCK_RECORD
  5
14B
330
1
100
AcDbSymbolTableRecord
100
AcDbBlockTableRecord
  2
CDWK_PTTYP43
340
0
 70
     0
280
     1
281
     1
  0
BLOCK_RECORD
  5
151
330
1
100
AcDbSymbolTableRecord
100
AcDbBlockTableRecord
  2
CDWK_PTTYP44
340
0
 70
     0
280
     1
281
     1
  0
BLOCK_RECORD
  5
15A
330
1
100
AcDbSymbolTableRecord
100
AcDbBlockTableRecord
  2
CDWK_PTTYP45
340
0
 70
     0
280
     1
281
     1
  0
BLOCK_RECORD
  5
15F
330
1
100
AcDbSymbolTableRecord
100
AcDbBlockTableRecord
  2
CDWK_PTTYP46
340
0
 70
     0
280
     1
281
     1
  0
BLOCK_RECORD
  5
164
330
1
100
AcDbSymbolTableRecord
100
AcDbBlockTableRecord
  2
CDWK_PTTYP47
340
0
 70
     0
280
     1
281
     1
  0
BLOCK_RECORD
  5
16D
330
1
100
AcDbSymbolTableRecord
100
AcDbBlockTableRecord
  2
CDWK_PTTYP48
340
0
 70
     0
280
     1
281
     1
  0
BLOCK_RECORD
  5
172
330
1
100
AcDbSymbolTableRecord
100
AcDbBlockTableRecord
  2
CDWK_PTTYP49
340
0
 70
     0
280
     1
281
     1
  0
BLOCK_RECORD
  5
179
330
1
100
AcDbSymbolTableRecord
100
AcDbBlockTableRecord
  2
CDWK_PTTYP50
340
0
 70
     0
280
     1
281
     1
  0
BLOCK_RECORD
  5
183
330
1
100
AcDbSymbolTableRecord
100
AcDbBlockTableRecord
  2
CDWK_PTTYP51
340
0
 70
     0
280
     1
281
     1
  0
BLOCK_RECORD
  5
188
330
1
100
AcDbSymbolTableRecord
100
AcDbBlockTableRecord
  2
CDWK_PTTYP52
340
0
 70
     0
280
     1
281
     1
  0
BLOCK_RECORD
  5
18E
330
1
100
AcDbSymbolTableRecord
100
AcDbBlockTableRecord
  2
cw-dimension-symbol1
340
0
 70
     0
280
     1
281
     0
  0
BLOCK_RECORD
  5
195
330
1
100
AcDbSymbolTableRecord
100
AcDbBlockTableRecord
  2
cw-dimension-symbol2
340
0
 70
     0
280
     1
281
     0
  0
BLOCK_RECORD
  5
19A
330
1
100
AcDbSymbolTableRecord
100
AcDbBlockTableRecord
  2
cw-dimension-symbol3
340
0
 70
     0
280
     1
281
     0
  0
BLOCK_RECORD
  5
19F
330
1
100
AcDbSymbolTableRecord
100
AcDbBlockTableRecord
  2
cw-dimension-symbol5
340
0
 70
     0
280
     1
281
     0
  0
BLOCK_RECORD
  5
1A6
330
1
100
AcDbSymbolTableRecord
100
AcDbBlockTableRecord
  2
cw-dimension-symbol6
340
0
 70
     0
280
     1
281
     0
  0
BLOCK_RECORD
  5
1AC
330
1
100
AcDbSymbolTableRecord
100
AcDbBlockTableRecord
  2
cw-dimension-symbol11
340
0
 70
     0
280
     1
281
     0
  0
BLOCK_RECORD
  5
1B2
330
1
100
AcDbSymbolTableRecord
100
AcDbBlockTableRecord
  2
cw-dimension-symbol13
340
0
 70
     0
280
     1
281
     0
  0
BLOCK_RECORD
  5
1B8
330
1
100
AcDbSymbolTableRecord
100
AcDbBlockTableRecord
  2
cw-dimension-symbol15
340
0
 70
     0
280
     1
281
     0
  0
BLOCK_RECORD
  5
1BF
330
1
100
AcDbSymbolTableRecord
100
AcDbBlockTableRecord
  2
cw-dimension-symbol16
340
0
 70
     0
280
     1
281
     0
  0
BLOCK_RECORD
  5
1C6
330
1
100
AcDbSymbolTableRecord
100
AcDbBlockTableRecord
  2
cw-dimension-symbol17
340
0
 70
     0
280
     1
281
     0
  0
BLOCK_RECORD
  5
1CD
330
1
100
AcDbSymbolTableRecord
100
AcDbBlockTableRecord
  2
cw-dimension-symbol18
340
0
 70
     0
280
     1
281
     0
  0
BLOCK_RECORD
  5
1D4
330
1
100
AcDbSymbolTableRecord
100
AcDbBlockTableRecord
  2
cw-dimension-symbol19
340
0
 70
     0
280
     1
281
     0
  0
BLOCK_RECORD
  5
1D7
330
1
100
AcDbSymbolTableRecord
100
AcDbBlockTableRecord
  2
cw-dimension-symbol20
340
0
 70
     0
280
     1
281
     0
  0
BLOCK_RECORD
  5
1DE
330
1
100
AcDbSymbolTableRecord
100
AcDbBlockTableRecord
  2
cw-dimension-symbol21
340
0
 70
     0
280
     1
281
     0
  0
BLOCK_RECORD
  5
1E5
330
1
100
AcDbSymbolTableRecord
100
AcDbBlockTableRecord
  2
cw-line-extremity0
340
0
 70
     0
280
     1
281
     0
  0
BLOCK_RECORD
  5
1E9
330
1
100
AcDbSymbolTableRecord
100
AcDbBlockTableRecord
  2
cw-line-extremity2
340
0
 70
     0
280
     1
281
     0
  0
BLOCK_RECORD
  5
1EE
330
1
100
AcDbSymbolTableRecord
100
AcDbBlockTableRecord
  2
cw-line-extremity3
340
0
 70
     0
280
     1
281
     0
  0
BLOCK_RECORD
  5
1F3
330
1
100
AcDbSymbolTableRecord
100
AcDbBlockTableRecord
  2
cw-line-extremity301
340
0
 70
     0
280
     1
281
     0
  0
BLOCK_RECORD
  5
1F5
330
1
100
AcDbSymbolTableRecord
100
AcDbBlockTableRecord
  2
cw-line-extremity4
340
0
 70
     0
280
     1
281
     0
  0
BLOCK_RECORD
  5
1F7
330
1
100
AcDbSymbolTableRecord
100
AcDbBlockTableRecord
  2
cw-line-extremity5
340
0
 70
     0
280
     1
281
     0
  0
BLOCK_RECORD
  5
1F9
330
1
100
AcDbSymbolTableRecord
100
AcDbBlockTableRecord
  2
cw-line-extremity6
340
0
 70
     0
280
     1
281
     0
  0
BLOCK_RECORD
  5
1FB
330
1
100
AcDbSymbolTableRecord
100
AcDbBlockTableRecord
  2
cw-line-extremity9
340
0
 70
     0
280
     1
281
     0
  0
BLOCK_RECORD
  5
1FD
330
1
100
AcDbSymbolTableRecord
100
AcDbBlockTableRecord
  2
cw-line-extremity10
340
0
 70
     0
280
     1
281
     0
  0
BLOCK_RECORD
  5
1FF
330
1
100
AcDbSymbolTableRecord
100
AcDbBlockTableRecord
  2
cw-line-extremity1
340
0
 70
     0
280
     1
281
     0
  0
BLOCK_RECORD
  5
1B
330
1
100
AcDbSymbolTableRecord
100
AcDbBlockTableRecord
  2
*Paper_Space69
340
1E
 70
     0
280
     1
281
     0
  0
BLOCK_RECORD
  5
4B4
330
1
100
AcDbSymbolTableRecord
100
AcDbBlockTableRecord
  2
DIM204
340
0
102
{BLKREFS
331
4C5
102
}
 70
     0
280
     1
281
     1
  0
BLOCK_RECORD
  5
4C8
330
1
100
AcDbSymbolTableRecord
100
AcDbBlockTableRecord
  2
DIM205
340
0
102
{BLKREFS
331
4D9
102
}
 70
     0
280
     1
281
     1
  0
BLOCK_RECORD
  5
4DB
330
1
100
AcDbSymbolTableRecord
100
AcDbBlockTableRecord
  2
DIM206
340
0
102
{BLKREFS
331
4EC
102
}
 70
     0
280
     1
281
     1
  0
ENDTAB
  0
ENDSEC
  0
SECTION
  2
BLOCKS
  0
BLOCK
  5
20
330
1F
100
AcDbEntity
  8
0
100
AcDbBlockBegin
  2
*Model_Space
 70
     0
 10
0.0
 20
0.0
 30
0.0
  3
*Model_Space
  1

  0
ENDBLK
  5
21
330
1F
100
AcDbEntity
  8
0
100
AcDbBlockEnd
  0
BLOCK
  5
219
330
217
100
AcDbEntity
 67
     1
  8
0
100
AcDbBlockBegin
  2
*Paper_Space
 70
     0
 10
0.0
 20
0.0
 30
0.0
  3
*Paper_Space
  1

  0
ENDBLK
  5
21A
330
217
100
AcDbEntity
 67
     1
  8
0
100
AcDbBlockEnd
  0
BLOCK
  5
75
330
70
100
AcDbEntity
  8
0
100
AcDbBlockBegin
  2
CDWK_PTTYP1
 70
     0
 10
0.0
 20
0.0
 30
0.0
  3
CDWK_PTTYP1
  1

  0
LINE
  5
71
330
70
100
AcDbEntity
  8
0
  6
Continuous
 62
     0
370
    -2
390
5F
100
AcDbLine
 10
-0.5
 20
0.5
 30
0.0
 11
0.5
 21
0.5
 31
0.0
  0
LINE
  5
72
330
70
100
AcDbEntity
  8
0
  6
Continuous
 62
     0
370
    -2
390
5F
100
AcDbLine
 10
0.5
 20
0.5
 30
0.0
 11
0.5
 21
-0.5
 31
0.0
  0
LINE
  5
73
330
70
100
AcDbEntity
  8
0
  6
Continuous
 62
     0
370
    -2
390
5F
100
AcDbLine
 10
0.5
 20
-0.5
 30
0.0
 11
-0.5
 21
-0.5
 31
0.0
  0
LINE
  5
74
330
70
100
AcDbEntity
  8
0
  6
Continuous
 62
     0
370
    -2
390
5F
100
AcDbLine
 10
-0.5
 20
-0.5
 30
0.0
 11
-0.5
 21
0.5
 31
0.0
  0
ENDBLK
  5
76
330
70
100
AcDbEntity
  8
0
100
AcDbBlockEnd
  0
BLOCK
  5
7A
330
77
100
AcDbEntity
  8
0
100
AcDbBlockBegin
  2
CDWK_PTTYP2
 70
     0
 10
0.0
 20
0.0
 30
0.0
  3
CDWK_PTTYP2
  1

  0
LINE
  5
78
330
77
100
AcDbEntity
  8
0
  6
Continuous
 62
     0
370
    -2
390
5F
100
AcDbLine
 10
0.0
 20
0.5
 30
0.0
 11
0.0
 21
-0.5
 31
0.0
  0
LINE
  5
79
330
77
100
AcDbEntity
  8
0
  6
Continuous
 62
     0
370
    -2
390
5F
100
AcDbLine
 10
0.5
 20
0.0
 30
0.0
 11
-0.5
 21
0.0
 31
0.0
  0
ENDBLK
  5
7B
330
77
100
AcDbEntity
  8
0
100
AcDbBlockEnd
  0
BLOCK
  5
7E
330
7C
100
AcDbEntity
  8
0
100
AcDbBlockBegin
  2
CDWK_PTTYP4
 70
     0
 10
0.0
 20
0.0
 30
0.0
  3
CDWK_PTTYP4
  1

  0
HATCH
  5
7D
330
7C
100
AcDbEntity
  8
0
  6
Continuous
 62
     0
370
    -2
390
5F
100
AcDbHatch
 10
0.0
 20
0.0
 30
0.0
210
0.0
220
0.0
230
1.0
  2
SOLID
 70
     1
 71
     0
 91
        1
 92
        1
 93
        1
 72
     2
 10
0.0
 20
0.0
 40
0.5
 50
0.0
 51
360.0
 73
     1
 97
        0
 75
     0
 76
     1
 98
        0
  0
ENDBLK
  5
7F
330
7C
100
AcDbEntity
  8
0
100
AcDbBlockEnd
  0
BLOCK
  5
87
330
80
100
AcDbEntity
  8
0
100
AcDbBlockBegin
  2
CDWK_PTTYP5
 70
     0
 10
0.0
 20
0.0
 30
0.0
  3
CDWK_PTTYP5
  1

  0
LINE
  5
81
330
80
100
AcDbEntity
  8
0
  6
Continuous
 62
     0
370
    -2
390
5F
100
AcDbLine
 10
-0.5
 20
0.5
 30
0.0
 11
0.5
 21
0.5
 31
0.0
  0
LINE
  5
82
330
80
100
AcDbEntity
  8
0
  6
Continuous
 62
     0
370
    -2
390
5F
100
AcDbLine
 10
0.5
 20
0.5
 30
0.0
 11
0.5
 21
-0.5
 31
0.0
  0
LINE
  5
83
330
80
100
AcDbEntity
  8
0
  6
Continuous
 62
     0
370
    -2
390
5F
100
AcDbLine
 10
0.5
 20
-0.5
 30
0.0
 11
-0.5
 21
-0.5
 31
0.0
  0
LINE
  5
84
330
80
100
AcDbEntity
  8
0
  6
Continuous
 62
     0
370
    -2
390
5F
100
AcDbLine
 10
-0.5
 20
-0.5
 30
0.0
 11
-0.5
 21
0.5
 31
0.0
  0
HATCH
  5
85
330
80
100
AcDbEntity
  8
0
  6
Continuous
 62
     0
370
    -2
390
5F
100
AcDbHatch
 10
0.0
 20
0.0
 30
0.0
210
0.0
220
0.0
230
1.0
  2
SOLID
 70
     1
 71
     0
 91
        1
 92
        3
 72
     0
 73
     1
 93
        4
 10
-0.5
 20
0.0
 10
0.0
 20
0.0
 10
0.0
 20
-0.5
 10
-0.5
 20
-0.5
 97
        0
 75
     0
 76
     1
 98
        0
  0
HATCH
  5
86
330
80
100
AcDbEntity
  8
0
  6
Continuous
 62
     0
370
    -2
390
5F
100
AcDbHatch
 10
0.0
 20
0.0
 30
0.0
210
0.0
220
0.0
230
1.0
  2
SOLID
 70
     1
 71
     0
 91
        1
 92
        3
 72
     0
 73
     1
 93
        4
 10
0.0
 20
0.0
 10
0.5
 20
0.0
 10
0.5
 20
0.5
 10
0.0
 20
0.5
 97
        0
 75
     0
 76
     1
 98
        0
  0
ENDBLK
  5
88
330
80
100
AcDbEntity
  8
0
100
AcDbBlockEnd
  0
BLOCK
  5
8F
330
89
100
AcDbEntity
  8
0
100
AcDbBlockBegin
  2
CDWK_PTTYP6
 70
     0
 10
0.0
 20
0.0
 30
0.0
  3
CDWK_PTTYP6
  1

  0
LINE
  5
8A
330
89
100
AcDbEntity
  8
0
  6
Continuous
 62
     0
370
    -2
390
5F
100
AcDbLine
 10
-0.5
 20
0.5
 30
0.0
 11
0.5
 21
0.5
 31
0.0
  0
LINE
  5
8B
330
89
100
AcDbEntity
  8
0
  6
Continuous
 62
     0
370
    -2
390
5F
100
AcDbLine
 10
0.5
 20
0.5
 30
0.0
 11
0.5
 21
-0.5
 31
0.0
  0
LINE
  5
8C
330
89
100
AcDbEntity
  8
0
  6
Continuous
 62
     0
370
    -2
390
5F
100
AcDbLine
 10
0.5
 20
-0.5
 30
0.0
 11
-0.5
 21
-0.5
 31
0.0
  0
LINE
  5
8D
330
89
100
AcDbEntity
  8
0
  6
Continuous
 62
     0
370
    -2
390
5F
100
AcDbLine
 10
-0.5
 20
-0.5
 30
0.0
 11
-0.5
 21
0.5
 31
0.0
  0
HATCH
  5
8E
330
89
100
AcDbEntity
  8
0
  6
Continuous
 62
     0
370
    -2
390
5F
100
AcDbHatch
 10
0.0
 20
0.0
 30
0.0
210
0.0
220
0.0
230
1.0
  2
SOLID
 70
     1
 71
     0
 91
        1
 92
        3
 72
     0
 73
     1
 93
        3
 10
-0.5
 20
-0.5
 10
-0.5
 20
0.5
 10
0.5
 20
0.5
 97
        0
 75
     0
 76
     1
 98
        0
  0
ENDBLK
  5
90
330
89
100
AcDbEntity
  8
0
100
AcDbBlockEnd
  0
BLOCK
  5
98
330
91
100
AcDbEntity
  8
0
100
AcDbBlockBegin
  2
CDWK_PTTYP7
 70
     0
 10
0.0
 20
0.0
 30
0.0
  3
CDWK_PTTYP7
  1

  0
LINE
  5
92
330
91
100
AcDbEntity
  8
0
  6
Continuous
 62
     0
370
    -2
390
5F
100
AcDbLine
 10
-0.5
 20
0.5
 30
0.0
 11
0.5
 21
0.5
 31
0.0
  0
LINE
  5
93
330
91
100
AcDbEntity
  8
0
  6
Continuous
 62
     0
370
    -2
390
5F
100
AcDbLine
 10
0.5
 20
0.5
 30
0.0
 11
0.5
 21
-0.5
 31
0.0
  0
LINE
  5
94
330
91
100
AcDbEntity
  8
0
  6
Continuous
 62
     0
370
    -2
390
5F
100
AcDbLine
 10
0.5
 20
-0.5
 30
0.0
 11
-0.5
 21
-0.5
 31
0.0
  0
LINE
  5
95
330
91
100
AcDbEntity
  8
0
  6
Continuous
 62
     0
370
    -2
390
5F
100
AcDbLine
 10
-0.5
 20
-0.5
 30
0.0
 11
-0.5
 21
0.5
 31
0.0
  0
LINE
  5
96
330
91
100
AcDbEntity
  8
0
  6
Continuous
 62
     0
370
    -2
390
5F
100
AcDbLine
 10
0.0
 20
0.5
 30
0.0
 11
0.0
 21
-0.5
 31
0.0
  0
LINE
  5
97
330
91
100
AcDbEntity
  8
0
  6
Continuous
 62
     0
370
    -2
390
5F
100
AcDbLine
 10
0.5
 20
0.0
 30
0.0
 11
-0.5
 21
0.0
 31
0.0
  0
ENDBLK
  5
99
330
91
100
AcDbEntity
  8
0
100
AcDbBlockEnd
  0
BLOCK
  5
9C
330
9A
100
AcDbEntity
  8
0
100
AcDbBlockBegin
  2
CDWK_PTTYP8
 70
     0
 10
0.0
 20
0.0
 30
0.0
  3
CDWK_PTTYP8
  1

  0
HATCH
  5
9B
330
9A
100
AcDbEntity
  8
0
  6
Continuous
 62
     0
370
    -2
390
5F
100
AcDbHatch
 10
0.0
 20
0.0
 30
0.0
210
0.0
220
0.0
230
1.0
  2
SOLID
 70
     1
 71
     0
 91
        1
 92
        3
 72
     0
 73
     1
 93
        4
 10
0.5
 20
0.5
 10
0.5
 20
-0.5
 10
-0.5
 20
-0.5
 10
-0.5
 20
0.5
 97
        0
 75
     0
 76
     1
 98
        0
  0
ENDBLK
  5
9D
330
9A
100
AcDbEntity
  8
0
100
AcDbBlockEnd
  0
BLOCK
  5
A1
330
9E
100
AcDbEntity
  8
0
100
AcDbBlockBegin
  2
CDWK_PTTYP9
 70
     0
 10
0.0
 20
0.0
 30
0.0
  3
CDWK_PTTYP9
  1

  0
CIRCLE
  5
9F
330
9E
100
AcDbEntity
  8
0
  6
Continuous
 62
     0
370
    -2
390
5F
100
AcDbCircle
 10
0.0
 20
0.0
 30
0.0
 40
0.1666666666666667
  0
CIRCLE
  5
A0
330
9E
100
AcDbEntity
  8
0
  6
Continuous
 62
     0
370
    -2
390
5F
100
AcDbCircle
 10
0.0
 20
0.0
 30
0.0
 40
0.5
  0
ENDBLK
  5
A2
330
9E
100
AcDbEntity
  8
0
100
AcDbBlockEnd
  0
BLOCK
  5
A5
330
A3
100
AcDbEntity
  8
0
100
AcDbBlockBegin
  2
CDWK_PTTYP10
 70
     0
 10
0.0
 20
0.0
 30
0.0
  3
CDWK_PTTYP10
  1

  0
CIRCLE
  5
A4
330
A3
100
AcDbEntity
  8
0
  6
Continuous
 62
     0
370
    -2
390
5F
100
AcDbCircle
 10
0.0
 20
0.0
 30
0.0
 40
0.5
  0
ENDBLK
  5
A6
330
A3
100
AcDbEntity
  8
0
100
AcDbBlockEnd
  0
BLOCK
  5
AA
330
A7
100
AcDbEntity
  8
0
100
AcDbBlockBegin
  2
CDWK_PTTYP11
 70
     0
 10
0.0
 20
0.0
 30
0.0
  3
CDWK_PTTYP11
  1

  0
CIRCLE
  5
A8
330
A7
100
AcDbEntity
  8
0
  6
Continuous
 62
     0
370
    -2
390
5F
100
AcDbCircle
 10
0.0
 20
0.0
 30
0.0
 40
0.25
  0
CIRCLE
  5
A9
330
A7
100
AcDbEntity
  8
0
  6
Continuous
 62
     0
370
    -2
390
5F
100
AcDbCircle
 10
0.0
 20
0.0
 30
0.0
 40
0.5
  0
ENDBLK
  5
AB
330
A7
100
AcDbEntity
  8
0
100
AcDbBlockEnd
  0
BLOCK
  5
AF
330
AC
100
AcDbEntity
  8
0
100
AcDbBlockBegin
  2
CDWK_PTTYP12
 70
     0
 10
0.0
 20
0.0
 30
0.0
  3
CDWK_PTTYP12
  1

  0
CIRCLE
  5
AD
330
AC
100
AcDbEntity
  8
0
  6
Continuous
 62
     0
370
    -2
390
5F
100
AcDbCircle
 10
0.25
 20
0.0
 30
0.0
 40
0.25
  0
CIRCLE
  5
AE
330
AC
100
AcDbEntity
  8
0
  6
Continuous
 62
     0
370
    -2
390
5F
100
AcDbCircle
 10
0.0
 20
0.0
 30
0.0
 40
0.5
  0
ENDBLK
  5
B0
330
AC
100
AcDbEntity
  8
0
100
AcDbBlockEnd
  0
BLOCK
  5
B5
330
B1
100
AcDbEntity
  8
0
100
AcDbBlockBegin
  2
CDWK_PTTYP13
 70
     0
 10
0.0
 20
0.0
 30
0.0
  3
CDWK_PTTYP13
  1

  0
CIRCLE
  5
B2
330
B1
100
AcDbEntity
  8
0
  6
Continuous
 62
     0
370
    -2
390
5F
100
AcDbCircle
 10
-0.25
 20
0.0
 30
0.0
 40
0.25
  0
CIRCLE
  5
B3
330
B1
100
AcDbEntity
  8
0
  6
Continuous
 62
     0
370
    -2
390
5F
100
AcDbCircle
 10
0.25
 20
0.0
 30
0.0
 40
0.25
  0
CIRCLE
  5
B4
330
B1
100
AcDbEntity
  8
0
  6
Continuous
 62
     0
370
    -2
390
5F
100
AcDbCircle
 10
0.0
 20
0.0
 30
0.0
 40
0.5
  0
ENDBLK
  5
B6
330
B1
100
AcDbEntity
  8
0
100
AcDbBlockEnd
  0
BLOCK
  5
BC
330
B7
100
AcDbEntity
  8
0
100
AcDbBlockBegin
  2
CDWK_PTTYP16
 70
     0
 10
0.0
 20
0.0
 30
0.0
  3
CDWK_PTTYP16
  1

  0
LINE
  5
B8
330
B7
100
AcDbEntity
  8
0
  6
Continuous
 62
     0
370
    -2
390
5F
100
AcDbLine
 10
-0.5
 20
-0.289
 30
0.0
 11
0.5
 21
-0.289
 31
0.0
  0
LINE
  5
B9
330
B7
100
AcDbEntity
  8
0
  6
Continuous
 62
     0
370
    -2
390
5F
100
AcDbLine
 10
0.5
 20
-0.289
 30
0.0
 11
0.0
 21
0.577
 31
0.0
  0
LINE
  5
BA
330
B7
100
AcDbEntity
  8
0
  6
Continuous
 62
     0
370
    -2
390
5F
100
AcDbLine
 10
0.0
 20
0.577
 30
0.0
 11
-0.5
 21
-0.289
 31
0.0
  0
CIRCLE
  5
BB
330
B7
100
AcDbEntity
  8
0
  6
Continuous
 62
     0
370
    -2
390
5F
100
AcDbCircle
 10
0.0
 20
0.0
 30
0.0
 40
0.289
  0
ENDBLK
  5
BD
330
B7
100
AcDbEntity
  8
0
100
AcDbBlockEnd
  0
BLOCK
  5
C1
330
BE
100
AcDbEntity
  8
0
100
AcDbBlockBegin
  2
CDWK_PTTYP17
 70
     0
 10
0.0
 20
0.0
 30
0.0
  3
CDWK_PTTYP17
  1

  0
CIRCLE
  5
BF
330
BE
100
AcDbEntity
  8
0
  6
Continuous
 62
     0
370
    -2
390
5F
100
AcDbCircle
 10
0.0
 20
0.0
 30
0.0
 40
0.5
  0
HATCH
  5
C0
330
BE
100
AcDbEntity
  8
0
  6
Continuous
 62
     0
370
    -2
390
5F
100
AcDbHatch
 10
0.0
 20
0.0
 30
0.0
210
0.0
220
0.0
230
1.0
  2
SOLID
 70
     1
 71
     0
 91
        1
 92
        1
 93
        1
 72
     2
 10
0.0
 20
0.0
 40
0.25
 50
0.0
 51
360.0
 73
     1
 97
        0
 75
     0
 76
     1
 98
        0
  0
ENDBLK
  5
C2
330
BE
100
AcDbEntity
  8
0
100
AcDbBlockEnd
  0
BLOCK
  5
C6
330
C3
100
AcDbEntity
  8
0
100
AcDbBlockBegin
  2
CDWK_PTTYP18
 70
     0
 10
0.0
 20
0.0
 30
0.0
  3
CDWK_PTTYP18
  1

  0
CIRCLE
  5
C4
330
C3
100
AcDbEntity
  8
0
  6
Continuous
 62
     0
370
    -2
390
5F
100
AcDbCircle
 10
0.0
 20
0.0
 30
0.0
 40
0.5
  0
CIRCLE
  5
C5
330
C3
100
AcDbEntity
  8
0
  6
Continuous
 62
     0
370
    -2
390
5F
100
AcDbCircle
 10
0.0
 20
0.0
 30
0.0
 40
0.208
  0
ENDBLK
  5
C7
330
C3
100
AcDbEntity
  8
0
100
AcDbBlockEnd
  0
BLOCK
  5
CC
330
C8
100
AcDbEntity
  8
0
100
AcDbBlockBegin
  2
CDWK_PTTYP19
 70
     0
 10
0.0
 20
0.0
 30
0.0
  3
CDWK_PTTYP19
  1

  0
CIRCLE
  5
C9
330
C8
100
AcDbEntity
  8
0
  6
Continuous
 62
     0
370
    -2
390
5F
100
AcDbCircle
 10
0.0
 20
0.0
 30
0.0
 40
0.25
  0
CIRCLE
  5
CA
330
C8
100
AcDbEntity
  8
0
  6
Continuous
 62
     0
370
    -2
390
5F
100
AcDbCircle
 10
0.0
 20
0.0
 30
0.0
 40
0.35
  0
LINE
  5
CB
330
C8
100
AcDbEntity
  8
0
  6
Continuous
 62
     0
370
    -2
390
5F
100
AcDbLine
 10
-0.25
 20
0.0
 30
0.0
 11
0.25
 21
0.0
 31
0.0
  0
ENDBLK
  5
CD
330
C8
100
AcDbEntity
  8
0
100
AcDbBlockEnd
  0
BLOCK
  5
D1
330
CE
100
AcDbEntity
  8
0
100
AcDbBlockBegin
  2
CDWK_PTTYP20
 70
     0
 10
0.0
 20
0.0
 30
0.0
  3
CDWK_PTTYP20
  1

  0
CIRCLE
  5
CF
330
CE
100
AcDbEntity
  8
0
  6
Continuous
 62
     0
370
    -2
390
5F
100
AcDbCircle
 10
0.0
 20
0.0
 30
0.0
 40
0.3333333333333333
  0
CIRCLE
  5
D0
330
CE
100
AcDbEntity
  8
0
  6
Continuous
 62
     0
370
    -2
390
5F
100
AcDbCircle
 10
0.0
 20
0.0
 30
0.0
 40
0.5
  0
ENDBLK
  5
D2
330
CE
100
AcDbEntity
  8
0
100
AcDbBlockEnd
  0
BLOCK
  5
D6
330
D3
100
AcDbEntity
  8
0
100
AcDbBlockBegin
  2
CDWK_PTTYP21
 70
     0
 10
0.0
 20
0.0
 30
0.0
  3
CDWK_PTTYP21
  1

  0
CIRCLE
  5
D4
330
D3
100
AcDbEntity
  8
0
  6
Continuous
 62
     0
370
    -2
390
5F
100
AcDbCircle
 10
0.0
 20
0.0
 30
0.0
 40
0.5
  0
LINE
  5
D5
330
D3
100
AcDbEntity
  8
0
  6
Continuous
 62
     0
370
    -2
390
5F
100
AcDbLine
 10
-0.5
 20
0.0
 30
0.0
 11
0.5
 21
0.0
 31
0.0
  0
ENDBLK
  5
D7
330
D3
100
AcDbEntity
  8
0
100
AcDbBlockEnd
  0
BLOCK
  5
DD
330
D8
100
AcDbEntity
  8
0
100
AcDbBlockBegin
  2
CDWK_PTTYP25
 70
     0
 10
0.0
 20
0.0
 30
0.0
  3
CDWK_PTTYP25
  1

  0
LINE
  5
D9
330
D8
100
AcDbEntity
  8
0
  6
Continuous
 62
     0
370
    -2
390
5F
100
AcDbLine
 10
0.0
 20
0.5
 30
0.0
 11
-0.4330127018922193
 21
-0.25
 31
0.0
  0
LINE
  5
DA
330
D8
100
AcDbEntity
  8
0
  6
Continuous
 62
     0
370
    -2
390
5F
100
AcDbLine
 10
-0.4330127018922193
 20
-0.25
 30
0.0
 11
0.4330127018922193
 21
-0.25
 31
0.0
  0
LINE
  5
DB
330
D8
100
AcDbEntity
  8
0
  6
Continuous
 62
     0
370
    -2
390
5F
100
AcDbLine
 10
0.4330127018922193
 20
-0.25
 30
0.0
 11
0.0
 21
0.5
 31
0.0
  0
CIRCLE
  5
DC
330
D8
100
AcDbEntity
  8
0
  6
Continuous
 62
     0
370
    -2
390
5F
100
AcDbCircle
 10
0.0
 20
0.0
 30
0.0
 40
0.5
  0
ENDBLK
  5
DE
330
D8
100
AcDbEntity
  8
0
100
AcDbBlockEnd
  0
BLOCK
  5
E4
330
DF
100
AcDbEntity
  8
0
100
AcDbBlockBegin
  2
CDWK_PTTYP26
 70
     0
 10
0.0
 20
0.0
 30
0.0
  3
CDWK_PTTYP26
  1

  0
LINE
  5
E0
330
DF
100
AcDbEntity
  8
0
  6
Continuous
 62
     0
370
    -2
390
5F
100
AcDbLine
 10
-0.5
 20
-0.289
 30
0.0
 11
0.5
 21
-0.289
 31
0.0
  0
LINE
  5
E1
330
DF
100
AcDbEntity
  8
0
  6
Continuous
 62
     0
370
    -2
390
5F
100
AcDbLine
 10
0.5
 20
-0.289
 30
0.0
 11
0.0
 21
0.577
 31
0.0
  0
LINE
  5
E2
330
DF
100
AcDbEntity
  8
0
  6
Continuous
 62
     0
370
    -2
390
5F
100
AcDbLine
 10
0.0
 20
0.577
 30
0.0
 11
-0.5
 21
-0.289
 31
0.0
  0
CIRCLE
  5
E3
330
DF
100
AcDbEntity
  8
0
  6
Continuous
 62
     0
370
    -2
390
5F
100
AcDbCircle
 10
0.0
 20
0.0
 30
0.0
 40
0.125
  0
ENDBLK
  5
E5
330
DF
100
AcDbEntity
  8
0
100
AcDbBlockEnd
  0
BLOCK
  5
EC
330
E6
100
AcDbEntity
  8
0
100
AcDbBlockBegin
  2
CDWK_PTTYP27
 70
     0
 10
0.0
 20
0.0
 30
0.0
  3
CDWK_PTTYP27
  1

  0
LINE
  5
E7
330
E6
100
AcDbEntity
  8
0
  6
Continuous
 62
     0
370
    -2
390
5F
100
AcDbLine
 10
0.0
 20
0.5
 30
0.0
 11
-0.4330127018922193
 21
-0.25
 31
0.0
  0
LINE
  5
E8
330
E6
100
AcDbEntity
  8
0
  6
Continuous
 62
     0
370
    -2
390
5F
100
AcDbLine
 10
-0.4330127018922193
 20
-0.25
 30
0.0
 11
0.4330127018922193
 21
-0.25
 31
0.0
  0
LINE
  5
E9
330
E6
100
AcDbEntity
  8
0
  6
Continuous
 62
     0
370
    -2
390
5F
100
AcDbLine
 10
0.4330127018922193
 20
-0.25
 30
0.0
 11
0.0
 21
0.5
 31
0.0
  0
CIRCLE
  5
EA
330
E6
100
AcDbEntity
  8
0
  6
Continuous
 62
     0
370
    -2
390
5F
100
AcDbCircle
 10
0.0
 20
0.0
 30
0.0
 40
0.125
  0
CIRCLE
  5
EB
330
E6
100
AcDbEntity
  8
0
  6
Continuous
 62
     0
370
    -2
390
5F
100
AcDbCircle
 10
0.0
 20
0.0
 30
0.0
 40
0.5
  0
ENDBLK
  5
ED
330
E6
100
AcDbEntity
  8
0
100
AcDbBlockEnd
  0
BLOCK
  5
F3
330
EE
100
AcDbEntity
  8
0
100
AcDbBlockBegin
  2
CDWK_PTTYP28
 70
     0
 10
0.0
 20
0.0
 30
0.0
  3
CDWK_PTTYP28
  1

  0
LINE
  5
EF
330
EE
100
AcDbEntity
  8
0
  6
Continuous
 62
     0
370
    -2
390
5F
100
AcDbLine
 10
-0.5
 20
0.5
 30
0.0
 11
0.5
 21
0.5
 31
0.0
  0
LINE
  5
F0
330
EE
100
AcDbEntity
  8
0
  6
Continuous
 62
     0
370
    -2
390
5F
100
AcDbLine
 10
0.5
 20
0.5
 30
0.0
 11
-0.5
 21
-0.5
 31
0.0
  0
LINE
  5
F1
330
EE
100
AcDbEntity
  8
0
  6
Continuous
 62
     0
370
    -2
390
5F
100
AcDbLine
 10
0.5
 20
-0.5
 30
0.0
 11
-0.5
 21
-0.5
 31
0.0
  0
LINE
  5
F2
330
EE
100
AcDbEntity
  8
0
  6
Continuous
 62
     0
370
    -2
390
5F
100
AcDbLine
 10
-0.5
 20
0.5
 30
0.0
 11
0.5
 21
-0.5
 31
0.0
  0
ENDBLK
  5
F4
330
EE
100
AcDbEntity
  8
0
100
AcDbBlockEnd
  0
BLOCK
  5
F9
330
F5
100
AcDbEntity
  8
0
100
AcDbBlockBegin
  2
CDWK_PTTYP29
 70
     0
 10
0.0
 20
0.0
 30
0.0
  3
CDWK_PTTYP29
  1

  0
CIRCLE
  5
F6
330
F5
100
AcDbEntity
  8
0
  6
Continuous
 62
     0
370
    -2
390
5F
100
AcDbCircle
 10
0.0
 20
0.0
 30
0.0
 40
0.2
  0
CIRCLE
  5
F7
330
F5
100
AcDbEntity
  8
0
  6
Continuous
 62
     0
370
    -2
390
5F
100
AcDbCircle
 10
0.0
 20
0.0
 30
0.0
 40
0.35
  0
CIRCLE
  5
F8
330
F5
100
AcDbEntity
  8
0
  6
Continuous
 62
     0
370
    -2
390
5F
100
AcDbCircle
 10
0.0
 20
0.0
 30
0.0
 40
0.5
  0
ENDBLK
  5
FA
330
F5
100
AcDbEntity
  8
0
100
AcDbBlockEnd
  0
BLOCK
  5
100
330
FB
100
AcDbEntity
  8
0
100
AcDbBlockBegin
  2
CDWK_PTTYP30
 70
     0
 10
0.0
 20
0.0
 30
0.0
  3
CDWK_PTTYP30
  1

  0
LINE
  5
FC
330
FB
100
AcDbEntity
  8
0
  6
Continuous
 62
     0
370
    -2
390
5F
100
AcDbLine
 10
-0.5
 20
0.5
 30
0.0
 11
-0.1
 21
0.1
 31
0.0
  0
LINE
  5
FD
330
FB
100
AcDbEntity
  8
0
  6
Continuous
 62
     0
370
    -2
390
5F
100
AcDbLine
 10
0.5
 20
0.5
 30
0.0
 11
0.1
 21
0.1
 31
0.0
  0
LINE
  5
FE
330
FB
100
AcDbEntity
  8
0
  6
Continuous
 62
     0
370
    -2
390
5F
100
AcDbLine
 10
0.5
 20
-0.5
 30
0.0
 11
0.1
 21
-0.1
 31
0.0
  0
LINE
  5
FF
330
FB
100
AcDbEntity
  8
0
  6
Continuous
 62
     0
370
    -2
390
5F
100
AcDbLine
 10
-0.5
 20
-0.5
 30
0.0
 11
-0.1
 21
-0.1
 31
0.0
  0
ENDBLK
  5
101
330
FB
100
AcDbEntity
  8
0
100
AcDbBlockEnd
  0
BLOCK
  5
108
330
102
100
AcDbEntity
  8
0
100
AcDbBlockBegin
  2
CDWK_PTTYP31
 70
     0
 10
0.0
 20
0.0
 30
0.0
  3
CDWK_PTTYP31
  1

  0
LINE
  5
103
330
102
100
AcDbEntity
  8
0
  6
Continuous
 62
     0
370
    -2
390
5F
100
AcDbLine
 10
-0.5
 20
0.0
 30
0.0
 11
-0.1
 21
0.0
 31
0.0
  0
LINE
  5
104
330
102
100
AcDbEntity
  8
0
  6
Continuous
 62
     0
370
    -2
390
5F
100
AcDbLine
 10
0.1
 20
0.0
 30
0.0
 11
0.5
 21
0.0
 31
0.0
  0
LINE
  5
105
330
102
100
AcDbEntity
  8
0
  6
Continuous
 62
     0
370
    -2
390
5F
100
AcDbLine
 10
0.0
 20
0.5
 30
0.0
 11
0.0
 21
0.1
 31
0.0
  0
LINE
  5
106
330
102
100
AcDbEntity
  8
0
  6
Continuous
 62
     0
370
    -2
390
5F
100
AcDbLine
 10
0.0
 20
-0.1
 30
0.0
 11
0.0
 21
-0.5
 31
0.0
  0
CIRCLE
  5
107
330
102
100
AcDbEntity
  8
0
  6
Continuous
 62
     0
370
    -2
390
5F
100
AcDbCircle
 10
0.0
 20
0.0
 30
0.0
 40
0.1
  0
ENDBLK
  5
109
330
102
100
AcDbEntity
  8
0
100
AcDbBlockEnd
  0
BLOCK
  5
111
330
10A
100
AcDbEntity
  8
0
100
AcDbBlockBegin
  2
CDWK_PTTYP32
 70
     0
 10
0.0
 20
0.0
 30
0.0
  3
CDWK_PTTYP32
  1

  0
CIRCLE
  5
10B
330
10A
100
AcDbEntity
  8
0
  6
Continuous
 62
     0
370
    -2
390
5F
100
AcDbCircle
 10
0.0
 20
0.0
 30
0.0
 40
0.2
  0
CIRCLE
  5
10C
330
10A
100
AcDbEntity
  8
0
  6
Continuous
 62
     0
370
    -2
390
5F
100
AcDbCircle
 10
0.0
 20
0.0
 30
0.0
 40
0.5
  0
LINE
  5
10D
330
10A
100
AcDbEntity
  8
0
  6
Continuous
 62
     0
370
    -2
390
5F
100
AcDbLine
 10
0.1414213562373095
 20
0.1414213562373095
 30
0.0
 11
0.3535533905932738
 21
0.3535533905932738
 31
0.0
  0
LINE
  5
10E
330
10A
100
AcDbEntity
  8
0
  6
Continuous
 62
     0
370
    -2
390
5F
100
AcDbLine
 10
-0.1414213562373095
 20
0.1414213562373095
 30
0.0
 11
-0.3535533905932738
 21
0.3535533905932738
 31
0.0
  0
LINE
  5
10F
330
10A
100
AcDbEntity
  8
0
  6
Continuous
 62
     0
370
    -2
390
5F
100
AcDbLine
 10
0.1414213562373095
 20
-0.1414213562373095
 30
0.0
 11
0.3535533905932738
 21
-0.3535533905932738
 31
0.0
  0
LINE
  5
110
330
10A
100
AcDbEntity
  8
0
  6
Continuous
 62
     0
370
    -2
390
5F
100
AcDbLine
 10
-0.1414213562373095
 20
-0.1414213562373095
 30
0.0
 11
-0.3535533905932738
 21
-0.3535533905932738
 31
0.0
  0
ENDBLK
  5
112
330
10A
100
AcDbEntity
  8
0
100
AcDbBlockEnd
  0
BLOCK
  5
117
330
113
100
AcDbEntity
  8
0
100
AcDbBlockBegin
  2
CDWK_PTTYP33
 70
     0
 10
0.0
 20
0.0
 30
0.0
  3
CDWK_PTTYP33
  1

  0
LINE
  5
114
330
113
100
AcDbEntity
  8
0
  6
Continuous
 62
     0
370
    -2
390
5F
100
AcDbLine
 10
0.0
 20
-0.5
 30
0.0
 11
0.0
 21
0.5
 31
0.0
  0
LINE
  5
115
330
113
100
AcDbEntity
  8
0
  6
Continuous
 62
     0
370
    -2
390
5F
100
AcDbLine
 10
0.5
 20
0.0
 30
0.0
 11
-0.5
 21
0.0
 31
0.0
  0
CIRCLE
  5
116
330
113
100
AcDbEntity
  8
0
  6
Continuous
 62
     0
370
    -2
390
5F
100
AcDbCircle
 10
0.0
 20
0.0
 30
0.0
 40
0.5
  0
ENDBLK
  5
118
330
113
100
AcDbEntity
  8
0
100
AcDbBlockEnd
  0
BLOCK
  5
11D
330
119
100
AcDbEntity
  8
0
100
AcDbBlockBegin
  2
CDWK_PTTYP34
 70
     0
 10
0.0
 20
0.0
 30
0.0
  3
CDWK_PTTYP34
  1

  0
CIRCLE
  5
11A
330
119
100
AcDbEntity
  8
0
  6
Continuous
 62
     0
370
    -2
390
5F
100
AcDbCircle
 10
0.0
 20
0.0
 30
0.0
 40
0.5
  0
LINE
  5
11B
330
119
100
AcDbEntity
  8
0
  6
Continuous
 62
     0
370
    -2
390
5F
100
AcDbLine
 10
-0.4
 20
-0.3
 30
0.0
 11
0.3
 21
0.4
 31
0.0
  0
LINE
  5
11C
330
119
100
AcDbEntity
  8
0
  6
Continuous
 62
     0
370
    -2
390
5F
100
AcDbLine
 10
-0.3
 20
-0.4
 30
0.0
 11
0.4
 21
0.3
 31
0.0
  0
ENDBLK
  5
11E
330
119
100
AcDbEntity
  8
0
100
AcDbBlockEnd
  0
BLOCK
  5
123
330
11F
100
AcDbEntity
  8
0
100
AcDbBlockBegin
  2
CDWK_PTTYP35
 70
     0
 10
0.0
 20
0.0
 30
0.0
  3
CDWK_PTTYP35
  1

  0
LINE
  5
120
330
11F
100
AcDbEntity
  8
0
  6
Continuous
 62
     0
370
    -2
390
5F
100
AcDbLine
 10
0.0
 20
0.2
 30
0.0
 11
0.0
 21
0.5
 31
0.0
  0
LINE
  5
121
330
11F
100
AcDbEntity
  8
0
  6
Continuous
 62
     0
370
    -2
390
5F
100
AcDbLine
 10
0.0
 20
-0.2
 30
0.0
 11
0.0
 21
-0.5
 31
0.0
  0
CIRCLE
  5
122
330
11F
100
AcDbEntity
  8
0
  6
Continuous
 62
     0
370
    -2
390
5F
100
AcDbCircle
 10
0.0
 20
0.0
 30
0.0
 40
0.2
  0
ENDBLK
  5
124
330
11F
100
AcDbEntity
  8
0
100
AcDbBlockEnd
  0
BLOCK
  5
12B
330
125
100
AcDbEntity
  8
0
100
AcDbBlockBegin
  2
CDWK_PTTYP36
 70
     0
 10
0.0
 20
0.0
 30
0.0
  3
CDWK_PTTYP36
  1

  0
LINE
  5
126
330
125
100
AcDbEntity
  8
0
  6
Continuous
 62
     0
370
    -2
390
5F
100
AcDbLine
 10
-0.5
 20
0.2
 30
0.0
 11
0.5
 21
0.2
 31
0.0
  0
LINE
  5
127
330
125
100
AcDbEntity
  8
0
  6
Continuous
 62
     0
370
    -2
390
5F
100
AcDbLine
 10
0.5
 20
0.2
 30
0.0
 11
0.5
 21
-0.2
 31
0.0
  0
LINE
  5
128
330
125
100
AcDbEntity
  8
0
  6
Continuous
 62
     0
370
    -2
390
5F
100
AcDbLine
 10
0.5
 20
-0.2
 30
0.0
 11
-0.5
 21
-0.2
 31
0.0
  0
LINE
  5
129
330
125
100
AcDbEntity
  8
0
  6
Continuous
 62
     0
370
    -2
390
5F
100
AcDbLine
 10
-0.5
 20
-0.2
 30
0.0
 11
-0.5
 21
0.2
 31
0.0
  0
HATCH
  5
12A
330
125
100
AcDbEntity
  8
0
  6
Continuous
 62
     0
370
    -2
390
5F
100
AcDbHatch
 10
0.0
 20
0.0
 30
0.0
210
0.0
220
0.0
230
1.0
  2
SOLID
 70
     1
 71
     0
 91
        1
 92
        3
 72
     0
 73
     1
 93
        3
 10
-0.5
 20
-0.2
 10
0.5
 20
-0.2
 10
0.5
 20
0.2
 97
        0
 75
     0
 76
     1
 98
        0
  0
ENDBLK
  5
12C
330
125
100
AcDbEntity
  8
0
100
AcDbBlockEnd
  0
BLOCK
  5
130
330
12D
100
AcDbEntity
  8
0
100
AcDbBlockBegin
  2
CDWK_PTTYP37
 70
     0
 10
0.0
 20
0.0
 30
0.0
  3
CDWK_PTTYP37
  1

  0
HATCH
  5
12E
330
12D
100
AcDbEntity
  8
0
  6
Continuous
 62
     0
370
    -2
390
5F
100
AcDbHatch
 10
0.0
 20
0.0
 30
0.0
210
0.0
220
0.0
230
1.0
  2
SOLID
 70
     1
 71
     0
 91
        1
 92
        3
 72
     0
 73
     1
 93
      202
 10
-0.3535533905932738
 20
-0.3535533905932738
 10
-0.3485533905932738
 20
-0.3535533905932737
 10
-0.3435533905932738
 20
-0.3584836591895546
 10
-0.3385533905932738
 20
-0.3632782236961988
 10
-0.3335533905932738
 20
-0.367942389128785
 10
-0.3285533905932738
 20
-0.372481054046687
 10
-0.3235533905932738
 20
-0.3768987523588579
 10
-0.3185533905932738
 20
-0.3811996897107819
 10
-0.3135533905932738
 20
-0.3853877752881235
 10
-0.3085533905932737
 20
-0.3894666497242888
 10
-0.3035533905932737
 20
-0.3934397096803965
 10
-0.2985533905932737
 20
-0.3973101295704999
 10
-0.2935533905932737
 20
-0.4010808808273714
 10
-0.2885533905932737
 20
-0.4047547490409382
 10
-0.2835533905932737
 20
-0.4083343492496384
 10
-0.2785533905932737
 20
-0.4118221396222626
 10
-0.2735533905932737
 20
-0.4152204337324827
 10
-0.2685533905932737
 20
-0.4185314115988474
 10
-0.2635533905932737
 20
-0.4217571296384408
 10
-0.2585533905932737
 20
-0.4248995296617653
 10
-0.2535533905932737
 20
-0.4279604470190231
 10
-0.2485533905932737
 20
-0.4309416179932669
 10
-0.2435533905932737
 20
-0.4338446865234004
 10
-0.2385533905932737
 20
-0.4366712103293738
 10
-0.2335533905932737
 20
-0.439422666502825
 10
-0.2285533905932737
 20
-0.4421004566186126
 10
-0.2235533905932737
 20
-0.4447059114159811
 10
-0.2185533905932737
 20
-0.4472402950923041
 10
-0.2135533905932737
 20
-0.4497048092473372
 10
-0.2085533905932737
 20
-0.4521005965115692
 10
-0.2035533905932737
 20
-0.4544287438884664
 10
-0.1985533905932736
 20
-0.456690285837111
 10
-0.1935533905932736
 20
-0.45888620711884
 10
-0.1885533905932736
 20
-0.4610174454289638
 10
-0.1835533905932736
 20
-0.4630848938324164
 10
-0.1785533905932736
 20
-0.4650894030202291
 10
-0.1735533905932736
 20
-0.4670317834019928
 10
-0.1685533905932736
 20
-0.46891280704794
 10
-0.1635533905932736
 20
-0.4707332094929264
 10
-0.1585533905932736
 20
-0.4724936914133818
 10
-0.1535533905932736
 20
-0.4741949201872336
 10
-0.1485533905932736
 20
-0.4758375313458466
 10
-0.1435533905932736
 20
-0.4774221299261716
 10
-0.1385533905932736
 20
-0.4789492917305286
 10
-0.1335533905932736
 20
-0.4804195645007682
 10
-0.1285533905932736
 20
-0.4818334690129366
 10
-0.1235533905932736
 20
-0.4831915000980183
 10
-0.1185533905932736
 20
-0.4844941275938295
 10
-0.1135533905932736
 20
-0.4857417972326848
 10
-0.1085533905932736
 20
-0.4869349314690531
 10
-0.1035533905932736
 20
-0.4880739302510473
 10
-0.0985533905932736
 20
-0.489159171739258
 10
-0.0935533905932736
 20
-0.4901910129761353
 10
-0.0885533905932736
 20
-0.4911697905088447
 10
-0.0835533905932735
 20
-0.4920958209682695
 10
-0.0785533905932735
 20
-0.4929694016065986
 10
-0.0735533905932735
 20
-0.4937908107957261
 10
-0.0685533905932735
 20
-0.494560308488493
 10
-0.0635533905932735
 20
-0.4952781366446192
 10
-0.0585533905932735
 20
-0.4959445196230107
 10
-0.0535533905932735
 20
-0.4965596645419678
 10
-0.0485533905932735
 20
-0.4971237616086806
 10
-0.0435533905932735
 20
-0.4976369844192622
 10
-0.0385533905932735
 20
-0.4980994902304456
 10
-0.0335533905932735
 20
-0.4985114202039533
 10
-0.0285533905932735
 20
-0.4988728996244386
 10
-0.0235533905932735
 20
-0.4991840380917923
 10
-0.0185533905932735
 20
-0.49944492968851
 10
-0.0135533905932735
 20
-0.4996556531227215
 10
-0.0085533905932735
 20
-0.4998162718473921
 10
-0.0035533905932735
 20
-0.4999268341561182
 10
0.0014466094067265
 20
-0.499987373255857
 10
0.0064466094067265
 20
-0.4999979073168451
 10
0.0114466094067265
 20
-0.4999584394998819
 10
0.0164466094067265
 20
-0.4998689579610739
 10
0.0214466094067265
 20
-0.4997294358340547
 10
0.0264466094067265
 20
-0.4995398311896213
 10
0.0314466094067265
 20
-0.4993000869726422
 10
0.0364466094067265
 20
-0.4990101309160174
 10
0.0414466094067265
 20
-0.4986698754313855
 10
0.0464466094067265
 20
-0.498279217476192
 10
0.0514466094067265
 20
-0.4978380383966446
 10
0.0564466094067265
 20
-0.497346203745994
 10
0.0614466094067265
 20
-0.4968035630774849
 10
0.0664466094067264
 20
-0.4962099497112257
 10
0.0714466094067265
 20
-0.4955651804741228
 10
0.0764466094067265
 20
-0.4948690554119167
 10
0.0814466094067265
 20
-0.4941213574722463
 10
0.0864466094067265
 20
-0.4933218521575424
 10
0.0914466094067265
 20
-0.4924702871464235
 10
0.0964466094067265
 20
-0.4915663918821278
 10
0.1014466094067265
 20
-0.4906098771263643
 10
0.1064466094067265
 20
-0.4896004344768079
 10
0.1114466094067265
 20
-0.4885377358462822
 10
0.1164466094067265
 20
-0.4874214329014929
 10
0.1214466094067265
 20
-0.4862511564589613
 10
0.1264466094067265
 20
-0.4850265158355881
 10
0.1314466094067265
 20
-0.4837470981510305
 10
0.1364466094067265
 20
-0.482412467578809
 10
0.1414466094067265
 20
-0.4810221645427664
 10
0.1464466094067265
 20
-0.4795757048551781
 10
0.1514466094067265
 20
-0.4780725787924608
 10
0.1564466094067265
 20
-0.4765122501040308
 10
0.1614466094067265
 20
-0.4748941549494363
 10
0.1664466094067265
 20
-0.4732177007584056
 10
0.1714466094067265
 20
-0.4714822650079264
 10
0.1764466094067265
 20
-0.4696871939098801
 10
0.1814466094067266
 20
-0.4678318010021017
 10
0.1864466094067266
 20
-0.4659153656350076
 10
0.1914466094067266
 20
-0.4639371313451162
 10
0.1964466094067266
 20
-0.4618963041058764
 10
0.2014466094067266
 20
-0.4597920504451997
 10
0.2064466094067266
 20
-0.4576234954179405
 10
0.2114466094067266
 20
-0.4553897204202862
 10
0.2164466094067266
 20
-0.4530897608315588
 10
0.2214466094067266
 20
-0.45072260346729
 10
0.2264466094067266
 20
-0.4482871838255748
 10
0.2314466094067266
 20
-0.4457823831065977
 10
0.2364466094067266
 20
-0.4432070249828292
 10
0.2414466094067266
 20
-0.4405598720946596
 10
0.2464466094067266
 20
-0.4378396222431172
 10
0.2514466094067266
 20
-0.4350449042477435
 10
0.2564466094067266
 20
-0.4321742734336012
 10
0.2614466094067266
 20
-0.4292262067066663
 10
0.2664466094067266
 20
-0.4261990971714118
 10
0.2714466094067266
 20
-0.4230912482380831
 10
0.2764466094067266
 20
-0.4199008671598476
 10
0.2814466094067266
 20
-0.4166260579314797
 10
0.2864466094067266
 20
-0.4132648134712868
 10
0.2914466094067266
 20
-0.4098150069963156
 10
0.2964466094067266
 20
-0.4062743824871597
 10
0.3014466094067266
 20
-0.4026405441224911
 10
0.3064466094067266
 20
-0.3989109445442534
 10
0.3114466094067266
 20
-0.3950828717916294
 10
0.3164466094067266
 20
-0.391153434714632
 10
0.3214466094067266
 20
-0.3871195466454601
 10
0.3264466094067267
 20
-0.3829779070663467
 10
0.3314466094067267
 20
-0.3787249809648844
 10
0.3364466094067267
 20
-0.3743569755097196
 10
0.3414466094067267
 20
-0.3698698136084067
 10
0.3464466094067267
 20
-0.3652591038217257
 10
0.3514466094067267
 20
-0.3605201060004601
 10
0.3564466094067267
 20
-0.3556476918757041
 10
0.3614466094067267
 20
-0.3506362996645505
 10
0.3664466094067267
 20
-0.34547988153926
 10
0.3714466094067267
 20
-0.3401718425359658
 10
0.3764466094067267
 20
-0.334704969129899
 10
0.3814466094067267
 20
-0.3290713452523318
 10
0.3864466094067267
 20
-0.3232622529342269
 10
0.3914466094067267
 20
-0.3172680539828188
 10
0.3964466094067267
 20
-0.3110780480586465
 10
0.4014466094067267
 20
-0.304680301118911
 10
0.4064466094067267
 20
-0.2980614362775617
 10
0.4114466094067267
 20
-0.291206376478565
 10
0.4164466094067267
 20
-0.2840980246459106
 10
0.4214466094067267
 20
-0.276716861635935
 10
0.4264466094067267
 20
-0.2690404345439063
 10
0.4314466094067267
 20
-0.2610426963649944
 10
0.4364466094067267
 20
-0.2526931404518915
 10
0.4414466094067268
 20
-0.2439556458403291
 10
0.4464466094067268
 20
-0.2347869056044327
 10
0.4514466094067268
 20
-0.2251342376211081
 10
0.4564466094067268
 20
-0.2149324518428296
 10
0.4614466094067268
 20
-0.2040992228331676
 10
0.4664466094067268
 20
-0.1925279893081412
 10
0.4714466094067268
 20
-0.1800765408735088
 10
0.4764466094067268
 20
-0.1665475742210051
 10
0.4814466094067268
 20
-0.1516529867323223
 10
0.4864466094067268
 20
-0.1349413290684758
 10
0.4914466094067268
 20
-0.1156274024472547
 10
0.4964466094067268
 20
-0.0920881648347501
 10
0.5
 20
0.0
 10
0.495
 20
0.0
 10
0.49
 20
0.0705336798983295
 10
0.485
 20
0.0994987437106621
 10
0.48
 20
0.1215524578114322
 10
0.475
 20
0.14
 10
0.47
 20
0.15612494995996
 10
0.465
 20
0.1705872210923199
 10
0.46
 20
0.1837797594948911
 10
0.455
 20
0.1959591794226544
 10
0.45
 20
0.2073041244162789
 10
0.445
 20
0.2179449471770338
 10
0.4399999999999999
 20
0.2279802623035601
 10
0.4349999999999999
 20
0.2374868417407584
 10
0.4299999999999999
 20
0.2465258607124211
 10
0.4249999999999999
 20
0.2551470164434615
 10
0.4199999999999999
 20
0.2633913438213186
 10
0.4149999999999999
 20
0.2712931993250108
 10
0.4099999999999999
 20
0.2788816953476869
 10
0.4049999999999999
 20
0.2861817604250838
 10
0.3999999999999999
 20
0.2932149382279151
 10
0.3949999999999999
 20
0.3000000000000002
 10
0.3899999999999999
 20
0.3065534211193868
 10
0.3849999999999999
 20
0.3128897569432404
 10
0.3799999999999999
 20
0.3190219428189855
 10
0.3749999999999999
 20
0.3249615361854385
 10
0.3699999999999999
 20
0.330718913883074
 10
0.3649999999999999
 20
0.3363034344160049
 10
0.3599999999999999
 20
0.3417235724968357
 10
0.3549999999999999
 20
0.3469870314579496
 10
0.3535533905932738
 20
0.3535533905932738
 97
        0
 75
     0
 76
     1
 98
        0
  0
CIRCLE
  5
12F
330
12D
100
AcDbEntity
  8
0
  6
Continuous
 62
     0
370
    -2
390
5F
100
AcDbCircle
 10
0.0
 20
0.0
 30
0.0
 40
0.5
  0
ENDBLK
  5
131
330
12D
100
AcDbEntity
  8
0
100
AcDbBlockEnd
  0
BLOCK
  5
136
330
132
100
AcDbEntity
  8
0
100
AcDbBlockBegin
  2
CDWK_PTTYP38
 70
     0
 10
0.0
 20
0.0
 30
0.0
  3
CDWK_PTTYP38
  1

  0
HATCH
  5
133
330
132
100
AcDbEntity
  8
0
  6
Continuous
 62
     0
370
    -2
390
5F
100
AcDbHatch
 10
0.0
 20
0.0
 30
0.0
210
0.0
220
0.0
230
1.0
  2
SOLID
 70
     1
 71
     0
 91
        1
 92
        3
 72
     0
 73
     1
 93
      102
 10
0.0
 20
0.0
 10
0.0
 20
0.5
 10
0.005
 20
0.5
 10
0.01
 20
0.4999749993749688
 10
0.015
 20
0.4998999899979995
 10
0.02
 20
0.4997749493522059
 10
0.025
 20
0.4995998398718718
 10
0.03
 20
0.4993746088859545
 10
0.035
 20
0.4990991885387112
 10
0.04
 20
0.4987734956871706
 10
0.045
 20
0.4983974317750845
 10
0.05
 20
0.4979708826829135
 10
0.055
 20
0.49749371855331
 10
0.06
 20
0.4969657935914704
 10
0.065
 20
0.4963869458396343
 10
0.07
 20
0.4957569969249047
 10
0.075
 20
0.4950757517794626
 10
0.08
 20
0.4943429983321297
 10
0.085
 20
0.4935585071701227
 10
0.09
 20
0.4927220311697053
 10
0.095
 20
0.4918333050943175
 10
0.1
 20
0.4908920451586071
 10
0.105
 20
0.4898979485566356
 10
0.11
 20
0.4888506929523574
 10
0.115
 20
0.4877499359302879
 10
0.12
 20
0.4865953144040744
 10
0.125
 20
0.4853864439804639
 10
0.13
 20
0.4841229182759271
 10
0.135
 20
0.4828043081829325
 10
0.14
 20
0.4814301610825811
 10
0.145
 20
0.48
 10
0.15
 20
0.478513322698543
 10
0.1550000000000001
 20
0.4769696007084728
 10
0.1600000000000001
 20
0.4753682782853731
 10
0.1650000000000001
 20
0.4737087712930804
 10
0.1700000000000001
 20
0.4719904660054056
 10
0.1750000000000001
 20
0.4702127178203498
 10
0.1800000000000001
 20
0.4683748498798799
 10
0.1850000000000001
 20
0.466476151587624
 10
0.1900000000000001
 20
0.4645158770160606
 10
0.1950000000000001
 20
0.4624932431938871
 10
0.2000000000000001
 20
0.460407428263272
 10
0.2050000000000001
 20
0.4582575694955839
 10
0.2100000000000001
 20
0.4560427611529427
 10
0.2150000000000001
 20
0.4537620521815371
 10
0.2200000000000001
 20
0.4514144437210665
 10
0.2250000000000001
 20
0.4489988864128729
 10
0.2300000000000001
 20
0.4465142774872937
 10
0.2350000000000001
 20
0.4439594576084622
 10
0.2400000000000001
 20
0.4413332074521472
 10
0.2450000000000001
 20
0.4386342439892261
 10
0.2500000000000001
 20
0.4358612164439502
 10
0.2550000000000001
 20
0.4330127018922192
 10
0.2600000000000001
 20
0.4300872004605577
 10
0.2650000000000001
 20
0.4270831300812524
 10
0.2700000000000001
 20
0.423998820753077
 10
0.2750000000000001
 20
0.4208325082500162
 10
0.2800000000000001
 20
0.4175823272122516
 10
0.2850000000000001
 20
0.4142463035441595
 10
0.2900000000000001
 20
0.4108223460329293
 10
0.2950000000000002
 20
0.4073082370883259
 10
0.3000000000000002
 20
0.403701622488689
 10
0.3050000000000002
 20
0.3999999999999999
 10
0.3100000000000002
 20
0.3962007067131506
 10
0.3150000000000002
 20
0.3923009049186605
 10
0.3200000000000002
 20
0.3882975663070783
 10
0.3250000000000002
 20
0.3841874542459708
 10
0.3300000000000002
 20
0.3799671038392664
 10
0.3350000000000002
 20
0.3756327994198588
 10
0.3400000000000002
 20
0.3711805490593491
 10
0.3450000000000002
 20
0.366606055596467
 10
0.3500000000000002
 20
0.3619046835839512
 10
0.3550000000000002
 20
0.3570714214271423
 10
0.3600000000000002
 20
0.3521008378291649
 10
0.3650000000000002
 20
0.3469870314579492
 10
0.3700000000000002
 20
0.3417235724968353
 10
0.3750000000000002
 20
0.3363034344160045
 10
0.3800000000000002
 20
0.3307189138830736
 10
0.3850000000000002
 20
0.3249615361854382
 10
0.3900000000000002
 20
0.3190219428189851
 10
0.3950000000000002
 20
0.31288975694324
 10
0.4000000000000002
 20
0.3065534211193863
 10
0.4050000000000002
 20
0.2999999999999997
 10
0.4100000000000003
 20
0.2932149382279147
 10
0.4150000000000003
 20
0.2861817604250834
 10
0.4200000000000003
 20
0.2788816953476864
 10
0.4250000000000003
 20
0.2712931993250103
 10
0.4300000000000003
 20
0.263391343821318
 10
0.4350000000000003
 20
0.255147016443461
 10
0.4400000000000003
 20
0.2465258607124206
 10
0.4450000000000003
 20
0.2374868417407578
 10
0.4500000000000003
 20
0.2279802623035594
 10
0.4550000000000003
 20
0.2179449471770331
 10
0.4600000000000003
 20
0.2073041244162782
 10
0.4650000000000003
 20
0.1959591794226536
 10
0.4700000000000003
 20
0.1837797594948903
 10
0.4750000000000003
 20
0.170587221092319
 10
0.4800000000000003
 20
0.156124949959959
 10
0.4850000000000003
 20
0.1399999999999989
 10
0.4900000000000003
 20
0.1215524578114309
 10
0.4950000000000003
 20
0.0994987437106604
 10
0.5
 20
0.0
 97
        0
 75
     0
 76
     1
 98
        0
  0
HATCH
  5
134
330
132
100
AcDbEntity
  8
0
  6
Continuous
 62
     0
370
    -2
390
5F
100
AcDbHatch
 10
0.0
 20
0.0
 30
0.0
210
0.0
220
0.0
230
1.0
  2
SOLID
 70
     1
 71
     0
 91
        1
 92
        3
 72
     0
 73
     1
 93
      102
 10
0.0
 20
0.0
 10
-0.5
 20
0.0
 10
-0.495
 20
0.0
 10
-0.49
 20
-0.0705336798983295
 10
-0.485
 20
-0.0994987437106621
 10
-0.48
 20
-0.1215524578114322
 10
-0.475
 20
-0.14
 10
-0.47
 20
-0.15612494995996
 10
-0.465
 20
-0.1705872210923199
 10
-0.46
 20
-0.1837797594948911
 10
-0.455
 20
-0.1959591794226544
 10
-0.45
 20
-0.2073041244162789
 10
-0.445
 20
-0.2179449471770338
 10
-0.4399999999999999
 20
-0.2279802623035601
 10
-0.4349999999999999
 20
-0.2374868417407584
 10
-0.4299999999999999
 20
-0.2465258607124211
 10
-0.4249999999999999
 20
-0.2551470164434615
 10
-0.4199999999999999
 20
-0.2633913438213186
 10
-0.4149999999999999
 20
-0.2712931993250108
 10
-0.4099999999999999
 20
-0.2788816953476869
 10
-0.4049999999999999
 20
-0.2861817604250838
 10
-0.3999999999999999
 20
-0.2932149382279151
 10
-0.3949999999999999
 20
-0.3000000000000002
 10
-0.3899999999999999
 20
-0.3065534211193868
 10
-0.3849999999999999
 20
-0.3128897569432404
 10
-0.3799999999999999
 20
-0.3190219428189855
 10
-0.3749999999999999
 20
-0.3249615361854385
 10
-0.3699999999999999
 20
-0.330718913883074
 10
-0.3649999999999999
 20
-0.3363034344160049
 10
-0.3599999999999999
 20
-0.3417235724968357
 10
-0.3549999999999999
 20
-0.3469870314579496
 10
-0.3499999999999999
 20
-0.3521008378291652
 10
-0.3449999999999999
 20
-0.3570714214271427
 10
-0.3399999999999999
 20
-0.3619046835839516
 10
-0.3349999999999999
 20
-0.3666060555964674
 10
-0.3299999999999998
 20
-0.3711805490593494
 10
-0.3249999999999998
 20
-0.3756327994198591
 10
-0.3199999999999998
 20
-0.3799671038392667
 10
-0.3149999999999998
 20
-0.3841874542459711
 10
-0.3099999999999998
 20
-0.3882975663070786
 10
-0.3049999999999998
 20
-0.3923009049186608
 10
-0.2999999999999998
 20
-0.3962007067131507
 10
-0.2949999999999998
 20
-0.4000000000000001
 10
-0.2899999999999998
 20
-0.4037016224886891
 10
-0.2849999999999998
 20
-0.4073082370883261
 10
-0.2799999999999998
 20
-0.4108223460329296
 10
-0.2749999999999998
 20
-0.4142463035441597
 10
-0.2699999999999998
 20
-0.4175823272122518
 10
-0.2649999999999998
 20
-0.4208325082500164
 10
-0.2599999999999998
 20
-0.4239988207530773
 10
-0.2549999999999998
 20
-0.4270831300812526
 10
-0.2499999999999998
 20
-0.4300872004605579
 10
-0.2449999999999998
 20
-0.4330127018922195
 10
-0.2399999999999998
 20
-0.4358612164439503
 10
-0.2349999999999998
 20
-0.4386342439892263
 10
-0.2299999999999998
 20
-0.4413332074521473
 10
-0.2249999999999998
 20
-0.4439594576084624
 10
-0.2199999999999998
 20
-0.4465142774872939
 10
-0.2149999999999997
 20
-0.4489988864128731
 10
-0.2099999999999997
 20
-0.4514144437210667
 10
-0.2049999999999997
 20
-0.4537620521815372
 10
-0.1999999999999997
 20
-0.4560427611529429
 10
-0.1949999999999997
 20
-0.4582575694955841
 10
-0.1899999999999997
 20
-0.4604074282632722
 10
-0.1849999999999997
 20
-0.4624932431938872
 10
-0.1799999999999997
 20
-0.4645158770160608
 10
-0.1749999999999997
 20
-0.4664761515876241
 10
-0.1699999999999997
 20
-0.46837484987988
 10
-0.1649999999999997
 20
-0.47021271782035
 10
-0.1599999999999997
 20
-0.4719904660054058
 10
-0.1549999999999997
 20
-0.4737087712930805
 10
-0.1499999999999997
 20
-0.4753682782853733
 10
-0.1449999999999997
 20
-0.4769696007084729
 10
-0.1399999999999997
 20
-0.4785133226985431
 10
-0.1349999999999997
 20
-0.4800000000000001
 10
-0.1299999999999997
 20
-0.4814301610825812
 10
-0.1249999999999997
 20
-0.4828043081829325
 10
-0.1199999999999997
 20
-0.4841229182759272
 10
-0.1149999999999997
 20
-0.485386443980464
 10
-0.1099999999999997
 20
-0.4865953144040744
 10
-0.1049999999999996
 20
-0.487749935930288
 10
-0.0999999999999996
 20
-0.4888506929523574
 10
-0.0949999999999996
 20
-0.4898979485566357
 10
-0.0899999999999996
 20
-0.4908920451586072
 10
-0.0849999999999996
 20
-0.4918333050943176
 10
-0.0799999999999996
 20
-0.4927220311697053
 10
-0.0749999999999996
 20
-0.4935585071701227
 10
-0.0699999999999996
 20
-0.4943429983321298
 10
-0.0649999999999996
 20
-0.4950757517794626
 10
-0.0599999999999996
 20
-0.4957569969249048
 10
-0.0549999999999996
 20
-0.4963869458396343
 10
-0.0499999999999996
 20
-0.4969657935914705
 10
-0.0449999999999996
 20
-0.49749371855331
 10
-0.0399999999999996
 20
-0.4979708826829135
 10
-0.0349999999999996
 20
-0.4983974317750846
 10
-0.0299999999999996
 20
-0.4987734956871706
 10
-0.0249999999999996
 20
-0.4990991885387112
 10
-0.0199999999999996
 20
-0.4993746088859545
 10
-0.0149999999999996
 20
-0.4995998398718719
 10
-0.0099999999999996
 20
-0.499774949352206
 10
-0.0049999999999996
 20
-0.4998999899979995
 10
0.0
 20
-0.5
 97
        0
 75
     0
 76
     1
 98
        0
  0
CIRCLE
  5
135
330
132
100
AcDbEntity
  8
0
  6
Continuous
 62
     0
370
    -2
390
5F
100
AcDbCircle
 10
0.0
 20
0.0
 30
0.0
 40
0.5
  0
ENDBLK
  5
137
330
132
100
AcDbEntity
  8
0
100
AcDbBlockEnd
  0
BLOCK
  5
140
330
138
100
AcDbEntity
  8
0
100
AcDbBlockBegin
  2
CDWK_PTTYP41
 70
     0
 10
0.0
 20
0.0
 30
0.0
  3
CDWK_PTTYP41
  1

  0
LINE
  5
139
330
138
100
AcDbEntity
  8
0
  6
Continuous
 62
     0
370
    -2
390
5F
100
AcDbLine
 10
-0.5
 20
0.5
 30
0.0
 11
0.5
 21
0.5
 31
0.0
  0
LINE
  5
13A
330
138
100
AcDbEntity
  8
0
  6
Continuous
 62
     0
370
    -2
390
5F
100
AcDbLine
 10
0.5
 20
0.5
 30
0.0
 11
0.5
 21
-0.5
 31
0.0
  0
LINE
  5
13B
330
138
100
AcDbEntity
  8
0
  6
Continuous
 62
     0
370
    -2
390
5F
100
AcDbLine
 10
0.5
 20
-0.5
 30
0.0
 11
-0.5
 21
-0.5
 31
0.0
  0
LINE
  5
13C
330
138
100
AcDbEntity
  8
0
  6
Continuous
 62
     0
370
    -2
390
5F
100
AcDbLine
 10
-0.5
 20
-0.5
 30
0.0
 11
-0.5
 21
0.5
 31
0.0
  0
LINE
  5
13D
330
138
100
AcDbEntity
  8
0
  6
Continuous
 62
     0
370
    -2
390
5F
100
AcDbLine
 10
-0.375
 20
0.25
 30
0.0
 11
0.375
 21
0.25
 31
0.0
  0
LINE
  5
13E
330
138
100
AcDbEntity
  8
0
  6
Continuous
 62
     0
370
    -2
390
5F
100
AcDbLine
 10
-0.375
 20
0.0
 30
0.0
 11
0.375
 21
0.0
 31
0.0
  0
LINE
  5
13F
330
138
100
AcDbEntity
  8
0
  6
Continuous
 62
     0
370
    -2
390
5F
100
AcDbLine
 10
-0.375
 20
-0.25
 30
0.0
 11
0.375
 21
-0.25
 31
0.0
  0
ENDBLK
  5
141
330
138
100
AcDbEntity
  8
0
100
AcDbBlockEnd
  0
BLOCK
  5
149
330
142
100
AcDbEntity
  8
0
100
AcDbBlockBegin
  2
CDWK_PTTYP42
 70
     0
 10
0.0
 20
0.0
 30
0.0
  3
CDWK_PTTYP42
  1

  0
LINE
  5
143
330
142
100
AcDbEntity
  8
0
  6
Continuous
 62
     0
370
    -2
390
5F
100
AcDbLine
 10
-0.5
 20
0.5
 30
0.0
 11
0.5
 21
0.5
 31
0.0
  0
LINE
  5
144
330
142
100
AcDbEntity
  8
0
  6
Continuous
 62
     0
370
    -2
390
5F
100
AcDbLine
 10
0.5
 20
0.5
 30
0.0
 11
0.5
 21
-0.5
 31
0.0
  0
LINE
  5
145
330
142
100
AcDbEntity
  8
0
  6
Continuous
 62
     0
370
    -2
390
5F
100
AcDbLine
 10
0.5
 20
-0.5
 30
0.0
 11
-0.5
 21
-0.5
 31
0.0
  0
LINE
  5
146
330
142
100
AcDbEntity
  8
0
  6
Continuous
 62
     0
370
    -2
390
5F
100
AcDbLine
 10
-0.5
 20
-0.5
 30
0.0
 11
-0.5
 21
0.5
 31
0.0
  0
LINE
  5
147
330
142
100
AcDbEntity
  8
0
  6
Continuous
 62
     0
370
    -2
390
5F
100
AcDbLine
 10
-0.375
 20
0.125
 30
0.0
 11
0.375
 21
0.125
 31
0.0
  0
LINE
  5
148
330
142
100
AcDbEntity
  8
0
  6
Continuous
 62
     0
370
    -2
390
5F
100
AcDbLine
 10
-0.375
 20
-0.125
 30
0.0
 11
0.375
 21
-0.125
 31
0.0
  0
ENDBLK
  5
14A
330
142
100
AcDbEntity
  8
0
100
AcDbBlockEnd
  0
BLOCK
  5
14F
330
14B
100
AcDbEntity
  8
0
100
AcDbBlockBegin
  2
CDWK_PTTYP43
 70
     0
 10
0.0
 20
0.0
 30
0.0
  3
CDWK_PTTYP43
  1

  0
CIRCLE
  5
14C
330
14B
100
AcDbEntity
  8
0
  6
Continuous
 62
     0
370
    -2
390
5F
100
AcDbCircle
 10
0.0
 20
0.0
 30
0.0
 40
0.5
  0
LINE
  5
14D
330
14B
100
AcDbEntity
  8
0
  6
Continuous
 62
     0
370
    -2
390
5F
100
AcDbLine
 10
-0.375
 20
0.166
 30
0.0
 11
0.375
 21
0.166
 31
0.0
  0
LINE
  5
14E
330
14B
100
AcDbEntity
  8
0
  6
Continuous
 62
     0
370
    -2
390
5F
100
AcDbLine
 10
-0.375
 20
-0.166
 30
0.0
 11
0.375
 21
-0.166
 31
0.0
  0
ENDBLK
  5
150
330
14B
100
AcDbEntity
  8
0
100
AcDbBlockEnd
  0
BLOCK
  5
158
330
151
100
AcDbEntity
  8
0
100
AcDbBlockBegin
  2
CDWK_PTTYP44
 70
     0
 10
0.0
 20
0.0
 30
0.0
  3
CDWK_PTTYP44
  1

  0
CIRCLE
  5
152
330
151
100
AcDbEntity
  8
0
  6
Continuous
 62
     0
370
    -2
390
5F
100
AcDbCircle
 10
0.0
 20
0.0
 30
0.0
 40
0.5
  0
LINE
  5
153
330
151
100
AcDbEntity
  8
0
  6
Continuous
 62
     0
370
    -2
390
5F
100
AcDbLine
 10
-0.375
 20
0.333
 30
0.0
 11
0.375
 21
0.333
 31
0.0
  0
LINE
  5
154
330
151
100
AcDbEntity
  8
0
  6
Continuous
 62
     0
370
    -2
390
5F
100
AcDbLine
 10
-0.375
 20
0.166
 30
0.0
 11
0.375
 21
0.166
 31
0.0
  0
LINE
  5
155
330
151
100
AcDbEntity
  8
0
  6
Continuous
 62
     0
370
    -2
390
5F
100
AcDbLine
 10
-0.375
 20
0.0
 30
0.0
 11
0.375
 21
0.0
 31
0.0
  0
LINE
  5
156
330
151
100
AcDbEntity
  8
0
  6
Continuous
 62
     0
370
    -2
390
5F
100
AcDbLine
 10
-0.375
 20
-0.166
 30
0.0
 11
0.375
 21
-0.166
 31
0.0
  0
LINE
  5
157
330
151
100
AcDbEntity
  8
0
  6
Continuous
 62
     0
370
    -2
390
5F
100
AcDbLine
 10
-0.375
 20
-0.333
 30
0.0
 11
0.375
 21
-0.333
 31
0.0
  0
ENDBLK
  5
159
330
151
100
AcDbEntity
  8
0
100
AcDbBlockEnd
  0
BLOCK
  5
15D
330
15A
100
AcDbEntity
  8
0
100
AcDbBlockBegin
  2
CDWK_PTTYP45
 70
     0
 10
0.0
 20
0.0
 30
0.0
  3
CDWK_PTTYP45
  1

  0
ELLIPSE
  5
15B
330
15A
100
AcDbEntity
  8
0
  6
Continuous
 62
     0
370
    -2
390
5F
100
AcDbEllipse
 10
0.0
 20
0.0
 30
0.0
 11
0.5
 21
0.0
 31
0.0
210
0.0
220
0.0
230
1.0
 40
0.82
 41
0.0
 42
6.283185307179586
  0
CIRCLE
  5
15C
330
15A
100
AcDbEntity
  8
0
  6
Continuous
 62
     0
370
    -2
390
5F
100
AcDbCircle
 10
-0.235
 20
0.0
 30
0.0
 40
0.26
  0
ENDBLK
  5
15E
330
15A
100
AcDbEntity
  8
0
100
AcDbBlockEnd
  0
BLOCK
  5
162
330
15F
100
AcDbEntity
  8
0
100
AcDbBlockBegin
  2
CDWK_PTTYP46
 70
     0
 10
0.0
 20
0.0
 30
0.0
  3
CDWK_PTTYP46
  1

  0
ELLIPSE
  5
160
330
15F
100
AcDbEntity
  8
0
  6
Continuous
 62
     0
370
    -2
390
5F
100
AcDbEllipse
 10
0.0
 20
0.0
 30
0.0
 11
0.5
 21
0.0
 31
0.0
210
0.0
220
0.0
230
1.0
 40
0.82
 41
0.0
 42
6.283185307179586
  0
CIRCLE
  5
161
330
15F
100
AcDbEntity
  8
0
  6
Continuous
 62
     0
370
    -2
390
5F
100
AcDbCircle
 10
0.0
 20
0.15
 30
0.0
 40
0.26
  0
ENDBLK
  5
163
330
15F
100
AcDbEntity
  8
0
100
AcDbBlockEnd
  0
BLOCK
  5
16A
330
164
100
AcDbEntity
  8
0
100
AcDbBlockBegin
  2
CDWK_PTTYP47
 70
     0
 10
0.0
 20
0.0
 30
0.0
  3
CDWK_PTTYP47
  1

  0
LINE
  5
165
330
164
100
AcDbEntity
  8
0
  6
Continuous
 62
     0
370
    -2
390
5F
100
AcDbLine
 10
-0.5
 20
0.166
 30
0.0
 11
0.5
 21
0.166
 31
0.0
  0
LINE
  5
166
330
164
100
AcDbEntity
  8
0
  6
Continuous
 62
     0
370
    -2
390
5F
100
AcDbLine
 10
0.5
 20
0.166
 30
0.0
 11
0.5
 21
-0.166
 31
0.0
  0
LINE
  5
167
330
164
100
AcDbEntity
  8
0
  6
Continuous
 62
     0
370
    -2
390
5F
100
AcDbLine
 10
0.5
 20
-0.166
 30
0.0
 11
-0.5
 21
-0.166
 31
0.0
  0
LINE
  5
168
330
164
100
AcDbEntity
  8
0
  6
Continuous
 62
     0
370
    -2
390
5F
100
AcDbLine
 10
-0.5
 20
-0.166
 30
0.0
 11
-0.5
 21
0.166
 31
0.0
  0
CIRCLE
  5
169
330
164
100
AcDbEntity
  8
0
  6
Continuous
 62
     0
370
    -2
390
5F
100
AcDbCircle
 10
0.0
 20
-0.313
 30
0.0
 40
0.4
  0
ENDBLK
  5
16B
330
164
100
AcDbEntity
  8
0
100
AcDbBlockEnd
  0
BLOCK
  5
170
330
16D
100
AcDbEntity
  8
0
100
AcDbBlockBegin
  2
CDWK_PTTYP48
 70
     0
 10
0.0
 20
0.0
 30
0.0
  3
CDWK_PTTYP48
  1

  0
CIRCLE
  5
16E
330
16D
100
AcDbEntity
  8
0
  6
CADWORK_3
 62
     0
 48
0.1
370
    -2
390
5F
100
AcDbCircle
 10
0.0
 20
0.0
 30
0.0
 40
0.5
  0
CIRCLE
  5
16F
330
16D
100
AcDbEntity
  8
0
  6
Continuous
 62
     0
370
    -2
390
5F
100
AcDbCircle
 10
0.0
 20
0.0
 30
0.0
 40
0.25
  0
ENDBLK
  5
171
330
16D
100
AcDbEntity
  8
0
100
AcDbBlockEnd
  0
BLOCK
  5
177
330
172
100
AcDbEntity
  8
0
100
AcDbBlockBegin
  2
CDWK_PTTYP49
 70
     0
 10
0.0
 20
0.0
 30
0.0
  3
CDWK_PTTYP49
  1

  0
LINE
  5
173
330
172
100
AcDbEntity
  8
0
  6
Continuous
 62
     0
370
    -2
390
5F
100
AcDbLine
 10
-0.5
 20
0.166
 30
0.0
 11
0.5
 21
0.166
 31
0.0
  0
LINE
  5
174
330
172
100
AcDbEntity
  8
0
  6
Continuous
 62
     0
370
    -2
390
5F
100
AcDbLine
 10
0.5
 20
0.166
 30
0.0
 11
0.5
 21
-0.166
 31
0.0
  0
LINE
  5
175
330
172
100
AcDbEntity
  8
0
  6
Continuous
 62
     0
370
    -2
390
5F
100
AcDbLine
 10
0.5
 20
-0.166
 30
0.0
 11
-0.5
 21
-0.166
 31
0.0
  0
LINE
  5
176
330
172
100
AcDbEntity
  8
0
  6
Continuous
 62
     0
370
    -2
390
5F
100
AcDbLine
 10
-0.5
 20
-0.166
 30
0.0
 11
-0.5
 21
0.166
 31
0.0
  0
ENDBLK
  5
178
330
172
100
AcDbEntity
  8
0
100
AcDbBlockEnd
  0
BLOCK
  5
181
330
179
100
AcDbEntity
  8
0
100
AcDbBlockBegin
  2
CDWK_PTTYP50
 70
     0
 10
0.0
 20
0.0
 30
0.0
  3
CDWK_PTTYP50
  1

  0
LINE
  5
17A
330
179
100
AcDbEntity
  8
0
  6
Continuous
 62
     0
370
    -2
390
5F
100
AcDbLine
 10
-0.5
 20
0.166
 30
0.0
 11
0.5
 21
0.166
 31
0.0
  0
LINE
  5
17B
330
179
100
AcDbEntity
  8
0
  6
Continuous
 62
     0
370
    -2
390
5F
100
AcDbLine
 10
0.5
 20
0.166
 30
0.0
 11
0.5
 21
-0.166
 31
0.0
  0
LINE
  5
17C
330
179
100
AcDbEntity
  8
0
  6
Continuous
 62
     0
370
    -2
390
5F
100
AcDbLine
 10
0.5
 20
-0.166
 30
0.0
 11
-0.5
 21
-0.166
 31
0.0
  0
LINE
  5
17D
330
179
100
AcDbEntity
  8
0
  6
Continuous
 62
     0
370
    -2
390
5F
100
AcDbLine
 10
-0.5
 20
-0.166
 30
0.0
 11
-0.5
 21
0.166
 31
0.0
  0
LINE
  5
17E
330
179
100
AcDbEntity
  8
0
  6
Continuous
 62
     0
370
    -2
390
5F
100
AcDbLine
 10
-0.25
 20
-0.166
 30
0.0
 11
-0.25
 21
0.166
 31
0.0
  0
LINE
  5
17F
330
179
100
AcDbEntity
  8
0
  6
Continuous
 62
     0
370
    -2
390
5F
100
AcDbLine
 10
0.0
 20
-0.166
 30
0.0
 11
0.0
 21
0.166
 31
0.0
  0
LINE
  5
180
330
179
100
AcDbEntity
  8
0
  6
Continuous
 62
     0
370
    -2
390
5F
100
AcDbLine
 10
0.25
 20
-0.166
 30
0.0
 11
0.25
 21
0.166
 31
0.0
  0
ENDBLK
  5
182
330
179
100
AcDbEntity
  8
0
100
AcDbBlockEnd
  0
BLOCK
  5
186
330
183
100
AcDbEntity
  8
0
100
AcDbBlockBegin
  2
CDWK_PTTYP51
 70
     0
 10
0.0
 20
0.0
 30
0.0
  3
CDWK_PTTYP51
  1

  0
SPLINE
  5
184
330
183
100
AcDbEntity
  8
0
  6
Continuous
 62
     0
370
    -2
390
5F
100
AcDbSpline
210
0.0
220
0.0
230
1.0
 70
  1064
 71
     3
 72
    12
 73
     8
 74
     6
 42
0.0000000001
 43
0.0000000001
 44
0.0000000001
 40
0.0
 40
0.0
 40
0.0
 40
0.0
 40
0.1690118339052032
 40
0.5175774661755118
 40
0.8011704844252565
 40
0.9154070810132151
 40
0.975822310881188
 40
0.975822310881188
 40
0.975822310881188
 40
0.975822310881188
 10
-0.5
 20
-0.077
 30
0.0
 10
-0.443824324006723
 20
-0.0900581618560981
 30
0.0
 10
-0.2717933876546281
 20
-0.1300471387828842
 30
0.0
 10
-0.0276699186086479
 20
-0.0006977790990417
 30
0.0
 10
0.2303349729129116
 20
0.0817803270207037
 30
0.0
 10
0.3686157174766292
 20
0.0066250198607167
 30
0.0
 10
0.4216533294581816
 20
-0.0168719667726145
 30
0.0
 10
0.44
 20
-0.025
 30
0.0
 11
-0.5
 21
-0.077
 31
0.0
 11
-0.333
 21
-0.103
 31
0.0
 11
0.0
 21
0.0
 31
0.0
 11
0.28
 21
0.045
 31
0.0
 11
0.385
 21
0.0
 31
0.0
 11
0.44
 21
-0.025
 31
0.0
  0
HATCH
  5
185
330
183
100
AcDbEntity
  8
0
  6
Continuous
 62
     0
370
    -2
390
5F
100
AcDbHatch
 10
0.0
 20
0.0
 30
0.0
210
0.0
220
0.0
230
1.0
  2
SOLID
 70
     1
 71
     0
 91
        1
 92
        3
 72
     0
 73
     1
 93
        3
 10
0.365
 20
-0.05
 10
0.5
 20
-0.042
 10
0.395
 20
0.045
 97
        0
 75
     0
 76
     1
 98
        0
  0
ENDBLK
  5
187
330
183
100
AcDbEntity
  8
0
100
AcDbBlockEnd
  0
BLOCK
  5
18C
330
188
100
AcDbEntity
  8
0
100
AcDbBlockBegin
  2
CDWK_PTTYP52
 70
     0
 10
0.0
 20
0.0
 30
0.0
  3
CDWK_PTTYP52
  1

  0
LINE
  5
189
330
188
100
AcDbEntity
  8
0
  6
Continuous
 62
     0
370
    -2
390
5F
100
AcDbLine
 10
-0.5
 20
-0.289
 30
0.0
 11
0.5
 21
-0.289
 31
0.0
  0
LINE
  5
18A
330
188
100
AcDbEntity
  8
0
  6
Continuous
 62
     0
370
    -2
390
5F
100
AcDbLine
 10
0.5
 20
-0.289
 30
0.0
 11
0.0
 21
0.577
 31
0.0
  0
LINE
  5
18B
330
188
100
AcDbEntity
  8
0
  6
Continuous
 62
     0
370
    -2
390
5F
100
AcDbLine
 10
0.0
 20
0.577
 30
0.0
 11
-0.5
 21
-0.289
 31
0.0
  0
ENDBLK
  5
18D
330
188
100
AcDbEntity
  8
0
100
AcDbBlockEnd
  0
BLOCK
  5
193
330
18E
100
AcDbEntity
  8
0
100
AcDbBlockBegin
  2
cw-dimension-symbol1
 70
     0
 10
0.0
 20
0.0
 30
0.0
  3
cw-dimension-symbol1
  1

  0
LINE
  5
18F
330
18E
100
AcDbEntity
  8
0
  6
Continuous
 62
     0
370
    -2
390
5F
100
AcDbLine
 10
0.0
 20
0.0
 30
0.0
 11
-1.0
 21
0.25
 31
0.0
  0
LINE
  5
190
330
18E
100
AcDbEntity
  8
0
  6
Continuous
 62
     0
370
    -2
390
5F
100
AcDbLine
 10
0.0
 20
0.0
 30
0.0
 11
-1.0
 21
-0.25
 31
0.0
  0
LINE
  5
191
330
18E
100
AcDbEntity
  8
0
  6
Continuous
 62
     0
370
    -2
390
5F
100
AcDbLine
 10
-1.0
 20
0.25
 30
0.0
 11
-1.0
 21
-0.25
 31
0.0
  0
LINE
  5
192
330
18E
100
AcDbEntity
  8
0
  6
Continuous
 62
     0
370
    -2
390
5F
100
AcDbLine
 10
0.0
 20
0.0
 30
0.0
 11
-1.0
 21
0.0
 31
0.0
  0
ENDBLK
  5
194
330
18E
100
AcDbEntity
  8
0
100
AcDbBlockEnd
  0
BLOCK
  5
198
330
195
100
AcDbEntity
  8
0
100
AcDbBlockBegin
  2
cw-dimension-symbol2
 70
     0
 10
0.0
 20
0.0
 30
0.0
  3
cw-dimension-symbol2
  1

  0
LINE
  5
196
330
195
100
AcDbEntity
  8
0
  6
Continuous
 62
     0
370
    -2
390
5F
100
AcDbLine
 10
-1.0
 20
0.0
 30
0.0
 11
1.0
 21
0.0
 31
0.0
  0
LINE
  5
197
330
195
100
AcDbEntity
  8
0
  6
Continuous
 62
     0
370
    -2
390
5F
100
AcDbLine
 10
-0.5
 20
-0.5
 30
0.0
 11
0.5
 21
0.5
 31
0.0
  0
ENDBLK
  5
199
330
195
100
AcDbEntity
  8
0
100
AcDbBlockEnd
  0
BLOCK
  5
19D
330
19A
100
AcDbEntity
  8
0
100
AcDbBlockBegin
  2
cw-dimension-symbol3
 70
     0
 10
0.0
 20
0.0
 30
0.0
  3
cw-dimension-symbol3
  1

  0
LINE
  5
19B
330
19A
100
AcDbEntity
  8
0
  6
Continuous
 62
     0
370
    -2
390
5F
100
AcDbLine
 10
-1.0
 20
0.0
 30
0.0
 11
1.0
 21
0.0
 31
0.0
  0
CIRCLE
  5
19C
330
19A
100
AcDbEntity
  8
0
  6
Continuous
 62
     0
370
    -2
390
5F
100
AcDbCircle
 10
0.0
 20
0.0
 30
0.0
 40
0.25
  0
ENDBLK
  5
19E
330
19A
100
AcDbEntity
  8
0
100
AcDbBlockEnd
  0
BLOCK
  5
1A4
330
19F
100
AcDbEntity
  8
0
100
AcDbBlockBegin
  2
cw-dimension-symbol5
 70
     0
 10
0.0
 20
0.0
 30
0.0
  3
cw-dimension-symbol5
  1

  0
HATCH
  5
1A0
330
19F
100
AcDbEntity
  8
0
  6
Continuous
 62
     0
370
    -2
390
5F
100
AcDbHatch
 10
0.0
 20
0.0
 30
0.0
210
0.0
220
0.0
230
1.0
  2
SOLID
 70
     1
 71
     0
 91
        1
 92
        3
 72
     0
 73
     1
 93
        3
 10
0.0
 20
0.0
 10
-1.0
 20
0.25
 10
-1.0
 20
-0.25
 97
        0
 75
     0
 76
     1
 98
        0
  0
LINE
  5
1A1
330
19F
100
AcDbEntity
  8
0
  6
Continuous
 62
     0
370
    -2
390
5F
100
AcDbLine
 10
0.0
 20
0.0
 30
0.0
 11
-1.0
 21
0.25
 31
0.0
  0
LINE
  5
1A2
330
19F
100
AcDbEntity
  8
0
  6
Continuous
 62
     0
370
    -2
390
5F
100
AcDbLine
 10
-1.0
 20
0.25
 30
0.0
 11
-1.0
 21
-0.25
 31
0.0
  0
LINE
  5
1A3
330
19F
100
AcDbEntity
  8
0
  6
Continuous
 62
     0
370
    -2
390
5F
100
AcDbLine
 10
-1.0
 20
-0.25
 30
0.0
 11
0.0
 21
0.0
 31
0.0
  0
ENDBLK
  5
1A5
330
19F
100
AcDbEntity
  8
0
100
AcDbBlockEnd
  0
BLOCK
  5
1AA
330
1A6
100
AcDbEntity
  8
0
100
AcDbBlockBegin
  2
cw-dimension-symbol6
 70
     0
 10
0.0
 20
0.0
 30
0.0
  3
cw-dimension-symbol6
  1

  0
LINE
  5
1A7
330
1A6
100
AcDbEntity
  8
0
  6
Continuous
 62
     0
370
    -2
390
5F
100
AcDbLine
 10
0.0
 20
0.0
 30
0.0
 11
-1.0
 21
0.25
 31
0.0
  0
LINE
  5
1A8
330
1A6
100
AcDbEntity
  8
0
  6
Continuous
 62
     0
370
    -2
390
5F
100
AcDbLine
 10
0.0
 20
0.0
 30
0.0
 11
-1.0
 21
-0.25
 31
0.0
  0
LINE
  5
1A9
330
1A6
100
AcDbEntity
  8
0
  6
Continuous
 62
     0
370
    -2
390
5F
100
AcDbLine
 10
0.0
 20
0.0
 30
0.0
 11
-1.0
 21
0.0
 31
0.0
  0
ENDBLK
  5
1AB
330
1A6
100
AcDbEntity
  8
0
100
AcDbBlockEnd
  0
BLOCK
  5
1B0
330
1AC
100
AcDbEntity
  8
0
100
AcDbBlockBegin
  2
cw-dimension-symbol11
 70
     0
 10
0.0
 20
0.0
 30
0.0
  3
cw-dimension-symbol11
  1

  0
LINE
  5
1AD
330
1AC
100
AcDbEntity
  8
0
  6
Continuous
 62
     0
370
    -2
390
5F
100
AcDbLine
 10
-1.0
 20
1.0
 30
0.0
 11
1.0
 21
1.0
 31
0.0
  0
LINE
  5
1AE
330
1AC
100
AcDbEntity
  8
0
  6
Continuous
 62
     0
370
    -2
390
5F
100
AcDbLine
 10
0.0
 20
0.0
 30
0.0
 11
-1.0
 21
1.0
 31
0.0
  0
LINE
  5
1AF
330
1AC
100
AcDbEntity
  8
0
  6
Continuous
 62
     0
370
    -2
390
5F
100
AcDbLine
 10
0.0
 20
0.0
 30
0.0
 11
1.0
 21
1.0
 31
0.0
  0
ENDBLK
  5
1B1
330
1AC
100
AcDbEntity
  8
0
100
AcDbBlockEnd
  0
BLOCK
  5
1B6
330
1B2
100
AcDbEntity
  8
0
100
AcDbBlockBegin
  2
cw-dimension-symbol13
 70
     0
 10
0.0
 20
0.0
 30
0.0
  3
cw-dimension-symbol13
  1

  0
LINE
  5
1B3
330
1B2
100
AcDbEntity
  8
0
  6
Continuous
 62
     0
370
    -2
390
5F
100
AcDbLine
 10
-1.0
 20
-1.0
 30
0.0
 11
1.0
 21
-1.0
 31
0.0
  0
LINE
  5
1B4
330
1B2
100
AcDbEntity
  8
0
  6
Continuous
 62
     0
370
    -2
390
5F
100
AcDbLine
 10
0.0
 20
0.0
 30
0.0
 11
-1.0
 21
-1.0
 31
0.0
  0
LINE
  5
1B5
330
1B2
100
AcDbEntity
  8
0
  6
Continuous
 62
     0
370
    -2
390
5F
100
AcDbLine
 10
0.0
 20
0.0
 30
0.0
 11
1.0
 21
-1.0
 31
0.0
  0
ENDBLK
  5
1B7
330
1B2
100
AcDbEntity
  8
0
100
AcDbBlockEnd
  0
BLOCK
  5
1BD
330
1B8
100
AcDbEntity
  8
0
100
AcDbBlockBegin
  2
cw-dimension-symbol15
 70
     0
 10
0.0
 20
0.0
 30
0.0
  3
cw-dimension-symbol15
  1

  0
HATCH
  5
1B9
330
1B8
100
AcDbEntity
  8
0
  6
Continuous
 62
     0
370
    -2
390
5F
100
AcDbHatch
 10
0.0
 20
0.0
 30
0.0
210
0.0
220
0.0
230
1.0
  2
SOLID
 70
     1
 71
     0
 91
        1
 92
        3
 72
     0
 73
     1
 93
        3
 10
0.0
 20
0.0
 10
-1.0
 20
1.0
 10
1.0
 20
1.0
 97
        0
 75
     0
 76
     1
 98
        0
  0
LINE
  5
1BA
330
1B8
100
AcDbEntity
  8
0
  6
Continuous
 62
     0
370
    -2
390
5F
100
AcDbLine
 10
0.0
 20
0.0
 30
0.0
 11
-1.0
 21
1.0
 31
0.0
  0
LINE
  5
1BB
330
1B8
100
AcDbEntity
  8
0
  6
Continuous
 62
     0
370
    -2
390
5F
100
AcDbLine
 10
-1.0
 20
1.0
 30
0.0
 11
1.0
 21
1.0
 31
0.0
  0
LINE
  5
1BC
330
1B8
100
AcDbEntity
  8
0
  6
Continuous
 62
     0
370
    -2
390
5F
100
AcDbLine
 10
1.0
 20
1.0
 30
0.0
 11
0.0
 21
0.0
 31
0.0
  0
ENDBLK
  5
1BE
330
1B8
100
AcDbEntity
  8
0
100
AcDbBlockEnd
  0
BLOCK
  5
1C4
330
1BF
100
AcDbEntity
  8
0
100
AcDbBlockBegin
  2
cw-dimension-symbol16
 70
     0
 10
0.0
 20
0.0
 30
0.0
  3
cw-dimension-symbol16
  1

  0
HATCH
  5
1C0
330
1BF
100
AcDbEntity
  8
0
  6
Continuous
 62
     0
370
    -2
390
5F
100
AcDbHatch
 10
0.0
 20
0.0
 30
0.0
210
0.0
220
0.0
230
1.0
  2
SOLID
 70
     1
 71
     0
 91
        1
 92
        3
 72
     0
 73
     1
 93
        3
 10
0.0
 20
0.0
 10
-1.0
 20
-1.0
 10
1.0
 20
-1.0
 97
        0
 75
     0
 76
     1
 98
        0
  0
LINE
  5
1C1
330
1BF
100
AcDbEntity
  8
0
  6
Continuous
 62
     0
370
    -2
390
5F
100
AcDbLine
 10
0.0
 20
0.0
 30
0.0
 11
-1.0
 21
-1.0
 31
0.0
  0
LINE
  5
1C2
330
1BF
100
AcDbEntity
  8
0
  6
Continuous
 62
     0
370
    -2
390
5F
100
AcDbLine
 10
-1.0
 20
-1.0
 30
0.0
 11
1.0
 21
-1.0
 31
0.0
  0
LINE
  5
1C3
330
1BF
100
AcDbEntity
  8
0
  6
Continuous
 62
     0
370
    -2
390
5F
100
AcDbLine
 10
1.0
 20
-1.0
 30
0.0
 11
0.0
 21
0.0
 31
0.0
  0
ENDBLK
  5
1C5
330
1BF
100
AcDbEntity
  8
0
100
AcDbBlockEnd
  0
BLOCK
  5
1CB
330
1C6
100
AcDbEntity
  8
0
100
AcDbBlockBegin
  2
cw-dimension-symbol17
 70
     0
 10
0.0
 20
0.0
 30
0.0
  3
cw-dimension-symbol17
  1

  0
LINE
  5
1C7
330
1C6
100
AcDbEntity
  8
0
  6
Continuous
 62
     0
370
    -2
390
5F
100
AcDbLine
 10
0.0
 20
0.0
 30
0.0
 11
1.0
 21
1.0
 31
0.0
  0
LINE
  5
1C8
330
1C6
100
AcDbEntity
  8
0
  6
Continuous
 62
     0
370
    -2
390
5F
100
AcDbLine
 10
1.0
 20
1.0
 30
0.0
 11
-1.0
 21
1.0
 31
0.0
  0
LINE
  5
1C9
330
1C6
100
AcDbEntity
  8
0
  6
Continuous
 62
     0
370
    -2
390
5F
100
AcDbLine
 10
-1.0
 20
1.0
 30
0.0
 11
0.0
 21
0.0
 31
0.0
  0
HATCH
  5
1CA
330
1C6
100
AcDbEntity
  8
0
  6
Continuous
 62
     0
370
    -2
390
5F
100
AcDbHatch
 10
0.0
 20
0.0
 30
0.0
210
0.0
220
0.0
230
1.0
  2
SOLID
 70
     1
 71
     0
 91
        1
 92
        3
 72
     0
 73
     1
 93
        3
 10
0.0
 20
0.0
 10
-1.0
 20
1.0
 10
0.0
 20
1.0
 97
        0
 75
     0
 76
     1
 98
        0
  0
ENDBLK
  5
1CC
330
1C6
100
AcDbEntity
  8
0
100
AcDbBlockEnd
  0
BLOCK
  5
1D2
330
1CD
100
AcDbEntity
  8
0
100
AcDbBlockBegin
  2
cw-dimension-symbol18
 70
     0
 10
0.0
 20
0.0
 30
0.0
  3
cw-dimension-symbol18
  1

  0
LINE
  5
1CE
330
1CD
100
AcDbEntity
  8
0
  6
Continuous
 62
     0
370
    -2
390
5F
100
AcDbLine
 10
0.0
 20
0.0
 30
0.0
 11
1.0
 21
-1.0
 31
0.0
  0
LINE
  5
1CF
330
1CD
100
AcDbEntity
  8
0
  6
Continuous
 62
     0
370
    -2
390
5F
100
AcDbLine
 10
1.0
 20
-1.0
 30
0.0
 11
-1.0
 21
-1.0
 31
0.0
  0
LINE
  5
1D0
330
1CD
100
AcDbEntity
  8
0
  6
Continuous
 62
     0
370
    -2
390
5F
100
AcDbLine
 10
-1.0
 20
-1.0
 30
0.0
 11
0.0
 21
0.0
 31
0.0
  0
HATCH
  5
1D1
330
1CD
100
AcDbEntity
  8
0
  6
Continuous
 62
     0
370
    -2
390
5F
100
AcDbHatch
 10
0.0
 20
0.0
 30
0.0
210
0.0
220
0.0
230
1.0
  2
SOLID
 70
     1
 71
     0
 91
        1
 92
        3
 72
     0
 73
     1
 93
        3
 10
0.0
 20
0.0
 10
-1.0
 20
-1.0
 10
0.0
 20
-1.0
 97
        0
 75
     0
 76
     1
 98
        0
  0
ENDBLK
  5
1D3
330
1CD
100
AcDbEntity
  8
0
100
AcDbBlockEnd
  0
BLOCK
  5
1D5
330
1D4
100
AcDbEntity
  8
0
100
AcDbBlockBegin
  2
cw-dimension-symbol19
 70
     0
 10
0.0
 20
0.0
 30
0.0
  3
cw-dimension-symbol19
  1

  0
ENDBLK
  5
1D6
330
1D4
100
AcDbEntity
  8
0
100
AcDbBlockEnd
  0
BLOCK
  5
1DC
330
1D7
100
AcDbEntity
  8
0
100
AcDbBlockBegin
  2
cw-dimension-symbol20
 70
     0
 10
0.0
 20
0.0
 30
0.0
  3
cw-dimension-symbol20
  1

  0
LINE
  5
1D8
330
1D7
100
AcDbEntity
  8
0
  6
Continuous
 62
     0
370
    -2
390
5F
100
AcDbLine
 10
0.0
 20
0.0
 30
0.0
 11
0.0
 21
2.0
 31
0.0
  0
LINE
  5
1D9
330
1D7
100
AcDbEntity
  8
0
  6
Continuous
 62
     0
370
    -2
390
5F
100
AcDbLine
 10
0.0
 20
0.0
 30
0.0
 11
-1.0
 21
0.33
 31
0.0
  0
LINE
  5
1DA
330
1D7
100
AcDbEntity
  8
0
  6
Continuous
 62
     0
370
    -2
390
5F
100
AcDbLine
 10
0.0
 20
0.0
 30
0.0
 11
1.0
 21
0.33
 31
0.0
  0
LINE
  5
1DB
330
1D7
100
AcDbEntity
  8
0
  6
Continuous
 62
     0
370
    -2
390
5F
100
AcDbLine
 10
0.0
 20
2.0
 30
0.0
 11
4.15
 21
2.0
 31
0.0
  0
ENDBLK
  5
1DD
330
1D7
100
AcDbEntity
  8
0
100
AcDbBlockEnd
  0
BLOCK
  5
1E3
330
1DE
100
AcDbEntity
  8
0
100
AcDbBlockBegin
  2
cw-dimension-symbol21
 70
     0
 10
0.0
 20
0.0
 30
0.0
  3
cw-dimension-symbol21
  1

  0
LINE
  5
1DF
330
1DE
100
AcDbEntity
  8
0
  6
Continuous
 62
     0
370
    -2
390
5F
100
AcDbLine
 10
0.0
 20
0.0
 30
0.0
 11
0.0
 21
-2.0
 31
0.0
  0
LINE
  5
1E0
330
1DE
100
AcDbEntity
  8
0
  6
Continuous
 62
     0
370
    -2
390
5F
100
AcDbLine
 10
0.0
 20
0.0
 30
0.0
 11
-1.0
 21
-0.33
 31
0.0
  0
LINE
  5
1E1
330
1DE
100
AcDbEntity
  8
0
  6
Continuous
 62
     0
370
    -2
390
5F
100
AcDbLine
 10
0.0
 20
0.0
 30
0.0
 11
1.0
 21
-0.33
 31
0.0
  0
LINE
  5
1E2
330
1DE
100
AcDbEntity
  8
0
  6
Continuous
 62
     0
370
    -2
390
5F
100
AcDbLine
 10
0.0
 20
-2.0
 30
0.0
 11
4.15
 21
-2.0
 31
0.0
  0
ENDBLK
  5
1E4
330
1DE
100
AcDbEntity
  8
0
100
AcDbBlockEnd
  0
BLOCK
  5
215
330
1E5
100
AcDbEntity
  8
0
100
AcDbBlockBegin
  2
cw-line-extremity0
 70
     0
 10
0.0
 20
0.0
 30
0.0
  3
cw-line-extremity0
  1

  0
LINE
  5
1E6
330
1E5
100
AcDbEntity
  8
0
  6
Continuous
 62
     0
370
    -2
390
5F
100
AcDbLine
 10
0.0
 20
0.0
 30
0.0
 11
10.0
 21
2.5
 31
0.0
  0
LINE
  5
1E7
330
1E5
100
AcDbEntity
  8
0
  6
Continuous
 62
     0
370
    -2
390
5F
100
AcDbLine
 10
0.0
 20
0.0
 30
0.0
 11
10.0
 21
-2.5
 31
0.0
  0
LINE
  5
1E8
330
1E5
100
AcDbEntity
  8
0
  6
Continuous
 62
     0
370
    -2
390
5F
100
AcDbLine
 10
10.0
 20
2.5
 30
0.0
 11
10.0
 21
-2.5
 31
0.0
  0
ENDBLK
  5
216
330
1E5
100
AcDbEntity
  8
0
100
AcDbBlockEnd
  0
BLOCK
  5
213
330
1E9
100
AcDbEntity
  8
0
100
AcDbBlockBegin
  2
cw-line-extremity2
 70
     0
 10
0.0
 20
0.0
 30
0.0
  3
cw-line-extremity2
  1

  0
HATCH
  5
1EA
330
1E9
100
AcDbEntity
  8
0
  6
Continuous
 62
     0
370
     0
390
5F
100
AcDbHatch
 10
0.0
 20
0.0
 30
0.0
210
0.0
220
0.0
230
1.0
  2
SOLID
 70
     1
 71
     0
 91
        1
 92
        3
 72
     0
 73
     1
 93
        3
 10
0.0
 20
0.0
 10
10.0
 20
2.5
 10
10.0
 20
-2.5
 97
        0
 75
     0
 76
     1
 98
        0
  0
LINE
  5
1EB
330
1E9
100
AcDbEntity
  8
0
  6
Continuous
 62
     0
370
    -2
390
5F
100
AcDbLine
 10
0.0
 20
0.0
 30
0.0
 11
10.0
 21
2.5
 31
0.0
  0
LINE
  5
1EC
330
1E9
100
AcDbEntity
  8
0
  6
Continuous
 62
     0
370
    -2
390
5F
100
AcDbLine
 10
10.0
 20
2.5
 30
0.0
 11
10.0
 21
-2.5
 31
0.0
  0
LINE
  5
1ED
330
1E9
100
AcDbEntity
  8
0
  6
Continuous
 62
     0
370
    -2
390
5F
100
AcDbLine
 10
10.0
 20
-2.5
 30
0.0
 11
0.0
 21
0.0
 31
0.0
  0
ENDBLK
  5
214
330
1E9
100
AcDbEntity
  8
0
100
AcDbBlockEnd
  0
BLOCK
  5
211
330
1EE
100
AcDbEntity
  8
0
100
AcDbBlockBegin
  2
cw-line-extremity3
 70
     0
 10
0.0
 20
0.0
 30
0.0
  3
cw-line-extremity3
  1

  0
HATCH
  5
1EF
330
1EE
100
AcDbEntity
  8
0
  6
Continuous
 62
     0
370
     0
390
5F
100
AcDbHatch
 10
0.0
 20
0.0
 30
0.0
210
0.0
220
0.0
230
1.0
  2
SOLID
 70
     1
 71
     0
 91
        1
 92
        3
 72
     0
 73
     1
 93
        3
 10
0.0
 20
0.0
 10
10.0
 20
2.5
 10
10.0
 20
-2.5
 97
        0
 75
     0
 76
     1
 98
        0
  0
LINE
  5
1F0
330
1EE
100
AcDbEntity
  8
0
  6
Continuous
 62
     0
370
    -2
390
5F
100
AcDbLine
 10
0.0
 20
0.0
 30
0.0
 11
10.0
 21
2.5
 31
0.0
  0
LINE
  5
1F1
330
1EE
100
AcDbEntity
  8
0
  6
Continuous
 62
     0
370
    -2
390
5F
100
AcDbLine
 10
10.0
 20
2.5
 30
0.0
 11
10.0
 21
-2.5
 31
0.0
  0
LINE
  5
1F2
330
1EE
100
AcDbEntity
  8
0
  6
Continuous
 62
     0
370
    -2
390
5F
100
AcDbLine
 10
10.0
 20
-2.5
 30
0.0
 11
0.0
 21
0.0
 31
0.0
  0
ENDBLK
  5
212
330
1EE
100
AcDbEntity
  8
0
100
AcDbBlockEnd
  0
BLOCK
  5
20F
330
1F3
100
AcDbEntity
  8
0
100
AcDbBlockBegin
  2
cw-line-extremity301
 70
     0
 10
0.0
 20
0.0
 30
0.0
  3
cw-line-extremity301
  1

  0
LINE
  5
1F4
330
1F3
100
AcDbEntity
  8
0
  6
Continuous
 62
     0
370
    -2
390
5F
100
AcDbLine
 10
0.0
 20
6.66665
 30
0.0
 11
0.0
 21
-6.66665
 31
0.0
  0
ENDBLK
  5
210
330
1F3
100
AcDbEntity
  8
0
100
AcDbBlockEnd
  0
BLOCK
  5
20D
330
1F5
100
AcDbEntity
  8
0
100
AcDbBlockBegin
  2
cw-line-extremity4
 70
     0
 10
0.0
 20
0.0
 30
0.0
  3
cw-line-extremity4
  1

  0
HATCH
  5
1F6
330
1F5
100
AcDbEntity
  8
0
  6
Continuous
 62
     0
370
     5
390
5F
100
AcDbHatch
 10
0.0
 20
0.0
 30
0.0
210
0.0
220
0.0
230
1.0
  2
SOLID
 70
     1
 71
     0
 91
        1
 92
        1
 93
        1
 72
     2
 10
0.0
 20
0.0
 40
2.5
 50
0.0
 51
360.0
 73
     1
 97
        0
 75
     0
 76
     1
 98
        0
  0
ENDBLK
  5
20E
330
1F5
100
AcDbEntity
  8
0
100
AcDbBlockEnd
  0
BLOCK
  5
20B
330
1F7
100
AcDbEntity
  8
0
100
AcDbBlockBegin
  2
cw-line-extremity5
 70
     0
 10
0.0
 20
0.0
 30
0.0
  3
cw-line-extremity5
  1

  0
LINE
  5
1F8
330
1F7
100
AcDbEntity
  8
0
  6
Continuous
 62
     0
370
    -2
390
5F
100
AcDbLine
 10
0.0
 20
0.0
 30
0.0
 11
-2.5
 21
0.0
 31
0.0
  0
ENDBLK
  5
20C
330
1F7
100
AcDbEntity
  8
0
100
AcDbBlockEnd
  0
BLOCK
  5
209
330
1F9
100
AcDbEntity
  8
0
100
AcDbBlockBegin
  2
cw-line-extremity6
 70
     0
 10
0.0
 20
0.0
 30
0.0
  3
cw-line-extremity6
  1

  0
LINE
  5
1FA
330
1F9
100
AcDbEntity
  8
0
  6
Continuous
 62
     0
370
    18
390
5F
100
AcDbLine
 10
0.0
 20
2.5
 30
0.0
 11
0.0
 21
-2.5
 31
0.0
  0
ENDBLK
  5
20A
330
1F9
100
AcDbEntity
  8
0
100
AcDbBlockEnd
  0
BLOCK
  5
207
330
1FB
100
AcDbEntity
  8
0
100
AcDbBlockBegin
  2
cw-line-extremity9
 70
     0
 10
0.0
 20
0.0
 30
0.0
  3
cw-line-extremity9
  1

  0
LINE
  5
1FC
330
1FB
100
AcDbEntity
  8
0
  6
Continuous
 62
     0
370
    18
390
5F
100
AcDbLine
 10
-2.5
 20
-2.5
 30
0.0
 11
2.5
 21
2.5
 31
0.0
  0
ENDBLK
  5
208
330
1FB
100
AcDbEntity
  8
0
100
AcDbBlockEnd
  0
BLOCK
  5
205
330
1FD
100
AcDbEntity
  8
0
100
AcDbBlockBegin
  2
cw-line-extremity10
 70
     0
 10
0.0
 20
0.0
 30
0.0
  3
cw-line-extremity10
  1

  0
CIRCLE
  5
1FE
330
1FD
100
AcDbEntity
  8
0
  6
Continuous
 62
     0
370
    -2
390
5F
100
AcDbCircle
 10
0.0
 20
0.0
 30
0.0
 40
2.5
  0
ENDBLK
  5
206
330
1FD
100
AcDbEntity
  8
0
100
AcDbBlockEnd
  0
BLOCK
  5
203
330
1FF
100
AcDbEntity
  8
0
100
AcDbBlockBegin
  2
cw-line-extremity1
 70
     0
 10
0.0
 20
0.0
 30
0.0
  3
cw-line-extremity1
  1

  0
LINE
  5
200
330
1FF
100
AcDbEntity
  8
0
  6
Continuous
 62
     0
370
    -2
390
5F
100
AcDbLine
 10
0.0
 20
0.0
 30
0.0
 11
0.0
 21
2.5
 31
0.0
  0
LINE
  5
201
330
1FF
100
AcDbEntity
  8
0
  6
Continuous
 62
     0
370
    -2
390
5F
100
AcDbLine
 10
0.0
 20
2.5
 30
0.0
 11
1.25
 21
3.75
 31
0.0
  0
LINE
  5
202
330
1FF
100
AcDbEntity
  8
0
  6
Continuous
 62
     0
370
    -2
390
5F
100
AcDbLine
 10
1.25
 20
3.75
 30
0.0
 11
3.75
 21
3.75
 31
0.0
  0
ENDBLK
  5
204
330
1FF
100
AcDbEntity
  8
0
100
AcDbBlockEnd
  0
BLOCK
  5
1C
330
1B
100
AcDbEntity
  8
0
100
AcDbBlockBegin
  2
*Paper_Space69
 70
     0
 10
0.0
 20
0.0
 30
0.0
  3
*Paper_Space69
  1

  0
ENDBLK
  5
1D
330
1B
100
AcDbEntity
  8
0
100
AcDbBlockEnd
  0
BLOCK
  5
4C3
330
4B4
100
AcDbEntity
  8
0
100
AcDbBlockBegin
  2
DIM204
 70
     0
 10
0.0
 20
0.0
 30
0.0
  3
DIM204
  1

  0
LINE
  5
4B5
330
4B4
100
AcDbEntity
  8
Ech.1_5
  6
Continuous
 62
   200
420
 11010303
370
    15
390
5F
100
AcDbLine
 10
20655.31537404251
 20
-3221.912255337782
 30
0.0
 11
20674.51537404251
 21
-3221.912255337782
 31
0.0
  0
LINE
  5
4B6
330
4B4
100
AcDbEntity
  8
Ech.1_5
  6
Continuous
 62
   200
420
 11010303
370
    15
390
5F
100
AcDbLine
 10
20669.51537404251
 20
-3221.912255337782
 30
0.0
 11
20669.51537404251
 21
-3216.912255337782
 31
0.0
  0
LINE
  5
4B7
330
4B4
100
AcDbEntity
  8
Ech.1_5
  6
Continuous
 62
   200
420
 11010303
370
    25
390
5F
100
AcDbLine
 10
20667.01537404251
 20
-3219.412255337782
 30
0.0
 11
20672.01537404251
 21
-3224.412255337782
 31
0.0
  0
LINE
  5
4B8
330
4B4
100
AcDbEntity
  8
Ech.1_5
  6
Continuous
 62
   200
420
 11010303
370
    25
390
5F
100
AcDbLine
 10
20667.01537404251
 20
-3219.462255337782
 30
0.0
 11
20671.96537404251
 21
-3224.412255337782
 31
0.0
  0
LINE
  5
4B9
330
4B4
100
AcDbEntity
  8
Ech.1_5
  6
Continuous
 62
   200
420
 11010303
370
    25
390
5F
100
AcDbLine
 10
20667.06537404251
 20
-3219.412255337782
 30
0.0
 11
20672.01537404251
 21
-3224.362255337782
 31
0.0
  0
LINE
  5
4BA
330
4B4
100
AcDbEntity
  8
Ech.1_5
  6
Continuous
 62
   200
420
 11010303
370
    25
390
5F
100
AcDbLine
 10
20667.01537404251
 20
-3219.412255337782
 30
0.0
 11
20672.01537404251
 21
-3224.412255337782
 31
0.0
  0
LINE
  5
4BB
330
4B4
100
AcDbEntity
  8
Ech.1_5
  6
Continuous
 62
   200
420
 11010303
370
    25
390
5F
100
AcDbLine
 10
20667.06537404251
 20
-3219.412255337782
 30
0.0
 11
20672.01537404251
 21
-3224.412255337782
 31
0.0
  0
LINE
  5
4BC
330
4B4
100
AcDbEntity
  8
Ech.1_5
  6
Continuous
 62
   200
420
 11010303
370
    15
390
5F
100
AcDbLine
 10
20669.51537404251
 20
-3221.912255337782
 30
0.0
 11
20669.51537404251
 21
-3250.912255337782
 31
0.0
  0
LINE
  5
4BD
330
4B4
100
AcDbEntity
  8
Ech.1_5
  6
Continuous
 62
   200
420
 11010303
370
    25
390
5F
100
AcDbLine
 10
20672.01537404251
 20
-3248.412255337782
 30
0.0
 11
20667.01537404251
 21
-3243.412255337782
 31
0.0
  0
LINE
  5
4BE
330
4B4
100
AcDbEntity
  8
Ech.1_5
  6
Continuous
 62
   200
420
 11010303
370
    25
390
5F
100
AcDbLine
 10
20672.01537404251
 20
-3248.362255337782
 30
0.0
 11
20667.06537404251
 21
-3243.412255337782
 31
0.0
  0
LINE
  5
4BF
330
4B4
100
AcDbEntity
  8
Ech.1_5
  6
Continuous
 62
   200
420
 11010303
370
    25
390
5F
100
AcDbLine
 10
20671.96537404251
 20
-3248.412255337782
 30
0.0
 11
20667.01537404251
 21
-3243.462255337782
 31
0.0
  0
LINE
  5
4C0
330
4B4
100
AcDbEntity
  8
Ech.1_5
  6
Continuous
 62
   200
420
 11010303
370
    25
390
5F
100
AcDbLine
 10
20672.01537404251
 20
-3248.412255337782
 30
0.0
 11
20667.06537404251
 21
-3243.412255337782
 31
0.0
  0
LINE
  5
4C1
330
4B4
100
AcDbEntity
  8
Ech.1_5
  6
Continuous
 62
   200
420
 11010303
370
    25
390
5F
100
AcDbLine
 10
20672.01537404251
 20
-3248.412255337782
 30
0.0
 11
20667.01537404251
 21
-3243.462255337782
 31
0.0
  0
LINE
  5
4C2
330
4B4
100
AcDbEntity
  8
Ech.1_5
  6
Continuous
 62
   200
420
 11010303
370
    15
390
5F
100
AcDbLine
 10
20647.81537404251
 20
-3245.912255337782
 30
0.0
 11
20674.51537404251
 21
-3245.912255337782
 31
0.0
  0
ENDBLK
  5
4C4
330
4B4
100
AcDbEntity
  8
0
100
AcDbBlockEnd
  0
BLOCK
  5
4D7
330
4C8
100
AcDbEntity
  8
0
100
AcDbBlockBegin
  2
DIM205
 70
     0
 10
0.0
 20
0.0
 30
0.0
  3
DIM205
  1

  0
LINE
  5
4C9
330
4C8
100
AcDbEntity
  8
Ech.1_5
  6
Continuous
 62
   200
420
 11010303
370
    15
390
5F
100
AcDbLine
 10
20647.81537404251
 20
-3245.912255337782
 30
0.0
 11
20674.51537404251
 21
-3245.912255337782
 31
0.0
  0
LINE
  5
4CA
330
4C8
100
AcDbEntity
  8
Ech.1_5
  6
Continuous
 62
   200
420
 11010303
370
    15
390
5F
100
AcDbLine
 10
20669.51537404251
 20
-3245.912255337782
 30
0.0
 11
20669.51537404251
 21
-3240.912255337782
 31
0.0
  0
LINE
  5
4CB
330
4C8
100
AcDbEntity
  8
Ech.1_5
  6
Continuous
 62
   200
420
 11010303
370
    25
390
5F
100
AcDbLine
 10
20667.01537404251
 20
-3243.412255337782
 30
0.0
 11
20672.01537404251
 21
-3248.412255337782
 31
0.0
  0
LINE
  5
4CC
330
4C8
100
AcDbEntity
  8
Ech.1_5
  6
Continuous
 62
   200
420
 11010303
370
    25
390
5F
100
AcDbLine
 10
20667.01537404251
 20
-3243.462255337783
 30
0.0
 11
20671.96537404251
 21
-3248.412255337782
 31
0.0
  0
LINE
  5
4CD
330
4C8
100
AcDbEntity
  8
Ech.1_5
  6
Continuous
 62
   200
420
 11010303
370
    25
390
5F
100
AcDbLine
 10
20667.06537404251
 20
-3243.412255337782
 30
0.0
 11
20672.01537404251
 21
-3248.362255337782
 31
0.0
  0
LINE
  5
4CE
330
4C8
100
AcDbEntity
  8
Ech.1_5
  6
Continuous
 62
   200
420
 11010303
370
    25
390
5F
100
AcDbLine
 10
20667.01537404251
 20
-3243.412255337782
 30
0.0
 11
20672.01537404251
 21
-3248.412255337782
 31
0.0
  0
LINE
  5
4CF
330
4C8
100
AcDbEntity
  8
Ech.1_5
  6
Continuous
 62
   200
420
 11010303
370
    25
390
5F
100
AcDbLine
 10
20667.06537404251
 20
-3243.412255337782
 30
0.0
 11
20672.01537404251
 21
-3248.412255337782
 31
0.0
  0
LINE
  5
4D0
330
4C8
100
AcDbEntity
  8
Ech.1_5
  6
Continuous
 62
   200
420
 11010303
370
    15
390
5F
100
AcDbLine
 10
20669.51537404251
 20
-3245.912255337782
 30
0.0
 11
20669.51537404251
 21
-3296.912255337782
 31
0.0
  0
LINE
  5
4D1
330
4C8
100
AcDbEntity
  8
Ech.1_5
  6
Continuous
 62
   200
420
 11010303
370
    25
390
5F
100
AcDbLine
 10
20672.01537404251
 20
-3294.412255337782
 30
0.0
 11
20667.01537404251
 21
-3289.412255337782
 31
0.0
  0
LINE
  5
4D2
330
4C8
100
AcDbEntity
  8
Ech.1_5
  6
Continuous
 62
   200
420
 11010303
370
    25
390
5F
100
AcDbLine
 10
20672.01537404251
 20
-3294.362255337782
 30
0.0
 11
20667.06537404251
 21
-3289.412255337782
 31
0.0
  0
LINE
  5
4D3
330
4C8
100
AcDbEntity
  8
Ech.1_5
  6
Continuous
 62
   200
420
 11010303
370
    25
390
5F
100
AcDbLine
 10
20671.96537404251
 20
-3294.412255337782
 30
0.0
 11
20667.01537404251
 21
-3289.462255337783
 31
0.0
  0
LINE
  5
4D4
330
4C8
100
AcDbEntity
  8
Ech.1_5
  6
Continuous
 62
   200
420
 11010303
370
    25
390
5F
100
AcDbLine
 10
20672.01537404251
 20
-3294.412255337782
 30
0.0
 11
20667.06537404251
 21
-3289.412255337782
 31
0.0
  0
LINE
  5
4D5
330
4C8
100
AcDbEntity
  8
Ech.1_5
  6
Continuous
 62
   200
420
 11010303
370
    25
390
5F
100
AcDbLine
 10
20672.01537404251
 20
-3294.412255337782
 30
0.0
 11
20667.01537404251
 21
-3289.462255337783
 31
0.0
  0
LINE
  5
4D6
330
4C8
100
AcDbEntity
  8
Ech.1_5
  6
Continuous
 62
   200
420
 11010303
370
    15
390
5F
100
AcDbLine
 10
20532.71537404251
 20
-3291.912255337782
 30
0.0
 11
20674.51537404251
 21
-3291.912255337782
 31
0.0
  0
ENDBLK
  5
4D8
330
4C8
100
AcDbEntity
  8
0
100
AcDbBlockEnd
  0
BLOCK
  5
4EA
330
4DB
100
AcDbEntity
  8
0
100
AcDbBlockBegin
  2
DIM206
 70
     0
 10
0.0
 20
0.0
 30
0.0
  3
DIM206
  1

  0
LINE
  5
4DC
330
4DB
100
AcDbEntity
  8
Ech.1_5
  6
Continuous
 62
   200
420
 11010303
370
    15
390
5F
100
AcDbLine
 10
20532.72407068928
 20
-3291.912255337782
 30
0.0
 11
20674.52407068928
 21
-3291.912255337782
 31
0.0
  0
LINE
  5
4DD
330
4DB
100
AcDbEntity
  8
Ech.1_5
  6
Continuous
 62
   200
420
 11010303
370
    15
390
5F
100
AcDbLine
 10
20669.52407068928
 20
-3291.912255337782
 30
0.0
 11
20669.52407068928
 21
-3286.912255337782
 31
0.0
  0
LINE
  5
4DE
330
4DB
100
AcDbEntity
  8
Ech.1_5
  6
Continuous
 62
   200
420
 11010303
370
    25
390
5F
100
AcDbLine
 10
20667.02407068928
 20
-3289.412255337782
 30
0.0
 11
20672.02407068928
 21
-3294.412255337782
 31
0.0
  0
LINE
  5
4DF
330
4DB
100
AcDbEntity
  8
Ech.1_5
  6
Continuous
 62
   200
420
 11010303
370
    25
390
5F
100
AcDbLine
 10
20667.02407068928
 20
-3289.462255337782
 30
0.0
 11
20671.97407068928
 21
-3294.412255337782
 31
0.0
  0
LINE
  5
4E0
330
4DB
100
AcDbEntity
  8
Ech.1_5
  6
Continuous
 62
   200
420
 11010303
370
    25
390
5F
100
AcDbLine
 10
20667.07407068928
 20
-3289.412255337782
 30
0.0
 11
20672.02407068928
 21
-3294.362255337782
 31
0.0
  0
LINE
  5
4E1
330
4DB
100
AcDbEntity
  8
Ech.1_5
  6
Continuous
 62
   200
420
 11010303
370
    25
390
5F
100
AcDbLine
 10
20667.02407068928
 20
-3289.462255337782
 30
0.0
 11
20672.02407068928
 21
-3294.412255337782
 31
0.0
  0
LINE
  5
4E2
330
4DB
100
AcDbEntity
  8
Ech.1_5
  6
Continuous
 62
   200
420
 11010303
370
    25
390
5F
100
AcDbLine
 10
20667.07407068928
 20
-3289.412255337782
 30
0.0
 11
20672.02407068928
 21
-3294.362255337782
 31
0.0
  0
LINE
  5
4E3
330
4DB
100
AcDbEntity
  8
Ech.1_5
  6
Continuous
 62
   200
420
 11010303
370
    15
390
5F
100
AcDbLine
 10
20669.52407068928
 20
-3291.912255337782
 30
0.0
 11
20669.52407068928
 21
-3310.912255337782
 31
0.0
  0
LINE
  5
4E4
330
4DB
100
AcDbEntity
  8
Ech.1_5
  6
Continuous
 62
   200
420
 11010303
370
    25
390
5F
100
AcDbLine
 10
20672.02407068928
 20
-3308.412255337782
 30
0.0
 11
20667.02407068928
 21
-3303.412255337782
 31
0.0
  0
LINE
  5
4E5
330
4DB
100
AcDbEntity
  8
Ech.1_5
  6
Continuous
 62
   200
420
 11010303
370
    25
390
5F
100
AcDbLine
 10
20672.02407068928
 20
-3308.362255337782
 30
0.0
 11
20667.07407068928
 21
-3303.412255337782
 31
0.0
  0
LINE
  5
4E6
330
4DB
100
AcDbEntity
  8
Ech.1_5
  6
Continuous
 62
   200
420
 11010303
370
    25
390
5F
100
AcDbLine
 10
20671.97407068928
 20
-3308.412255337782
 30
0.0
 11
20667.02407068928
 21
-3303.462255337782
 31
0.0
  0
LINE
  5
4E7
330
4DB
100
AcDbEntity
  8
Ech.1_5
  6
Continuous
 62
   200
420
 11010303
370
    25
390
5F
100
AcDbLine
 10
20672.02407068928
 20
-3308.362255337782
 30
0.0
 11
20667.07407068928
 21
-3303.412255337782
 31
0.0
  0
LINE
  5
4E8
330
4DB
100
AcDbEntity
  8
Ech.1_5
  6
Continuous
 62
   200
420
 11010303
370
    25
390
5F
100
AcDbLine
 10
20672.02407068928
 20
-3308.412255337782
 30
0.0
 11
20667.02407068928
 21
-3303.462255337782
 31
0.0
  0
LINE
  5
4E9
330
4DB
100
AcDbEntity
  8
Ech.1_5
  6
Continuous
 62
   200
420
 11010303
370
    15
390
5F
100
AcDbLine
 10
20562.72407068928
 20
-3305.912255337782
 30
0.0
 11
20674.52407068928
 21
-3305.912255337782
 31
0.0
  0
ENDBLK
  5
4EB
330
4DB
100
AcDbEntity
  8
0
100
AcDbBlockEnd
  0
ENDSEC
  0
SECTION
  2
ENTITIES
  0
HATCH
  5
220
330
1F
100
AcDbEntity
  8
Ech.1_5
  6
Continuous
 62
    43
440
 33554687
370
     5
390
5F
100
AcDbHatch
 10
0.0
 20
0.0
 30
0.0
210
0.0
220
0.0
230
1.0
  2
SOLID
 70
     1
 71
     0
 91
        1
 92
        3
 72
     0
 73
     1
 93
        4
 10
21098.08995407306
 20
-3653.507819912338
 10
21158.08995407306
 20
-3653.507819912338
 10
21158.08995407306
 20
-3593.507819912338
 10
21098.08995407306
 20
-3593.507819912338
 97
        0
 75
     0
 76
     1
 98
        0
  0
LINE
  5
221
330
1F
100
AcDbEntity
  8
Ech.1_5
  6
Continuous
 62
   190
370
    15
390
5F
100
AcDbLine
 10
21158.08995407306
 20
-3653.507819912338
 30
0.0
 11
21098.08995407306
 21
-3593.507819912338
 31
0.0
  0
LINE
  5
222
330
1F
100
AcDbEntity
  8
Ech.1_5
  6
Continuous
 62
   190
370
    15
390
5F
100
AcDbLine
 10
21158.08995407306
 20
-3593.507819912338
 30
0.0
 11
21098.08995407306
 21
-3653.507819912338
 31
0.0
  0
LWPOLYLINE
  5
223
330
1F
100
AcDbEntity
  8
Ech.1_5
  6
Continuous
 62
   190
370
    20
390
5F
100
AcDbPolyline
 90
        5
 70
     0
 43
0.0
 10
21098.08995407306
 20
-3653.507819912338
 10
21158.08995407306
 20
-3653.507819912338
 10
21158.08995407306
 20
-3593.507819912338
 10
21098.08995407306
 20
-3593.507819912338
 10
21098.08995407306
 20
-3653.507819912338
  0
HATCH
  5
224
330
1F
100
AcDbEntity
  8
Ech.1_5
  6
Continuous
 62
    43
440
 33554687
370
     5
390
5F
100
AcDbHatch
 10
0.0
 20
0.0
 30
0.0
210
0.0
220
0.0
230
1.0
  2
SOLID
 70
     1
 71
     0
 91
        1
 92
        3
 72
     0
 73
     1
 93
        4
 10
21098.08995407306
 20
-3895.61172264273
 10
21158.08995407306
 20
-3895.61172264273
 10
21158.08995407306
 20
-3835.61172264273
 10
21098.08995407306
 20
-3835.61172264273
 97
        0
 75
     0
 76
     1
 98
        0
  0
LINE
  5
225
330
1F
100
AcDbEntity
  8
Ech.1_5
  6
Continuous
 62
   190
370
    15
390
5F
100
AcDbLine
 10
21158.08995407306
 20
-3895.61172264273
 30
0.0
 11
21098.08995407306
 21
-3835.61172264273
 31
0.0
  0
LINE
  5
226
330
1F
100
AcDbEntity
  8
Ech.1_5
  6
Continuous
 62
   190
370
    15
390
5F
100
AcDbLine
 10
21158.08995407306
 20
-3835.61172264273
 30
0.0
 11
21098.08995407306
 21
-3895.61172264273
 31
0.0
  0
LWPOLYLINE
  5
227
330
1F
100
AcDbEntity
  8
Ech.1_5
  6
Continuous
 62
   190
370
    20
390
5F
100
AcDbPolyline
 90
        5
 70
     0
 43
0.0
 10
21098.08995407306
 20
-3895.61172264273
 10
21158.08995407306
 20
-3895.61172264273
 10
21158.08995407306
 20
-3835.61172264273
 10
21098.08995407306
 20
-3835.61172264273
 10
21098.08995407306
 20
-3895.61172264273
  0
LWPOLYLINE
  5
228
102
{ACAD_REACTORS
330
229
330
22A
330
22B
102
}
330
1F
100
AcDbEntity
  8
Ech.1_5
  6
Continuous
 62
   190
370
    15
390
5F
100
AcDbPolyline
 90
        5
 70
     0
 43
0.0
 10
20348.47353496285
 20
-4233.514743311884
 10
21333.47353496286
 20
-4233.514743311884
 10
21333.47353496286
 20
-4370.927815377101
 10
20348.47353496285
 20
-4370.927815377101
 10
20348.47353496285
 20
-4233.514743311884
  0
IMAGE
  5
22E
102
{ACAD_REACTORS
330
22A
330
22B
102
}
330
1F
100
AcDbEntity
  8
Ech.1_5
  6
Continuous
390
5F
160
                 8
310
0800000000000000
100
AcDbRasterImage
 90
        0
 10
20539.53778370374
 20
-4365.89226789595
 30
0.0
 11
0.2834551518263258
 21
0.0
 31
0.0
 12
0.0
 22
0.2834551571500732
 32
0.0
 13
247.0
 23
171.0
340
22D
 70
     7
280
     0
281
    50
282
    50
283
     0
360
22F
 71
     1
 91
        2
 14
-0.5
 24
-0.5
 14
246.5
 24
170.5
290
     0
  0
IMAGE
  5
231
102
{ACAD_REACTORS
330
22B
102
}
330
1F
100
AcDbEntity
  8
Ech.1_5
  6
Continuous
390
5F
160
                 8
310
0800000000000000
100
AcDbRasterImage
 90
        0
 10
20800.61545494572
 20
-4368.446880199801
 30
0.0
 11
0.4035808001714576
 21
0.0
 31
0.0
 12
0.0
 22
0.4035808103932838
 32
0.0
 13
200.0
 23
133.0
340
230
 70
     7
280
     0
281
    50
282
    50
283
     0
360
232
 71
     1
 91
        2
 14
-0.5
 24
-0.5
 14
199.5
 24
132.5
290
     0
  0
HATCH
  5
233
330
1F
100
AcDbEntity
  8
Ech.1_5
  6
Continuous
 62
    33
420
 12426362
440
 33554687
370
    20
390
5F
100
AcDbHatch
 10
0.0
 20
0.0
 30
0.0
210
0.0
220
0.0
230
1.0
  2
SOLID
 70
     1
 71
     0
 91
        1
 92
        3
 72
     0
 73
     1
 93
        4
 10
20632.8153740425
 20
-3245.912255337782
 10
20640.31537404251
 20
-3221.912255337782
 10
20418.58478604936
 20
-3221.912255337782
 10
20411.08478604934
 20
-3245.912255337782
 97
        0
 75
     0
 76
     1
 98
        0
  0
LWPOLYLINE
  5
234
330
1F
100
AcDbEntity
  8
Ech.1_5
  6
Continuous
 62
   190
370
     5
390
5F
100
AcDbPolyline
 90
        5
 70
     0
 43
0.0
 10
20632.8153740425
 20
-3245.912255337782
 10
20640.31537404251
 20
-3221.912255337782
 10
20418.58478604936
 20
-3221.912255337782
 10
20411.08478604934
 20
-3245.912255337782
 10
20632.8153740425
 20
-3245.912255337782
  0
3DFACE
  5
235
102
{ACAD_REACTORS
330
236
102
}
330
1F
100
AcDbEntity
  8
Ech.1_5
  6
Continuous
 62
   190
370
    15
390
5F
100
AcDbFace
 10
20632.8153740425
 20
-3245.912255337782
 30
-265.0000000000077
 11
20640.31537404251
 21
-3221.912255337782
 31
-265.0000000000077
 12
20418.58478604936
 22
-3221.912255337782
 32
-265.0000000000077
 13
20411.08478604934
 23
-3245.912255337782
 33
-265.0000000000077
  0
LINE
  5
239
330
1F
100
AcDbEntity
  8
Ech.1_5
  6
Continuous
 62
    18
420
        0
370
    20
390
5F
100
AcDbLine
 10
20563.91023562686
 20
-4073.085947356973
 30
0.0
 11
20756.8776593043
 21
-4073.085947356973
 31
0.0
  0
LINE
  5
23A
330
1F
100
AcDbEntity
  8
Ech.1_5
  6
Continuous
 62
    18
420
        0
370
    20
390
5F
100
AcDbLine
 10
20563.91023562686
 20
-4073.085947356973
 30
0.0
 11
20563.91023562686
 21
-4125.016344569478
 31
0.0
  0
LINE
  5
23B
330
1F
100
AcDbEntity
  8
Ech.1_5
  6
Continuous
 62
    18
420
        0
370
    20
390
5F
100
AcDbLine
 10
20756.8776593043
 20
-4073.085947356973
 30
0.0
 11
21122.94513366953
 21
-4073.085947356973
 31
0.0
  0
LINE
  5
23C
330
1F
100
AcDbEntity
  8
Ech.1_5
  6
Continuous
 62
    18
420
        0
370
    20
390
5F
100
AcDbLine
 10
20756.8776593043
 20
-4073.085947356973
 30
0.0
 11
20756.8776593043
 21
-4099.902464412007
 31
0.0
  0
LINE
  5
23D
330
1F
100
AcDbEntity
  8
Ech.1_5
  6
Continuous
 62
    18
420
        0
370
     0
390
5F
100
AcDbLine
 10
21122.94513366953
 20
-4073.085947356973
 30
0.0
 11
21122.94513366953
 21
-4099.902464412007
 31
0.0
  0
LINE
  5
23E
330
1F
100
AcDbEntity
  8
Ech.1_5
  6
Continuous
 62
    18
420
        0
370
    20
390
5F
100
AcDbLine
 10
20756.8776593043
 20
-4099.902464412007
 30
0.0
 11
20944.56122253672
 21
-4099.902464412007
 31
0.0
  0
LINE
  5
23F
330
1F
100
AcDbEntity
  8
Ech.1_5
  6
Continuous
 62
    18
420
        0
370
    20
390
5F
100
AcDbLine
 10
20756.8776593043
 20
-4099.902464412007
 30
0.0
 11
20756.8776593043
 21
-4125.016344569478
 31
0.0
  0
LINE
  5
240
330
1F
100
AcDbEntity
  8
Ech.1_5
  6
Continuous
 62
    18
420
        0
370
    20
390
5F
100
AcDbLine
 10
20944.56122253672
 20
-4099.902464412007
 30
0.0
 11
21122.94513366953
 21
-4099.902464412007
 31
0.0
  0
LINE
  5
241
330
1F
100
AcDbEntity
  8
Ech.1_5
  6
Continuous
 62
    18
420
        0
370
    20
390
5F
100
AcDbLine
 10
20944.56122253672
 20
-4099.902464412007
 30
0.0
 11
20944.56122253672
 21
-4125.016344569478
 31
0.0
  0
LINE
  5
242
330
1F
100
AcDbEntity
  8
Ech.1_5
  6
Continuous
 62
    18
420
        0
370
    20
390
5F
100
AcDbLine
 10
21122.94513366953
 20
-4099.902464412007
 30
0.0
 11
21122.94513366953
 21
-4125.016344569478
 31
0.0
  0
LINE
  5
243
330
1F
100
AcDbEntity
  8
Ech.1_5
  6
Continuous
 62
    18
420
        0
370
    20
390
5F
100
AcDbLine
 10
20563.91023562686
 20
-4125.016344569478
 30
0.0
 11
20756.8776593043
 21
-4125.016344569478
 31
0.0
  0
LINE
  5
244
330
1F
100
AcDbEntity
  8
Ech.1_5
  6
Continuous
 62
    18
420
        0
370
    20
390
5F
100
AcDbLine
 10
20563.91023562686
 20
-4125.016344569478
 30
0.0
 11
20563.91023562686
 21
-4148.853251002583
 31
0.0
  0
LINE
  5
245
330
1F
100
AcDbEntity
  8
Ech.1_5
  6
Continuous
 62
    18
420
        0
370
    20
390
5F
100
AcDbLine
 10
20756.8776593043
 20
-4125.016344569478
 30
0.0
 11
20944.56122253672
 21
-4125.016344569478
 31
0.0
  0
LINE
  5
246
330
1F
100
AcDbEntity
  8
Ech.1_5
  6
Continuous
 62
    18
420
        0
370
    20
390
5F
100
AcDbLine
 10
20756.8776593043
 20
-4125.016344569478
 30
0.0
 11
20756.8776593043
 21
-4148.853251002583
 31
0.0
  0
LINE
  5
247
330
1F
100
AcDbEntity
  8
Ech.1_5
  6
Continuous
 62
    18
420
        0
370
    20
390
5F
100
AcDbLine
 10
20944.56122253672
 20
-4125.016344569478
 30
0.0
 11
21122.94513366953
 21
-4125.016344569478
 31
0.0
  0
LINE
  5
248
330
1F
100
AcDbEntity
  8
Ech.1_5
  6
Continuous
 62
    18
420
        0
370
    20
390
5F
100
AcDbLine
 10
20944.56122253672
 20
-4125.016344569478
 30
0.0
 11
20944.56122253672
 21
-4148.853251002583
 31
0.0
  0
LINE
  5
249
330
1F
100
AcDbEntity
  8
Ech.1_5
  6
Continuous
 62
    18
420
        0
370
    20
390
5F
100
AcDbLine
 10
21122.94513366953
 20
-4125.016344569478
 30
0.0
 11
21122.94513366953
 21
-4148.853251002583
 31
0.0
  0
LINE
  5
24A
330
1F
100
AcDbEntity
  8
Ech.1_5
  6
Continuous
 62
    18
420
        0
370
    20
390
5F
100
AcDbLine
 10
20563.91023562686
 20
-4148.853251002583
 30
0.0
 11
20756.8776593043
 21
-4148.853251002583
 31
0.0
  0
LINE
  5
24B
330
1F
100
AcDbEntity
  8
Ech.1_5
  6
Continuous
 62
    18
420
        0
370
    20
390
5F
100
AcDbLine
 10
20563.91023562686
 20
-4148.853251002583
 30
0.0
 11
20563.91023562686
 21
-4173.541468165669
 31
0.0
  0
LINE
  5
24C
330
1F
100
AcDbEntity
  8
Ech.1_5
  6
Continuous
 62
    18
420
        0
370
    20
390
5F
100
AcDbLine
 10
20756.8776593043
 20
-4148.853251002583
 30
0.0
 11
20944.56122253672
 21
-4148.853251002583
 31
0.0
  0
LINE
  5
24D
330
1F
100
AcDbEntity
  8
Ech.1_5
  6
Continuous
 62
    18
420
        0
370
    20
390
5F
100
AcDbLine
 10
20756.8776593043
 20
-4148.853251002583
 30
0.0
 11
20756.8776593043
 21
-4173.541468165669
 31
0.0
  0
LINE
  5
24E
330
1F
100
AcDbEntity
  8
Ech.1_5
  6
Continuous
 62
    18
420
        0
370
    20
390
5F
100
AcDbLine
 10
20944.56122253672
 20
-4148.853251002583
 30
0.0
 11
21122.94513366953
 21
-4148.853251002583
 31
0.0
  0
LINE
  5
24F
330
1F
100
AcDbEntity
  8
Ech.1_5
  6
Continuous
 62
    18
420
        0
370
    20
390
5F
100
AcDbLine
 10
20944.56122253672
 20
-4148.853251002583
 30
0.0
 11
20944.56122253672
 21
-4173.541468165669
 31
0.0
  0
LINE
  5
250
330
1F
100
AcDbEntity
  8
Ech.1_5
  6
Continuous
 62
    18
420
        0
370
    20
390
5F
100
AcDbLine
 10
21122.94513366953
 20
-4148.853251002583
 30
0.0
 11
21122.94513366953
 21
-4173.541468165669
 31
0.0
  0
LINE
  5
251
330
1F
100
AcDbEntity
  8
Ech.1_5
  6
Continuous
 62
    18
420
        0
370
    20
390
5F
100
AcDbLine
 10
20563.91023562686
 20
-4173.541468165669
 30
0.0
 11
20756.8776593043
 21
-4173.541468165669
 31
0.0
  0
LINE
  5
252
330
1F
100
AcDbEntity
  8
Ech.1_5
  6
Continuous
 62
    18
420
        0
370
    20
390
5F
100
AcDbLine
 10
20563.91023562686
 20
-4173.541468165669
 30
0.0
 11
20563.91023562686
 21
-4198.22969295815
 31
0.0
  0
LINE
  5
253
330
1F
100
AcDbEntity
  8
Ech.1_5
  6
Continuous
 62
    18
420
        0
370
    20
390
5F
100
AcDbLine
 10
20563.91023562686
 20
-4198.22969295815
 30
0.0
 11
20756.8776593043
 21
-4198.22969295815
 31
0.0
  0
LINE
  5
254
330
1F
100
AcDbEntity
  8
Ech.1_5
  6
Continuous
 62
    18
420
        0
370
    20
390
5F
100
AcDbLine
 10
20756.8776593043
 20
-4173.541468165669
 30
0.0
 11
20944.56122253672
 21
-4173.541468165669
 31
0.0
  0
LINE
  5
255
330
1F
100
AcDbEntity
  8
Ech.1_5
  6
Continuous
 62
    18
420
        0
370
    20
390
5F
100
AcDbLine
 10
20756.8776593043
 20
-4173.541468165669
 30
0.0
 11
20756.8776593043
 21
-4198.22969295815
 31
0.0
  0
LINE
  5
256
330
1F
100
AcDbEntity
  8
Ech.1_5
  6
Continuous
 62
    18
420
        0
370
    20
390
5F
100
AcDbLine
 10
20756.8776593043
 20
-4198.22969295815
 30
0.0
 11
20944.56122253672
 21
-4198.22969295815
 31
0.0
  0
LINE
  5
257
330
1F
100
AcDbEntity
  8
Ech.1_5
  6
Continuous
 62
    18
420
        0
370
    20
390
5F
100
AcDbLine
 10
20944.56122253672
 20
-4173.541468165669
 30
0.0
 11
21122.94513366953
 21
-4173.541468165669
 31
0.0
  0
LINE
  5
258
330
1F
100
AcDbEntity
  8
Ech.1_5
  6
Continuous
 62
    18
420
        0
370
    20
390
5F
100
AcDbLine
 10
20944.56122253672
 20
-4173.541468165669
 30
0.0
 11
20944.56122253672
 21
-4198.22969295815
 31
0.0
  0
LINE
  5
259
330
1F
100
AcDbEntity
  8
Ech.1_5
  6
Continuous
 62
    18
420
        0
370
    20
390
5F
100
AcDbLine
 10
21122.94513366953
 20
-4173.541468165669
 30
0.0
 11
21122.94513366953
 21
-4198.22969295815
 31
0.0
  0
LINE
  5
25A
330
1F
100
AcDbEntity
  8
Ech.1_5
  6
Continuous
 62
    18
420
        0
370
    20
390
5F
100
AcDbLine
 10
20944.56122253672
 20
-4198.22969295815
 30
0.0
 11
21122.94513366953
 21
-4198.22969295815
 31
0.0
  0
TEXT
  5
25B
330
1F
100
AcDbEntity
  8
Ech.1_5
  6
Continuous
 62
     7
390
5F
100
AcDbText
 10
20568.08616702231
 20
-4091.980773742265
 30
0.0
 40
13.99974787524648
  1
Epaisseur de la lame
 41
0.9939548047767909
  7
arial-
100
AcDbText
  0
TEXT
  5
25C
330
1F
100
AcDbEntity
  8
Ech.1_5
  6
Continuous
 62
     7
390
5F
100
AcDbText
 10
20639.86339564803
 20
-4114.406388703605
 30
0.0
 40
13.64708247075554
  1
(mm)
 41
1.027188131673229
  7
arial-
100
AcDbText
  0
TEXT
  5
25D
330
1F
100
AcDbEntity
  8
Ech.1_5
  6
Continuous
 62
     7
390
5F
100
AcDbText
 10
20775.79936699091
 20
-4095.034680066903
 30
0.0
 40
15.10926987833649
  1
Masse volumique de la lame (kg/m
 41
1.005346577358385
  7
arial-
100
AcDbText
  0
TEXT
  5
25E
330
1F
100
AcDbEntity
  8
Ech.1_5
  6
Continuous
 62
     7
390
5F
100
AcDbText
 10
21103.54340948815
 20
-4087.608173416649
 30
0.0
 40
9.588792380109707
  1
3
 41
1.04480023680122
  7
arial-
100
AcDbText
  0
TEXT
  5
25F
330
1F
100
AcDbEntity
  8
Ech.1_5
  6
Continuous
 62
     7
390
5F
100
AcDbText
 10
21111.33658691468
 20
-4095.034680066903
 30
0.0
 40
15.10926987833649
  1
)
 41
0.9749529320154244
  7
arial-
100
AcDbText
  0
TEXT
  5
260
330
1F
100
AcDbEntity
  8
Ech.1_5
  6
Continuous
 62
     7
390
5F
100
AcDbText
 10
20830.63543881485
 20
-4119.028978430202
 30
0.0
 40
14.17473656190131
  1
< 600
 41
0.9858318667626798
  7
arial-
100
AcDbText
  0
TEXT
  5
261
330
1F
100
AcDbEntity
  8
Ech.1_5
  6
Continuous
 62
     7
390
5F
100
AcDbText
 10
21013.9431921592
 20
-4120.972584955249
 30
0.0
 40
13.4467440363109
  1
³
 41
0.9972772665729455
  7
symbol-
100
AcDbText
  0
TEXT
  5
262
330
1F
100
AcDbEntity
  8
Ech.1_5
  6
Continuous
 62
     7
390
5F
100
AcDbText
 10
21030.06779283328
 20
-4120.944443934133
 30
0.0
 40
14.17473656190131
  1
600
 41
0.985497156984467
  7
arial-
100
AcDbText
  0
TEXT
  5
263
330
1F
100
AcDbEntity
  8
Ech.1_5
  6
Continuous
 62
     7
390
5F
100
AcDbText
 10
20634.35351135692
 20
-4143.933573665447
 30
0.0
 40
13.96628455363805
  1
21 - 23
 41
0.9991302424108526
  7
arial-
100
AcDbText
  0
TEXT
  5
264
330
1F
100
AcDbEntity
  8
Ech.1_5
  6
Continuous
 62
     7
390
5F
100
AcDbText
 10
20845.29188252156
 20
-4143.932920044743
 30
0.0
 40
14.00473283033666
  1
5
 41
0.957479986250318
  7
arial-
100
AcDbText
  0
TEXT
  5
265
330
1F
100
AcDbEntity
  8
Ech.1_5
  6
Continuous
 62
     7
390
5F
100
AcDbText
 10
21028.32560995882
 20
-4143.932920044743
 30
0.0
 40
14.00473283033666
  1
5
 41
0.957479986250318
  7
arial-
100
AcDbText
  0
TEXT
  5
266
330
1F
100
AcDbEntity
  8
Ech.1_5
  6
Continuous
 62
     7
390
5F
100
AcDbText
 10
20634.35337642305
 20
-4167.795075051341
 30
0.0
 40
13.99078389325465
  1
24 - 27
 41
0.9976158911650291
  7
arial-
100
AcDbText
  0
TEXT
  5
267
330
1F
100
AcDbEntity
  8
Ech.1_5
  6
Continuous
 62
     7
390
5F
100
AcDbText
 10
20845.29188252156
 20
-4167.769824093662
 30
0.0
 40
14.00473283033666
  1
5
 41
0.957479986250318
  7
arial-
100
AcDbText
  0
TEXT
  5
268
330
1F
100
AcDbEntity
  8
Ech.1_5
  6
Continuous
 62
     7
390
5F
100
AcDbText
 10
21027.94904579875
 20
-4167.770477714366
 30
0.0
 40
13.96628455363805
  1
6
 41
1.007357357655256
  7
arial-
100
AcDbText
  0
TEXT
  5
269
330
1F
100
AcDbEntity
  8
Ech.1_5
  6
Continuous
 62
     7
390
5F
100
AcDbText
 10
20634.35445411526
 20
-4192.458699765033
 30
0.0
 40
13.96628455363805
  1
28 - 45
 41
0.997483841352266
  7
arial-
100
AcDbText
  0
TEXT
  5
26A
330
1F
100
AcDbEntity
  8
Ech.1_5
  6
Continuous
 62
     7
390
5F
100
AcDbText
 10
20844.91531836149
 20
-4192.458699765033
 30
0.0
 40
13.96628455363805
  1
6
 41
1.007357357655256
  7
arial-
100
AcDbText
  0
TEXT
  5
26B
330
1F
100
AcDbEntity
  8
Ech.1_5
  6
Continuous
 62
     7
390
5F
100
AcDbText
 10
21027.94904579875
 20
-4192.458699765033
 30
0.0
 40
13.96628455363805
  1
6
 41
1.007357357655256
  7
arial-
100
AcDbText
  0
LINE
  5
26C
330
1F
100
AcDbEntity
  8
Ech.1_5
  6
Continuous
 62
    18
420
        0
370
    20
390
5F
100
AcDbLine
 10
19504.33364439737
 20
-4124.260622071044
 30
0.0
 11
19817.35090327989
 21
-4124.260622071044
 31
0.0
  0
LINE
  5
26D
330
1F
100
AcDbEntity
  8
Ech.1_5
  6
Continuous
 62
    18
420
        0
370
    20
390
5F
100
AcDbLine
 10
19504.33364439737
 20
-4124.260622071044
 30
0.0
 11
19504.33364439737
 21
-4151.267636852281
 31
0.0
  0
LINE
  5
26E
330
1F
100
AcDbEntity
  8
Ech.1_5
  6
Continuous
 62
    18
420
        0
370
    20
390
5F
100
AcDbLine
 10
19817.35090327989
 20
-4124.260622071044
 30
0.0
 11
19956.84544063341
 21
-4124.260622071044
 31
0.0
  0
LINE
  5
26F
330
1F
100
AcDbEntity
  8
Ech.1_5
  6
Continuous
 62
    18
420
        0
370
    20
390
5F
100
AcDbLine
 10
19817.35090327989
 20
-4124.260622071044
 30
0.0
 11
19817.35090327989
 21
-4151.267636852281
 31
0.0
  0
LINE
  5
270
330
1F
100
AcDbEntity
  8
Ech.1_5
  6
Continuous
 62
    18
420
        0
370
    20
390
5F
100
AcDbLine
 10
19956.84544063341
 20
-4124.260622071044
 30
0.0
 11
20086.61762691271
 21
-4124.260622071044
 31
0.0
  0
LINE
  5
271
330
1F
100
AcDbEntity
  8
Ech.1_5
  6
Continuous
 62
    18
420
        0
370
    20
390
5F
100
AcDbLine
 10
19956.84544063341
 20
-4124.260622071044
 30
0.0
 11
19956.84544063341
 21
-4151.267636852281
 31
0.0
  0
LINE
  5
272
330
1F
100
AcDbEntity
  8
Ech.1_5
  6
Continuous
 62
    18
420
        0
370
    20
390
5F
100
AcDbLine
 10
20086.61762691271
 20
-4124.260622071044
 30
0.0
 11
20216.60114742052
 21
-4124.260622071044
 31
0.0
  0
LINE
  5
273
330
1F
100
AcDbEntity
  8
Ech.1_5
  6
Continuous
 62
    18
420
        0
370
    20
390
5F
100
AcDbLine
 10
20086.61762691271
 20
-4124.260622071044
 30
0.0
 11
20086.61762691271
 21
-4151.267636852281
 31
0.0
  0
LINE
  5
274
330
1F
100
AcDbEntity
  8
Ech.1_5
  6
Continuous
 62
    18
420
        0
370
    20
390
5F
100
AcDbLine
 10
20216.60114742052
 20
-4124.260622071044
 30
0.0
 11
20216.60114742052
 21
-4151.267636852281
 31
0.0
  0
LINE
  5
275
330
1F
100
AcDbEntity
  8
Ech.1_5
  6
Continuous
 62
    18
420
        0
370
    20
390
5F
100
AcDbLine
 10
19504.33364439737
 20
-4151.267636852281
 30
0.0
 11
19817.35090327989
 21
-4151.267636852281
 31
0.0
  0
LINE
  5
276
330
1F
100
AcDbEntity
  8
Ech.1_5
  6
Continuous
 62
    18
420
        0
370
    20
390
5F
100
AcDbLine
 10
19504.33364439737
 20
-4151.267636852281
 30
0.0
 11
19504.33364439737
 21
-4175.273871974961
 31
0.0
  0
LINE
  5
277
330
1F
100
AcDbEntity
  8
Ech.1_5
  6
Continuous
 62
    18
420
        0
370
     0
390
5F
100
AcDbLine
 10
19504.33364439737
 20
-4175.273871974961
 30
0.0
 11
19817.35090327989
 21
-4175.273871974961
 31
0.0
  0
LINE
  5
278
330
1F
100
AcDbEntity
  8
Ech.1_5
  6
Continuous
 62
    18
420
        0
370
    20
390
5F
100
AcDbLine
 10
19817.35090327989
 20
-4151.267636852281
 30
0.0
 11
19956.84544063341
 21
-4151.267636852281
 31
0.0
  0
LINE
  5
279
330
1F
100
AcDbEntity
  8
Ech.1_5
  6
Continuous
 62
    18
420
        0
370
    20
390
5F
100
AcDbLine
 10
19817.35090327989
 20
-4151.267636852281
 30
0.0
 11
19817.35090327989
 21
-4175.273871974961
 31
0.0
  0
LINE
  5
27A
330
1F
100
AcDbEntity
  8
Ech.1_5
  6
Continuous
 62
    18
420
        0
370
     0
390
5F
100
AcDbLine
 10
19817.35090327989
 20
-4175.273871974961
 30
0.0
 11
19956.84544063341
 21
-4175.273871974961
 31
0.0
  0
LINE
  5
27B
330
1F
100
AcDbEntity
  8
Ech.1_5
  6
Continuous
 62
    18
420
        0
370
    20
390
5F
100
AcDbLine
 10
19956.84544063341
 20
-4151.267636852281
 30
0.0
 11
20086.61762691271
 21
-4151.267636852281
 31
0.0
  0
LINE
  5
27C
330
1F
100
AcDbEntity
  8
Ech.1_5
  6
Continuous
 62
    18
420
        0
370
    20
390
5F
100
AcDbLine
 10
19956.84544063341
 20
-4151.267636852281
 30
0.0
 11
19956.84544063341
 21
-4175.273871974961
 31
0.0
  0
LINE
  5
27D
330
1F
100
AcDbEntity
  8
Ech.1_5
  6
Continuous
 62
    18
420
        0
370
     0
390
5F
100
AcDbLine
 10
19956.84544063341
 20
-4175.273871974961
 30
0.0
 11
20086.61762691271
 21
-4175.273871974961
 31
0.0
  0
LINE
  5
27E
330
1F
100
AcDbEntity
  8
Ech.1_5
  6
Continuous
 62
    18
420
        0
370
    20
390
5F
100
AcDbLine
 10
20086.61762691271
 20
-4151.267636852281
 30
0.0
 11
20216.60114742052
 21
-4151.267636852281
 31
0.0
  0
LINE
  5
27F
330
1F
100
AcDbEntity
  8
Ech.1_5
  6
Continuous
 62
    18
420
        0
370
    20
390
5F
100
AcDbLine
 10
20086.61762691271
 20
-4151.267636852281
 30
0.0
 11
20086.61762691271
 21
-4175.273871974961
 31
0.0
  0
LINE
  5
280
330
1F
100
AcDbEntity
  8
Ech.1_5
  6
Continuous
 62
    18
420
        0
370
    20
390
5F
100
AcDbLine
 10
20216.60114742052
 20
-4151.267636852281
 30
0.0
 11
20216.60114742052
 21
-4175.273871974961
 31
0.0
  0
LINE
  5
281
330
1F
100
AcDbEntity
  8
Ech.1_5
  6
Continuous
 62
    18
420
        0
370
     0
390
5F
100
AcDbLine
 10
20086.61762691271
 20
-4175.273871974961
 30
0.0
 11
20216.60114742052
 21
-4175.273871974961
 31
0.0
  0
TEXT
  5
282
330
1F
100
AcDbEntity
  8
Ech.1_5
  6
Continuous
 62
     7
390
5F
100
AcDbText
 10
19505.52076560602
 20
-4143.316222180591
 30
0.0
 40
14.69529588705879
  1
Humidité des lames
 41
0.9481278807757567
  7
arial-
100
AcDbText
  0
TEXT
  5
283
330
1F
100
AcDbEntity
  8
Ech.1_5
  6
Continuous
 62
     7
390
5F
100
AcDbText
 10
19847.35815872957
 20
-4145.811082677631
 30
0.0
 40
14.2351964902154
  1
12% à 17%
 41
0.9792081458935034
  7
arial-
100
AcDbText
  0
TEXT
  5
284
330
1F
100
AcDbEntity
  8
Ech.1_5
  6
Continuous
 62
     7
390
5F
100
AcDbText
 10
19979.87795907964
 20
-4143.024644644646
 30
0.0
 40
14.2351964902154
  1
18% à 22%
 41
0.9792081458935034
  7
arial-
100
AcDbText
  0
TEXT
  5
285
330
1F
100
AcDbEntity
  8
Ech.1_5
  6
Continuous
 62
     7
390
5F
100
AcDbText
 10
20122.96489294316
 20
-4143.039693280936
 30
0.0
 40
13.82847659049495
  1
>22% *
 41
1.01108907054663
  7
arial-
100
AcDbText
  0
TEXT
  5
286
330
1F
100
AcDbEntity
  8
Ech.1_5
  6
Continuous
 62
     7
390
5F
100
AcDbText
 10
19505.54877466235
 20
-4170.327658370918
 30
0.0
 40
13.90764725799779
  1
Epaisseur de la cale de pose (mm)
 41
1.001730870455089
  7
arial-
100
AcDbText
  0
TEXT
  5
287
330
1F
100
AcDbEntity
  8
Ech.1_5
  6
Continuous
 62
     7
390
5F
100
AcDbText
 10
19864.6176484652
 20
-4170.533589625811
 30
0.0
 40
14.06549749189913
  1
7 ou 6
 41
0.9934882867624478
  7
arial-
100
AcDbText
  0
TEXT
  5
288
330
1F
100
AcDbEntity
  8
Ech.1_5
  6
Continuous
 62
     7
390
5F
100
AcDbText
 10
19999.36365687382
 20
-4170.532412886356
 30
0.0
 40
14.13471745987107
  1
5 ou 4
 41
0.9875698889666606
  7
arial-
100
AcDbText
  0
TEXT
  5
289
330
1F
100
AcDbEntity
  8
Ech.1_5
  6
Continuous
 62
     7
390
5F
100
AcDbText
 10
20129.33813167173
 20
-4170.533589625811
 30
0.0
 40
14.06549749189913
  1
3 ou 2
 41
0.9865283007663137
  7
arial-
100
AcDbText
  0
HATCH
  5
28A
330
1F
100
AcDbEntity
  8
Ech.1_5
  6
Continuous
 62
    33
420
 12426362
440
 33554687
370
    20
390
5F
100
AcDbHatch
 10
0.0
 20
0.0
 30
0.0
210
0.0
220
0.0
230
1.0
  2
SOLID
 70
     1
 71
     0
 91
        1
 92
        3
 72
     0
 73
     1
 93
        4
 10
21243.08985282199
 20
-3593.507819912338
 10
21250.589852822
 20
-3569.507819912338
 10
21028.85926482883
 20
-3569.507819912338
 10
21021.35926482883
 20
-3593.507819912338
 97
        0
 75
     0
 76
     1
 98
        0
  0
LWPOLYLINE
  5
28B
330
1F
100
AcDbEntity
  8
Ech.1_5
  6
Continuous
 62
   190
370
     5
390
5F
100
AcDbPolyline
 90
        5
 70
     0
 43
0.0
 10
21243.08985282199
 20
-3593.507819912338
 10
21250.589852822
 20
-3569.507819912338
 10
21028.85926482883
 20
-3569.507819912338
 10
21021.35926482883
 20
-3593.507819912338
 10
21243.08985282199
 20
-3593.507819912338
  0
3DFACE
  5
28C
102
{ACAD_REACTORS
330
28D
102
}
330
1F
100
AcDbEntity
  8
Ech.1_5
  6
Continuous
 62
   190
370
    15
390
5F
100
AcDbFace
 10
21243.08985282199
 20
-3593.507819912338
 30
-265.0000000000077
 11
21250.589852822
 21
-3569.507819912338
 31
-265.0000000000077
 12
21028.85926482883
 22
-3569.507819912338
 32
-265.0000000000077
 13
21021.35926482883
 23
-3593.507819912338
 33
-265.0000000000077
  0
HATCH
  5
28E
330
1F
100
AcDbEntity
  8
Ech.1_5
  6
Continuous
 62
    33
420
 12426362
440
 33554687
370
    20
390
5F
100
AcDbHatch
 10
0.0
 20
0.0
 30
0.0
210
0.0
220
0.0
230
1.0
  2
SOLID
 70
     1
 71
     0
 91
        1
 92
        3
 72
     0
 73
     1
 93
        4
 10
21243.08985282199
 20
-3835.61172264273
 10
21250.589852822
 20
-3811.61172264273
 10
21028.85926482883
 20
-3811.61172264273
 10
21021.35926482883
 20
-3835.61172264273
 97
        0
 75
     0
 76
     1
 98
        0
  0
LWPOLYLINE
  5
28F
330
1F
100
AcDbEntity
  8
Ech.1_5
  6
Continuous
 62
   190
370
     5
390
5F
100
AcDbPolyline
 90
        5
 70
     0
 43
0.0
 10
21243.08985282199
 20
-3835.61172264273
 10
21250.589852822
 20
-3811.61172264273
 10
21028.85926482883
 20
-3811.61172264273
 10
21021.35926482883
 20
-3835.61172264273
 10
21243.08985282199
 20
-3835.61172264273
  0
3DFACE
  5
290
102
{ACAD_REACTORS
330
291
102
}
330
1F
100
AcDbEntity
  8
Ech.1_5
  6
Continuous
 62
   190
370
    15
390
5F
100
AcDbFace
 10
21243.08985282199
 20
-3835.61172264273
 30
-265.0000000000077
 11
21250.589852822
 21
-3811.61172264273
 31
-265.0000000000077
 12
21028.85926482883
 22
-3811.61172264273
 32
-265.0000000000077
 13
21021.35926482883
 23
-3835.61172264273
 33
-265.0000000000077
  0
HATCH
  5
292
330
1F
100
AcDbEntity
  8
Ech.1_5
  6
Continuous
 62
    43
440
 33554687
370
     5
390
5F
100
AcDbHatch
 10
0.0
 20
0.0
 30
0.0
210
0.0
220
0.0
230
1.0
  2
SOLID
 70
     1
 71
     0
 91
        1
 92
        3
 72
     0
 73
     1
 93
        4
 10
20487.72407068928
 20
-3305.912255337782
 10
20547.72407068928
 20
-3305.912255337782
 10
20547.72407068928
 20
-3245.912255337782
 10
20487.72407068928
 20
-3245.912255337782
 97
        0
 75
     0
 76
     1
 98
        0
  0
LINE
  5
293
330
1F
100
AcDbEntity
  8
Ech.1_5
  6
Continuous
 62
   190
370
    15
390
5F
100
AcDbLine
 10
20547.72407068928
 20
-3305.912255337782
 30
0.0
 11
20487.72407068928
 21
-3245.912255337782
 31
0.0
  0
LINE
  5
294
330
1F
100
AcDbEntity
  8
Ech.1_5
  6
Continuous
 62
   190
370
    15
390
5F
100
AcDbLine
 10
20547.72407068928
 20
-3245.912255337782
 30
0.0
 11
20487.72407068928
 21
-3305.912255337782
 31
0.0
  0
LWPOLYLINE
  5
295
330
1F
100
AcDbEntity
  8
Ech.1_5
  6
Continuous
 62
   190
370
    20
390
5F
100
AcDbPolyline
 90
        5
 70
     0
 43
0.0
 10
20487.72407068928
 20
-3305.912255337782
 10
20547.72407068928
 20
-3305.912255337782
 10
20547.72407068928
 20
-3245.912255337782
 10
20487.72407068928
 20
-3245.912255337782
 10
20487.72407068928
 20
-3305.912255337782
  0
LINE
  5
296
330
1F
100
AcDbEntity
  8
Ech.1_5
  6
Continuous
 62
    18
420
        0
370
    20
390
5F
100
AcDbLine
 10
20729.25475805024
 20
-3200.726879824651
 30
0.0
 11
20869.38334505776
 21
-3200.726879824651
 31
0.0
  0
LINE
  5
297
330
1F
100
AcDbEntity
  8
Ech.1_5
  6
Continuous
 62
    18
420
        0
370
    20
390
5F
100
AcDbLine
 10
20729.25475805024
 20
-3200.726879824651
 30
0.0
 11
20729.25475805024
 21
-3227.530484993709
 31
0.0
  0
LINE
  5
298
330
1F
100
AcDbEntity
  8
Ech.1_5
  6
Continuous
 62
    18
420
        0
370
    20
390
5F
100
AcDbLine
 10
20869.38334505776
 20
-3200.726879824651
 30
0.0
 11
21025.15223543862
 21
-3200.726879824651
 31
0.0
  0
LINE
  5
299
330
1F
100
AcDbEntity
  8
Ech.1_5
  6
Continuous
 62
    18
420
        0
370
    20
390
5F
100
AcDbLine
 10
20869.38334505776
 20
-3200.726879824651
 30
0.0
 11
20869.38334505776
 21
-3227.530484993709
 31
0.0
  0
LINE
  5
29A
330
1F
100
AcDbEntity
  8
Ech.1_5
  6
Continuous
 62
    18
420
        0
370
    20
390
5F
100
AcDbLine
 10
21025.15223543862
 20
-3200.726879824651
 30
0.0
 11
21170.56471102456
 21
-3200.726879824651
 31
0.0
  0
LINE
  5
29B
330
1F
100
AcDbEntity
  8
Ech.1_5
  6
Continuous
 62
    18
420
        0
370
    20
390
5F
100
AcDbLine
 10
21025.15223543862
 20
-3200.726879824651
 30
0.0
 11
21025.15223543862
 21
-3227.530484993709
 31
0.0
  0
LINE
  5
29C
330
1F
100
AcDbEntity
  8
Ech.1_5
  6
Continuous
 62
    18
420
        0
370
    20
390
5F
100
AcDbLine
 10
21170.56471102456
 20
-3200.726879824651
 30
0.0
 11
21306.88889925698
 21
-3200.726879824651
 31
0.0
  0
LINE
  5
29D
330
1F
100
AcDbEntity
  8
Ech.1_5
  6
Continuous
 62
    18
420
        0
370
    20
390
5F
100
AcDbLine
 10
21170.56471102456
 20
-3200.726879824651
 30
0.0
 11
21170.56471102456
 21
-3227.530484993709
 31
0.0
  0
LINE
  5
29E
330
1F
100
AcDbEntity
  8
Ech.1_5
  6
Continuous
 62
    18
420
        0
370
    20
390
5F
100
AcDbLine
 10
21306.88889925698
 20
-3200.726879824651
 30
0.0
 11
21306.88889925698
 21
-3227.530484993709
 31
0.0
  0
LINE
  5
29F
330
1F
100
AcDbEntity
  8
Ech.1_5
  6
Continuous
 62
    18
420
        0
370
    20
390
5F
100
AcDbLine
 10
20729.25475805024
 20
-3227.530484993709
 30
0.0
 11
20869.38334505776
 21
-3227.530484993709
 31
0.0
  0
LINE
  5
2A0
330
1F
100
AcDbEntity
  8
Ech.1_5
  6
Continuous
 62
    18
420
        0
370
    20
390
5F
100
AcDbLine
 10
20729.25475805024
 20
-3227.530484993709
 30
0.0
 11
20729.25475805024
 21
-3251.355911095394
 31
0.0
  0
LINE
  5
2A1
330
1F
100
AcDbEntity
  8
Ech.1_5
  6
Continuous
 62
    18
420
        0
370
    20
390
5F
100
AcDbLine
 10
20869.38334505776
 20
-3227.530484993709
 30
0.0
 11
21025.15223543862
 21
-3227.530484993709
 31
0.0
  0
LINE
  5
2A2
330
1F
100
AcDbEntity
  8
Ech.1_5
  6
Continuous
 62
    18
420
        0
370
    20
390
5F
100
AcDbLine
 10
20869.38334505776
 20
-3227.530484993709
 30
0.0
 11
20869.38334505776
 21
-3251.355911095394
 31
0.0
  0
LINE
  5
2A3
330
1F
100
AcDbEntity
  8
Ech.1_5
  6
Continuous
 62
    18
420
        0
370
    20
390
5F
100
AcDbLine
 10
21025.15223543862
 20
-3227.530484993709
 30
0.0
 11
21170.56471102456
 21
-3227.530484993709
 31
0.0
  0
LINE
  5
2A4
330
1F
100
AcDbEntity
  8
Ech.1_5
  6
Continuous
 62
    18
420
        0
370
    20
390
5F
100
AcDbLine
 10
21025.15223543862
 20
-3227.530484993709
 30
0.0
 11
21025.15223543862
 21
-3275.181339104427
 31
0.0
  0
LINE
  5
2A5
330
1F
100
AcDbEntity
  8
Ech.1_5
  6
Continuous
 62
    18
420
        0
370
    20
390
5F
100
AcDbLine
 10
21170.56471102456
 20
-3227.530484993709
 30
0.0
 11
21306.88889925698
 21
-3227.530484993709
 31
0.0
  0
LINE
  5
2A6
330
1F
100
AcDbEntity
  8
Ech.1_5
  6
Continuous
 62
    18
420
        0
370
    20
390
5F
100
AcDbLine
 10
21170.56471102456
 20
-3227.530484993709
 30
0.0
 11
21170.56471102456
 21
-3275.181339104427
 31
0.0
  0
LINE
  5
2A7
330
1F
100
AcDbEntity
  8
Ech.1_5
  6
Continuous
 62
    18
420
        0
370
    20
390
5F
100
AcDbLine
 10
21306.88889925698
 20
-3227.530484993709
 30
0.0
 11
21306.88889925698
 21
-3275.181339104427
 31
0.0
  0
LINE
  5
2A8
330
1F
100
AcDbEntity
  8
Ech.1_5
  6
Continuous
 62
    18
420
        0
370
    20
390
5F
100
AcDbLine
 10
20729.25475805024
 20
-3251.355911095394
 30
0.0
 11
20869.38334505776
 21
-3251.355911095394
 31
0.0
  0
LINE
  5
2A9
330
1F
100
AcDbEntity
  8
Ech.1_5
  6
Continuous
 62
    18
420
        0
370
    20
390
5F
100
AcDbLine
 10
20729.25475805024
 20
-3251.355911095394
 30
0.0
 11
20729.25475805024
 21
-3275.181339104427
 31
0.0
  0
LINE
  5
2AA
330
1F
100
AcDbEntity
  8
Ech.1_5
  6
Continuous
 62
    18
420
        0
370
    20
390
5F
100
AcDbLine
 10
20869.38334505776
 20
-3251.355911095394
 30
0.0
 11
21025.15223543862
 21
-3251.355911095394
 31
0.0
  0
LINE
  5
2AB
330
1F
100
AcDbEntity
  8
Ech.1_5
  6
Continuous
 62
    18
420
        0
370
    20
390
5F
100
AcDbLine
 10
20869.38334505776
 20
-3251.355911095394
 30
0.0
 11
20869.38334505776
 21
-3275.181339104427
 31
0.0
  0
LINE
  5
2AC
330
1F
100
AcDbEntity
  8
Ech.1_5
  6
Continuous
 62
    18
420
        0
370
    20
390
5F
100
AcDbLine
 10
20729.25475805024
 20
-3275.181339104427
 30
0.0
 11
20869.38334505776
 21
-3275.181339104427
 31
0.0
  0
LINE
  5
2AD
330
1F
100
AcDbEntity
  8
Ech.1_5
  6
Continuous
 62
    18
420
        0
370
    20
390
5F
100
AcDbLine
 10
20729.25475805024
 20
-3275.181339104427
 30
0.0
 11
20729.25475805024
 21
-3299.857677300228
 31
0.0
  0
LINE
  5
2AE
330
1F
100
AcDbEntity
  8
Ech.1_5
  6
Continuous
 62
    18
420
        0
370
    20
390
5F
100
AcDbLine
 10
20869.38334505776
 20
-3275.181339104427
 30
0.0
 11
21025.15223543862
 21
-3275.181339104427
 31
0.0
  0
LINE
  5
2AF
330
1F
100
AcDbEntity
  8
Ech.1_5
  6
Continuous
 62
    18
420
        0
370
    20
390
5F
100
AcDbLine
 10
20869.38334505776
 20
-3275.181339104427
 30
0.0
 11
20869.38334505776
 21
-3299.857677300228
 31
0.0
  0
LINE
  5
2B0
330
1F
100
AcDbEntity
  8
Ech.1_5
  6
Continuous
 62
    18
420
        0
370
    20
390
5F
100
AcDbLine
 10
21025.15223543862
 20
-3275.181339104427
 30
0.0
 11
21170.56471102456
 21
-3275.181339104427
 31
0.0
  0
LINE
  5
2B1
330
1F
100
AcDbEntity
  8
Ech.1_5
  6
Continuous
 62
    18
420
        0
370
    20
390
5F
100
AcDbLine
 10
21025.15223543862
 20
-3275.181339104427
 30
0.0
 11
21025.15223543862
 21
-3324.534007866634
 31
0.0
  0
LINE
  5
2B2
330
1F
100
AcDbEntity
  8
Ech.1_5
  6
Continuous
 62
    18
420
        0
370
    20
390
5F
100
AcDbLine
 10
21025.15223543862
 20
-3324.534007866634
 30
0.0
 11
21170.56471102456
 21
-3324.534007866634
 31
0.0
  0
LINE
  5
2B3
330
1F
100
AcDbEntity
  8
Ech.1_5
  6
Continuous
 62
    18
420
        0
370
    20
390
5F
100
AcDbLine
 10
21170.56471102456
 20
-3275.181339104427
 30
0.0
 11
21306.88889925698
 21
-3275.181339104427
 31
0.0
  0
LINE
  5
2B4
330
1F
100
AcDbEntity
  8
Ech.1_5
  6
Continuous
 62
    18
420
        0
370
    20
390
5F
100
AcDbLine
 10
21170.56471102456
 20
-3275.181339104427
 30
0.0
 11
21170.56471102456
 21
-3324.534007866634
 31
0.0
  0
LINE
  5
2B5
330
1F
100
AcDbEntity
  8
Ech.1_5
  6
Continuous
 62
    18
420
        0
370
    20
390
5F
100
AcDbLine
 10
21306.88889925698
 20
-3275.181339104427
 30
0.0
 11
21306.88889925698
 21
-3324.534007866634
 31
0.0
  0
LINE
  5
2B6
330
1F
100
AcDbEntity
  8
Ech.1_5
  6
Continuous
 62
    18
420
        0
370
    20
390
5F
100
AcDbLine
 10
21170.56471102456
 20
-3324.534007866634
 30
0.0
 11
21306.88889925698
 21
-3324.534007866634
 31
0.0
  0
LINE
  5
2B7
330
1F
100
AcDbEntity
  8
Ech.1_5
  6
Continuous
 62
    18
420
        0
370
    20
390
5F
100
AcDbLine
 10
20729.25475805024
 20
-3299.857677300228
 30
0.0
 11
20869.38334505776
 21
-3299.857677300228
 31
0.0
  0
LINE
  5
2B8
330
1F
100
AcDbEntity
  8
Ech.1_5
  6
Continuous
 62
    18
420
        0
370
    20
390
5F
100
AcDbLine
 10
20729.25475805024
 20
-3299.857677300228
 30
0.0
 11
20729.25475805024
 21
-3324.534007866634
 31
0.0
  0
LINE
  5
2B9
330
1F
100
AcDbEntity
  8
Ech.1_5
  6
Continuous
 62
    18
420
        0
370
    20
390
5F
100
AcDbLine
 10
20729.25475805024
 20
-3324.534007866634
 30
0.0
 11
20869.38334505776
 21
-3324.534007866634
 31
0.0
  0
LINE
  5
2BA
330
1F
100
AcDbEntity
  8
Ech.1_5
  6
Continuous
 62
    18
420
        0
370
    20
390
5F
100
AcDbLine
 10
20869.38334505776
 20
-3299.857677300228
 30
0.0
 11
21025.15223543862
 21
-3299.857677300228
 31
0.0
  0
LINE
  5
2BB
330
1F
100
AcDbEntity
  8
Ech.1_5
  6
Continuous
 62
    18
420
        0
370
    20
390
5F
100
AcDbLine
 10
20869.38334505776
 20
-3299.857677300228
 30
0.0
 11
20869.38334505776
 21
-3324.534007866634
 31
0.0
  0
LINE
  5
2BC
330
1F
100
AcDbEntity
  8
Ech.1_5
  6
Continuous
 62
    18
420
        0
370
    20
390
5F
100
AcDbLine
 10
20869.38334505776
 20
-3324.534007866634
 30
0.0
 11
21025.15223543862
 21
-3324.534007866634
 31
0.0
  0
TEXT
  5
2BD
330
1F
100
AcDbEntity
  8
Ech.1_5
  6
Continuous
 62
     7
390
5F
100
AcDbText
 10
20779.61944829662
 20
-3219.64785995149
 30
0.0
 40
14.02825854836017
  1
Lame
 41
0.9905558169363115
  7
arial-
100
AcDbText
  0
TEXT
  5
2BE
330
1F
100
AcDbEntity
  8
Ech.1_5
  6
Continuous
 62
     7
390
5F
100
AcDbText
 10
20916.60015201112
 20
-3222.231872360286
 30
0.0
 40
15.28872746450271
  1
Support
 41
0.9936007391459478
  7
arial-
100
AcDbText
  0
TEXT
  5
2BF
330
1F
100
AcDbEntity
  8
Ech.1_5
  6
Continuous
 62
     7
390
5F
100
AcDbText
 10
21048.00661003
 20
-3219.598736371708
 30
0.0
 40
13.95463322883885
  1
Ancrage (S)
 41
1.003039089869248
  7
arial-
100
AcDbText
  0
TEXT
  5
2C0
330
1F
100
AcDbEntity
  8
Ech.1_5
  6
Continuous
 62
     7
390
5F
100
AcDbText
 10
21197.32840565333
 20
-3221.175955262244
 30
0.0
 40
15.10199491531794
  1
Talon (R)
 41
1.005584197256638
  7
arial-
100
AcDbText
  0
TEXT
  5
2C1
330
1F
100
AcDbEntity
  8
Ech.1_5
  6
Continuous
 62
     7
390
5F
100
AcDbText
 10
20762.8093943236
 20
-3246.449230672244
 30
0.0
 40
14.16791156737041
  1
Résineux
 41
0.9819569378753187
  7
arial-
100
AcDbText
  0
TEXT
  5
2C2
330
1F
100
AcDbEntity
  8
Ech.1_5
  6
Continuous
 62
     7
390
5F
100
AcDbText
 10
20910.75813474632
 20
-3246.449230672244
 30
0.0
 40
14.16791156737041
  1
Résineux
 41
0.9819569378753187
  7
arial-
100
AcDbText
  0
TEXT
  5
2C3
330
1F
100
AcDbEntity
  8
Ech.1_5
  6
Continuous
 62
     7
390
5F
100
AcDbText
 10
21058.29456680181
 20
-3248.349136692095
 30
0.0
 40
14.19551715225961
  1
S
 41
0.9750903411245094
  7
arial-
100
AcDbText
  0
TEXT
  5
2C4
330
1F
100
AcDbEntity
  8
Ech.1_5
  6
Continuous
 62
     7
390
5F
100
AcDbText
 10
21075.94100852667
 20
-3248.458104601475
 30
0.0
 40
13.50919211169531
  1
³ 1,5
 41
0.9822403862599974
  7
symbol-
100
AcDbText
  0
TEXT
  5
2C5
330
1F
100
AcDbEntity
  8
Ech.1_5
  6
Continuous
 62
     7
390
5F
100
AcDbText
 10
21120.75719087401
 20
-3248.365649889072
 30
0.0
 40
14.05066216322673
  1
x e
 41
0.9894093474265879
  7
arial-
100
AcDbText
  0
TEXT
  5
2C6
330
1F
100
AcDbEntity
  8
Ech.1_5
  6
Continuous
 62
     7
390
5F
100
AcDbText
 10
21055.13300089701
 20
-3265.227772499142
 30
0.0
 40
10.29324315247997
  1
tolérance 5%
 41
0.9838657639110164
  7
arial-
100
AcDbText
  0
TEXT
  5
2C7
330
1F
100
AcDbEntity
  8
Ech.1_5
  6
Continuous
 62
     7
390
5F
100
AcDbText
 10
21204.5647928269
 20
-3248.377733458532
 30
0.0
 40
14.25271068513393
  1
R
 41
0.9616161381135613
  7
arial-
100
AcDbText
  0
TEXT
  5
2C8
330
1F
100
AcDbEntity
  8
Ech.1_5
  6
Continuous
 62
     7
390
5F
100
AcDbText
 10
21223.24962602247
 20
-3248.377733458532
 30
0.0
 40
13.44026956293318
  1
³
 41
0.9977576769607279
  7
symbol-
100
AcDbText
  0
TEXT
  5
2C9
330
1F
100
AcDbEntity
  8
Ech.1_5
  6
Continuous
 62
     7
390
5F
100
AcDbText
 10
21239.09668526942
 20
-3248.349605987038
 30
0.0
 40
14.16791156737041
  1
8 mm
 41
0.9814401184343314
  7
arial-
100
AcDbText
  0
TEXT
  5
2CA
330
1F
100
AcDbEntity
  8
Ech.1_5
  6
Continuous
 62
     7
390
5F
100
AcDbText
 10
20762.8093943236
 20
-3270.274657489184
 30
0.0
 40
14.16791156737041
  1
Résineux
 41
0.9819569378753187
  7
arial-
100
AcDbText
  0
TEXT
  5
2CB
330
1F
100
AcDbEntity
  8
Ech.1_5
  6
Continuous
 62
     7
390
5F
100
AcDbText
 10
20923.16135078104
 20
-3270.273541905596
 30
0.0
 40
14.23763554161928
  1
Feuillu
 41
0.9754306045008861
  7
arial-
100
AcDbText
  0
TEXT
  5
2CC
330
1F
100
AcDbEntity
  8
Ech.1_5
  6
Continuous
 62
     7
390
5F
100
AcDbText
 10
20775.21261035832
 20
-3294.311695747688
 30
0.0
 40
14.23763554161928
  1
Feuillu
 41
0.9754306045008861
  7
arial-
100
AcDbText
  0
TEXT
  5
2CD
330
1F
100
AcDbEntity
  8
Ech.1_5
  6
Continuous
 62
     7
390
5F
100
AcDbText
 10
20923.16135078104
 20
-3294.311695747688
 30
0.0
 40
14.23763554161928
  1
Feuillu
 41
0.9754306045008861
  7
arial-
100
AcDbText
  0
TEXT
  5
2CE
330
1F
100
AcDbEntity
  8
Ech.1_5
  6
Continuous
 62
     7
390
5F
100
AcDbText
 10
21058.29456680181
 20
-3295.999990325975
 30
0.0
 40
14.19551715225961
  1
S
 41
0.9750903411245094
  7
arial-
100
AcDbText
  0
TEXT
  5
2CF
330
1F
100
AcDbEntity
  8
Ech.1_5
  6
Continuous
 62
     7
390
5F
100
AcDbText
 10
21075.94201361417
 20
-3295.938297808425
 30
0.0
 40
13.3381896799017
  1
³ 2,2
 41
0.9930807903971696
  7
symbol-
100
AcDbText
  0
TEXT
  5
2D0
330
1F
100
AcDbEntity
  8
Ech.1_5
  6
Continuous
 62
     7
390
5F
100
AcDbText
 10
21120.75719087401
 20
-3296.01200731106
 30
0.0
 40
14.33167540649127
  1
x e
 41
0.9700091641437136
  7
arial-
100
AcDbText
  0
TEXT
  5
2D1
330
1F
100
AcDbEntity
  8
Ech.1_5
  6
Continuous
 62
     7
390
5F
100
AcDbText
 10
21055.13300089701
 20
-3312.878626133022
 30
0.0
 40
10.29324315247997
  1
tolérance 5%
 41
0.9838657639110164
  7
arial-
100
AcDbText
  0
TEXT
  5
2D2
330
1F
100
AcDbEntity
  8
Ech.1_5
  6
Continuous
 62
     7
390
5F
100
AcDbText
 10
21204.5647928269
 20
-3295.815860067261
 30
0.0
 40
14.03998365998268
  1
R
 41
0.9761860796001305
  7
arial-
100
AcDbText
  0
TEXT
  5
2D3
330
1F
100
AcDbEntity
  8
Ech.1_5
  6
Continuous
 62
     7
390
5F
100
AcDbText
 10
21223.24962602247
 20
-3295.815860067261
 30
0.0
 40
13.20854077736537
  1
³
 41
1.015262197609162
  7
symbol-
100
AcDbText
  0
TEXT
  5
2D4
330
1F
100
AcDbEntity
  8
Ech.1_5
  6
Continuous
 62
     7
390
5F
100
AcDbText
 10
21239.08253906598
 20
-3296.000459620919
 30
0.0
 40
14.16791156737041
  1
0 mm
 41
0.981733699085972
  7
arial-
100
AcDbText
  0
TEXT
  5
2D5
330
1F
100
AcDbEntity
  8
Ech.1_5
  6
Continuous
 62
     7
390
5F
100
AcDbText
 10
20775.21261035832
 20
-3318.778653671974
 30
0.0
 40
14.02825854836017
  1
Feuillu
 41
0.9899892702397055
  7
arial-
100
AcDbText
  0
TEXT
  5
2D6
330
1F
100
AcDbEntity
  8
Ech.1_5
  6
Continuous
 62
     7
390
5F
100
AcDbText
 10
20910.75813474632
 20
-3318.779752849921
 30
0.0
 40
13.95955992667378
  1
Résineux
 41
0.9966130115749503
  7
arial-
100
AcDbText
  0
TEXT
  5
2D7
330
1F
100
AcDbEntity
  8
Ech.1_5
  6
Continuous
 62
     7
390
5F
100
AcDbText
 10
20435.23602425552
 20
-3356.651300183263
 30
0.0
 40
12.57543321137085
  1
Longueur de vis
 41
0.9931946998719025
  7
arial-
100
AcDbText
  0
TEXT
  5
2D8
330
1F
100
AcDbEntity
  8
Ech.1_5
  6
Continuous
 62
     7
390
5F
100
AcDbText
 10
20568.62858619403
 20
-3356.746024225635
 30
0.0
 40
11.73162708679835
  1
³
 41
1.016443285196103
  7
symbol-
100
AcDbText
  0
TEXT
  5
2D9
330
1F
100
AcDbEntity
  8
Ech.1_5
  6
Continuous
 62
     7
390
5F
100
AcDbText
 10
20582.68140664572
 20
-3356.741939713303
 30
0.0
 40
12.6619882290783
  1
S+e
 41
0.9853051388716848
  7
arial-
100
AcDbText
  0
LWPOLYLINE
  5
2DA
102
{ACAD_REACTORS
330
229
330
22A
330
22B
102
}
330
1F
100
AcDbEntity
  8
Ech.1_5
  6
Continuous
 62
   190
370
    15
390
5F
100
AcDbPolyline
 90
        5
 70
     0
 43
0.0
 10
21333.47353496286
 20
-3111.444778382865
 10
20348.47353496285
 20
-3111.444778382865
 10
20348.47353496285
 20
-3015.927815377101
 10
21333.47353496286
 20
-3015.927815377101
 10
21333.47353496286
 20
-3111.444778382865
  0
LWPOLYLINE
  5
2DB
102
{ACAD_REACTORS
330
229
330
22A
330
22B
102
}
330
1F
100
AcDbEntity
  8
Ech.1_5
  6
Continuous
 62
   190
370
    15
390
5F
100
AcDbPolyline
 90
        5
 70
     0
 43
0.0
 10
21333.47353496286
 20
-4255.514743311884
 10
20348.47353496285
 20
-4255.514743311884
 10
20348.47353496285
 20
-4233.514743311884
 10
21333.47353496286
 20
-4233.514743311884
 10
21333.47353496286
 20
-4255.514743311884
  0
LWPOLYLINE
  5
2DC
102
{ACAD_REACTORS
330
229
330
22A
330
22B
102
}
330
1F
100
AcDbEntity
  8
Ech.1_5
  6
Continuous
 62
   190
370
    15
390
5F
100
AcDbPolyline
 90
        5
 70
     0
 43
0.0
 10
21333.47353496286
 20
-4312.385888542369
 10
20348.47353496285
 20
-4312.385888542369
 10
20348.47353496285
 20
-4288.658860231604
 10
21333.47353496286
 20
-4288.658860231604
 10
21333.47353496286
 20
-4312.385888542369
  0
LINE
  5
2DD
330
1F
100
AcDbEntity
  8
Ech.1_5
  6
Continuous
 62
   190
370
    20
390
5F
100
AcDbLine
 10
21010.41265548219
 20
-3628.536969821609
 30
0.0
 11
21040.02854763877
 21
-3533.766114920552
 31
0.0
  0
LINE
  5
2DE
330
1F
100
AcDbEntity
  8
Ech.1_5
  6
Continuous
 62
   190
370
    20
390
5F
100
AcDbLine
 10
21232.14324347535
 20
-3628.536969821609
 30
0.0
 11
21261.75913563193
 21
-3533.766114920552
 31
0.0
  0
LINE
  5
2DF
330
1F
100
AcDbEntity
  8
Ech.1_5
  6
Continuous
 62
   190
370
    20
390
5F
100
AcDbLine
 10
21010.41265548219
 20
-3870.640872552001
 30
0.0
 11
21040.02854763877
 21
-3775.870017650945
 31
0.0
  0
LWPOLYLINE
  5
2E0
102
{ACAD_REACTORS
330
22B
102
}
330
1F
100
AcDbEntity
  8
Ech.1_5
  6
Continuous
 62
   190
370
    15
390
5F
100
AcDbPolyline
 90
        5
 70
     0
 43
0.0
 10
21333.47353496286
 20
-4370.927815377101
 10
21333.47353496286
 20
-3015.927815377101
 10
20348.47353496285
 20
-3015.927815377101
 10
20348.47353496285
 20
-4370.927815377101
 10
21333.47353496286
 20
-4370.927815377101
  0
LINE
  5
2E1
102
{ACAD_REACTORS
330
229
330
22A
330
22B
102
}
330
1F
100
AcDbEntity
  8
Ech.1_5
  6
Continuous
 62
   190
370
    15
390
5F
100
AcDbLine
 10
20536.67809692582
 20
-4233.514743311884
 30
0.0
 11
20536.67809692582
 21
-4255.514743311884
 31
0.0
  0
LINE
  5
2E2
102
{ACAD_REACTORS
330
229
330
22A
330
22B
102
}
330
1F
100
AcDbEntity
  8
Ech.1_5
  6
Continuous
 62
   190
370
    15
390
5F
100
AcDbLine
 10
21193.67619955636
 20
-4233.514743311884
 30
0.0
 11
21193.67619955636
 21
-4255.514743311884
 31
0.0
  0
LINE
  5
2E3
102
{ACAD_REACTORS
330
229
330
22A
330
22B
102
}
330
1F
100
AcDbEntity
  8
Ech.1_5
  6
Continuous
 62
   190
370
    15
390
5F
100
AcDbLine
 10
20692.83331492118
 20
-4233.514743311884
 30
0.0
 11
20692.83331492118
 21
-4255.514743311884
 31
0.0
  0
LINE
  5
2E4
330
1F
100
AcDbEntity
  8
Ech.1_5
  6
Continuous
 62
   190
370
    20
390
5F
100
AcDbLine
 10
20400.13817670271
 20
-3280.941405247053
 30
0.0
 11
20429.75406885929
 21
-3186.170550345996
 31
0.0
  0
LINE
  5
2E5
330
1F
100
AcDbEntity
  8
Ech.1_5
  6
Continuous
 62
   190
370
    20
390
5F
100
AcDbLine
 10
20621.86876469586
 20
-3280.941405247053
 30
0.0
 11
20651.48465685244
 21
-3186.170550345996
 31
0.0
  0
LINE
  5
2E6
330
1F
100
AcDbEntity
  8
Ech.1_5
  6
Continuous
 62
   190
370
    20
390
5F
100
AcDbLine
 10
21232.14324347535
 20
-3870.640872552001
 30
0.0
 11
21261.75913563193
 21
-3775.870017650945
 31
0.0
  0
LINE
  5
2E7
102
{ACAD_REACTORS
330
2E8
330
2E9
102
}
330
1F
100
AcDbEntity
  8
ASSY
 62
   190
370
     5
390
5F
100
AcDbLine
 10
21126.48995407306
 20
-3573.998514580075
 30
0.0
 11
21126.48995407306
 21
-3600.540570418671
 31
0.0
  0
LINE
  5
2EA
102
{ACAD_REACTORS
330
2E9
102
}
330
1F
100
AcDbEntity
  8
ASSY
 62
   190
370
     5
390
5F
100
AcDbLine
 10
21126.17696490624
 20
-3573.536765966855
 30
0.0
 11
21126.48995407306
 21
-3573.998514580075
 31
0.0
  0
LINE
  5
2EB
102
{ACAD_REACTORS
330
2E8
330
2E9
102
}
330
1F
100
AcDbEntity
  8
ASSY
 62
   190
370
     5
390
5F
100
AcDbLine
 10
21129.68995407306
 20
-3573.998514580075
 30
0.0
 11
21129.68995407306
 21
-3598.990570418653
 31
0.0
  0
LINE
  5
2EC
102
{ACAD_REACTORS
330
2E9
102
}
330
1F
100
AcDbEntity
  8
ASSY
 62
   190
370
     5
390
5F
100
AcDbLine
 10
21130.00294323988
 20
-3573.536765966855
 30
0.0
 11
21129.68995407306
 21
-3573.998514580075
 31
0.0
  0
LWPOLYLINE
  5
2ED
102
{ACAD_REACTORS
330
2EE
102
}
330
1F
100
AcDbEntity
  8
Ech.1_5
  6
Continuous
 62
   190
370
    20
390
5F
100
AcDbPolyline
 90
        5
 70
     0
 43
0.0
 10
20412.82346219161
 20
-3359.284505162475
 10
20426.25281820711
 20
-3359.284505162475
 10
20412.82346219161
 20
-3336.262751993025
 10
20399.39410617613
 20
-3359.284505162475
 10
20412.82346219161
 20
-3359.284505162475
  0
LINE
  5
2EF
102
{ACAD_REACTORS
330
2F0
102
}
330
1F
100
AcDbEntity
  8
ASSY
 62
   190
370
    15
390
5F
100
AcDbLine
 10
20515.92407068927
 20
-3226.402950005548
 30
0.0
 11
20515.92407068927
 21
-3249.912255337782
 31
0.0
  0
LINE
  5
2F1
102
{ACAD_REACTORS
330
2F0
102
}
330
1F
100
AcDbEntity
  8
ASSY
 62
   190
370
    15
390
5F
100
AcDbLine
 10
20515.92407068927
 20
-3249.912255337782
 30
0.0
 11
20519.52407068927
 21
-3249.912255337782
 31
0.0
  0
LINE
  5
2F2
102
{ACAD_REACTORS
330
2F0
102
}
330
1F
100
AcDbEntity
  8
ASSY
 62
   190
370
    15
390
5F
100
AcDbLine
 10
20519.52407068927
 20
-3249.912255337782
 30
0.0
 11
20519.32407068928
 21
-3251.095005844138
 31
0.0
  0
LINE
  5
2F3
102
{ACAD_REACTORS
330
2F0
102
}
330
1F
100
AcDbEntity
  8
ASSY
 62
   190
370
    15
390
5F
100
AcDbLine
 10
20519.32407068928
 20
-3251.095005844138
 30
0.0
 11
20516.12407068928
 21
-3251.095005844138
 31
0.0
  0
LINE
  5
2F4
102
{ACAD_REACTORS
330
2F0
102
}
330
1F
100
AcDbEntity
  8
ASSY
 62
   190
370
    15
390
5F
100
AcDbLine
 10
20516.12407068928
 20
-3251.095005844138
 30
0.0
 11
20515.92407068927
 21
-3249.912255337782
 31
0.0
  0
ARC
  5
2F5
102
{ACAD_REACTORS
330
2F0
102
}
330
1F
100
AcDbEntity
  8
ASSY
 62
   190
370
    15
390
5F
100
AcDbCircle
 10
20520.52407068947
 20
-3226.402950005588
 30
0.0
 40
1.000000000200775
100
AcDbArc
 50
152.5000000024944
 51
179.9999999976811
  0
ARC
  5
2F6
102
{ACAD_REACTORS
330
2F0
102
}
330
1F
100
AcDbEntity
  8
ASSY
 62
   190
370
    15
390
5F
100
AcDbCircle
 10
20514.9240706892
 20
-3226.402950005543
 30
0.0
 40
1.00000000007383
100
AcDbArc
 50
0.000000000260551
 51
27.49999999839377
  0
LINE
  5
2F7
102
{ACAD_REACTORS
330
2F0
102
}
330
1F
100
AcDbEntity
  8
ASSY
 62
   190
370
    15
390
5F
100
AcDbLine
 10
20519.52407068927
 20
-3226.402950005548
 30
0.0
 11
20515.92407068927
 21
-3226.402950005548
 31
0.0
  0
LINE
  5
2F8
102
{ACAD_REACTORS
330
2F0
102
}
330
1F
100
AcDbEntity
  8
ASSY
 62
   190
370
    15
390
5F
100
AcDbLine
 10
20519.52407068927
 20
-3229.912255337782
 30
0.0
 11
20519.52407068927
 21
-3226.402950005548
 31
0.0
  0
LINE
  5
2F9
102
{ACAD_REACTORS
330
2F0
102
}
330
1F
100
AcDbEntity
  8
ASSY
 62
   190
370
    15
390
5F
100
AcDbLine
 10
20519.52407068927
 20
-3229.912255337782
 30
0.0
 11
20519.52407068927
 21
-3249.912255337782
 31
0.0
  0
LINE
  5
2FA
102
{ACAD_REACTORS
330
2F0
102
}
330
1F
100
AcDbEntity
  8
ASSY
 62
   190
370
    15
390
5F
100
AcDbLine
 10
20516.12407068928
 20
-3251.095005844138
 30
0.0
 11
20516.12407068928
 21
-3252.945005844114
 31
0.0
  0
LINE
  5
2FB
102
{ACAD_REACTORS
330
2F0
102
}
330
1F
100
AcDbEntity
  8
ASSY
 62
   190
370
    15
390
5F
100
AcDbLine
 10
20519.32407068928
 20
-3251.095005844138
 30
0.0
 11
20519.32407068928
 21
-3251.395005844126
 31
0.0
  0
LINE
  5
2FC
102
{ACAD_REACTORS
330
2FD
102
}
330
1F
100
AcDbEntity
  8
ASSY
 62
   190
370
    15
390
5F
100
AcDbLine
 10
21126.19854946876
 20
-3816.102417310496
 30
0.0
 11
21126.19854946876
 21
-3839.61172264273
 31
0.0
  0
LINE
  5
2FE
102
{ACAD_REACTORS
330
2FD
102
}
330
1F
100
AcDbEntity
  8
ASSY
 62
   190
370
    15
390
5F
100
AcDbLine
 10
21126.19854946876
 20
-3839.61172264273
 30
0.0
 11
21129.79854946876
 21
-3839.61172264273
 31
0.0
  0
LINE
  5
2FF
102
{ACAD_REACTORS
330
2FD
102
}
330
1F
100
AcDbEntity
  8
ASSY
 62
   190
370
    15
390
5F
100
AcDbLine
 10
21129.79854946876
 20
-3839.61172264273
 30
0.0
 11
21129.59854946876
 21
-3840.794473149057
 31
0.0
  0
LINE
  5
300
102
{ACAD_REACTORS
330
2FD
102
}
330
1F
100
AcDbEntity
  8
ASSY
 62
   190
370
    15
390
5F
100
AcDbLine
 10
21129.59854946876
 20
-3840.794473149057
 30
0.0
 11
21126.39854946877
 21
-3840.794473149057
 31
0.0
  0
LINE
  5
301
102
{ACAD_REACTORS
330
2FD
102
}
330
1F
100
AcDbEntity
  8
ASSY
 62
   190
370
    15
390
5F
100
AcDbLine
 10
21126.39854946877
 20
-3840.794473149057
 30
0.0
 11
21126.19854946876
 21
-3839.61172264273
 31
0.0
  0
ARC
  5
302
102
{ACAD_REACTORS
330
2FD
102
}
330
1F
100
AcDbEntity
  8
ASSY
 62
   190
370
    15
390
5F
100
AcDbCircle
 10
21130.79854946873
 20
-3816.102417310479
 30
0.0
 40
0.9999999999663081
100
AcDbArc
 50
152.4999999992466
 51
179.999999999036
  0
ARC
  5
303
102
{ACAD_REACTORS
330
2FD
102
}
330
1F
100
AcDbEntity
  8
ASSY
 62
   190
370
    15
390
5F
100
AcDbCircle
 10
21125.19854946892
 20
-3816.102417310434
 30
0.0
 40
0.999999999839363
100
AcDbArc
 50
0.0000000035434941
 51
27.50000000164158
  0
LINE
  5
304
102
{ACAD_REACTORS
330
2FD
102
}
330
1F
100
AcDbEntity
  8
ASSY
 62
   190
370
    15
390
5F
100
AcDbLine
 10
21129.79854946876
 20
-3816.102417310496
 30
0.0
 11
21126.19854946876
 21
-3816.102417310496
 31
0.0
  0
LINE
  5
305
102
{ACAD_REACTORS
330
2FD
102
}
330
1F
100
AcDbEntity
  8
ASSY
 62
   190
370
    15
390
5F
100
AcDbLine
 10
21129.79854946876
 20
-3819.61172264273
 30
0.0
 11
21129.79854946876
 21
-3816.102417310496
 31
0.0
  0
LINE
  5
306
102
{ACAD_REACTORS
330
2FD
102
}
330
1F
100
AcDbEntity
  8
ASSY
 62
   190
370
    15
390
5F
100
AcDbLine
 10
21129.79854946876
 20
-3819.61172264273
 30
0.0
 11
21129.79854946876
 21
-3839.61172264273
 31
0.0
  0
LINE
  5
307
102
{ACAD_REACTORS
330
2FD
102
}
330
1F
100
AcDbEntity
  8
ASSY
 62
   190
370
    15
390
5F
100
AcDbLine
 10
21126.39854946877
 20
-3840.794473149057
 30
0.0
 11
21126.39854946877
 21
-3842.644473149063
 31
0.0
  0
LINE
  5
308
102
{ACAD_REACTORS
330
2FD
102
}
330
1F
100
AcDbEntity
  8
ASSY
 62
   190
370
    15
390
5F
100
AcDbLine
 10
21129.59854946876
 20
-3840.794473149057
 30
0.0
 11
21129.59854946876
 21
-3841.094473149074
 31
0.0
  0
ARC
  5
309
102
{ACAD_REACTORS
330
2E8
330
2E9
102
}
330
1F
100
AcDbEntity
  8
ASSY
 62
   190
370
    15
390
5F
100
AcDbCircle
 10
21130.81536846634
 20
-3572.842383854527
 30
0.0
 40
0.3999999995974765
100
AcDbArc
 50
136.4999999919964
 51
152.5000000077988
  0
LINE
  5
30A
102
{ACAD_REACTORS
330
2E8
330
2E9
102
}
330
1F
100
AcDbEntity
  8
ASSY
 62
   190
370
    15
390
5F
100
AcDbLine
 10
21126.17696490624
 20
-3573.536765966855
 30
0.0
 11
21130.00294323988
 21
-3573.536765966855
 31
0.0
  0
LINE
  5
30B
102
{ACAD_REACTORS
330
2E8
330
2E9
102
}
330
1F
100
AcDbEntity
  8
ASSY
 62
   190
370
    15
390
5F
100
AcDbLine
 10
21130.52521871826
 20
-3572.567042024486
 30
0.0
 11
21125.65468942786
 21
-3572.567042024486
 31
0.0
  0
LINE
  5
30C
102
{ACAD_REACTORS
330
2E8
330
2E9
102
}
330
1F
100
AcDbEntity
  8
ASSY
 62
   190
370
    15
390
5F
100
AcDbLine
 10
21125.71934401272
 20
-3572.657684409467
 30
0.0
 11
21130.4605641334
 21
-3572.657684409467
 31
0.0
  0
LINE
  5
30D
102
{ACAD_REACTORS
330
2E8
330
2E9
102
}
330
1F
100
AcDbEntity
  8
ASSY
 62
   190
370
    15
390
5F
100
AcDbLine
 10
21130.46495407306
 20
-3570.127819912334
 30
0.0
 11
21129.06209961814
 21
-3572.07000700527
 31
0.0
  0
LINE
  5
30E
102
{ACAD_REACTORS
330
2E8
330
2E9
102
}
330
1F
100
AcDbEntity
  8
ASSY
 62
   190
370
    15
390
5F
100
AcDbLine
 10
21125.71495407306
 20
-3570.127819912334
 30
0.0
 11
21127.11780852798
 21
-3572.07000700527
 31
0.0
  0
LINE
  5
30F
102
{ACAD_REACTORS
330
2E8
330
2E9
102
}
330
1F
100
AcDbEntity
  8
ASSY
 62
   190
370
    15
390
5F
100
AcDbLine
 10
21130.93995407306
 20
-3570.127819912334
 30
0.0
 11
21130.07262182889
 21
-3571.98781991232
 31
0.0
  0
ARC
  5
310
102
{ACAD_REACTORS
330
2E8
330
2E9
102
}
330
1F
100
AcDbEntity
  8
ASSY
 62
   190
370
    15
390
5F
100
AcDbCircle
 10
21130.69236562199
 20
-3571.96999771078
 30
0.0
 40
0.6199999999634405
100
AcDbArc
 50
181.647221952083
 51
254.3600231524177
  0
ARC
  5
311
102
{ACAD_REACTORS
330
2E8
330
2E9
102
}
330
1F
100
AcDbEntity
  8
ASSY
 62
   190
370
    15
390
5F
100
AcDbCircle
 10
21128.08995407306
 20
-3571.3678199123
 30
0.0
 40
1.199222112185883
100
AcDbArc
 50
215.8408281059925
 51
324.1591718940075
  0
ARC
  5
312
102
{ACAD_REACTORS
330
2E8
330
2E9
102
}
330
1F
100
AcDbEntity
  8
ASSY
 62
   190
370
    15
390
5F
100
AcDbCircle
 10
21125.48754252411
 20
-3571.969997710762
 30
0.0
 40
0.6199999999871612
100
AcDbArc
 50
285.6399768490716
 51
358.3527780462948
  0
LINE
  5
313
102
{ACAD_REACTORS
330
2E8
330
2E9
102
}
330
1F
100
AcDbEntity
  8
ASSY
 62
   190
370
    15
390
5F
100
AcDbLine
 10
21125.23995407306
 20
-3570.127819912334
 30
0.0
 11
21126.10728631723
 21
-3571.98781991232
 31
0.0
  0
LINE
  5
314
102
{ACAD_REACTORS
330
2E8
330
2E9
102
}
330
1F
100
AcDbEntity
  8
ASSY
 62
   190
370
    15
390
5F
100
AcDbLine
 10
21126.48995407306
 20
-3622.240570418653
 30
0.0
 11
21126.48995407306
 21
-3620.690570418665
 31
0.0
  0
LINE
  5
315
102
{ACAD_REACTORS
330
2E8
330
2E9
102
}
330
1F
100
AcDbEntity
  8
ASSY
 62
   190
370
    15
390
5F
100
AcDbLine
 10
21129.68995407306
 20
-3620.690570418665
 30
0.0
 11
21129.68995407306
 21
-3619.140570418676
 31
0.0
  0
LINE
  5
316
102
{ACAD_REACTORS
330
2E8
330
2E9
102
}
330
1F
100
AcDbEntity
  8
ASSY
 62
   190
370
    15
390
5F
100
AcDbLine
 10
21126.48995407306
 20
-3619.140570418676
 30
0.0
 11
21125.58995407306
 21
-3619.915570418671
 31
0.0
  0
LINE
  5
317
102
{ACAD_REACTORS
330
2E8
330
2E9
102
}
330
1F
100
AcDbEntity
  8
ASSY
 62
   190
370
    15
390
5F
100
AcDbLine
 10
21125.58995407306
 20
-3619.915570418671
 30
0.0
 11
21126.48995407306
 21
-3620.690570418665
 31
0.0
  0
LINE
  5
318
102
{ACAD_REACTORS
330
2E8
330
2E9
102
}
330
1F
100
AcDbEntity
  8
ASSY
 62
   190
370
    15
390
5F
100
AcDbLine
 10
21126.48995407306
 20
-3620.690570418665
 30
0.0
 11
21129.68995407306
 21
-3619.140570418676
 31
0.0
  0
LINE
  5
319
102
{ACAD_REACTORS
330
2E8
330
2E9
102
}
330
1F
100
AcDbEntity
  8
ASSY
 62
   190
370
    15
390
5F
100
AcDbLine
 10
21125.58995407306
 20
-3619.915570418671
 30
0.0
 11
21130.58995407306
 21
-3618.365570418653
 31
0.0
  0
LINE
  5
31A
102
{ACAD_REACTORS
330
2E8
330
2E9
102
}
330
1F
100
AcDbEntity
  8
ASSY
 62
   190
370
    15
390
5F
100
AcDbLine
 10
21126.48995407306
 20
-3619.140570418676
 30
0.0
 11
21129.68995407306
 21
-3617.590570418659
 31
0.0
  0
LINE
  5
31B
102
{ACAD_REACTORS
330
2E8
330
2E9
102
}
330
1F
100
AcDbEntity
  8
ASSY
 62
   190
370
    15
390
5F
100
AcDbLine
 10
21129.68995407306
 20
-3617.590570418659
 30
0.0
 11
21130.58995407306
 21
-3618.365570418653
 31
0.0
  0
LINE
  5
31C
102
{ACAD_REACTORS
330
2E8
330
2E9
102
}
330
1F
100
AcDbEntity
  8
ASSY
 62
   190
370
    15
390
5F
100
AcDbLine
 10
21130.58995407306
 20
-3618.365570418653
 30
0.0
 11
21129.68995407306
 21
-3619.140570418676
 31
0.0
  0
LINE
  5
31D
102
{ACAD_REACTORS
330
2E8
330
2E9
102
}
330
1F
100
AcDbEntity
  8
ASSY
 62
   190
370
    15
390
5F
100
AcDbLine
 10
21126.48995407306
 20
-3619.140570418676
 30
0.0
 11
21126.48995407306
 21
-3617.590570418659
 31
0.0
  0
LINE
  5
31E
102
{ACAD_REACTORS
330
2E8
330
2E9
102
}
330
1F
100
AcDbEntity
  8
ASSY
 62
   190
370
    15
390
5F
100
AcDbLine
 10
21129.68995407306
 20
-3617.590570418659
 30
0.0
 11
21129.68995407306
 21
-3616.040570418671
 31
0.0
  0
LINE
  5
31F
102
{ACAD_REACTORS
330
2E8
330
2E9
102
}
330
1F
100
AcDbEntity
  8
ASSY
 62
   190
370
    15
390
5F
100
AcDbLine
 10
21126.48995407306
 20
-3616.040570418671
 30
0.0
 11
21125.58995407306
 21
-3616.815570418665
 31
0.0
  0
LINE
  5
320
102
{ACAD_REACTORS
330
2E8
330
2E9
102
}
330
1F
100
AcDbEntity
  8
ASSY
 62
   190
370
    15
390
5F
100
AcDbLine
 10
21125.58995407306
 20
-3616.815570418665
 30
0.0
 11
21126.48995407306
 21
-3617.590570418659
 31
0.0
  0
LINE
  5
321
102
{ACAD_REACTORS
330
2E8
330
2E9
102
}
330
1F
100
AcDbEntity
  8
ASSY
 62
   190
370
    15
390
5F
100
AcDbLine
 10
21126.48995407306
 20
-3617.590570418659
 30
0.0
 11
21129.68995407306
 21
-3616.040570418671
 31
0.0
  0
LINE
  5
322
102
{ACAD_REACTORS
330
2E8
330
2E9
102
}
330
1F
100
AcDbEntity
  8
ASSY
 62
   190
370
    15
390
5F
100
AcDbLine
 10
21125.58995407306
 20
-3616.815570418665
 30
0.0
 11
21130.58995407306
 21
-3615.265570418676
 31
0.0
  0
LINE
  5
323
102
{ACAD_REACTORS
330
2E8
330
2E9
102
}
330
1F
100
AcDbEntity
  8
ASSY
 62
   190
370
    15
390
5F
100
AcDbLine
 10
21126.48995407306
 20
-3616.040570418671
 30
0.0
 11
21129.68995407306
 21
-3614.490570418653
 31
0.0
  0
LINE
  5
324
102
{ACAD_REACTORS
330
2E8
330
2E9
102
}
330
1F
100
AcDbEntity
  8
ASSY
 62
   190
370
    15
390
5F
100
AcDbLine
 10
21129.68995407306
 20
-3614.490570418653
 30
0.0
 11
21130.58995407306
 21
-3615.265570418676
 31
0.0
  0
LINE
  5
325
102
{ACAD_REACTORS
330
2E8
330
2E9
102
}
330
1F
100
AcDbEntity
  8
ASSY
 62
   190
370
    15
390
5F
100
AcDbLine
 10
21130.58995407306
 20
-3615.265570418676
 30
0.0
 11
21129.68995407306
 21
-3616.040570418671
 31
0.0
  0
LINE
  5
326
102
{ACAD_REACTORS
330
2E8
330
2E9
102
}
330
1F
100
AcDbEntity
  8
ASSY
 62
   190
370
    15
390
5F
100
AcDbLine
 10
21126.48995407306
 20
-3616.040570418671
 30
0.0
 11
21126.48995407306
 21
-3614.490570418653
 31
0.0
  0
LINE
  5
327
102
{ACAD_REACTORS
330
2E8
330
2E9
102
}
330
1F
100
AcDbEntity
  8
ASSY
 62
   190
370
    15
390
5F
100
AcDbLine
 10
21129.68995407306
 20
-3614.490570418653
 30
0.0
 11
21129.68995407306
 21
-3612.940570418665
 31
0.0
  0
LINE
  5
328
102
{ACAD_REACTORS
330
2E8
330
2E9
102
}
330
1F
100
AcDbEntity
  8
ASSY
 62
   190
370
    15
390
5F
100
AcDbLine
 10
21126.48995407306
 20
-3612.940570418665
 30
0.0
 11
21125.58995407306
 21
-3613.715570418659
 31
0.0
  0
LINE
  5
329
102
{ACAD_REACTORS
330
2E8
330
2E9
102
}
330
1F
100
AcDbEntity
  8
ASSY
 62
   190
370
    15
390
5F
100
AcDbLine
 10
21125.58995407306
 20
-3613.715570418659
 30
0.0
 11
21126.48995407306
 21
-3614.490570418653
 31
0.0
  0
LINE
  5
32A
102
{ACAD_REACTORS
330
2E8
330
2E9
102
}
330
1F
100
AcDbEntity
  8
ASSY
 62
   190
370
    15
390
5F
100
AcDbLine
 10
21126.48995407306
 20
-3614.490570418653
 30
0.0
 11
21129.68995407306
 21
-3612.940570418665
 31
0.0
  0
LINE
  5
32B
102
{ACAD_REACTORS
330
2E8
330
2E9
102
}
330
1F
100
AcDbEntity
  8
ASSY
 62
   190
370
    15
390
5F
100
AcDbLine
 10
21125.58995407306
 20
-3613.715570418659
 30
0.0
 11
21130.58995407306
 21
-3612.165570418671
 31
0.0
  0
LINE
  5
32C
102
{ACAD_REACTORS
330
2E8
330
2E9
102
}
330
1F
100
AcDbEntity
  8
ASSY
 62
   190
370
    15
390
5F
100
AcDbLine
 10
21126.48995407306
 20
-3612.940570418665
 30
0.0
 11
21129.68995407306
 21
-3611.390570418676
 31
0.0
  0
LINE
  5
32D
102
{ACAD_REACTORS
330
2E8
330
2E9
102
}
330
1F
100
AcDbEntity
  8
ASSY
 62
   190
370
    15
390
5F
100
AcDbLine
 10
21129.68995407306
 20
-3611.390570418676
 30
0.0
 11
21130.58995407306
 21
-3612.165570418671
 31
0.0
  0
LINE
  5
32E
102
{ACAD_REACTORS
330
2E8
330
2E9
102
}
330
1F
100
AcDbEntity
  8
ASSY
 62
   190
370
    15
390
5F
100
AcDbLine
 10
21130.58995407306
 20
-3612.165570418671
 30
0.0
 11
21129.68995407306
 21
-3612.940570418665
 31
0.0
  0
LINE
  5
32F
102
{ACAD_REACTORS
330
2E8
330
2E9
102
}
330
1F
100
AcDbEntity
  8
ASSY
 62
   190
370
    15
390
5F
100
AcDbLine
 10
21126.48995407306
 20
-3612.940570418665
 30
0.0
 11
21126.48995407306
 21
-3611.390570418676
 31
0.0
  0
LINE
  5
330
102
{ACAD_REACTORS
330
2E8
330
2E9
102
}
330
1F
100
AcDbEntity
  8
ASSY
 62
   190
370
    15
390
5F
100
AcDbLine
 10
21129.68995407306
 20
-3611.390570418676
 30
0.0
 11
21129.68995407306
 21
-3609.840570418659
 31
0.0
  0
LINE
  5
331
102
{ACAD_REACTORS
330
2E8
330
2E9
102
}
330
1F
100
AcDbEntity
  8
ASSY
 62
   190
370
    15
390
5F
100
AcDbLine
 10
21126.48995407306
 20
-3609.840570418659
 30
0.0
 11
21125.58995407306
 21
-3610.615570418653
 31
0.0
  0
LINE
  5
332
102
{ACAD_REACTORS
330
2E8
330
2E9
102
}
330
1F
100
AcDbEntity
  8
ASSY
 62
   190
370
    15
390
5F
100
AcDbLine
 10
21125.58995407306
 20
-3610.615570418653
 30
0.0
 11
21126.48995407306
 21
-3611.390570418676
 31
0.0
  0
LINE
  5
333
102
{ACAD_REACTORS
330
2E8
330
2E9
102
}
330
1F
100
AcDbEntity
  8
ASSY
 62
   190
370
    15
390
5F
100
AcDbLine
 10
21126.48995407306
 20
-3611.390570418676
 30
0.0
 11
21129.68995407306
 21
-3609.840570418659
 31
0.0
  0
LINE
  5
334
102
{ACAD_REACTORS
330
2E8
330
2E9
102
}
330
1F
100
AcDbEntity
  8
ASSY
 62
   190
370
    15
390
5F
100
AcDbLine
 10
21125.58995407306
 20
-3610.615570418653
 30
0.0
 11
21130.58995407306
 21
-3609.065570418665
 31
0.0
  0
LINE
  5
335
102
{ACAD_REACTORS
330
2E8
330
2E9
102
}
330
1F
100
AcDbEntity
  8
ASSY
 62
   190
370
    15
390
5F
100
AcDbLine
 10
21126.48995407306
 20
-3609.840570418659
 30
0.0
 11
21129.68995407306
 21
-3608.290570418671
 31
0.0
  0
LINE
  5
336
102
{ACAD_REACTORS
330
2E8
330
2E9
102
}
330
1F
100
AcDbEntity
  8
ASSY
 62
   190
370
    15
390
5F
100
AcDbLine
 10
21129.68995407306
 20
-3608.290570418671
 30
0.0
 11
21130.58995407306
 21
-3609.065570418665
 31
0.0
  0
LINE
  5
337
102
{ACAD_REACTORS
330
2E8
330
2E9
102
}
330
1F
100
AcDbEntity
  8
ASSY
 62
   190
370
    15
390
5F
100
AcDbLine
 10
21130.58995407306
 20
-3609.065570418665
 30
0.0
 11
21129.68995407306
 21
-3609.840570418659
 31
0.0
  0
LINE
  5
338
102
{ACAD_REACTORS
330
2E8
330
2E9
102
}
330
1F
100
AcDbEntity
  8
ASSY
 62
   190
370
    15
390
5F
100
AcDbLine
 10
21126.48995407306
 20
-3609.840570418659
 30
0.0
 11
21126.48995407306
 21
-3608.290570418671
 31
0.0
  0
LINE
  5
339
102
{ACAD_REACTORS
330
2E8
330
2E9
102
}
330
1F
100
AcDbEntity
  8
ASSY
 62
   190
370
    15
390
5F
100
AcDbLine
 10
21129.68995407306
 20
-3608.290570418671
 30
0.0
 11
21129.68995407306
 21
-3606.740570418653
 31
0.0
  0
LINE
  5
33A
102
{ACAD_REACTORS
330
2E8
330
2E9
102
}
330
1F
100
AcDbEntity
  8
ASSY
 62
   190
370
    15
390
5F
100
AcDbLine
 10
21126.48995407306
 20
-3606.740570418653
 30
0.0
 11
21125.58995407306
 21
-3607.515570418676
 31
0.0
  0
LINE
  5
33B
102
{ACAD_REACTORS
330
2E8
330
2E9
102
}
330
1F
100
AcDbEntity
  8
ASSY
 62
   190
370
    15
390
5F
100
AcDbLine
 10
21125.58995407306
 20
-3607.515570418676
 30
0.0
 11
21126.48995407306
 21
-3608.290570418671
 31
0.0
  0
LINE
  5
33C
102
{ACAD_REACTORS
330
2E8
330
2E9
102
}
330
1F
100
AcDbEntity
  8
ASSY
 62
   190
370
    15
390
5F
100
AcDbLine
 10
21126.48995407306
 20
-3608.290570418671
 30
0.0
 11
21129.68995407306
 21
-3606.740570418653
 31
0.0
  0
LINE
  5
33D
102
{ACAD_REACTORS
330
2E8
330
2E9
102
}
330
1F
100
AcDbEntity
  8
ASSY
 62
   190
370
    15
390
5F
100
AcDbLine
 10
21125.58995407306
 20
-3607.515570418676
 30
0.0
 11
21130.58995407306
 21
-3605.965570418659
 31
0.0
  0
LINE
  5
33E
102
{ACAD_REACTORS
330
2E8
330
2E9
102
}
330
1F
100
AcDbEntity
  8
ASSY
 62
   190
370
    15
390
5F
100
AcDbLine
 10
21126.48995407306
 20
-3606.740570418653
 30
0.0
 11
21129.68995407306
 21
-3605.190570418665
 31
0.0
  0
LINE
  5
33F
102
{ACAD_REACTORS
330
2E8
330
2E9
102
}
330
1F
100
AcDbEntity
  8
ASSY
 62
   190
370
    15
390
5F
100
AcDbLine
 10
21129.68995407306
 20
-3605.190570418665
 30
0.0
 11
21130.58995407306
 21
-3605.965570418659
 31
0.0
  0
LINE
  5
340
102
{ACAD_REACTORS
330
2E8
330
2E9
102
}
330
1F
100
AcDbEntity
  8
ASSY
 62
   190
370
    15
390
5F
100
AcDbLine
 10
21130.58995407306
 20
-3605.965570418659
 30
0.0
 11
21129.68995407306
 21
-3606.740570418653
 31
0.0
  0
LINE
  5
341
102
{ACAD_REACTORS
330
2E8
330
2E9
102
}
330
1F
100
AcDbEntity
  8
ASSY
 62
   190
370
    15
390
5F
100
AcDbLine
 10
21126.48995407306
 20
-3606.740570418653
 30
0.0
 11
21126.48995407306
 21
-3605.190570418665
 31
0.0
  0
LINE
  5
342
102
{ACAD_REACTORS
330
2E8
330
2E9
102
}
330
1F
100
AcDbEntity
  8
ASSY
 62
   190
370
    15
390
5F
100
AcDbLine
 10
21129.68995407306
 20
-3605.190570418665
 30
0.0
 11
21129.68995407306
 21
-3603.640570418676
 31
0.0
  0
LINE
  5
343
102
{ACAD_REACTORS
330
2E8
330
2E9
102
}
330
1F
100
AcDbEntity
  8
ASSY
 62
   190
370
    15
390
5F
100
AcDbLine
 10
21126.48995407306
 20
-3603.640570418676
 30
0.0
 11
21125.58995407306
 21
-3604.415570418671
 31
0.0
  0
LINE
  5
344
102
{ACAD_REACTORS
330
2E8
330
2E9
102
}
330
1F
100
AcDbEntity
  8
ASSY
 62
   190
370
    15
390
5F
100
AcDbLine
 10
21125.58995407306
 20
-3604.415570418671
 30
0.0
 11
21126.48995407306
 21
-3605.190570418665
 31
0.0
  0
LINE
  5
345
102
{ACAD_REACTORS
330
2E8
330
2E9
102
}
330
1F
100
AcDbEntity
  8
ASSY
 62
   190
370
    15
390
5F
100
AcDbLine
 10
21126.48995407306
 20
-3605.190570418665
 30
0.0
 11
21129.68995407306
 21
-3603.640570418676
 31
0.0
  0
LINE
  5
346
102
{ACAD_REACTORS
330
2E8
330
2E9
102
}
330
1F
100
AcDbEntity
  8
ASSY
 62
   190
370
    15
390
5F
100
AcDbLine
 10
21125.58995407306
 20
-3604.415570418671
 30
0.0
 11
21130.58995407306
 21
-3602.865570418653
 31
0.0
  0
LINE
  5
347
102
{ACAD_REACTORS
330
2E8
330
2E9
102
}
330
1F
100
AcDbEntity
  8
ASSY
 62
   190
370
    15
390
5F
100
AcDbLine
 10
21126.48995407306
 20
-3603.640570418676
 30
0.0
 11
21129.68995407306
 21
-3602.090570418659
 31
0.0
  0
LINE
  5
348
102
{ACAD_REACTORS
330
2E8
330
2E9
102
}
330
1F
100
AcDbEntity
  8
ASSY
 62
   190
370
    15
390
5F
100
AcDbLine
 10
21129.68995407306
 20
-3602.090570418659
 30
0.0
 11
21130.58995407306
 21
-3602.865570418653
 31
0.0
  0
LINE
  5
349
102
{ACAD_REACTORS
330
2E8
330
2E9
102
}
330
1F
100
AcDbEntity
  8
ASSY
 62
   190
370
    15
390
5F
100
AcDbLine
 10
21130.58995407306
 20
-3602.865570418653
 30
0.0
 11
21129.68995407306
 21
-3603.640570418676
 31
0.0
  0
LINE
  5
34A
102
{ACAD_REACTORS
330
2E8
330
2E9
102
}
330
1F
100
AcDbEntity
  8
ASSY
 62
   190
370
    15
390
5F
100
AcDbLine
 10
21126.48995407306
 20
-3603.640570418676
 30
0.0
 11
21126.48995407306
 21
-3602.090570418659
 31
0.0
  0
LINE
  5
34B
102
{ACAD_REACTORS
330
2E8
330
2E9
102
}
330
1F
100
AcDbEntity
  8
ASSY
 62
   190
370
    15
390
5F
100
AcDbLine
 10
21129.68995407306
 20
-3602.090570418659
 30
0.0
 11
21129.68995407306
 21
-3600.540570418671
 31
0.0
  0
LINE
  5
34C
102
{ACAD_REACTORS
330
2E8
330
2E9
102
}
330
1F
100
AcDbEntity
  8
ASSY
 62
   190
370
    15
390
5F
100
AcDbLine
 10
21126.48995407306
 20
-3600.540570418671
 30
0.0
 11
21125.58995407306
 21
-3601.315570418665
 31
0.0
  0
LINE
  5
34D
102
{ACAD_REACTORS
330
2E8
330
2E9
102
}
330
1F
100
AcDbEntity
  8
ASSY
 62
   190
370
    15
390
5F
100
AcDbLine
 10
21125.58995407306
 20
-3601.315570418665
 30
0.0
 11
21126.48995407306
 21
-3602.090570418659
 31
0.0
  0
LINE
  5
34E
102
{ACAD_REACTORS
330
2E8
330
2E9
102
}
330
1F
100
AcDbEntity
  8
ASSY
 62
   190
370
    15
390
5F
100
AcDbLine
 10
21126.48995407306
 20
-3602.090570418659
 30
0.0
 11
21129.68995407306
 21
-3600.540570418671
 31
0.0
  0
LINE
  5
34F
102
{ACAD_REACTORS
330
2E8
330
2E9
102
}
330
1F
100
AcDbEntity
  8
ASSY
 62
   190
370
    15
390
5F
100
AcDbLine
 10
21125.58995407306
 20
-3601.315570418665
 30
0.0
 11
21130.58995407306
 21
-3599.765570418676
 31
0.0
  0
LINE
  5
350
102
{ACAD_REACTORS
330
2E8
330
2E9
102
}
330
1F
100
AcDbEntity
  8
ASSY
 62
   190
370
    15
390
5F
100
AcDbLine
 10
21126.48995407306
 20
-3600.540570418671
 30
0.0
 11
21129.68995407306
 21
-3598.990570418653
 31
0.0
  0
LINE
  5
351
102
{ACAD_REACTORS
330
2E8
330
2E9
102
}
330
1F
100
AcDbEntity
  8
ASSY
 62
   190
370
    15
390
5F
100
AcDbLine
 10
21129.68995407306
 20
-3598.990570418653
 30
0.0
 11
21130.58995407306
 21
-3599.765570418676
 31
0.0
  0
LINE
  5
352
102
{ACAD_REACTORS
330
2E8
330
2E9
102
}
330
1F
100
AcDbEntity
  8
ASSY
 62
   190
370
    15
390
5F
100
AcDbLine
 10
21130.58995407306
 20
-3599.765570418676
 30
0.0
 11
21129.68995407306
 21
-3600.540570418671
 31
0.0
  0
LINE
  5
353
102
{ACAD_REACTORS
330
354
330
2E9
102
}
330
1F
100
AcDbEntity
  8
ASSY
 62
   190
370
    15
390
5F
100
AcDbLine
 10
21126.48995407306
 20
-3592.349793141824
 30
0.0
 11
21126.48995407306
 21
-3590.799793141836
 31
0.0
  0
LINE
  5
355
102
{ACAD_REACTORS
330
354
330
2E9
102
}
330
1F
100
AcDbEntity
  8
ASSY
 62
   190
370
    15
390
5F
100
AcDbLine
 10
21129.68995407306
 20
-3587.699793141859
 30
0.0
 11
21129.68995407306
 21
-3586.149793141842
 31
0.0
  0
LINE
  5
356
102
{ACAD_REACTORS
330
354
330
2E9
102
}
330
1F
100
AcDbEntity
  8
ASSY
 62
   190
370
    15
390
5F
100
AcDbLine
 10
21126.48995407306
 20
-3586.149793141842
 30
0.0
 11
21125.58995407306
 21
-3586.924793141836
 31
0.0
  0
LINE
  5
357
102
{ACAD_REACTORS
330
354
330
2E9
102
}
330
1F
100
AcDbEntity
  8
ASSY
 62
   190
370
    15
390
5F
100
AcDbLine
 10
21125.58995407306
 20
-3586.924793141836
 30
0.0
 11
21126.48995407306
 21
-3587.699793141859
 31
0.0
  0
LINE
  5
358
102
{ACAD_REACTORS
330
354
330
2E9
102
}
330
1F
100
AcDbEntity
  8
ASSY
 62
   190
370
    15
390
5F
100
AcDbLine
 10
21126.48995407306
 20
-3587.699793141859
 30
0.0
 11
21129.68995407306
 21
-3586.149793141842
 31
0.0
  0
LINE
  5
359
102
{ACAD_REACTORS
330
354
330
2E9
102
}
330
1F
100
AcDbEntity
  8
ASSY
 62
   190
370
    15
390
5F
100
AcDbLine
 10
21125.58995407306
 20
-3586.924793141836
 30
0.0
 11
21130.58995407306
 21
-3585.374793141847
 31
0.0
  0
LINE
  5
35A
102
{ACAD_REACTORS
330
354
330
2E9
102
}
330
1F
100
AcDbEntity
  8
ASSY
 62
   190
370
    15
390
5F
100
AcDbLine
 10
21126.48995407306
 20
-3586.149793141842
 30
0.0
 11
21129.68995407306
 21
-3584.599793141824
 31
0.0
  0
LINE
  5
35B
102
{ACAD_REACTORS
330
354
330
2E9
102
}
330
1F
100
AcDbEntity
  8
ASSY
 62
   190
370
    15
390
5F
100
AcDbLine
 10
21129.68995407306
 20
-3584.599793141824
 30
0.0
 11
21130.58995407306
 21
-3585.374793141847
 31
0.0
  0
LINE
  5
35C
102
{ACAD_REACTORS
330
354
330
2E9
102
}
330
1F
100
AcDbEntity
  8
ASSY
 62
   190
370
    15
390
5F
100
AcDbLine
 10
21130.58995407306
 20
-3585.374793141847
 30
0.0
 11
21129.68995407306
 21
-3586.149793141842
 31
0.0
  0
LINE
  5
35D
102
{ACAD_REACTORS
330
354
330
2E9
102
}
330
1F
100
AcDbEntity
  8
ASSY
 62
   190
370
    15
390
5F
100
AcDbLine
 10
21126.48995407306
 20
-3586.149793141842
 30
0.0
 11
21126.48995407306
 21
-3584.599793141824
 31
0.0
  0
LINE
  5
35E
102
{ACAD_REACTORS
330
354
330
2E9
102
}
330
1F
100
AcDbEntity
  8
ASSY
 62
   190
370
    15
390
5F
100
AcDbLine
 10
21129.68995407306
 20
-3584.599793141824
 30
0.0
 11
21129.68995407306
 21
-3583.049793141836
 31
0.0
  0
LINE
  5
35F
102
{ACAD_REACTORS
330
354
330
2E9
102
}
330
1F
100
AcDbEntity
  8
ASSY
 62
   190
370
    15
390
5F
100
AcDbLine
 10
21126.48995407306
 20
-3583.049793141836
 30
0.0
 11
21125.58995407306
 21
-3583.824793141859
 31
0.0
  0
LINE
  5
360
102
{ACAD_REACTORS
330
354
330
2E9
102
}
330
1F
100
AcDbEntity
  8
ASSY
 62
   190
370
    15
390
5F
100
AcDbLine
 10
21125.58995407306
 20
-3583.824793141859
 30
0.0
 11
21126.48995407306
 21
-3584.599793141824
 31
0.0
  0
LINE
  5
361
102
{ACAD_REACTORS
330
354
330
2E9
102
}
330
1F
100
AcDbEntity
  8
ASSY
 62
   190
370
    15
390
5F
100
AcDbLine
 10
21126.48995407306
 20
-3584.599793141824
 30
0.0
 11
21129.68995407306
 21
-3583.049793141836
 31
0.0
  0
LINE
  5
362
102
{ACAD_REACTORS
330
354
330
2E9
102
}
330
1F
100
AcDbEntity
  8
ASSY
 62
   190
370
    15
390
5F
100
AcDbLine
 10
21125.58995407306
 20
-3583.824793141859
 30
0.0
 11
21130.58995407306
 21
-3582.274793141842
 31
0.0
  0
LINE
  5
363
102
{ACAD_REACTORS
330
354
330
2E9
102
}
330
1F
100
AcDbEntity
  8
ASSY
 62
   190
370
    15
390
5F
100
AcDbLine
 10
21126.48995407306
 20
-3583.049793141836
 30
0.0
 11
21129.68995407306
 21
-3581.499793141847
 31
0.0
  0
LINE
  5
364
102
{ACAD_REACTORS
330
354
330
2E9
102
}
330
1F
100
AcDbEntity
  8
ASSY
 62
   190
370
    15
390
5F
100
AcDbLine
 10
21129.68995407306
 20
-3581.499793141847
 30
0.0
 11
21130.58995407306
 21
-3582.274793141842
 31
0.0
  0
LINE
  5
365
102
{ACAD_REACTORS
330
354
330
2E9
102
}
330
1F
100
AcDbEntity
  8
ASSY
 62
   190
370
    15
390
5F
100
AcDbLine
 10
21130.58995407306
 20
-3582.274793141842
 30
0.0
 11
21129.68995407306
 21
-3583.049793141836
 31
0.0
  0
LINE
  5
366
102
{ACAD_REACTORS
330
354
330
2E9
102
}
330
1F
100
AcDbEntity
  8
ASSY
 62
   190
370
    15
390
5F
100
AcDbLine
 10
21126.48995407306
 20
-3583.049793141836
 30
0.0
 11
21126.48995407306
 21
-3581.499793141847
 31
0.0
  0
LINE
  5
367
102
{ACAD_REACTORS
330
354
330
2E9
102
}
330
1F
100
AcDbEntity
  8
ASSY
 62
   190
370
    15
390
5F
100
AcDbLine
 10
21129.68995407306
 20
-3581.499793141847
 30
0.0
 11
21129.68995407306
 21
-3579.949793141859
 31
0.0
  0
LINE
  5
368
102
{ACAD_REACTORS
330
354
330
2E9
102
}
330
1F
100
AcDbEntity
  8
ASSY
 62
   190
370
    15
390
5F
100
AcDbLine
 10
21126.48995407306
 20
-3579.949793141859
 30
0.0
 11
21125.58995407306
 21
-3580.724793141824
 31
0.0
  0
LINE
  5
369
102
{ACAD_REACTORS
330
354
330
2E9
102
}
330
1F
100
AcDbEntity
  8
ASSY
 62
   190
370
    15
390
5F
100
AcDbLine
 10
21125.58995407306
 20
-3580.724793141824
 30
0.0
 11
21126.48995407306
 21
-3581.499793141847
 31
0.0
  0
LINE
  5
36A
102
{ACAD_REACTORS
330
354
330
2E9
102
}
330
1F
100
AcDbEntity
  8
ASSY
 62
   190
370
    15
390
5F
100
AcDbLine
 10
21126.48995407306
 20
-3581.499793141847
 30
0.0
 11
21129.68995407306
 21
-3579.949793141859
 31
0.0
  0
LINE
  5
36B
102
{ACAD_REACTORS
330
354
330
2E9
102
}
330
1F
100
AcDbEntity
  8
ASSY
 62
   190
370
    15
390
5F
100
AcDbLine
 10
21125.58995407306
 20
-3580.724793141824
 30
0.0
 11
21130.58995407306
 21
-3579.174793141836
 31
0.0
  0
LINE
  5
36C
102
{ACAD_REACTORS
330
354
330
2E9
102
}
330
1F
100
AcDbEntity
  8
ASSY
 62
   190
370
    15
390
5F
100
AcDbLine
 10
21126.48995407306
 20
-3579.949793141859
 30
0.0
 11
21129.68995407306
 21
-3578.399793141842
 31
0.0
  0
LINE
  5
36D
102
{ACAD_REACTORS
330
354
330
2E9
102
}
330
1F
100
AcDbEntity
  8
ASSY
 62
   190
370
    15
390
5F
100
AcDbLine
 10
21129.68995407306
 20
-3578.399793141842
 30
0.0
 11
21130.58995407306
 21
-3579.174793141836
 31
0.0
  0
LINE
  5
36E
102
{ACAD_REACTORS
330
354
330
2E9
102
}
330
1F
100
AcDbEntity
  8
ASSY
 62
   190
370
    15
390
5F
100
AcDbLine
 10
21130.58995407306
 20
-3579.174793141836
 30
0.0
 11
21129.68995407306
 21
-3579.949793141859
 31
0.0
  0
LINE
  5
36F
102
{ACAD_REACTORS
330
354
330
2E9
102
}
330
1F
100
AcDbEntity
  8
ASSY
 62
   190
370
    15
390
5F
100
AcDbLine
 10
21126.48995407306
 20
-3579.949793141859
 30
0.0
 11
21126.48995407306
 21
-3578.399793141842
 31
0.0
  0
LINE
  5
370
102
{ACAD_REACTORS
330
354
330
2E9
102
}
330
1F
100
AcDbEntity
  8
ASSY
 62
   190
370
    15
390
5F
100
AcDbLine
 10
21129.68995407306
 20
-3578.399793141842
 30
0.0
 11
21129.68995407306
 21
-3576.849793141824
 31
0.0
  0
LINE
  5
371
102
{ACAD_REACTORS
330
354
330
2E9
102
}
330
1F
100
AcDbEntity
  8
ASSY
 62
   190
370
    15
390
5F
100
AcDbLine
 10
21126.48995407306
 20
-3576.849793141824
 30
0.0
 11
21125.58995407306
 21
-3577.624793141847
 31
0.0
  0
LINE
  5
372
102
{ACAD_REACTORS
330
354
330
2E9
102
}
330
1F
100
AcDbEntity
  8
ASSY
 62
   190
370
    15
390
5F
100
AcDbLine
 10
21125.58995407306
 20
-3577.624793141847
 30
0.0
 11
21126.48995407306
 21
-3578.399793141842
 31
0.0
  0
LINE
  5
373
102
{ACAD_REACTORS
330
354
330
2E9
102
}
330
1F
100
AcDbEntity
  8
ASSY
 62
   190
370
    15
390
5F
100
AcDbLine
 10
21126.48995407306
 20
-3578.399793141842
 30
0.0
 11
21129.68995407306
 21
-3576.849793141824
 31
0.0
  0
LINE
  5
374
102
{ACAD_REACTORS
330
354
330
2E9
102
}
330
1F
100
AcDbEntity
  8
ASSY
 62
   190
370
    15
390
5F
100
AcDbLine
 10
21125.58995407306
 20
-3577.624793141847
 30
0.0
 11
21130.58995407306
 21
-3576.074793141859
 31
0.0
  0
LINE
  5
375
102
{ACAD_REACTORS
330
354
330
2E9
102
}
330
1F
100
AcDbEntity
  8
ASSY
 62
   190
370
    15
390
5F
100
AcDbLine
 10
21126.48995407306
 20
-3576.849793141824
 30
0.0
 11
21129.68995407306
 21
-3575.299793141836
 31
0.0
  0
LINE
  5
376
102
{ACAD_REACTORS
330
354
330
2E9
102
}
330
1F
100
AcDbEntity
  8
ASSY
 62
   190
370
    15
390
5F
100
AcDbLine
 10
21129.68995407306
 20
-3575.299793141836
 30
0.0
 11
21130.58995407306
 21
-3576.074793141859
 31
0.0
  0
LINE
  5
377
102
{ACAD_REACTORS
330
354
330
2E9
102
}
330
1F
100
AcDbEntity
  8
ASSY
 62
   190
370
    15
390
5F
100
AcDbLine
 10
21130.58995407306
 20
-3576.074793141859
 30
0.0
 11
21129.68995407306
 21
-3576.849793141824
 31
0.0
  0
LINE
  5
378
102
{ACAD_REACTORS
330
2F0
102
}
330
1F
100
AcDbEntity
  8
ASSY
 62
   190
370
    15
390
5F
100
AcDbLine
 10
20517.72407068928
 20
-3291.912255337782
 30
0.0
 11
20518.88452968656
 21
-3287.25790851732
 31
0.0
  0
LINE
  5
379
102
{ACAD_REACTORS
330
2F0
102
}
330
1F
100
AcDbEntity
  8
ASSY
 62
   190
370
    15
390
5F
100
AcDbLine
 10
20517.72407068928
 20
-3291.912255337782
 30
0.0
 11
20516.81370193807
 21
-3288.260965708003
 31
0.0
  0
LINE
  5
37A
102
{ACAD_REACTORS
330
2F0
102
}
330
1F
100
AcDbEntity
  8
ASSY
 62
   190
370
    15
390
5F
100
AcDbLine
 10
20519.32407068928
 20
-3285.495005844132
 30
0.0
 11
20519.32407068928
 21
-3283.945005844114
 31
0.0
  0
LINE
  5
37B
102
{ACAD_REACTORS
330
2F0
102
}
330
1F
100
AcDbEntity
  8
ASSY
 62
   190
370
    15
390
5F
100
AcDbLine
 10
20516.12407068928
 20
-3283.945005844114
 30
0.0
 11
20516.12407068928
 21
-3282.395005844126
 31
0.0
  0
LINE
  5
37C
102
{ACAD_REACTORS
330
2F0
102
}
330
1F
100
AcDbEntity
  8
ASSY
 62
   190
370
    15
390
5F
100
AcDbLine
 10
20519.32407068928
 20
-3282.395005844126
 30
0.0
 11
20520.22407068928
 21
-3283.17000584412
 31
0.0
  0
LINE
  5
37D
102
{ACAD_REACTORS
330
2F0
102
}
330
1F
100
AcDbEntity
  8
ASSY
 62
   190
370
    15
390
5F
100
AcDbLine
 10
20520.22407068928
 20
-3283.17000584412
 30
0.0
 11
20519.32407068928
 21
-3283.945005844114
 31
0.0
  0
LINE
  5
37E
102
{ACAD_REACTORS
330
2F0
102
}
330
1F
100
AcDbEntity
  8
ASSY
 62
   190
370
    15
390
5F
100
AcDbLine
 10
20516.12407068928
 20
-3283.945005844114
 30
0.0
 11
20515.22407068928
 21
-3284.720005844138
 31
0.0
  0
LINE
  5
37F
102
{ACAD_REACTORS
330
2F0
102
}
330
1F
100
AcDbEntity
  8
ASSY
 62
   190
370
    15
390
5F
100
AcDbLine
 10
20515.22407068928
 20
-3284.720005844138
 30
0.0
 11
20516.12407068928
 21
-3285.495005844132
 31
0.0
  0
LINE
  5
380
102
{ACAD_REACTORS
330
2F0
102
}
330
1F
100
AcDbEntity
  8
ASSY
 62
   190
370
    15
390
5F
100
AcDbLine
 10
20516.12407068928
 20
-3285.495005844132
 30
0.0
 11
20519.32407068928
 21
-3283.945005844114
 31
0.0
  0
LINE
  5
381
102
{ACAD_REACTORS
330
2F0
102
}
330
1F
100
AcDbEntity
  8
ASSY
 62
   190
370
    15
390
5F
100
AcDbLine
 10
20516.12407068928
 20
-3283.945005844114
 30
0.0
 11
20519.32407068928
 21
-3282.395005844126
 31
0.0
  0
LINE
  5
382
102
{ACAD_REACTORS
330
2F0
102
}
330
1F
100
AcDbEntity
  8
ASSY
 62
   190
370
    15
390
5F
100
AcDbLine
 10
20515.22407068928
 20
-3284.720005844138
 30
0.0
 11
20520.22407068928
 21
-3283.17000584412
 31
0.0
  0
LINE
  5
383
102
{ACAD_REACTORS
330
2F0
102
}
330
1F
100
AcDbEntity
  8
ASSY
 62
   190
370
    15
390
5F
100
AcDbLine
 10
20519.32407068928
 20
-3282.395005844126
 30
0.0
 11
20519.32407068928
 21
-3280.845005844138
 31
0.0
  0
LINE
  5
384
102
{ACAD_REACTORS
330
2F0
102
}
330
1F
100
AcDbEntity
  8
ASSY
 62
   190
370
    15
390
5F
100
AcDbLine
 10
20516.12407068928
 20
-3280.845005844138
 30
0.0
 11
20516.12407068928
 21
-3279.29500584412
 31
0.0
  0
LINE
  5
385
102
{ACAD_REACTORS
330
2F0
102
}
330
1F
100
AcDbEntity
  8
ASSY
 62
   190
370
    15
390
5F
100
AcDbLine
 10
20516.12407068928
 20
-3280.845005844138
 30
0.0
 11
20515.22407068928
 21
-3281.620005844132
 31
0.0
  0
LINE
  5
386
102
{ACAD_REACTORS
330
2F0
102
}
330
1F
100
AcDbEntity
  8
ASSY
 62
   190
370
    15
390
5F
100
AcDbLine
 10
20515.22407068928
 20
-3281.620005844132
 30
0.0
 11
20516.12407068928
 21
-3282.395005844126
 31
0.0
  0
LINE
  5
387
102
{ACAD_REACTORS
330
2F0
102
}
330
1F
100
AcDbEntity
  8
ASSY
 62
   190
370
    15
390
5F
100
AcDbLine
 10
20516.12407068928
 20
-3282.395005844126
 30
0.0
 11
20519.32407068928
 21
-3280.845005844138
 31
0.0
  0
LINE
  5
388
102
{ACAD_REACTORS
330
2F0
102
}
330
1F
100
AcDbEntity
  8
ASSY
 62
   190
370
    15
390
5F
100
AcDbLine
 10
20515.22407068928
 20
-3281.620005844132
 30
0.0
 11
20520.22407068928
 21
-3280.070005844114
 31
0.0
  0
LINE
  5
389
102
{ACAD_REACTORS
330
2F0
102
}
330
1F
100
AcDbEntity
  8
ASSY
 62
   190
370
    15
390
5F
100
AcDbLine
 10
20516.12407068928
 20
-3280.845005844138
 30
0.0
 11
20519.32407068928
 21
-3279.29500584412
 31
0.0
  0
LINE
  5
38A
102
{ACAD_REACTORS
330
2F0
102
}
330
1F
100
AcDbEntity
  8
ASSY
 62
   190
370
    15
390
5F
100
AcDbLine
 10
20519.32407068928
 20
-3279.29500584412
 30
0.0
 11
20520.22407068928
 21
-3280.070005844114
 31
0.0
  0
LINE
  5
38B
102
{ACAD_REACTORS
330
2F0
102
}
330
1F
100
AcDbEntity
  8
ASSY
 62
   190
370
    15
390
5F
100
AcDbLine
 10
20520.22407068928
 20
-3280.070005844114
 30
0.0
 11
20519.32407068928
 21
-3280.845005844138
 31
0.0
  0
LINE
  5
38C
102
{ACAD_REACTORS
330
2F0
102
}
330
1F
100
AcDbEntity
  8
ASSY
 62
   190
370
    15
390
5F
100
AcDbLine
 10
20519.32407068928
 20
-3279.29500584412
 30
0.0
 11
20519.32407068928
 21
-3277.745005844132
 31
0.0
  0
LINE
  5
38D
102
{ACAD_REACTORS
330
2F0
102
}
330
1F
100
AcDbEntity
  8
ASSY
 62
   190
370
    15
390
5F
100
AcDbLine
 10
20516.12407068928
 20
-3277.745005844132
 30
0.0
 11
20516.12407068928
 21
-3276.195005844114
 31
0.0
  0
LINE
  5
38E
102
{ACAD_REACTORS
330
2F0
102
}
330
1F
100
AcDbEntity
  8
ASSY
 62
   190
370
    15
390
5F
100
AcDbLine
 10
20516.12407068928
 20
-3277.745005844132
 30
0.0
 11
20515.22407068928
 21
-3278.520005844126
 31
0.0
  0
LINE
  5
38F
102
{ACAD_REACTORS
330
2F0
102
}
330
1F
100
AcDbEntity
  8
ASSY
 62
   190
370
    15
390
5F
100
AcDbLine
 10
20515.22407068928
 20
-3278.520005844126
 30
0.0
 11
20516.12407068928
 21
-3279.29500584412
 31
0.0
  0
LINE
  5
390
102
{ACAD_REACTORS
330
2F0
102
}
330
1F
100
AcDbEntity
  8
ASSY
 62
   190
370
    15
390
5F
100
AcDbLine
 10
20516.12407068928
 20
-3279.29500584412
 30
0.0
 11
20519.32407068928
 21
-3277.745005844132
 31
0.0
  0
LINE
  5
391
102
{ACAD_REACTORS
330
2F0
102
}
330
1F
100
AcDbEntity
  8
ASSY
 62
   190
370
    15
390
5F
100
AcDbLine
 10
20515.22407068928
 20
-3278.520005844126
 30
0.0
 11
20520.22407068928
 21
-3276.970005844138
 31
0.0
  0
LINE
  5
392
102
{ACAD_REACTORS
330
2F0
102
}
330
1F
100
AcDbEntity
  8
ASSY
 62
   190
370
    15
390
5F
100
AcDbLine
 10
20516.12407068928
 20
-3277.745005844132
 30
0.0
 11
20519.32407068928
 21
-3276.195005844114
 31
0.0
  0
LINE
  5
393
102
{ACAD_REACTORS
330
2F0
102
}
330
1F
100
AcDbEntity
  8
ASSY
 62
   190
370
    15
390
5F
100
AcDbLine
 10
20519.32407068928
 20
-3276.195005844114
 30
0.0
 11
20520.22407068928
 21
-3276.970005844138
 31
0.0
  0
LINE
  5
394
102
{ACAD_REACTORS
330
2F0
102
}
330
1F
100
AcDbEntity
  8
ASSY
 62
   190
370
    15
390
5F
100
AcDbLine
 10
20520.22407068928
 20
-3276.970005844138
 30
0.0
 11
20519.32407068928
 21
-3277.745005844132
 31
0.0
  0
LINE
  5
395
102
{ACAD_REACTORS
330
2F0
102
}
330
1F
100
AcDbEntity
  8
ASSY
 62
   190
370
    15
390
5F
100
AcDbLine
 10
20519.32407068928
 20
-3276.195005844114
 30
0.0
 11
20519.32407068928
 21
-3274.645005844126
 31
0.0
  0
LINE
  5
396
102
{ACAD_REACTORS
330
2F0
102
}
330
1F
100
AcDbEntity
  8
ASSY
 62
   190
370
    15
390
5F
100
AcDbLine
 10
20516.12407068928
 20
-3274.645005844126
 30
0.0
 11
20515.22407068928
 21
-3275.42000584412
 31
0.0
  0
LINE
  5
397
102
{ACAD_REACTORS
330
2F0
102
}
330
1F
100
AcDbEntity
  8
ASSY
 62
   190
370
    15
390
5F
100
AcDbLine
 10
20515.22407068928
 20
-3275.42000584412
 30
0.0
 11
20520.22407068928
 21
-3273.870005844132
 31
0.0
  0
LINE
  5
398
102
{ACAD_REACTORS
330
2F0
102
}
330
1F
100
AcDbEntity
  8
ASSY
 62
   190
370
    15
390
5F
100
AcDbLine
 10
20515.22407068928
 20
-3275.42000584412
 30
0.0
 11
20516.12407068928
 21
-3276.195005844114
 31
0.0
  0
LINE
  5
399
102
{ACAD_REACTORS
330
2F0
102
}
330
1F
100
AcDbEntity
  8
ASSY
 62
   190
370
    15
390
5F
100
AcDbLine
 10
20516.12407068928
 20
-3276.195005844114
 30
0.0
 11
20519.32407068928
 21
-3274.645005844126
 31
0.0
  0
LINE
  5
39A
102
{ACAD_REACTORS
330
2F0
102
}
330
1F
100
AcDbEntity
  8
ASSY
 62
   190
370
    15
390
5F
100
AcDbLine
 10
20516.12407068928
 20
-3274.645005844126
 30
0.0
 11
20519.32407068928
 21
-3273.095005844138
 31
0.0
  0
LINE
  5
39B
102
{ACAD_REACTORS
330
2F0
102
}
330
1F
100
AcDbEntity
  8
ASSY
 62
   190
370
    15
390
5F
100
AcDbLine
 10
20519.32407068928
 20
-3273.095005844138
 30
0.0
 11
20520.22407068928
 21
-3273.870005844132
 31
0.0
  0
LINE
  5
39C
102
{ACAD_REACTORS
330
2F0
102
}
330
1F
100
AcDbEntity
  8
ASSY
 62
   190
370
    15
390
5F
100
AcDbLine
 10
20520.22407068928
 20
-3273.870005844132
 30
0.0
 11
20519.32407068928
 21
-3274.645005844126
 31
0.0
  0
LINE
  5
39D
102
{ACAD_REACTORS
330
2F0
102
}
330
1F
100
AcDbEntity
  8
ASSY
 62
   190
370
    15
390
5F
100
AcDbLine
 10
20522.47407068928
 20
-3221.912255337782
 30
0.0
 11
20522.47407068928
 21
-3222.532255337777
 31
0.0
  0
LINE
  5
39E
102
{ACAD_REACTORS
330
2F0
102
}
330
1F
100
AcDbEntity
  8
ASSY
 62
   190
370
    15
390
5F
100
AcDbLine
 10
20512.97407068928
 20
-3222.532255337777
 30
0.0
 11
20512.97407068928
 21
-3221.912255337782
 31
0.0
  0
LINE
  5
39F
102
{ACAD_REACTORS
330
2F0
102
}
330
1F
100
AcDbEntity
  8
ASSY
 62
   190
370
    15
390
5F
100
AcDbLine
 10
20512.97407068928
 20
-3221.912255337782
 30
0.0
 11
20522.47407068928
 21
-3221.912255337782
 31
0.0
  0
LINE
  5
3A0
102
{ACAD_REACTORS
330
2F0
102
}
330
1F
100
AcDbEntity
  8
ASSY
 62
   190
370
    15
390
5F
100
AcDbLine
 10
20512.97407068928
 20
-3222.532255337777
 30
0.0
 11
20522.47407068928
 21
-3222.532255337777
 31
0.0
  0
LINE
  5
3A1
102
{ACAD_REACTORS
330
2F0
102
}
330
1F
100
AcDbEntity
  8
ASSY
 62
   190
370
    15
390
5F
100
AcDbLine
 10
20522.47407068928
 20
-3222.532255337777
 30
0.0
 11
20520.15933533448
 21
-3224.971477449959
 31
0.0
  0
LINE
  5
3A2
102
{ACAD_REACTORS
330
2F0
102
}
330
1F
100
AcDbEntity
  8
ASSY
 62
   190
370
    15
390
5F
100
AcDbLine
 10
20512.97407068928
 20
-3222.532255337777
 30
0.0
 11
20515.28880604407
 21
-3224.971477449959
 31
0.0
  0
LINE
  5
3A3
102
{ACAD_REACTORS
330
2F0
102
}
330
1F
100
AcDbEntity
  8
ASSY
 62
   190
370
    15
390
5F
100
AcDbLine
 10
20520.09468074961
 20
-3225.06211983494
 30
0.0
 11
20519.6370598561
 21
-3225.941201392299
 31
0.0
  0
LINE
  5
3A4
102
{ACAD_REACTORS
330
2F0
102
}
330
1F
100
AcDbEntity
  8
ASSY
 62
   190
370
    15
390
5F
100
AcDbLine
 10
20515.35346062894
 20
-3225.06211983494
 30
0.0
 11
20515.81108152246
 21
-3225.941201392299
 31
0.0
  0
LINE
  5
3A5
102
{ACAD_REACTORS
330
2F0
102
}
330
1F
100
AcDbEntity
  8
ASSY
 62
   190
370
    15
390
5F
100
AcDbLine
 10
20516.81370193807
 20
-3288.260965708003
 30
0.0
 11
20518.88452968656
 21
-3287.25790851732
 31
0.0
  0
LINE
  5
3A6
102
{ACAD_REACTORS
330
2F0
102
}
330
1F
100
AcDbEntity
  8
ASSY
 62
   190
370
    15
390
5F
100
AcDbLine
 10
20515.73659236747
 20
-3287.661124123901
 30
0.0
 11
20520.04451564208
 21
-3286.325667908764
 31
0.0
  0
LINE
  5
3A7
102
{ACAD_REACTORS
330
2F0
102
}
330
1F
100
AcDbEntity
  8
ASSY
 62
   190
370
    15
390
5F
100
AcDbLine
 10
20516.46888631368
 20
-3286.877985776053
 30
0.0
 11
20519.32407068928
 21
-3285.495005844132
 31
0.0
  0
LINE
  5
3A8
102
{ACAD_REACTORS
330
2F0
102
}
330
1F
100
AcDbEntity
  8
ASSY
 62
   190
370
    15
390
5F
100
AcDbLine
 10
20519.32407068928
 20
-3285.495005844132
 30
0.0
 11
20520.04451564208
 21
-3286.325667908764
 31
0.0
  0
LINE
  5
3A9
102
{ACAD_REACTORS
330
2F0
102
}
330
1F
100
AcDbEntity
  8
ASSY
 62
   190
370
    15
390
5F
100
AcDbLine
 10
20520.04451564208
 20
-3286.325667908764
 30
0.0
 11
20518.88452968656
 21
-3287.25790851732
 31
0.0
  0
LINE
  5
3AA
102
{ACAD_REACTORS
330
2F0
102
}
330
1F
100
AcDbEntity
  8
ASSY
 62
   190
370
    15
390
5F
100
AcDbLine
 10
20516.81370193807
 20
-3288.260965708003
 30
0.0
 11
20515.73659236747
 21
-3287.661124123901
 31
0.0
  0
LINE
  5
3AB
102
{ACAD_REACTORS
330
2F0
102
}
330
1F
100
AcDbEntity
  8
ASSY
 62
   190
370
    15
390
5F
100
AcDbLine
 10
20515.73659236747
 20
-3287.661124123901
 30
0.0
 11
20516.46888631368
 21
-3286.877985776053
 31
0.0
  0
LINE
  5
3AC
102
{ACAD_REACTORS
330
2F0
102
}
330
1F
100
AcDbEntity
  8
ASSY
 62
   190
370
    15
390
5F
100
AcDbLine
 10
20516.46888631368
 20
-3286.877985776053
 30
0.0
 11
20516.12407068928
 21
-3285.495005844132
 31
0.0
  0
ARC
  5
3AD
102
{ACAD_REACTORS
330
2F0
102
}
330
1F
100
AcDbEntity
  8
ASSY
 62
   190
370
    15
390
5F
100
AcDbCircle
 10
20514.99865629551
 20
-3225.246819280354
 30
0.0
 40
0.400000000200216
100
AcDbArc
 50
27.5000000044283
 51
43.49999999597992
  0
ARC
  5
3AE
102
{ACAD_REACTORS
330
2F0
102
}
330
1F
100
AcDbEntity
  8
ASSY
 62
   190
370
    15
390
5F
100
AcDbCircle
 10
20520.44948508255
 20
-3225.24681928
 30
0.0
 40
0.3999999995974765
100
AcDbArc
 50
136.4999999919964
 51
152.5000000077988
  0
LINE
  5
3AF
102
{ACAD_REACTORS
330
2F0
102
}
330
1F
100
AcDbEntity
  8
ASSY
 62
   190
370
    15
390
5F
100
AcDbLine
 10
20515.81108152246
 20
-3225.941201392299
 30
0.0
 11
20519.6370598561
 21
-3225.941201392299
 31
0.0
  0
LINE
  5
3B0
102
{ACAD_REACTORS
330
2F0
102
}
330
1F
100
AcDbEntity
  8
ASSY
 62
   190
370
    15
390
5F
100
AcDbLine
 10
20520.15933533448
 20
-3224.971477449959
 30
0.0
 11
20515.28880604407
 21
-3224.971477449959
 31
0.0
  0
LINE
  5
3B1
102
{ACAD_REACTORS
330
2F0
102
}
330
1F
100
AcDbEntity
  8
ASSY
 62
   190
370
    15
390
5F
100
AcDbLine
 10
20515.35346062894
 20
-3225.06211983494
 30
0.0
 11
20520.09468074961
 21
-3225.06211983494
 31
0.0
  0
LINE
  5
3B2
102
{ACAD_REACTORS
330
2F0
102
}
330
1F
100
AcDbEntity
  8
ASSY
 62
   190
370
    15
390
5F
100
AcDbLine
 10
20520.09907068928
 20
-3222.532255337777
 30
0.0
 11
20518.69621623436
 21
-3224.474442430714
 31
0.0
  0
LINE
  5
3B3
102
{ACAD_REACTORS
330
2F0
102
}
330
1F
100
AcDbEntity
  8
ASSY
 62
   190
370
    15
390
5F
100
AcDbLine
 10
20515.34907068928
 20
-3222.532255337777
 30
0.0
 11
20516.75192514419
 21
-3224.474442430714
 31
0.0
  0
LINE
  5
3B4
102
{ACAD_REACTORS
330
2F0
102
}
330
1F
100
AcDbEntity
  8
ASSY
 62
   190
370
    15
390
5F
100
AcDbLine
 10
20520.57407068928
 20
-3222.532255337777
 30
0.0
 11
20519.70673844511
 21
-3224.392255337792
 31
0.0
  0
ARC
  5
3B5
102
{ACAD_REACTORS
330
2F0
102
}
330
1F
100
AcDbEntity
  8
ASSY
 62
   190
370
    15
390
5F
100
AcDbCircle
 10
20520.32648223821
 20
-3224.374433136253
 30
0.0
 40
0.6199999999634405
100
AcDbArc
 50
181.647221952083
 51
254.3600231524177
  0
ARC
  5
3B6
102
{ACAD_REACTORS
330
2F0
102
}
330
1F
100
AcDbEntity
  8
ASSY
 62
   190
370
    15
390
5F
100
AcDbCircle
 10
20517.72407068927
 20
-3223.772255337814
 30
0.0
 40
1.199222112144766
100
AcDbArc
 50
215.8408281032801
 51
324.1591718967198
  0
ARC
  5
3B7
102
{ACAD_REACTORS
330
2F0
102
}
330
1F
100
AcDbEntity
  8
ASSY
 62
   190
370
    15
390
5F
100
AcDbCircle
 10
20515.12165914032
 20
-3224.374433136235
 30
0.0
 40
0.6199999999871612
100
AcDbArc
 50
285.6399768490716
 51
358.3527780462948
  0
LINE
  5
3B8
102
{ACAD_REACTORS
330
2F0
102
}
330
1F
100
AcDbEntity
  8
ASSY
 62
   190
370
    15
390
5F
100
AcDbLine
 10
20514.87407068928
 20
-3222.532255337777
 30
0.0
 11
20515.74140293345
 21
-3224.392255337792
 31
0.0
  0
LINE
  5
3B9
102
{ACAD_REACTORS
330
2F0
102
}
330
1F
100
AcDbEntity
  8
ASSY
 62
   190
370
    15
390
5F
100
AcDbLine
 10
20516.12407068928
 20
-3274.645005844126
 30
0.0
 11
20516.12407068928
 21
-3273.095005844138
 31
0.0
  0
LINE
  5
3BA
102
{ACAD_REACTORS
330
2F0
102
}
330
1F
100
AcDbEntity
  8
ASSY
 62
   190
370
    15
390
5F
100
AcDbLine
 10
20519.32407068928
 20
-3273.095005844138
 30
0.0
 11
20519.32407068928
 21
-3271.54500584412
 31
0.0
  0
LINE
  5
3BB
102
{ACAD_REACTORS
330
2F0
102
}
330
1F
100
AcDbEntity
  8
ASSY
 62
   190
370
    15
390
5F
100
AcDbLine
 10
20516.12407068928
 20
-3271.54500584412
 30
0.0
 11
20515.22407068928
 21
-3272.320005844114
 31
0.0
  0
LINE
  5
3BC
102
{ACAD_REACTORS
330
2F0
102
}
330
1F
100
AcDbEntity
  8
ASSY
 62
   190
370
    15
390
5F
100
AcDbLine
 10
20515.22407068928
 20
-3272.320005844114
 30
0.0
 11
20516.12407068928
 21
-3273.095005844138
 31
0.0
  0
LINE
  5
3BD
102
{ACAD_REACTORS
330
2F0
102
}
330
1F
100
AcDbEntity
  8
ASSY
 62
   190
370
    15
390
5F
100
AcDbLine
 10
20516.12407068928
 20
-3273.095005844138
 30
0.0
 11
20519.32407068928
 21
-3271.54500584412
 31
0.0
  0
LINE
  5
3BE
102
{ACAD_REACTORS
330
2F0
102
}
330
1F
100
AcDbEntity
  8
ASSY
 62
   190
370
    15
390
5F
100
AcDbLine
 10
20515.22407068928
 20
-3272.320005844114
 30
0.0
 11
20520.22407068928
 21
-3270.770005844126
 31
0.0
  0
LINE
  5
3BF
102
{ACAD_REACTORS
330
2F0
102
}
330
1F
100
AcDbEntity
  8
ASSY
 62
   190
370
    15
390
5F
100
AcDbLine
 10
20516.12407068928
 20
-3271.54500584412
 30
0.0
 11
20519.32407068928
 21
-3269.995005844132
 31
0.0
  0
LINE
  5
3C0
102
{ACAD_REACTORS
330
2F0
102
}
330
1F
100
AcDbEntity
  8
ASSY
 62
   190
370
    15
390
5F
100
AcDbLine
 10
20519.32407068928
 20
-3269.995005844132
 30
0.0
 11
20520.22407068928
 21
-3270.770005844126
 31
0.0
  0
LINE
  5
3C1
102
{ACAD_REACTORS
330
2F0
102
}
330
1F
100
AcDbEntity
  8
ASSY
 62
   190
370
    15
390
5F
100
AcDbLine
 10
20520.22407068928
 20
-3270.770005844126
 30
0.0
 11
20519.32407068928
 21
-3271.54500584412
 31
0.0
  0
LINE
  5
3C2
102
{ACAD_REACTORS
330
2F0
102
}
330
1F
100
AcDbEntity
  8
ASSY
 62
   190
370
    15
390
5F
100
AcDbLine
 10
20516.12407068928
 20
-3271.54500584412
 30
0.0
 11
20516.12407068928
 21
-3269.995005844132
 31
0.0
  0
LINE
  5
3C3
102
{ACAD_REACTORS
330
2F0
102
}
330
1F
100
AcDbEntity
  8
ASSY
 62
   190
370
    15
390
5F
100
AcDbLine
 10
20519.32407068928
 20
-3269.995005844132
 30
0.0
 11
20519.32407068928
 21
-3268.445005844114
 31
0.0
  0
LINE
  5
3C4
102
{ACAD_REACTORS
330
2F0
102
}
330
1F
100
AcDbEntity
  8
ASSY
 62
   190
370
    15
390
5F
100
AcDbLine
 10
20516.12407068928
 20
-3268.445005844114
 30
0.0
 11
20515.22407068928
 21
-3269.220005844138
 31
0.0
  0
LINE
  5
3C5
102
{ACAD_REACTORS
330
2F0
102
}
330
1F
100
AcDbEntity
  8
ASSY
 62
   190
370
    15
390
5F
100
AcDbLine
 10
20515.22407068928
 20
-3269.220005844138
 30
0.0
 11
20516.12407068928
 21
-3269.995005844132
 31
0.0
  0
LINE
  5
3C6
102
{ACAD_REACTORS
330
2F0
102
}
330
1F
100
AcDbEntity
  8
ASSY
 62
   190
370
    15
390
5F
100
AcDbLine
 10
20516.12407068928
 20
-3269.995005844132
 30
0.0
 11
20519.32407068928
 21
-3268.445005844114
 31
0.0
  0
LINE
  5
3C7
102
{ACAD_REACTORS
330
2F0
102
}
330
1F
100
AcDbEntity
  8
ASSY
 62
   190
370
    15
390
5F
100
AcDbLine
 10
20515.22407068928
 20
-3269.220005844138
 30
0.0
 11
20520.22407068928
 21
-3267.67000584412
 31
0.0
  0
LINE
  5
3C8
102
{ACAD_REACTORS
330
2F0
102
}
330
1F
100
AcDbEntity
  8
ASSY
 62
   190
370
    15
390
5F
100
AcDbLine
 10
20516.12407068928
 20
-3268.445005844114
 30
0.0
 11
20519.32407068928
 21
-3266.895005844126
 31
0.0
  0
LINE
  5
3C9
102
{ACAD_REACTORS
330
2F0
102
}
330
1F
100
AcDbEntity
  8
ASSY
 62
   190
370
    15
390
5F
100
AcDbLine
 10
20519.32407068928
 20
-3266.895005844126
 30
0.0
 11
20520.22407068928
 21
-3267.67000584412
 31
0.0
  0
LINE
  5
3CA
102
{ACAD_REACTORS
330
2F0
102
}
330
1F
100
AcDbEntity
  8
ASSY
 62
   190
370
    15
390
5F
100
AcDbLine
 10
20520.22407068928
 20
-3267.67000584412
 30
0.0
 11
20519.32407068928
 21
-3268.445005844114
 31
0.0
  0
LINE
  5
3CB
102
{ACAD_REACTORS
330
2F0
102
}
330
1F
100
AcDbEntity
  8
ASSY
 62
   190
370
    15
390
5F
100
AcDbLine
 10
20516.12407068928
 20
-3268.445005844114
 30
0.0
 11
20516.12407068928
 21
-3266.895005844126
 31
0.0
  0
LINE
  5
3CC
102
{ACAD_REACTORS
330
2F0
102
}
330
1F
100
AcDbEntity
  8
ASSY
 62
   190
370
    15
390
5F
100
AcDbLine
 10
20519.32407068928
 20
-3266.895005844126
 30
0.0
 11
20519.32407068928
 21
-3265.345005844138
 31
0.0
  0
LINE
  5
3CD
102
{ACAD_REACTORS
330
2F0
102
}
330
1F
100
AcDbEntity
  8
ASSY
 62
   190
370
    15
390
5F
100
AcDbLine
 10
20516.12407068928
 20
-3265.345005844138
 30
0.0
 11
20515.22407068928
 21
-3266.120005844132
 31
0.0
  0
LINE
  5
3CE
102
{ACAD_REACTORS
330
2F0
102
}
330
1F
100
AcDbEntity
  8
ASSY
 62
   190
370
    15
390
5F
100
AcDbLine
 10
20515.22407068928
 20
-3266.120005844132
 30
0.0
 11
20516.12407068928
 21
-3266.895005844126
 31
0.0
  0
LINE
  5
3CF
102
{ACAD_REACTORS
330
2F0
102
}
330
1F
100
AcDbEntity
  8
ASSY
 62
   190
370
    15
390
5F
100
AcDbLine
 10
20516.12407068928
 20
-3266.895005844126
 30
0.0
 11
20519.32407068928
 21
-3265.345005844138
 31
0.0
  0
LINE
  5
3D0
102
{ACAD_REACTORS
330
2F0
102
}
330
1F
100
AcDbEntity
  8
ASSY
 62
   190
370
    15
390
5F
100
AcDbLine
 10
20515.22407068928
 20
-3266.120005844132
 30
0.0
 11
20520.22407068928
 21
-3264.570005844114
 31
0.0
  0
LINE
  5
3D1
102
{ACAD_REACTORS
330
2F0
102
}
330
1F
100
AcDbEntity
  8
ASSY
 62
   190
370
    15
390
5F
100
AcDbLine
 10
20516.12407068928
 20
-3265.345005844138
 30
0.0
 11
20519.32407068928
 21
-3263.79500584412
 31
0.0
  0
LINE
  5
3D2
102
{ACAD_REACTORS
330
2F0
102
}
330
1F
100
AcDbEntity
  8
ASSY
 62
   190
370
    15
390
5F
100
AcDbLine
 10
20519.32407068928
 20
-3263.79500584412
 30
0.0
 11
20520.22407068928
 21
-3264.570005844114
 31
0.0
  0
LINE
  5
3D3
102
{ACAD_REACTORS
330
2F0
102
}
330
1F
100
AcDbEntity
  8
ASSY
 62
   190
370
    15
390
5F
100
AcDbLine
 10
20520.22407068928
 20
-3264.570005844114
 30
0.0
 11
20519.32407068928
 21
-3265.345005844138
 31
0.0
  0
LINE
  5
3D4
102
{ACAD_REACTORS
330
2F0
102
}
330
1F
100
AcDbEntity
  8
ASSY
 62
   190
370
    15
390
5F
100
AcDbLine
 10
20516.12407068928
 20
-3265.345005844138
 30
0.0
 11
20516.12407068928
 21
-3263.79500584412
 31
0.0
  0
LINE
  5
3D5
102
{ACAD_REACTORS
330
2F0
102
}
330
1F
100
AcDbEntity
  8
ASSY
 62
   190
370
    15
390
5F
100
AcDbLine
 10
20519.32407068928
 20
-3263.79500584412
 30
0.0
 11
20519.32407068928
 21
-3262.245005844103
 31
0.0
  0
LINE
  5
3D6
102
{ACAD_REACTORS
330
2F0
102
}
330
1F
100
AcDbEntity
  8
ASSY
 62
   190
370
    15
390
5F
100
AcDbLine
 10
20516.12407068928
 20
-3262.245005844103
 30
0.0
 11
20515.22407068928
 21
-3263.020005844126
 31
0.0
  0
LINE
  5
3D7
102
{ACAD_REACTORS
330
2F0
102
}
330
1F
100
AcDbEntity
  8
ASSY
 62
   190
370
    15
390
5F
100
AcDbLine
 10
20515.22407068928
 20
-3263.020005844126
 30
0.0
 11
20516.12407068928
 21
-3263.79500584412
 31
0.0
  0
LINE
  5
3D8
102
{ACAD_REACTORS
330
2F0
102
}
330
1F
100
AcDbEntity
  8
ASSY
 62
   190
370
    15
390
5F
100
AcDbLine
 10
20516.12407068928
 20
-3263.79500584412
 30
0.0
 11
20519.32407068928
 21
-3262.245005844103
 31
0.0
  0
LINE
  5
3D9
102
{ACAD_REACTORS
330
2F0
102
}
330
1F
100
AcDbEntity
  8
ASSY
 62
   190
370
    15
390
5F
100
AcDbLine
 10
20515.22407068928
 20
-3263.020005844126
 30
0.0
 11
20520.22407068928
 21
-3261.470005844138
 31
0.0
  0
LINE
  5
3DA
102
{ACAD_REACTORS
330
2F0
102
}
330
1F
100
AcDbEntity
  8
ASSY
 62
   190
370
    15
390
5F
100
AcDbLine
 10
20516.12407068928
 20
-3262.245005844103
 30
0.0
 11
20519.32407068928
 21
-3260.695005844114
 31
0.0
  0
LINE
  5
3DB
102
{ACAD_REACTORS
330
2F0
102
}
330
1F
100
AcDbEntity
  8
ASSY
 62
   190
370
    15
390
5F
100
AcDbLine
 10
20519.32407068928
 20
-3260.695005844114
 30
0.0
 11
20520.22407068928
 21
-3261.470005844138
 31
0.0
  0
LINE
  5
3DC
102
{ACAD_REACTORS
330
2F0
102
}
330
1F
100
AcDbEntity
  8
ASSY
 62
   190
370
    15
390
5F
100
AcDbLine
 10
20520.22407068928
 20
-3261.470005844138
 30
0.0
 11
20519.32407068928
 21
-3262.245005844103
 31
0.0
  0
LINE
  5
3DD
102
{ACAD_REACTORS
330
2F0
102
}
330
1F
100
AcDbEntity
  8
ASSY
 62
   190
370
    15
390
5F
100
AcDbLine
 10
20516.12407068928
 20
-3262.245005844103
 30
0.0
 11
20516.12407068928
 21
-3260.695005844114
 31
0.0
  0
LINE
  5
3DE
102
{ACAD_REACTORS
330
2F0
102
}
330
1F
100
AcDbEntity
  8
ASSY
 62
   190
370
    15
390
5F
100
AcDbLine
 10
20519.32407068928
 20
-3260.695005844114
 30
0.0
 11
20519.32407068928
 21
-3259.145005844126
 31
0.0
  0
LINE
  5
3DF
102
{ACAD_REACTORS
330
2F0
102
}
330
1F
100
AcDbEntity
  8
ASSY
 62
   190
370
    15
390
5F
100
AcDbLine
 10
20516.12407068928
 20
-3259.145005844126
 30
0.0
 11
20515.22407068928
 21
-3259.92000584412
 31
0.0
  0
LINE
  5
3E0
102
{ACAD_REACTORS
330
2F0
102
}
330
1F
100
AcDbEntity
  8
ASSY
 62
   190
370
    15
390
5F
100
AcDbLine
 10
20515.22407068928
 20
-3259.92000584412
 30
0.0
 11
20516.12407068928
 21
-3260.695005844114
 31
0.0
  0
LINE
  5
3E1
102
{ACAD_REACTORS
330
2F0
102
}
330
1F
100
AcDbEntity
  8
ASSY
 62
   190
370
    15
390
5F
100
AcDbLine
 10
20516.12407068928
 20
-3260.695005844114
 30
0.0
 11
20519.32407068928
 21
-3259.145005844126
 31
0.0
  0
LINE
  5
3E2
102
{ACAD_REACTORS
330
2F0
102
}
330
1F
100
AcDbEntity
  8
ASSY
 62
   190
370
    15
390
5F
100
AcDbLine
 10
20515.22407068928
 20
-3259.92000584412
 30
0.0
 11
20520.22407068928
 21
-3258.370005844103
 31
0.0
  0
LINE
  5
3E3
102
{ACAD_REACTORS
330
2F0
102
}
330
1F
100
AcDbEntity
  8
ASSY
 62
   190
370
    15
390
5F
100
AcDbLine
 10
20516.12407068928
 20
-3259.145005844126
 30
0.0
 11
20519.32407068928
 21
-3257.595005844138
 31
0.0
  0
LINE
  5
3E4
102
{ACAD_REACTORS
330
2F0
102
}
330
1F
100
AcDbEntity
  8
ASSY
 62
   190
370
    15
390
5F
100
AcDbLine
 10
20519.32407068928
 20
-3257.595005844138
 30
0.0
 11
20520.22407068928
 21
-3258.370005844103
 31
0.0
  0
LINE
  5
3E5
102
{ACAD_REACTORS
330
2F0
102
}
330
1F
100
AcDbEntity
  8
ASSY
 62
   190
370
    15
390
5F
100
AcDbLine
 10
20520.22407068928
 20
-3258.370005844103
 30
0.0
 11
20519.32407068928
 21
-3259.145005844126
 31
0.0
  0
LINE
  5
3E6
102
{ACAD_REACTORS
330
2F0
102
}
330
1F
100
AcDbEntity
  8
ASSY
 62
   190
370
    15
390
5F
100
AcDbLine
 10
20516.12407068928
 20
-3259.145005844126
 30
0.0
 11
20516.12407068928
 21
-3257.595005844138
 31
0.0
  0
LINE
  5
3E7
102
{ACAD_REACTORS
330
2F0
102
}
330
1F
100
AcDbEntity
  8
ASSY
 62
   190
370
    15
390
5F
100
AcDbLine
 10
20519.32407068928
 20
-3257.595005844138
 30
0.0
 11
20519.32407068928
 21
-3256.04500584412
 31
0.0
  0
LINE
  5
3E8
102
{ACAD_REACTORS
330
2F0
102
}
330
1F
100
AcDbEntity
  8
ASSY
 62
   190
370
    15
390
5F
100
AcDbLine
 10
20516.12407068928
 20
-3256.04500584412
 30
0.0
 11
20515.22407068928
 21
-3256.820005844114
 31
0.0
  0
LINE
  5
3E9
102
{ACAD_REACTORS
330
2F0
102
}
330
1F
100
AcDbEntity
  8
ASSY
 62
   190
370
    15
390
5F
100
AcDbLine
 10
20515.22407068928
 20
-3256.820005844114
 30
0.0
 11
20516.12407068928
 21
-3257.595005844138
 31
0.0
  0
LINE
  5
3EA
102
{ACAD_REACTORS
330
2F0
102
}
330
1F
100
AcDbEntity
  8
ASSY
 62
   190
370
    15
390
5F
100
AcDbLine
 10
20516.12407068928
 20
-3257.595005844138
 30
0.0
 11
20519.32407068928
 21
-3256.04500584412
 31
0.0
  0
LINE
  5
3EB
102
{ACAD_REACTORS
330
2F0
102
}
330
1F
100
AcDbEntity
  8
ASSY
 62
   190
370
    15
390
5F
100
AcDbLine
 10
20515.22407068928
 20
-3256.820005844114
 30
0.0
 11
20520.22407068928
 21
-3255.270005844126
 31
0.0
  0
LINE
  5
3EC
102
{ACAD_REACTORS
330
2F0
102
}
330
1F
100
AcDbEntity
  8
ASSY
 62
   190
370
    15
390
5F
100
AcDbLine
 10
20516.12407068928
 20
-3256.04500584412
 30
0.0
 11
20519.32407068928
 21
-3254.495005844103
 31
0.0
  0
LINE
  5
3ED
102
{ACAD_REACTORS
330
2F0
102
}
330
1F
100
AcDbEntity
  8
ASSY
 62
   190
370
    15
390
5F
100
AcDbLine
 10
20519.32407068928
 20
-3254.495005844103
 30
0.0
 11
20520.22407068928
 21
-3255.270005844126
 31
0.0
  0
LINE
  5
3EE
102
{ACAD_REACTORS
330
2F0
102
}
330
1F
100
AcDbEntity
  8
ASSY
 62
   190
370
    15
390
5F
100
AcDbLine
 10
20520.22407068928
 20
-3255.270005844126
 30
0.0
 11
20519.32407068928
 21
-3256.04500584412
 31
0.0
  0
LINE
  5
3EF
102
{ACAD_REACTORS
330
2F0
102
}
330
1F
100
AcDbEntity
  8
ASSY
 62
   190
370
    15
390
5F
100
AcDbLine
 10
20516.12407068928
 20
-3256.04500584412
 30
0.0
 11
20516.12407068928
 21
-3254.495005844103
 31
0.0
  0
LINE
  5
3F0
102
{ACAD_REACTORS
330
2F0
102
}
330
1F
100
AcDbEntity
  8
ASSY
 62
   190
370
    15
390
5F
100
AcDbLine
 10
20519.32407068928
 20
-3254.495005844103
 30
0.0
 11
20519.32407068928
 21
-3252.945005844114
 31
0.0
  0
LINE
  5
3F1
102
{ACAD_REACTORS
330
2F0
102
}
330
1F
100
AcDbEntity
  8
ASSY
 62
   190
370
    15
390
5F
100
AcDbLine
 10
20516.12407068928
 20
-3252.945005844114
 30
0.0
 11
20515.22407068928
 21
-3253.720005844138
 31
0.0
  0
LINE
  5
3F2
102
{ACAD_REACTORS
330
2F0
102
}
330
1F
100
AcDbEntity
  8
ASSY
 62
   190
370
    15
390
5F
100
AcDbLine
 10
20515.22407068928
 20
-3253.720005844138
 30
0.0
 11
20516.12407068928
 21
-3254.495005844103
 31
0.0
  0
LINE
  5
3F3
102
{ACAD_REACTORS
330
2F0
102
}
330
1F
100
AcDbEntity
  8
ASSY
 62
   190
370
    15
390
5F
100
AcDbLine
 10
20516.12407068928
 20
-3254.495005844103
 30
0.0
 11
20519.32407068928
 21
-3252.945005844114
 31
0.0
  0
LINE
  5
3F4
102
{ACAD_REACTORS
330
2F0
102
}
330
1F
100
AcDbEntity
  8
ASSY
 62
   190
370
    15
390
5F
100
AcDbLine
 10
20515.22407068928
 20
-3253.720005844138
 30
0.0
 11
20520.22407068928
 21
-3252.17000584412
 31
0.0
  0
LINE
  5
3F5
102
{ACAD_REACTORS
330
2F0
102
}
330
1F
100
AcDbEntity
  8
ASSY
 62
   190
370
    15
390
5F
100
AcDbLine
 10
20516.12407068928
 20
-3252.945005844114
 30
0.0
 11
20519.32407068928
 21
-3251.395005844126
 31
0.0
  0
LINE
  5
3F6
102
{ACAD_REACTORS
330
2F0
102
}
330
1F
100
AcDbEntity
  8
ASSY
 62
   190
370
    15
390
5F
100
AcDbLine
 10
20519.32407068928
 20
-3251.395005844126
 30
0.0
 11
20520.22407068928
 21
-3252.17000584412
 31
0.0
  0
LINE
  5
3F7
102
{ACAD_REACTORS
330
2F0
102
}
330
1F
100
AcDbEntity
  8
ASSY
 62
   190
370
    15
390
5F
100
AcDbLine
 10
20520.22407068928
 20
-3252.17000584412
 30
0.0
 11
20519.32407068928
 21
-3252.945005844114
 31
0.0
  0
LINE
  5
3F8
102
{ACAD_REACTORS
330
2FD
102
}
330
1F
100
AcDbEntity
  8
ASSY
 62
   190
370
    15
390
5F
100
AcDbLine
 10
21127.99854946876
 20
-3881.61172264273
 30
0.0
 11
21129.15900846605
 21
-3876.957375822269
 31
0.0
  0
LINE
  5
3F9
102
{ACAD_REACTORS
330
2FD
102
}
330
1F
100
AcDbEntity
  8
ASSY
 62
   190
370
    15
390
5F
100
AcDbLine
 10
21127.99854946876
 20
-3881.61172264273
 30
0.0
 11
21127.08818071756
 21
-3877.960433012922
 31
0.0
  0
LINE
  5
3FA
102
{ACAD_REACTORS
330
2FD
102
}
330
1F
100
AcDbEntity
  8
ASSY
 62
   190
370
    15
390
5F
100
AcDbLine
 10
21129.59854946876
 20
-3875.19447314908
 30
0.0
 11
21129.59854946876
 21
-3873.644473149092
 31
0.0
  0
LINE
  5
3FB
102
{ACAD_REACTORS
330
2FD
102
}
330
1F
100
AcDbEntity
  8
ASSY
 62
   190
370
    15
390
5F
100
AcDbLine
 10
21126.39854946877
 20
-3873.644473149092
 30
0.0
 11
21126.39854946877
 21
-3872.094473149074
 31
0.0
  0
LINE
  5
3FC
102
{ACAD_REACTORS
330
2FD
102
}
330
1F
100
AcDbEntity
  8
ASSY
 62
   190
370
    15
390
5F
100
AcDbLine
 10
21129.59854946876
 20
-3872.094473149074
 30
0.0
 11
21130.49854946876
 21
-3872.869473149069
 31
0.0
  0
LINE
  5
3FD
102
{ACAD_REACTORS
330
2FD
102
}
330
1F
100
AcDbEntity
  8
ASSY
 62
   190
370
    15
390
5F
100
AcDbLine
 10
21130.49854946876
 20
-3872.869473149069
 30
0.0
 11
21129.59854946876
 21
-3873.644473149092
 31
0.0
  0
LINE
  5
3FE
102
{ACAD_REACTORS
330
2FD
102
}
330
1F
100
AcDbEntity
  8
ASSY
 62
   190
370
    15
390
5F
100
AcDbLine
 10
21126.39854946877
 20
-3873.644473149092
 30
0.0
 11
21125.49854946876
 21
-3874.419473149057
 31
0.0
  0
LINE
  5
3FF
102
{ACAD_REACTORS
330
2FD
102
}
330
1F
100
AcDbEntity
  8
ASSY
 62
   190
370
    15
390
5F
100
AcDbLine
 10
21125.49854946876
 20
-3874.419473149057
 30
0.0
 11
21126.39854946877
 21
-3875.19447314908
 31
0.0
  0
LINE
  5
400
102
{ACAD_REACTORS
330
2FD
102
}
330
1F
100
AcDbEntity
  8
ASSY
 62
   190
370
    15
390
5F
100
AcDbLine
 10
21126.39854946877
 20
-3875.19447314908
 30
0.0
 11
21129.59854946876
 21
-3873.644473149092
 31
0.0
  0
LINE
  5
401
102
{ACAD_REACTORS
330
2FD
102
}
330
1F
100
AcDbEntity
  8
ASSY
 62
   190
370
    15
390
5F
100
AcDbLine
 10
21126.39854946877
 20
-3873.644473149092
 30
0.0
 11
21129.59854946876
 21
-3872.094473149074
 31
0.0
  0
LINE
  5
402
102
{ACAD_REACTORS
330
2FD
102
}
330
1F
100
AcDbEntity
  8
ASSY
 62
   190
370
    15
390
5F
100
AcDbLine
 10
21125.49854946876
 20
-3874.419473149057
 30
0.0
 11
21130.49854946876
 21
-3872.869473149069
 31
0.0
  0
LINE
  5
403
102
{ACAD_REACTORS
330
2FD
102
}
330
1F
100
AcDbEntity
  8
ASSY
 62
   190
370
    15
390
5F
100
AcDbLine
 10
21129.59854946876
 20
-3872.094473149074
 30
0.0
 11
21129.59854946876
 21
-3870.544473149057
 31
0.0
  0
LINE
  5
404
102
{ACAD_REACTORS
330
2FD
102
}
330
1F
100
AcDbEntity
  8
ASSY
 62
   190
370
    15
390
5F
100
AcDbLine
 10
21126.39854946877
 20
-3870.544473149057
 30
0.0
 11
21126.39854946877
 21
-3868.994473149069
 31
0.0
  0
LINE
  5
405
102
{ACAD_REACTORS
330
2FD
102
}
330
1F
100
AcDbEntity
  8
ASSY
 62
   190
370
    15
390
5F
100
AcDbLine
 10
21126.39854946877
 20
-3870.544473149057
 30
0.0
 11
21125.49854946876
 21
-3871.31947314908
 31
0.0
  0
LINE
  5
406
102
{ACAD_REACTORS
330
2FD
102
}
330
1F
100
AcDbEntity
  8
ASSY
 62
   190
370
    15
390
5F
100
AcDbLine
 10
21125.49854946876
 20
-3871.31947314908
 30
0.0
 11
21126.39854946877
 21
-3872.094473149074
 31
0.0
  0
LINE
  5
407
102
{ACAD_REACTORS
330
2FD
102
}
330
1F
100
AcDbEntity
  8
ASSY
 62
   190
370
    15
390
5F
100
AcDbLine
 10
21126.39854946877
 20
-3872.094473149074
 30
0.0
 11
21129.59854946876
 21
-3870.544473149057
 31
0.0
  0
LINE
  5
408
102
{ACAD_REACTORS
330
2FD
102
}
330
1F
100
AcDbEntity
  8
ASSY
 62
   190
370
    15
390
5F
100
AcDbLine
 10
21125.49854946876
 20
-3871.31947314908
 30
0.0
 11
21130.49854946876
 21
-3869.769473149092
 31
0.0
  0
LINE
  5
409
102
{ACAD_REACTORS
330
2FD
102
}
330
1F
100
AcDbEntity
  8
ASSY
 62
   190
370
    15
390
5F
100
AcDbLine
 10
21126.39854946877
 20
-3870.544473149057
 30
0.0
 11
21129.59854946876
 21
-3868.994473149069
 31
0.0
  0
LINE
  5
40A
102
{ACAD_REACTORS
330
2FD
102
}
330
1F
100
AcDbEntity
  8
ASSY
 62
   190
370
    15
390
5F
100
AcDbLine
 10
21129.59854946876
 20
-3868.994473149069
 30
0.0
 11
21130.49854946876
 21
-3869.769473149092
 31
0.0
  0
LINE
  5
40B
102
{ACAD_REACTORS
330
2FD
102
}
330
1F
100
AcDbEntity
  8
ASSY
 62
   190
370
    15
390
5F
100
AcDbLine
 10
21130.49854946876
 20
-3869.769473149092
 30
0.0
 11
21129.59854946876
 21
-3870.544473149057
 31
0.0
  0
LINE
  5
40C
102
{ACAD_REACTORS
330
2FD
102
}
330
1F
100
AcDbEntity
  8
ASSY
 62
   190
370
    15
390
5F
100
AcDbLine
 10
21129.59854946876
 20
-3868.994473149069
 30
0.0
 11
21129.59854946876
 21
-3867.44447314908
 31
0.0
  0
LINE
  5
40D
102
{ACAD_REACTORS
330
2FD
102
}
330
1F
100
AcDbEntity
  8
ASSY
 62
   190
370
    15
390
5F
100
AcDbLine
 10
21126.39854946877
 20
-3867.44447314908
 30
0.0
 11
21126.39854946877
 21
-3865.894473149092
 31
0.0
  0
LINE
  5
40E
102
{ACAD_REACTORS
330
2FD
102
}
330
1F
100
AcDbEntity
  8
ASSY
 62
   190
370
    15
390
5F
100
AcDbLine
 10
21126.39854946877
 20
-3867.44447314908
 30
0.0
 11
21125.49854946876
 21
-3868.219473149074
 31
0.0
  0
LINE
  5
40F
102
{ACAD_REACTORS
330
2FD
102
}
330
1F
100
AcDbEntity
  8
ASSY
 62
   190
370
    15
390
5F
100
AcDbLine
 10
21125.49854946876
 20
-3868.219473149074
 30
0.0
 11
21126.39854946877
 21
-3868.994473149069
 31
0.0
  0
LINE
  5
410
102
{ACAD_REACTORS
330
2FD
102
}
330
1F
100
AcDbEntity
  8
ASSY
 62
   190
370
    15
390
5F
100
AcDbLine
 10
21126.39854946877
 20
-3868.994473149069
 30
0.0
 11
21129.59854946876
 21
-3867.44447314908
 31
0.0
  0
LINE
  5
411
102
{ACAD_REACTORS
330
2FD
102
}
330
1F
100
AcDbEntity
  8
ASSY
 62
   190
370
    15
390
5F
100
AcDbLine
 10
21125.49854946876
 20
-3868.219473149074
 30
0.0
 11
21130.49854946876
 21
-3866.669473149057
 31
0.0
  0
LINE
  5
412
102
{ACAD_REACTORS
330
2FD
102
}
330
1F
100
AcDbEntity
  8
ASSY
 62
   190
370
    15
390
5F
100
AcDbLine
 10
21126.39854946877
 20
-3867.44447314908
 30
0.0
 11
21129.59854946876
 21
-3865.894473149092
 31
0.0
  0
LINE
  5
413
102
{ACAD_REACTORS
330
2FD
102
}
330
1F
100
AcDbEntity
  8
ASSY
 62
   190
370
    15
390
5F
100
AcDbLine
 10
21129.59854946876
 20
-3865.894473149092
 30
0.0
 11
21130.49854946876
 21
-3866.669473149057
 31
0.0
  0
LINE
  5
414
102
{ACAD_REACTORS
330
2FD
102
}
330
1F
100
AcDbEntity
  8
ASSY
 62
   190
370
    15
390
5F
100
AcDbLine
 10
21130.49854946876
 20
-3866.669473149057
 30
0.0
 11
21129.59854946876
 21
-3867.44447314908
 31
0.0
  0
LINE
  5
415
102
{ACAD_REACTORS
330
2FD
102
}
330
1F
100
AcDbEntity
  8
ASSY
 62
   190
370
    15
390
5F
100
AcDbLine
 10
21129.59854946876
 20
-3865.894473149092
 30
0.0
 11
21129.59854946876
 21
-3864.344473149074
 31
0.0
  0
LINE
  5
416
102
{ACAD_REACTORS
330
2FD
102
}
330
1F
100
AcDbEntity
  8
ASSY
 62
   190
370
    15
390
5F
100
AcDbLine
 10
21126.39854946877
 20
-3864.344473149074
 30
0.0
 11
21125.49854946876
 21
-3865.119473149069
 31
0.0
  0
LINE
  5
417
102
{ACAD_REACTORS
330
2FD
102
}
330
1F
100
AcDbEntity
  8
ASSY
 62
   190
370
    15
390
5F
100
AcDbLine
 10
21125.49854946876
 20
-3865.119473149069
 30
0.0
 11
21130.49854946876
 21
-3863.56947314908
 31
0.0
  0
LINE
  5
418
102
{ACAD_REACTORS
330
2FD
102
}
330
1F
100
AcDbEntity
  8
ASSY
 62
   190
370
    15
390
5F
100
AcDbLine
 10
21125.49854946876
 20
-3865.119473149069
 30
0.0
 11
21126.39854946877
 21
-3865.894473149092
 31
0.0
  0
LINE
  5
419
102
{ACAD_REACTORS
330
2FD
102
}
330
1F
100
AcDbEntity
  8
ASSY
 62
   190
370
    15
390
5F
100
AcDbLine
 10
21126.39854946877
 20
-3865.894473149092
 30
0.0
 11
21129.59854946876
 21
-3864.344473149074
 31
0.0
  0
LINE
  5
41A
102
{ACAD_REACTORS
330
2FD
102
}
330
1F
100
AcDbEntity
  8
ASSY
 62
   190
370
    15
390
5F
100
AcDbLine
 10
21126.39854946877
 20
-3864.344473149074
 30
0.0
 11
21129.59854946876
 21
-3862.794473149057
 31
0.0
  0
LINE
  5
41B
102
{ACAD_REACTORS
330
2FD
102
}
330
1F
100
AcDbEntity
  8
ASSY
 62
   190
370
    15
390
5F
100
AcDbLine
 10
21129.59854946876
 20
-3862.794473149057
 30
0.0
 11
21130.49854946876
 21
-3863.56947314908
 31
0.0
  0
LINE
  5
41C
102
{ACAD_REACTORS
330
2FD
102
}
330
1F
100
AcDbEntity
  8
ASSY
 62
   190
370
    15
390
5F
100
AcDbLine
 10
21130.49854946876
 20
-3863.56947314908
 30
0.0
 11
21129.59854946876
 21
-3864.344473149074
 31
0.0
  0
LINE
  5
41D
102
{ACAD_REACTORS
330
2FD
102
}
330
1F
100
AcDbEntity
  8
ASSY
 62
   190
370
    15
390
5F
100
AcDbLine
 10
21132.74854946876
 20
-3811.61172264273
 30
0.0
 11
21132.74854946876
 21
-3812.231722642726
 31
0.0
  0
LINE
  5
41E
102
{ACAD_REACTORS
330
2FD
102
}
330
1F
100
AcDbEntity
  8
ASSY
 62
   190
370
    15
390
5F
100
AcDbLine
 10
21123.24854946876
 20
-3812.231722642726
 30
0.0
 11
21123.24854946876
 21
-3811.61172264273
 31
0.0
  0
LINE
  5
41F
102
{ACAD_REACTORS
330
2FD
102
}
330
1F
100
AcDbEntity
  8
ASSY
 62
   190
370
    15
390
5F
100
AcDbLine
 10
21123.24854946876
 20
-3811.61172264273
 30
0.0
 11
21132.74854946876
 21
-3811.61172264273
 31
0.0
  0
LINE
  5
420
102
{ACAD_REACTORS
330
2FD
102
}
330
1F
100
AcDbEntity
  8
ASSY
 62
   190
370
    15
390
5F
100
AcDbLine
 10
21123.24854946876
 20
-3812.231722642726
 30
0.0
 11
21132.74854946876
 21
-3812.231722642726
 31
0.0
  0
LINE
  5
421
102
{ACAD_REACTORS
330
2FD
102
}
330
1F
100
AcDbEntity
  8
ASSY
 62
   190
370
    15
390
5F
100
AcDbLine
 10
21132.74854946876
 20
-3812.231722642726
 30
0.0
 11
21130.43381411397
 21
-3814.670944754907
 31
0.0
  0
LINE
  5
422
102
{ACAD_REACTORS
330
2FD
102
}
330
1F
100
AcDbEntity
  8
ASSY
 62
   190
370
    15
390
5F
100
AcDbLine
 10
21123.24854946876
 20
-3812.231722642726
 30
0.0
 11
21125.56328482356
 21
-3814.670944754907
 31
0.0
  0
LINE
  5
423
102
{ACAD_REACTORS
330
2FD
102
}
330
1F
100
AcDbEntity
  8
ASSY
 62
   190
370
    15
390
5F
100
AcDbLine
 10
21130.3691595291
 20
-3814.761587139888
 30
0.0
 11
21129.91153863558
 21
-3815.640668697248
 31
0.0
  0
LINE
  5
424
102
{ACAD_REACTORS
330
2FD
102
}
330
1F
100
AcDbEntity
  8
ASSY
 62
   190
370
    15
390
5F
100
AcDbLine
 10
21125.62793940843
 20
-3814.761587139888
 30
0.0
 11
21126.08556030194
 21
-3815.640668697248
 31
0.0
  0
LINE
  5
425
102
{ACAD_REACTORS
330
2FD
102
}
330
1F
100
AcDbEntity
  8
ASSY
 62
   190
370
    15
390
5F
100
AcDbLine
 10
21127.08818071756
 20
-3877.960433012922
 30
0.0
 11
21129.15900846605
 21
-3876.957375822269
 31
0.0
  0
LINE
  5
426
102
{ACAD_REACTORS
330
2FD
102
}
330
1F
100
AcDbEntity
  8
ASSY
 62
   190
370
    15
390
5F
100
AcDbLine
 10
21126.01107114696
 20
-3877.36059142882
 30
0.0
 11
21130.31899442156
 21
-3876.025135213684
 31
0.0
  0
LINE
  5
427
102
{ACAD_REACTORS
330
2FD
102
}
330
1F
100
AcDbEntity
  8
ASSY
 62
   190
370
    15
390
5F
100
AcDbLine
 10
21126.74336509316
 20
-3876.577453081001
 30
0.0
 11
21129.59854946876
 21
-3875.19447314908
 31
0.0
  0
LINE
  5
428
102
{ACAD_REACTORS
330
2FD
102
}
330
1F
100
AcDbEntity
  8
ASSY
 62
   190
370
    15
390
5F
100
AcDbLine
 10
21129.59854946876
 20
-3875.19447314908
 30
0.0
 11
21130.31899442156
 21
-3876.025135213684
 31
0.0
  0
LINE
  5
429
102
{ACAD_REACTORS
330
2FD
102
}
330
1F
100
AcDbEntity
  8
ASSY
 62
   190
370
    15
390
5F
100
AcDbLine
 10
21130.31899442156
 20
-3876.025135213684
 30
0.0
 11
21129.15900846605
 21
-3876.957375822269
 31
0.0
  0
LINE
  5
42A
102
{ACAD_REACTORS
330
2FD
102
}
330
1F
100
AcDbEntity
  8
ASSY
 62
   190
370
    15
390
5F
100
AcDbLine
 10
21127.08818071756
 20
-3877.960433012922
 30
0.0
 11
21126.01107114696
 21
-3877.36059142882
 31
0.0
  0
LINE
  5
42B
102
{ACAD_REACTORS
330
2FD
102
}
330
1F
100
AcDbEntity
  8
ASSY
 62
   190
370
    15
390
5F
100
AcDbLine
 10
21126.01107114696
 20
-3877.36059142882
 30
0.0
 11
21126.74336509316
 21
-3876.577453081001
 31
0.0
  0
LINE
  5
42C
102
{ACAD_REACTORS
330
2FD
102
}
330
1F
100
AcDbEntity
  8
ASSY
 62
   190
370
    15
390
5F
100
AcDbLine
 10
21126.74336509316
 20
-3876.577453081001
 30
0.0
 11
21126.39854946877
 21
-3875.19447314908
 31
0.0
  0
ARC
  5
42D
102
{ACAD_REACTORS
330
2FD
102
}
330
1F
100
AcDbEntity
  8
ASSY
 62
   190
370
    15
390
5F
100
AcDbCircle
 10
21125.27313507499
 20
-3814.946286585302
 30
0.0
 40
0.400000000200216
100
AcDbArc
 50
27.5000000044283
 51
43.49999999597992
  0
ARC
  5
42E
102
{ACAD_REACTORS
330
2FD
102
}
330
1F
100
AcDbEntity
  8
ASSY
 62
   190
370
    15
390
5F
100
AcDbCircle
 10
21130.72396386204
 20
-3814.946286584948
 30
0.0
 40
0.3999999995974765
100
AcDbArc
 50
136.4999999919964
 51
152.5000000077988
  0
LINE
  5
42F
102
{ACAD_REACTORS
330
2FD
102
}
330
1F
100
AcDbEntity
  8
ASSY
 62
   190
370
    15
390
5F
100
AcDbLine
 10
21126.08556030194
 20
-3815.640668697248
 30
0.0
 11
21129.91153863558
 21
-3815.640668697248
 31
0.0
  0
LINE
  5
430
102
{ACAD_REACTORS
330
2FD
102
}
330
1F
100
AcDbEntity
  8
ASSY
 62
   190
370
    15
390
5F
100
AcDbLine
 10
21130.43381411397
 20
-3814.670944754907
 30
0.0
 11
21125.56328482356
 21
-3814.670944754907
 31
0.0
  0
LINE
  5
431
102
{ACAD_REACTORS
330
2FD
102
}
330
1F
100
AcDbEntity
  8
ASSY
 62
   190
370
    15
390
5F
100
AcDbLine
 10
21125.62793940843
 20
-3814.761587139888
 30
0.0
 11
21130.3691595291
 21
-3814.761587139888
 31
0.0
  0
LINE
  5
432
102
{ACAD_REACTORS
330
2FD
102
}
330
1F
100
AcDbEntity
  8
ASSY
 62
   190
370
    15
390
5F
100
AcDbLine
 10
21130.37354946876
 20
-3812.231722642726
 30
0.0
 11
21128.97069501384
 21
-3814.173909735691
 31
0.0
  0
LINE
  5
433
102
{ACAD_REACTORS
330
2FD
102
}
330
1F
100
AcDbEntity
  8
ASSY
 62
   190
370
    15
390
5F
100
AcDbLine
 10
21125.62354946876
 20
-3812.231722642726
 30
0.0
 11
21127.02640392368
 21
-3814.173909735691
 31
0.0
  0
LINE
  5
434
102
{ACAD_REACTORS
330
2FD
102
}
330
1F
100
AcDbEntity
  8
ASSY
 62
   190
370
    15
390
5F
100
AcDbLine
 10
21130.84854946876
 20
-3812.231722642726
 30
0.0
 11
21129.98121722459
 21
-3814.091722642712
 31
0.0
  0
ARC
  5
435
102
{ACAD_REACTORS
330
2FD
102
}
330
1F
100
AcDbEntity
  8
ASSY
 62
   190
370
    15
390
5F
100
AcDbCircle
 10
21130.60096101777
 20
-3814.073900441147
 30
0.0
 40
0.6200000000354305
100
AcDbArc
 50
181.647221954284
 51
254.3600231473136
  0
ARC
  5
436
102
{ACAD_REACTORS
330
2FD
102
}
330
1F
100
AcDbEntity
  8
ASSY
 62
   190
370
    15
390
5F
100
AcDbCircle
 10
21127.99854946876
 20
-3813.471722642721
 30
0.0
 40
1.199222112185883
100
AcDbArc
 50
215.8408281059925
 51
324.1591718940075
  0
ARC
  5
437
102
{ACAD_REACTORS
330
2FD
102
}
330
1F
100
AcDbEntity
  8
ASSY
 62
   190
370
    15
390
5F
100
AcDbCircle
 10
21125.39613791974
 20
-3814.073900441128
 30
0.0
 40
0.6200000000591508
100
AcDbArc
 50
285.6399768541757
 51
358.3527780440936
  0
LINE
  5
438
102
{ACAD_REACTORS
330
2FD
102
}
330
1F
100
AcDbEntity
  8
ASSY
 62
   190
370
    15
390
5F
100
AcDbLine
 10
21125.14854946877
 20
-3812.231722642726
 30
0.0
 11
21126.01588171293
 21
-3814.091722642712
 31
0.0
  0
LINE
  5
439
102
{ACAD_REACTORS
330
2FD
102
}
330
1F
100
AcDbEntity
  8
ASSY
 62
   190
370
    15
390
5F
100
AcDbLine
 10
21126.39854946877
 20
-3864.344473149074
 30
0.0
 11
21126.39854946877
 21
-3862.794473149057
 31
0.0
  0
LINE
  5
43A
102
{ACAD_REACTORS
330
2FD
102
}
330
1F
100
AcDbEntity
  8
ASSY
 62
   190
370
    15
390
5F
100
AcDbLine
 10
21129.59854946876
 20
-3862.794473149057
 30
0.0
 11
21129.59854946876
 21
-3861.244473149069
 31
0.0
  0
LINE
  5
43B
102
{ACAD_REACTORS
330
2FD
102
}
330
1F
100
AcDbEntity
  8
ASSY
 62
   190
370
    15
390
5F
100
AcDbLine
 10
21126.39854946877
 20
-3861.244473149069
 30
0.0
 11
21125.49854946876
 21
-3862.019473149092
 31
0.0
  0
LINE
  5
43C
102
{ACAD_REACTORS
330
2FD
102
}
330
1F
100
AcDbEntity
  8
ASSY
 62
   190
370
    15
390
5F
100
AcDbLine
 10
21125.49854946876
 20
-3862.019473149092
 30
0.0
 11
21126.39854946877
 21
-3862.794473149057
 31
0.0
  0
LINE
  5
43D
102
{ACAD_REACTORS
330
2FD
102
}
330
1F
100
AcDbEntity
  8
ASSY
 62
   190
370
    15
390
5F
100
AcDbLine
 10
21126.39854946877
 20
-3862.794473149057
 30
0.0
 11
21129.59854946876
 21
-3861.244473149069
 31
0.0
  0
LINE
  5
43E
102
{ACAD_REACTORS
330
2FD
102
}
330
1F
100
AcDbEntity
  8
ASSY
 62
   190
370
    15
390
5F
100
AcDbLine
 10
21125.49854946876
 20
-3862.019473149092
 30
0.0
 11
21130.49854946876
 21
-3860.469473149074
 31
0.0
  0
LINE
  5
43F
102
{ACAD_REACTORS
330
2FD
102
}
330
1F
100
AcDbEntity
  8
ASSY
 62
   190
370
    15
390
5F
100
AcDbLine
 10
21126.39854946877
 20
-3861.244473149069
 30
0.0
 11
21129.59854946876
 21
-3859.69447314908
 31
0.0
  0
LINE
  5
440
102
{ACAD_REACTORS
330
2FD
102
}
330
1F
100
AcDbEntity
  8
ASSY
 62
   190
370
    15
390
5F
100
AcDbLine
 10
21129.59854946876
 20
-3859.69447314908
 30
0.0
 11
21130.49854946876
 21
-3860.469473149074
 31
0.0
  0
LINE
  5
441
102
{ACAD_REACTORS
330
2FD
102
}
330
1F
100
AcDbEntity
  8
ASSY
 62
   190
370
    15
390
5F
100
AcDbLine
 10
21130.49854946876
 20
-3860.469473149074
 30
0.0
 11
21129.59854946876
 21
-3861.244473149069
 31
0.0
  0
LINE
  5
442
102
{ACAD_REACTORS
330
2FD
102
}
330
1F
100
AcDbEntity
  8
ASSY
 62
   190
370
    15
390
5F
100
AcDbLine
 10
21126.39854946877
 20
-3861.244473149069
 30
0.0
 11
21126.39854946877
 21
-3859.69447314908
 31
0.0
  0
LINE
  5
443
102
{ACAD_REACTORS
330
2FD
102
}
330
1F
100
AcDbEntity
  8
ASSY
 62
   190
370
    15
390
5F
100
AcDbLine
 10
21129.59854946876
 20
-3859.69447314908
 30
0.0
 11
21129.59854946876
 21
-3858.144473149063
 31
0.0
  0
LINE
  5
444
102
{ACAD_REACTORS
330
2FD
102
}
330
1F
100
AcDbEntity
  8
ASSY
 62
   190
370
    15
390
5F
100
AcDbLine
 10
21126.39854946877
 20
-3858.144473149063
 30
0.0
 11
21125.49854946876
 21
-3858.919473149057
 31
0.0
  0
LINE
  5
445
102
{ACAD_REACTORS
330
2FD
102
}
330
1F
100
AcDbEntity
  8
ASSY
 62
   190
370
    15
390
5F
100
AcDbLine
 10
21125.49854946876
 20
-3858.919473149057
 30
0.0
 11
21126.39854946877
 21
-3859.69447314908
 31
0.0
  0
LINE
  5
446
102
{ACAD_REACTORS
330
2FD
102
}
330
1F
100
AcDbEntity
  8
ASSY
 62
   190
370
    15
390
5F
100
AcDbLine
 10
21126.39854946877
 20
-3859.69447314908
 30
0.0
 11
21129.59854946876
 21
-3858.144473149063
 31
0.0
  0
LINE
  5
447
102
{ACAD_REACTORS
330
2FD
102
}
330
1F
100
AcDbEntity
  8
ASSY
 62
   190
370
    15
390
5F
100
AcDbLine
 10
21125.49854946876
 20
-3858.919473149057
 30
0.0
 11
21130.49854946876
 21
-3857.369473149069
 31
0.0
  0
LINE
  5
448
102
{ACAD_REACTORS
330
2FD
102
}
330
1F
100
AcDbEntity
  8
ASSY
 62
   190
370
    15
390
5F
100
AcDbLine
 10
21126.39854946877
 20
-3858.144473149063
 30
0.0
 11
21129.59854946876
 21
-3856.594473149074
 31
0.0
  0
LINE
  5
449
102
{ACAD_REACTORS
330
2FD
102
}
330
1F
100
AcDbEntity
  8
ASSY
 62
   190
370
    15
390
5F
100
AcDbLine
 10
21129.59854946876
 20
-3856.594473149074
 30
0.0
 11
21130.49854946876
 21
-3857.369473149069
 31
0.0
  0
LINE
  5
44A
102
{ACAD_REACTORS
330
2FD
102
}
330
1F
100
AcDbEntity
  8
ASSY
 62
   190
370
    15
390
5F
100
AcDbLine
 10
21130.49854946876
 20
-3857.369473149069
 30
0.0
 11
21129.59854946876
 21
-3858.144473149063
 31
0.0
  0
LINE
  5
44B
102
{ACAD_REACTORS
330
2FD
102
}
330
1F
100
AcDbEntity
  8
ASSY
 62
   190
370
    15
390
5F
100
AcDbLine
 10
21126.39854946877
 20
-3858.144473149063
 30
0.0
 11
21126.39854946877
 21
-3856.594473149074
 31
0.0
  0
LINE
  5
44C
102
{ACAD_REACTORS
330
2FD
102
}
330
1F
100
AcDbEntity
  8
ASSY
 62
   190
370
    15
390
5F
100
AcDbLine
 10
21129.59854946876
 20
-3856.594473149074
 30
0.0
 11
21129.59854946876
 21
-3855.044473149057
 31
0.0
  0
LINE
  5
44D
102
{ACAD_REACTORS
330
2FD
102
}
330
1F
100
AcDbEntity
  8
ASSY
 62
   190
370
    15
390
5F
100
AcDbLine
 10
21126.39854946877
 20
-3855.044473149057
 30
0.0
 11
21125.49854946876
 21
-3855.81947314908
 31
0.0
  0
LINE
  5
44E
102
{ACAD_REACTORS
330
2FD
102
}
330
1F
100
AcDbEntity
  8
ASSY
 62
   190
370
    15
390
5F
100
AcDbLine
 10
21125.49854946876
 20
-3855.81947314908
 30
0.0
 11
21126.39854946877
 21
-3856.594473149074
 31
0.0
  0
LINE
  5
44F
102
{ACAD_REACTORS
330
2FD
102
}
330
1F
100
AcDbEntity
  8
ASSY
 62
   190
370
    15
390
5F
100
AcDbLine
 10
21126.39854946877
 20
-3856.594473149074
 30
0.0
 11
21129.59854946876
 21
-3855.044473149057
 31
0.0
  0
LINE
  5
450
102
{ACAD_REACTORS
330
2FD
102
}
330
1F
100
AcDbEntity
  8
ASSY
 62
   190
370
    15
390
5F
100
AcDbLine
 10
21125.49854946876
 20
-3855.81947314908
 30
0.0
 11
21130.49854946876
 21
-3854.269473149063
 31
0.0
  0
LINE
  5
451
102
{ACAD_REACTORS
330
2FD
102
}
330
1F
100
AcDbEntity
  8
ASSY
 62
   190
370
    15
390
5F
100
AcDbLine
 10
21126.39854946877
 20
-3855.044473149057
 30
0.0
 11
21129.59854946876
 21
-3853.494473149069
 31
0.0
  0
LINE
  5
452
102
{ACAD_REACTORS
330
2FD
102
}
330
1F
100
AcDbEntity
  8
ASSY
 62
   190
370
    15
390
5F
100
AcDbLine
 10
21129.59854946876
 20
-3853.494473149069
 30
0.0
 11
21130.49854946876
 21
-3854.269473149063
 31
0.0
  0
LINE
  5
453
102
{ACAD_REACTORS
330
2FD
102
}
330
1F
100
AcDbEntity
  8
ASSY
 62
   190
370
    15
390
5F
100
AcDbLine
 10
21130.49854946876
 20
-3854.269473149063
 30
0.0
 11
21129.59854946876
 21
-3855.044473149057
 31
0.0
  0
LINE
  5
454
102
{ACAD_REACTORS
330
2FD
102
}
330
1F
100
AcDbEntity
  8
ASSY
 62
   190
370
    15
390
5F
100
AcDbLine
 10
21126.39854946877
 20
-3855.044473149057
 30
0.0
 11
21126.39854946877
 21
-3853.494473149069
 31
0.0
  0
LINE
  5
455
102
{ACAD_REACTORS
330
2FD
102
}
330
1F
100
AcDbEntity
  8
ASSY
 62
   190
370
    15
390
5F
100
AcDbLine
 10
21129.59854946876
 20
-3853.494473149069
 30
0.0
 11
21129.59854946876
 21
-3851.94447314908
 31
0.0
  0
LINE
  5
456
102
{ACAD_REACTORS
330
2FD
102
}
330
1F
100
AcDbEntity
  8
ASSY
 62
   190
370
    15
390
5F
100
AcDbLine
 10
21126.39854946877
 20
-3851.94447314908
 30
0.0
 11
21125.49854946876
 21
-3852.719473149074
 31
0.0
  0
LINE
  5
457
102
{ACAD_REACTORS
330
2FD
102
}
330
1F
100
AcDbEntity
  8
ASSY
 62
   190
370
    15
390
5F
100
AcDbLine
 10
21125.49854946876
 20
-3852.719473149074
 30
0.0
 11
21126.39854946877
 21
-3853.494473149069
 31
0.0
  0
LINE
  5
458
102
{ACAD_REACTORS
330
2FD
102
}
330
1F
100
AcDbEntity
  8
ASSY
 62
   190
370
    15
390
5F
100
AcDbLine
 10
21126.39854946877
 20
-3853.494473149069
 30
0.0
 11
21129.59854946876
 21
-3851.94447314908
 31
0.0
  0
LINE
  5
459
102
{ACAD_REACTORS
330
2FD
102
}
330
1F
100
AcDbEntity
  8
ASSY
 62
   190
370
    15
390
5F
100
AcDbLine
 10
21125.49854946876
 20
-3852.719473149074
 30
0.0
 11
21130.49854946876
 21
-3851.169473149057
 31
0.0
  0
LINE
  5
45A
102
{ACAD_REACTORS
330
2FD
102
}
330
1F
100
AcDbEntity
  8
ASSY
 62
   190
370
    15
390
5F
100
AcDbLine
 10
21126.39854946877
 20
-3851.94447314908
 30
0.0
 11
21129.59854946876
 21
-3850.394473149063
 31
0.0
  0
LINE
  5
45B
102
{ACAD_REACTORS
330
2FD
102
}
330
1F
100
AcDbEntity
  8
ASSY
 62
   190
370
    15
390
5F
100
AcDbLine
 10
21129.59854946876
 20
-3850.394473149063
 30
0.0
 11
21130.49854946876
 21
-3851.169473149057
 31
0.0
  0
LINE
  5
45C
102
{ACAD_REACTORS
330
2FD
102
}
330
1F
100
AcDbEntity
  8
ASSY
 62
   190
370
    15
390
5F
100
AcDbLine
 10
21130.49854946876
 20
-3851.169473149057
 30
0.0
 11
21129.59854946876
 21
-3851.94447314908
 31
0.0
  0
LINE
  5
45D
102
{ACAD_REACTORS
330
2FD
102
}
330
1F
100
AcDbEntity
  8
ASSY
 62
   190
370
    15
390
5F
100
AcDbLine
 10
21126.39854946877
 20
-3851.94447314908
 30
0.0
 11
21126.39854946877
 21
-3850.394473149063
 31
0.0
  0
LINE
  5
45E
102
{ACAD_REACTORS
330
2FD
102
}
330
1F
100
AcDbEntity
  8
ASSY
 62
   190
370
    15
390
5F
100
AcDbLine
 10
21129.59854946876
 20
-3850.394473149063
 30
0.0
 11
21129.59854946876
 21
-3848.844473149074
 31
0.0
  0
LINE
  5
45F
102
{ACAD_REACTORS
330
2FD
102
}
330
1F
100
AcDbEntity
  8
ASSY
 62
   190
370
    15
390
5F
100
AcDbLine
 10
21126.39854946877
 20
-3848.844473149074
 30
0.0
 11
21125.49854946876
 21
-3849.619473149069
 31
0.0
  0
LINE
  5
460
102
{ACAD_REACTORS
330
2FD
102
}
330
1F
100
AcDbEntity
  8
ASSY
 62
   190
370
    15
390
5F
100
AcDbLine
 10
21125.49854946876
 20
-3849.619473149069
 30
0.0
 11
21126.39854946877
 21
-3850.394473149063
 31
0.0
  0
LINE
  5
461
102
{ACAD_REACTORS
330
2FD
102
}
330
1F
100
AcDbEntity
  8
ASSY
 62
   190
370
    15
390
5F
100
AcDbLine
 10
21126.39854946877
 20
-3850.394473149063
 30
0.0
 11
21129.59854946876
 21
-3848.844473149074
 31
0.0
  0
LINE
  5
462
102
{ACAD_REACTORS
330
2FD
102
}
330
1F
100
AcDbEntity
  8
ASSY
 62
   190
370
    15
390
5F
100
AcDbLine
 10
21125.49854946876
 20
-3849.619473149069
 30
0.0
 11
21130.49854946876
 21
-3848.06947314908
 31
0.0
  0
LINE
  5
463
102
{ACAD_REACTORS
330
2FD
102
}
330
1F
100
AcDbEntity
  8
ASSY
 62
   190
370
    15
390
5F
100
AcDbLine
 10
21126.39854946877
 20
-3848.844473149074
 30
0.0
 11
21129.59854946876
 21
-3847.294473149057
 31
0.0
  0
LINE
  5
464
102
{ACAD_REACTORS
330
2FD
102
}
330
1F
100
AcDbEntity
  8
ASSY
 62
   190
370
    15
390
5F
100
AcDbLine
 10
21129.59854946876
 20
-3847.294473149057
 30
0.0
 11
21130.49854946876
 21
-3848.06947314908
 31
0.0
  0
LINE
  5
465
102
{ACAD_REACTORS
330
2FD
102
}
330
1F
100
AcDbEntity
  8
ASSY
 62
   190
370
    15
390
5F
100
AcDbLine
 10
21130.49854946876
 20
-3848.06947314908
 30
0.0
 11
21129.59854946876
 21
-3848.844473149074
 31
0.0
  0
LINE
  5
466
102
{ACAD_REACTORS
330
2FD
102
}
330
1F
100
AcDbEntity
  8
ASSY
 62
   190
370
    15
390
5F
100
AcDbLine
 10
21126.39854946877
 20
-3848.844473149074
 30
0.0
 11
21126.39854946877
 21
-3847.294473149057
 31
0.0
  0
LINE
  5
467
102
{ACAD_REACTORS
330
2FD
102
}
330
1F
100
AcDbEntity
  8
ASSY
 62
   190
370
    15
390
5F
100
AcDbLine
 10
21129.59854946876
 20
-3847.294473149057
 30
0.0
 11
21129.59854946876
 21
-3845.744473149069
 31
0.0
  0
LINE
  5
468
102
{ACAD_REACTORS
330
2FD
102
}
330
1F
100
AcDbEntity
  8
ASSY
 62
   190
370
    15
390
5F
100
AcDbLine
 10
21126.39854946877
 20
-3845.744473149069
 30
0.0
 11
21125.49854946876
 21
-3846.519473149063
 31
0.0
  0
LINE
  5
469
102
{ACAD_REACTORS
330
2FD
102
}
330
1F
100
AcDbEntity
  8
ASSY
 62
   190
370
    15
390
5F
100
AcDbLine
 10
21125.49854946876
 20
-3846.519473149063
 30
0.0
 11
21126.39854946877
 21
-3847.294473149057
 31
0.0
  0
LINE
  5
46A
102
{ACAD_REACTORS
330
2FD
102
}
330
1F
100
AcDbEntity
  8
ASSY
 62
   190
370
    15
390
5F
100
AcDbLine
 10
21126.39854946877
 20
-3847.294473149057
 30
0.0
 11
21129.59854946876
 21
-3845.744473149069
 31
0.0
  0
LINE
  5
46B
102
{ACAD_REACTORS
330
2FD
102
}
330
1F
100
AcDbEntity
  8
ASSY
 62
   190
370
    15
390
5F
100
AcDbLine
 10
21125.49854946876
 20
-3846.519473149063
 30
0.0
 11
21130.49854946876
 21
-3844.969473149074
 31
0.0
  0
LINE
  5
46C
102
{ACAD_REACTORS
330
2FD
102
}
330
1F
100
AcDbEntity
  8
ASSY
 62
   190
370
    15
390
5F
100
AcDbLine
 10
21126.39854946877
 20
-3845.744473149069
 30
0.0
 11
21129.59854946876
 21
-3844.19447314908
 31
0.0
  0
LINE
  5
46D
102
{ACAD_REACTORS
330
2FD
102
}
330
1F
100
AcDbEntity
  8
ASSY
 62
   190
370
    15
390
5F
100
AcDbLine
 10
21129.59854946876
 20
-3844.19447314908
 30
0.0
 11
21130.49854946876
 21
-3844.969473149074
 31
0.0
  0
LINE
  5
46E
102
{ACAD_REACTORS
330
2FD
102
}
330
1F
100
AcDbEntity
  8
ASSY
 62
   190
370
    15
390
5F
100
AcDbLine
 10
21130.49854946876
 20
-3844.969473149074
 30
0.0
 11
21129.59854946876
 21
-3845.744473149069
 31
0.0
  0
LINE
  5
46F
102
{ACAD_REACTORS
330
2FD
102
}
330
1F
100
AcDbEntity
  8
ASSY
 62
   190
370
    15
390
5F
100
AcDbLine
 10
21126.39854946877
 20
-3845.744473149069
 30
0.0
 11
21126.39854946877
 21
-3844.19447314908
 31
0.0
  0
LINE
  5
470
102
{ACAD_REACTORS
330
2FD
102
}
330
1F
100
AcDbEntity
  8
ASSY
 62
   190
370
    15
390
5F
100
AcDbLine
 10
21129.59854946876
 20
-3844.19447314908
 30
0.0
 11
21129.59854946876
 21
-3842.644473149063
 31
0.0
  0
LINE
  5
471
102
{ACAD_REACTORS
330
2FD
102
}
330
1F
100
AcDbEntity
  8
ASSY
 62
   190
370
    15
390
5F
100
AcDbLine
 10
21126.39854946877
 20
-3842.644473149063
 30
0.0
 11
21125.49854946876
 21
-3843.419473149057
 31
0.0
  0
LINE
  5
472
102
{ACAD_REACTORS
330
2FD
102
}
330
1F
100
AcDbEntity
  8
ASSY
 62
   190
370
    15
390
5F
100
AcDbLine
 10
21125.49854946876
 20
-3843.419473149057
 30
0.0
 11
21126.39854946877
 21
-3844.19447314908
 31
0.0
  0
LINE
  5
473
102
{ACAD_REACTORS
330
2FD
102
}
330
1F
100
AcDbEntity
  8
ASSY
 62
   190
370
    15
390
5F
100
AcDbLine
 10
21126.39854946877
 20
-3844.19447314908
 30
0.0
 11
21129.59854946876
 21
-3842.644473149063
 31
0.0
  0
LINE
  5
474
102
{ACAD_REACTORS
330
2FD
102
}
330
1F
100
AcDbEntity
  8
ASSY
 62
   190
370
    15
390
5F
100
AcDbLine
 10
21125.49854946876
 20
-3843.419473149057
 30
0.0
 11
21130.49854946876
 21
-3841.869473149069
 31
0.0
  0
LINE
  5
475
102
{ACAD_REACTORS
330
2FD
102
}
330
1F
100
AcDbEntity
  8
ASSY
 62
   190
370
    15
390
5F
100
AcDbLine
 10
21126.39854946877
 20
-3842.644473149063
 30
0.0
 11
21129.59854946876
 21
-3841.094473149074
 31
0.0
  0
LINE
  5
476
102
{ACAD_REACTORS
330
2FD
102
}
330
1F
100
AcDbEntity
  8
ASSY
 62
   190
370
    15
390
5F
100
AcDbLine
 10
21129.59854946876
 20
-3841.094473149074
 30
0.0
 11
21130.49854946876
 21
-3841.869473149069
 31
0.0
  0
LINE
  5
477
102
{ACAD_REACTORS
330
2FD
102
}
330
1F
100
AcDbEntity
  8
ASSY
 62
   190
370
    15
390
5F
100
AcDbLine
 10
21130.49854946876
 20
-3841.869473149069
 30
0.0
 11
21129.59854946876
 21
-3842.644473149063
 31
0.0
  0
LINE
  5
478
102
{ACAD_REACTORS
330
2E8
330
2E9
102
}
330
1F
100
AcDbEntity
  8
ASSY
 62
   190
370
    15
390
5F
100
AcDbLine
 10
21129.68995407306
 20
-3633.090570418659
 30
0.0
 11
21129.68995407306
 21
-3631.540570418671
 31
0.0
  0
LINE
  5
479
102
{ACAD_REACTORS
330
2E8
330
2E9
102
}
330
1F
100
AcDbEntity
  8
ASSY
 62
   190
370
    15
390
5F
100
AcDbLine
 10
21126.48995407306
 20
-3631.540570418671
 30
0.0
 11
21126.48995407306
 21
-3629.990570418653
 31
0.0
  0
LINE
  5
47A
102
{ACAD_REACTORS
330
2E8
330
2E9
102
}
330
1F
100
AcDbEntity
  8
ASSY
 62
   190
370
    15
390
5F
100
AcDbLine
 10
21129.68995407306
 20
-3629.990570418653
 30
0.0
 11
21130.58995407306
 21
-3630.765570418676
 31
0.0
  0
LINE
  5
47B
102
{ACAD_REACTORS
330
2E8
330
2E9
102
}
330
1F
100
AcDbEntity
  8
ASSY
 62
   190
370
    15
390
5F
100
AcDbLine
 10
21130.58995407306
 20
-3630.765570418676
 30
0.0
 11
21129.68995407306
 21
-3631.540570418671
 31
0.0
  0
LINE
  5
47C
102
{ACAD_REACTORS
330
2E8
330
2E9
102
}
330
1F
100
AcDbEntity
  8
ASSY
 62
   190
370
    15
390
5F
100
AcDbLine
 10
21126.48995407306
 20
-3631.540570418671
 30
0.0
 11
21125.58995407306
 21
-3632.315570418665
 31
0.0
  0
LINE
  5
47D
102
{ACAD_REACTORS
330
2E8
330
2E9
102
}
330
1F
100
AcDbEntity
  8
ASSY
 62
   190
370
    15
390
5F
100
AcDbLine
 10
21125.58995407306
 20
-3632.315570418665
 30
0.0
 11
21126.48995407306
 21
-3633.090570418659
 31
0.0
  0
LINE
  5
47E
102
{ACAD_REACTORS
330
2E8
330
2E9
102
}
330
1F
100
AcDbEntity
  8
ASSY
 62
   190
370
    15
390
5F
100
AcDbLine
 10
21126.48995407306
 20
-3633.090570418659
 30
0.0
 11
21129.68995407306
 21
-3631.540570418671
 31
0.0
  0
LINE
  5
47F
102
{ACAD_REACTORS
330
2E8
330
2E9
102
}
330
1F
100
AcDbEntity
  8
ASSY
 62
   190
370
    15
390
5F
100
AcDbLine
 10
21126.48995407306
 20
-3631.540570418671
 30
0.0
 11
21129.68995407306
 21
-3629.990570418653
 31
0.0
  0
LINE
  5
480
102
{ACAD_REACTORS
330
2E8
330
2E9
102
}
330
1F
100
AcDbEntity
  8
ASSY
 62
   190
370
    15
390
5F
100
AcDbLine
 10
21125.58995407306
 20
-3632.315570418665
 30
0.0
 11
21130.58995407306
 21
-3630.765570418676
 31
0.0
  0
LINE
  5
481
102
{ACAD_REACTORS
330
2E8
330
2E9
102
}
330
1F
100
AcDbEntity
  8
ASSY
 62
   190
370
    15
390
5F
100
AcDbLine
 10
21128.08995407306
 20
-3639.507819912338
 30
0.0
 11
21129.25041307035
 21
-3634.853473091847
 31
0.0
  0
LINE
  5
482
102
{ACAD_REACTORS
330
2E8
330
2E9
102
}
330
1F
100
AcDbEntity
  8
ASSY
 62
   190
370
    15
390
5F
100
AcDbLine
 10
21128.08995407306
 20
-3639.507819912338
 30
0.0
 11
21127.17958532186
 21
-3635.85653028253
 31
0.0
  0
LINE
  5
483
102
{ACAD_REACTORS
330
2E8
330
2E9
102
}
330
1F
100
AcDbEntity
  8
ASSY
 62
   190
370
    15
390
5F
100
AcDbLine
 10
21129.68995407306
 20
-3629.990570418653
 30
0.0
 11
21129.68995407306
 21
-3628.440570418665
 31
0.0
  0
LINE
  5
484
102
{ACAD_REACTORS
330
2E8
330
2E9
102
}
330
1F
100
AcDbEntity
  8
ASSY
 62
   190
370
    15
390
5F
100
AcDbLine
 10
21126.48995407306
 20
-3628.440570418665
 30
0.0
 11
21126.48995407306
 21
-3626.890570418676
 31
0.0
  0
LINE
  5
485
102
{ACAD_REACTORS
330
2E8
330
2E9
102
}
330
1F
100
AcDbEntity
  8
ASSY
 62
   190
370
    15
390
5F
100
AcDbLine
 10
21126.48995407306
 20
-3628.440570418665
 30
0.0
 11
21125.58995407306
 21
-3629.215570418659
 31
0.0
  0
LINE
  5
486
102
{ACAD_REACTORS
330
2E8
330
2E9
102
}
330
1F
100
AcDbEntity
  8
ASSY
 62
   190
370
    15
390
5F
100
AcDbLine
 10
21125.58995407306
 20
-3629.215570418659
 30
0.0
 11
21126.48995407306
 21
-3629.990570418653
 31
0.0
  0
LINE
  5
487
102
{ACAD_REACTORS
330
2E8
330
2E9
102
}
330
1F
100
AcDbEntity
  8
ASSY
 62
   190
370
    15
390
5F
100
AcDbLine
 10
21126.48995407306
 20
-3629.990570418653
 30
0.0
 11
21129.68995407306
 21
-3628.440570418665
 31
0.0
  0
LINE
  5
488
102
{ACAD_REACTORS
330
2E8
330
2E9
102
}
330
1F
100
AcDbEntity
  8
ASSY
 62
   190
370
    15
390
5F
100
AcDbLine
 10
21125.58995407306
 20
-3629.215570418659
 30
0.0
 11
21130.58995407306
 21
-3627.665570418671
 31
0.0
  0
LINE
  5
489
102
{ACAD_REACTORS
330
2E8
330
2E9
102
}
330
1F
100
AcDbEntity
  8
ASSY
 62
   190
370
    15
390
5F
100
AcDbLine
 10
21126.48995407306
 20
-3628.440570418665
 30
0.0
 11
21129.68995407306
 21
-3626.890570418676
 31
0.0
  0
LINE
  5
48A
102
{ACAD_REACTORS
330
2E8
330
2E9
102
}
330
1F
100
AcDbEntity
  8
ASSY
 62
   190
370
    15
390
5F
100
AcDbLine
 10
21129.68995407306
 20
-3626.890570418676
 30
0.0
 11
21130.58995407306
 21
-3627.665570418671
 31
0.0
  0
LINE
  5
48B
102
{ACAD_REACTORS
330
2E8
330
2E9
102
}
330
1F
100
AcDbEntity
  8
ASSY
 62
   190
370
    15
390
5F
100
AcDbLine
 10
21130.58995407306
 20
-3627.665570418671
 30
0.0
 11
21129.68995407306
 21
-3628.440570418665
 31
0.0
  0
LINE
  5
48C
102
{ACAD_REACTORS
330
2E8
330
2E9
102
}
330
1F
100
AcDbEntity
  8
ASSY
 62
   190
370
    15
390
5F
100
AcDbLine
 10
21129.68995407306
 20
-3626.890570418676
 30
0.0
 11
21129.68995407306
 21
-3625.340570418659
 31
0.0
  0
LINE
  5
48D
102
{ACAD_REACTORS
330
2E8
330
2E9
102
}
330
1F
100
AcDbEntity
  8
ASSY
 62
   190
370
    15
390
5F
100
AcDbLine
 10
21126.48995407306
 20
-3625.340570418659
 30
0.0
 11
21126.48995407306
 21
-3623.790570418671
 31
0.0
  0
LINE
  5
48E
102
{ACAD_REACTORS
330
2E8
330
2E9
102
}
330
1F
100
AcDbEntity
  8
ASSY
 62
   190
370
    15
390
5F
100
AcDbLine
 10
21126.48995407306
 20
-3625.340570418659
 30
0.0
 11
21125.58995407306
 21
-3626.115570418653
 31
0.0
  0
LINE
  5
48F
102
{ACAD_REACTORS
330
2E8
330
2E9
102
}
330
1F
100
AcDbEntity
  8
ASSY
 62
   190
370
    15
390
5F
100
AcDbLine
 10
21125.58995407306
 20
-3626.115570418653
 30
0.0
 11
21126.48995407306
 21
-3626.890570418676
 31
0.0
  0
LINE
  5
490
102
{ACAD_REACTORS
330
2E8
330
2E9
102
}
330
1F
100
AcDbEntity
  8
ASSY
 62
   190
370
    15
390
5F
100
AcDbLine
 10
21126.48995407306
 20
-3626.890570418676
 30
0.0
 11
21129.68995407306
 21
-3625.340570418659
 31
0.0
  0
LINE
  5
491
102
{ACAD_REACTORS
330
2E8
330
2E9
102
}
330
1F
100
AcDbEntity
  8
ASSY
 62
   190
370
    15
390
5F
100
AcDbLine
 10
21125.58995407306
 20
-3626.115570418653
 30
0.0
 11
21130.58995407306
 21
-3624.565570418665
 31
0.0
  0
LINE
  5
492
102
{ACAD_REACTORS
330
2E8
330
2E9
102
}
330
1F
100
AcDbEntity
  8
ASSY
 62
   190
370
    15
390
5F
100
AcDbLine
 10
21126.48995407306
 20
-3625.340570418659
 30
0.0
 11
21129.68995407306
 21
-3623.790570418671
 31
0.0
  0
LINE
  5
493
102
{ACAD_REACTORS
330
2E8
330
2E9
102
}
330
1F
100
AcDbEntity
  8
ASSY
 62
   190
370
    15
390
5F
100
AcDbLine
 10
21129.68995407306
 20
-3623.790570418671
 30
0.0
 11
21130.58995407306
 21
-3624.565570418665
 31
0.0
  0
LINE
  5
494
102
{ACAD_REACTORS
330
2E8
330
2E9
102
}
330
1F
100
AcDbEntity
  8
ASSY
 62
   190
370
    15
390
5F
100
AcDbLine
 10
21130.58995407306
 20
-3624.565570418665
 30
0.0
 11
21129.68995407306
 21
-3625.340570418659
 31
0.0
  0
LINE
  5
495
102
{ACAD_REACTORS
330
2E8
330
2E9
102
}
330
1F
100
AcDbEntity
  8
ASSY
 62
   190
370
    15
390
5F
100
AcDbLine
 10
21129.68995407306
 20
-3623.790570418671
 30
0.0
 11
21129.68995407306
 21
-3622.240570418653
 31
0.0
  0
LINE
  5
496
102
{ACAD_REACTORS
330
2E8
330
2E9
102
}
330
1F
100
AcDbEntity
  8
ASSY
 62
   190
370
    15
390
5F
100
AcDbLine
 10
21126.48995407306
 20
-3622.240570418653
 30
0.0
 11
21125.58995407306
 21
-3623.015570418676
 31
0.0
  0
LINE
  5
497
102
{ACAD_REACTORS
330
2E8
330
2E9
102
}
330
1F
100
AcDbEntity
  8
ASSY
 62
   190
370
    15
390
5F
100
AcDbLine
 10
21125.58995407306
 20
-3623.015570418676
 30
0.0
 11
21130.58995407306
 21
-3621.465570418659
 31
0.0
  0
LINE
  5
498
102
{ACAD_REACTORS
330
2E8
330
2E9
102
}
330
1F
100
AcDbEntity
  8
ASSY
 62
   190
370
    15
390
5F
100
AcDbLine
 10
21125.58995407306
 20
-3623.015570418676
 30
0.0
 11
21126.48995407306
 21
-3623.790570418671
 31
0.0
  0
LINE
  5
499
102
{ACAD_REACTORS
330
2E8
330
2E9
102
}
330
1F
100
AcDbEntity
  8
ASSY
 62
   190
370
    15
390
5F
100
AcDbLine
 10
21126.48995407306
 20
-3623.790570418671
 30
0.0
 11
21129.68995407306
 21
-3622.240570418653
 31
0.0
  0
LINE
  5
49A
102
{ACAD_REACTORS
330
2E8
330
2E9
102
}
330
1F
100
AcDbEntity
  8
ASSY
 62
   190
370
    15
390
5F
100
AcDbLine
 10
21126.48995407306
 20
-3622.240570418653
 30
0.0
 11
21129.68995407306
 21
-3620.690570418665
 31
0.0
  0
LINE
  5
49B
102
{ACAD_REACTORS
330
2E8
330
2E9
102
}
330
1F
100
AcDbEntity
  8
ASSY
 62
   190
370
    15
390
5F
100
AcDbLine
 10
21129.68995407306
 20
-3620.690570418665
 30
0.0
 11
21130.58995407306
 21
-3621.465570418659
 31
0.0
  0
LINE
  5
49C
102
{ACAD_REACTORS
330
2E8
330
2E9
102
}
330
1F
100
AcDbEntity
  8
ASSY
 62
   190
370
    15
390
5F
100
AcDbLine
 10
21130.58995407306
 20
-3621.465570418659
 30
0.0
 11
21129.68995407306
 21
-3622.240570418653
 31
0.0
  0
LINE
  5
49D
102
{ACAD_REACTORS
330
2E8
330
2E9
102
}
330
1F
100
AcDbEntity
  8
ASSY
 62
   190
370
    15
390
5F
100
AcDbLine
 10
21132.83995407306
 20
-3569.507819912338
 30
0.0
 11
21132.83995407306
 21
-3570.127819912334
 31
0.0
  0
LINE
  5
49E
102
{ACAD_REACTORS
330
2E8
330
2E9
102
}
330
1F
100
AcDbEntity
  8
ASSY
 62
   190
370
    15
390
5F
100
AcDbLine
 10
21123.33995407306
 20
-3570.127819912334
 30
0.0
 11
21123.33995407306
 21
-3569.507819912338
 31
0.0
  0
LINE
  5
49F
102
{ACAD_REACTORS
330
2E8
330
2E9
102
}
330
1F
100
AcDbEntity
  8
ASSY
 62
   190
370
    15
390
5F
100
AcDbLine
 10
21123.33995407306
 20
-3569.507819912338
 30
0.0
 11
21132.83995407306
 21
-3569.507819912338
 31
0.0
  0
LINE
  5
4A0
102
{ACAD_REACTORS
330
2E8
330
2E9
102
}
330
1F
100
AcDbEntity
  8
ASSY
 62
   190
370
    15
390
5F
100
AcDbLine
 10
21123.33995407306
 20
-3570.127819912334
 30
0.0
 11
21132.83995407306
 21
-3570.127819912334
 31
0.0
  0
LINE
  5
4A1
102
{ACAD_REACTORS
330
2E8
330
2E9
102
}
330
1F
100
AcDbEntity
  8
ASSY
 62
   190
370
    15
390
5F
100
AcDbLine
 10
21132.83995407306
 20
-3570.127819912334
 30
0.0
 11
21130.52521871826
 21
-3572.567042024486
 31
0.0
  0
LINE
  5
4A2
102
{ACAD_REACTORS
330
2E8
330
2E9
102
}
330
1F
100
AcDbEntity
  8
ASSY
 62
   190
370
    15
390
5F
100
AcDbLine
 10
21123.33995407306
 20
-3570.127819912334
 30
0.0
 11
21125.65468942786
 21
-3572.567042024486
 31
0.0
  0
LINE
  5
4A3
102
{ACAD_REACTORS
330
2E8
330
2E9
102
}
330
1F
100
AcDbEntity
  8
ASSY
 62
   190
370
    15
390
5F
100
AcDbLine
 10
21130.4605641334
 20
-3572.657684409467
 30
0.0
 11
21130.00294323988
 21
-3573.536765966855
 31
0.0
  0
LINE
  5
4A4
102
{ACAD_REACTORS
330
2E8
330
2E9
102
}
330
1F
100
AcDbEntity
  8
ASSY
 62
   190
370
    15
390
5F
100
AcDbLine
 10
21125.71934401272
 20
-3572.657684409467
 30
0.0
 11
21126.17696490624
 21
-3573.536765966855
 31
0.0
  0
LINE
  5
4A5
102
{ACAD_REACTORS
330
2E8
330
2E9
102
}
330
1F
100
AcDbEntity
  8
ASSY
 62
   190
370
    15
390
5F
100
AcDbLine
 10
21127.17958532186
 20
-3635.85653028253
 30
0.0
 11
21129.25041307035
 21
-3634.853473091847
 31
0.0
  0
LINE
  5
4A6
102
{ACAD_REACTORS
330
2E8
330
2E9
102
}
330
1F
100
AcDbEntity
  8
ASSY
 62
   190
370
    15
390
5F
100
AcDbLine
 10
21126.10247575126
 20
-3635.256688698428
 30
0.0
 11
21130.41039902586
 21
-3633.921232483292
 31
0.0
  0
LINE
  5
4A7
102
{ACAD_REACTORS
330
2E8
330
2E9
102
}
330
1F
100
AcDbEntity
  8
ASSY
 62
   190
370
    15
390
5F
100
AcDbLine
 10
21126.83476969746
 20
-3634.47355035058
 30
0.0
 11
21129.68995407306
 21
-3633.090570418659
 31
0.0
  0
LINE
  5
4A8
102
{ACAD_REACTORS
330
2E8
330
2E9
102
}
330
1F
100
AcDbEntity
  8
ASSY
 62
   190
370
    15
390
5F
100
AcDbLine
 10
21129.68995407306
 20
-3633.090570418659
 30
0.0
 11
21130.41039902586
 21
-3633.921232483292
 31
0.0
  0
LINE
  5
4A9
102
{ACAD_REACTORS
330
2E8
330
2E9
102
}
330
1F
100
AcDbEntity
  8
ASSY
 62
   190
370
    15
390
5F
100
AcDbLine
 10
21130.41039902586
 20
-3633.921232483292
 30
0.0
 11
21129.25041307035
 21
-3634.853473091847
 31
0.0
  0
LINE
  5
4AA
102
{ACAD_REACTORS
330
2E8
330
2E9
102
}
330
1F
100
AcDbEntity
  8
ASSY
 62
   190
370
    15
390
5F
100
AcDbLine
 10
21127.17958532186
 20
-3635.85653028253
 30
0.0
 11
21126.10247575126
 21
-3635.256688698428
 31
0.0
  0
LINE
  5
4AB
102
{ACAD_REACTORS
330
2E8
330
2E9
102
}
330
1F
100
AcDbEntity
  8
ASSY
 62
   190
370
    15
390
5F
100
AcDbLine
 10
21126.10247575126
 20
-3635.256688698428
 30
0.0
 11
21126.83476969746
 21
-3634.47355035058
 31
0.0
  0
LINE
  5
4AC
102
{ACAD_REACTORS
330
2E8
330
2E9
102
}
330
1F
100
AcDbEntity
  8
ASSY
 62
   190
370
    15
390
5F
100
AcDbLine
 10
21126.83476969746
 20
-3634.47355035058
 30
0.0
 11
21126.48995407306
 21
-3633.090570418659
 31
0.0
  0
ARC
  5
4AD
102
{ACAD_REACTORS
330
2E8
330
2E9
102
}
330
1F
100
AcDbEntity
  8
ASSY
 62
   190
370
    15
390
5F
100
AcDbCircle
 10
21125.36453967929
 20
-3572.842383854881
 30
0.0
 40
0.400000000200216
100
AcDbArc
 50
27.5000000044283
 51
43.49999999597992
  0
LINE
  5
4AE
102
{ACAD_REACTORS
330
2E8
330
2E9
102
}
330
1F
100
AcDbEntity
  8
DEFPOINTS
 62
   190
370
    15
390
5F
100
AcDbLine
 10
21128.08995407306
 20
-3569.507819912338
 30
0.0
 11
21128.08995407306
 21
-3639.507819912338
 31
0.0
  0
LINE
  5
4AF
102
{ACAD_REACTORS
330
2F0
102
}
330
1F
100
AcDbEntity
  8
DEFPOINTS
 62
   190
370
    15
390
5F
100
AcDbLine
 10
20517.72407068928
 20
-3221.912255337782
 30
0.0
 11
20517.72407068928
 21
-3291.912255337782
 31
0.0
  0
LINE
  5
4B0
102
{ACAD_REACTORS
330
2FD
102
}
330
1F
100
AcDbEntity
  8
DEFPOINTS
 62
   190
370
    15
390
5F
100
AcDbLine
 10
21127.99854946876
 20
-3811.61172264273
 30
0.0
 11
21127.99854946876
 21
-3881.61172264273
 31
0.0
  0
IMAGE
  5
4B2
330
1F
100
AcDbEntity
  8
Ech.1_5
  6
Continuous
390
5F
160
                 8
310
0800000000000000
100
AcDbRasterImage
 90
        0
 10
21086.21483491558
 20
-4366.568783688097
 30
0.0
 11
0.1487334262910545
 21
0.0
 31
0.0
 12
0.0
 22
0.1487334272781531
 32
0.0
 13
954.0
 23
334.0
340
4B1
 70
     7
280
     0
281
    50
282
    50
283
     0
360
4B3
 71
     1
 91
        2
 14
-0.5
 24
-0.5
 14
953.5
 24
333.5
290
     0
  0
INSERT
  5
4C5
102
{ACAD_REACTORS
330
4C6
330
4C7
102
}
330
1F
100
AcDbEntity
  8
Ech.1_5
100
AcDbBlockReference
  2
DIM204
 10
0.0
 20
0.0
 30
0.0
  0
INSERT
  5
4D9
102
{ACAD_REACTORS
330
4DA
330
4C7
102
}
330
1F
100
AcDbEntity
  8
Ech.1_5
100
AcDbBlockReference
  2
DIM205
 10
0.0
 20
0.0
 30
0.0
  0
INSERT
  5
4EC
102
{ACAD_REACTORS
330
4ED
330
4C7
102
}
330
1F
100
AcDbEntity
  8
Ech.1_5
100
AcDbBlockReference
  2
DIM206
 10
0.0
 20
0.0
 30
0.0
  0
INSERT
  5
4EE
102
{ACAD_REACTORS
330
2F0
102
}
330
1F
100
AcDbEntity
  8
ASSY
 62
   190
370
     0
100
AcDbBlockReference
  2
CDWK_PTTYP1
 10
20517.72407068928
 20
-3221.912255337782
 30
0.0
 41
1.000000014901161
 42
1.000000014901161
 43
1.000000014901161
  0
INSERT
  5
4EF
102
{ACAD_REACTORS
330
2F0
102
}
330
1F
100
AcDbEntity
  8
ASSY
 62
   190
370
     0
100
AcDbBlockReference
  2
CDWK_PTTYP1
 10
20517.72407068928
 20
-3291.912255337782
 30
0.0
 41
1.000000014901161
 42
1.000000014901161
 43
1.000000014901161
  0
INSERT
  5
4F0
102
{ACAD_REACTORS
330
2FD
102
}
330
1F
100
AcDbEntity
  8
ASSY
 62
   190
370
     0
100
AcDbBlockReference
  2
CDWK_PTTYP1
 10
21127.99854946876
 20
-3811.611722642731
 30
0.0
 41
1.000000014901161
 42
1.000000014901161
 43
1.000000014901161
  0
INSERT
  5
4F1
102
{ACAD_REACTORS
330
2FD
102
}
330
1F
100
AcDbEntity
  8
ASSY
 62
   190
370
     0
100
AcDbBlockReference
  2
CDWK_PTTYP1
 10
21127.99854946876
 20
-3881.611722642731
 30
0.0
 41
1.000000014901161
 42
1.000000014901161
 43
1.000000014901161
  0
INSERT
  5
4F2
102
{ACAD_REACTORS
330
2E8
330
2E9
102
}
330
1F
100
AcDbEntity
  8
ASSY
 62
   190
370
     0
100
AcDbBlockReference
  2
CDWK_PTTYP1
 10
21128.08995407306
 20
-3569.507819912338
 30
0.0
 41
1.000000014901161
 42
1.000000014901161
 43
1.000000014901161
  0
INSERT
  5
4F3
102
{ACAD_REACTORS
330
2E8
330
2E9
102
}
330
1F
100
AcDbEntity
  8
ASSY
 62
   190
370
     0
100
AcDbBlockReference
  2
CDWK_PTTYP1
 10
21128.08995407306
 20
-3639.507819912338
 30
0.0
 41
1.000000014901161
 42
1.000000014901161
 43
1.000000014901161
  0
TEXT
  5
4F4
102
{ACAD_REACTORS
330
4C6
102
}
330
1F
100
AcDbEntity
  8
Ech.1_5
  6
Continuous
 62
   190
390
5F
100
AcDbText
 10
20691.03389930626
 20
-3237.716201789008
 30
0.0
 40
12.5
  1
e
 50
90.0
  7
arial-
100
AcDbText
  0
TEXT
  5
4F5
102
{ACAD_REACTORS
330
4DA
102
}
330
1F
100
AcDbEntity
  8
Ech.1_5
  6
Continuous
 62
   190
390
5F
100
AcDbText
 10
20691.03389739891
 20
-3271.049009451759
 30
0.0
 40
12.5
  1
S
 50
90.0
  7
arial-
100
AcDbText
  0
TEXT
  5
4F6
102
{ACAD_REACTORS
330
4ED
102
}
330
1F
100
AcDbEntity
  8
Ech.1_5
  6
Continuous
 62
   190
390
5F
100
AcDbText
 10
20691.03389882473
 20
-3305.07663874919
 30
0.0
 40
12.5
  1
R
 50
90.0
  7
arial-
100
AcDbText
  0
MTEXT
  5
4F7
102
{ACAD_REACTORS
330
229
330
22A
330
22B
102
}
330
1F
100
AcDbEntity
  8
Ech.1_5
  6
Continuous
 62
     4
420
    65535
390
5F
100
AcDbMText
 10
20943.25475723877
 20
-4237.203676107194
 30
0.0
 40
12.5
 41
488.342884635189
 46
0.0
 71
     2
 72
     1
  1
{\fArial|b0|i0;\W1.000000;\H12.500000;\c16711848;Vues en coupe longitudinale}
  7
arial-
 73
     1
 44
1.07999975538982
  0
MTEXT
  5
4F8
102
{ACAD_REACTORS
330
229
330
22A
330
22B
102
}
330
1F
100
AcDbEntity
  8
Ech.1_5
  6
Continuous
 62
     4
420
    65535
390
5F
100
AcDbMText
 10
21263.57486725962
 20
-4237.036499614449
 30
0.0
 40
12.5
 41
127.2973354064998
 46
0.0
 71
     2
 72
     1
  1
{\fArial|b0|i0;\W1.000000;\H12.500000;\c16711848;Ech 1/5 }
  7
arial-
 73
     1
 44
1.07999975538982
  0
MTEXT
  5
4F9
102
{ACAD_REACTORS
330
229
330
22A
330
22B
102
}
330
1F
100
AcDbEntity
  8
Ech.1_5
  6
Continuous
 62
     4
420
    65535
390
5F
100
AcDbMText
 10
20614.7557059235
 20
-4236.764743311884
 30
0.0
 40
12.5
 41
143.6552179953542
 46
0.0
 71
     2
 72
     1
  1
{\fArial|b0|i0;\W1.000000;\H12.500000;\c16711848;LSL-CC-06}
  7
arial-
 73
     1
 44
1.07999975538982
  0
MTEXT
  5
4FB
102
{ACAD_REACTORS
330
229
330
22A
330
22B
102
}
330
1F
100
AcDbEntity
  8
Ech.1_5
  6
Continuous
 62
   200
420
 11010303
390
5F
100
AcDbMText
 10
20840.97353496286
 20
-4258.533860648837
 30
0.0
 40
6.25
 41
978.7500000000109
 46
0.0
 71
     2
 72
     1
  3
{\fArial|b0|i1;\W1.000000;\H6.250000;\c16711848; Il est rappelé à l'utilisateur qui consulte le site et utilise les informations qu'il contient, qu'il doit les utiliser sous sa seule responsabilité en vérifiant leur pertinence, leur cohérence et leur
  1
 non obsolescence.}
  7
arial-i
 73
     1
 44
1.07999975538982
  0
MTEXT
  5
4FC
102
{ACAD_REACTORS
330
229
330
22A
330
22B
102
}
330
1F
100
AcDbEntity
  8
Ech.1_5
  6
Continuous
 62
   200
420
 11010303
390
5F
100
AcDbMText
 10
20840.97353496286
 20
-4292.698388542369
 30
0.0
 40
8.125
 41
976.8750000000109
 46
0.0
 71
     2
 72
     1
  1
{\fArial|b0|i1;\W1.000000;\H8.125000;\c16711848;www.catalogue-bois-construction.fr}
  7
arial-i
 73
     1
 44
1.07999975538982
  0
MTEXT
  5
4FD
102
{ACAD_REACTORS
330
22B
102
}
330
1F
100
AcDbEntity
  8
Ech.1_5
  6
Continuous
 62
     4
420
    65535
390
5F
100
AcDbMText
 10
20840.97353496286
 20
-3087.462787800091
 30
0.0
 40
16.25
 41
968.7500000000109
 46
0.0
 71
     2
 72
     1
  1
{\fArial|b0|i0;\W1.000000;\H16.250000;\c16711848;Points singuliers : choix longueur et diamètre vis }
  7
arial-
 73
     1
 44
1.07999975538982
  0
MTEXT
  5
4FE
330
1F
100
AcDbEntity
  8
Ech.1_5
  6
Continuous
 62
     4
420
    65535
390
5F
100
AcDbMText
 10
20840.97353496286
 20
-3024.052815377101
 30
0.0
 40
16.25
 41
968.7500000000109
 46
0.0
 71
     2
 72
     1
  1
{\fArial|b0|i0;\W1.000000;\H16.250000;\c16711848;PLATELAGE}
  7
arial-
 73
     1
 44
1.07999975538982
  0
MTEXT
  5
500
330
1F
100
AcDbEntity
  8
Ech.1_5
  6
Continuous
 62
     4
420
    65535
390
5F
100
AcDbMText
 10
20840.97353496286
 20
-3148.476373194106
 30
0.0
 40
15.0
 41
756.4029578070404
 46
0.0
 71
     2
 72
     1
  1
{\fArial|b1|i0;\W1.000000;\H15.000000;\c16711848;La longueur de la vis se détermine sur la base du tableau suivant :}
  7
arial-b
 73
     1
 44
1.07999975538982
  0
MTEXT
  5
501
330
1F
100
AcDbEntity
  8
Ech.1_5
  6
Continuous
 62
     4
420
    65535
390
5F
100
AcDbMText
 10
20840.97353496286
 20
-3484.391142425361
 30
0.0
 40
15.0
 41
756.4029578070404
 46
0.0
 71
     2
 72
     1
  1
{\fArial|b1|i0;\W1.000000;\H15.000000;\c16711848;La longueur exacte des vis est affinée selon les conditions suivantes :}
  7
arial-b
 73
     1
 44
1.07999975538982
  0
MTEXT
  5
502
330
1F
100
AcDbEntity
  8
Ech.1_5
  6
Continuous
 62
     4
420
    65535
390
5F
100
AcDbMText
 10
20649.07306243382
 20
-3571.911410434812
 30
0.0
 40
15.0
 41
545.3330306869175
 46
0.0
 71
     2
 72
     1
  1
{\fArial|b1|i0;\W1.000000;\H15.000000;\c16711848;Double filetage :}\P{\fArial|b0|i0;\W1.000000;\H15.000000;\c16711848;Longueur de filetage sous la tête < épaisseur de la lame}
  7
arial-b
 73
     1
 44
1.07999975538982
  0
MTEXT
  5
503
330
1F
100
AcDbEntity
  8
Ech.1_5
  6
Continuous
 62
     4
420
    65535
390
5F
100
AcDbMText
 10
20632.05310174127
 20
-3811.402416202677
 30
0.0
 40
15.0
 41
486.4257414599415
 46
0.0
 71
     2
 72
     1
  3
{\fArial|b1|i0;\W1.000000;\H15.000000;\c16711848;Congé de filetage sous tête (filetage partiel):}\P{\fArial|b0|i0;\W1.000000;\H15.000000;\c16711848;Longueur du congé de filetage sous la tête }\P{\fArial|b0|i0;\W1.000000;\H15.000000;\c16711848;> épais
  1
seur de la lame}
  7
arial-b
 73
     1
 44
1.07999975538982
  0
MTEXT
  5
504
330
1F
100
AcDbEntity
  8
Ech.1_5
  6
Continuous
 62
     4
420
    65535
390
5F
100
AcDbMText
 10
20840.97353496286
 20
-4024.516254681599
 30
0.0
 40
15.0
 41
756.4029578070404
 46
0.0
 71
     2
 72
     1
  1
{\fArial|b1|i0;\W1.000000;\H15.000000;\c16711848;Le diamètre des vis se détermine sur la base du tableau suivant :}
  7
arial-b
 73
     1
 44
1.07999975538982
  0
MTEXT
  5
505
330
1F
100
AcDbEntity
  8
Ech.1_5
  6
Continuous
 62
     4
420
    65535
390
5F
100
AcDbMText
 10
20840.97353496285
 20
-3055.847914827435
 30
0.0
 40
16.25
 41
968.75
 46
0.0
 71
     2
 72
     1
  1
{\fArial|b1|i0;\W1.000000;\H16.250000;\c16711848;Lames et lambourdage simple sur porteurs linéaires - Conception courante}
  7
arial-b
 73
     1
 44
1.07999975538982
  0
MTEXT
  5
506
330
1F
100
AcDbEntity
  8
Ech.1_5
  6
Continuous
 62
     4
420
    65535
390
5F
100
AcDbMText
 10
20679.47040658924
 20
-3358.253894347785
 30
0.0
 40
13.75
 41
629.2038933553704
 46
0.0
 71
     1
 72
     1
  1
{\fArial|b0|i0;\W1.000000;\H13.750000;\c16711848;Attention à la valeur de talon pour définir la hauteur minimale de lambourde.}\P{\fArial|b0|i0;\W1.000000;\H13.750000;\c16711848;Les vis ne doivent jamais dépasser sous la lambourde.}
  7
arial-
 73
     1
 44
1.07999975538982
  0
TEXT
  5
507
330
1F
100
AcDbEntity
  8
Ech.1_5
  6
Continuous
 62
   190
390
5F
100
AcDbText
 10
20407.10718795507
 20
-4251.115456026309
 30
0.0
 40
12.5
  1
17/02/2022
  7
arial-
100
AcDbText
  0
TEXT
  5
508
102
{ACAD_REACTORS
330
2EE
102
}
330
1F
100
AcDbEntity
  8
Ech.1_5
  6
Continuous
 62
   190
390
5F
100
AcDbText
 10
20410.08277729049
 20
-3356.817888751423
 30
0.0
 40
13.75
  1
!
  7
arial-
100
AcDbText
  0
VIEWPORT
  5
21D
330
217
100
AcDbEntity
 67
     1
  8
0
  6
Continuous
390
5F
100
AcDbViewport
 10
98.8
 20
135.8
 30
0.0
 40
209.0608
 41
287.3528000000001
 68
     1
 69
     1
 12
128.5
 22
97.5
 13
0.0
 23
0.0
 14
10.0
 24
10.0
 15
10.0
 25
10.0
 16
0.0
 26
0.0
 36
1.0
 17
0.0
 27
0.0
 37
0.0
 42
50.0
 43
0.0
 44
0.0
 45
222.18
 50
0.0
 51
0.0
 72
   100
 90
   557152
  1

281
     0
 71
     1
 74
     0
110
0.0
120
0.0
130
0.0
111
1.0
121
0.0
131
0.0
112
0.0
122
1.0
132
0.0
 79
     0
146
0.0
170
     0
 61
     5
348
2F
292
     1
282
     1
141
0.0
142
0.0
 63
   256
361
21E
  0
VIEWPORT
  5
21F
330
217
100
AcDbEntity
 67
     1
  8
0
  6
Continuous
 60
     1
390
5F
100
AcDbViewport
 10
98.8
 20
135.8
 30
0.0
 40
197.6
 41
271.6
 68
     2
 69
     2
 12
20840.97353496286
 22
-3693.427815377101
 13
0.0
 23
0.0
 14
10.0
 24
10.0
 15
10.0
 25
10.0
 16
0.0
 26
0.0
 36
1.0
 17
0.0
 27
0.0
 37
0.0
 42
50.0
 43
0.0
 44
0.0
 45
1358.0
 50
0.0
 51
0.0
 72
   100
 90
   557152
  1

281
     0
 71
     1
 74
     0
110
0.0
120
0.0
130
0.0
111
1.0
121
0.0
131
0.0
112
0.0
122
1.0
132
0.0
 79
     0
146
0.0
170
     0
 61
     5
348
2F
292
     1
282
     1
141
0.0
142
0.0
 63
   256
  0
ENDSEC
  0
SECTION
  2
OBJECTS
  0
DICTIONARY
  5
C
330
0
100
AcDbDictionary
281
     1
  3
ACAD_DETAILVIEWSTYLE
350
510
  3
ACAD_GROUP
350
D
  3
ACAD_IMAGE_DICT
350
22C
  3
ACAD_IMAGE_VARS
350
60
  3
ACAD_LAYOUT
350
1A
  3
ACAD_MATERIAL
350
43
  3
ACAD_MLEADERSTYLE
350
5B
  3
ACAD_MLINESTYLE
350
17
  3
ACAD_PLOTSETTINGS
350
19
  3
ACAD_PLOTSTYLENAME
350
E
  3
ACAD_SCALELIST
350
47
  3
ACAD_SECTIONVIEWSTYLE
350
511
  3
ACAD_TABLESTYLE
350
59
  3
ACAD_VISUALSTYLE
350
2A
  3
ACAD_WIPEOUT_VARS
350
61
  3
ACDB_RECOMPOSE_DATA
350
50D
  3
AcDbVariableDictionary
350
509
  0
SUN
  5
5D
330
29
100
AcDbSun
 90
        1
290
     0
 63
     7
421
 16777215
 40
1.0
291
     1
 91
  2455826
 92
 54000000
292
     0
 70
     2
 71
   256
280
     1
  0
IMAGEDEF_REACTOR
  5
22F
330
22E
100
AcDbRasterImageDefReactor
 90
        2
330
22E
  0
IMAGEDEF_REACTOR
  5
232
330
231
100
AcDbRasterImageDefReactor
 90
        2
330
231
  0
IMAGEDEF_REACTOR
  5
4B3
330
4B2
100
AcDbRasterImageDefReactor
 90
        2
330
4B2
  0
SUN
  5
21E
330
21D
100
AcDbSun
 90
        1
290
     0
 63
     7
421
 16777215
 40
1.0
291
     1
 91
  2455826
 92
 54000000
292
     0
 70
     2
 71
   256
280
     1
  0
DICTIONARY
  5
510
102
{ACAD_REACTORS
330
C
102
}
330
C
100
AcDbDictionary
281
     1
  0
DICTIONARY
  5
D
102
{ACAD_REACTORS
330
C
102
}
330
C
100
AcDbDictionary
281
     1
  3
1546
350
2EE
  3
456
350
229
  3
457
350
22A
  3
458
350
22B
  3
459
350
236
  3
460
350
4C7
  3
483
350
28D
  3
484
350
291
  3
658
350
2F0
  3
659
350
2FD
  3
660
350
2E8
  3
661
350
354
  3
662
350
2E9
  3
DIM204
350
4C6
  3
DIM205
350
4DA
  3
DIM206
350
4ED
  0
DICTIONARY
  5
22C
102
{ACAD_REACTORS
330
C
102
}
330
C
100
AcDbDictionary
281
     1
  3
CwRasterImage1065
350
22D
  3
CwRasterImage1066
350
230
  3
CwRasterImage1067
350
4B1
  0
RASTERVARIABLES
  5
60
102
{ACAD_REACTORS
330
C
102
}
330
C
100
AcDbRasterVariables
 90
        0
 70
     0
 71
     1
 72
     1
  0
DICTIONARY
  5
1A
102
{ACAD_REACTORS
330
C
102
}
330
C
100
AcDbDictionary
281
     1
  3
CompleteLayout
350
1E
  3
Model
350
22
  3
PrintFrame_22
350
218
  0
DICTIONARY
  5
43
102
{ACAD_REACTORS
330
C
102
}
330
C
100
AcDbDictionary
281
     1
  3
ByBlock
350
45
  3
ByLayer
350
44
  3
Global
350
46
  0
DICTIONARY
  5
5B
102
{ACAD_REACTORS
330
C
102
}
330
C
100
AcDbDictionary
281
     1
  3
Standard
350
5C
  0
DICTIONARY
  5
17
102
{ACAD_REACTORS
330
C
102
}
330
C
100
AcDbDictionary
281
     1
  3
Standard
350
18
  0
DICTIONARY
  5
19
102
{ACAD_REACTORS
330
C
102
}
330
C
100
AcDbDictionary
281
     1
  3
PlotSettings_
350
21B
  0
ACDBDICTIONARYWDFLT
  5
E
102
{ACAD_REACTORS
330
C
102
}
330
C
100
AcDbDictionary
281
     1
  3
flat
350
5F
  3
Normal
350
F
100
AcDbDictionaryWithDefault
340
F
  0
DICTIONARY
  5
47
102
{ACAD_REACTORS
330
C
102
}
330
C
100
AcDbDictionary
281
     1
  3
A0
350
48
  3
A1
350
49
  3
A2
350
4A
  3
A3
350
4B
  3
A4
350
4C
  3
A5
350
4D
  3
A6
350
4E
  3
A7
350
4F
  3
A8
350
50
  3
A9
350
51
  3
B0
350
52
  3
B1
350
53
  3
B2
350
54
  3
B3
350
55
  3
B4
350
56
  3
B5
350
57
  3
B6
350
58
  0
DICTIONARY
  5
511
102
{ACAD_REACTORS
330
C
102
}
330
C
100
AcDbDictionary
281
     1
  0
DICTIONARY
  5
59
102
{ACAD_REACTORS
330
C
102
}
330
C
100
AcDbDictionary
281
     1
  3
Standard
350
5A
  0
DICTIONARY
  5
2A
102
{ACAD_REACTORS
330
C
102
}
330
C
100
AcDbDictionary
281
     1
  3
2dWireframe
350
2F
  3
Basic
350
32
  3
Brighten
350
36
  3
ColorChange
350
3A
  3
Conceptual
350
34
  3
Dim
350
35
  3
EdgeColorOff
350
3D
  3
Facepattern
350
39
  3
Flat
350
2B
  3
FlatWithEdges
350
2C
  3
Gouraud
350
2D
  3
GouraudWithEdges
350
2E
  3
Hidden
350
31
  3
JitterOff
350
3B
  3
Linepattern
350
38
  3
OverhangOff
350
3C
  3
Realistic
350
33
  3
Shaded
350
42
  3
Shaded with edges
350
41
  3
Shades of Gray
350
3E
  3
Sketchy
350
3F
  3
Thicken
350
37
  3
Wireframe
350
30
  3
X-Ray
350
40
  0
WIPEOUTVARIABLES
  5
61
102
{ACAD_REACTORS
330
C
102
}
330
C
100
AcDbWipeoutVariables
 70
     0
  0
XRECORD
  5
50D
102
{ACAD_REACTORS
330
C
102
}
330
C
100
AcDbXrecord
280
     1
 90
        1
330
5A
  0
DICTIONARY
  5
509
102
{ACAD_REACTORS
330
C
102
}
330
C
100
AcDbDictionary
281
     1
  3
CANNOSCALE
350
50A
  3
CENTEREXE
350
513
  3
CENTERLTYPEFILE
350
514
  3
CMLEADERSTYLE
350
50F
  3
CTABLESTYLE
350
50E
  3
WIPEOUTFRAME
350
512
  0
GROUP
  5
2EE
102
{ACAD_REACTORS
330
D
102
}
330
D
100
AcDbGroup
300

 70
     0
 71
     1
340
2ED
340
508
  0
GROUP
  5
229
102
{ACAD_REACTORS
330
D
102
}
330
D
100
AcDbGroup
300

 70
     0
 71
     1
340
228
340
2DA
340
2DB
340
2DC
340
2E1
340
2E2
340
2E3
340
4F7
340
4F8
340
4F9
340
4FB
340
4FC
  0
GROUP
  5
22A
102
{ACAD_REACTORS
330
D
102
}
330
D
100
AcDbGroup
300

 70
     0
 71
     1
340
228
340
22E
340
2DA
340
2DB
340
2DC
340
2E1
340
2E2
340
2E3
340
4F7
340
4F8
340
4F9
340
4FB
340
4FC
  0
GROUP
  5
22B
102
{ACAD_REACTORS
330
D
102
}
330
D
100
AcDbGroup
300

 70
     0
 71
     1
340
228
340
22E
340
231
340
2DA
340
2DB
340
2DC
340
2E0
340
2E1
340
2E2
340
2E3
340
4F7
340
4F8
340
4F9
340
4FB
340
4FC
340
4FD
  0
GROUP
  5
236
102
{ACAD_REACTORS
330
D
102
}
330
D
100
AcDbGroup
300

 70
     0
 71
     1
340
235
  0
GROUP
  5
4C7
102
{ACAD_REACTORS
330
D
102
}
330
D
100
AcDbGroup
300

 70
     0
 71
     1
340
4C5
340
4D9
340
4EC
  0
GROUP
  5
28D
102
{ACAD_REACTORS
330
D
102
}
330
D
100
AcDbGroup
300

 70
     0
 71
     1
340
28C
  0
GROUP
  5
291
102
{ACAD_REACTORS
330
D
102
}
330
D
100
AcDbGroup
300

 70
     0
 71
     1
340
290
  0
GROUP
  5
2F0
102
{ACAD_REACTORS
330
D
102
}
330
D
100
AcDbGroup
300

 70
     0
 71
     1
340
2EF
340
2F1
340
2F2
340
2F3
340
2F4
340
2F5
340
2F6
340
2F7
340
2F8
340
2F9
340
2FA
340
2FB
340
378
340
379
340
37A
340
37B
340
37C
340
37D
340
37E
340
37F
340
380
340
381
340
382
340
383
340
384
340
385
340
386
340
387
340
388
340
389
340
38A
340
38B
340
38C
340
38D
340
38E
340
38F
340
390
340
391
340
392
340
393
340
394
340
395
340
396
340
397
340
398
340
399
340
39A
340
39B
340
39C
340
39D
340
39E
340
39F
340
3A0
340
3A1
340
3A2
340
3A3
340
3A4
340
3A5
340
3A6
340
3A7
340
3A8
340
3A9
340
3AA
340
3AB
340
3AC
340
3AD
340
3AE
340
3AF
340
3B0
340
3B1
340
3B2
340
3B3
340
3B4
340
3B5
340
3B6
340
3B7
340
3B8
340
3B9
340
3BA
340
3BB
340
3BC
340
3BD
340
3BE
340
3BF
340
3C0
340
3C1
340
3C2
340
3C3
340
3C4
340
3C5
340
3C6
340
3C7
340
3C8
340
3C9
340
3CA
340
3CB
340
3CC
340
3CD
340
3CE
340
3CF
340
3D0
340
3D1
340
3D2
340
3D3
340
3D4
340
3D5
340
3D6
340
3D7
340
3D8
340
3D9
340
3DA
340
3DB
340
3DC
340
3DD
340
3DE
340
3DF
340
3E0
340
3E1
340
3E2
340
3E3
340
3E4
340
3E5
340
3E6
340
3E7
340
3E8
340
3E9
340
3EA
340
3EB
340
3EC
340
3ED
340
3EE
340
3EF
340
3F0
340
3F1
340
3F2
340
3F3
340
3F4
340
3F5
340
3F6
340
3F7
340
4AF
340
4EE
340
4EF
  0
GROUP
  5
2FD
102
{ACAD_REACTORS
330
D
102
}
330
D
100
AcDbGroup
300

 70
     0
 71
     1
340
2FC
340
2FE
340
2FF
340
300
340
301
340
302
340
303
340
304
340
305
340
306
340
307
340
308
340
3F8
340
3F9
340
3FA
340
3FB
340
3FC
340
3FD
340
3FE
340
3FF
340
400
340
401
340
402
340
403
340
404
340
405
340
406
340
407
340
408
340
409
340
40A
340
40B
340
40C
340
40D
340
40E
340
40F
340
410
340
411
340
412
340
413
340
414
340
415
340
416
340
417
340
418
340
419
340
41A
340
41B
340
41C
340
41D
340
41E
340
41F
340
420
340
421
340
422
340
423
340
424
340
425
340
426
340
427
340
428
340
429
340
42A
340
42B
340
42C
340
42D
340
42E
340
42F
340
430
340
431
340
432
340
433
340
434
340
435
340
436
340
437
340
438
340
439
340
43A
340
43B
340
43C
340
43D
340
43E
340
43F
340
440
340
441
340
442
340
443
340
444
340
445
340
446
340
447
340
448
340
449
340
44A
340
44B
340
44C
340
44D
340
44E
340
44F
340
450
340
451
340
452
340
453
340
454
340
455
340
456
340
457
340
458
340
459
340
45A
340
45B
340
45C
340
45D
340
45E
340
45F
340
460
340
461
340
462
340
463
340
464
340
465
340
466
340
467
340
468
340
469
340
46A
340
46B
340
46C
340
46D
340
46E
340
46F
340
470
340
471
340
472
340
473
340
474
340
475
340
476
340
477
340
4B0
340
4F0
340
4F1
  0
GROUP
  5
2E8
102
{ACAD_REACTORS
330
D
102
}
330
D
100
AcDbGroup
300

 70
     0
 71
     1
340
2E7
340
2EB
340
309
340
30A
340
30B
340
30C
340
30D
340
30E
340
30F
340
310
340
311
340
312
340
313
340
314
340
315
340
316
340
317
340
318
340
319
340
31A
340
31B
340
31C
340
31D
340
31E
340
31F
340
320
340
321
340
322
340
323
340
324
340
325
340
326
340
327
340
328
340
329
340
32A
340
32B
340
32C
340
32D
340
32E
340
32F
340
330
340
331
340
332
340
333
340
334
340
335
340
336
340
337
340
338
340
339
340
33A
340
33B
340
33C
340
33D
340
33E
340
33F
340
340
340
341
340
342
340
343
340
344
340
345
340
346
340
347
340
348
340
349
340
34A
340
34B
340
34C
340
34D
340
34E
340
34F
340
350
340
351
340
352
340
478
340
479
340
47A
340
47B
340
47C
340
47D
340
47E
340
47F
340
480
340
481
340
482
340
483
340
484
340
485
340
486
340
487
340
488
340
489
340
48A
340
48B
340
48C
340
48D
340
48E
340
48F
340
490
340
491
340
492
340
493
340
494
340
495
340
496
340
497
340
498
340
499
340
49A
340
49B
340
49C
340
49D
340
49E
340
49F
340
4A0
340
4A1
340
4A2
340
4A3
340
4A4
340
4A5
340
4A6
340
4A7
340
4A8
340
4A9
340
4AA
340
4AB
340
4AC
340
4AD
340
4AE
340
4F2
340
4F3
  0
GROUP
  5
354
102
{ACAD_REACTORS
330
D
102
}
330
D
100
AcDbGroup
300

 70
     0
 71
     1
340
353
340
355
340
356
340
357
340
358
340
359
340
35A
340
35B
340
35C
340
35D
340
35E
340
35F
340
360
340
361
340
362
340
363
340
364
340
365
340
366
340
367
340
368
340
369
340
36A
340
36B
340
36C
340
36D
340
36E
340
36F
340
370
340
371
340
372
340
373
340
374
340
375
340
376
340
377
  0
GROUP
  5
2E9
102
{ACAD_REACTORS
330
D
102
}
330
D
100
AcDbGroup
300

 70
     0
 71
     1
340
2E7
340
2EA
340
2EB
340
2EC
340
309
340
30A
340
30B
340
30C
340
30D
340
30E
340
30F
340
310
340
311
340
312
340
313
340
314
340
315
340
316
340
317
340
318
340
319
340
31A
340
31B
340
31C
340
31D
340
31E
340
31F
340
320
340
321
340
322
340
323
340
324
340
325
340
326
340
327
340
328
340
329
340
32A
340
32B
340
32C
340
32D
340
32E
340
32F
340
330
340
331
340
332
340
333
340
334
340
335
340
336
340
337
340
338
340
339
340
33A
340
33B
340
33C
340
33D
340
33E
340
33F
340
340
340
341
340
342
340
343
340
344
340
345
340
346
340
347
340
348
340
349
340
34A
340
34B
340
34C
340
34D
340
34E
340
34F
340
350
340
351
340
352
340
353
340
355
340
356
340
357
340
358
340
359
340
35A
340
35B
340
35C
340
35D
340
35E
340
35F
340
360
340
361
340
362
340
363
340
364
340
365
340
366
340
367
340
368
340
369
340
36A
340
36B
340
36C
340
36D
340
36E
340
36F
340
370
340
371
340
372
340
373
340
374
340
375
340
376
340
377
340
478
340
479
340
47A
340
47B
340
47C
340
47D
340
47E
340
47F
340
480
340
481
340
482
340
483
340
484
340
485
340
486
340
487
340
488
340
489
340
48A
340
48B
340
48C
340
48D
340
48E
340
48F
340
490
340
491
340
492
340
493
340
494
340
495
340
496
340
497
340
498
340
499
340
49A
340
49B
340
49C
340
49D
340
49E
340
49F
340
4A0
340
4A1
340
4A2
340
4A3
340
4A4
340
4A5
340
4A6
340
4A7
340
4A8
340
4A9
340
4AA
340
4AB
340
4AC
340
4AD
340
4AE
340
4F2
340
4F3
  0
GROUP
  5
4C6
102
{ACAD_REACTORS
330
D
102
}
330
D
100
AcDbGroup
300

 70
     0
 71
     1
340
4C5
340
4F4
  0
GROUP
  5
4DA
102
{ACAD_REACTORS
330
D
102
}
330
D
100
AcDbGroup
300

 70
     0
 71
     1
340
4D9
340
4F5
  0
GROUP
  5
4ED
102
{ACAD_REACTORS
330
D
102
}
330
D
100
AcDbGroup
300

 70
     0
 71
     1
340
4EC
340
4F6
  0
IMAGEDEF
  5
22D
102
{ACAD_REACTORS
330
22C
330
22F
102
}
330
22C
100
AcDbRasterImageDef
 90
        0
  1
fcba.jpg
 10
247.0
 20
171.0
 11
0.3527336860670194
 21
0.3527336860670194
280
     1
281
     3
  0
IMAGEDEF
  5
230
102
{ACAD_REACTORS
330
22C
330
232
102
}
330
22C
100
AcDbRasterImageDef
 90
        0
  1
EXE_LOGO_FBF_soutien_Q_L.jpg
 10
200.0
 20
133.0
 11
0.3527336860670194
 21
0.3527336860670194
280
     1
281
     3
  0
IMAGEDEF
  5
4B1
102
{ACAD_REACTORS
330
22C
330
4B3
102
}
330
22C
100
AcDbRasterImageDef
 90
        0
  1
{3D18D2F7-F982-4527-A176-7E8FDB81B9D8}.TIFF
 10
954.0
 20
334.0
 11
0.2645502645502645
 21
0.2645502645502645
280
     1
281
     3
  0
LAYOUT
  5
1E
102
{ACAD_REACTORS
330
1A
102
}
330
1A
100
AcDbPlotSettings
  1

  2
none_device
  4

  6

 40
0.0
 41
0.0
 42
0.0
 43
0.0
 44
0.0
 45
0.0
 46
0.0
 47
0.0
 48
0.0
 49
0.0
140
0.0
141
0.0
142
1.0
143
1.0
 70
   688
 72
     1
 73
     0
 74
     5
  7

 75
    16
 76
     0
 77
     2
 78
   300
147
1.0
148
0.0
149
0.0
100
AcDbLayout
  1
CompleteLayout
 70
     1
 71
     1
 10
0.0
 20
0.0
 11
420.0
 21
297.0
 12
0.0
 22
0.0
 32
0.0
 14
1.000000000000000E+20
 24
1.000000000000000E+20
 34
1.000000000000000E+20
 15
-1.000000000000000E+20
 25
-1.000000000000000E+20
 35
-1.000000000000000E+20
146
0.0
 13
0.0
 23
0.0
 33
0.0
 16
1.0
 26
0.0
 36
0.0
 17
0.0
 27
1.0
 37
0.0
 76
     0
330
1B
  0
LAYOUT
  5
22
102
{ACAD_REACTORS
330
1A
102
}
330
1A
100
AcDbPlotSettings
  1

  2
none_device
  4
Letter_(8.50_x_11.00_Inches)
  6

 40
6.35
 41
6.35
 42
6.35000508
 43
6.35000508
 44
215.9
 45
279.4
 46
0.0
 47
0.0
 48
0.0
 49
0.0
140
0.0
141
0.0
142
1.0
143
1.0
 70
  1712
 72
     1
 73
     0
 74
     0
  7

 75
     0
 76
     0
 77
     2
 78
   300
147
1.0
148
0.0
149
0.0
100
AcDbLayout
  1
Model
 70
     1
 71
     0
 10
0.0
 20
0.0
 11
420.0
 21
297.0
 12
0.0
 22
0.0
 32
0.0
 14
19504.33364439737
 24
-4370.927815377101
 34
-265.0000000000077
 15
21333.47353496286
 25
-3015.927815377101
 35
0.0
146
0.0
 13
0.0
 23
0.0
 33
0.0
 16
1.0
 26
0.0
 36
0.0
 17
0.0
 27
1.0
 37
0.0
 76
     0
330
1F
331
29
  0
LAYOUT
  5
218
102
{ACAD_REACTORS
330
1A
102
}
330
1A
100
AcDbPlotSettings
  1
PlotSettings_
  2
Custom Device
  4
Custom_210.000000x297.000000_12.700000_12.700000_6.200000_6.200000
  6

 40
6.2
 41
12.7
 42
6.2
 43
12.7
 44
210.0
 45
297.0
 46
0.0000000000000142
 47
0.0
 48
0.0
 49
0.0
140
197.6
141
271.6
142
1.0
143
1.0
 70
   756
 72
     1
 73
     0
 74
     4
  7

 75
     0
 76
     0
 77
     2
 78
   300
147
1.0
148
0.0
149
0.0
100
AcDbLayout
  1
PrintFrame_22
 70
     0
 71
     2
 10
-20.0
 20
-7.5
 11
277.0
 21
202.5
 12
0.0
 22
0.0
 32
0.0
 14
-5.730400000000003
 24
-7.876400000000018
 34
0.0
 15
203.3304
 25
279.4764
 35
0.0
146
0.0
 13
0.0
 23
0.0
 33
0.0
 16
1.0
 26
0.0
 36
0.0
 17
0.0
 27
1.0
 37
0.0
 76
     0
330
217
331
21D
1001
PLOTTRANSPARENCY
1071
        1
1000
layout-user-created
1070
     1
1000
layout-line-weight-scale
1042
1.0
  0
MATERIAL
  5
45
102
{ACAD_REACTORS
330
43
102
}
330
43
100
AcDbMaterial
  1
ByBlock
 72
     1
 94
      127
  0
MATERIAL
  5
44
102
{ACAD_REACTORS
330
43
102
}
330
43
100
AcDbMaterial
  1
ByLayer
 72
     1
 94
      127
  0
MATERIAL
  5
46
102
{ACAD_REACTORS
330
43
102
}
330
43
100
AcDbMaterial
  1
Global
 72
     1
 94
      127
  0
MLEADERSTYLE
  5
5C
102
{ACAD_REACTORS
330
5B
102
}
330
5B
100
AcDbMLeaderStyle
179
     2
170
     2
171
     1
172
     0
 90
        2
 40
0.0
 41
0.0
173
     1
 91
-1056964608
340
14
 92
       -2
290
     1
 42
2.0
291
     1
 43
8.0
  3
Standard
341
0
 44
4.0
300

342
11
174
     1
178
     6
175
     1
176
     0
 93
-1056964608
 45
4.0
292
     0
297
     0
 46
4.0
343
0
 94
-1056964608
 47
1.0
 49
1.0
140
1.0
293
     1
141
0.0
294
     1
177
     0
142
1.0
295
     0
296
     0
143
3.75
271
     0
272
     9
273
     9
298
     0
  0
MLINESTYLE
  5
18
102
{ACAD_REACTORS
330
17
102
}
330
17
100
AcDbMlineStyle
  2
Standard
 70
     0
  3

 62
   256
 51
90.0
 52
90.0
 71
     2
 49
0.5
 62
   256
  6
BYLAYER
 49
-0.5
 62
   256
  6
BYLAYER
  0
PLOTSETTINGS
  5
21B
102
{ACAD_REACTORS
330
19
102
}
330
19
100
AcDbPlotSettings
  1
PlotSettings_
  2
Custom Device
  4
Custom_210.000000x297.000000_12.700000_12.700000_6.200000_6.200000
  6

 40
6.2
 41
12.7
 42
6.2
 43
12.7
 44
210.0
 45
297.0
 46
0.0000000000000142
 47
0.0
 48
0.0
 49
0.0
140
197.6
141
271.6
142
1.0
143
1.0
 70
   756
 72
     1
 73
     0
 74
     4
  7

 75
     0
 76
     0
 77
     2
 78
   300
147
1.0
148
0.0
149
0.0
1001
PLOTTRANSPARENCY
1071
        1
1000
layout-user-created
1070
     1
1000
layout-line-weight-scale
1042
1.0
  0
ACDBPLACEHOLDER
  5
5F
102
{ACAD_REACTORS
330
E
102
}
330
E
  0
ACDBPLACEHOLDER
  5
F
102
{ACAD_REACTORS
330
E
102
}
330
E
  0
SCALE
  5
48
102
{ACAD_REACTORS
330
47
102
}
330
47
100
AcDbScale
 70
     0
300
1:1
140
1.0
141
1.0
290
     1
  0
SCALE
  5
49
102
{ACAD_REACTORS
330
47
102
}
330
47
100
AcDbScale
 70
     0
300
1:2
140
1.0
141
2.0
290
     0
  0
SCALE
  5
4A
102
{ACAD_REACTORS
330
47
102
}
330
47
100
AcDbScale
 70
     0
300
1:4
140
1.0
141
4.0
290
     0
  0
SCALE
  5
4B
102
{ACAD_REACTORS
330
47
102
}
330
47
100
AcDbScale
 70
     0
300
1:5
140
1.0
141
5.0
290
     0
  0
SCALE
  5
4C
102
{ACAD_REACTORS
330
47
102
}
330
47
100
AcDbScale
 70
     0
300
1:8
140
1.0
141
8.0
290
     0
  0
SCALE
  5
4D
102
{ACAD_REACTORS
330
47
102
}
330
47
100
AcDbScale
 70
     0
300
1:10
140
1.0
141
10.0
290
     0
  0
SCALE
  5
4E
102
{ACAD_REACTORS
330
47
102
}
330
47
100
AcDbScale
 70
     0
300
1:16
140
1.0
141
16.0
290
     0
  0
SCALE
  5
4F
102
{ACAD_REACTORS
330
47
102
}
330
47
100
AcDbScale
 70
     0
300
1:20
140
1.0
141
20.0
290
     0
  0
SCALE
  5
50
102
{ACAD_REACTORS
330
47
102
}
330
47
100
AcDbScale
 70
     0
300
1:30
140
1.0
141
30.0
290
     0
  0
SCALE
  5
51
102
{ACAD_REACTORS
330
47
102
}
330
47
100
AcDbScale
 70
     0
300
1:40
140
1.0
141
40.0
290
     0
  0
SCALE
  5
52
102
{ACAD_REACTORS
330
47
102
}
330
47
100
AcDbScale
 70
     0
300
1:50
140
1.0
141
50.0
290
     0
  0
SCALE
  5
53
102
{ACAD_REACTORS
330
47
102
}
330
47
100
AcDbScale
 70
     0
300
1:100
140
1.0
141
100.0
290
     0
  0
SCALE
  5
54
102
{ACAD_REACTORS
330
47
102
}
330
47
100
AcDbScale
 70
     0
300
2:1
140
2.0
141
1.0
290
     0
  0
SCALE
  5
55
102
{ACAD_REACTORS
330
47
102
}
330
47
100
AcDbScale
 70
     0
300
4:1
140
4.0
141
1.0
290
     0
  0
SCALE
  5
56
102
{ACAD_REACTORS
330
47
102
}
330
47
100
AcDbScale
 70
     0
300
8:1
140
8.0
141
1.0
290
     0
  0
SCALE
  5
57
102
{ACAD_REACTORS
330
47
102
}
330
47
100
AcDbScale
 70
     0
300
10:1
140
10.0
141
1.0
290
     0
  0
SCALE
  5
58
102
{ACAD_REACTORS
330
47
102
}
330
47
100
AcDbScale
 70
     0
300
100:1
140
100.0
141
1.0
290
     0
  0
TABLESTYLE
  5
5A
102
{ACAD_REACTORS
330
59
102
}
102
{ACAD_XDICTIONARY
360
50B
102
}
330
59
100
AcDbTableStyle
  3
Standard
 70
     0
 71
     0
 40
0.06
 41
0.06
280
     0
281
     0
  7
Standard
140
4.5
170
     2
 62
     0
 63
   257
283
     0
 90
        4
 91
        0
  1

274
    -2
284
     1
 64
     0
275
    -2
285
     1
 65
     0
276
    -2
286
     1
 66
     0
277
    -2
287
     1
 67
     0
278
    -2
288
     1
 68
     0
279
    -2
289
     1
 69
     0
  7
Standard
140
6.0
170
     5
 62
     0
 63
   257
283
     0
 90
        4
 91
        0
  1

274
    -2
284
     1
 64
     0
275
    -2
285
     1
 65
     0
276
    -2
286
     1
 66
     0
277
    -2
287
     1
 67
     0
278
    -2
288
     1
 68
     0
279
    -2
289
     1
 69
     0
  7
Standard
140
4.5
170
     5
 62
     0
 63
   257
283
     0
 90
        4
 91
        0
  1

274
    -2
284
     1
 64
     0
275
    -2
285
     1
 65
     0
276
    -2
286
     1
 66
     0
277
    -2
287
     1
 67
     0
278
    -2
288
     1
 68
     0
279
    -2
289
     1
 69
     0
  0
VISUALSTYLE
  5
2F
102
{ACAD_REACTORS
330
2A
102
}
330
2A
100
AcDbVisualStyle
  2
2dWireframe
 70
     4
177
     3
291
     0
 70
    58
 90
        0
176
     1
 90
        2
176
     1
 90
        0
176
     1
 90
        0
176
     1
 40
0.6
176
     1
 40
30.0
176
     1
 62
     7
420
 16777215
176
     1
 90
        1
176
     1
 90
        4
176
     1
 62
     7
176
     1
 62
   257
176
     1
 90
        1
176
     1
 90
        1
176
     1
 40
1.0
176
     1
 90
        0
176
     1
 62
   257
176
     1
 40
1.0
176
     1
 90
        1
176
     1
 90
        6
176
     1
 90
        2
176
     1
 62
     7
176
     1
 90
        5
176
     1
 90
        0
176
     1
 90
        0
176
     1
290
     0
176
     1
 90
        1
176
     1
 40
0.0
176
     1
 90
        0
176
     1
290
     1
176
     1
290
     1
176
     1
290
     0
176
     1
290
     0
176
     1
290
     0
176
     1
290
     0
176
     1
290
     0
176
     1
290
     0
176
     1
290
     0
176
     1
 90
       50
176
     1
 40
0.0
176
     1
 40
1.0
176
     1
 90
        0
176
     1
 62
    18
420
        0
176
     1
 90
       50
176
     1
 90
        3
176
     1
 62
     5
420
      255
176
     1
290
     0
176
     1
 90
       50
176
     1
 90
       50
176
     1
 90
       50
176
     1
290
     0
176
     1
 90
       50
176
     1
 62
   256
176
     0
 40
1.0
176
     0
 90
        2
176
     1
  1
strokes_ogs.tif
176
     1
290
     0
176
     1
 40
1.0
176
     1
 40
1.0
176
     1
  0
VISUALSTYLE
  5
32
102
{ACAD_REACTORS
330
2A
102
}
330
2A
100
AcDbVisualStyle
  2
Basic
 70
     7
177
     3
291
     1
 70
    58
 90
        1
176
     1
 90
        0
176
     1
 90
        1
176
     1
 90
        0
176
     1
 40
0.6
176
     1
 40
30.0
176
     1
 62
     7
420
 16777215
176
     1
 90
        0
176
     1
 90
        4
176
     1
 62
     7
176
     1
 62
   257
176
     1
 90
        1
176
     1
 90
        1
176
     1
 40
1.0
176
     1
 90
        8
176
     1
 62
     7
176
     1
 40
1.0
176
     1
 90
        1
176
     1
 90
        6
176
     1
 90
        2
176
     1
 62
     7
176
     1
 90
        5
176
     1
 90
        0
176
     1
 90
        0
176
     1
290
     0
176
     1
 90
        1
176
     1
 40
0.0
176
     1
 90
        0
176
     1
290
     0
176
     1
290
     1
176
     1
290
     1
176
     1
290
     0
176
     1
290
     0
176
     1
290
     0
176
     1
290
     0
176
     1
290
     0
176
     1
290
     0
176
     1
 90
       50
176
     1
 40
0.0
176
     1
 40
1.0
176
     1
 90
        0
176
     1
 62
    18
420
        0
176
     1
 90
       50
176
     1
 90
        3
176
     1
 62
     5
420
      255
176
     1
290
     0
176
     1
 90
       50
176
     1
 90
       50
176
     1
 90
       50
176
     1
290
     0
176
     1
 90
       50
176
     1
 62
   256
176
     0
 40
1.0
176
     0
 90
        2
176
     1
  1
strokes_ogs.tif
176
     1
290
     0
176
     1
 40
1.0
176
     1
 40
1.0
176
     1
  0
VISUALSTYLE
  5
36
102
{ACAD_REACTORS
330
2A
102
}
330
2A
100
AcDbVisualStyle
  2
Brighten
 70
    12
177
     3
291
     1
 70
    58
 90
        2
176
     1
 90
        2
176
     1
 90
        0
176
     1
 90
        0
176
     1
 40
0.6
176
     1
 40
30.0
176
     1
 62
     7
420
 16777215
176
     1
 90
        1
176
     1
 90
        4
176
     1
 62
     7
176
     1
 62
   257
176
     1
 90
        1
176
     1
 90
        1
176
     1
 40
1.0
176
     1
 90
        8
176
     1
 62
     7
176
     1
 40
1.0
176
     1
 90
        1
176
     1
 90
        6
176
     1
 90
        2
176
     1
 62
     7
176
     1
 90
        5
176
     1
 90
        0
176
     1
 90
        0
176
     1
290
     0
176
     1
 90
        1
176
     1
 40
50.0
176
     1
 90
        0
176
     1
290
     0
176
     1
290
     1
176
     1
290
     1
176
     1
290
     0
176
     1
290
     0
176
     1
290
     0
176
     1
290
     0
176
     1
290
     0
176
     1
290
     0
176
     1
 90
       50
176
     1
 40
0.0
176
     1
 40
1.0
176
     1
 90
        0
176
     1
 62
    18
420
        0
176
     1
 90
       50
176
     1
 90
        3
176
     1
 62
     5
420
      255
176
     1
290
     0
176
     1
 90
       50
176
     1
 90
       50
176
     1
 90
       50
176
     1
290
     0
176
     1
 90
       50
176
     1
 62
   256
176
     0
 40
1.0
176
     0
 90
        2
176
     1
  1
strokes_ogs.tif
176
     1
290
     0
176
     1
 40
1.0
176
     1
 40
1.0
176
     1
  0
VISUALSTYLE
  5
3A
102
{ACAD_REACTORS
330
2A
102
}
330
2A
100
AcDbVisualStyle
  2
ColorChange
 70
    16
177
     3
291
     1
 70
    58
 90
        2
176
     1
 90
        2
176
     1
 90
        3
176
     1
 90
        0
176
     1
 40
0.6
176
     1
 40
30.0
176
     1
 62
     8
420
  8421504
176
     1
 90
        1
176
     1
 90
        4
176
     1
 62
     7
176
     1
 62
   257
176
     1
 90
        1
176
     1
 90
        1
176
     1
 40
1.0
176
     1
 90
        8
176
     1
 62
     8
420
  8421504
176
     1
 40
1.0
176
     1
 90
        1
176
     1
 90
        6
176
     1
 90
        2
176
     1
 62
     7
176
     1
 90
        5
176
     1
 90
        0
176
     1
 90
        0
176
     1
290
     0
176
     1
 90
        1
176
     1
 40
0.0
176
     1
 90
        0
176
     1
290
     0
176
     1
290
     1
176
     1
290
     1
176
     1
290
     0
176
     1
290
     0
176
     1
290
     0
176
     1
290
     0
176
     1
290
     0
176
     1
290
     0
176
     1
 90
       50
176
     1
 40
0.0
176
     1
 40
1.0
176
     1
 90
        0
176
     1
 62
    18
420
        0
176
     1
 90
       50
176
     1
 90
        3
176
     1
 62
     5
420
      255
176
     1
290
     0
176
     1
 90
       50
176
     1
 90
       50
176
     1
 90
       50
176
     1
290
     0
176
     1
 90
       50
176
     1
 62
   256
176
     0
 40
1.0
176
     0
 90
        2
176
     1
  1
strokes_ogs.tif
176
     1
290
     0
176
     1
 40
1.0
176
     1
 40
1.0
176
     1
  0
VISUALSTYLE
  5
34
102
{ACAD_REACTORS
330
2A
102
}
330
2A
100
AcDbVisualStyle
  2
Conceptual
 70
     9
177
     3
291
     0
 70
    58
 90
        3
176
     1
 90
        2
176
     1
 90
        0
176
     1
 90
        0
176
     1
 40
0.6
176
     1
 40
30.0
176
     1
 62
     7
420
 16777215
176
     1
 90
        2
176
     1
 90
        2
176
     1
 62
     7
176
     1
 62
   257
176
     1
 90
        1
176
     1
 90
        1
176
     1
 40
179.0
176
     1
 90
        8
176
     1
 62
     7
176
     1
 40
1.0
176
     1
 90
        1
176
     1
 90
        6
176
     1
 90
        2
176
     1
 62
     7
176
     1
 90
        3
176
     1
 90
        0
176
     1
 90
        0
176
     1
290
     0
176
     1
 90
        1
176
     1
 40
0.0
176
     1
 90
        0
176
     1
290
     0
176
     1
290
     1
176
     1
290
     1
176
     1
290
     0
176
     1
290
     0
176
     1
290
     0
176
     1
290
     0
176
     1
290
     0
176
     1
290
     0
176
     1
 90
       50
176
     1
 40
0.0
176
     1
 40
1.0
176
     1
 90
        0
176
     1
 62
    18
420
        0
176
     1
 90
       50
176
     1
 90
        3
176
     1
 62
     5
420
      255
176
     1
290
     0
176
     1
 90
       50
176
     1
 90
       50
176
     1
 90
       50
176
     1
290
     0
176
     1
 90
       50
176
     1
 62
   256
176
     0
 40
1.0
176
     0
 90
        2
176
     1
  1
strokes_ogs.tif
176
     1
290
     0
176
     1
 40
1.0
176
     1
 40
1.0
176
     1
  0
VISUALSTYLE
  5
35
102
{ACAD_REACTORS
330
2A
102
}
330
2A
100
AcDbVisualStyle
  2
Dim
 70
    11
177
     3
291
     1
 70
    58
 90
        2
176
     1
 90
        2
176
     1
 90
        0
176
     1
 90
        0
176
     1
 40
0.6
176
     1
 40
30.0
176
     1
 62
     7
420
 16777215
176
     1
 90
        1
176
     1
 90
        4
176
     1
 62
     7
176
     1
 62
   257
176
     1
 90
        1
176
     1
 90
        1
176
     1
 40
1.0
176
     1
 90
        8
176
     1
 62
     7
176
     1
 40
1.0
176
     1
 90
        1
176
     1
 90
        6
176
     1
 90
        2
176
     1
 62
     7
176
     1
 90
        5
176
     1
 90
        0
176
     1
 90
        0
176
     1
290
     0
176
     1
 90
        1
176
     1
 40
-50.0
176
     1
 90
        0
176
     1
290
     0
176
     1
290
     1
176
     1
290
     1
176
     1
290
     0
176
     1
290
     0
176
     1
290
     0
176
     1
290
     0
176
     1
290
     0
176
     1
290
     0
176
     1
 90
       50
176
     1
 40
0.0
176
     1
 40
1.0
176
     1
 90
        0
176
     1
 62
    18
420
        0
176
     1
 90
       50
176
     1
 90
        3
176
     1
 62
     5
420
      255
176
     1
290
     0
176
     1
 90
       50
176
     1
 90
       50
176
     1
 90
       50
176
     1
290
     0
176
     1
 90
       50
176
     1
 62
   256
176
     0
 40
1.0
176
     0
 90
        2
176
     1
  1
strokes_ogs.tif
176
     1
290
     0
176
     1
 40
1.0
176
     1
 40
1.0
176
     1
  0
VISUALSTYLE
  5
3D
102
{ACAD_REACTORS
330
2A
102
}
330
2A
100
AcDbVisualStyle
  2
EdgeColorOff
 70
    22
177
     3
291
     1
 70
    58
 90
        2
176
     0
 90
        2
176
     0
 90
        0
176
     0
 90
        0
176
     0
 40
0.6
176
     0
 40
30.0
176
     0
 62
     7
420
 16777215
176
     0
 90
        1
176
     0
 90
        4
176
     0
 62
     7
176
     0
 62
   257
176
     0
 90
        1
176
     0
 90
        1
176
     0
 40
1.0
176
     0
 90
        8
176
     2
 62
     7
176
     0
 40
1.0
176
     0
 90
        1
176
     0
 90
        6
176
     0
 90
        2
176
     0
 62
     7
176
     0
 90
        5
176
     0
 90
        0
176
     0
 90
        0
176
     0
290
     0
176
     0
 90
        1
176
     0
 40
0.0
176
     0
 90
        0
176
     0
290
     0
176
     0
290
     1
176
     0
290
     1
176
     0
290
     0
176
     0
290
     0
176
     0
290
     0
176
     0
290
     0
176
     0
290
     0
176
     0
290
     0
176
     0
 90
       50
176
     0
 40
0.0
176
     0
 40
1.0
176
     0
 90
        0
176
     0
 62
    18
420
        0
176
     0
 90
       50
176
     0
 90
        3
176
     0
 62
     5
420
      255
176
     0
290
     0
176
     0
 90
       50
176
     0
 90
       50
176
     0
 90
       50
176
     0
290
     0
176
     0
 90
       50
176
     0
 62
   256
176
     0
 40
1.0
176
     0
 90
        2
176
     0
  1
strokes_ogs.tif
176
     0
290
     0
176
     0
 40
1.0
176
     0
 40
1.0
176
     0
  0
VISUALSTYLE
  5
39
102
{ACAD_REACTORS
330
2A
102
}
330
2A
100
AcDbVisualStyle
  2
Facepattern
 70
    15
177
     3
291
     1
 70
    58
 90
        2
176
     1
 90
        2
176
     1
 90
        0
176
     1
 90
        0
176
     1
 40
0.6
176
     1
 40
30.0
176
     1
 62
     7
420
 16777215
176
     1
 90
        1
176
     1
 90
        4
176
     1
 62
     7
176
     1
 62
   257
176
     1
 90
        1
176
     1
 90
        1
176
     1
 40
1.0
176
     1
 90
        8
176
     1
 62
     7
176
     1
 40
1.0
176
     1
 90
        1
176
     1
 90
        6
176
     1
 90
        2
176
     1
 62
     7
176
     1
 90
        5
176
     1
 90
        0
176
     1
 90
        0
176
     1
290
     0
176
     1
 90
        1
176
     1
 40
0.0
176
     1
 90
        0
176
     1
290
     0
176
     1
290
     1
176
     1
290
     1
176
     1
290
     0
176
     1
290
     0
176
     1
290
     0
176
     1
290
     0
176
     1
290
     0
176
     1
290
     0
176
     1
 90
       50
176
     1
 40
0.0
176
     1
 40
1.0
176
     1
 90
        0
176
     1
 62
    18
420
        0
176
     1
 90
       50
176
     1
 90
        3
176
     1
 62
     5
420
      255
176
     1
290
     0
176
     1
 90
       50
176
     1
 90
       50
176
     1
 90
       50
176
     1
290
     0
176
     1
 90
       50
176
     1
 62
   256
176
     0
 40
1.0
176
     0
 90
        2
176
     1
  1
strokes_ogs.tif
176
     1
290
     0
176
     1
 40
1.0
176
     1
 40
1.0
176
     1
  0
VISUALSTYLE
  5
2B
102
{ACAD_REACTORS
330
2A
102
}
330
2A
100
AcDbVisualStyle
  2
Flat
 70
     0
177
     3
291
     1
 70
    58
 90
        2
176
     1
 90
        1
176
     1
 90
        1
176
     1
 90
        2
176
     1
 40
0.6
176
     1
 40
30.0
176
     1
 62
     7
420
 16777215
176
     1
 90
        0
176
     1
 90
        0
176
     1
 62
     7
176
     1
 62
   257
176
     1
 90
        1
176
     1
 90
        1
176
     1
 40
1.0
176
     1
 90
        8
176
     1
 62
     7
176
     1
 40
1.0
176
     1
 90
        1
176
     1
 90
        6
176
     1
 90
        2
176
     1
 62
     7
176
     1
 90
        5
176
     1
 90
        0
176
     1
 90
        0
176
     1
290
     0
176
     1
 90
       13
176
     1
 40
0.0
176
     1
 90
        0
176
     1
290
     0
176
     1
290
     1
176
     1
290
     1
176
     1
290
     0
176
     1
290
     0
176
     1
290
     0
176
     1
290
     0
176
     1
290
     0
176
     1
290
     0
176
     1
 90
       50
176
     1
 40
0.0
176
     1
 40
1.0
176
     1
 90
        0
176
     1
 62
    18
420
        0
176
     1
 90
       50
176
     1
 90
        3
176
     1
 62
     5
420
      255
176
     1
290
     0
176
     1
 90
       50
176
     1
 90
       50
176
     1
 90
       50
176
     1
290
     0
176
     1
 90
       50
176
     1
 62
   256
176
     0
 40
1.0
176
     0
 90
        2
176
     1
  1
strokes_ogs.tif
176
     1
290
     0
176
     1
 40
1.0
176
     1
 40
1.0
176
     1
  0
VISUALSTYLE
  5
2C
102
{ACAD_REACTORS
330
2A
102
}
330
2A
100
AcDbVisualStyle
  2
FlatWithEdges
 70
     1
177
     3
291
     1
 70
    58
 90
        2
176
     1
 90
        1
176
     1
 90
        1
176
     1
 90
        2
176
     1
 40
0.6
176
     1
 40
30.0
176
     1
 62
     7
420
 16777215
176
     1
 90
        1
176
     1
 90
        0
176
     1
 62
     7
176
     1
 62
   257
176
     1
 90
        1
176
     1
 90
        1
176
     1
 40
1.0
176
     1
 90
        0
176
     1
 62
   257
176
     1
 40
1.0
176
     1
 90
        1
176
     1
 90
        6
176
     1
 90
        2
176
     1
 62
     7
176
     1
 90
        5
176
     1
 90
        0
176
     1
 90
        0
176
     1
290
     0
176
     1
 90
       13
176
     1
 40
0.0
176
     1
 90
        0
176
     1
290
     0
176
     1
290
     1
176
     1
290
     1
176
     1
290
     0
176
     1
290
     0
176
     1
290
     0
176
     1
290
     0
176
     1
290
     0
176
     1
290
     0
176
     1
 90
       50
176
     1
 40
0.0
176
     1
 40
1.0
176
     1
 90
        0
176
     1
 62
    18
420
        0
176
     1
 90
       50
176
     1
 90
        3
176
     1
 62
     5
420
      255
176
     1
290
     0
176
     1
 90
       50
176
     1
 90
       50
176
     1
 90
       50
176
     1
290
     0
176
     1
 90
       50
176
     1
 62
   256
176
     0
 40
1.0
176
     0
 90
        2
176
     1
  1
strokes_ogs.tif
176
     1
290
     0
176
     1
 40
1.0
176
     1
 40
1.0
176
     1
  0
VISUALSTYLE
  5
2D
102
{ACAD_REACTORS
330
2A
102
}
330
2A
100
AcDbVisualStyle
  2
Gouraud
 70
     2
177
     3
291
     1
 70
    58
 90
        2
176
     1
 90
        2
176
     1
 90
        1
176
     1
 90
        2
176
     1
 40
0.6
176
     1
 40
30.0
176
     1
 62
     7
420
 16777215
176
     1
 90
        0
176
     1
 90
        0
176
     1
 62
     7
176
     1
 62
   257
176
     1
 90
        1
176
     1
 90
        1
176
     1
 40
1.0
176
     1
 90
        0
176
     1
 62
     7
176
     1
 40
1.0
176
     1
 90
        1
176
     1
 90
        6
176
     1
 90
        2
176
     1
 62
     7
176
     1
 90
        5
176
     1
 90
        0
176
     1
 90
        0
176
     1
290
     0
176
     1
 90
       13
176
     1
 40
0.0
176
     1
 90
        0
176
     1
290
     0
176
     1
290
     1
176
     1
290
     1
176
     1
290
     0
176
     1
290
     0
176
     1
290
     0
176
     1
290
     0
176
     1
290
     0
176
     1
290
     0
176
     1
 90
       50
176
     1
 40
0.0
176
     1
 40
1.0
176
     1
 90
        0
176
     1
 62
    18
420
        0
176
     1
 90
       50
176
     1
 90
        3
176
     1
 62
     5
420
      255
176
     1
290
     0
176
     1
 90
       50
176
     1
 90
       50
176
     1
 90
       50
176
     1
290
     0
176
     1
 90
       50
176
     1
 62
   256
176
     0
 40
1.0
176
     0
 90
        2
176
     1
  1
strokes_ogs.tif
176
     1
290
     0
176
     1
 40
1.0
176
     1
 40
1.0
176
     1
  0
VISUALSTYLE
  5
2E
102
{ACAD_REACTORS
330
2A
102
}
330
2A
100
AcDbVisualStyle
  2
GouraudWithEdges
 70
     3
177
     3
291
     1
 70
    58
 90
        2
176
     1
 90
        2
176
     1
 90
        1
176
     1
 90
        2
176
     1
 40
0.6
176
     1
 40
30.0
176
     1
 62
     7
420
 16777215
176
     1
 90
        1
176
     1
 90
        0
176
     1
 62
     7
176
     1
 62
   257
176
     1
 90
        1
176
     1
 90
        1
176
     1
 40
1.0
176
     1
 90
        0
176
     1
 62
   257
176
     1
 40
1.0
176
     1
 90
        1
176
     1
 90
        6
176
     1
 90
        2
176
     1
 62
     7
176
     1
 90
        5
176
     1
 90
        0
176
     1
 90
        0
176
     1
290
     0
176
     1
 90
       13
176
     1
 40
0.0
176
     1
 90
        0
176
     1
290
     0
176
     1
290
     1
176
     1
290
     1
176
     1
290
     0
176
     1
290
     0
176
     1
290
     0
176
     1
290
     0
176
     1
290
     0
176
     1
290
     0
176
     1
 90
       50
176
     1
 40
0.0
176
     1
 40
1.0
176
     1
 90
        0
176
     1
 62
    18
420
        0
176
     1
 90
       50
176
     1
 90
        3
176
     1
 62
     5
420
      255
176
     1
290
     0
176
     1
 90
       50
176
     1
 90
       50
176
     1
 90
       50
176
     1
290
     0
176
     1
 90
       50
176
     1
 62
   256
176
     0
 40
1.0
176
     0
 90
        2
176
     1
  1
strokes_ogs.tif
176
     1
290
     0
176
     1
 40
1.0
176
     1
 40
1.0
176
     1
  0
VISUALSTYLE
  5
31
102
{ACAD_REACTORS
330
2A
102
}
330
2A
100
AcDbVisualStyle
  2
Hidden
 70
     6
177
     3
291
     0
 70
    58
 90
        1
176
     1
 90
        2
176
     1
 90
        2
176
     1
 90
        0
176
     1
 40
0.6
176
     1
 40
30.0
176
     1
 62
     7
420
 16777215
176
     1
 90
        2
176
     1
 90
        2
176
     1
 62
     7
176
     1
 62
   257
176
     1
 90
        2
176
     1
 90
        1
176
     1
 40
40.0
176
     1
 90
        0
176
     1
 62
   257
176
     1
 40
1.0
176
     1
 90
        1
176
     1
 90
        6
176
     1
 90
        2
176
     1
 62
     7
176
     1
 90
        3
176
     1
 90
        0
176
     1
 90
        0
176
     1
290
     0
176
     1
 90
        1
176
     1
 40
0.0
176
     1
 90
        0
176
     1
290
     0
176
     1
290
     1
176
     1
290
     1
176
     1
290
     0
176
     1
290
     0
176
     1
290
     0
176
     1
290
     0
176
     1
290
     0
176
     1
290
     0
176
     1
 90
       50
176
     1
 40
0.0
176
     1
 40
1.0
176
     1
 90
        0
176
     1
 62
    18
420
        0
176
     1
 90
       50
176
     1
 90
        3
176
     1
 62
     5
420
      255
176
     1
290
     0
176
     1
 90
       50
176
     1
 90
       50
176
     1
 90
       50
176
     1
290
     0
176
     1
 90
       50
176
     1
 62
   256
176
     0
 40
1.0
176
     0
 90
        2
176
     1
  1
strokes_ogs.tif
176
     1
290
     0
176
     1
 40
1.0
176
     1
 40
1.0
176
     1
  0
VISUALSTYLE
  5
3B
102
{ACAD_REACTORS
330
2A
102
}
330
2A
100
AcDbVisualStyle
  2
JitterOff
 70
    20
177
     3
291
     1
 70
    58
 90
        2
176
     0
 90
        2
176
     0
 90
        0
176
     0
 90
        0
176
     0
 40
0.6
176
     0
 40
30.0
176
     0
 62
     7
420
 16777215
176
     0
 90
        1
176
     0
 90
        4
176
     0
 62
     7
176
     0
 62
   257
176
     0
 90
        1
176
     0
 90
        1
176
     0
 40
1.0
176
     0
 90
       10
176
     2
 62
     7
176
     0
 40
1.0
176
     0
 90
        1
176
     0
 90
        6
176
     0
 90
        2
176
     0
 62
     7
176
     0
 90
        5
176
     0
 90
        0
176
     0
 90
        0
176
     0
290
     0
176
     0
 90
        1
176
     0
 40
0.0
176
     0
 90
        0
176
     0
290
     0
176
     0
290
     1
176
     0
290
     1
176
     0
290
     0
176
     0
290
     0
176
     0
290
     0
176
     0
290
     0
176
     0
290
     0
176
     0
290
     0
176
     0
 90
       50
176
     0
 40
0.0
176
     0
 40
1.0
176
     0
 90
        0
176
     0
 62
    18
420
        0
176
     0
 90
       50
176
     0
 90
        3
176
     0
 62
     5
420
      255
176
     0
290
     0
176
     0
 90
       50
176
     0
 90
       50
176
     0
 90
       50
176
     0
290
     0
176
     0
 90
       50
176
     0
 62
   256
176
     0
 40
1.0
176
     0
 90
        2
176
     0
  1
strokes_ogs.tif
176
     0
290
     0
176
     0
 40
1.0
176
     0
 40
1.0
176
     0
  0
VISUALSTYLE
  5
38
102
{ACAD_REACTORS
330
2A
102
}
330
2A
100
AcDbVisualStyle
  2
Linepattern
 70
    14
177
     3
291
     1
 70
    58
 90
        2
176
     1
 90
        2
176
     1
 90
        0
176
     1
 90
        0
176
     1
 40
0.6
176
     1
 40
30.0
176
     1
 62
     7
420
 16777215
176
     1
 90
        1
176
     1
 90
        4
176
     1
 62
     7
176
     1
 62
   257
176
     1
 90
        7
176
     1
 90
        7
176
     1
 40
1.0
176
     1
 90
        8
176
     1
 62
     7
176
     1
 40
1.0
176
     1
 90
        1
176
     1
 90
        6
176
     1
 90
        2
176
     1
 62
     7
176
     1
 90
        5
176
     1
 90
        0
176
     1
 90
        0
176
     1
290
     0
176
     1
 90
        1
176
     1
 40
0.0
176
     1
 90
        0
176
     1
290
     0
176
     1
290
     1
176
     1
290
     1
176
     1
290
     0
176
     1
290
     0
176
     1
290
     0
176
     1
290
     0
176
     1
290
     0
176
     1
290
     0
176
     1
 90
       50
176
     1
 40
0.0
176
     1
 40
1.0
176
     1
 90
        0
176
     1
 62
    18
420
        0
176
     1
 90
       50
176
     1
 90
        3
176
     1
 62
     5
420
      255
176
     1
290
     0
176
     1
 90
       50
176
     1
 90
       50
176
     1
 90
       50
176
     1
290
     0
176
     1
 90
       50
176
     1
 62
   256
176
     0
 40
1.0
176
     0
 90
        2
176
     1
  1
strokes_ogs.tif
176
     1
290
     0
176
     1
 40
1.0
176
     1
 40
1.0
176
     1
  0
VISUALSTYLE
  5
3C
102
{ACAD_REACTORS
330
2A
102
}
330
2A
100
AcDbVisualStyle
  2
OverhangOff
 70
    21
177
     3
291
     1
 70
    58
 90
        2
176
     0
 90
        2
176
     0
 90
        0
176
     0
 90
        0
176
     0
 40
0.6
176
     0
 40
30.0
176
     0
 62
     7
420
 16777215
176
     0
 90
        1
176
     0
 90
        4
176
     0
 62
     7
176
     0
 62
   257
176
     0
 90
        1
176
     0
 90
        1
176
     0
 40
1.0
176
     0
 90
        9
176
     2
 62
     7
176
     0
 40
1.0
176
     0
 90
        1
176
     0
 90
        6
176
     0
 90
        2
176
     0
 62
     7
176
     0
 90
        5
176
     0
 90
        0
176
     0
 90
        0
176
     0
290
     0
176
     0
 90
        1
176
     0
 40
0.0
176
     0
 90
        0
176
     0
290
     0
176
     0
290
     1
176
     0
290
     1
176
     0
290
     0
176
     0
290
     0
176
     0
290
     0
176
     0
290
     0
176
     0
290
     0
176
     0
290
     0
176
     0
 90
       50
176
     0
 40
0.0
176
     0
 40
1.0
176
     0
 90
        0
176
     0
 62
    18
420
        0
176
     0
 90
       50
176
     0
 90
        3
176
     0
 62
     5
420
      255
176
     0
290
     0
176
     0
 90
       50
176
     0
 90
       50
176
     0
 90
       50
176
     0
290
     0
176
     0
 90
       50
176
     0
 62
   256
176
     0
 40
1.0
176
     0
 90
        2
176
     0
  1
strokes_ogs.tif
176
     0
290
     0
176
     0
 40
1.0
176
     0
 40
1.0
176
     0
  0
VISUALSTYLE
  5
33
102
{ACAD_REACTORS
330
2A
102
}
330
2A
100
AcDbVisualStyle
  2
Realistic
 70
     8
177
     3
291
     0
 70
    58
 90
        2
176
     1
 90
        3
176
     1
 90
        0
176
     1
 90
        2
176
     1
 40
0.6
176
     1
 40
30.0
176
     1
 62
     7
420
 16777215
176
     1
 90
        0
176
     1
 90
        0
176
     1
 62
     7
176
     1
 62
   257
176
     1
 90
        1
176
     1
 90
        1
176
     1
 40
1.0
176
     1
 90
        8
176
     1
 62
   257
176
     1
 40
1.0
176
     1
 90
        1
176
     1
 90
        6
176
     1
 90
        2
176
     1
 62
     7
176
     1
 90
        3
176
     1
 90
        0
176
     1
 90
        0
176
     1
290
     0
176
     1
 90
       13
176
     1
 40
0.0
176
     1
 90
        0
176
     1
290
     0
176
     1
290
     1
176
     1
290
     1
176
     1
290
     0
176
     1
290
     0
176
     1
290
     0
176
     1
290
     0
176
     1
290
     0
176
     1
290
     0
176
     1
 90
       50
176
     1
 40
0.0
176
     1
 40
1.0
176
     1
 90
        0
176
     1
 62
    18
420
        0
176
     1
 90
       50
176
     1
 90
        3
176
     1
 62
     5
420
      255
176
     1
290
     0
176
     1
 90
       50
176
     1
 90
       50
176
     1
 90
       50
176
     1
290
     0
176
     1
 90
       50
176
     1
 62
   256
176
     0
 40
1.0
176
     0
 90
        2
176
     1
  1
strokes_ogs.tif
176
     1
290
     0
176
     1
 40
1.0
176
     1
 40
1.0
176
     1
  0
VISUALSTYLE
  5
42
102
{ACAD_REACTORS
330
2A
102
}
330
2A
100
AcDbVisualStyle
  2
Shaded
 70
    27
177
     3
291
     0
 70
    58
 90
        2
176
     1
 90
        2
176
     1
 90
        1
176
     1
 90
        2
176
     1
 40
0.6
176
     1
 40
30.0
176
     1
 62
     7
420
 16777215
176
     1
 90
        0
176
     1
 90
        4
176
     1
 62
     7
176
     1
 62
   257
176
     1
 90
        1
176
     1
 90
        1
176
     1
 40
1.0
176
     1
 90
        8
176
     1
 62
   257
176
     1
 40
1.0
176
     1
 90
        1
176
     1
 90
        6
176
     1
 90
        2
176
     1
 62
     8
420
  7895160
176
     1
 90
        3
176
     1
 90
        0
176
     1
 90
        0
176
     1
290
     0
176
     1
 90
        5
176
     1
 40
0.0
176
     1
 90
        0
176
     1
290
     0
176
     1
290
     1
176
     1
290
     1
176
     1
290
     0
176
     1
290
     0
176
     1
290
     0
176
     1
290
     0
176
     1
290
     0
176
     1
290
     0
176
     1
 90
       50
176
     1
 40
0.0
176
     1
 40
1.0
176
     1
 90
        0
176
     1
 62
    18
420
        0
176
     1
 90
       50
176
     1
 90
        3
176
     1
 62
     5
420
      255
176
     1
290
     0
176
     1
 90
       50
176
     1
 90
       50
176
     1
 90
       50
176
     1
290
     0
176
     1
 90
       50
176
     1
 62
   256
176
     0
 40
1.0
176
     0
 90
        2
176
     1
  1
strokes_ogs.tif
176
     1
290
     0
176
     1
 40
1.0
176
     1
 40
1.0
176
     1
  0
VISUALSTYLE
  5
41
102
{ACAD_REACTORS
330
2A
102
}
330
2A
100
AcDbVisualStyle
  2
Shaded with edges
 70
    26
177
     3
291
     0
 70
    58
 90
        2
176
     1
 90
        2
176
     1
 90
        1
176
     1
 90
        2
176
     1
 40
0.6
176
     1
 40
30.0
176
     1
 62
     7
420
 16777215
176
     1
 90
        1
176
     1
 90
       10
176
     1
 62
     7
176
     1
 62
   257
176
     1
 90
        2
176
     1
 90
        1
176
     1
 40
1.0
176
     1
 90
        8
176
     1
 62
   257
176
     1
 40
1.0
176
     1
 90
        1
176
     1
 90
        6
176
     1
 90
        2
176
     1
 62
     7
176
     1
 90
        3
176
     1
 90
        0
176
     1
 90
        0
176
     1
290
     0
176
     1
 90
        5
176
     1
 40
0.0
176
     1
 90
        0
176
     1
290
     0
176
     1
290
     1
176
     1
290
     1
176
     1
290
     0
176
     1
290
     0
176
     1
290
     0
176
     1
290
     0
176
     1
290
     0
176
     1
290
     0
176
     1
 90
       50
176
     1
 40
0.0
176
     1
 40
1.0
176
     1
 90
        0
176
     1
 62
    18
420
        0
176
     1
 90
       50
176
     1
 90
        3
176
     1
 62
     5
420
      255
176
     1
290
     0
176
     1
 90
       50
176
     1
 90
       50
176
     1
 90
       50
176
     1
290
     0
176
     1
 90
       50
176
     1
 62
   256
176
     0
 40
1.0
176
     0
 90
        2
176
     1
  1
strokes_ogs.tif
176
     1
290
     0
176
     1
 40
1.0
176
     1
 40
1.0
176
     1
  0
VISUALSTYLE
  5
3E
102
{ACAD_REACTORS
330
2A
102
}
330
2A
100
AcDbVisualStyle
  2
Shades of Gray
 70
    23
177
     3
291
     0
 70
    58
 90
        2
176
     1
 90
        2
176
     1
 90
        3
176
     1
 90
        0
176
     1
 40
0.6
176
     1
 40
30.0
176
     1
 62
     7
420
 16777215
176
     1
 90
        2
176
     1
 90
        2
176
     1
 62
     7
176
     1
 62
     7
176
     1
 90
        1
176
     1
 90
        1
176
     1
 40
40.0
176
     1
 90
        8
176
     1
 62
     7
176
     1
 40
1.0
176
     1
 90
        1
176
     1
 90
        6
176
     1
 90
        2
176
     1
 62
     7
176
     1
 90
        3
176
     1
 90
        0
176
     1
 90
        0
176
     1
290
     0
176
     1
 90
        1
176
     1
 40
0.0
176
     1
 90
        0
176
     1
290
     0
176
     1
290
     1
176
     1
290
     1
176
     1
290
     0
176
     1
290
     0
176
     1
290
     0
176
     1
290
     0
176
     1
290
     0
176
     1
290
     0
176
     1
 90
       50
176
     1
 40
0.0
176
     1
 40
1.0
176
     1
 90
        0
176
     1
 62
    18
420
        0
176
     1
 90
       50
176
     1
 90
        3
176
     1
 62
     5
420
      255
176
     1
290
     0
176
     1
 90
       50
176
     1
 90
       50
176
     1
 90
       50
176
     1
290
     0
176
     1
 90
       50
176
     1
 62
   256
176
     0
 40
1.0
176
     0
 90
        2
176
     1
  1
strokes_ogs.tif
176
     1
290
     0
176
     1
 40
1.0
176
     1
 40
1.0
176
     1
  0
VISUALSTYLE
  5
3F
102
{ACAD_REACTORS
330
2A
102
}
330
2A
100
AcDbVisualStyle
  2
Sketchy
 70
    24
177
     3
291
     0
 70
    58
 90
        1
176
     1
 90
        2
176
     1
 90
        2
176
     1
 90
        0
176
     1
 40
0.6
176
     1
 40
30.0
176
     1
 62
     7
420
 16777215
176
     1
 90
        2
176
     1
 90
        2
176
     1
 62
     7
176
     1
 62
     7
176
     1
 90
        1
176
     1
 90
        1
176
     1
 40
40.0
176
     1
 90
       11
176
     1
 62
     7
176
     1
 40
1.0
176
     1
 90
        1
176
     1
 90
        6
176
     1
 90
        2
176
     1
 62
     7
176
     1
 90
        6
176
     1
 90
        0
176
     1
 90
        0
176
     1
290
     0
176
     1
 90
        1
176
     1
 40
0.0
176
     1
 90
        0
176
     1
290
     0
176
     1
290
     1
176
     1
290
     1
176
     1
290
     0
176
     1
290
     0
176
     1
290
     0
176
     1
290
     0
176
     1
290
     0
176
     1
290
     0
176
     1
 90
       50
176
     1
 40
0.0
176
     1
 40
1.0
176
     1
 90
        0
176
     1
 62
    18
420
        0
176
     1
 90
       50
176
     1
 90
        3
176
     1
 62
     5
420
      255
176
     1
290
     0
176
     1
 90
       50
176
     1
 90
       50
176
     1
 90
       50
176
     1
290
     0
176
     1
 90
       50
176
     1
 62
   256
176
     0
 40
1.0
176
     0
 90
        2
176
     1
  1
strokes_ogs.tif
176
     1
290
     0
176
     1
 40
1.0
176
     1
 40
1.0
176
     1
  0
VISUALSTYLE
  5
37
102
{ACAD_REACTORS
330
2A
102
}
330
2A
100
AcDbVisualStyle
  2
Thicken
 70
    13
177
     3
291
     1
 70
    58
 90
        2
176
     1
 90
        2
176
     1
 90
        0
176
     1
 90
        0
176
     1
 40
0.6
176
     1
 40
30.0
176
     1
 62
     7
420
 16777215
176
     1
 90
        1
176
     1
 90
        4
176
     1
 62
     7
176
     1
 62
   257
176
     1
 90
        1
176
     1
 90
        1
176
     1
 40
1.0
176
     1
 90
       12
176
     1
 62
     7
176
     1
 40
1.0
176
     1
 90
        1
176
     1
 90
        6
176
     1
 90
        2
176
     1
 62
     7
176
     1
 90
        5
176
     1
 90
        0
176
     1
 90
        0
176
     1
290
     0
176
     1
 90
        1
176
     1
 40
0.0
176
     1
 90
        0
176
     1
290
     0
176
     1
290
     1
176
     1
290
     1
176
     1
290
     0
176
     1
290
     0
176
     1
290
     0
176
     1
290
     0
176
     1
290
     0
176
     1
290
     0
176
     1
 90
       50
176
     1
 40
0.0
176
     1
 40
1.0
176
     1
 90
        0
176
     1
 62
    18
420
        0
176
     1
 90
       50
176
     1
 90
        3
176
     1
 62
     5
420
      255
176
     1
290
     0
176
     1
 90
       50
176
     1
 90
       50
176
     1
 90
       50
176
     1
290
     0
176
     1
 90
       50
176
     1
 62
   256
176
     0
 40
1.0
176
     0
 90
        2
176
     1
  1
strokes_ogs.tif
176
     1
290
     0
176
     1
 40
1.0
176
     1
 40
1.0
176
     1
  0
VISUALSTYLE
  5
30
102
{ACAD_REACTORS
330
2A
102
}
330
2A
100
AcDbVisualStyle
  2
Wireframe
 70
     5
177
     3
291
     0
 70
    58
 90
        0
176
     1
 90
        2
176
     1
 90
        0
176
     1
 90
        0
176
     1
 40
0.6
176
     1
 40
30.0
176
     1
 62
     7
420
 16777215
176
     1
 90
        1
176
     1
 90
        4
176
     1
 62
     7
176
     1
 62
   257
176
     1
 90
        1
176
     1
 90
        1
176
     1
 40
1.0
176
     1
 90
        0
176
     1
 62
   257
176
     1
 40
1.0
176
     1
 90
        1
176
     1
 90
        6
176
     1
 90
        2
176
     1
 62
     7
176
     1
 90
        3
176
     1
 90
        0
176
     1
 90
        0
176
     1
290
     0
176
     1
 90
        1
176
     1
 40
0.0
176
     1
 90
        0
176
     1
290
     0
176
     1
290
     1
176
     1
290
     1
176
     1
290
     0
176
     1
290
     0
176
     1
290
     0
176
     1
290
     0
176
     1
290
     0
176
     1
290
     0
176
     1
 90
       50
176
     1
 40
0.0
176
     1
 40
1.0
176
     1
 90
        0
176
     1
 62
    18
420
        0
176
     1
 90
       50
176
     1
 90
        3
176
     1
 62
     5
420
      255
176
     1
290
     0
176
     1
 90
       50
176
     1
 90
       50
176
     1
 90
       50
176
     1
290
     0
176
     1
 90
       50
176
     1
 62
   256
176
     0
 40
1.0
176
     0
 90
        2
176
     1
  1
strokes_ogs.tif
176
     1
290
     0
176
     1
 40
1.0
176
     1
 40
1.0
176
     1
  0
VISUALSTYLE
  5
40
102
{ACAD_REACTORS
330
2A
102
}
330
2A
100
AcDbVisualStyle
  2
X-Ray
 70
    25
177
     3
291
     0
 70
    58
 90
        2
176
     1
 90
        2
176
     1
 90
        1
176
     1
 90
        1
176
     1
 40
0.5
176
     1
 40
30.0
176
     1
 62
     7
420
 16777215
176
     1
 90
        1
176
     1
 90
        0
176
     1
 62
     7
176
     1
 62
   257
176
     1
 90
        1
176
     1
 90
        1
176
     1
 40
1.0
176
     1
 90
        8
176
     1
 62
     7
176
     1
 40
1.0
176
     1
 90
        1
176
     1
 90
        6
176
     1
 90
        2
176
     1
 62
     7
176
     1
 90
        3
176
     1
 90
        0
176
     1
 90
        0
176
     1
290
     0
176
     1
 90
       13
176
     1
 40
0.0
176
     1
 90
        0
176
     1
290
     0
176
     1
290
     1
176
     1
290
     1
176
     1
290
     0
176
     1
290
     0
176
     1
290
     0
176
     1
290
     0
176
     1
290
     0
176
     1
290
     0
176
     1
 90
       50
176
     1
 40
0.0
176
     1
 40
1.0
176
     1
 90
        0
176
     1
 62
    18
420
        0
176
     1
 90
       50
176
     1
 90
        3
176
     1
 62
     5
420
      255
176
     1
290
     0
176
     1
 90
       50
176
     1
 90
       50
176
     1
 90
       50
176
     1
290
     0
176
     1
 90
       50
176
     1
 62
   256
176
     0
 40
1.0
176
     0
 90
        2
176
     1
  1
strokes_ogs.tif
176
     1
290
     0
176
     1
 40
1.0
176
     1
 40
1.0
176
     1
  0
DICTIONARYVAR
  5
50A
102
{ACAD_REACTORS
330
509
102
}
330
509
100
DictionaryVariables
280
     0
  1
1:1
  0
DICTIONARYVAR
  5
513
102
{ACAD_REACTORS
330
509
102
}
330
509
100
DictionaryVariables
280
     0
  1
3.500000
  0
DICTIONARYVAR
  5
514
102
{ACAD_REACTORS
330
509
102
}
330
509
100
DictionaryVariables
280
     0
  1
acadiso.lin
  0
DICTIONARYVAR
  5
50F
102
{ACAD_REACTORS
330
509
102
}
330
509
100
DictionaryVariables
280
     0
  1
Standard
  0
DICTIONARYVAR
  5
50E
102
{ACAD_REACTORS
330
509
102
}
330
509
100
DictionaryVariables
280
     0
  1
Standard
  0
DICTIONARYVAR
  5
512
102
{ACAD_REACTORS
330
509
102
}
330
509
100
DictionaryVariables
280
     0
  1
0
  0
DICTIONARY
  5
50B
330
5A
100
AcDbDictionary
280
     1
281
     1
  3
ACAD_ROUNDTRIP_2008_TABLESTYLE_CELLSTYLEMAP
360
50C
  0
CELLSTYLEMAP
  5
50C
102
{ACAD_REACTORS
330
50B
102
}
330
50B
100
AcDbCellStyleMap
 90
        3
300
CELLSTYLE
  1
TABLEFORMAT_BEGIN
 90
        5
170
     1
 91
        0
 92
    32768
 62
   257
 93
        1
300
CONTENTFORMAT
  1
CONTENTFORMAT_BEGIN
 90
        0
 91
        0
 92
        4
 93
        0
300

 40
0.0
140
1.0
 94
        5
 62
     0
340
11
144
6.0
309
CONTENTFORMAT_END
171
     1
301
MARGIN
  1
CELLMARGIN_BEGIN
 40
1.5
 40
1.5
 40
1.5
 40
1.5
 40
1.5
 40
1.5
309
CELLMARGIN_END
 94
        6
 95
        1
302
GRIDFORMAT
  1
GRIDFORMAT_BEGIN
 90
        0
 91
        1
 62
     0
 92
       -2
340
14
 93
        0
 40
0.045
309
GRIDFORMAT_END
 95
        2
302
GRIDFORMAT
  1
GRIDFORMAT_BEGIN
 90
        0
 91
        1
 62
     0
 92
       -2
340
14
 93
        0
 40
0.045
309
GRIDFORMAT_END
 95
        4
302
GRIDFORMAT
  1
GRIDFORMAT_BEGIN
 90
        0
 91
        1
 62
     0
 92
       -2
340
14
 93
        0
 40
0.045
309
GRIDFORMAT_END
 95
        8
302
GRIDFORMAT
  1
GRIDFORMAT_BEGIN
 90
        0
 91
        1
 62
     0
 92
       -2
340
14
 93
        0
 40
0.045
309
GRIDFORMAT_END
 95
       16
302
GRIDFORMAT
  1
GRIDFORMAT_BEGIN
 90
        0
 91
        1
 62
     0
 92
       -2
340
14
 93
        0
 40
0.045
309
GRIDFORMAT_END
 95
       32
302
GRIDFORMAT
  1
GRIDFORMAT_BEGIN
 90
        0
 91
        1
 62
     0
 92
       -2
340
14
 93
        0
 40
0.045
309
GRIDFORMAT_END
309
TABLEFORMAT_END
  1
CELLSTYLE_BEGIN
 90
        1
 91
        1
300
_TITLE
309
CELLSTYLE_END
300
CELLSTYLE
  1
TABLEFORMAT_BEGIN
 90
        5
170
     1
 91
        0
 92
        0
 62
   257
 93
        1
300
CONTENTFORMAT
  1
CONTENTFORMAT_BEGIN
 90
        0
 91
        0
 92
        4
 93
        0
300

 40
0.0
140
1.0
 94
        5
 62
     0
340
11
144
4.5
309
CONTENTFORMAT_END
171
     1
301
MARGIN
  1
CELLMARGIN_BEGIN
 40
1.5
 40
1.5
 40
1.5
 40
1.5
 40
1.5
 40
1.5
309
CELLMARGIN_END
 94
        6
 95
        1
302
GRIDFORMAT
  1
GRIDFORMAT_BEGIN
 90
        0
 91
        1
 62
     0
 92
       -2
340
14
 93
        0
 40
0.045
309
GRIDFORMAT_END
 95
        2
302
GRIDFORMAT
  1
GRIDFORMAT_BEGIN
 90
        0
 91
        1
 62
     0
 92
       -2
340
14
 93
        0
 40
0.045
309
GRIDFORMAT_END
 95
        4
302
GRIDFORMAT
  1
GRIDFORMAT_BEGIN
 90
        0
 91
        1
 62
     0
 92
       -2
340
14
 93
        0
 40
0.045
309
GRIDFORMAT_END
 95
        8
302
GRIDFORMAT
  1
GRIDFORMAT_BEGIN
 90
        0
 91
        1
 62
     0
 92
       -2
340
14
 93
        0
 40
0.045
309
GRIDFORMAT_END
 95
       16
302
GRIDFORMAT
  1
GRIDFORMAT_BEGIN
 90
        0
 91
        1
 62
     0
 92
       -2
340
14
 93
        0
 40
0.045
309
GRIDFORMAT_END
 95
       32
302
GRIDFORMAT
  1
GRIDFORMAT_BEGIN
 90
        0
 91
        1
 62
     0
 92
       -2
340
14
 93
        0
 40
0.045
309
GRIDFORMAT_END
309
TABLEFORMAT_END
  1
CELLSTYLE_BEGIN
 90
        2
 91
        1
300
_HEADER
309
CELLSTYLE_END
300
CELLSTYLE
  1
TABLEFORMAT_BEGIN
 90
        5
170
     1
 91
        0
 92
        0
 62
   257
 93
        1
300
CONTENTFORMAT
  1
CONTENTFORMAT_BEGIN
 90
        0
 91
        0
 92
        4
 93
        0
300

 40
0.0
140
1.0
 94
        2
 62
     0
340
11
144
4.5
309
CONTENTFORMAT_END
171
     1
301
MARGIN
  1
CELLMARGIN_BEGIN
 40
1.5
 40
1.5
 40
1.5
 40
1.5
 40
1.5
 40
1.5
309
CELLMARGIN_END
 94
        6
 95
        1
302
GRIDFORMAT
  1
GRIDFORMAT_BEGIN
 90
        0
 91
        1
 62
     0
 92
       -2
340
14
 93
        0
 40
0.045
309
GRIDFORMAT_END
 95
        2
302
GRIDFORMAT
  1
GRIDFORMAT_BEGIN
 90
        0
 91
        1
 62
     0
 92
       -2
340
14
 93
        0
 40
0.045
309
GRIDFORMAT_END
 95
        4
302
GRIDFORMAT
  1
GRIDFORMAT_BEGIN
 90
        0
 91
        1
 62
     0
 92
       -2
340
14
 93
        0
 40
0.045
309
GRIDFORMAT_END
 95
        8
302
GRIDFORMAT
  1
GRIDFORMAT_BEGIN
 90
        0
 91
        1
 62
     0
 92
       -2
340
14
 93
        0
 40
0.045
309
GRIDFORMAT_END
 95
       16
302
GRIDFORMAT
  1
GRIDFORMAT_BEGIN
 90
        0
 91
        1
 62
     0
 92
       -2
340
14
 93
        0
 40
0.045
309
GRIDFORMAT_END
 95
       32
302
GRIDFORMAT
  1
GRIDFORMAT_BEGIN
 90
        0
 91
        1
 62
     0
 92
       -2
340
14
 93
        0
 40
0.045
309
GRIDFORMAT_END
309
TABLEFORMAT_END
  1
CELLSTYLE_BEGIN
 90
        3
 91
        2
300
_DATA
309
CELLSTYLE_END
  0
ENDSEC
  0
EOF
