  0
SECTION
  2
HEADER
  9
$ACADVER
  1
AC1027
  9
$ACADMAINTVER
 70
   105
  9
$DWGCODEPAGE
  3
ANSI_1252
  9
$LASTSAVEDBY
  1
mezergues
  9
$REQUIREDVERSIONS
160
                 0
  9
$INSBASE
 10
0.0
 20
0.0
 30
0.0
  9
$EXTMIN
 10
20348.47353496285
 20
-14862.87529255589
 30
-265.0000000000077
  9
$EXTMAX
 10
21333.47353496286
 20
-13507.87529255589
 30
0.0
  9
$LIMMIN
 10
0.0
 20
0.0
  9
$LIMMAX
 10
420.0
 20
297.0
  9
$ORTHOMODE
 70
     0
  9
$REGENMODE
 70
     1
  9
$FILLMODE
 70
     1
  9
$QTEXTMODE
 70
     0
  9
$MIRRTEXT
 70
     1
  9
$LTSCALE
 40
5.0
  9
$ATTMODE
 70
     1
  9
$TEXTSIZE
 40
2.5
  9
$TRACEWID
 40
1.0
  9
$TEXTSTYLE
  7
Standard
  9
$CLAYER
  8
0
  9
$CELTYPE
  6
Continuous
  9
$CECOLOR
 62
   256
  9
$CELTSCALE
 40
1.0
  9
$DISPSILH
 70
     0
  9
$DIMSCALE
 40
1.0
  9
$DIMASZ
 40
2.5
  9
$DIMEXO
 40
0.625
  9
$DIMDLI
 40
3.75
  9
$DIMRND
 40
0.0
  9
$DIMDLE
 40
0.0
  9
$DIMEXE
 40
1.25
  9
$DIMTP
 40
0.0
  9
$DIMTM
 40
0.0
  9
$DIMTXT
 40
2.5
  9
$DIMCEN
 40
2.5
  9
$DIMTSZ
 40
0.0
  9
$DIMTOL
 70
     0
  9
$DIMLIM
 70
     0
  9
$DIMTIH
 70
     0
  9
$DIMTOH
 70
     0
  9
$DIMSE1
 70
     0
  9
$DIMSE2
 70
     0
  9
$DIMTAD
 70
     1
  9
$DIMZIN
 70
     8
  9
$DIMBLK
  1

  9
$DIMASO
 70
     1
  9
$DIMSHO
 70
     1
  9
$DIMPOST
  1

  9
$DIMAPOST
  1

  9
$DIMALT
 70
     0
  9
$DIMALTD
 70
     3
  9
$DIMALTF
 40
0.03937007874016
  9
$DIMLFAC
 40
1.0
  9
$DIMTOFL
 70
     1
  9
$DIMTVP
 40
0.0
  9
$DIMTIX
 70
     0
  9
$DIMSOXD
 70
     1
  9
$DIMSAH
 70
     0
  9
$DIMBLK1
  1

  9
$DIMBLK2
  1

  9
$DIMSTYLE
  2
ISO-25
  9
$DIMCLRD
 70
     0
  9
$DIMCLRE
 70
     0
  9
$DIMCLRT
 70
     0
  9
$DIMTFAC
 40
1.0
  9
$DIMGAP
 40
0.625
  9
$DIMJUST
 70
     0
  9
$DIMSD1
 70
     0
  9
$DIMSD2
 70
     0
  9
$DIMTOLJ
 70
     0
  9
$DIMTZIN
 70
     8
  9
$DIMALTZ
 70
     0
  9
$DIMALTTZ
 70
     0
  9
$DIMUPT
 70
     0
  9
$DIMDEC
 70
     2
  9
$DIMTDEC
 70
     2
  9
$DIMALTU
 70
     2
  9
$DIMALTTD
 70
     3
  9
$DIMTXSTY
  7
Standard
  9
$DIMAUNIT
 70
     0
  9
$DIMADEC
 70
     0
  9
$DIMALTRND
 40
0.0
  9
$DIMAZIN
 70
     0
  9
$DIMDSEP
 70
    44
  9
$DIMATFIT
 70
     3
  9
$DIMFRAC
 70
     0
  9
$DIMLDRBLK
  1

  9
$DIMLUNIT
 70
     2
  9
$DIMLWD
 70
    -2
  9
$DIMLWE
 70
    -2
  9
$DIMTMOVE
 70
     2
  9
$DIMFXL
 40
1.0
  9
$DIMFXLON
 70
     0
  9
$DIMJOGANG
 40
0.7853981633974483
  9
$DIMTFILL
 70
     0
  9
$DIMTFILLCLR
 70
     0
  9
$DIMARCSYM
 70
     0
  9
$DIMLTYPE
  6

  9
$DIMLTEX1
  6

  9
$DIMLTEX2
  6

  9
$DIMTXTDIRECTION
 70
     0
  9
$LUNITS
 70
     2
  9
$LUPREC
 70
     4
  9
$SKETCHINC
 40
1.0
  9
$FILLETRAD
 40
0.0
  9
$AUNITS
 70
     0
  9
$AUPREC
 70
     0
  9
$MENU
  1
.
  9
$ELEVATION
 40
0.0
  9
$PELEVATION
 40
0.0
  9
$THICKNESS
 40
0.0
  9
$LIMCHECK
 70
     0
  9
$CHAMFERA
 40
0.0
  9
$CHAMFERB
 40
0.0
  9
$CHAMFERC
 40
0.0
  9
$CHAMFERD
 40
0.0
  9
$SKPOLY
 70
     0
  9
$TDCREATE
 40
2459678.43172096
  9
$TDUCREATE
 40
2459678.348387627
  9
$TDUPDATE
 40
2459678.431728345
  9
$TDUUPDATE
 40
2459678.348395011
  9
$TDINDWG
 40
0.0000000116
  9
$TDUSRTIMER
 40
0.0000000116
  9
$USRTIMER
 70
     1
  9
$ANGBASE
 50
0.0
  9
$ANGDIR
 70
     0
  9
$PDMODE
 70
     0
  9
$PDSIZE
 40
0.0
  9
$PLINEWID
 40
0.0
  9
$SPLFRAME
 70
     0
  9
$SPLINETYPE
 70
     6
  9
$SPLINESEGS
 70
     8
  9
$HANDSEED
  5
456
  9
$SURFTAB1
 70
     6
  9
$SURFTAB2
 70
     6
  9
$SURFTYPE
 70
     6
  9
$SURFU
 70
     6
  9
$SURFV
 70
     6
  9
$UCSBASE
  2

  9
$UCSNAME
  2

  9
$UCSORG
 10
0.0
 20
0.0
 30
0.0
  9
$UCSXDIR
 10
1.0
 20
0.0
 30
0.0
  9
$UCSYDIR
 10
0.0
 20
1.0
 30
0.0
  9
$UCSORTHOREF
  2

  9
$UCSORTHOVIEW
 70
     0
  9
$UCSORGTOP
 10
0.0
 20
0.0
 30
0.0
  9
$UCSORGBOTTOM
 10
0.0
 20
0.0
 30
0.0
  9
$UCSORGLEFT
 10
0.0
 20
0.0
 30
0.0
  9
$UCSORGRIGHT
 10
0.0
 20
0.0
 30
0.0
  9
$UCSORGFRONT
 10
0.0
 20
0.0
 30
0.0
  9
$UCSORGBACK
 10
0.0
 20
0.0
 30
0.0
  9
$PUCSBASE
  2

  9
$PUCSNAME
  2

  9
$PUCSORG
 10
0.0
 20
0.0
 30
0.0
  9
$PUCSXDIR
 10
1.0
 20
0.0
 30
0.0
  9
$PUCSYDIR
 10
0.0
 20
1.0
 30
0.0
  9
$PUCSORTHOREF
  2

  9
$PUCSORTHOVIEW
 70
     0
  9
$PUCSORGTOP
 10
0.0
 20
0.0
 30
0.0
  9
$PUCSORGBOTTOM
 10
0.0
 20
0.0
 30
0.0
  9
$PUCSORGLEFT
 10
0.0
 20
0.0
 30
0.0
  9
$PUCSORGRIGHT
 10
0.0
 20
0.0
 30
0.0
  9
$PUCSORGFRONT
 10
0.0
 20
0.0
 30
0.0
  9
$PUCSORGBACK
 10
0.0
 20
0.0
 30
0.0
  9
$USERI1
 70
     0
  9
$USERI2
 70
     0
  9
$USERI3
 70
     0
  9
$USERI4
 70
     0
  9
$USERI5
 70
     0
  9
$USERR1
 40
0.0
  9
$USERR2
 40
0.0
  9
$USERR3
 40
0.0
  9
$USERR4
 40
0.0
  9
$USERR5
 40
0.0
  9
$WORLDVIEW
 70
     1
  9
$SHADEDGE
 70
     3
  9
$SHADEDIF
 70
    70
  9
$TILEMODE
 70
     1
  9
$MAXACTVP
 70
    64
  9
$PINSBASE
 10
0.0
 20
0.0
 30
0.0
  9
$PLIMCHECK
 70
     0
  9
$PEXTMIN
 10
-5.730400000000003
 20
-7.876400000000018
 30
0.0
  9
$PEXTMAX
 10
203.3304
 20
279.4764
 30
0.0
  9
$PLIMMIN
 10
-20.0
 20
-7.5
  9
$PLIMMAX
 10
277.0
 20
202.5
  9
$UNITMODE
 70
     0
  9
$VISRETAIN
 70
     1
  9
$PLINEGEN
 70
     0
  9
$PSLTSCALE
 70
     0
  9
$TREEDEPTH
 70
  3020
  9
$CMLSTYLE
  2
Standard
  9
$CMLJUST
 70
     0
  9
$CMLSCALE
 40
20.0
  9
$PROXYGRAPHICS
 70
     1
  9
$MEASUREMENT
 70
     1
  9
$CELWEIGHT
370
    -1
  9
$ENDCAPS
280
     0
  9
$JOINSTYLE
280
     0
  9
$LWDISPLAY
290
     0
  9
$INSUNITS
 70
     4
  9
$HYPERLINKBASE
  1

  9
$STYLESHEET
  1

  9
$XEDIT
290
     1
  9
$CEPSNTYPE
380
     3
  9
$CEPSNID
390
5F
  9
$PSTYLEMODE
290
     0
  9
$FINGERPRINTGUID
  2
{8ef7f715-434f-443e-be64-a17ea28c5ee0}
  9
$VERSIONGUID
  2
{FAEB1C32-E019-11D5-929B-00C0DF256EC4}
  9
$EXTNAMES
290
     1
  9
$PSVPSCALE
 40
0.0
  9
$OLESTARTUP
290
     0
  9
$SORTENTS
280
   127
  9
$INDEXCTL
280
     0
  9
$HIDETEXT
280
     1
  9
$XCLIPFRAME
280
     2
  9
$HALOGAP
280
     0
  9
$OBSCOLOR
 70
   257
  9
$OBSLTYPE
280
     0
  9
$INTERSECTIONDISPLAY
280
     0
  9
$INTERSECTIONCOLOR
 70
   257
  9
$DIMASSOC
280
     2
  9
$PROJECTNAME
  1

  9
$CAMERADISPLAY
290
     0
  9
$LENSLENGTH
 40
50.0
  9
$CAMERAHEIGHT
 40
0.0
  9
$STEPSPERSEC
 40
2.0
  9
$STEPSIZE
 40
6.0
  9
$3DDWFPREC
 40
2.0
  9
$PSOLWIDTH
 40
5.0
  9
$PSOLHEIGHT
 40
80.0
  9
$LOFTANG1
 40
1.570796326794897
  9
$LOFTANG2
 40
1.570796326794897
  9
$LOFTMAG1
 40
0.0
  9
$LOFTMAG2
 40
0.0
  9
$LOFTPARAM
 70
     7
  9
$LOFTNORMALS
280
     1
  9
$LATITUDE
 40
37.795
  9
$LONGITUDE
 40
-122.394
  9
$NORTHDIRECTION
 40
0.0
  9
$TIMEZONE
 70
 -8000
  9
$LIGHTGLYPHDISPLAY
280
     1
  9
$TILEMODELIGHTSYNCH
280
     1
  9
$CMATERIAL
347
44
  9
$SOLIDHIST
280
     0
  9
$SHOWHIST
280
     1
  9
$DWFFRAME
280
     2
  9
$DGNFRAME
280
     2
  9
$REALWORLDSCALE
290
     1
  9
$INTERFERECOLOR
 62
   256
  9
$CSHADOW
280
     0
  9
$SHADOWPLANELOCATION
 40
0.0
  0
ENDSEC
  0
SECTION
  2
CLASSES
  0
CLASS
  1
ACDBDICTIONARYWDFLT
  2
AcDbDictionaryWithDefault
  3
ObjectDBX Classes
 90
        0
 91
        3
280
     0
281
     0
  0
CLASS
  1
VISUALSTYLE
  2
AcDbVisualStyle
  3
ObjectDBX Classes
 90
     4095
 91
        3
280
     0
281
     0
  0
CLASS
  1
MATERIAL
  2
AcDbMaterial
  3
ObjectDBX Classes
 90
     1153
 91
        3
280
     0
281
     0
  0
CLASS
  1
SCALE
  2
AcDbScale
  3
ObjectDBX Classes
 90
     1153
 91
        3
280
     0
281
     0
  0
CLASS
  1
TABLESTYLE
  2
AcDbTableStyle
  3
ObjectDBX Classes
 90
     4095
 91
        3
280
     0
281
     0
  0
CLASS
  1
MLEADERSTYLE
  2
AcDbMLeaderStyle
  3
ACDB_MLEADERSTYLE_CLASS
 90
     4095
 91
        3
280
     0
281
     0
  0
CLASS
  1
SUN
  2
AcDbSun
  3
SCENEOE
 90
     1153
 91
        3
280
     0
281
     0
  0
CLASS
  1
RASTERVARIABLES
  2
AcDbRasterVariables
  3
ISM
 90
        0
 91
        3
280
     0
281
     0
  0
CLASS
  1
WIPEOUTVARIABLES
  2
AcDbWipeoutVariables
  3
WipeOut|AutoCAD Express Tool|expresstools@autodesk.com
 90
        0
 91
        3
280
     0
281
     0
  0
CLASS
  1
PLOTSETTINGS
  2
AcDbPlotSettings
  3
ObjectDBX Classes
 90
        0
 91
        3
280
     0
281
     0
  0
CLASS
  1
IMAGEDEF
  2
AcDbRasterImageDef
  3
ISM
 90
        0
 91
        3
280
     0
281
     0
  0
CLASS
  1
IMAGE
  2
AcDbRasterImage
  3
ISM
 90
      127
 91
        4
280
     0
281
     1
  0
CLASS
  1
IMAGEDEF_REACTOR
  2
AcDbRasterImageDefReactor
  3
ISM
 90
        1
 91
        3
280
     0
281
     0
  0
CLASS
  1
DICTIONARYVAR
  2
AcDbDictionaryVar
  3
ObjectDBX Classes
 90
        0
 91
        3
280
     0
281
     0
  0
CLASS
  1
CELLSTYLEMAP
  2
AcDbCellStyleMap
  3
ObjectDBX Classes
 90
     1152
 91
        3
280
     0
281
     0
  0
ENDSEC
  0
SECTION
  2
TABLES
  0
TABLE
  2
VPORT
  5
8
330
0
100
AcDbSymbolTable
 70
     1
  0
VPORT
  5
29
330
8
100
AcDbSymbolTableRecord
100
AcDbViewportTableRecord
  2
*Active
 70
     0
 10
0.0
 20
0.0
 11
1.0
 21
1.0
 12
344.1869158878504
 22
148.5
 13
0.0
 23
0.0
 14
10.0
 24
10.0
 15
10.0
 25
10.0
 16
0.0
 26
0.0
 36
1.0
 17
0.0
 27
0.0
 37
0.0
 40
297.0
 41
1.972972972850329
 42
50.0
 43
0.0
 44
0.0
 50
0.0
 51
0.0
 71
     0
 72
   100
 73
     1
 74
     3
 75
     0
 76
     0
 77
     0
 78
     0
281
     0
 65
     1
110
0.0
120
0.0
130
0.0
111
1.0
121
0.0
131
0.0
112
0.0
122
1.0
132
0.0
 79
     0
146
0.0
348
2F
 60
     3
 61
     5
292
     1
282
     1
141
0.0
142
0.0
 63
   250
361
5D
  0
ENDTAB
  0
TABLE
  2
LTYPE
  5
5
330
0
100
AcDbSymbolTable
 70
     2
  0
LTYPE
  5
14
330
5
100
AcDbSymbolTableRecord
100
AcDbLinetypeTableRecord
  2
ByBlock
 70
     0
  3

 72
    65
 73
     0
 40
0.0
  0
LTYPE
  5
15
330
5
100
AcDbSymbolTableRecord
100
AcDbLinetypeTableRecord
  2
ByLayer
 70
     0
  3

 72
    65
 73
     0
 40
0.0
  0
LTYPE
  5
16
330
5
100
AcDbSymbolTableRecord
100
AcDbLinetypeTableRecord
  2
Continuous
 70
     0
  3
Solid line
 72
    65
 73
     0
 40
0.0
  0
LTYPE
  5
16C
330
5
100
AcDbSymbolTableRecord
100
AcDbLinetypeTableRecord
  2
CADWORK_3
 70
     0
  3

 72
    65
 73
     2
 40
4.0
 49
2.0
 74
     0
 49
-2.0
 74
     0
  0
ENDTAB
  0
TABLE
  2
LAYER
  5
2
330
0
100
AcDbSymbolTable
 70
    10
  0
LAYER
  5
10
330
2
100
AcDbSymbolTableRecord
100
AcDbLayerTableRecord
  2
0
 70
     0
 62
     7
  6
Continuous
370
    -3
390
F
347
46
348
0
  0
LAYER
  5
67
330
2
100
AcDbSymbolTableRecord
100
AcDbLayerTableRecord
  2
Ech.1_1
 70
     0
 62
     7
  6
Continuous
370
    -3
390
F
347
46
348
0
  0
LAYER
  5
68
330
2
100
AcDbSymbolTableRecord
100
AcDbLayerTableRecord
  2
Ech.1_2
 70
     0
 62
     7
  6
Continuous
370
    -3
390
F
347
46
348
0
  0
LAYER
  5
69
330
2
100
AcDbSymbolTableRecord
100
AcDbLayerTableRecord
  2
Ech.1_5
 70
     0
 62
     7
  6
Continuous
370
    -3
390
F
347
46
348
0
  0
LAYER
  5
6A
330
2
100
AcDbSymbolTableRecord
100
AcDbLayerTableRecord
  2
Ech.1_10
 70
     0
 62
     7
  6
Continuous
370
    -3
390
F
347
46
348
0
  0
LAYER
  5
6B
330
2
100
AcDbSymbolTableRecord
100
AcDbLayerTableRecord
  2
Ech.1_20
 70
     0
 62
     7
  6
Continuous
370
    -3
390
F
347
46
348
0
  0
LAYER
  5
6C
330
2
100
AcDbSymbolTableRecord
100
AcDbLayerTableRecord
  2
Layer_17
 70
     0
 62
     7
  6
Continuous
370
    -3
390
F
347
46
348
0
  0
LAYER
  5
6D
330
2
100
AcDbSymbolTableRecord
100
AcDbLayerTableRecord
  2
Cadres laser
 70
     0
 62
     7
  6
Continuous
370
    -3
390
F
347
46
348
0
  0
LAYER
  5
6E
330
2
100
AcDbSymbolTableRecord
100
AcDbLayerTableRecord
  2
DEFPOINTS
 70
     0
 62
     7
  6
Continuous
290
     0
370
    -3
390
F
347
46
348
0
  0
LAYER
  5
6F
330
2
100
AcDbSymbolTableRecord
100
AcDbLayerTableRecord
  2
ASSY
 70
     0
 62
     7
  6
Continuous
370
    -3
390
F
347
46
348
0
  0
ENDTAB
  0
TABLE
  2
STYLE
  5
3
330
0
100
AcDbSymbolTable
 70
    10
  0
STYLE
  5
11
330
3
100
AcDbSymbolTableRecord
100
AcDbTextStyleTableRecord
  2
Standard
 70
     0
 40
0.0
 41
1.0
 50
0.0
 71
     0
 42
2.5
  3
txt
  4

  0
STYLE
  5
62
330
3
100
AcDbSymbolTableRecord
100
AcDbTextStyleTableRecord
  2
CwStyleShx
 70
     0
 40
1.0
 41
1.0
 50
0.0
 71
     0
 42
2.5
  3

  4

  0
STYLE
  5
63
330
3
100
AcDbSymbolTableRecord
100
AcDbTextStyleTableRecord
  2
CwStyleShx16
 70
     0
 40
1.0
 41
1.0
 50
0.0
 71
     0
 42
2.5
  3

  4

  0
STYLE
  5
64
330
3
100
AcDbSymbolTableRecord
100
AcDbTextStyleTableRecord
  2
MONOTXT
 70
     0
 40
0.0
 41
1.0
 50
0.0
 71
     0
 42
2.5
  3
MONOTXT
  4

  0
STYLE
  5
65
330
3
100
AcDbSymbolTableRecord
100
AcDbTextStyleTableRecord
  2
SYMAP
 70
     0
 40
1.0
 41
1.0
 50
0.0
 71
     0
 42
2.5
  3
SYMAP
  4

  0
STYLE
  5
66
330
3
100
AcDbSymbolTableRecord
100
AcDbTextStyleTableRecord
  2
CwStyleTtf
 70
     0
 40
1.0
 41
1.0
 50
0.0
 71
     0
 42
2.5
  3
arial.ttf
  4

  0
STYLE
  5
239
330
3
100
AcDbSymbolTableRecord
100
AcDbTextStyleTableRecord
  2
arial-
 70
     0
 40
1.0
 41
1.0
 50
0.0
 71
     0
 42
2.5
  3
arial.ttf
  4

1001
ACAD
1000
Arial
1071
        0
  0
STYLE
  5
23A
330
3
100
AcDbSymbolTableRecord
100
AcDbTextStyleTableRecord
  2
symbol-
 70
     0
 40
1.0
 41
1.0
 50
0.0
 71
     0
 42
2.5
  3
symbol.ttf
  4

1001
ACAD
1000
Symbol
1071
        0
  0
STYLE
  5
43B
330
3
100
AcDbSymbolTableRecord
100
AcDbTextStyleTableRecord
  2
arial-i
 70
     0
 40
1.0
 41
1.0
 50
0.0
 71
     0
 42
2.5
  3
ariali.ttf
  4

1001
ACAD
1000
Arial
1071
 16777216
  0
STYLE
  5
440
330
3
100
AcDbSymbolTableRecord
100
AcDbTextStyleTableRecord
  2
arial-b
 70
     0
 40
1.0
 41
1.0
 50
0.0
 71
     0
 42
2.5
  3
arialbd.ttf
  4

1001
ACAD
1000
Arial
1071
 33554432
  0
ENDTAB
  0
TABLE
  2
VIEW
  5
6
330
0
100
AcDbSymbolTable
 70
     0
  0
ENDTAB
  0
TABLE
  2
UCS
  5
7
330
0
100
AcDbSymbolTable
 70
     0
  0
ENDTAB
  0
TABLE
  2
APPID
  5
9
330
0
100
AcDbSymbolTable
 70
     3
  0
APPID
  5
12
330
9
100
AcDbSymbolTableRecord
100
AcDbRegAppTableRecord
  2
ACAD
 70
     0
  0
APPID
  5
5E
330
9
100
AcDbSymbolTableRecord
100
AcDbRegAppTableRecord
  2
Cadwork
 70
     0
  0
APPID
  5
21C
330
9
100
AcDbSymbolTableRecord
100
AcDbRegAppTableRecord
  2
PLOTTRANSPARENCY
 70
     0
  0
ENDTAB
  0
TABLE
  2
DIMSTYLE
  5
A
330
0
100
AcDbSymbolTable
 70
     1
100
AcDbDimStyleTable
  0
DIMSTYLE
105
27
330
A
100
AcDbSymbolTableRecord
100
AcDbDimStyleTableRecord
  2
ISO-25
 70
     0
 41
2.5
 42
0.625
 43
3.75
 44
1.25
 73
     0
 74
     0
 77
     1
 78
     8
140
2.5
141
2.5
143
0.03937007874016
147
0.625
171
     3
172
     1
178
     0
271
     2
272
     2
274
     3
278
    44
283
     0
284
     8
340
11
  0
ENDTAB
  0
TABLE
  2
BLOCK_RECORD
  5
1
330
0
100
AcDbSymbolTable
 70
    73
  0
BLOCK_RECORD
  5
1F
330
1
100
AcDbSymbolTableRecord
100
AcDbBlockTableRecord
  2
*Model_Space
340
22
 70
     0
280
     1
281
     0
  0
BLOCK_RECORD
  5
217
330
1
100
AcDbSymbolTableRecord
100
AcDbBlockTableRecord
  2
*Paper_Space
340
218
 70
     0
280
     1
281
     0
  0
BLOCK_RECORD
  5
70
330
1
100
AcDbSymbolTableRecord
100
AcDbBlockTableRecord
  2
CDWK_PTTYP1
340
0
 70
     0
280
     1
281
     1
  0
BLOCK_RECORD
  5
77
330
1
100
AcDbSymbolTableRecord
100
AcDbBlockTableRecord
  2
CDWK_PTTYP2
340
0
 70
     0
280
     1
281
     1
  0
BLOCK_RECORD
  5
7C
330
1
100
AcDbSymbolTableRecord
100
AcDbBlockTableRecord
  2
CDWK_PTTYP4
340
0
 70
     0
280
     1
281
     1
  0
BLOCK_RECORD
  5
80
330
1
100
AcDbSymbolTableRecord
100
AcDbBlockTableRecord
  2
CDWK_PTTYP5
340
0
 70
     0
280
     1
281
     1
  0
BLOCK_RECORD
  5
89
330
1
100
AcDbSymbolTableRecord
100
AcDbBlockTableRecord
  2
CDWK_PTTYP6
340
0
 70
     0
280
     1
281
     1
  0
BLOCK_RECORD
  5
91
330
1
100
AcDbSymbolTableRecord
100
AcDbBlockTableRecord
  2
CDWK_PTTYP7
340
0
 70
     0
280
     1
281
     1
  0
BLOCK_RECORD
  5
9A
330
1
100
AcDbSymbolTableRecord
100
AcDbBlockTableRecord
  2
CDWK_PTTYP8
340
0
 70
     0
280
     1
281
     1
  0
BLOCK_RECORD
  5
9E
330
1
100
AcDbSymbolTableRecord
100
AcDbBlockTableRecord
  2
CDWK_PTTYP9
340
0
 70
     0
280
     1
281
     1
  0
BLOCK_RECORD
  5
A3
330
1
100
AcDbSymbolTableRecord
100
AcDbBlockTableRecord
  2
CDWK_PTTYP10
340
0
 70
     0
280
     1
281
     1
  0
BLOCK_RECORD
  5
A7
330
1
100
AcDbSymbolTableRecord
100
AcDbBlockTableRecord
  2
CDWK_PTTYP11
340
0
 70
     0
280
     1
281
     1
  0
BLOCK_RECORD
  5
AC
330
1
100
AcDbSymbolTableRecord
100
AcDbBlockTableRecord
  2
CDWK_PTTYP12
340
0
 70
     0
280
     1
281
     1
  0
BLOCK_RECORD
  5
B1
330
1
100
AcDbSymbolTableRecord
100
AcDbBlockTableRecord
  2
CDWK_PTTYP13
340
0
 70
     0
280
     1
281
     1
  0
BLOCK_RECORD
  5
B7
330
1
100
AcDbSymbolTableRecord
100
AcDbBlockTableRecord
  2
CDWK_PTTYP16
340
0
 70
     0
280
     1
281
     1
  0
BLOCK_RECORD
  5
BE
330
1
100
AcDbSymbolTableRecord
100
AcDbBlockTableRecord
  2
CDWK_PTTYP17
340
0
 70
     0
280
     1
281
     1
  0
BLOCK_RECORD
  5
C3
330
1
100
AcDbSymbolTableRecord
100
AcDbBlockTableRecord
  2
CDWK_PTTYP18
340
0
 70
     0
280
     1
281
     1
  0
BLOCK_RECORD
  5
C8
330
1
100
AcDbSymbolTableRecord
100
AcDbBlockTableRecord
  2
CDWK_PTTYP19
340
0
 70
     0
280
     1
281
     1
  0
BLOCK_RECORD
  5
CE
330
1
100
AcDbSymbolTableRecord
100
AcDbBlockTableRecord
  2
CDWK_PTTYP20
340
0
 70
     0
280
     1
281
     1
  0
BLOCK_RECORD
  5
D3
330
1
100
AcDbSymbolTableRecord
100
AcDbBlockTableRecord
  2
CDWK_PTTYP21
340
0
 70
     0
280
     1
281
     1
  0
BLOCK_RECORD
  5
D8
330
1
100
AcDbSymbolTableRecord
100
AcDbBlockTableRecord
  2
CDWK_PTTYP25
340
0
 70
     0
280
     1
281
     1
  0
BLOCK_RECORD
  5
DF
330
1
100
AcDbSymbolTableRecord
100
AcDbBlockTableRecord
  2
CDWK_PTTYP26
340
0
 70
     0
280
     1
281
     1
  0
BLOCK_RECORD
  5
E6
330
1
100
AcDbSymbolTableRecord
100
AcDbBlockTableRecord
  2
CDWK_PTTYP27
340
0
 70
     0
280
     1
281
     1
  0
BLOCK_RECORD
  5
EE
330
1
100
AcDbSymbolTableRecord
100
AcDbBlockTableRecord
  2
CDWK_PTTYP28
340
0
 70
     0
280
     1
281
     1
  0
BLOCK_RECORD
  5
F5
330
1
100
AcDbSymbolTableRecord
100
AcDbBlockTableRecord
  2
CDWK_PTTYP29
340
0
 70
     0
280
     1
281
     1
  0
BLOCK_RECORD
  5
FB
330
1
100
AcDbSymbolTableRecord
100
AcDbBlockTableRecord
  2
CDWK_PTTYP30
340
0
 70
     0
280
     1
281
     1
  0
BLOCK_RECORD
  5
102
330
1
100
AcDbSymbolTableRecord
100
AcDbBlockTableRecord
  2
CDWK_PTTYP31
340
0
 70
     0
280
     1
281
     1
  0
BLOCK_RECORD
  5
10A
330
1
100
AcDbSymbolTableRecord
100
AcDbBlockTableRecord
  2
CDWK_PTTYP32
340
0
 70
     0
280
     1
281
     1
  0
BLOCK_RECORD
  5
113
330
1
100
AcDbSymbolTableRecord
100
AcDbBlockTableRecord
  2
CDWK_PTTYP33
340
0
 70
     0
280
     1
281
     1
  0
BLOCK_RECORD
  5
119
330
1
100
AcDbSymbolTableRecord
100
AcDbBlockTableRecord
  2
CDWK_PTTYP34
340
0
 70
     0
280
     1
281
     1
  0
BLOCK_RECORD
  5
11F
330
1
100
AcDbSymbolTableRecord
100
AcDbBlockTableRecord
  2
CDWK_PTTYP35
340
0
 70
     0
280
     1
281
     1
  0
BLOCK_RECORD
  5
125
330
1
100
AcDbSymbolTableRecord
100
AcDbBlockTableRecord
  2
CDWK_PTTYP36
340
0
 70
     0
280
     1
281
     1
  0
BLOCK_RECORD
  5
12D
330
1
100
AcDbSymbolTableRecord
100
AcDbBlockTableRecord
  2
CDWK_PTTYP37
340
0
 70
     0
280
     1
281
     1
  0
BLOCK_RECORD
  5
132
330
1
100
AcDbSymbolTableRecord
100
AcDbBlockTableRecord
  2
CDWK_PTTYP38
340
0
 70
     0
280
     1
281
     1
  0
BLOCK_RECORD
  5
138
330
1
100
AcDbSymbolTableRecord
100
AcDbBlockTableRecord
  2
CDWK_PTTYP41
340
0
 70
     0
280
     1
281
     1
  0
BLOCK_RECORD
  5
142
330
1
100
AcDbSymbolTableRecord
100
AcDbBlockTableRecord
  2
CDWK_PTTYP42
340
0
 70
     0
280
     1
281
     1
  0
BLOCK_RECORD
  5
14B
330
1
100
AcDbSymbolTableRecord
100
AcDbBlockTableRecord
  2
CDWK_PTTYP43
340
0
 70
     0
280
     1
281
     1
  0
BLOCK_RECORD
  5
151
330
1
100
AcDbSymbolTableRecord
100
AcDbBlockTableRecord
  2
CDWK_PTTYP44
340
0
 70
     0
280
     1
281
     1
  0
BLOCK_RECORD
  5
15A
330
1
100
AcDbSymbolTableRecord
100
AcDbBlockTableRecord
  2
CDWK_PTTYP45
340
0
 70
     0
280
     1
281
     1
  0
BLOCK_RECORD
  5
15F
330
1
100
AcDbSymbolTableRecord
100
AcDbBlockTableRecord
  2
CDWK_PTTYP46
340
0
 70
     0
280
     1
281
     1
  0
BLOCK_RECORD
  5
164
330
1
100
AcDbSymbolTableRecord
100
AcDbBlockTableRecord
  2
CDWK_PTTYP47
340
0
 70
     0
280
     1
281
     1
  0
BLOCK_RECORD
  5
16D
330
1
100
AcDbSymbolTableRecord
100
AcDbBlockTableRecord
  2
CDWK_PTTYP48
340
0
 70
     0
280
     1
281
     1
  0
BLOCK_RECORD
  5
172
330
1
100
AcDbSymbolTableRecord
100
AcDbBlockTableRecord
  2
CDWK_PTTYP49
340
0
 70
     0
280
     1
281
     1
  0
BLOCK_RECORD
  5
179
330
1
100
AcDbSymbolTableRecord
100
AcDbBlockTableRecord
  2
CDWK_PTTYP50
340
0
 70
     0
280
     1
281
     1
  0
BLOCK_RECORD
  5
183
330
1
100
AcDbSymbolTableRecord
100
AcDbBlockTableRecord
  2
CDWK_PTTYP51
340
0
 70
     0
280
     1
281
     1
  0
BLOCK_RECORD
  5
188
330
1
100
AcDbSymbolTableRecord
100
AcDbBlockTableRecord
  2
CDWK_PTTYP52
340
0
 70
     0
280
     1
281
     1
  0
BLOCK_RECORD
  5
18E
330
1
100
AcDbSymbolTableRecord
100
AcDbBlockTableRecord
  2
cw-dimension-symbol1
340
0
 70
     0
280
     1
281
     0
  0
BLOCK_RECORD
  5
195
330
1
100
AcDbSymbolTableRecord
100
AcDbBlockTableRecord
  2
cw-dimension-symbol2
340
0
 70
     0
280
     1
281
     0
  0
BLOCK_RECORD
  5
19A
330
1
100
AcDbSymbolTableRecord
100
AcDbBlockTableRecord
  2
cw-dimension-symbol3
340
0
 70
     0
280
     1
281
     0
  0
BLOCK_RECORD
  5
19F
330
1
100
AcDbSymbolTableRecord
100
AcDbBlockTableRecord
  2
cw-dimension-symbol5
340
0
 70
     0
280
     1
281
     0
  0
BLOCK_RECORD
  5
1A6
330
1
100
AcDbSymbolTableRecord
100
AcDbBlockTableRecord
  2
cw-dimension-symbol6
340
0
 70
     0
280
     1
281
     0
  0
BLOCK_RECORD
  5
1AC
330
1
100
AcDbSymbolTableRecord
100
AcDbBlockTableRecord
  2
cw-dimension-symbol11
340
0
 70
     0
280
     1
281
     0
  0
BLOCK_RECORD
  5
1B2
330
1
100
AcDbSymbolTableRecord
100
AcDbBlockTableRecord
  2
cw-dimension-symbol13
340
0
 70
     0
280
     1
281
     0
  0
BLOCK_RECORD
  5
1B8
330
1
100
AcDbSymbolTableRecord
100
AcDbBlockTableRecord
  2
cw-dimension-symbol15
340
0
 70
     0
280
     1
281
     0
  0
BLOCK_RECORD
  5
1BF
330
1
100
AcDbSymbolTableRecord
100
AcDbBlockTableRecord
  2
cw-dimension-symbol16
340
0
 70
     0
280
     1
281
     0
  0
BLOCK_RECORD
  5
1C6
330
1
100
AcDbSymbolTableRecord
100
AcDbBlockTableRecord
  2
cw-dimension-symbol17
340
0
 70
     0
280
     1
281
     0
  0
BLOCK_RECORD
  5
1CD
330
1
100
AcDbSymbolTableRecord
100
AcDbBlockTableRecord
  2
cw-dimension-symbol18
340
0
 70
     0
280
     1
281
     0
  0
BLOCK_RECORD
  5
1D4
330
1
100
AcDbSymbolTableRecord
100
AcDbBlockTableRecord
  2
cw-dimension-symbol19
340
0
 70
     0
280
     1
281
     0
  0
BLOCK_RECORD
  5
1D7
330
1
100
AcDbSymbolTableRecord
100
AcDbBlockTableRecord
  2
cw-dimension-symbol20
340
0
 70
     0
280
     1
281
     0
  0
BLOCK_RECORD
  5
1DE
330
1
100
AcDbSymbolTableRecord
100
AcDbBlockTableRecord
  2
cw-dimension-symbol21
340
0
 70
     0
280
     1
281
     0
  0
BLOCK_RECORD
  5
1E5
330
1
100
AcDbSymbolTableRecord
100
AcDbBlockTableRecord
  2
cw-line-extremity0
340
0
 70
     0
280
     1
281
     0
  0
BLOCK_RECORD
  5
1E9
330
1
100
AcDbSymbolTableRecord
100
AcDbBlockTableRecord
  2
cw-line-extremity2
340
0
 70
     0
280
     1
281
     0
  0
BLOCK_RECORD
  5
1EE
330
1
100
AcDbSymbolTableRecord
100
AcDbBlockTableRecord
  2
cw-line-extremity3
340
0
 70
     0
280
     1
281
     0
  0
BLOCK_RECORD
  5
1F3
330
1
100
AcDbSymbolTableRecord
100
AcDbBlockTableRecord
  2
cw-line-extremity301
340
0
 70
     0
280
     1
281
     0
  0
BLOCK_RECORD
  5
1F5
330
1
100
AcDbSymbolTableRecord
100
AcDbBlockTableRecord
  2
cw-line-extremity4
340
0
 70
     0
280
     1
281
     0
  0
BLOCK_RECORD
  5
1F7
330
1
100
AcDbSymbolTableRecord
100
AcDbBlockTableRecord
  2
cw-line-extremity5
340
0
 70
     0
280
     1
281
     0
  0
BLOCK_RECORD
  5
1F9
330
1
100
AcDbSymbolTableRecord
100
AcDbBlockTableRecord
  2
cw-line-extremity6
340
0
 70
     0
280
     1
281
     0
  0
BLOCK_RECORD
  5
1FB
330
1
100
AcDbSymbolTableRecord
100
AcDbBlockTableRecord
  2
cw-line-extremity9
340
0
 70
     0
280
     1
281
     0
  0
BLOCK_RECORD
  5
1FD
330
1
100
AcDbSymbolTableRecord
100
AcDbBlockTableRecord
  2
cw-line-extremity10
340
0
 70
     0
280
     1
281
     0
  0
BLOCK_RECORD
  5
1FF
330
1
100
AcDbSymbolTableRecord
100
AcDbBlockTableRecord
  2
cw-line-extremity1
340
0
 70
     0
280
     1
281
     0
  0
BLOCK_RECORD
  5
1B
330
1
100
AcDbSymbolTableRecord
100
AcDbBlockTableRecord
  2
*Paper_Space69
340
1E
 70
     0
280
     1
281
     0
  0
BLOCK_RECORD
  5
3E7
330
1
100
AcDbSymbolTableRecord
100
AcDbBlockTableRecord
  2
DIM320
340
0
102
{BLKREFS
331
3F8
102
}
 70
     0
280
     1
281
     1
  0
BLOCK_RECORD
  5
3FB
330
1
100
AcDbSymbolTableRecord
100
AcDbBlockTableRecord
  2
DIM321
340
0
102
{BLKREFS
331
40C
102
}
 70
     0
280
     1
281
     1
  0
BLOCK_RECORD
  5
40E
330
1
100
AcDbSymbolTableRecord
100
AcDbBlockTableRecord
  2
DIM322
340
0
102
{BLKREFS
331
41F
102
}
 70
     0
280
     1
281
     1
  0
BLOCK_RECORD
  5
421
330
1
100
AcDbSymbolTableRecord
100
AcDbBlockTableRecord
  2
DIM323
340
0
102
{BLKREFS
331
432
102
}
 70
     0
280
     1
281
     1
  0
ENDTAB
  0
ENDSEC
  0
SECTION
  2
BLOCKS
  0
BLOCK
  5
20
330
1F
100
AcDbEntity
  8
0
100
AcDbBlockBegin
  2
*Model_Space
 70
     0
 10
0.0
 20
0.0
 30
0.0
  3
*Model_Space
  1

  0
ENDBLK
  5
21
330
1F
100
AcDbEntity
  8
0
100
AcDbBlockEnd
  0
BLOCK
  5
219
330
217
100
AcDbEntity
 67
     1
  8
0
100
AcDbBlockBegin
  2
*Paper_Space
 70
     0
 10
0.0
 20
0.0
 30
0.0
  3
*Paper_Space
  1

  0
ENDBLK
  5
21A
330
217
100
AcDbEntity
 67
     1
  8
0
100
AcDbBlockEnd
  0
BLOCK
  5
75
330
70
100
AcDbEntity
  8
0
100
AcDbBlockBegin
  2
CDWK_PTTYP1
 70
     0
 10
0.0
 20
0.0
 30
0.0
  3
CDWK_PTTYP1
  1

  0
LINE
  5
71
330
70
100
AcDbEntity
  8
0
  6
Continuous
 62
     0
370
    -2
390
5F
100
AcDbLine
 10
-0.5
 20
0.5
 30
0.0
 11
0.5
 21
0.5
 31
0.0
  0
LINE
  5
72
330
70
100
AcDbEntity
  8
0
  6
Continuous
 62
     0
370
    -2
390
5F
100
AcDbLine
 10
0.5
 20
0.5
 30
0.0
 11
0.5
 21
-0.5
 31
0.0
  0
LINE
  5
73
330
70
100
AcDbEntity
  8
0
  6
Continuous
 62
     0
370
    -2
390
5F
100
AcDbLine
 10
0.5
 20
-0.5
 30
0.0
 11
-0.5
 21
-0.5
 31
0.0
  0
LINE
  5
74
330
70
100
AcDbEntity
  8
0
  6
Continuous
 62
     0
370
    -2
390
5F
100
AcDbLine
 10
-0.5
 20
-0.5
 30
0.0
 11
-0.5
 21
0.5
 31
0.0
  0
ENDBLK
  5
76
330
70
100
AcDbEntity
  8
0
100
AcDbBlockEnd
  0
BLOCK
  5
7A
330
77
100
AcDbEntity
  8
0
100
AcDbBlockBegin
  2
CDWK_PTTYP2
 70
     0
 10
0.0
 20
0.0
 30
0.0
  3
CDWK_PTTYP2
  1

  0
LINE
  5
78
330
77
100
AcDbEntity
  8
0
  6
Continuous
 62
     0
370
    -2
390
5F
100
AcDbLine
 10
0.0
 20
0.5
 30
0.0
 11
0.0
 21
-0.5
 31
0.0
  0
LINE
  5
79
330
77
100
AcDbEntity
  8
0
  6
Continuous
 62
     0
370
    -2
390
5F
100
AcDbLine
 10
0.5
 20
0.0
 30
0.0
 11
-0.5
 21
0.0
 31
0.0
  0
ENDBLK
  5
7B
330
77
100
AcDbEntity
  8
0
100
AcDbBlockEnd
  0
BLOCK
  5
7E
330
7C
100
AcDbEntity
  8
0
100
AcDbBlockBegin
  2
CDWK_PTTYP4
 70
     0
 10
0.0
 20
0.0
 30
0.0
  3
CDWK_PTTYP4
  1

  0
HATCH
  5
7D
330
7C
100
AcDbEntity
  8
0
  6
Continuous
 62
     0
370
    -2
390
5F
100
AcDbHatch
 10
0.0
 20
0.0
 30
0.0
210
0.0
220
0.0
230
1.0
  2
SOLID
 70
     1
 71
     0
 91
        1
 92
        1
 93
        1
 72
     2
 10
0.0
 20
0.0
 40
0.5
 50
0.0
 51
360.0
 73
     1
 97
        0
 75
     0
 76
     1
 98
        0
  0
ENDBLK
  5
7F
330
7C
100
AcDbEntity
  8
0
100
AcDbBlockEnd
  0
BLOCK
  5
87
330
80
100
AcDbEntity
  8
0
100
AcDbBlockBegin
  2
CDWK_PTTYP5
 70
     0
 10
0.0
 20
0.0
 30
0.0
  3
CDWK_PTTYP5
  1

  0
LINE
  5
81
330
80
100
AcDbEntity
  8
0
  6
Continuous
 62
     0
370
    -2
390
5F
100
AcDbLine
 10
-0.5
 20
0.5
 30
0.0
 11
0.5
 21
0.5
 31
0.0
  0
LINE
  5
82
330
80
100
AcDbEntity
  8
0
  6
Continuous
 62
     0
370
    -2
390
5F
100
AcDbLine
 10
0.5
 20
0.5
 30
0.0
 11
0.5
 21
-0.5
 31
0.0
  0
LINE
  5
83
330
80
100
AcDbEntity
  8
0
  6
Continuous
 62
     0
370
    -2
390
5F
100
AcDbLine
 10
0.5
 20
-0.5
 30
0.0
 11
-0.5
 21
-0.5
 31
0.0
  0
LINE
  5
84
330
80
100
AcDbEntity
  8
0
  6
Continuous
 62
     0
370
    -2
390
5F
100
AcDbLine
 10
-0.5
 20
-0.5
 30
0.0
 11
-0.5
 21
0.5
 31
0.0
  0
HATCH
  5
85
330
80
100
AcDbEntity
  8
0
  6
Continuous
 62
     0
370
    -2
390
5F
100
AcDbHatch
 10
0.0
 20
0.0
 30
0.0
210
0.0
220
0.0
230
1.0
  2
SOLID
 70
     1
 71
     0
 91
        1
 92
        3
 72
     0
 73
     1
 93
        4
 10
-0.5
 20
0.0
 10
0.0
 20
0.0
 10
0.0
 20
-0.5
 10
-0.5
 20
-0.5
 97
        0
 75
     0
 76
     1
 98
        0
  0
HATCH
  5
86
330
80
100
AcDbEntity
  8
0
  6
Continuous
 62
     0
370
    -2
390
5F
100
AcDbHatch
 10
0.0
 20
0.0
 30
0.0
210
0.0
220
0.0
230
1.0
  2
SOLID
 70
     1
 71
     0
 91
        1
 92
        3
 72
     0
 73
     1
 93
        4
 10
0.0
 20
0.0
 10
0.5
 20
0.0
 10
0.5
 20
0.5
 10
0.0
 20
0.5
 97
        0
 75
     0
 76
     1
 98
        0
  0
ENDBLK
  5
88
330
80
100
AcDbEntity
  8
0
100
AcDbBlockEnd
  0
BLOCK
  5
8F
330
89
100
AcDbEntity
  8
0
100
AcDbBlockBegin
  2
CDWK_PTTYP6
 70
     0
 10
0.0
 20
0.0
 30
0.0
  3
CDWK_PTTYP6
  1

  0
LINE
  5
8A
330
89
100
AcDbEntity
  8
0
  6
Continuous
 62
     0
370
    -2
390
5F
100
AcDbLine
 10
-0.5
 20
0.5
 30
0.0
 11
0.5
 21
0.5
 31
0.0
  0
LINE
  5
8B
330
89
100
AcDbEntity
  8
0
  6
Continuous
 62
     0
370
    -2
390
5F
100
AcDbLine
 10
0.5
 20
0.5
 30
0.0
 11
0.5
 21
-0.5
 31
0.0
  0
LINE
  5
8C
330
89
100
AcDbEntity
  8
0
  6
Continuous
 62
     0
370
    -2
390
5F
100
AcDbLine
 10
0.5
 20
-0.5
 30
0.0
 11
-0.5
 21
-0.5
 31
0.0
  0
LINE
  5
8D
330
89
100
AcDbEntity
  8
0
  6
Continuous
 62
     0
370
    -2
390
5F
100
AcDbLine
 10
-0.5
 20
-0.5
 30
0.0
 11
-0.5
 21
0.5
 31
0.0
  0
HATCH
  5
8E
330
89
100
AcDbEntity
  8
0
  6
Continuous
 62
     0
370
    -2
390
5F
100
AcDbHatch
 10
0.0
 20
0.0
 30
0.0
210
0.0
220
0.0
230
1.0
  2
SOLID
 70
     1
 71
     0
 91
        1
 92
        3
 72
     0
 73
     1
 93
        3
 10
-0.5
 20
-0.5
 10
-0.5
 20
0.5
 10
0.5
 20
0.5
 97
        0
 75
     0
 76
     1
 98
        0
  0
ENDBLK
  5
90
330
89
100
AcDbEntity
  8
0
100
AcDbBlockEnd
  0
BLOCK
  5
98
330
91
100
AcDbEntity
  8
0
100
AcDbBlockBegin
  2
CDWK_PTTYP7
 70
     0
 10
0.0
 20
0.0
 30
0.0
  3
CDWK_PTTYP7
  1

  0
LINE
  5
92
330
91
100
AcDbEntity
  8
0
  6
Continuous
 62
     0
370
    -2
390
5F
100
AcDbLine
 10
-0.5
 20
0.5
 30
0.0
 11
0.5
 21
0.5
 31
0.0
  0
LINE
  5
93
330
91
100
AcDbEntity
  8
0
  6
Continuous
 62
     0
370
    -2
390
5F
100
AcDbLine
 10
0.5
 20
0.5
 30
0.0
 11
0.5
 21
-0.5
 31
0.0
  0
LINE
  5
94
330
91
100
AcDbEntity
  8
0
  6
Continuous
 62
     0
370
    -2
390
5F
100
AcDbLine
 10
0.5
 20
-0.5
 30
0.0
 11
-0.5
 21
-0.5
 31
0.0
  0
LINE
  5
95
330
91
100
AcDbEntity
  8
0
  6
Continuous
 62
     0
370
    -2
390
5F
100
AcDbLine
 10
-0.5
 20
-0.5
 30
0.0
 11
-0.5
 21
0.5
 31
0.0
  0
LINE
  5
96
330
91
100
AcDbEntity
  8
0
  6
Continuous
 62
     0
370
    -2
390
5F
100
AcDbLine
 10
0.0
 20
0.5
 30
0.0
 11
0.0
 21
-0.5
 31
0.0
  0
LINE
  5
97
330
91
100
AcDbEntity
  8
0
  6
Continuous
 62
     0
370
    -2
390
5F
100
AcDbLine
 10
0.5
 20
0.0
 30
0.0
 11
-0.5
 21
0.0
 31
0.0
  0
ENDBLK
  5
99
330
91
100
AcDbEntity
  8
0
100
AcDbBlockEnd
  0
BLOCK
  5
9C
330
9A
100
AcDbEntity
  8
0
100
AcDbBlockBegin
  2
CDWK_PTTYP8
 70
     0
 10
0.0
 20
0.0
 30
0.0
  3
CDWK_PTTYP8
  1

  0
HATCH
  5
9B
330
9A
100
AcDbEntity
  8
0
  6
Continuous
 62
     0
370
    -2
390
5F
100
AcDbHatch
 10
0.0
 20
0.0
 30
0.0
210
0.0
220
0.0
230
1.0
  2
SOLID
 70
     1
 71
     0
 91
        1
 92
        3
 72
     0
 73
     1
 93
        4
 10
0.5
 20
0.5
 10
0.5
 20
-0.5
 10
-0.5
 20
-0.5
 10
-0.5
 20
0.5
 97
        0
 75
     0
 76
     1
 98
        0
  0
ENDBLK
  5
9D
330
9A
100
AcDbEntity
  8
0
100
AcDbBlockEnd
  0
BLOCK
  5
A1
330
9E
100
AcDbEntity
  8
0
100
AcDbBlockBegin
  2
CDWK_PTTYP9
 70
     0
 10
0.0
 20
0.0
 30
0.0
  3
CDWK_PTTYP9
  1

  0
CIRCLE
  5
9F
330
9E
100
AcDbEntity
  8
0
  6
Continuous
 62
     0
370
    -2
390
5F
100
AcDbCircle
 10
0.0
 20
0.0
 30
0.0
 40
0.1666666666666667
  0
CIRCLE
  5
A0
330
9E
100
AcDbEntity
  8
0
  6
Continuous
 62
     0
370
    -2
390
5F
100
AcDbCircle
 10
0.0
 20
0.0
 30
0.0
 40
0.5
  0
ENDBLK
  5
A2
330
9E
100
AcDbEntity
  8
0
100
AcDbBlockEnd
  0
BLOCK
  5
A5
330
A3
100
AcDbEntity
  8
0
100
AcDbBlockBegin
  2
CDWK_PTTYP10
 70
     0
 10
0.0
 20
0.0
 30
0.0
  3
CDWK_PTTYP10
  1

  0
CIRCLE
  5
A4
330
A3
100
AcDbEntity
  8
0
  6
Continuous
 62
     0
370
    -2
390
5F
100
AcDbCircle
 10
0.0
 20
0.0
 30
0.0
 40
0.5
  0
ENDBLK
  5
A6
330
A3
100
AcDbEntity
  8
0
100
AcDbBlockEnd
  0
BLOCK
  5
AA
330
A7
100
AcDbEntity
  8
0
100
AcDbBlockBegin
  2
CDWK_PTTYP11
 70
     0
 10
0.0
 20
0.0
 30
0.0
  3
CDWK_PTTYP11
  1

  0
CIRCLE
  5
A8
330
A7
100
AcDbEntity
  8
0
  6
Continuous
 62
     0
370
    -2
390
5F
100
AcDbCircle
 10
0.0
 20
0.0
 30
0.0
 40
0.25
  0
CIRCLE
  5
A9
330
A7
100
AcDbEntity
  8
0
  6
Continuous
 62
     0
370
    -2
390
5F
100
AcDbCircle
 10
0.0
 20
0.0
 30
0.0
 40
0.5
  0
ENDBLK
  5
AB
330
A7
100
AcDbEntity
  8
0
100
AcDbBlockEnd
  0
BLOCK
  5
AF
330
AC
100
AcDbEntity
  8
0
100
AcDbBlockBegin
  2
CDWK_PTTYP12
 70
     0
 10
0.0
 20
0.0
 30
0.0
  3
CDWK_PTTYP12
  1

  0
CIRCLE
  5
AD
330
AC
100
AcDbEntity
  8
0
  6
Continuous
 62
     0
370
    -2
390
5F
100
AcDbCircle
 10
0.25
 20
0.0
 30
0.0
 40
0.25
  0
CIRCLE
  5
AE
330
AC
100
AcDbEntity
  8
0
  6
Continuous
 62
     0
370
    -2
390
5F
100
AcDbCircle
 10
0.0
 20
0.0
 30
0.0
 40
0.5
  0
ENDBLK
  5
B0
330
AC
100
AcDbEntity
  8
0
100
AcDbBlockEnd
  0
BLOCK
  5
B5
330
B1
100
AcDbEntity
  8
0
100
AcDbBlockBegin
  2
CDWK_PTTYP13
 70
     0
 10
0.0
 20
0.0
 30
0.0
  3
CDWK_PTTYP13
  1

  0
CIRCLE
  5
B2
330
B1
100
AcDbEntity
  8
0
  6
Continuous
 62
     0
370
    -2
390
5F
100
AcDbCircle
 10
-0.25
 20
0.0
 30
0.0
 40
0.25
  0
CIRCLE
  5
B3
330
B1
100
AcDbEntity
  8
0
  6
Continuous
 62
     0
370
    -2
390
5F
100
AcDbCircle
 10
0.25
 20
0.0
 30
0.0
 40
0.25
  0
CIRCLE
  5
B4
330
B1
100
AcDbEntity
  8
0
  6
Continuous
 62
     0
370
    -2
390
5F
100
AcDbCircle
 10
0.0
 20
0.0
 30
0.0
 40
0.5
  0
ENDBLK
  5
B6
330
B1
100
AcDbEntity
  8
0
100
AcDbBlockEnd
  0
BLOCK
  5
BC
330
B7
100
AcDbEntity
  8
0
100
AcDbBlockBegin
  2
CDWK_PTTYP16
 70
     0
 10
0.0
 20
0.0
 30
0.0
  3
CDWK_PTTYP16
  1

  0
LINE
  5
B8
330
B7
100
AcDbEntity
  8
0
  6
Continuous
 62
     0
370
    -2
390
5F
100
AcDbLine
 10
-0.5
 20
-0.289
 30
0.0
 11
0.5
 21
-0.289
 31
0.0
  0
LINE
  5
B9
330
B7
100
AcDbEntity
  8
0
  6
Continuous
 62
     0
370
    -2
390
5F
100
AcDbLine
 10
0.5
 20
-0.289
 30
0.0
 11
0.0
 21
0.577
 31
0.0
  0
LINE
  5
BA
330
B7
100
AcDbEntity
  8
0
  6
Continuous
 62
     0
370
    -2
390
5F
100
AcDbLine
 10
0.0
 20
0.577
 30
0.0
 11
-0.5
 21
-0.289
 31
0.0
  0
CIRCLE
  5
BB
330
B7
100
AcDbEntity
  8
0
  6
Continuous
 62
     0
370
    -2
390
5F
100
AcDbCircle
 10
0.0
 20
0.0
 30
0.0
 40
0.289
  0
ENDBLK
  5
BD
330
B7
100
AcDbEntity
  8
0
100
AcDbBlockEnd
  0
BLOCK
  5
C1
330
BE
100
AcDbEntity
  8
0
100
AcDbBlockBegin
  2
CDWK_PTTYP17
 70
     0
 10
0.0
 20
0.0
 30
0.0
  3
CDWK_PTTYP17
  1

  0
CIRCLE
  5
BF
330
BE
100
AcDbEntity
  8
0
  6
Continuous
 62
     0
370
    -2
390
5F
100
AcDbCircle
 10
0.0
 20
0.0
 30
0.0
 40
0.5
  0
HATCH
  5
C0
330
BE
100
AcDbEntity
  8
0
  6
Continuous
 62
     0
370
    -2
390
5F
100
AcDbHatch
 10
0.0
 20
0.0
 30
0.0
210
0.0
220
0.0
230
1.0
  2
SOLID
 70
     1
 71
     0
 91
        1
 92
        1
 93
        1
 72
     2
 10
0.0
 20
0.0
 40
0.25
 50
0.0
 51
360.0
 73
     1
 97
        0
 75
     0
 76
     1
 98
        0
  0
ENDBLK
  5
C2
330
BE
100
AcDbEntity
  8
0
100
AcDbBlockEnd
  0
BLOCK
  5
C6
330
C3
100
AcDbEntity
  8
0
100
AcDbBlockBegin
  2
CDWK_PTTYP18
 70
     0
 10
0.0
 20
0.0
 30
0.0
  3
CDWK_PTTYP18
  1

  0
CIRCLE
  5
C4
330
C3
100
AcDbEntity
  8
0
  6
Continuous
 62
     0
370
    -2
390
5F
100
AcDbCircle
 10
0.0
 20
0.0
 30
0.0
 40
0.5
  0
CIRCLE
  5
C5
330
C3
100
AcDbEntity
  8
0
  6
Continuous
 62
     0
370
    -2
390
5F
100
AcDbCircle
 10
0.0
 20
0.0
 30
0.0
 40
0.208
  0
ENDBLK
  5
C7
330
C3
100
AcDbEntity
  8
0
100
AcDbBlockEnd
  0
BLOCK
  5
CC
330
C8
100
AcDbEntity
  8
0
100
AcDbBlockBegin
  2
CDWK_PTTYP19
 70
     0
 10
0.0
 20
0.0
 30
0.0
  3
CDWK_PTTYP19
  1

  0
CIRCLE
  5
C9
330
C8
100
AcDbEntity
  8
0
  6
Continuous
 62
     0
370
    -2
390
5F
100
AcDbCircle
 10
0.0
 20
0.0
 30
0.0
 40
0.25
  0
CIRCLE
  5
CA
330
C8
100
AcDbEntity
  8
0
  6
Continuous
 62
     0
370
    -2
390
5F
100
AcDbCircle
 10
0.0
 20
0.0
 30
0.0
 40
0.35
  0
LINE
  5
CB
330
C8
100
AcDbEntity
  8
0
  6
Continuous
 62
     0
370
    -2
390
5F
100
AcDbLine
 10
-0.25
 20
0.0
 30
0.0
 11
0.25
 21
0.0
 31
0.0
  0
ENDBLK
  5
CD
330
C8
100
AcDbEntity
  8
0
100
AcDbBlockEnd
  0
BLOCK
  5
D1
330
CE
100
AcDbEntity
  8
0
100
AcDbBlockBegin
  2
CDWK_PTTYP20
 70
     0
 10
0.0
 20
0.0
 30
0.0
  3
CDWK_PTTYP20
  1

  0
CIRCLE
  5
CF
330
CE
100
AcDbEntity
  8
0
  6
Continuous
 62
     0
370
    -2
390
5F
100
AcDbCircle
 10
0.0
 20
0.0
 30
0.0
 40
0.3333333333333333
  0
CIRCLE
  5
D0
330
CE
100
AcDbEntity
  8
0
  6
Continuous
 62
     0
370
    -2
390
5F
100
AcDbCircle
 10
0.0
 20
0.0
 30
0.0
 40
0.5
  0
ENDBLK
  5
D2
330
CE
100
AcDbEntity
  8
0
100
AcDbBlockEnd
  0
BLOCK
  5
D6
330
D3
100
AcDbEntity
  8
0
100
AcDbBlockBegin
  2
CDWK_PTTYP21
 70
     0
 10
0.0
 20
0.0
 30
0.0
  3
CDWK_PTTYP21
  1

  0
CIRCLE
  5
D4
330
D3
100
AcDbEntity
  8
0
  6
Continuous
 62
     0
370
    -2
390
5F
100
AcDbCircle
 10
0.0
 20
0.0
 30
0.0
 40
0.5
  0
LINE
  5
D5
330
D3
100
AcDbEntity
  8
0
  6
Continuous
 62
     0
370
    -2
390
5F
100
AcDbLine
 10
-0.5
 20
0.0
 30
0.0
 11
0.5
 21
0.0
 31
0.0
  0
ENDBLK
  5
D7
330
D3
100
AcDbEntity
  8
0
100
AcDbBlockEnd
  0
BLOCK
  5
DD
330
D8
100
AcDbEntity
  8
0
100
AcDbBlockBegin
  2
CDWK_PTTYP25
 70
     0
 10
0.0
 20
0.0
 30
0.0
  3
CDWK_PTTYP25
  1

  0
LINE
  5
D9
330
D8
100
AcDbEntity
  8
0
  6
Continuous
 62
     0
370
    -2
390
5F
100
AcDbLine
 10
0.0
 20
0.5
 30
0.0
 11
-0.4330127018922193
 21
-0.25
 31
0.0
  0
LINE
  5
DA
330
D8
100
AcDbEntity
  8
0
  6
Continuous
 62
     0
370
    -2
390
5F
100
AcDbLine
 10
-0.4330127018922193
 20
-0.25
 30
0.0
 11
0.4330127018922193
 21
-0.25
 31
0.0
  0
LINE
  5
DB
330
D8
100
AcDbEntity
  8
0
  6
Continuous
 62
     0
370
    -2
390
5F
100
AcDbLine
 10
0.4330127018922193
 20
-0.25
 30
0.0
 11
0.0
 21
0.5
 31
0.0
  0
CIRCLE
  5
DC
330
D8
100
AcDbEntity
  8
0
  6
Continuous
 62
     0
370
    -2
390
5F
100
AcDbCircle
 10
0.0
 20
0.0
 30
0.0
 40
0.5
  0
ENDBLK
  5
DE
330
D8
100
AcDbEntity
  8
0
100
AcDbBlockEnd
  0
BLOCK
  5
E4
330
DF
100
AcDbEntity
  8
0
100
AcDbBlockBegin
  2
CDWK_PTTYP26
 70
     0
 10
0.0
 20
0.0
 30
0.0
  3
CDWK_PTTYP26
  1

  0
LINE
  5
E0
330
DF
100
AcDbEntity
  8
0
  6
Continuous
 62
     0
370
    -2
390
5F
100
AcDbLine
 10
-0.5
 20
-0.289
 30
0.0
 11
0.5
 21
-0.289
 31
0.0
  0
LINE
  5
E1
330
DF
100
AcDbEntity
  8
0
  6
Continuous
 62
     0
370
    -2
390
5F
100
AcDbLine
 10
0.5
 20
-0.289
 30
0.0
 11
0.0
 21
0.577
 31
0.0
  0
LINE
  5
E2
330
DF
100
AcDbEntity
  8
0
  6
Continuous
 62
     0
370
    -2
390
5F
100
AcDbLine
 10
0.0
 20
0.577
 30
0.0
 11
-0.5
 21
-0.289
 31
0.0
  0
CIRCLE
  5
E3
330
DF
100
AcDbEntity
  8
0
  6
Continuous
 62
     0
370
    -2
390
5F
100
AcDbCircle
 10
0.0
 20
0.0
 30
0.0
 40
0.125
  0
ENDBLK
  5
E5
330
DF
100
AcDbEntity
  8
0
100
AcDbBlockEnd
  0
BLOCK
  5
EC
330
E6
100
AcDbEntity
  8
0
100
AcDbBlockBegin
  2
CDWK_PTTYP27
 70
     0
 10
0.0
 20
0.0
 30
0.0
  3
CDWK_PTTYP27
  1

  0
LINE
  5
E7
330
E6
100
AcDbEntity
  8
0
  6
Continuous
 62
     0
370
    -2
390
5F
100
AcDbLine
 10
0.0
 20
0.5
 30
0.0
 11
-0.4330127018922193
 21
-0.25
 31
0.0
  0
LINE
  5
E8
330
E6
100
AcDbEntity
  8
0
  6
Continuous
 62
     0
370
    -2
390
5F
100
AcDbLine
 10
-0.4330127018922193
 20
-0.25
 30
0.0
 11
0.4330127018922193
 21
-0.25
 31
0.0
  0
LINE
  5
E9
330
E6
100
AcDbEntity
  8
0
  6
Continuous
 62
     0
370
    -2
390
5F
100
AcDbLine
 10
0.4330127018922193
 20
-0.25
 30
0.0
 11
0.0
 21
0.5
 31
0.0
  0
CIRCLE
  5
EA
330
E6
100
AcDbEntity
  8
0
  6
Continuous
 62
     0
370
    -2
390
5F
100
AcDbCircle
 10
0.0
 20
0.0
 30
0.0
 40
0.125
  0
CIRCLE
  5
EB
330
E6
100
AcDbEntity
  8
0
  6
Continuous
 62
     0
370
    -2
390
5F
100
AcDbCircle
 10
0.0
 20
0.0
 30
0.0
 40
0.5
  0
ENDBLK
  5
ED
330
E6
100
AcDbEntity
  8
0
100
AcDbBlockEnd
  0
BLOCK
  5
F3
330
EE
100
AcDbEntity
  8
0
100
AcDbBlockBegin
  2
CDWK_PTTYP28
 70
     0
 10
0.0
 20
0.0
 30
0.0
  3
CDWK_PTTYP28
  1

  0
LINE
  5
EF
330
EE
100
AcDbEntity
  8
0
  6
Continuous
 62
     0
370
    -2
390
5F
100
AcDbLine
 10
-0.5
 20
0.5
 30
0.0
 11
0.5
 21
0.5
 31
0.0
  0
LINE
  5
F0
330
EE
100
AcDbEntity
  8
0
  6
Continuous
 62
     0
370
    -2
390
5F
100
AcDbLine
 10
0.5
 20
0.5
 30
0.0
 11
-0.5
 21
-0.5
 31
0.0
  0
LINE
  5
F1
330
EE
100
AcDbEntity
  8
0
  6
Continuous
 62
     0
370
    -2
390
5F
100
AcDbLine
 10
0.5
 20
-0.5
 30
0.0
 11
-0.5
 21
-0.5
 31
0.0
  0
LINE
  5
F2
330
EE
100
AcDbEntity
  8
0
  6
Continuous
 62
     0
370
    -2
390
5F
100
AcDbLine
 10
-0.5
 20
0.5
 30
0.0
 11
0.5
 21
-0.5
 31
0.0
  0
ENDBLK
  5
F4
330
EE
100
AcDbEntity
  8
0
100
AcDbBlockEnd
  0
BLOCK
  5
F9
330
F5
100
AcDbEntity
  8
0
100
AcDbBlockBegin
  2
CDWK_PTTYP29
 70
     0
 10
0.0
 20
0.0
 30
0.0
  3
CDWK_PTTYP29
  1

  0
CIRCLE
  5
F6
330
F5
100
AcDbEntity
  8
0
  6
Continuous
 62
     0
370
    -2
390
5F
100
AcDbCircle
 10
0.0
 20
0.0
 30
0.0
 40
0.2
  0
CIRCLE
  5
F7
330
F5
100
AcDbEntity
  8
0
  6
Continuous
 62
     0
370
    -2
390
5F
100
AcDbCircle
 10
0.0
 20
0.0
 30
0.0
 40
0.35
  0
CIRCLE
  5
F8
330
F5
100
AcDbEntity
  8
0
  6
Continuous
 62
     0
370
    -2
390
5F
100
AcDbCircle
 10
0.0
 20
0.0
 30
0.0
 40
0.5
  0
ENDBLK
  5
FA
330
F5
100
AcDbEntity
  8
0
100
AcDbBlockEnd
  0
BLOCK
  5
100
330
FB
100
AcDbEntity
  8
0
100
AcDbBlockBegin
  2
CDWK_PTTYP30
 70
     0
 10
0.0
 20
0.0
 30
0.0
  3
CDWK_PTTYP30
  1

  0
LINE
  5
FC
330
FB
100
AcDbEntity
  8
0
  6
Continuous
 62
     0
370
    -2
390
5F
100
AcDbLine
 10
-0.5
 20
0.5
 30
0.0
 11
-0.1
 21
0.1
 31
0.0
  0
LINE
  5
FD
330
FB
100
AcDbEntity
  8
0
  6
Continuous
 62
     0
370
    -2
390
5F
100
AcDbLine
 10
0.5
 20
0.5
 30
0.0
 11
0.1
 21
0.1
 31
0.0
  0
LINE
  5
FE
330
FB
100
AcDbEntity
  8
0
  6
Continuous
 62
     0
370
    -2
390
5F
100
AcDbLine
 10
0.5
 20
-0.5
 30
0.0
 11
0.1
 21
-0.1
 31
0.0
  0
LINE
  5
FF
330
FB
100
AcDbEntity
  8
0
  6
Continuous
 62
     0
370
    -2
390
5F
100
AcDbLine
 10
-0.5
 20
-0.5
 30
0.0
 11
-0.1
 21
-0.1
 31
0.0
  0
ENDBLK
  5
101
330
FB
100
AcDbEntity
  8
0
100
AcDbBlockEnd
  0
BLOCK
  5
108
330
102
100
AcDbEntity
  8
0
100
AcDbBlockBegin
  2
CDWK_PTTYP31
 70
     0
 10
0.0
 20
0.0
 30
0.0
  3
CDWK_PTTYP31
  1

  0
LINE
  5
103
330
102
100
AcDbEntity
  8
0
  6
Continuous
 62
     0
370
    -2
390
5F
100
AcDbLine
 10
-0.5
 20
0.0
 30
0.0
 11
-0.1
 21
0.0
 31
0.0
  0
LINE
  5
104
330
102
100
AcDbEntity
  8
0
  6
Continuous
 62
     0
370
    -2
390
5F
100
AcDbLine
 10
0.1
 20
0.0
 30
0.0
 11
0.5
 21
0.0
 31
0.0
  0
LINE
  5
105
330
102
100
AcDbEntity
  8
0
  6
Continuous
 62
     0
370
    -2
390
5F
100
AcDbLine
 10
0.0
 20
0.5
 30
0.0
 11
0.0
 21
0.1
 31
0.0
  0
LINE
  5
106
330
102
100
AcDbEntity
  8
0
  6
Continuous
 62
     0
370
    -2
390
5F
100
AcDbLine
 10
0.0
 20
-0.1
 30
0.0
 11
0.0
 21
-0.5
 31
0.0
  0
CIRCLE
  5
107
330
102
100
AcDbEntity
  8
0
  6
Continuous
 62
     0
370
    -2
390
5F
100
AcDbCircle
 10
0.0
 20
0.0
 30
0.0
 40
0.1
  0
ENDBLK
  5
109
330
102
100
AcDbEntity
  8
0
100
AcDbBlockEnd
  0
BLOCK
  5
111
330
10A
100
AcDbEntity
  8
0
100
AcDbBlockBegin
  2
CDWK_PTTYP32
 70
     0
 10
0.0
 20
0.0
 30
0.0
  3
CDWK_PTTYP32
  1

  0
CIRCLE
  5
10B
330
10A
100
AcDbEntity
  8
0
  6
Continuous
 62
     0
370
    -2
390
5F
100
AcDbCircle
 10
0.0
 20
0.0
 30
0.0
 40
0.2
  0
CIRCLE
  5
10C
330
10A
100
AcDbEntity
  8
0
  6
Continuous
 62
     0
370
    -2
390
5F
100
AcDbCircle
 10
0.0
 20
0.0
 30
0.0
 40
0.5
  0
LINE
  5
10D
330
10A
100
AcDbEntity
  8
0
  6
Continuous
 62
     0
370
    -2
390
5F
100
AcDbLine
 10
0.1414213562373095
 20
0.1414213562373095
 30
0.0
 11
0.3535533905932738
 21
0.3535533905932738
 31
0.0
  0
LINE
  5
10E
330
10A
100
AcDbEntity
  8
0
  6
Continuous
 62
     0
370
    -2
390
5F
100
AcDbLine
 10
-0.1414213562373095
 20
0.1414213562373095
 30
0.0
 11
-0.3535533905932738
 21
0.3535533905932738
 31
0.0
  0
LINE
  5
10F
330
10A
100
AcDbEntity
  8
0
  6
Continuous
 62
     0
370
    -2
390
5F
100
AcDbLine
 10
0.1414213562373095
 20
-0.1414213562373095
 30
0.0
 11
0.3535533905932738
 21
-0.3535533905932738
 31
0.0
  0
LINE
  5
110
330
10A
100
AcDbEntity
  8
0
  6
Continuous
 62
     0
370
    -2
390
5F
100
AcDbLine
 10
-0.1414213562373095
 20
-0.1414213562373095
 30
0.0
 11
-0.3535533905932738
 21
-0.3535533905932738
 31
0.0
  0
ENDBLK
  5
112
330
10A
100
AcDbEntity
  8
0
100
AcDbBlockEnd
  0
BLOCK
  5
117
330
113
100
AcDbEntity
  8
0
100
AcDbBlockBegin
  2
CDWK_PTTYP33
 70
     0
 10
0.0
 20
0.0
 30
0.0
  3
CDWK_PTTYP33
  1

  0
LINE
  5
114
330
113
100
AcDbEntity
  8
0
  6
Continuous
 62
     0
370
    -2
390
5F
100
AcDbLine
 10
0.0
 20
-0.5
 30
0.0
 11
0.0
 21
0.5
 31
0.0
  0
LINE
  5
115
330
113
100
AcDbEntity
  8
0
  6
Continuous
 62
     0
370
    -2
390
5F
100
AcDbLine
 10
0.5
 20
0.0
 30
0.0
 11
-0.5
 21
0.0
 31
0.0
  0
CIRCLE
  5
116
330
113
100
AcDbEntity
  8
0
  6
Continuous
 62
     0
370
    -2
390
5F
100
AcDbCircle
 10
0.0
 20
0.0
 30
0.0
 40
0.5
  0
ENDBLK
  5
118
330
113
100
AcDbEntity
  8
0
100
AcDbBlockEnd
  0
BLOCK
  5
11D
330
119
100
AcDbEntity
  8
0
100
AcDbBlockBegin
  2
CDWK_PTTYP34
 70
     0
 10
0.0
 20
0.0
 30
0.0
  3
CDWK_PTTYP34
  1

  0
CIRCLE
  5
11A
330
119
100
AcDbEntity
  8
0
  6
Continuous
 62
     0
370
    -2
390
5F
100
AcDbCircle
 10
0.0
 20
0.0
 30
0.0
 40
0.5
  0
LINE
  5
11B
330
119
100
AcDbEntity
  8
0
  6
Continuous
 62
     0
370
    -2
390
5F
100
AcDbLine
 10
-0.4
 20
-0.3
 30
0.0
 11
0.3
 21
0.4
 31
0.0
  0
LINE
  5
11C
330
119
100
AcDbEntity
  8
0
  6
Continuous
 62
     0
370
    -2
390
5F
100
AcDbLine
 10
-0.3
 20
-0.4
 30
0.0
 11
0.4
 21
0.3
 31
0.0
  0
ENDBLK
  5
11E
330
119
100
AcDbEntity
  8
0
100
AcDbBlockEnd
  0
BLOCK
  5
123
330
11F
100
AcDbEntity
  8
0
100
AcDbBlockBegin
  2
CDWK_PTTYP35
 70
     0
 10
0.0
 20
0.0
 30
0.0
  3
CDWK_PTTYP35
  1

  0
LINE
  5
120
330
11F
100
AcDbEntity
  8
0
  6
Continuous
 62
     0
370
    -2
390
5F
100
AcDbLine
 10
0.0
 20
0.2
 30
0.0
 11
0.0
 21
0.5
 31
0.0
  0
LINE
  5
121
330
11F
100
AcDbEntity
  8
0
  6
Continuous
 62
     0
370
    -2
390
5F
100
AcDbLine
 10
0.0
 20
-0.2
 30
0.0
 11
0.0
 21
-0.5
 31
0.0
  0
CIRCLE
  5
122
330
11F
100
AcDbEntity
  8
0
  6
Continuous
 62
     0
370
    -2
390
5F
100
AcDbCircle
 10
0.0
 20
0.0
 30
0.0
 40
0.2
  0
ENDBLK
  5
124
330
11F
100
AcDbEntity
  8
0
100
AcDbBlockEnd
  0
BLOCK
  5
12B
330
125
100
AcDbEntity
  8
0
100
AcDbBlockBegin
  2
CDWK_PTTYP36
 70
     0
 10
0.0
 20
0.0
 30
0.0
  3
CDWK_PTTYP36
  1

  0
LINE
  5
126
330
125
100
AcDbEntity
  8
0
  6
Continuous
 62
     0
370
    -2
390
5F
100
AcDbLine
 10
-0.5
 20
0.2
 30
0.0
 11
0.5
 21
0.2
 31
0.0
  0
LINE
  5
127
330
125
100
AcDbEntity
  8
0
  6
Continuous
 62
     0
370
    -2
390
5F
100
AcDbLine
 10
0.5
 20
0.2
 30
0.0
 11
0.5
 21
-0.2
 31
0.0
  0
LINE
  5
128
330
125
100
AcDbEntity
  8
0
  6
Continuous
 62
     0
370
    -2
390
5F
100
AcDbLine
 10
0.5
 20
-0.2
 30
0.0
 11
-0.5
 21
-0.2
 31
0.0
  0
LINE
  5
129
330
125
100
AcDbEntity
  8
0
  6
Continuous
 62
     0
370
    -2
390
5F
100
AcDbLine
 10
-0.5
 20
-0.2
 30
0.0
 11
-0.5
 21
0.2
 31
0.0
  0
HATCH
  5
12A
330
125
100
AcDbEntity
  8
0
  6
Continuous
 62
     0
370
    -2
390
5F
100
AcDbHatch
 10
0.0
 20
0.0
 30
0.0
210
0.0
220
0.0
230
1.0
  2
SOLID
 70
     1
 71
     0
 91
        1
 92
        3
 72
     0
 73
     1
 93
        3
 10
-0.5
 20
-0.2
 10
0.5
 20
-0.2
 10
0.5
 20
0.2
 97
        0
 75
     0
 76
     1
 98
        0
  0
ENDBLK
  5
12C
330
125
100
AcDbEntity
  8
0
100
AcDbBlockEnd
  0
BLOCK
  5
130
330
12D
100
AcDbEntity
  8
0
100
AcDbBlockBegin
  2
CDWK_PTTYP37
 70
     0
 10
0.0
 20
0.0
 30
0.0
  3
CDWK_PTTYP37
  1

  0
HATCH
  5
12E
330
12D
100
AcDbEntity
  8
0
  6
Continuous
 62
     0
370
    -2
390
5F
100
AcDbHatch
 10
0.0
 20
0.0
 30
0.0
210
0.0
220
0.0
230
1.0
  2
SOLID
 70
     1
 71
     0
 91
        1
 92
        3
 72
     0
 73
     1
 93
      202
 10
-0.3535533905932738
 20
-0.3535533905932738
 10
-0.3485533905932738
 20
-0.3535533905932737
 10
-0.3435533905932738
 20
-0.3584836591895546
 10
-0.3385533905932738
 20
-0.3632782236961988
 10
-0.3335533905932738
 20
-0.367942389128785
 10
-0.3285533905932738
 20
-0.372481054046687
 10
-0.3235533905932738
 20
-0.3768987523588579
 10
-0.3185533905932738
 20
-0.3811996897107819
 10
-0.3135533905932738
 20
-0.3853877752881235
 10
-0.3085533905932737
 20
-0.3894666497242888
 10
-0.3035533905932737
 20
-0.3934397096803965
 10
-0.2985533905932737
 20
-0.3973101295704999
 10
-0.2935533905932737
 20
-0.4010808808273714
 10
-0.2885533905932737
 20
-0.4047547490409382
 10
-0.2835533905932737
 20
-0.4083343492496384
 10
-0.2785533905932737
 20
-0.4118221396222626
 10
-0.2735533905932737
 20
-0.4152204337324827
 10
-0.2685533905932737
 20
-0.4185314115988474
 10
-0.2635533905932737
 20
-0.4217571296384408
 10
-0.2585533905932737
 20
-0.4248995296617653
 10
-0.2535533905932737
 20
-0.4279604470190231
 10
-0.2485533905932737
 20
-0.4309416179932669
 10
-0.2435533905932737
 20
-0.4338446865234004
 10
-0.2385533905932737
 20
-0.4366712103293738
 10
-0.2335533905932737
 20
-0.439422666502825
 10
-0.2285533905932737
 20
-0.4421004566186126
 10
-0.2235533905932737
 20
-0.4447059114159811
 10
-0.2185533905932737
 20
-0.4472402950923041
 10
-0.2135533905932737
 20
-0.4497048092473372
 10
-0.2085533905932737
 20
-0.4521005965115692
 10
-0.2035533905932737
 20
-0.4544287438884664
 10
-0.1985533905932736
 20
-0.456690285837111
 10
-0.1935533905932736
 20
-0.45888620711884
 10
-0.1885533905932736
 20
-0.4610174454289638
 10
-0.1835533905932736
 20
-0.4630848938324164
 10
-0.1785533905932736
 20
-0.4650894030202291
 10
-0.1735533905932736
 20
-0.4670317834019928
 10
-0.1685533905932736
 20
-0.46891280704794
 10
-0.1635533905932736
 20
-0.4707332094929264
 10
-0.1585533905932736
 20
-0.4724936914133818
 10
-0.1535533905932736
 20
-0.4741949201872336
 10
-0.1485533905932736
 20
-0.4758375313458466
 10
-0.1435533905932736
 20
-0.4774221299261716
 10
-0.1385533905932736
 20
-0.4789492917305286
 10
-0.1335533905932736
 20
-0.4804195645007682
 10
-0.1285533905932736
 20
-0.4818334690129366
 10
-0.1235533905932736
 20
-0.4831915000980183
 10
-0.1185533905932736
 20
-0.4844941275938295
 10
-0.1135533905932736
 20
-0.4857417972326848
 10
-0.1085533905932736
 20
-0.4869349314690531
 10
-0.1035533905932736
 20
-0.4880739302510473
 10
-0.0985533905932736
 20
-0.489159171739258
 10
-0.0935533905932736
 20
-0.4901910129761353
 10
-0.0885533905932736
 20
-0.4911697905088447
 10
-0.0835533905932735
 20
-0.4920958209682695
 10
-0.0785533905932735
 20
-0.4929694016065986
 10
-0.0735533905932735
 20
-0.4937908107957261
 10
-0.0685533905932735
 20
-0.494560308488493
 10
-0.0635533905932735
 20
-0.4952781366446192
 10
-0.0585533905932735
 20
-0.4959445196230107
 10
-0.0535533905932735
 20
-0.4965596645419678
 10
-0.0485533905932735
 20
-0.4971237616086806
 10
-0.0435533905932735
 20
-0.4976369844192622
 10
-0.0385533905932735
 20
-0.4980994902304456
 10
-0.0335533905932735
 20
-0.4985114202039533
 10
-0.0285533905932735
 20
-0.4988728996244386
 10
-0.0235533905932735
 20
-0.4991840380917923
 10
-0.0185533905932735
 20
-0.49944492968851
 10
-0.0135533905932735
 20
-0.4996556531227215
 10
-0.0085533905932735
 20
-0.4998162718473921
 10
-0.0035533905932735
 20
-0.4999268341561182
 10
0.0014466094067265
 20
-0.499987373255857
 10
0.0064466094067265
 20
-0.4999979073168451
 10
0.0114466094067265
 20
-0.4999584394998819
 10
0.0164466094067265
 20
-0.4998689579610739
 10
0.0214466094067265
 20
-0.4997294358340547
 10
0.0264466094067265
 20
-0.4995398311896213
 10
0.0314466094067265
 20
-0.4993000869726422
 10
0.0364466094067265
 20
-0.4990101309160174
 10
0.0414466094067265
 20
-0.4986698754313855
 10
0.0464466094067265
 20
-0.498279217476192
 10
0.0514466094067265
 20
-0.4978380383966446
 10
0.0564466094067265
 20
-0.497346203745994
 10
0.0614466094067265
 20
-0.4968035630774849
 10
0.0664466094067264
 20
-0.4962099497112257
 10
0.0714466094067265
 20
-0.4955651804741228
 10
0.0764466094067265
 20
-0.4948690554119167
 10
0.0814466094067265
 20
-0.4941213574722463
 10
0.0864466094067265
 20
-0.4933218521575424
 10
0.0914466094067265
 20
-0.4924702871464235
 10
0.0964466094067265
 20
-0.4915663918821278
 10
0.1014466094067265
 20
-0.4906098771263643
 10
0.1064466094067265
 20
-0.4896004344768079
 10
0.1114466094067265
 20
-0.4885377358462822
 10
0.1164466094067265
 20
-0.4874214329014929
 10
0.1214466094067265
 20
-0.4862511564589613
 10
0.1264466094067265
 20
-0.4850265158355881
 10
0.1314466094067265
 20
-0.4837470981510305
 10
0.1364466094067265
 20
-0.482412467578809
 10
0.1414466094067265
 20
-0.4810221645427664
 10
0.1464466094067265
 20
-0.4795757048551781
 10
0.1514466094067265
 20
-0.4780725787924608
 10
0.1564466094067265
 20
-0.4765122501040308
 10
0.1614466094067265
 20
-0.4748941549494363
 10
0.1664466094067265
 20
-0.4732177007584056
 10
0.1714466094067265
 20
-0.4714822650079264
 10
0.1764466094067265
 20
-0.4696871939098801
 10
0.1814466094067266
 20
-0.4678318010021017
 10
0.1864466094067266
 20
-0.4659153656350076
 10
0.1914466094067266
 20
-0.4639371313451162
 10
0.1964466094067266
 20
-0.4618963041058764
 10
0.2014466094067266
 20
-0.4597920504451997
 10
0.2064466094067266
 20
-0.4576234954179405
 10
0.2114466094067266
 20
-0.4553897204202862
 10
0.2164466094067266
 20
-0.4530897608315588
 10
0.2214466094067266
 20
-0.45072260346729
 10
0.2264466094067266
 20
-0.4482871838255748
 10
0.2314466094067266
 20
-0.4457823831065977
 10
0.2364466094067266
 20
-0.4432070249828292
 10
0.2414466094067266
 20
-0.4405598720946596
 10
0.2464466094067266
 20
-0.4378396222431172
 10
0.2514466094067266
 20
-0.4350449042477435
 10
0.2564466094067266
 20
-0.4321742734336012
 10
0.2614466094067266
 20
-0.4292262067066663
 10
0.2664466094067266
 20
-0.4261990971714118
 10
0.2714466094067266
 20
-0.4230912482380831
 10
0.2764466094067266
 20
-0.4199008671598476
 10
0.2814466094067266
 20
-0.4166260579314797
 10
0.2864466094067266
 20
-0.4132648134712868
 10
0.2914466094067266
 20
-0.4098150069963156
 10
0.2964466094067266
 20
-0.4062743824871597
 10
0.3014466094067266
 20
-0.4026405441224911
 10
0.3064466094067266
 20
-0.3989109445442534
 10
0.3114466094067266
 20
-0.3950828717916294
 10
0.3164466094067266
 20
-0.391153434714632
 10
0.3214466094067266
 20
-0.3871195466454601
 10
0.3264466094067267
 20
-0.3829779070663467
 10
0.3314466094067267
 20
-0.3787249809648844
 10
0.3364466094067267
 20
-0.3743569755097196
 10
0.3414466094067267
 20
-0.3698698136084067
 10
0.3464466094067267
 20
-0.3652591038217257
 10
0.3514466094067267
 20
-0.3605201060004601
 10
0.3564466094067267
 20
-0.3556476918757041
 10
0.3614466094067267
 20
-0.3506362996645505
 10
0.3664466094067267
 20
-0.34547988153926
 10
0.3714466094067267
 20
-0.3401718425359658
 10
0.3764466094067267
 20
-0.334704969129899
 10
0.3814466094067267
 20
-0.3290713452523318
 10
0.3864466094067267
 20
-0.3232622529342269
 10
0.3914466094067267
 20
-0.3172680539828188
 10
0.3964466094067267
 20
-0.3110780480586465
 10
0.4014466094067267
 20
-0.304680301118911
 10
0.4064466094067267
 20
-0.2980614362775617
 10
0.4114466094067267
 20
-0.291206376478565
 10
0.4164466094067267
 20
-0.2840980246459106
 10
0.4214466094067267
 20
-0.276716861635935
 10
0.4264466094067267
 20
-0.2690404345439063
 10
0.4314466094067267
 20
-0.2610426963649944
 10
0.4364466094067267
 20
-0.2526931404518915
 10
0.4414466094067268
 20
-0.2439556458403291
 10
0.4464466094067268
 20
-0.2347869056044327
 10
0.4514466094067268
 20
-0.2251342376211081
 10
0.4564466094067268
 20
-0.2149324518428296
 10
0.4614466094067268
 20
-0.2040992228331676
 10
0.4664466094067268
 20
-0.1925279893081412
 10
0.4714466094067268
 20
-0.1800765408735088
 10
0.4764466094067268
 20
-0.1665475742210051
 10
0.4814466094067268
 20
-0.1516529867323223
 10
0.4864466094067268
 20
-0.1349413290684758
 10
0.4914466094067268
 20
-0.1156274024472547
 10
0.4964466094067268
 20
-0.0920881648347501
 10
0.5
 20
0.0
 10
0.495
 20
0.0
 10
0.49
 20
0.0705336798983295
 10
0.485
 20
0.0994987437106621
 10
0.48
 20
0.1215524578114322
 10
0.475
 20
0.14
 10
0.47
 20
0.15612494995996
 10
0.465
 20
0.1705872210923199
 10
0.46
 20
0.1837797594948911
 10
0.455
 20
0.1959591794226544
 10
0.45
 20
0.2073041244162789
 10
0.445
 20
0.2179449471770338
 10
0.4399999999999999
 20
0.2279802623035601
 10
0.4349999999999999
 20
0.2374868417407584
 10
0.4299999999999999
 20
0.2465258607124211
 10
0.4249999999999999
 20
0.2551470164434615
 10
0.4199999999999999
 20
0.2633913438213186
 10
0.4149999999999999
 20
0.2712931993250108
 10
0.4099999999999999
 20
0.2788816953476869
 10
0.4049999999999999
 20
0.2861817604250838
 10
0.3999999999999999
 20
0.2932149382279151
 10
0.3949999999999999
 20
0.3000000000000002
 10
0.3899999999999999
 20
0.3065534211193868
 10
0.3849999999999999
 20
0.3128897569432404
 10
0.3799999999999999
 20
0.3190219428189855
 10
0.3749999999999999
 20
0.3249615361854385
 10
0.3699999999999999
 20
0.330718913883074
 10
0.3649999999999999
 20
0.3363034344160049
 10
0.3599999999999999
 20
0.3417235724968357
 10
0.3549999999999999
 20
0.3469870314579496
 10
0.3535533905932738
 20
0.3535533905932738
 97
        0
 75
     0
 76
     1
 98
        0
  0
CIRCLE
  5
12F
330
12D
100
AcDbEntity
  8
0
  6
Continuous
 62
     0
370
    -2
390
5F
100
AcDbCircle
 10
0.0
 20
0.0
 30
0.0
 40
0.5
  0
ENDBLK
  5
131
330
12D
100
AcDbEntity
  8
0
100
AcDbBlockEnd
  0
BLOCK
  5
136
330
132
100
AcDbEntity
  8
0
100
AcDbBlockBegin
  2
CDWK_PTTYP38
 70
     0
 10
0.0
 20
0.0
 30
0.0
  3
CDWK_PTTYP38
  1

  0
HATCH
  5
133
330
132
100
AcDbEntity
  8
0
  6
Continuous
 62
     0
370
    -2
390
5F
100
AcDbHatch
 10
0.0
 20
0.0
 30
0.0
210
0.0
220
0.0
230
1.0
  2
SOLID
 70
     1
 71
     0
 91
        1
 92
        3
 72
     0
 73
     1
 93
      102
 10
0.0
 20
0.0
 10
0.0
 20
0.5
 10
0.005
 20
0.5
 10
0.01
 20
0.4999749993749688
 10
0.015
 20
0.4998999899979995
 10
0.02
 20
0.4997749493522059
 10
0.025
 20
0.4995998398718718
 10
0.03
 20
0.4993746088859545
 10
0.035
 20
0.4990991885387112
 10
0.04
 20
0.4987734956871706
 10
0.045
 20
0.4983974317750845
 10
0.05
 20
0.4979708826829135
 10
0.055
 20
0.49749371855331
 10
0.06
 20
0.4969657935914704
 10
0.065
 20
0.4963869458396343
 10
0.07
 20
0.4957569969249047
 10
0.075
 20
0.4950757517794626
 10
0.08
 20
0.4943429983321297
 10
0.085
 20
0.4935585071701227
 10
0.09
 20
0.4927220311697053
 10
0.095
 20
0.4918333050943175
 10
0.1
 20
0.4908920451586071
 10
0.105
 20
0.4898979485566356
 10
0.11
 20
0.4888506929523574
 10
0.115
 20
0.4877499359302879
 10
0.12
 20
0.4865953144040744
 10
0.125
 20
0.4853864439804639
 10
0.13
 20
0.4841229182759271
 10
0.135
 20
0.4828043081829325
 10
0.14
 20
0.4814301610825811
 10
0.145
 20
0.48
 10
0.15
 20
0.478513322698543
 10
0.1550000000000001
 20
0.4769696007084728
 10
0.1600000000000001
 20
0.4753682782853731
 10
0.1650000000000001
 20
0.4737087712930804
 10
0.1700000000000001
 20
0.4719904660054056
 10
0.1750000000000001
 20
0.4702127178203498
 10
0.1800000000000001
 20
0.4683748498798799
 10
0.1850000000000001
 20
0.466476151587624
 10
0.1900000000000001
 20
0.4645158770160606
 10
0.1950000000000001
 20
0.4624932431938871
 10
0.2000000000000001
 20
0.460407428263272
 10
0.2050000000000001
 20
0.4582575694955839
 10
0.2100000000000001
 20
0.4560427611529427
 10
0.2150000000000001
 20
0.4537620521815371
 10
0.2200000000000001
 20
0.4514144437210665
 10
0.2250000000000001
 20
0.4489988864128729
 10
0.2300000000000001
 20
0.4465142774872937
 10
0.2350000000000001
 20
0.4439594576084622
 10
0.2400000000000001
 20
0.4413332074521472
 10
0.2450000000000001
 20
0.4386342439892261
 10
0.2500000000000001
 20
0.4358612164439502
 10
0.2550000000000001
 20
0.4330127018922192
 10
0.2600000000000001
 20
0.4300872004605577
 10
0.2650000000000001
 20
0.4270831300812524
 10
0.2700000000000001
 20
0.423998820753077
 10
0.2750000000000001
 20
0.4208325082500162
 10
0.2800000000000001
 20
0.4175823272122516
 10
0.2850000000000001
 20
0.4142463035441595
 10
0.2900000000000001
 20
0.4108223460329293
 10
0.2950000000000002
 20
0.4073082370883259
 10
0.3000000000000002
 20
0.403701622488689
 10
0.3050000000000002
 20
0.3999999999999999
 10
0.3100000000000002
 20
0.3962007067131506
 10
0.3150000000000002
 20
0.3923009049186605
 10
0.3200000000000002
 20
0.3882975663070783
 10
0.3250000000000002
 20
0.3841874542459708
 10
0.3300000000000002
 20
0.3799671038392664
 10
0.3350000000000002
 20
0.3756327994198588
 10
0.3400000000000002
 20
0.3711805490593491
 10
0.3450000000000002
 20
0.366606055596467
 10
0.3500000000000002
 20
0.3619046835839512
 10
0.3550000000000002
 20
0.3570714214271423
 10
0.3600000000000002
 20
0.3521008378291649
 10
0.3650000000000002
 20
0.3469870314579492
 10
0.3700000000000002
 20
0.3417235724968353
 10
0.3750000000000002
 20
0.3363034344160045
 10
0.3800000000000002
 20
0.3307189138830736
 10
0.3850000000000002
 20
0.3249615361854382
 10
0.3900000000000002
 20
0.3190219428189851
 10
0.3950000000000002
 20
0.31288975694324
 10
0.4000000000000002
 20
0.3065534211193863
 10
0.4050000000000002
 20
0.2999999999999997
 10
0.4100000000000003
 20
0.2932149382279147
 10
0.4150000000000003
 20
0.2861817604250834
 10
0.4200000000000003
 20
0.2788816953476864
 10
0.4250000000000003
 20
0.2712931993250103
 10
0.4300000000000003
 20
0.263391343821318
 10
0.4350000000000003
 20
0.255147016443461
 10
0.4400000000000003
 20
0.2465258607124206
 10
0.4450000000000003
 20
0.2374868417407578
 10
0.4500000000000003
 20
0.2279802623035594
 10
0.4550000000000003
 20
0.2179449471770331
 10
0.4600000000000003
 20
0.2073041244162782
 10
0.4650000000000003
 20
0.1959591794226536
 10
0.4700000000000003
 20
0.1837797594948903
 10
0.4750000000000003
 20
0.170587221092319
 10
0.4800000000000003
 20
0.156124949959959
 10
0.4850000000000003
 20
0.1399999999999989
 10
0.4900000000000003
 20
0.1215524578114309
 10
0.4950000000000003
 20
0.0994987437106604
 10
0.5
 20
0.0
 97
        0
 75
     0
 76
     1
 98
        0
  0
HATCH
  5
134
330
132
100
AcDbEntity
  8
0
  6
Continuous
 62
     0
370
    -2
390
5F
100
AcDbHatch
 10
0.0
 20
0.0
 30
0.0
210
0.0
220
0.0
230
1.0
  2
SOLID
 70
     1
 71
     0
 91
        1
 92
        3
 72
     0
 73
     1
 93
      102
 10
0.0
 20
0.0
 10
-0.5
 20
0.0
 10
-0.495
 20
0.0
 10
-0.49
 20
-0.0705336798983295
 10
-0.485
 20
-0.0994987437106621
 10
-0.48
 20
-0.1215524578114322
 10
-0.475
 20
-0.14
 10
-0.47
 20
-0.15612494995996
 10
-0.465
 20
-0.1705872210923199
 10
-0.46
 20
-0.1837797594948911
 10
-0.455
 20
-0.1959591794226544
 10
-0.45
 20
-0.2073041244162789
 10
-0.445
 20
-0.2179449471770338
 10
-0.4399999999999999
 20
-0.2279802623035601
 10
-0.4349999999999999
 20
-0.2374868417407584
 10
-0.4299999999999999
 20
-0.2465258607124211
 10
-0.4249999999999999
 20
-0.2551470164434615
 10
-0.4199999999999999
 20
-0.2633913438213186
 10
-0.4149999999999999
 20
-0.2712931993250108
 10
-0.4099999999999999
 20
-0.2788816953476869
 10
-0.4049999999999999
 20
-0.2861817604250838
 10
-0.3999999999999999
 20
-0.2932149382279151
 10
-0.3949999999999999
 20
-0.3000000000000002
 10
-0.3899999999999999
 20
-0.3065534211193868
 10
-0.3849999999999999
 20
-0.3128897569432404
 10
-0.3799999999999999
 20
-0.3190219428189855
 10
-0.3749999999999999
 20
-0.3249615361854385
 10
-0.3699999999999999
 20
-0.330718913883074
 10
-0.3649999999999999
 20
-0.3363034344160049
 10
-0.3599999999999999
 20
-0.3417235724968357
 10
-0.3549999999999999
 20
-0.3469870314579496
 10
-0.3499999999999999
 20
-0.3521008378291652
 10
-0.3449999999999999
 20
-0.3570714214271427
 10
-0.3399999999999999
 20
-0.3619046835839516
 10
-0.3349999999999999
 20
-0.3666060555964674
 10
-0.3299999999999998
 20
-0.3711805490593494
 10
-0.3249999999999998
 20
-0.3756327994198591
 10
-0.3199999999999998
 20
-0.3799671038392667
 10
-0.3149999999999998
 20
-0.3841874542459711
 10
-0.3099999999999998
 20
-0.3882975663070786
 10
-0.3049999999999998
 20
-0.3923009049186608
 10
-0.2999999999999998
 20
-0.3962007067131507
 10
-0.2949999999999998
 20
-0.4000000000000001
 10
-0.2899999999999998
 20
-0.4037016224886891
 10
-0.2849999999999998
 20
-0.4073082370883261
 10
-0.2799999999999998
 20
-0.4108223460329296
 10
-0.2749999999999998
 20
-0.4142463035441597
 10
-0.2699999999999998
 20
-0.4175823272122518
 10
-0.2649999999999998
 20
-0.4208325082500164
 10
-0.2599999999999998
 20
-0.4239988207530773
 10
-0.2549999999999998
 20
-0.4270831300812526
 10
-0.2499999999999998
 20
-0.4300872004605579
 10
-0.2449999999999998
 20
-0.4330127018922195
 10
-0.2399999999999998
 20
-0.4358612164439503
 10
-0.2349999999999998
 20
-0.4386342439892263
 10
-0.2299999999999998
 20
-0.4413332074521473
 10
-0.2249999999999998
 20
-0.4439594576084624
 10
-0.2199999999999998
 20
-0.4465142774872939
 10
-0.2149999999999997
 20
-0.4489988864128731
 10
-0.2099999999999997
 20
-0.4514144437210667
 10
-0.2049999999999997
 20
-0.4537620521815372
 10
-0.1999999999999997
 20
-0.4560427611529429
 10
-0.1949999999999997
 20
-0.4582575694955841
 10
-0.1899999999999997
 20
-0.4604074282632722
 10
-0.1849999999999997
 20
-0.4624932431938872
 10
-0.1799999999999997
 20
-0.4645158770160608
 10
-0.1749999999999997
 20
-0.4664761515876241
 10
-0.1699999999999997
 20
-0.46837484987988
 10
-0.1649999999999997
 20
-0.47021271782035
 10
-0.1599999999999997
 20
-0.4719904660054058
 10
-0.1549999999999997
 20
-0.4737087712930805
 10
-0.1499999999999997
 20
-0.4753682782853733
 10
-0.1449999999999997
 20
-0.4769696007084729
 10
-0.1399999999999997
 20
-0.4785133226985431
 10
-0.1349999999999997
 20
-0.4800000000000001
 10
-0.1299999999999997
 20
-0.4814301610825812
 10
-0.1249999999999997
 20
-0.4828043081829325
 10
-0.1199999999999997
 20
-0.4841229182759272
 10
-0.1149999999999997
 20
-0.485386443980464
 10
-0.1099999999999997
 20
-0.4865953144040744
 10
-0.1049999999999996
 20
-0.487749935930288
 10
-0.0999999999999996
 20
-0.4888506929523574
 10
-0.0949999999999996
 20
-0.4898979485566357
 10
-0.0899999999999996
 20
-0.4908920451586072
 10
-0.0849999999999996
 20
-0.4918333050943176
 10
-0.0799999999999996
 20
-0.4927220311697053
 10
-0.0749999999999996
 20
-0.4935585071701227
 10
-0.0699999999999996
 20
-0.4943429983321298
 10
-0.0649999999999996
 20
-0.4950757517794626
 10
-0.0599999999999996
 20
-0.4957569969249048
 10
-0.0549999999999996
 20
-0.4963869458396343
 10
-0.0499999999999996
 20
-0.4969657935914705
 10
-0.0449999999999996
 20
-0.49749371855331
 10
-0.0399999999999996
 20
-0.4979708826829135
 10
-0.0349999999999996
 20
-0.4983974317750846
 10
-0.0299999999999996
 20
-0.4987734956871706
 10
-0.0249999999999996
 20
-0.4990991885387112
 10
-0.0199999999999996
 20
-0.4993746088859545
 10
-0.0149999999999996
 20
-0.4995998398718719
 10
-0.0099999999999996
 20
-0.499774949352206
 10
-0.0049999999999996
 20
-0.4998999899979995
 10
0.0
 20
-0.5
 97
        0
 75
     0
 76
     1
 98
        0
  0
CIRCLE
  5
135
330
132
100
AcDbEntity
  8
0
  6
Continuous
 62
     0
370
    -2
390
5F
100
AcDbCircle
 10
0.0
 20
0.0
 30
0.0
 40
0.5
  0
ENDBLK
  5
137
330
132
100
AcDbEntity
  8
0
100
AcDbBlockEnd
  0
BLOCK
  5
140
330
138
100
AcDbEntity
  8
0
100
AcDbBlockBegin
  2
CDWK_PTTYP41
 70
     0
 10
0.0
 20
0.0
 30
0.0
  3
CDWK_PTTYP41
  1

  0
LINE
  5
139
330
138
100
AcDbEntity
  8
0
  6
Continuous
 62
     0
370
    -2
390
5F
100
AcDbLine
 10
-0.5
 20
0.5
 30
0.0
 11
0.5
 21
0.5
 31
0.0
  0
LINE
  5
13A
330
138
100
AcDbEntity
  8
0
  6
Continuous
 62
     0
370
    -2
390
5F
100
AcDbLine
 10
0.5
 20
0.5
 30
0.0
 11
0.5
 21
-0.5
 31
0.0
  0
LINE
  5
13B
330
138
100
AcDbEntity
  8
0
  6
Continuous
 62
     0
370
    -2
390
5F
100
AcDbLine
 10
0.5
 20
-0.5
 30
0.0
 11
-0.5
 21
-0.5
 31
0.0
  0
LINE
  5
13C
330
138
100
AcDbEntity
  8
0
  6
Continuous
 62
     0
370
    -2
390
5F
100
AcDbLine
 10
-0.5
 20
-0.5
 30
0.0
 11
-0.5
 21
0.5
 31
0.0
  0
LINE
  5
13D
330
138
100
AcDbEntity
  8
0
  6
Continuous
 62
     0
370
    -2
390
5F
100
AcDbLine
 10
-0.375
 20
0.25
 30
0.0
 11
0.375
 21
0.25
 31
0.0
  0
LINE
  5
13E
330
138
100
AcDbEntity
  8
0
  6
Continuous
 62
     0
370
    -2
390
5F
100
AcDbLine
 10
-0.375
 20
0.0
 30
0.0
 11
0.375
 21
0.0
 31
0.0
  0
LINE
  5
13F
330
138
100
AcDbEntity
  8
0
  6
Continuous
 62
     0
370
    -2
390
5F
100
AcDbLine
 10
-0.375
 20
-0.25
 30
0.0
 11
0.375
 21
-0.25
 31
0.0
  0
ENDBLK
  5
141
330
138
100
AcDbEntity
  8
0
100
AcDbBlockEnd
  0
BLOCK
  5
149
330
142
100
AcDbEntity
  8
0
100
AcDbBlockBegin
  2
CDWK_PTTYP42
 70
     0
 10
0.0
 20
0.0
 30
0.0
  3
CDWK_PTTYP42
  1

  0
LINE
  5
143
330
142
100
AcDbEntity
  8
0
  6
Continuous
 62
     0
370
    -2
390
5F
100
AcDbLine
 10
-0.5
 20
0.5
 30
0.0
 11
0.5
 21
0.5
 31
0.0
  0
LINE
  5
144
330
142
100
AcDbEntity
  8
0
  6
Continuous
 62
     0
370
    -2
390
5F
100
AcDbLine
 10
0.5
 20
0.5
 30
0.0
 11
0.5
 21
-0.5
 31
0.0
  0
LINE
  5
145
330
142
100
AcDbEntity
  8
0
  6
Continuous
 62
     0
370
    -2
390
5F
100
AcDbLine
 10
0.5
 20
-0.5
 30
0.0
 11
-0.5
 21
-0.5
 31
0.0
  0
LINE
  5
146
330
142
100
AcDbEntity
  8
0
  6
Continuous
 62
     0
370
    -2
390
5F
100
AcDbLine
 10
-0.5
 20
-0.5
 30
0.0
 11
-0.5
 21
0.5
 31
0.0
  0
LINE
  5
147
330
142
100
AcDbEntity
  8
0
  6
Continuous
 62
     0
370
    -2
390
5F
100
AcDbLine
 10
-0.375
 20
0.125
 30
0.0
 11
0.375
 21
0.125
 31
0.0
  0
LINE
  5
148
330
142
100
AcDbEntity
  8
0
  6
Continuous
 62
     0
370
    -2
390
5F
100
AcDbLine
 10
-0.375
 20
-0.125
 30
0.0
 11
0.375
 21
-0.125
 31
0.0
  0
ENDBLK
  5
14A
330
142
100
AcDbEntity
  8
0
100
AcDbBlockEnd
  0
BLOCK
  5
14F
330
14B
100
AcDbEntity
  8
0
100
AcDbBlockBegin
  2
CDWK_PTTYP43
 70
     0
 10
0.0
 20
0.0
 30
0.0
  3
CDWK_PTTYP43
  1

  0
CIRCLE
  5
14C
330
14B
100
AcDbEntity
  8
0
  6
Continuous
 62
     0
370
    -2
390
5F
100
AcDbCircle
 10
0.0
 20
0.0
 30
0.0
 40
0.5
  0
LINE
  5
14D
330
14B
100
AcDbEntity
  8
0
  6
Continuous
 62
     0
370
    -2
390
5F
100
AcDbLine
 10
-0.375
 20
0.166
 30
0.0
 11
0.375
 21
0.166
 31
0.0
  0
LINE
  5
14E
330
14B
100
AcDbEntity
  8
0
  6
Continuous
 62
     0
370
    -2
390
5F
100
AcDbLine
 10
-0.375
 20
-0.166
 30
0.0
 11
0.375
 21
-0.166
 31
0.0
  0
ENDBLK
  5
150
330
14B
100
AcDbEntity
  8
0
100
AcDbBlockEnd
  0
BLOCK
  5
158
330
151
100
AcDbEntity
  8
0
100
AcDbBlockBegin
  2
CDWK_PTTYP44
 70
     0
 10
0.0
 20
0.0
 30
0.0
  3
CDWK_PTTYP44
  1

  0
CIRCLE
  5
152
330
151
100
AcDbEntity
  8
0
  6
Continuous
 62
     0
370
    -2
390
5F
100
AcDbCircle
 10
0.0
 20
0.0
 30
0.0
 40
0.5
  0
LINE
  5
153
330
151
100
AcDbEntity
  8
0
  6
Continuous
 62
     0
370
    -2
390
5F
100
AcDbLine
 10
-0.375
 20
0.333
 30
0.0
 11
0.375
 21
0.333
 31
0.0
  0
LINE
  5
154
330
151
100
AcDbEntity
  8
0
  6
Continuous
 62
     0
370
    -2
390
5F
100
AcDbLine
 10
-0.375
 20
0.166
 30
0.0
 11
0.375
 21
0.166
 31
0.0
  0
LINE
  5
155
330
151
100
AcDbEntity
  8
0
  6
Continuous
 62
     0
370
    -2
390
5F
100
AcDbLine
 10
-0.375
 20
0.0
 30
0.0
 11
0.375
 21
0.0
 31
0.0
  0
LINE
  5
156
330
151
100
AcDbEntity
  8
0
  6
Continuous
 62
     0
370
    -2
390
5F
100
AcDbLine
 10
-0.375
 20
-0.166
 30
0.0
 11
0.375
 21
-0.166
 31
0.0
  0
LINE
  5
157
330
151
100
AcDbEntity
  8
0
  6
Continuous
 62
     0
370
    -2
390
5F
100
AcDbLine
 10
-0.375
 20
-0.333
 30
0.0
 11
0.375
 21
-0.333
 31
0.0
  0
ENDBLK
  5
159
330
151
100
AcDbEntity
  8
0
100
AcDbBlockEnd
  0
BLOCK
  5
15D
330
15A
100
AcDbEntity
  8
0
100
AcDbBlockBegin
  2
CDWK_PTTYP45
 70
     0
 10
0.0
 20
0.0
 30
0.0
  3
CDWK_PTTYP45
  1

  0
ELLIPSE
  5
15B
330
15A
100
AcDbEntity
  8
0
  6
Continuous
 62
     0
370
    -2
390
5F
100
AcDbEllipse
 10
0.0
 20
0.0
 30
0.0
 11
0.5
 21
0.0
 31
0.0
210
0.0
220
0.0
230
1.0
 40
0.82
 41
0.0
 42
6.283185307179586
  0
CIRCLE
  5
15C
330
15A
100
AcDbEntity
  8
0
  6
Continuous
 62
     0
370
    -2
390
5F
100
AcDbCircle
 10
-0.235
 20
0.0
 30
0.0
 40
0.26
  0
ENDBLK
  5
15E
330
15A
100
AcDbEntity
  8
0
100
AcDbBlockEnd
  0
BLOCK
  5
162
330
15F
100
AcDbEntity
  8
0
100
AcDbBlockBegin
  2
CDWK_PTTYP46
 70
     0
 10
0.0
 20
0.0
 30
0.0
  3
CDWK_PTTYP46
  1

  0
ELLIPSE
  5
160
330
15F
100
AcDbEntity
  8
0
  6
Continuous
 62
     0
370
    -2
390
5F
100
AcDbEllipse
 10
0.0
 20
0.0
 30
0.0
 11
0.5
 21
0.0
 31
0.0
210
0.0
220
0.0
230
1.0
 40
0.82
 41
0.0
 42
6.283185307179586
  0
CIRCLE
  5
161
330
15F
100
AcDbEntity
  8
0
  6
Continuous
 62
     0
370
    -2
390
5F
100
AcDbCircle
 10
0.0
 20
0.15
 30
0.0
 40
0.26
  0
ENDBLK
  5
163
330
15F
100
AcDbEntity
  8
0
100
AcDbBlockEnd
  0
BLOCK
  5
16A
330
164
100
AcDbEntity
  8
0
100
AcDbBlockBegin
  2
CDWK_PTTYP47
 70
     0
 10
0.0
 20
0.0
 30
0.0
  3
CDWK_PTTYP47
  1

  0
LINE
  5
165
330
164
100
AcDbEntity
  8
0
  6
Continuous
 62
     0
370
    -2
390
5F
100
AcDbLine
 10
-0.5
 20
0.166
 30
0.0
 11
0.5
 21
0.166
 31
0.0
  0
LINE
  5
166
330
164
100
AcDbEntity
  8
0
  6
Continuous
 62
     0
370
    -2
390
5F
100
AcDbLine
 10
0.5
 20
0.166
 30
0.0
 11
0.5
 21
-0.166
 31
0.0
  0
LINE
  5
167
330
164
100
AcDbEntity
  8
0
  6
Continuous
 62
     0
370
    -2
390
5F
100
AcDbLine
 10
0.5
 20
-0.166
 30
0.0
 11
-0.5
 21
-0.166
 31
0.0
  0
LINE
  5
168
330
164
100
AcDbEntity
  8
0
  6
Continuous
 62
     0
370
    -2
390
5F
100
AcDbLine
 10
-0.5
 20
-0.166
 30
0.0
 11
-0.5
 21
0.166
 31
0.0
  0
CIRCLE
  5
169
330
164
100
AcDbEntity
  8
0
  6
Continuous
 62
     0
370
    -2
390
5F
100
AcDbCircle
 10
0.0
 20
-0.313
 30
0.0
 40
0.4
  0
ENDBLK
  5
16B
330
164
100
AcDbEntity
  8
0
100
AcDbBlockEnd
  0
BLOCK
  5
170
330
16D
100
AcDbEntity
  8
0
100
AcDbBlockBegin
  2
CDWK_PTTYP48
 70
     0
 10
0.0
 20
0.0
 30
0.0
  3
CDWK_PTTYP48
  1

  0
CIRCLE
  5
16E
330
16D
100
AcDbEntity
  8
0
  6
CADWORK_3
 62
     0
 48
0.1
370
    -2
390
5F
100
AcDbCircle
 10
0.0
 20
0.0
 30
0.0
 40
0.5
  0
CIRCLE
  5
16F
330
16D
100
AcDbEntity
  8
0
  6
Continuous
 62
     0
370
    -2
390
5F
100
AcDbCircle
 10
0.0
 20
0.0
 30
0.0
 40
0.25
  0
ENDBLK
  5
171
330
16D
100
AcDbEntity
  8
0
100
AcDbBlockEnd
  0
BLOCK
  5
177
330
172
100
AcDbEntity
  8
0
100
AcDbBlockBegin
  2
CDWK_PTTYP49
 70
     0
 10
0.0
 20
0.0
 30
0.0
  3
CDWK_PTTYP49
  1

  0
LINE
  5
173
330
172
100
AcDbEntity
  8
0
  6
Continuous
 62
     0
370
    -2
390
5F
100
AcDbLine
 10
-0.5
 20
0.166
 30
0.0
 11
0.5
 21
0.166
 31
0.0
  0
LINE
  5
174
330
172
100
AcDbEntity
  8
0
  6
Continuous
 62
     0
370
    -2
390
5F
100
AcDbLine
 10
0.5
 20
0.166
 30
0.0
 11
0.5
 21
-0.166
 31
0.0
  0
LINE
  5
175
330
172
100
AcDbEntity
  8
0
  6
Continuous
 62
     0
370
    -2
390
5F
100
AcDbLine
 10
0.5
 20
-0.166
 30
0.0
 11
-0.5
 21
-0.166
 31
0.0
  0
LINE
  5
176
330
172
100
AcDbEntity
  8
0
  6
Continuous
 62
     0
370
    -2
390
5F
100
AcDbLine
 10
-0.5
 20
-0.166
 30
0.0
 11
-0.5
 21
0.166
 31
0.0
  0
ENDBLK
  5
178
330
172
100
AcDbEntity
  8
0
100
AcDbBlockEnd
  0
BLOCK
  5
181
330
179
100
AcDbEntity
  8
0
100
AcDbBlockBegin
  2
CDWK_PTTYP50
 70
     0
 10
0.0
 20
0.0
 30
0.0
  3
CDWK_PTTYP50
  1

  0
LINE
  5
17A
330
179
100
AcDbEntity
  8
0
  6
Continuous
 62
     0
370
    -2
390
5F
100
AcDbLine
 10
-0.5
 20
0.166
 30
0.0
 11
0.5
 21
0.166
 31
0.0
  0
LINE
  5
17B
330
179
100
AcDbEntity
  8
0
  6
Continuous
 62
     0
370
    -2
390
5F
100
AcDbLine
 10
0.5
 20
0.166
 30
0.0
 11
0.5
 21
-0.166
 31
0.0
  0
LINE
  5
17C
330
179
100
AcDbEntity
  8
0
  6
Continuous
 62
     0
370
    -2
390
5F
100
AcDbLine
 10
0.5
 20
-0.166
 30
0.0
 11
-0.5
 21
-0.166
 31
0.0
  0
LINE
  5
17D
330
179
100
AcDbEntity
  8
0
  6
Continuous
 62
     0
370
    -2
390
5F
100
AcDbLine
 10
-0.5
 20
-0.166
 30
0.0
 11
-0.5
 21
0.166
 31
0.0
  0
LINE
  5
17E
330
179
100
AcDbEntity
  8
0
  6
Continuous
 62
     0
370
    -2
390
5F
100
AcDbLine
 10
-0.25
 20
-0.166
 30
0.0
 11
-0.25
 21
0.166
 31
0.0
  0
LINE
  5
17F
330
179
100
AcDbEntity
  8
0
  6
Continuous
 62
     0
370
    -2
390
5F
100
AcDbLine
 10
0.0
 20
-0.166
 30
0.0
 11
0.0
 21
0.166
 31
0.0
  0
LINE
  5
180
330
179
100
AcDbEntity
  8
0
  6
Continuous
 62
     0
370
    -2
390
5F
100
AcDbLine
 10
0.25
 20
-0.166
 30
0.0
 11
0.25
 21
0.166
 31
0.0
  0
ENDBLK
  5
182
330
179
100
AcDbEntity
  8
0
100
AcDbBlockEnd
  0
BLOCK
  5
186
330
183
100
AcDbEntity
  8
0
100
AcDbBlockBegin
  2
CDWK_PTTYP51
 70
     0
 10
0.0
 20
0.0
 30
0.0
  3
CDWK_PTTYP51
  1

  0
SPLINE
  5
184
330
183
100
AcDbEntity
  8
0
  6
Continuous
 62
     0
370
    -2
390
5F
100
AcDbSpline
210
0.0
220
0.0
230
1.0
 70
  1064
 71
     3
 72
    12
 73
     8
 74
     6
 42
0.0000000001
 43
0.0000000001
 44
0.0000000001
 40
0.0
 40
0.0
 40
0.0
 40
0.0
 40
0.1690118339052032
 40
0.5175774661755118
 40
0.8011704844252565
 40
0.9154070810132151
 40
0.975822310881188
 40
0.975822310881188
 40
0.975822310881188
 40
0.975822310881188
 10
-0.5
 20
-0.077
 30
0.0
 10
-0.443824324006723
 20
-0.0900581618560981
 30
0.0
 10
-0.2717933876546281
 20
-0.1300471387828842
 30
0.0
 10
-0.0276699186086479
 20
-0.0006977790990417
 30
0.0
 10
0.2303349729129116
 20
0.0817803270207037
 30
0.0
 10
0.3686157174766292
 20
0.0066250198607167
 30
0.0
 10
0.4216533294581816
 20
-0.0168719667726145
 30
0.0
 10
0.44
 20
-0.025
 30
0.0
 11
-0.5
 21
-0.077
 31
0.0
 11
-0.333
 21
-0.103
 31
0.0
 11
0.0
 21
0.0
 31
0.0
 11
0.28
 21
0.045
 31
0.0
 11
0.385
 21
0.0
 31
0.0
 11
0.44
 21
-0.025
 31
0.0
  0
HATCH
  5
185
330
183
100
AcDbEntity
  8
0
  6
Continuous
 62
     0
370
    -2
390
5F
100
AcDbHatch
 10
0.0
 20
0.0
 30
0.0
210
0.0
220
0.0
230
1.0
  2
SOLID
 70
     1
 71
     0
 91
        1
 92
        3
 72
     0
 73
     1
 93
        3
 10
0.365
 20
-0.05
 10
0.5
 20
-0.042
 10
0.395
 20
0.045
 97
        0
 75
     0
 76
     1
 98
        0
  0
ENDBLK
  5
187
330
183
100
AcDbEntity
  8
0
100
AcDbBlockEnd
  0
BLOCK
  5
18C
330
188
100
AcDbEntity
  8
0
100
AcDbBlockBegin
  2
CDWK_PTTYP52
 70
     0
 10
0.0
 20
0.0
 30
0.0
  3
CDWK_PTTYP52
  1

  0
LINE
  5
189
330
188
100
AcDbEntity
  8
0
  6
Continuous
 62
     0
370
    -2
390
5F
100
AcDbLine
 10
-0.5
 20
-0.289
 30
0.0
 11
0.5
 21
-0.289
 31
0.0
  0
LINE
  5
18A
330
188
100
AcDbEntity
  8
0
  6
Continuous
 62
     0
370
    -2
390
5F
100
AcDbLine
 10
0.5
 20
-0.289
 30
0.0
 11
0.0
 21
0.577
 31
0.0
  0
LINE
  5
18B
330
188
100
AcDbEntity
  8
0
  6
Continuous
 62
     0
370
    -2
390
5F
100
AcDbLine
 10
0.0
 20
0.577
 30
0.0
 11
-0.5
 21
-0.289
 31
0.0
  0
ENDBLK
  5
18D
330
188
100
AcDbEntity
  8
0
100
AcDbBlockEnd
  0
BLOCK
  5
193
330
18E
100
AcDbEntity
  8
0
100
AcDbBlockBegin
  2
cw-dimension-symbol1
 70
     0
 10
0.0
 20
0.0
 30
0.0
  3
cw-dimension-symbol1
  1

  0
LINE
  5
18F
330
18E
100
AcDbEntity
  8
0
  6
Continuous
 62
     0
370
    -2
390
5F
100
AcDbLine
 10
0.0
 20
0.0
 30
0.0
 11
-1.0
 21
0.25
 31
0.0
  0
LINE
  5
190
330
18E
100
AcDbEntity
  8
0
  6
Continuous
 62
     0
370
    -2
390
5F
100
AcDbLine
 10
0.0
 20
0.0
 30
0.0
 11
-1.0
 21
-0.25
 31
0.0
  0
LINE
  5
191
330
18E
100
AcDbEntity
  8
0
  6
Continuous
 62
     0
370
    -2
390
5F
100
AcDbLine
 10
-1.0
 20
0.25
 30
0.0
 11
-1.0
 21
-0.25
 31
0.0
  0
LINE
  5
192
330
18E
100
AcDbEntity
  8
0
  6
Continuous
 62
     0
370
    -2
390
5F
100
AcDbLine
 10
0.0
 20
0.0
 30
0.0
 11
-1.0
 21
0.0
 31
0.0
  0
ENDBLK
  5
194
330
18E
100
AcDbEntity
  8
0
100
AcDbBlockEnd
  0
BLOCK
  5
198
330
195
100
AcDbEntity
  8
0
100
AcDbBlockBegin
  2
cw-dimension-symbol2
 70
     0
 10
0.0
 20
0.0
 30
0.0
  3
cw-dimension-symbol2
  1

  0
LINE
  5
196
330
195
100
AcDbEntity
  8
0
  6
Continuous
 62
     0
370
    -2
390
5F
100
AcDbLine
 10
-1.0
 20
0.0
 30
0.0
 11
1.0
 21
0.0
 31
0.0
  0
LINE
  5
197
330
195
100
AcDbEntity
  8
0
  6
Continuous
 62
     0
370
    -2
390
5F
100
AcDbLine
 10
-0.5
 20
-0.5
 30
0.0
 11
0.5
 21
0.5
 31
0.0
  0
ENDBLK
  5
199
330
195
100
AcDbEntity
  8
0
100
AcDbBlockEnd
  0
BLOCK
  5
19D
330
19A
100
AcDbEntity
  8
0
100
AcDbBlockBegin
  2
cw-dimension-symbol3
 70
     0
 10
0.0
 20
0.0
 30
0.0
  3
cw-dimension-symbol3
  1

  0
LINE
  5
19B
330
19A
100
AcDbEntity
  8
0
  6
Continuous
 62
     0
370
    -2
390
5F
100
AcDbLine
 10
-1.0
 20
0.0
 30
0.0
 11
1.0
 21
0.0
 31
0.0
  0
CIRCLE
  5
19C
330
19A
100
AcDbEntity
  8
0
  6
Continuous
 62
     0
370
    -2
390
5F
100
AcDbCircle
 10
0.0
 20
0.0
 30
0.0
 40
0.25
  0
ENDBLK
  5
19E
330
19A
100
AcDbEntity
  8
0
100
AcDbBlockEnd
  0
BLOCK
  5
1A4
330
19F
100
AcDbEntity
  8
0
100
AcDbBlockBegin
  2
cw-dimension-symbol5
 70
     0
 10
0.0
 20
0.0
 30
0.0
  3
cw-dimension-symbol5
  1

  0
HATCH
  5
1A0
330
19F
100
AcDbEntity
  8
0
  6
Continuous
 62
     0
370
    -2
390
5F
100
AcDbHatch
 10
0.0
 20
0.0
 30
0.0
210
0.0
220
0.0
230
1.0
  2
SOLID
 70
     1
 71
     0
 91
        1
 92
        3
 72
     0
 73
     1
 93
        3
 10
0.0
 20
0.0
 10
-1.0
 20
0.25
 10
-1.0
 20
-0.25
 97
        0
 75
     0
 76
     1
 98
        0
  0
LINE
  5
1A1
330
19F
100
AcDbEntity
  8
0
  6
Continuous
 62
     0
370
    -2
390
5F
100
AcDbLine
 10
0.0
 20
0.0
 30
0.0
 11
-1.0
 21
0.25
 31
0.0
  0
LINE
  5
1A2
330
19F
100
AcDbEntity
  8
0
  6
Continuous
 62
     0
370
    -2
390
5F
100
AcDbLine
 10
-1.0
 20
0.25
 30
0.0
 11
-1.0
 21
-0.25
 31
0.0
  0
LINE
  5
1A3
330
19F
100
AcDbEntity
  8
0
  6
Continuous
 62
     0
370
    -2
390
5F
100
AcDbLine
 10
-1.0
 20
-0.25
 30
0.0
 11
0.0
 21
0.0
 31
0.0
  0
ENDBLK
  5
1A5
330
19F
100
AcDbEntity
  8
0
100
AcDbBlockEnd
  0
BLOCK
  5
1AA
330
1A6
100
AcDbEntity
  8
0
100
AcDbBlockBegin
  2
cw-dimension-symbol6
 70
     0
 10
0.0
 20
0.0
 30
0.0
  3
cw-dimension-symbol6
  1

  0
LINE
  5
1A7
330
1A6
100
AcDbEntity
  8
0
  6
Continuous
 62
     0
370
    -2
390
5F
100
AcDbLine
 10
0.0
 20
0.0
 30
0.0
 11
-1.0
 21
0.25
 31
0.0
  0
LINE
  5
1A8
330
1A6
100
AcDbEntity
  8
0
  6
Continuous
 62
     0
370
    -2
390
5F
100
AcDbLine
 10
0.0
 20
0.0
 30
0.0
 11
-1.0
 21
-0.25
 31
0.0
  0
LINE
  5
1A9
330
1A6
100
AcDbEntity
  8
0
  6
Continuous
 62
     0
370
    -2
390
5F
100
AcDbLine
 10
0.0
 20
0.0
 30
0.0
 11
-1.0
 21
0.0
 31
0.0
  0
ENDBLK
  5
1AB
330
1A6
100
AcDbEntity
  8
0
100
AcDbBlockEnd
  0
BLOCK
  5
1B0
330
1AC
100
AcDbEntity
  8
0
100
AcDbBlockBegin
  2
cw-dimension-symbol11
 70
     0
 10
0.0
 20
0.0
 30
0.0
  3
cw-dimension-symbol11
  1

  0
LINE
  5
1AD
330
1AC
100
AcDbEntity
  8
0
  6
Continuous
 62
     0
370
    -2
390
5F
100
AcDbLine
 10
-1.0
 20
1.0
 30
0.0
 11
1.0
 21
1.0
 31
0.0
  0
LINE
  5
1AE
330
1AC
100
AcDbEntity
  8
0
  6
Continuous
 62
     0
370
    -2
390
5F
100
AcDbLine
 10
0.0
 20
0.0
 30
0.0
 11
-1.0
 21
1.0
 31
0.0
  0
LINE
  5
1AF
330
1AC
100
AcDbEntity
  8
0
  6
Continuous
 62
     0
370
    -2
390
5F
100
AcDbLine
 10
0.0
 20
0.0
 30
0.0
 11
1.0
 21
1.0
 31
0.0
  0
ENDBLK
  5
1B1
330
1AC
100
AcDbEntity
  8
0
100
AcDbBlockEnd
  0
BLOCK
  5
1B6
330
1B2
100
AcDbEntity
  8
0
100
AcDbBlockBegin
  2
cw-dimension-symbol13
 70
     0
 10
0.0
 20
0.0
 30
0.0
  3
cw-dimension-symbol13
  1

  0
LINE
  5
1B3
330
1B2
100
AcDbEntity
  8
0
  6
Continuous
 62
     0
370
    -2
390
5F
100
AcDbLine
 10
-1.0
 20
-1.0
 30
0.0
 11
1.0
 21
-1.0
 31
0.0
  0
LINE
  5
1B4
330
1B2
100
AcDbEntity
  8
0
  6
Continuous
 62
     0
370
    -2
390
5F
100
AcDbLine
 10
0.0
 20
0.0
 30
0.0
 11
-1.0
 21
-1.0
 31
0.0
  0
LINE
  5
1B5
330
1B2
100
AcDbEntity
  8
0
  6
Continuous
 62
     0
370
    -2
390
5F
100
AcDbLine
 10
0.0
 20
0.0
 30
0.0
 11
1.0
 21
-1.0
 31
0.0
  0
ENDBLK
  5
1B7
330
1B2
100
AcDbEntity
  8
0
100
AcDbBlockEnd
  0
BLOCK
  5
1BD
330
1B8
100
AcDbEntity
  8
0
100
AcDbBlockBegin
  2
cw-dimension-symbol15
 70
     0
 10
0.0
 20
0.0
 30
0.0
  3
cw-dimension-symbol15
  1

  0
HATCH
  5
1B9
330
1B8
100
AcDbEntity
  8
0
  6
Continuous
 62
     0
370
    -2
390
5F
100
AcDbHatch
 10
0.0
 20
0.0
 30
0.0
210
0.0
220
0.0
230
1.0
  2
SOLID
 70
     1
 71
     0
 91
        1
 92
        3
 72
     0
 73
     1
 93
        3
 10
0.0
 20
0.0
 10
-1.0
 20
1.0
 10
1.0
 20
1.0
 97
        0
 75
     0
 76
     1
 98
        0
  0
LINE
  5
1BA
330
1B8
100
AcDbEntity
  8
0
  6
Continuous
 62
     0
370
    -2
390
5F
100
AcDbLine
 10
0.0
 20
0.0
 30
0.0
 11
-1.0
 21
1.0
 31
0.0
  0
LINE
  5
1BB
330
1B8
100
AcDbEntity
  8
0
  6
Continuous
 62
     0
370
    -2
390
5F
100
AcDbLine
 10
-1.0
 20
1.0
 30
0.0
 11
1.0
 21
1.0
 31
0.0
  0
LINE
  5
1BC
330
1B8
100
AcDbEntity
  8
0
  6
Continuous
 62
     0
370
    -2
390
5F
100
AcDbLine
 10
1.0
 20
1.0
 30
0.0
 11
0.0
 21
0.0
 31
0.0
  0
ENDBLK
  5
1BE
330
1B8
100
AcDbEntity
  8
0
100
AcDbBlockEnd
  0
BLOCK
  5
1C4
330
1BF
100
AcDbEntity
  8
0
100
AcDbBlockBegin
  2
cw-dimension-symbol16
 70
     0
 10
0.0
 20
0.0
 30
0.0
  3
cw-dimension-symbol16
  1

  0
HATCH
  5
1C0
330
1BF
100
AcDbEntity
  8
0
  6
Continuous
 62
     0
370
    -2
390
5F
100
AcDbHatch
 10
0.0
 20
0.0
 30
0.0
210
0.0
220
0.0
230
1.0
  2
SOLID
 70
     1
 71
     0
 91
        1
 92
        3
 72
     0
 73
     1
 93
        3
 10
0.0
 20
0.0
 10
-1.0
 20
-1.0
 10
1.0
 20
-1.0
 97
        0
 75
     0
 76
     1
 98
        0
  0
LINE
  5
1C1
330
1BF
100
AcDbEntity
  8
0
  6
Continuous
 62
     0
370
    -2
390
5F
100
AcDbLine
 10
0.0
 20
0.0
 30
0.0
 11
-1.0
 21
-1.0
 31
0.0
  0
LINE
  5
1C2
330
1BF
100
AcDbEntity
  8
0
  6
Continuous
 62
     0
370
    -2
390
5F
100
AcDbLine
 10
-1.0
 20
-1.0
 30
0.0
 11
1.0
 21
-1.0
 31
0.0
  0
LINE
  5
1C3
330
1BF
100
AcDbEntity
  8
0
  6
Continuous
 62
     0
370
    -2
390
5F
100
AcDbLine
 10
1.0
 20
-1.0
 30
0.0
 11
0.0
 21
0.0
 31
0.0
  0
ENDBLK
  5
1C5
330
1BF
100
AcDbEntity
  8
0
100
AcDbBlockEnd
  0
BLOCK
  5
1CB
330
1C6
100
AcDbEntity
  8
0
100
AcDbBlockBegin
  2
cw-dimension-symbol17
 70
     0
 10
0.0
 20
0.0
 30
0.0
  3
cw-dimension-symbol17
  1

  0
LINE
  5
1C7
330
1C6
100
AcDbEntity
  8
0
  6
Continuous
 62
     0
370
    -2
390
5F
100
AcDbLine
 10
0.0
 20
0.0
 30
0.0
 11
1.0
 21
1.0
 31
0.0
  0
LINE
  5
1C8
330
1C6
100
AcDbEntity
  8
0
  6
Continuous
 62
     0
370
    -2
390
5F
100
AcDbLine
 10
1.0
 20
1.0
 30
0.0
 11
-1.0
 21
1.0
 31
0.0
  0
LINE
  5
1C9
330
1C6
100
AcDbEntity
  8
0
  6
Continuous
 62
     0
370
    -2
390
5F
100
AcDbLine
 10
-1.0
 20
1.0
 30
0.0
 11
0.0
 21
0.0
 31
0.0
  0
HATCH
  5
1CA
330
1C6
100
AcDbEntity
  8
0
  6
Continuous
 62
     0
370
    -2
390
5F
100
AcDbHatch
 10
0.0
 20
0.0
 30
0.0
210
0.0
220
0.0
230
1.0
  2
SOLID
 70
     1
 71
     0
 91
        1
 92
        3
 72
     0
 73
     1
 93
        3
 10
0.0
 20
0.0
 10
-1.0
 20
1.0
 10
0.0
 20
1.0
 97
        0
 75
     0
 76
     1
 98
        0
  0
ENDBLK
  5
1CC
330
1C6
100
AcDbEntity
  8
0
100
AcDbBlockEnd
  0
BLOCK
  5
1D2
330
1CD
100
AcDbEntity
  8
0
100
AcDbBlockBegin
  2
cw-dimension-symbol18
 70
     0
 10
0.0
 20
0.0
 30
0.0
  3
cw-dimension-symbol18
  1

  0
LINE
  5
1CE
330
1CD
100
AcDbEntity
  8
0
  6
Continuous
 62
     0
370
    -2
390
5F
100
AcDbLine
 10
0.0
 20
0.0
 30
0.0
 11
1.0
 21
-1.0
 31
0.0
  0
LINE
  5
1CF
330
1CD
100
AcDbEntity
  8
0
  6
Continuous
 62
     0
370
    -2
390
5F
100
AcDbLine
 10
1.0
 20
-1.0
 30
0.0
 11
-1.0
 21
-1.0
 31
0.0
  0
LINE
  5
1D0
330
1CD
100
AcDbEntity
  8
0
  6
Continuous
 62
     0
370
    -2
390
5F
100
AcDbLine
 10
-1.0
 20
-1.0
 30
0.0
 11
0.0
 21
0.0
 31
0.0
  0
HATCH
  5
1D1
330
1CD
100
AcDbEntity
  8
0
  6
Continuous
 62
     0
370
    -2
390
5F
100
AcDbHatch
 10
0.0
 20
0.0
 30
0.0
210
0.0
220
0.0
230
1.0
  2
SOLID
 70
     1
 71
     0
 91
        1
 92
        3
 72
     0
 73
     1
 93
        3
 10
0.0
 20
0.0
 10
-1.0
 20
-1.0
 10
0.0
 20
-1.0
 97
        0
 75
     0
 76
     1
 98
        0
  0
ENDBLK
  5
1D3
330
1CD
100
AcDbEntity
  8
0
100
AcDbBlockEnd
  0
BLOCK
  5
1D5
330
1D4
100
AcDbEntity
  8
0
100
AcDbBlockBegin
  2
cw-dimension-symbol19
 70
     0
 10
0.0
 20
0.0
 30
0.0
  3
cw-dimension-symbol19
  1

  0
ENDBLK
  5
1D6
330
1D4
100
AcDbEntity
  8
0
100
AcDbBlockEnd
  0
BLOCK
  5
1DC
330
1D7
100
AcDbEntity
  8
0
100
AcDbBlockBegin
  2
cw-dimension-symbol20
 70
     0
 10
0.0
 20
0.0
 30
0.0
  3
cw-dimension-symbol20
  1

  0
LINE
  5
1D8
330
1D7
100
AcDbEntity
  8
0
  6
Continuous
 62
     0
370
    -2
390
5F
100
AcDbLine
 10
0.0
 20
0.0
 30
0.0
 11
0.0
 21
2.0
 31
0.0
  0
LINE
  5
1D9
330
1D7
100
AcDbEntity
  8
0
  6
Continuous
 62
     0
370
    -2
390
5F
100
AcDbLine
 10
0.0
 20
0.0
 30
0.0
 11
-1.0
 21
0.33
 31
0.0
  0
LINE
  5
1DA
330
1D7
100
AcDbEntity
  8
0
  6
Continuous
 62
     0
370
    -2
390
5F
100
AcDbLine
 10
0.0
 20
0.0
 30
0.0
 11
1.0
 21
0.33
 31
0.0
  0
LINE
  5
1DB
330
1D7
100
AcDbEntity
  8
0
  6
Continuous
 62
     0
370
    -2
390
5F
100
AcDbLine
 10
0.0
 20
2.0
 30
0.0
 11
4.15
 21
2.0
 31
0.0
  0
ENDBLK
  5
1DD
330
1D7
100
AcDbEntity
  8
0
100
AcDbBlockEnd
  0
BLOCK
  5
1E3
330
1DE
100
AcDbEntity
  8
0
100
AcDbBlockBegin
  2
cw-dimension-symbol21
 70
     0
 10
0.0
 20
0.0
 30
0.0
  3
cw-dimension-symbol21
  1

  0
LINE
  5
1DF
330
1DE
100
AcDbEntity
  8
0
  6
Continuous
 62
     0
370
    -2
390
5F
100
AcDbLine
 10
0.0
 20
0.0
 30
0.0
 11
0.0
 21
-2.0
 31
0.0
  0
LINE
  5
1E0
330
1DE
100
AcDbEntity
  8
0
  6
Continuous
 62
     0
370
    -2
390
5F
100
AcDbLine
 10
0.0
 20
0.0
 30
0.0
 11
-1.0
 21
-0.33
 31
0.0
  0
LINE
  5
1E1
330
1DE
100
AcDbEntity
  8
0
  6
Continuous
 62
     0
370
    -2
390
5F
100
AcDbLine
 10
0.0
 20
0.0
 30
0.0
 11
1.0
 21
-0.33
 31
0.0
  0
LINE
  5
1E2
330
1DE
100
AcDbEntity
  8
0
  6
Continuous
 62
     0
370
    -2
390
5F
100
AcDbLine
 10
0.0
 20
-2.0
 30
0.0
 11
4.15
 21
-2.0
 31
0.0
  0
ENDBLK
  5
1E4
330
1DE
100
AcDbEntity
  8
0
100
AcDbBlockEnd
  0
BLOCK
  5
215
330
1E5
100
AcDbEntity
  8
0
100
AcDbBlockBegin
  2
cw-line-extremity0
 70
     0
 10
0.0
 20
0.0
 30
0.0
  3
cw-line-extremity0
  1

  0
LINE
  5
1E6
330
1E5
100
AcDbEntity
  8
0
  6
Continuous
 62
     0
370
    -2
390
5F
100
AcDbLine
 10
0.0
 20
0.0
 30
0.0
 11
10.0
 21
2.5
 31
0.0
  0
LINE
  5
1E7
330
1E5
100
AcDbEntity
  8
0
  6
Continuous
 62
     0
370
    -2
390
5F
100
AcDbLine
 10
0.0
 20
0.0
 30
0.0
 11
10.0
 21
-2.5
 31
0.0
  0
LINE
  5
1E8
330
1E5
100
AcDbEntity
  8
0
  6
Continuous
 62
     0
370
    -2
390
5F
100
AcDbLine
 10
10.0
 20
2.5
 30
0.0
 11
10.0
 21
-2.5
 31
0.0
  0
ENDBLK
  5
216
330
1E5
100
AcDbEntity
  8
0
100
AcDbBlockEnd
  0
BLOCK
  5
213
330
1E9
100
AcDbEntity
  8
0
100
AcDbBlockBegin
  2
cw-line-extremity2
 70
     0
 10
0.0
 20
0.0
 30
0.0
  3
cw-line-extremity2
  1

  0
HATCH
  5
1EA
330
1E9
100
AcDbEntity
  8
0
  6
Continuous
 62
     0
370
     0
390
5F
100
AcDbHatch
 10
0.0
 20
0.0
 30
0.0
210
0.0
220
0.0
230
1.0
  2
SOLID
 70
     1
 71
     0
 91
        1
 92
        3
 72
     0
 73
     1
 93
        3
 10
0.0
 20
0.0
 10
10.0
 20
2.5
 10
10.0
 20
-2.5
 97
        0
 75
     0
 76
     1
 98
        0
  0
LINE
  5
1EB
330
1E9
100
AcDbEntity
  8
0
  6
Continuous
 62
     0
370
    -2
390
5F
100
AcDbLine
 10
0.0
 20
0.0
 30
0.0
 11
10.0
 21
2.5
 31
0.0
  0
LINE
  5
1EC
330
1E9
100
AcDbEntity
  8
0
  6
Continuous
 62
     0
370
    -2
390
5F
100
AcDbLine
 10
10.0
 20
2.5
 30
0.0
 11
10.0
 21
-2.5
 31
0.0
  0
LINE
  5
1ED
330
1E9
100
AcDbEntity
  8
0
  6
Continuous
 62
     0
370
    -2
390
5F
100
AcDbLine
 10
10.0
 20
-2.5
 30
0.0
 11
0.0
 21
0.0
 31
0.0
  0
ENDBLK
  5
214
330
1E9
100
AcDbEntity
  8
0
100
AcDbBlockEnd
  0
BLOCK
  5
211
330
1EE
100
AcDbEntity
  8
0
100
AcDbBlockBegin
  2
cw-line-extremity3
 70
     0
 10
0.0
 20
0.0
 30
0.0
  3
cw-line-extremity3
  1

  0
HATCH
  5
1EF
330
1EE
100
AcDbEntity
  8
0
  6
Continuous
 62
     0
370
     0
390
5F
100
AcDbHatch
 10
0.0
 20
0.0
 30
0.0
210
0.0
220
0.0
230
1.0
  2
SOLID
 70
     1
 71
     0
 91
        1
 92
        3
 72
     0
 73
     1
 93
        3
 10
0.0
 20
0.0
 10
10.0
 20
2.5
 10
10.0
 20
-2.5
 97
        0
 75
     0
 76
     1
 98
        0
  0
LINE
  5
1F0
330
1EE
100
AcDbEntity
  8
0
  6
Continuous
 62
     0
370
    -2
390
5F
100
AcDbLine
 10
0.0
 20
0.0
 30
0.0
 11
10.0
 21
2.5
 31
0.0
  0
LINE
  5
1F1
330
1EE
100
AcDbEntity
  8
0
  6
Continuous
 62
     0
370
    -2
390
5F
100
AcDbLine
 10
10.0
 20
2.5
 30
0.0
 11
10.0
 21
-2.5
 31
0.0
  0
LINE
  5
1F2
330
1EE
100
AcDbEntity
  8
0
  6
Continuous
 62
     0
370
    -2
390
5F
100
AcDbLine
 10
10.0
 20
-2.5
 30
0.0
 11
0.0
 21
0.0
 31
0.0
  0
ENDBLK
  5
212
330
1EE
100
AcDbEntity
  8
0
100
AcDbBlockEnd
  0
BLOCK
  5
20F
330
1F3
100
AcDbEntity
  8
0
100
AcDbBlockBegin
  2
cw-line-extremity301
 70
     0
 10
0.0
 20
0.0
 30
0.0
  3
cw-line-extremity301
  1

  0
LINE
  5
1F4
330
1F3
100
AcDbEntity
  8
0
  6
Continuous
 62
     0
370
    -2
390
5F
100
AcDbLine
 10
0.0
 20
6.66665
 30
0.0
 11
0.0
 21
-6.66665
 31
0.0
  0
ENDBLK
  5
210
330
1F3
100
AcDbEntity
  8
0
100
AcDbBlockEnd
  0
BLOCK
  5
20D
330
1F5
100
AcDbEntity
  8
0
100
AcDbBlockBegin
  2
cw-line-extremity4
 70
     0
 10
0.0
 20
0.0
 30
0.0
  3
cw-line-extremity4
  1

  0
HATCH
  5
1F6
330
1F5
100
AcDbEntity
  8
0
  6
Continuous
 62
     0
370
     5
390
5F
100
AcDbHatch
 10
0.0
 20
0.0
 30
0.0
210
0.0
220
0.0
230
1.0
  2
SOLID
 70
     1
 71
     0
 91
        1
 92
        1
 93
        1
 72
     2
 10
0.0
 20
0.0
 40
2.5
 50
0.0
 51
360.0
 73
     1
 97
        0
 75
     0
 76
     1
 98
        0
  0
ENDBLK
  5
20E
330
1F5
100
AcDbEntity
  8
0
100
AcDbBlockEnd
  0
BLOCK
  5
20B
330
1F7
100
AcDbEntity
  8
0
100
AcDbBlockBegin
  2
cw-line-extremity5
 70
     0
 10
0.0
 20
0.0
 30
0.0
  3
cw-line-extremity5
  1

  0
LINE
  5
1F8
330
1F7
100
AcDbEntity
  8
0
  6
Continuous
 62
     0
370
    -2
390
5F
100
AcDbLine
 10
0.0
 20
0.0
 30
0.0
 11
-2.5
 21
0.0
 31
0.0
  0
ENDBLK
  5
20C
330
1F7
100
AcDbEntity
  8
0
100
AcDbBlockEnd
  0
BLOCK
  5
209
330
1F9
100
AcDbEntity
  8
0
100
AcDbBlockBegin
  2
cw-line-extremity6
 70
     0
 10
0.0
 20
0.0
 30
0.0
  3
cw-line-extremity6
  1

  0
LINE
  5
1FA
330
1F9
100
AcDbEntity
  8
0
  6
Continuous
 62
     0
370
    18
390
5F
100
AcDbLine
 10
0.0
 20
2.5
 30
0.0
 11
0.0
 21
-2.5
 31
0.0
  0
ENDBLK
  5
20A
330
1F9
100
AcDbEntity
  8
0
100
AcDbBlockEnd
  0
BLOCK
  5
207
330
1FB
100
AcDbEntity
  8
0
100
AcDbBlockBegin
  2
cw-line-extremity9
 70
     0
 10
0.0
 20
0.0
 30
0.0
  3
cw-line-extremity9
  1

  0
LINE
  5
1FC
330
1FB
100
AcDbEntity
  8
0
  6
Continuous
 62
     0
370
    18
390
5F
100
AcDbLine
 10
-2.5
 20
-2.5
 30
0.0
 11
2.5
 21
2.5
 31
0.0
  0
ENDBLK
  5
208
330
1FB
100
AcDbEntity
  8
0
100
AcDbBlockEnd
  0
BLOCK
  5
205
330
1FD
100
AcDbEntity
  8
0
100
AcDbBlockBegin
  2
cw-line-extremity10
 70
     0
 10
0.0
 20
0.0
 30
0.0
  3
cw-line-extremity10
  1

  0
CIRCLE
  5
1FE
330
1FD
100
AcDbEntity
  8
0
  6
Continuous
 62
     0
370
    -2
390
5F
100
AcDbCircle
 10
0.0
 20
0.0
 30
0.0
 40
2.5
  0
ENDBLK
  5
206
330
1FD
100
AcDbEntity
  8
0
100
AcDbBlockEnd
  0
BLOCK
  5
203
330
1FF
100
AcDbEntity
  8
0
100
AcDbBlockBegin
  2
cw-line-extremity1
 70
     0
 10
0.0
 20
0.0
 30
0.0
  3
cw-line-extremity1
  1

  0
LINE
  5
200
330
1FF
100
AcDbEntity
  8
0
  6
Continuous
 62
     0
370
    -2
390
5F
100
AcDbLine
 10
0.0
 20
0.0
 30
0.0
 11
0.0
 21
2.5
 31
0.0
  0
LINE
  5
201
330
1FF
100
AcDbEntity
  8
0
  6
Continuous
 62
     0
370
    -2
390
5F
100
AcDbLine
 10
0.0
 20
2.5
 30
0.0
 11
1.25
 21
3.75
 31
0.0
  0
LINE
  5
202
330
1FF
100
AcDbEntity
  8
0
  6
Continuous
 62
     0
370
    -2
390
5F
100
AcDbLine
 10
1.25
 20
3.75
 30
0.0
 11
3.75
 21
3.75
 31
0.0
  0
ENDBLK
  5
204
330
1FF
100
AcDbEntity
  8
0
100
AcDbBlockEnd
  0
BLOCK
  5
1C
330
1B
100
AcDbEntity
  8
0
100
AcDbBlockBegin
  2
*Paper_Space69
 70
     0
 10
0.0
 20
0.0
 30
0.0
  3
*Paper_Space69
  1

  0
ENDBLK
  5
1D
330
1B
100
AcDbEntity
  8
0
100
AcDbBlockEnd
  0
BLOCK
  5
3F6
330
3E7
100
AcDbEntity
  8
0
100
AcDbBlockBegin
  2
DIM320
 70
     0
 10
0.0
 20
0.0
 30
0.0
  3
DIM320
  1

  0
LINE
  5
3E8
330
3E7
100
AcDbEntity
  8
Ech.1_5
  6
Continuous
 62
   200
420
 11010303
370
    15
390
5F
100
AcDbLine
 10
20645.71537404251
 20
-13709.85973251658
 30
0.0
 11
20665.71537404251
 21
-13709.85973251658
 31
0.0
  0
LINE
  5
3E9
330
3E7
100
AcDbEntity
  8
Ech.1_5
  6
Continuous
 62
   200
420
 11010303
370
    15
390
5F
100
AcDbLine
 10
20660.71537404251
 20
-13709.85973251658
 30
0.0
 11
20660.71537404251
 21
-13704.85973251658
 31
0.0
  0
LINE
  5
3EA
330
3E7
100
AcDbEntity
  8
Ech.1_5
  6
Continuous
 62
   200
420
 11010303
370
    25
390
5F
100
AcDbLine
 10
20658.21537404251
 20
-13707.35973251658
 30
0.0
 11
20663.21537404251
 21
-13712.35973251658
 31
0.0
  0
LINE
  5
3EB
330
3E7
100
AcDbEntity
  8
Ech.1_5
  6
Continuous
 62
   200
420
 11010303
370
    25
390
5F
100
AcDbLine
 10
20658.21537404251
 20
-13707.40973251658
 30
0.0
 11
20663.16537404251
 21
-13712.35973251658
 31
0.0
  0
LINE
  5
3EC
330
3E7
100
AcDbEntity
  8
Ech.1_5
  6
Continuous
 62
   200
420
 11010303
370
    25
390
5F
100
AcDbLine
 10
20658.26537404251
 20
-13707.35973251658
 30
0.0
 11
20663.21537404251
 21
-13712.30973251658
 31
0.0
  0
LINE
  5
3ED
330
3E7
100
AcDbEntity
  8
Ech.1_5
  6
Continuous
 62
   200
420
 11010303
370
    25
390
5F
100
AcDbLine
 10
20658.21537404251
 20
-13707.35973251658
 30
0.0
 11
20663.16537404251
 21
-13712.35973251658
 31
0.0
  0
LINE
  5
3EE
330
3E7
100
AcDbEntity
  8
Ech.1_5
  6
Continuous
 62
   200
420
 11010303
370
    25
390
5F
100
AcDbLine
 10
20658.21537404251
 20
-13707.35973251658
 30
0.0
 11
20663.21537404251
 21
-13712.30973251658
 31
0.0
  0
LINE
  5
3EF
330
3E7
100
AcDbEntity
  8
Ech.1_5
  6
Continuous
 62
   200
420
 11010303
370
    15
390
5F
100
AcDbLine
 10
20660.71537404251
 20
-13709.85973251658
 30
0.0
 11
20660.71537404251
 21
-13742.85973251658
 31
0.0
  0
LINE
  5
3F0
330
3E7
100
AcDbEntity
  8
Ech.1_5
  6
Continuous
 62
   200
420
 11010303
370
    25
390
5F
100
AcDbLine
 10
20663.21537404251
 20
-13740.35973251658
 30
0.0
 11
20658.21537404251
 21
-13735.35973251658
 31
0.0
  0
LINE
  5
3F1
330
3E7
100
AcDbEntity
  8
Ech.1_5
  6
Continuous
 62
   200
420
 11010303
370
    25
390
5F
100
AcDbLine
 10
20663.21537404251
 20
-13740.30973251658
 30
0.0
 11
20658.26537404251
 21
-13735.35973251658
 31
0.0
  0
LINE
  5
3F2
330
3E7
100
AcDbEntity
  8
Ech.1_5
  6
Continuous
 62
   200
420
 11010303
370
    25
390
5F
100
AcDbLine
 10
20663.16537404251
 20
-13740.35973251658
 30
0.0
 11
20658.21537404251
 21
-13735.40973251658
 31
0.0
  0
LINE
  5
3F3
330
3E7
100
AcDbEntity
  8
Ech.1_5
  6
Continuous
 62
   200
420
 11010303
370
    25
390
5F
100
AcDbLine
 10
20663.21537404251
 20
-13740.30973251658
 30
0.0
 11
20658.21537404251
 21
-13735.35973251658
 31
0.0
  0
LINE
  5
3F4
330
3E7
100
AcDbEntity
  8
Ech.1_5
  6
Continuous
 62
   200
420
 11010303
370
    25
390
5F
100
AcDbLine
 10
20663.16537404251
 20
-13740.35973251658
 30
0.0
 11
20658.21537404251
 21
-13735.35973251658
 31
0.0
  0
LINE
  5
3F5
330
3E7
100
AcDbEntity
  8
Ech.1_5
  6
Continuous
 62
   200
420
 11010303
370
    15
390
5F
100
AcDbLine
 10
20645.71537404251
 20
-13737.85973251658
 30
0.0
 11
20665.71537404251
 21
-13737.85973251658
 31
0.0
  0
ENDBLK
  5
3F7
330
3E7
100
AcDbEntity
  8
0
100
AcDbBlockEnd
  0
BLOCK
  5
40A
330
3FB
100
AcDbEntity
  8
0
100
AcDbBlockBegin
  2
DIM321
 70
     0
 10
0.0
 20
0.0
 30
0.0
  3
DIM321
  1

  0
LINE
  5
3FC
330
3FB
100
AcDbEntity
  8
Ech.1_5
  6
Continuous
 62
   200
420
 11010303
370
    15
390
5F
100
AcDbLine
 10
20645.68683614255
 20
-13737.85973251658
 30
0.0
 11
20665.68683614255
 21
-13737.85973251658
 31
0.0
  0
LINE
  5
3FD
330
3FB
100
AcDbEntity
  8
Ech.1_5
  6
Continuous
 62
   200
420
 11010303
370
    15
390
5F
100
AcDbLine
 10
20660.68683614255
 20
-13737.85973251658
 30
0.0
 11
20660.68683614255
 21
-13732.85973251658
 31
0.0
  0
LINE
  5
3FE
330
3FB
100
AcDbEntity
  8
Ech.1_5
  6
Continuous
 62
   200
420
 11010303
370
    25
390
5F
100
AcDbLine
 10
20658.18683614255
 20
-13735.35973251658
 30
0.0
 11
20663.18683614255
 21
-13740.35973251658
 31
0.0
  0
LINE
  5
3FF
330
3FB
100
AcDbEntity
  8
Ech.1_5
  6
Continuous
 62
   200
420
 11010303
370
    25
390
5F
100
AcDbLine
 10
20658.18683614255
 20
-13735.40973251657
 30
0.0
 11
20663.13683614255
 21
-13740.35973251658
 31
0.0
  0
LINE
  5
400
330
3FB
100
AcDbEntity
  8
Ech.1_5
  6
Continuous
 62
   200
420
 11010303
370
    25
390
5F
100
AcDbLine
 10
20658.23683614255
 20
-13735.35973251658
 30
0.0
 11
20663.18683614255
 21
-13740.30973251658
 31
0.0
  0
LINE
  5
401
330
3FB
100
AcDbEntity
  8
Ech.1_5
  6
Continuous
 62
   200
420
 11010303
370
    25
390
5F
100
AcDbLine
 10
20658.18683614255
 20
-13735.35973251658
 30
0.0
 11
20663.18683614255
 21
-13740.35973251658
 31
0.0
  0
LINE
  5
402
330
3FB
100
AcDbEntity
  8
Ech.1_5
  6
Continuous
 62
   200
420
 11010303
370
    25
390
5F
100
AcDbLine
 10
20658.23683614255
 20
-13735.35973251658
 30
0.0
 11
20663.18683614255
 21
-13740.30973251658
 31
0.0
  0
LINE
  5
403
330
3FB
100
AcDbEntity
  8
Ech.1_5
  6
Continuous
 62
   200
420
 11010303
370
    15
390
5F
100
AcDbLine
 10
20660.68683614255
 20
-13737.85973251658
 30
0.0
 11
20660.68683614255
 21
-13745.85973251658
 31
0.0
  0
LINE
  5
404
330
3FB
100
AcDbEntity
  8
Ech.1_5
  6
Continuous
 62
   200
420
 11010303
370
    25
390
5F
100
AcDbLine
 10
20663.18683614255
 20
-13743.35973251658
 30
0.0
 11
20658.18683614255
 21
-13738.35973251658
 31
0.0
  0
LINE
  5
405
330
3FB
100
AcDbEntity
  8
Ech.1_5
  6
Continuous
 62
   200
420
 11010303
370
    25
390
5F
100
AcDbLine
 10
20663.18683614255
 20
-13743.30973251658
 30
0.0
 11
20658.23683614255
 21
-13738.35973251658
 31
0.0
  0
LINE
  5
406
330
3FB
100
AcDbEntity
  8
Ech.1_5
  6
Continuous
 62
   200
420
 11010303
370
    25
390
5F
100
AcDbLine
 10
20663.13683614255
 20
-13743.35973251658
 30
0.0
 11
20658.18683614255
 21
-13738.40973251657
 31
0.0
  0
LINE
  5
407
330
3FB
100
AcDbEntity
  8
Ech.1_5
  6
Continuous
 62
   200
420
 11010303
370
    25
390
5F
100
AcDbLine
 10
20663.18683614255
 20
-13743.30973251658
 30
0.0
 11
20658.23683614255
 21
-13738.35973251658
 31
0.0
  0
LINE
  5
408
330
3FB
100
AcDbEntity
  8
Ech.1_5
  6
Continuous
 62
   200
420
 11010303
370
    25
390
5F
100
AcDbLine
 10
20663.18683614255
 20
-13743.35973251658
 30
0.0
 11
20658.18683614255
 21
-13738.35973251658
 31
0.0
  0
LINE
  5
409
330
3FB
100
AcDbEntity
  8
Ech.1_5
  6
Continuous
 62
   200
420
 11010303
370
    15
390
5F
100
AcDbLine
 10
20571.93683614255
 20
-13740.85973251658
 30
0.0
 11
20665.68683614255
 21
-13740.85973251658
 31
0.0
  0
ENDBLK
  5
40B
330
3FB
100
AcDbEntity
  8
0
100
AcDbBlockEnd
  0
BLOCK
  5
41D
330
40E
100
AcDbEntity
  8
0
100
AcDbBlockBegin
  2
DIM322
 70
     0
 10
0.0
 20
0.0
 30
0.0
  3
DIM322
  1

  0
LINE
  5
40F
330
40E
100
AcDbEntity
  8
Ech.1_5
  6
Continuous
 62
   200
420
 11010303
370
    15
390
5F
100
AcDbLine
 10
20571.91932979555
 20
-13740.85973251658
 30
0.0
 11
20665.71932979555
 21
-13740.85973251658
 31
0.0
  0
LINE
  5
410
330
40E
100
AcDbEntity
  8
Ech.1_5
  6
Continuous
 62
   200
420
 11010303
370
    15
390
5F
100
AcDbLine
 10
20660.71932979555
 20
-13740.85973251658
 30
0.0
 11
20660.71932979555
 21
-13735.85973251658
 31
0.0
  0
LINE
  5
411
330
40E
100
AcDbEntity
  8
Ech.1_5
  6
Continuous
 62
   200
420
 11010303
370
    25
390
5F
100
AcDbLine
 10
20658.21932979555
 20
-13738.35973251658
 30
0.0
 11
20663.21932979555
 21
-13743.35973251658
 31
0.0
  0
LINE
  5
412
330
40E
100
AcDbEntity
  8
Ech.1_5
  6
Continuous
 62
   200
420
 11010303
370
    25
390
5F
100
AcDbLine
 10
20658.21932979555
 20
-13738.40973251657
 30
0.0
 11
20663.16932979555
 21
-13743.35973251658
 31
0.0
  0
LINE
  5
413
330
40E
100
AcDbEntity
  8
Ech.1_5
  6
Continuous
 62
   200
420
 11010303
370
    25
390
5F
100
AcDbLine
 10
20658.26932979555
 20
-13738.35973251658
 30
0.0
 11
20663.21932979555
 21
-13743.30973251658
 31
0.0
  0
LINE
  5
414
330
40E
100
AcDbEntity
  8
Ech.1_5
  6
Continuous
 62
   200
420
 11010303
370
    25
390
5F
100
AcDbLine
 10
20658.21932979555
 20
-13738.35973251658
 30
0.0
 11
20663.16932979555
 21
-13743.35973251658
 31
0.0
  0
LINE
  5
415
330
40E
100
AcDbEntity
  8
Ech.1_5
  6
Continuous
 62
   200
420
 11010303
370
    25
390
5F
100
AcDbLine
 10
20658.21932979555
 20
-13738.35973251658
 30
0.0
 11
20663.21932979555
 21
-13743.30973251658
 31
0.0
  0
LINE
  5
416
330
40E
100
AcDbEntity
  8
Ech.1_5
  6
Continuous
 62
   200
420
 11010303
370
    15
390
5F
100
AcDbLine
 10
20660.71932979555
 20
-13740.85973251658
 30
0.0
 11
20660.71932979555
 21
-13784.85973251658
 31
0.0
  0
LINE
  5
417
330
40E
100
AcDbEntity
  8
Ech.1_5
  6
Continuous
 62
   200
420
 11010303
370
    25
390
5F
100
AcDbLine
 10
20663.21932979555
 20
-13782.35973251658
 30
0.0
 11
20658.21932979555
 21
-13777.35973251658
 31
0.0
  0
LINE
  5
418
330
40E
100
AcDbEntity
  8
Ech.1_5
  6
Continuous
 62
   200
420
 11010303
370
    25
390
5F
100
AcDbLine
 10
20663.21932979555
 20
-13782.30973251658
 30
0.0
 11
20658.26932979555
 21
-13777.35973251658
 31
0.0
  0
LINE
  5
419
330
40E
100
AcDbEntity
  8
Ech.1_5
  6
Continuous
 62
   200
420
 11010303
370
    25
390
5F
100
AcDbLine
 10
20663.16932979555
 20
-13782.35973251658
 30
0.0
 11
20658.21932979555
 21
-13777.40973251657
 31
0.0
  0
LINE
  5
41A
330
40E
100
AcDbEntity
  8
Ech.1_5
  6
Continuous
 62
   200
420
 11010303
370
    25
390
5F
100
AcDbLine
 10
20663.21932979555
 20
-13782.30973251658
 30
0.0
 11
20658.21932979555
 21
-13777.35973251658
 31
0.0
  0
LINE
  5
41B
330
40E
100
AcDbEntity
  8
Ech.1_5
  6
Continuous
 62
   200
420
 11010303
370
    25
390
5F
100
AcDbLine
 10
20663.16932979555
 20
-13782.35973251658
 30
0.0
 11
20658.21932979555
 21
-13777.35973251658
 31
0.0
  0
LINE
  5
41C
330
40E
100
AcDbEntity
  8
Ech.1_5
  6
Continuous
 62
   200
420
 11010303
370
    15
390
5F
100
AcDbLine
 10
20571.91932979555
 20
-13779.85973251658
 30
0.0
 11
20665.71932979555
 21
-13779.85973251658
 31
0.0
  0
ENDBLK
  5
41E
330
40E
100
AcDbEntity
  8
0
100
AcDbBlockEnd
  0
BLOCK
  5
430
330
421
100
AcDbEntity
  8
0
100
AcDbBlockBegin
  2
DIM323
 70
     0
 10
0.0
 20
0.0
 30
0.0
  3
DIM323
  1

  0
LINE
  5
422
330
421
100
AcDbEntity
  8
Ech.1_5
  6
Continuous
 62
   200
420
 11010303
370
    15
390
5F
100
AcDbLine
 10
20571.91585642052
 20
-13779.85964782003
 30
0.0
 11
20665.71585642052
 21
-13779.85964782003
 31
0.0
  0
LINE
  5
423
330
421
100
AcDbEntity
  8
Ech.1_5
  6
Continuous
 62
   200
420
 11010303
370
    15
390
5F
100
AcDbLine
 10
20660.71585642052
 20
-13779.85964782003
 30
0.0
 11
20660.71585642052
 21
-13774.85964782003
 31
0.0
  0
LINE
  5
424
330
421
100
AcDbEntity
  8
Ech.1_5
  6
Continuous
 62
   200
420
 11010303
370
    25
390
5F
100
AcDbLine
 10
20658.21585642052
 20
-13777.35964782003
 30
0.0
 11
20663.21585642052
 21
-13782.35964782003
 31
0.0
  0
LINE
  5
425
330
421
100
AcDbEntity
  8
Ech.1_5
  6
Continuous
 62
   200
420
 11010303
370
    25
390
5F
100
AcDbLine
 10
20658.21585642052
 20
-13777.40964782003
 30
0.0
 11
20663.16585642052
 21
-13782.35964782003
 31
0.0
  0
LINE
  5
426
330
421
100
AcDbEntity
  8
Ech.1_5
  6
Continuous
 62
   200
420
 11010303
370
    25
390
5F
100
AcDbLine
 10
20658.26585642052
 20
-13777.35964782003
 30
0.0
 11
20663.21585642052
 21
-13782.30964782004
 31
0.0
  0
LINE
  5
427
330
421
100
AcDbEntity
  8
Ech.1_5
  6
Continuous
 62
   200
420
 11010303
370
    25
390
5F
100
AcDbLine
 10
20658.21585642052
 20
-13777.35964782003
 30
0.0
 11
20663.16585642052
 21
-13782.35964782003
 31
0.0
  0
LINE
  5
428
330
421
100
AcDbEntity
  8
Ech.1_5
  6
Continuous
 62
   200
420
 11010303
370
    25
390
5F
100
AcDbLine
 10
20658.21585642052
 20
-13777.35964782003
 30
0.0
 11
20663.21585642052
 21
-13782.30964782004
 31
0.0
  0
LINE
  5
429
330
421
100
AcDbEntity
  8
Ech.1_5
  6
Continuous
 62
   200
420
 11010303
370
    15
390
5F
100
AcDbLine
 10
20660.71585642052
 20
-13779.85964782003
 30
0.0
 11
20660.71585642052
 21
-13805.85964782003
 31
0.0
  0
LINE
  5
42A
330
421
100
AcDbEntity
  8
Ech.1_5
  6
Continuous
 62
   200
420
 11010303
370
    25
390
5F
100
AcDbLine
 10
20663.21585642052
 20
-13803.35964782003
 30
0.0
 11
20658.21585642052
 21
-13798.35964782003
 31
0.0
  0
LINE
  5
42B
330
421
100
AcDbEntity
  8
Ech.1_5
  6
Continuous
 62
   200
420
 11010303
370
    25
390
5F
100
AcDbLine
 10
20663.21585642052
 20
-13803.30964782004
 30
0.0
 11
20658.26585642052
 21
-13798.35964782003
 31
0.0
  0
LINE
  5
42C
330
421
100
AcDbEntity
  8
Ech.1_5
  6
Continuous
 62
   200
420
 11010303
370
    25
390
5F
100
AcDbLine
 10
20663.16585642052
 20
-13803.35964782003
 30
0.0
 11
20658.21585642052
 21
-13798.40964782003
 31
0.0
  0
LINE
  5
42D
330
421
100
AcDbEntity
  8
Ech.1_5
  6
Continuous
 62
   200
420
 11010303
370
    25
390
5F
100
AcDbLine
 10
20663.21585642052
 20
-13803.30964782004
 30
0.0
 11
20658.21585642052
 21
-13798.35964782003
 31
0.0
  0
LINE
  5
42E
330
421
100
AcDbEntity
  8
Ech.1_5
  6
Continuous
 62
   200
420
 11010303
370
    25
390
5F
100
AcDbLine
 10
20663.16585642052
 20
-13803.35964782003
 30
0.0
 11
20658.21585642052
 21
-13798.35964782003
 31
0.0
  0
LINE
  5
42F
330
421
100
AcDbEntity
  8
Ech.1_5
  6
Continuous
 62
   200
420
 11010303
370
    15
390
5F
100
AcDbLine
 10
20571.91585642052
 20
-13800.85964782003
 30
0.0
 11
20665.71585642052
 21
-13800.85964782003
 31
0.0
  0
ENDBLK
  5
431
330
421
100
AcDbEntity
  8
0
100
AcDbBlockEnd
  0
ENDSEC
  0
SECTION
  2
ENTITIES
  0
HATCH
  5
220
330
1F
100
AcDbEntity
  8
Ech.1_5
  6
Continuous
 62
    43
440
 33554687
370
     5
390
5F
100
AcDbHatch
 10
0.0
 20
0.0
 30
0.0
210
0.0
220
0.0
230
1.0
  2
SOLID
 70
     1
 71
     0
 91
        1
 92
        3
 72
     0
 73
     1
 93
        4
 10
21098.08995407306
 20
-14088.45529709113
 10
21098.08995407306
 20
-14148.45529709113
 10
21158.08995407306
 20
-14148.45529709113
 10
21158.08995407306
 20
-14088.45529709113
 97
        0
 75
     0
 76
     1
 98
        0
  0
LINE
  5
221
330
1F
100
AcDbEntity
  8
Ech.1_5
  6
Continuous
 62
   190
370
    15
390
5F
100
AcDbLine
 10
21098.08995407306
 20
-14148.45529709113
 30
0.0
 11
21158.08995407306
 21
-14088.45529709113
 31
0.0
  0
LINE
  5
222
330
1F
100
AcDbEntity
  8
Ech.1_5
  6
Continuous
 62
   190
370
    15
390
5F
100
AcDbLine
 10
21158.08995407306
 20
-14148.45529709113
 30
0.0
 11
21098.08995407306
 21
-14088.45529709113
 31
0.0
  0
LWPOLYLINE
  5
223
330
1F
100
AcDbEntity
  8
Ech.1_5
  6
Continuous
 62
   190
370
    20
390
5F
100
AcDbPolyline
 90
        5
 70
     0
 43
0.0
 10
21098.08995407306
 20
-14088.45529709113
 10
21098.08995407306
 20
-14148.45529709113
 10
21158.08995407306
 20
-14148.45529709113
 10
21158.08995407306
 20
-14088.45529709113
 10
21098.08995407306
 20
-14088.45529709113
  0
HATCH
  5
224
330
1F
100
AcDbEntity
  8
Ech.1_5
  6
Continuous
 62
    43
440
 33554687
370
     5
390
5F
100
AcDbHatch
 10
0.0
 20
0.0
 30
0.0
210
0.0
220
0.0
230
1.0
  2
SOLID
 70
     1
 71
     0
 91
        1
 92
        3
 72
     0
 73
     1
 93
        4
 10
21097.99854946876
 20
-14330.55919982152
 10
21097.99854946876
 20
-14390.55919982152
 10
21157.99854946876
 20
-14390.55919982152
 10
21157.99854946876
 20
-14330.55919982152
 97
        0
 75
     0
 76
     1
 98
        0
  0
LINE
  5
225
330
1F
100
AcDbEntity
  8
Ech.1_5
  6
Continuous
 62
   190
370
    15
390
5F
100
AcDbLine
 10
21097.99854946876
 20
-14390.55919982152
 30
0.0
 11
21157.99854946876
 21
-14330.55919982152
 31
0.0
  0
LINE
  5
226
330
1F
100
AcDbEntity
  8
Ech.1_5
  6
Continuous
 62
   190
370
    15
390
5F
100
AcDbLine
 10
21157.99854946876
 20
-14390.55919982152
 30
0.0
 11
21097.99854946876
 21
-14330.55919982152
 31
0.0
  0
LWPOLYLINE
  5
227
330
1F
100
AcDbEntity
  8
Ech.1_5
  6
Continuous
 62
   190
370
    20
390
5F
100
AcDbPolyline
 90
        5
 70
     0
 43
0.0
 10
21097.99854946876
 20
-14330.55919982152
 10
21097.99854946876
 20
-14390.55919982152
 10
21157.99854946876
 20
-14390.55919982152
 10
21157.99854946876
 20
-14330.55919982152
 10
21097.99854946876
 20
-14330.55919982152
  0
HATCH
  5
228
330
1F
100
AcDbEntity
  8
Ech.1_5
  6
Continuous
 62
    43
440
 33554687
370
     5
390
5F
100
AcDbHatch
 10
0.0
 20
0.0
 30
0.0
210
0.0
220
0.0
230
1.0
  2
SOLID
 70
     1
 71
     0
 91
        1
 92
        3
 72
     0
 73
     1
 93
        4
 10
20487.72407068928
 20
-13740.85973251658
 10
20487.72407068928
 20
-13800.85973251658
 10
20547.72407068928
 20
-13800.85973251658
 10
20547.72407068928
 20
-13740.85973251658
 97
        0
 75
     0
 76
     1
 98
        0
  0
LINE
  5
229
330
1F
100
AcDbEntity
  8
Ech.1_5
  6
Continuous
 62
   190
370
    15
390
5F
100
AcDbLine
 10
20487.72407068928
 20
-13800.85973251658
 30
0.0
 11
20547.72407068928
 21
-13740.85973251658
 31
0.0
  0
LINE
  5
22A
330
1F
100
AcDbEntity
  8
Ech.1_5
  6
Continuous
 62
   190
370
    15
390
5F
100
AcDbLine
 10
20547.72407068928
 20
-13800.85973251658
 30
0.0
 11
20487.72407068928
 21
-13740.85973251658
 31
0.0
  0
LWPOLYLINE
  5
22B
330
1F
100
AcDbEntity
  8
Ech.1_5
  6
Continuous
 62
   190
370
    20
390
5F
100
AcDbPolyline
 90
        5
 70
     0
 43
0.0
 10
20487.72407068928
 20
-13740.85973251658
 10
20487.72407068928
 20
-13800.85973251658
 10
20547.72407068928
 20
-13800.85973251658
 10
20547.72407068928
 20
-13740.85973251658
 10
20487.72407068928
 20
-13740.85973251658
  0
LWPOLYLINE
  5
22C
102
{ACAD_REACTORS
330
22D
330
22E
330
22F
102
}
330
1F
100
AcDbEntity
  8
Ech.1_5
  6
Continuous
 62
   190
370
    15
390
5F
100
AcDbPolyline
 90
        5
 70
     0
 43
0.0
 10
20348.47353496285
 20
-14725.46222049068
 10
21333.47353496286
 20
-14725.46222049068
 10
21333.47353496286
 20
-14862.87529255589
 10
20348.47353496285
 20
-14862.87529255589
 10
20348.47353496285
 20
-14725.46222049068
  0
IMAGE
  5
232
102
{ACAD_REACTORS
330
22E
330
22F
102
}
330
1F
100
AcDbEntity
  8
Ech.1_5
  6
Continuous
390
5F
160
                 8
310
0800000000000000
100
AcDbRasterImage
 90
        0
 10
20539.53778370374
 20
-14857.83974507474
 30
0.0
 11
0.2834551518263258
 21
0.0
 31
0.0
 12
0.0
 22
0.2834551571500732
 32
0.0
 13
247.0
 23
171.0
340
231
 70
     7
280
     0
281
    50
282
    50
283
     0
360
233
 71
     1
 91
        2
 14
-0.5
 24
-0.5
 14
246.5
 24
170.5
290
     0
  0
IMAGE
  5
235
102
{ACAD_REACTORS
330
22F
102
}
330
1F
100
AcDbEntity
  8
Ech.1_5
  6
Continuous
390
5F
160
                 8
310
0800000000000000
100
AcDbRasterImage
 90
        0
 10
20800.61545494572
 20
-14860.39435737859
 30
0.0
 11
0.4035808001714576
 21
0.0
 31
0.0
 12
0.0
 22
0.4035808103932838
 32
0.0
 13
200.0
 23
133.0
340
234
 70
     7
280
     0
281
    50
282
    50
283
     0
360
236
 71
     1
 91
        2
 14
-0.5
 24
-0.5
 14
199.5
 24
132.5
290
     0
  0
HATCH
  5
237
330
1F
100
AcDbEntity
  8
Ech.1_5
  6
Continuous
 62
    33
420
 12426362
440
 33554687
370
    20
390
5F
100
AcDbHatch
 10
0.0
 20
0.0
 30
0.0
210
0.0
220
0.0
230
1.0
  2
SOLID
 70
     1
 71
     0
 91
        1
 92
        3
 72
     0
 73
     1
 93
        4
 10
20632.8153740425
 20
-13737.85973251658
 10
20641.56537404251
 20
-13709.85973251658
 10
20419.83478604935
 20
-13709.85973251658
 10
20411.08478604934
 20
-13737.85973251658
 97
        0
 75
     0
 76
     1
 98
        0
  0
LWPOLYLINE
  5
238
330
1F
100
AcDbEntity
  8
Ech.1_5
  6
Continuous
 62
   190
370
     5
390
5F
100
AcDbPolyline
 90
        5
 70
     0
 43
0.0
 10
20632.8153740425
 20
-13737.85973251658
 10
20641.56537404251
 20
-13709.85973251658
 10
20419.83478604935
 20
-13709.85973251658
 10
20411.08478604934
 20
-13737.85973251658
 10
20632.8153740425
 20
-13737.85973251658
  0
LINE
  5
23B
330
1F
100
AcDbEntity
  8
Ech.1_5
  6
Continuous
 62
    18
420
        0
370
    20
390
5F
100
AcDbLine
 10
20563.91023562686
 20
-14569.10052177779
 30
0.0
 11
20756.8776593043
 21
-14569.10052177779
 31
0.0
  0
LINE
  5
23C
330
1F
100
AcDbEntity
  8
Ech.1_5
  6
Continuous
 62
    18
420
        0
370
    20
390
5F
100
AcDbLine
 10
20563.91023562686
 20
-14569.10052177779
 30
0.0
 11
20563.91023562686
 21
-14621.03091899029
 31
0.0
  0
LINE
  5
23D
330
1F
100
AcDbEntity
  8
Ech.1_5
  6
Continuous
 62
    18
420
        0
370
    20
390
5F
100
AcDbLine
 10
20756.8776593043
 20
-14569.10052177779
 30
0.0
 11
21122.94513366953
 21
-14569.10052177779
 31
0.0
  0
LINE
  5
23E
330
1F
100
AcDbEntity
  8
Ech.1_5
  6
Continuous
 62
    18
420
        0
370
    20
390
5F
100
AcDbLine
 10
20756.8776593043
 20
-14569.10052177779
 30
0.0
 11
20756.8776593043
 21
-14595.91703883282
 31
0.0
  0
LINE
  5
23F
330
1F
100
AcDbEntity
  8
Ech.1_5
  6
Continuous
 62
    18
420
        0
370
     0
390
5F
100
AcDbLine
 10
21122.94513366953
 20
-14569.10052177779
 30
0.0
 11
21122.94513366953
 21
-14595.91703883282
 31
0.0
  0
LINE
  5
240
330
1F
100
AcDbEntity
  8
Ech.1_5
  6
Continuous
 62
    18
420
        0
370
    20
390
5F
100
AcDbLine
 10
20756.8776593043
 20
-14595.91703883282
 30
0.0
 11
20944.56122253672
 21
-14595.91703883282
 31
0.0
  0
LINE
  5
241
330
1F
100
AcDbEntity
  8
Ech.1_5
  6
Continuous
 62
    18
420
        0
370
    20
390
5F
100
AcDbLine
 10
20756.8776593043
 20
-14595.91703883282
 30
0.0
 11
20756.8776593043
 21
-14621.03091899029
 31
0.0
  0
LINE
  5
242
330
1F
100
AcDbEntity
  8
Ech.1_5
  6
Continuous
 62
    18
420
        0
370
    20
390
5F
100
AcDbLine
 10
20944.56122253672
 20
-14595.91703883282
 30
0.0
 11
21122.94513366953
 21
-14595.91703883282
 31
0.0
  0
LINE
  5
243
330
1F
100
AcDbEntity
  8
Ech.1_5
  6
Continuous
 62
    18
420
        0
370
    20
390
5F
100
AcDbLine
 10
20944.56122253672
 20
-14595.91703883282
 30
0.0
 11
20944.56122253672
 21
-14621.03091899029
 31
0.0
  0
LINE
  5
244
330
1F
100
AcDbEntity
  8
Ech.1_5
  6
Continuous
 62
    18
420
        0
370
    20
390
5F
100
AcDbLine
 10
21122.94513366953
 20
-14595.91703883282
 30
0.0
 11
21122.94513366953
 21
-14621.03091899029
 31
0.0
  0
LINE
  5
245
330
1F
100
AcDbEntity
  8
Ech.1_5
  6
Continuous
 62
    18
420
        0
370
    20
390
5F
100
AcDbLine
 10
20563.91023562686
 20
-14621.03091899029
 30
0.0
 11
20756.8776593043
 21
-14621.03091899029
 31
0.0
  0
LINE
  5
246
330
1F
100
AcDbEntity
  8
Ech.1_5
  6
Continuous
 62
    18
420
        0
370
    20
390
5F
100
AcDbLine
 10
20563.91023562686
 20
-14621.03091899029
 30
0.0
 11
20563.91023562686
 21
-14644.8678254234
 31
0.0
  0
LINE
  5
247
330
1F
100
AcDbEntity
  8
Ech.1_5
  6
Continuous
 62
    18
420
        0
370
    20
390
5F
100
AcDbLine
 10
20756.8776593043
 20
-14621.03091899029
 30
0.0
 11
20944.56122253672
 21
-14621.03091899029
 31
0.0
  0
LINE
  5
248
330
1F
100
AcDbEntity
  8
Ech.1_5
  6
Continuous
 62
    18
420
        0
370
    20
390
5F
100
AcDbLine
 10
20756.8776593043
 20
-14621.03091899029
 30
0.0
 11
20756.8776593043
 21
-14644.8678254234
 31
0.0
  0
LINE
  5
249
330
1F
100
AcDbEntity
  8
Ech.1_5
  6
Continuous
 62
    18
420
        0
370
    20
390
5F
100
AcDbLine
 10
20944.56122253672
 20
-14621.03091899029
 30
0.0
 11
21122.94513366953
 21
-14621.03091899029
 31
0.0
  0
LINE
  5
24A
330
1F
100
AcDbEntity
  8
Ech.1_5
  6
Continuous
 62
    18
420
        0
370
    20
390
5F
100
AcDbLine
 10
20944.56122253672
 20
-14621.03091899029
 30
0.0
 11
20944.56122253672
 21
-14644.8678254234
 31
0.0
  0
LINE
  5
24B
330
1F
100
AcDbEntity
  8
Ech.1_5
  6
Continuous
 62
    18
420
        0
370
    20
390
5F
100
AcDbLine
 10
21122.94513366953
 20
-14621.03091899029
 30
0.0
 11
21122.94513366953
 21
-14644.8678254234
 31
0.0
  0
LINE
  5
24C
330
1F
100
AcDbEntity
  8
Ech.1_5
  6
Continuous
 62
    18
420
        0
370
    20
390
5F
100
AcDbLine
 10
20563.91023562686
 20
-14644.8678254234
 30
0.0
 11
20756.8776593043
 21
-14644.8678254234
 31
0.0
  0
LINE
  5
24D
330
1F
100
AcDbEntity
  8
Ech.1_5
  6
Continuous
 62
    18
420
        0
370
    20
390
5F
100
AcDbLine
 10
20563.91023562686
 20
-14644.8678254234
 30
0.0
 11
20563.91023562686
 21
-14669.55604258648
 31
0.0
  0
LINE
  5
24E
330
1F
100
AcDbEntity
  8
Ech.1_5
  6
Continuous
 62
    18
420
        0
370
    20
390
5F
100
AcDbLine
 10
20756.8776593043
 20
-14644.8678254234
 30
0.0
 11
20944.56122253672
 21
-14644.8678254234
 31
0.0
  0
LINE
  5
24F
330
1F
100
AcDbEntity
  8
Ech.1_5
  6
Continuous
 62
    18
420
        0
370
    20
390
5F
100
AcDbLine
 10
20756.8776593043
 20
-14644.8678254234
 30
0.0
 11
20756.8776593043
 21
-14669.55604258648
 31
0.0
  0
LINE
  5
250
330
1F
100
AcDbEntity
  8
Ech.1_5
  6
Continuous
 62
    18
420
        0
370
    20
390
5F
100
AcDbLine
 10
20944.56122253672
 20
-14644.8678254234
 30
0.0
 11
21122.94513366953
 21
-14644.8678254234
 31
0.0
  0
LINE
  5
251
330
1F
100
AcDbEntity
  8
Ech.1_5
  6
Continuous
 62
    18
420
        0
370
    20
390
5F
100
AcDbLine
 10
20944.56122253672
 20
-14644.8678254234
 30
0.0
 11
20944.56122253672
 21
-14669.55604258648
 31
0.0
  0
LINE
  5
252
330
1F
100
AcDbEntity
  8
Ech.1_5
  6
Continuous
 62
    18
420
        0
370
    20
390
5F
100
AcDbLine
 10
21122.94513366953
 20
-14644.8678254234
 30
0.0
 11
21122.94513366953
 21
-14669.55604258648
 31
0.0
  0
LINE
  5
253
330
1F
100
AcDbEntity
  8
Ech.1_5
  6
Continuous
 62
    18
420
        0
370
    20
390
5F
100
AcDbLine
 10
20563.91023562686
 20
-14669.55604258648
 30
0.0
 11
20756.8776593043
 21
-14669.55604258648
 31
0.0
  0
LINE
  5
254
330
1F
100
AcDbEntity
  8
Ech.1_5
  6
Continuous
 62
    18
420
        0
370
    20
390
5F
100
AcDbLine
 10
20563.91023562686
 20
-14669.55604258648
 30
0.0
 11
20563.91023562686
 21
-14694.24426737896
 31
0.0
  0
LINE
  5
255
330
1F
100
AcDbEntity
  8
Ech.1_5
  6
Continuous
 62
    18
420
        0
370
    20
390
5F
100
AcDbLine
 10
20563.91023562686
 20
-14694.24426737896
 30
0.0
 11
20756.8776593043
 21
-14694.24426737896
 31
0.0
  0
LINE
  5
256
330
1F
100
AcDbEntity
  8
Ech.1_5
  6
Continuous
 62
    18
420
        0
370
    20
390
5F
100
AcDbLine
 10
20756.8776593043
 20
-14669.55604258648
 30
0.0
 11
20944.56122253672
 21
-14669.55604258648
 31
0.0
  0
LINE
  5
257
330
1F
100
AcDbEntity
  8
Ech.1_5
  6
Continuous
 62
    18
420
        0
370
    20
390
5F
100
AcDbLine
 10
20756.8776593043
 20
-14669.55604258648
 30
0.0
 11
20756.8776593043
 21
-14694.24426737896
 31
0.0
  0
LINE
  5
258
330
1F
100
AcDbEntity
  8
Ech.1_5
  6
Continuous
 62
    18
420
        0
370
    20
390
5F
100
AcDbLine
 10
20756.8776593043
 20
-14694.24426737896
 30
0.0
 11
20944.56122253672
 21
-14694.24426737896
 31
0.0
  0
LINE
  5
259
330
1F
100
AcDbEntity
  8
Ech.1_5
  6
Continuous
 62
    18
420
        0
370
    20
390
5F
100
AcDbLine
 10
20944.56122253672
 20
-14669.55604258648
 30
0.0
 11
21122.94513366953
 21
-14669.55604258648
 31
0.0
  0
LINE
  5
25A
330
1F
100
AcDbEntity
  8
Ech.1_5
  6
Continuous
 62
    18
420
        0
370
    20
390
5F
100
AcDbLine
 10
20944.56122253672
 20
-14669.55604258648
 30
0.0
 11
20944.56122253672
 21
-14694.24426737896
 31
0.0
  0
LINE
  5
25B
330
1F
100
AcDbEntity
  8
Ech.1_5
  6
Continuous
 62
    18
420
        0
370
    20
390
5F
100
AcDbLine
 10
21122.94513366953
 20
-14669.55604258648
 30
0.0
 11
21122.94513366953
 21
-14694.24426737896
 31
0.0
  0
LINE
  5
25C
330
1F
100
AcDbEntity
  8
Ech.1_5
  6
Continuous
 62
    18
420
        0
370
    20
390
5F
100
AcDbLine
 10
20944.56122253672
 20
-14694.24426737896
 30
0.0
 11
21122.94513366953
 21
-14694.24426737896
 31
0.0
  0
TEXT
  5
25D
330
1F
100
AcDbEntity
  8
Ech.1_5
  6
Continuous
 62
     7
390
5F
100
AcDbText
 10
20568.08616702231
 20
-14587.99534816308
 30
0.0
 40
13.99974787524648
  1
Epaisseur de la lame
 41
0.9939548047767909
  7
arial-
100
AcDbText
  0
TEXT
  5
25E
330
1F
100
AcDbEntity
  8
Ech.1_5
  6
Continuous
 62
     7
390
5F
100
AcDbText
 10
20639.86339564803
 20
-14610.42096312442
 30
0.0
 40
13.64708247075554
  1
(mm)
 41
1.027188131673229
  7
arial-
100
AcDbText
  0
TEXT
  5
25F
330
1F
100
AcDbEntity
  8
Ech.1_5
  6
Continuous
 62
     7
390
5F
100
AcDbText
 10
20775.79936699091
 20
-14591.04925448772
 30
0.0
 40
15.10926987833649
  1
Masse volumique de la lame (kg/m
 41
1.005346577358385
  7
arial-
100
AcDbText
  0
TEXT
  5
260
330
1F
100
AcDbEntity
  8
Ech.1_5
  6
Continuous
 62
     7
390
5F
100
AcDbText
 10
21103.54340948815
 20
-14583.62274783746
 30
0.0
 40
9.588792380109707
  1
3
 41
1.04480023680122
  7
arial-
100
AcDbText
  0
TEXT
  5
261
330
1F
100
AcDbEntity
  8
Ech.1_5
  6
Continuous
 62
     7
390
5F
100
AcDbText
 10
21111.33658691468
 20
-14591.04925448772
 30
0.0
 40
15.10926987833649
  1
)
 41
0.9749529320154244
  7
arial-
100
AcDbText
  0
TEXT
  5
262
330
1F
100
AcDbEntity
  8
Ech.1_5
  6
Continuous
 62
     7
390
5F
100
AcDbText
 10
20830.63543881485
 20
-14615.04355285102
 30
0.0
 40
14.17473656190131
  1
< 600
 41
0.9858318667626798
  7
arial-
100
AcDbText
  0
TEXT
  5
263
330
1F
100
AcDbEntity
  8
Ech.1_5
  6
Continuous
 62
     7
390
5F
100
AcDbText
 10
21013.9431921592
 20
-14616.98715937606
 30
0.0
 40
13.4467440363109
  1
³
 41
0.9972772665729455
  7
symbol-
100
AcDbText
  0
TEXT
  5
264
330
1F
100
AcDbEntity
  8
Ech.1_5
  6
Continuous
 62
     7
390
5F
100
AcDbText
 10
21030.06779283328
 20
-14616.95901835495
 30
0.0
 40
14.17473656190131
  1
600
 41
0.985497156984467
  7
arial-
100
AcDbText
  0
TEXT
  5
265
330
1F
100
AcDbEntity
  8
Ech.1_5
  6
Continuous
 62
     7
390
5F
100
AcDbText
 10
20634.35351135692
 20
-14639.94814808626
 30
0.0
 40
13.96628455363805
  1
21 - 23
 41
0.9991302424108526
  7
arial-
100
AcDbText
  0
TEXT
  5
266
330
1F
100
AcDbEntity
  8
Ech.1_5
  6
Continuous
 62
     7
390
5F
100
AcDbText
 10
20845.29188252156
 20
-14639.94749446556
 30
0.0
 40
14.00473283033666
  1
5
 41
0.957479986250318
  7
arial-
100
AcDbText
  0
TEXT
  5
267
330
1F
100
AcDbEntity
  8
Ech.1_5
  6
Continuous
 62
     7
390
5F
100
AcDbText
 10
21028.32560995882
 20
-14639.94749446556
 30
0.0
 40
14.00473283033666
  1
5
 41
0.957479986250318
  7
arial-
100
AcDbText
  0
TEXT
  5
268
330
1F
100
AcDbEntity
  8
Ech.1_5
  6
Continuous
 62
     7
390
5F
100
AcDbText
 10
20634.35337642305
 20
-14663.80964947215
 30
0.0
 40
13.99078389325465
  1
24 - 27
 41
0.9976158911650291
  7
arial-
100
AcDbText
  0
TEXT
  5
269
330
1F
100
AcDbEntity
  8
Ech.1_5
  6
Continuous
 62
     7
390
5F
100
AcDbText
 10
20845.29188252156
 20
-14663.78439851448
 30
0.0
 40
14.00473283033666
  1
5
 41
0.957479986250318
  7
arial-
100
AcDbText
  0
TEXT
  5
26A
330
1F
100
AcDbEntity
  8
Ech.1_5
  6
Continuous
 62
     7
390
5F
100
AcDbText
 10
21027.94904579875
 20
-14663.78505213518
 30
0.0
 40
13.96628455363805
  1
6
 41
1.007357357655256
  7
arial-
100
AcDbText
  0
TEXT
  5
26B
330
1F
100
AcDbEntity
  8
Ech.1_5
  6
Continuous
 62
     7
390
5F
100
AcDbText
 10
20634.35445411526
 20
-14688.47327418585
 30
0.0
 40
13.96628455363805
  1
28 - 45
 41
0.997483841352266
  7
arial-
100
AcDbText
  0
TEXT
  5
26C
330
1F
100
AcDbEntity
  8
Ech.1_5
  6
Continuous
 62
     7
390
5F
100
AcDbText
 10
20844.91531836149
 20
-14688.47327418585
 30
0.0
 40
13.96628455363805
  1
6
 41
1.007357357655256
  7
arial-
100
AcDbText
  0
TEXT
  5
26D
330
1F
100
AcDbEntity
  8
Ech.1_5
  6
Continuous
 62
     7
390
5F
100
AcDbText
 10
21027.94904579875
 20
-14688.47327418585
 30
0.0
 40
13.96628455363805
  1
6
 41
1.007357357655256
  7
arial-
100
AcDbText
  0
HATCH
  5
26E
330
1F
100
AcDbEntity
  8
Ech.1_5
  6
Continuous
 62
    33
420
 12426362
440
 33554687
370
    20
390
5F
100
AcDbHatch
 10
0.0
 20
0.0
 30
0.0
210
0.0
220
0.0
230
1.0
  2
SOLID
 70
     1
 71
     0
 91
        1
 92
        3
 72
     0
 73
     1
 93
        4
 10
21251.839852822
 20
-14057.45529709113
 10
21030.10926482884
 20
-14057.45529709113
 10
21021.35926482883
 20
-14085.45529709113
 10
21243.08985282199
 20
-14085.45529709113
 97
        0
 75
     0
 76
     1
 98
        0
  0
LWPOLYLINE
  5
26F
330
1F
100
AcDbEntity
  8
Ech.1_5
  6
Continuous
 62
   190
370
     5
390
5F
100
AcDbPolyline
 90
        5
 70
     0
 43
0.0
 10
21251.839852822
 20
-14057.45529709113
 10
21030.10926482884
 20
-14057.45529709113
 10
21021.35926482883
 20
-14085.45529709113
 10
21243.08985282199
 20
-14085.45529709113
 10
21251.839852822
 20
-14057.45529709113
  0
3DFACE
  5
270
102
{ACAD_REACTORS
330
271
102
}
330
1F
100
AcDbEntity
  8
Ech.1_5
  6
Continuous
 62
   190
370
    15
390
5F
100
AcDbFace
 10
21251.839852822
 20
-14057.45529709113
 30
-265.0000000000077
 11
21030.10926482884
 21
-14057.45529709113
 31
-265.0000000000077
 12
21021.35926482883
 22
-14085.45529709113
 32
-265.0000000000077
 13
21243.08985282199
 23
-14085.45529709113
 33
-265.0000000000077
  0
HATCH
  5
272
330
1F
100
AcDbEntity
  8
Ech.1_5
  6
Continuous
 62
    33
420
 12426362
440
 33554687
370
    20
390
5F
100
AcDbHatch
 10
0.0
 20
0.0
 30
0.0
210
0.0
220
0.0
230
1.0
  2
SOLID
 70
     1
 71
     0
 91
        1
 92
        3
 72
     0
 73
     1
 93
        4
 10
21251.839852822
 20
-14299.55919982152
 10
21030.10926482884
 20
-14299.55919982152
 10
21021.35926482883
 20
-14327.55919982152
 10
21243.08985282199
 20
-14327.55919982152
 97
        0
 75
     0
 76
     1
 98
        0
  0
LWPOLYLINE
  5
273
330
1F
100
AcDbEntity
  8
Ech.1_5
  6
Continuous
 62
   190
370
     5
390
5F
100
AcDbPolyline
 90
        5
 70
     0
 43
0.0
 10
21251.839852822
 20
-14299.55919982152
 10
21030.10926482884
 20
-14299.55919982152
 10
21021.35926482883
 20
-14327.55919982152
 10
21243.08985282199
 20
-14327.55919982152
 10
21251.839852822
 20
-14299.55919982152
  0
3DFACE
  5
274
102
{ACAD_REACTORS
330
275
102
}
330
1F
100
AcDbEntity
  8
Ech.1_5
  6
Continuous
 62
   190
370
    15
390
5F
100
AcDbFace
 10
21251.839852822
 20
-14299.55919982152
 30
-265.0000000000077
 11
21030.10926482884
 21
-14299.55919982152
 31
-265.0000000000077
 12
21021.35926482883
 22
-14327.55919982152
 32
-265.0000000000077
 13
21243.08985282199
 23
-14327.55919982152
 33
-265.0000000000077
  0
HATCH
  5
276
330
1F
100
AcDbEntity
  8
Ech.1_5
  6
Continuous
 62
     3
440
 33554687
370
    15
390
5F
100
AcDbHatch
 10
0.0
 20
0.0
 30
0.0
210
0.0
220
0.0
230
1.0
  2
SOLID
 70
     1
 71
     0
 91
        1
 92
        3
 72
     0
 73
     1
 93
        5
 10
20527.72407068928
 20
-13739.35973251658
 10
20527.72407068928
 20
-13740.85973251658
 10
20507.72407068928
 20
-13740.85973251658
 10
20507.72407068928
 20
-13737.85973251658
 10
20527.72407068928
 20
-13737.85973251658
 97
        0
 75
     0
 76
     1
 98
        0
  0
LWPOLYLINE
  5
277
330
1F
100
AcDbEntity
  8
Ech.1_5
  6
Continuous
 62
   190
370
    15
390
5F
100
AcDbPolyline
 90
        6
 70
     0
 43
0.0
 10
20527.72407068928
 20
-13739.35973251658
 10
20527.72407068928
 20
-13740.85973251658
 10
20507.72407068928
 20
-13740.85973251658
 10
20507.72407068928
 20
-13737.85973251658
 10
20527.72407068928
 20
-13737.85973251658
 10
20527.72407068928
 20
-13739.35973251658
  0
HATCH
  5
278
102
{ACAD_REACTORS
330
279
102
}
330
1F
100
AcDbEntity
  8
Ech.1_5
  6
Continuous
 62
     3
440
 33554687
370
    15
390
5F
100
AcDbHatch
 10
0.0
 20
0.0
 30
0.0
210
0.0
220
0.0
230
1.0
  2
SOLID
 70
     1
 71
     0
 91
        1
 92
        3
 72
     0
 73
     1
 93
        5
 10
21137.99854946876
 20
-14329.05919982152
 10
21137.99854946876
 20
-14330.55919982152
 10
21117.99854946876
 20
-14330.55919982152
 10
21117.99854946876
 20
-14327.55919982152
 10
21137.99854946876
 20
-14327.55919982152
 97
        0
 75
     0
 76
     1
 98
        0
  0
LWPOLYLINE
  5
27A
102
{ACAD_REACTORS
330
279
102
}
330
1F
100
AcDbEntity
  8
Ech.1_5
  6
Continuous
 62
   190
370
    15
390
5F
100
AcDbPolyline
 90
        6
 70
     0
 43
0.0
 10
21137.99854946876
 20
-14329.05919982152
 10
21137.99854946876
 20
-14330.55919982152
 10
21117.99854946876
 20
-14330.55919982152
 10
21117.99854946876
 20
-14327.55919982152
 10
21137.99854946876
 20
-14327.55919982152
 10
21137.99854946876
 20
-14329.05919982152
  0
LINE
  5
27B
330
1F
100
AcDbEntity
  8
Ech.1_5
  6
Continuous
 62
    18
420
        0
370
    20
390
5F
100
AcDbLine
 10
20714.10953115791
 20
-13706.87629245399
 30
0.0
 11
20854.23811816543
 21
-13706.87629245399
 31
0.0
  0
LINE
  5
27C
330
1F
100
AcDbEntity
  8
Ech.1_5
  6
Continuous
 62
    18
420
        0
370
    20
390
5F
100
AcDbLine
 10
20714.10953115791
 20
-13706.87629245399
 30
0.0
 11
20714.10953115791
 21
-13733.67989762305
 31
0.0
  0
LINE
  5
27D
330
1F
100
AcDbEntity
  8
Ech.1_5
  6
Continuous
 62
    18
420
        0
370
    20
390
5F
100
AcDbLine
 10
20854.23811816543
 20
-13706.87629245399
 30
0.0
 11
21010.00700854629
 21
-13706.87629245399
 31
0.0
  0
LINE
  5
27E
330
1F
100
AcDbEntity
  8
Ech.1_5
  6
Continuous
 62
    18
420
        0
370
    20
390
5F
100
AcDbLine
 10
20854.23811816543
 20
-13706.87629245399
 30
0.0
 11
20854.23811816543
 21
-13733.67989762305
 31
0.0
  0
LINE
  5
27F
330
1F
100
AcDbEntity
  8
Ech.1_5
  6
Continuous
 62
    18
420
        0
370
    20
390
5F
100
AcDbLine
 10
21010.00700854629
 20
-13706.87629245399
 30
0.0
 11
21155.41948413223
 21
-13706.87629245399
 31
0.0
  0
LINE
  5
280
330
1F
100
AcDbEntity
  8
Ech.1_5
  6
Continuous
 62
    18
420
        0
370
    20
390
5F
100
AcDbLine
 10
21010.00700854629
 20
-13706.87629245399
 30
0.0
 11
21010.00700854629
 21
-13733.67989762305
 31
0.0
  0
LINE
  5
281
330
1F
100
AcDbEntity
  8
Ech.1_5
  6
Continuous
 62
    18
420
        0
370
    20
390
5F
100
AcDbLine
 10
21155.41948413223
 20
-13706.87629245399
 30
0.0
 11
21291.74367236465
 21
-13706.87629245399
 31
0.0
  0
LINE
  5
282
330
1F
100
AcDbEntity
  8
Ech.1_5
  6
Continuous
 62
    18
420
        0
370
    20
390
5F
100
AcDbLine
 10
21155.41948413223
 20
-13706.87629245399
 30
0.0
 11
21155.41948413223
 21
-13733.67989762305
 31
0.0
  0
LINE
  5
283
330
1F
100
AcDbEntity
  8
Ech.1_5
  6
Continuous
 62
    18
420
        0
370
    20
390
5F
100
AcDbLine
 10
21291.74367236465
 20
-13706.87629245399
 30
0.0
 11
21291.74367236465
 21
-13733.67989762305
 31
0.0
  0
LINE
  5
284
330
1F
100
AcDbEntity
  8
Ech.1_5
  6
Continuous
 62
    18
420
        0
370
    20
390
5F
100
AcDbLine
 10
20714.10953115791
 20
-13733.67989762305
 30
0.0
 11
20854.23811816543
 21
-13733.67989762305
 31
0.0
  0
LINE
  5
285
330
1F
100
AcDbEntity
  8
Ech.1_5
  6
Continuous
 62
    18
420
        0
370
    20
390
5F
100
AcDbLine
 10
20714.10953115791
 20
-13733.67989762305
 30
0.0
 11
20714.10953115791
 21
-13757.50532372473
 31
0.0
  0
LINE
  5
286
330
1F
100
AcDbEntity
  8
Ech.1_5
  6
Continuous
 62
    18
420
        0
370
    20
390
5F
100
AcDbLine
 10
20854.23811816543
 20
-13733.67989762305
 30
0.0
 11
21010.00700854629
 21
-13733.67989762305
 31
0.0
  0
LINE
  5
287
330
1F
100
AcDbEntity
  8
Ech.1_5
  6
Continuous
 62
    18
420
        0
370
    20
390
5F
100
AcDbLine
 10
20854.23811816543
 20
-13733.67989762305
 30
0.0
 11
20854.23811816543
 21
-13757.50532372473
 31
0.0
  0
LINE
  5
288
330
1F
100
AcDbEntity
  8
Ech.1_5
  6
Continuous
 62
    18
420
        0
370
    20
390
5F
100
AcDbLine
 10
21010.00700854629
 20
-13733.67989762305
 30
0.0
 11
21155.41948413223
 21
-13733.67989762305
 31
0.0
  0
LINE
  5
289
330
1F
100
AcDbEntity
  8
Ech.1_5
  6
Continuous
 62
    18
420
        0
370
    20
390
5F
100
AcDbLine
 10
21010.00700854629
 20
-13733.67989762305
 30
0.0
 11
21010.00700854629
 21
-13781.33075173377
 31
0.0
  0
LINE
  5
28A
330
1F
100
AcDbEntity
  8
Ech.1_5
  6
Continuous
 62
    18
420
        0
370
    20
390
5F
100
AcDbLine
 10
21155.41948413223
 20
-13733.67989762305
 30
0.0
 11
21291.74367236465
 21
-13733.67989762305
 31
0.0
  0
LINE
  5
28B
330
1F
100
AcDbEntity
  8
Ech.1_5
  6
Continuous
 62
    18
420
        0
370
    20
390
5F
100
AcDbLine
 10
21155.41948413223
 20
-13733.67989762305
 30
0.0
 11
21155.41948413223
 21
-13781.33075173377
 31
0.0
  0
LINE
  5
28C
330
1F
100
AcDbEntity
  8
Ech.1_5
  6
Continuous
 62
    18
420
        0
370
    20
390
5F
100
AcDbLine
 10
21291.74367236465
 20
-13733.67989762305
 30
0.0
 11
21291.74367236465
 21
-13781.33075173377
 31
0.0
  0
LINE
  5
28D
330
1F
100
AcDbEntity
  8
Ech.1_5
  6
Continuous
 62
    18
420
        0
370
    20
390
5F
100
AcDbLine
 10
20714.10953115791
 20
-13757.50532372473
 30
0.0
 11
20854.23811816543
 21
-13757.50532372473
 31
0.0
  0
LINE
  5
28E
330
1F
100
AcDbEntity
  8
Ech.1_5
  6
Continuous
 62
    18
420
        0
370
    20
390
5F
100
AcDbLine
 10
20714.10953115791
 20
-13757.50532372473
 30
0.0
 11
20714.10953115791
 21
-13781.33075173377
 31
0.0
  0
LINE
  5
28F
330
1F
100
AcDbEntity
  8
Ech.1_5
  6
Continuous
 62
    18
420
        0
370
    20
390
5F
100
AcDbLine
 10
20854.23811816543
 20
-13757.50532372473
 30
0.0
 11
21010.00700854629
 21
-13757.50532372473
 31
0.0
  0
LINE
  5
290
330
1F
100
AcDbEntity
  8
Ech.1_5
  6
Continuous
 62
    18
420
        0
370
    20
390
5F
100
AcDbLine
 10
20854.23811816543
 20
-13757.50532372473
 30
0.0
 11
20854.23811816543
 21
-13781.33075173377
 31
0.0
  0
LINE
  5
291
330
1F
100
AcDbEntity
  8
Ech.1_5
  6
Continuous
 62
    18
420
        0
370
    20
390
5F
100
AcDbLine
 10
20714.10953115791
 20
-13781.33075173377
 30
0.0
 11
20854.23811816543
 21
-13781.33075173377
 31
0.0
  0
LINE
  5
292
330
1F
100
AcDbEntity
  8
Ech.1_5
  6
Continuous
 62
    18
420
        0
370
    20
390
5F
100
AcDbLine
 10
20714.10953115791
 20
-13781.33075173377
 30
0.0
 11
20714.10953115791
 21
-13806.00708992957
 31
0.0
  0
LINE
  5
293
330
1F
100
AcDbEntity
  8
Ech.1_5
  6
Continuous
 62
    18
420
        0
370
    20
390
5F
100
AcDbLine
 10
20854.23811816543
 20
-13781.33075173377
 30
0.0
 11
21010.00700854629
 21
-13781.33075173377
 31
0.0
  0
LINE
  5
294
330
1F
100
AcDbEntity
  8
Ech.1_5
  6
Continuous
 62
    18
420
        0
370
    20
390
5F
100
AcDbLine
 10
20854.23811816543
 20
-13781.33075173377
 30
0.0
 11
20854.23811816543
 21
-13806.00708992957
 31
0.0
  0
LINE
  5
295
330
1F
100
AcDbEntity
  8
Ech.1_5
  6
Continuous
 62
    18
420
        0
370
    20
390
5F
100
AcDbLine
 10
21010.00700854629
 20
-13781.33075173377
 30
0.0
 11
21155.41948413223
 21
-13781.33075173377
 31
0.0
  0
LINE
  5
296
330
1F
100
AcDbEntity
  8
Ech.1_5
  6
Continuous
 62
    18
420
        0
370
    20
390
5F
100
AcDbLine
 10
21010.00700854629
 20
-13781.33075173377
 30
0.0
 11
21010.00700854629
 21
-13830.68342049597
 31
0.0
  0
LINE
  5
297
330
1F
100
AcDbEntity
  8
Ech.1_5
  6
Continuous
 62
    18
420
        0
370
    20
390
5F
100
AcDbLine
 10
21010.00700854629
 20
-13830.68342049597
 30
0.0
 11
21155.41948413223
 21
-13830.68342049597
 31
0.0
  0
LINE
  5
298
330
1F
100
AcDbEntity
  8
Ech.1_5
  6
Continuous
 62
    18
420
        0
370
    20
390
5F
100
AcDbLine
 10
21155.41948413223
 20
-13781.33075173377
 30
0.0
 11
21291.74367236465
 21
-13781.33075173377
 31
0.0
  0
LINE
  5
299
330
1F
100
AcDbEntity
  8
Ech.1_5
  6
Continuous
 62
    18
420
        0
370
    20
390
5F
100
AcDbLine
 10
21155.41948413223
 20
-13781.33075173377
 30
0.0
 11
21155.41948413223
 21
-13830.68342049597
 31
0.0
  0
LINE
  5
29A
330
1F
100
AcDbEntity
  8
Ech.1_5
  6
Continuous
 62
    18
420
        0
370
    20
390
5F
100
AcDbLine
 10
21291.74367236465
 20
-13781.33075173377
 30
0.0
 11
21291.74367236465
 21
-13830.68342049597
 31
0.0
  0
LINE
  5
29B
330
1F
100
AcDbEntity
  8
Ech.1_5
  6
Continuous
 62
    18
420
        0
370
    20
390
5F
100
AcDbLine
 10
21155.41948413223
 20
-13830.68342049597
 30
0.0
 11
21291.74367236465
 21
-13830.68342049597
 31
0.0
  0
LINE
  5
29C
330
1F
100
AcDbEntity
  8
Ech.1_5
  6
Continuous
 62
    18
420
        0
370
    20
390
5F
100
AcDbLine
 10
20714.10953115791
 20
-13806.00708992957
 30
0.0
 11
20854.23811816543
 21
-13806.00708992957
 31
0.0
  0
LINE
  5
29D
330
1F
100
AcDbEntity
  8
Ech.1_5
  6
Continuous
 62
    18
420
        0
370
    20
390
5F
100
AcDbLine
 10
20714.10953115791
 20
-13806.00708992957
 30
0.0
 11
20714.10953115791
 21
-13830.68342049597
 31
0.0
  0
LINE
  5
29E
330
1F
100
AcDbEntity
  8
Ech.1_5
  6
Continuous
 62
    18
420
        0
370
    20
390
5F
100
AcDbLine
 10
20714.10953115791
 20
-13830.68342049597
 30
0.0
 11
20854.23811816543
 21
-13830.68342049597
 31
0.0
  0
LINE
  5
29F
330
1F
100
AcDbEntity
  8
Ech.1_5
  6
Continuous
 62
    18
420
        0
370
    20
390
5F
100
AcDbLine
 10
20854.23811816543
 20
-13806.00708992957
 30
0.0
 11
21010.00700854629
 21
-13806.00708992957
 31
0.0
  0
LINE
  5
2A0
330
1F
100
AcDbEntity
  8
Ech.1_5
  6
Continuous
 62
    18
420
        0
370
    20
390
5F
100
AcDbLine
 10
20854.23811816543
 20
-13806.00708992957
 30
0.0
 11
20854.23811816543
 21
-13830.68342049597
 31
0.0
  0
LINE
  5
2A1
330
1F
100
AcDbEntity
  8
Ech.1_5
  6
Continuous
 62
    18
420
        0
370
    20
390
5F
100
AcDbLine
 10
20854.23811816543
 20
-13830.68342049597
 30
0.0
 11
21010.00700854629
 21
-13830.68342049597
 31
0.0
  0
TEXT
  5
2A2
330
1F
100
AcDbEntity
  8
Ech.1_5
  6
Continuous
 62
     7
390
5F
100
AcDbText
 10
20764.47422140429
 20
-13725.79727258083
 30
0.0
 40
14.02825854836017
  1
Lame
 41
0.9905558169363115
  7
arial-
100
AcDbText
  0
TEXT
  5
2A3
330
1F
100
AcDbEntity
  8
Ech.1_5
  6
Continuous
 62
     7
390
5F
100
AcDbText
 10
20901.45492511879
 20
-13728.38128498963
 30
0.0
 40
15.28872746450271
  1
Support
 41
0.9936007391459478
  7
arial-
100
AcDbText
  0
TEXT
  5
2A4
330
1F
100
AcDbEntity
  8
Ech.1_5
  6
Continuous
 62
     7
390
5F
100
AcDbText
 10
21032.86138313768
 20
-13725.74814900105
 30
0.0
 40
13.95463322883885
  1
Ancrage (S)
 41
1.003039089869248
  7
arial-
100
AcDbText
  0
TEXT
  5
2A5
330
1F
100
AcDbEntity
  8
Ech.1_5
  6
Continuous
 62
     7
390
5F
100
AcDbText
 10
21182.18317876101
 20
-13727.32536789158
 30
0.0
 40
15.10199491531794
  1
Talon (R)
 41
1.005584197256638
  7
arial-
100
AcDbText
  0
TEXT
  5
2A6
330
1F
100
AcDbEntity
  8
Ech.1_5
  6
Continuous
 62
     7
390
5F
100
AcDbText
 10
20747.66416743127
 20
-13752.59864330158
 30
0.0
 40
14.16791156737041
  1
Résineux
 41
0.9819569378753187
  7
arial-
100
AcDbText
  0
TEXT
  5
2A7
330
1F
100
AcDbEntity
  8
Ech.1_5
  6
Continuous
 62
     7
390
5F
100
AcDbText
 10
20895.612907854
 20
-13752.59864330158
 30
0.0
 40
14.16791156737041
  1
Résineux
 41
0.9819569378753187
  7
arial-
100
AcDbText
  0
TEXT
  5
2A8
330
1F
100
AcDbEntity
  8
Ech.1_5
  6
Continuous
 62
     7
390
5F
100
AcDbText
 10
21043.14933990949
 20
-13754.49854932144
 30
0.0
 40
14.19551715225961
  1
S
 41
0.9750903411245094
  7
arial-
100
AcDbText
  0
TEXT
  5
2A9
330
1F
100
AcDbEntity
  8
Ech.1_5
  6
Continuous
 62
     7
390
5F
100
AcDbText
 10
21060.79578163434
 20
-13754.60751723082
 30
0.0
 40
13.50919211169531
  1
³ 1,5
 41
0.9822403862599974
  7
symbol-
100
AcDbText
  0
TEXT
  5
2AA
330
1F
100
AcDbEntity
  8
Ech.1_5
  6
Continuous
 62
     7
390
5F
100
AcDbText
 10
21105.61196398169
 20
-13754.51506251841
 30
0.0
 40
14.05066216322673
  1
x e
 41
0.9894093474265879
  7
arial-
100
AcDbText
  0
TEXT
  5
2AB
330
1F
100
AcDbEntity
  8
Ech.1_5
  6
Continuous
 62
     7
390
5F
100
AcDbText
 10
21039.98777400469
 20
-13771.37718512848
 30
0.0
 40
10.29324315247997
  1
tolérance 5%
 41
0.9838657639110164
  7
arial-
100
AcDbText
  0
TEXT
  5
2AC
330
1F
100
AcDbEntity
  8
Ech.1_5
  6
Continuous
 62
     7
390
5F
100
AcDbText
 10
21189.41956593457
 20
-13754.52714608787
 30
0.0
 40
14.25271068513393
  1
R
 41
0.9616161381135613
  7
arial-
100
AcDbText
  0
TEXT
  5
2AD
330
1F
100
AcDbEntity
  8
Ech.1_5
  6
Continuous
 62
     7
390
5F
100
AcDbText
 10
21208.10439913014
 20
-13754.52714608787
 30
0.0
 40
13.44026956293318
  1
³
 41
0.9977576769607279
  7
symbol-
100
AcDbText
  0
TEXT
  5
2AE
330
1F
100
AcDbEntity
  8
Ech.1_5
  6
Continuous
 62
     7
390
5F
100
AcDbText
 10
21223.95145837709
 20
-13754.49901861638
 30
0.0
 40
14.16791156737041
  1
8 mm
 41
0.9814401184343314
  7
arial-
100
AcDbText
  0
TEXT
  5
2AF
330
1F
100
AcDbEntity
  8
Ech.1_5
  6
Continuous
 62
     7
390
5F
100
AcDbText
 10
20747.66416743127
 20
-13776.42407011852
 30
0.0
 40
14.16791156737041
  1
Résineux
 41
0.9819569378753187
  7
arial-
100
AcDbText
  0
TEXT
  5
2B0
330
1F
100
AcDbEntity
  8
Ech.1_5
  6
Continuous
 62
     7
390
5F
100
AcDbText
 10
20908.01612388872
 20
-13776.42295453494
 30
0.0
 40
14.23763554161928
  1
Feuillu
 41
0.9754306045008861
  7
arial-
100
AcDbText
  0
TEXT
  5
2B1
330
1F
100
AcDbEntity
  8
Ech.1_5
  6
Continuous
 62
     7
390
5F
100
AcDbText
 10
20760.06738346599
 20
-13800.46110837703
 30
0.0
 40
14.23763554161928
  1
Feuillu
 41
0.9754306045008861
  7
arial-
100
AcDbText
  0
TEXT
  5
2B2
330
1F
100
AcDbEntity
  8
Ech.1_5
  6
Continuous
 62
     7
390
5F
100
AcDbText
 10
20908.01612388872
 20
-13800.46110837703
 30
0.0
 40
14.23763554161928
  1
Feuillu
 41
0.9754306045008861
  7
arial-
100
AcDbText
  0
TEXT
  5
2B3
330
1F
100
AcDbEntity
  8
Ech.1_5
  6
Continuous
 62
     7
390
5F
100
AcDbText
 10
21043.14933990949
 20
-13802.14940295532
 30
0.0
 40
14.19551715225961
  1
S
 41
0.9750903411245094
  7
arial-
100
AcDbText
  0
TEXT
  5
2B4
330
1F
100
AcDbEntity
  8
Ech.1_5
  6
Continuous
 62
     7
390
5F
100
AcDbText
 10
21060.79678672185
 20
-13802.08771043777
 30
0.0
 40
13.3381896799017
  1
³ 2,2
 41
0.9930807903971696
  7
symbol-
100
AcDbText
  0
TEXT
  5
2B5
330
1F
100
AcDbEntity
  8
Ech.1_5
  6
Continuous
 62
     7
390
5F
100
AcDbText
 10
21105.61196398169
 20
-13802.1614199404
 30
0.0
 40
14.33167540649127
  1
x e
 41
0.9700091641437136
  7
arial-
100
AcDbText
  0
TEXT
  5
2B6
330
1F
100
AcDbEntity
  8
Ech.1_5
  6
Continuous
 62
     7
390
5F
100
AcDbText
 10
21039.98777400469
 20
-13819.02803876236
 30
0.0
 40
10.29324315247997
  1
tolérance 5%
 41
0.9838657639110164
  7
arial-
100
AcDbText
  0
TEXT
  5
2B7
330
1F
100
AcDbEntity
  8
Ech.1_5
  6
Continuous
 62
     7
390
5F
100
AcDbText
 10
21189.41956593457
 20
-13801.9652726966
 30
0.0
 40
14.03998365998268
  1
R
 41
0.9761860796001305
  7
arial-
100
AcDbText
  0
TEXT
  5
2B8
330
1F
100
AcDbEntity
  8
Ech.1_5
  6
Continuous
 62
     7
390
5F
100
AcDbText
 10
21208.10439913014
 20
-13801.9652726966
 30
0.0
 40
13.20854077736537
  1
³
 41
1.015262197609162
  7
symbol-
100
AcDbText
  0
TEXT
  5
2B9
330
1F
100
AcDbEntity
  8
Ech.1_5
  6
Continuous
 62
     7
390
5F
100
AcDbText
 10
21223.93731217365
 20
-13802.14987225026
 30
0.0
 40
14.16791156737041
  1
0 mm
 41
0.981733699085972
  7
arial-
100
AcDbText
  0
TEXT
  5
2BA
330
1F
100
AcDbEntity
  8
Ech.1_5
  6
Continuous
 62
     7
390
5F
100
AcDbText
 10
20760.06738346599
 20
-13824.92806630131
 30
0.0
 40
14.02825854836017
  1
Feuillu
 41
0.9899892702397055
  7
arial-
100
AcDbText
  0
TEXT
  5
2BB
330
1F
100
AcDbEntity
  8
Ech.1_5
  6
Continuous
 62
     7
390
5F
100
AcDbText
 10
20895.612907854
 20
-13824.92916547926
 30
0.0
 40
13.95955992667378
  1
Résineux
 41
0.9966130115749503
  7
arial-
100
AcDbText
  0
HATCH
  5
2BC
330
1F
100
AcDbEntity
  8
Ech.1_5
  6
Continuous
 62
     3
440
 33554687
370
    15
390
5F
100
AcDbHatch
 10
0.0
 20
0.0
 30
0.0
210
0.0
220
0.0
230
1.0
  2
SOLID
 70
     1
 71
     0
 91
        1
 92
        3
 72
     0
 73
     1
 93
        5
 10
21138.08995407306
 20
-14086.95529709113
 10
21138.08995407306
 20
-14088.45529709113
 10
21118.08995407306
 20
-14088.45529709113
 10
21118.08995407306
 20
-14085.45529709113
 10
21138.08995407306
 20
-14085.45529709113
 97
        0
 75
     0
 76
     1
 98
        0
  0
LWPOLYLINE
  5
2BD
330
1F
100
AcDbEntity
  8
Ech.1_5
  6
Continuous
 62
   190
370
    15
390
5F
100
AcDbPolyline
 90
        6
 70
     0
 43
0.0
 10
21138.08995407306
 20
-14086.95529709113
 10
21138.08995407306
 20
-14088.45529709113
 10
21118.08995407306
 20
-14088.45529709113
 10
21118.08995407306
 20
-14085.45529709113
 10
21138.08995407306
 20
-14085.45529709113
 10
21138.08995407306
 20
-14086.95529709113
  0
TEXT
  5
2BE
330
1F
100
AcDbEntity
  8
Ech.1_5
  6
Continuous
 62
     7
390
5F
100
AcDbText
 10
20431.75987328715
 20
-13841.36687839203
 30
0.0
 40
12.57543321137085
  1
Longueur de vis
 41
0.9931946998719025
  7
arial-
100
AcDbText
  0
TEXT
  5
2BF
330
1F
100
AcDbEntity
  8
Ech.1_5
  6
Continuous
 62
     7
390
5F
100
AcDbText
 10
20565.15243522566
 20
-13841.4616024344
 30
0.0
 40
11.50159518313564
  1
³
 41
1.036772150900025
  7
symbol-
100
AcDbText
  0
TEXT
  5
2C0
330
1F
100
AcDbEntity
  8
Ech.1_5
  6
Continuous
 62
     7
390
5F
100
AcDbText
 10
20579.20570934565
 20
-13841.45751792207
 30
0.0
 40
12.6619882290783
  1
S+3+e
 41
0.9847453083821031
  7
arial-
100
AcDbText
  0
LWPOLYLINE
  5
2C1
330
1F
100
AcDbEntity
  8
Ech.1_5
  6
Continuous
 62
     5
370
    50
390
5F
100
AcDbPolyline
 90
        4
 70
     0
 43
0.0
 10
20487.72407068928
 20
-13750.85973251669
 10
20487.72407068928
 20
-13740.85973251669
 10
20547.72407068928
 20
-13740.85973251669
 10
20547.72407068928
 20
-13750.85973251669
  0
LWPOLYLINE
  5
2C2
330
1F
100
AcDbEntity
  8
Ech.1_5
  6
Continuous
 62
     5
370
    50
390
5F
100
AcDbPolyline
 90
        4
 70
     0
 43
0.0
 10
21098.08995407306
 20
-14098.45529709125
 10
21098.08995407306
 20
-14088.45529709125
 10
21158.08995407306
 20
-14088.45529709125
 10
21158.08995407306
 20
-14098.45529709125
  0
LWPOLYLINE
  5
2C3
330
1F
100
AcDbEntity
  8
Ech.1_5
  6
Continuous
 62
     5
370
    50
390
5F
100
AcDbPolyline
 90
        4
 70
     0
 43
0.0
 10
21097.99854946876
 20
-14340.55919982164
 10
21097.99854946876
 20
-14330.55919982164
 10
21157.99854946876
 20
-14330.55919982164
 10
21157.99854946876
 20
-14340.55919982164
  0
LWPOLYLINE
  5
2C4
102
{ACAD_REACTORS
330
22D
330
22E
330
22F
102
}
330
1F
100
AcDbEntity
  8
Ech.1_5
  6
Continuous
 62
   190
370
    15
390
5F
100
AcDbPolyline
 90
        5
 70
     0
 43
0.0
 10
21333.47353496286
 20
-13603.39225556166
 10
20348.47353496285
 20
-13603.39225556166
 10
20348.47353496285
 20
-13507.87529255589
 10
21333.47353496286
 20
-13507.87529255589
 10
21333.47353496286
 20
-13603.39225556166
  0
LWPOLYLINE
  5
2C5
102
{ACAD_REACTORS
330
22D
330
22E
330
22F
102
}
330
1F
100
AcDbEntity
  8
Ech.1_5
  6
Continuous
 62
   190
370
    15
390
5F
100
AcDbPolyline
 90
        5
 70
     0
 43
0.0
 10
21333.47353496286
 20
-14747.46222049068
 10
20348.47353496285
 20
-14747.46222049068
 10
20348.47353496285
 20
-14725.46222049068
 10
21333.47353496286
 20
-14725.46222049068
 10
21333.47353496286
 20
-14747.46222049068
  0
LWPOLYLINE
  5
2C6
102
{ACAD_REACTORS
330
22D
330
22E
330
22F
102
}
330
1F
100
AcDbEntity
  8
Ech.1_5
  6
Continuous
 62
   190
370
    15
390
5F
100
AcDbPolyline
 90
        5
 70
     0
 43
0.0
 10
21333.47353496286
 20
-14804.33336572116
 10
20348.47353496285
 20
-14804.33336572116
 10
20348.47353496285
 20
-14780.6063374104
 10
21333.47353496286
 20
-14780.6063374104
 10
21333.47353496286
 20
-14804.33336572116
  0
LINE
  5
2C7
330
1F
100
AcDbEntity
  8
Ech.1_5
  6
Continuous
 62
   190
370
    20
390
5F
100
AcDbLine
 10
21010.41265548219
 20
-14120.4844470004
 30
0.0
 11
21040.02854763877
 21
-14025.71359209935
 31
0.0
  0
LINE
  5
2C8
330
1F
100
AcDbEntity
  8
Ech.1_5
  6
Continuous
 62
   190
370
    20
390
5F
100
AcDbLine
 10
21232.14324347535
 20
-14120.4844470004
 30
0.0
 11
21261.75913563193
 21
-14025.71359209935
 31
0.0
  0
LINE
  5
2C9
330
1F
100
AcDbEntity
  8
Ech.1_5
  6
Continuous
 62
   190
370
    20
390
5F
100
AcDbLine
 10
21010.41265548219
 20
-14362.5883497308
 30
0.0
 11
21040.02854763877
 21
-14267.81749482974
 31
0.0
  0
LWPOLYLINE
  5
2CA
102
{ACAD_REACTORS
330
22F
102
}
330
1F
100
AcDbEntity
  8
Ech.1_5
  6
Continuous
 62
   190
370
    15
390
5F
100
AcDbPolyline
 90
        5
 70
     0
 43
0.0
 10
21333.47353496286
 20
-14862.87529255589
 10
21333.47353496286
 20
-13507.87529255589
 10
20348.47353496285
 20
-13507.87529255589
 10
20348.47353496285
 20
-14862.87529255589
 10
21333.47353496286
 20
-14862.87529255589
  0
LINE
  5
2CB
102
{ACAD_REACTORS
330
22D
330
22E
330
22F
102
}
330
1F
100
AcDbEntity
  8
Ech.1_5
  6
Continuous
 62
   190
370
    15
390
5F
100
AcDbLine
 10
20536.67809692582
 20
-14725.46222049068
 30
0.0
 11
20536.67809692582
 21
-14747.46222049068
 31
0.0
  0
LINE
  5
2CC
102
{ACAD_REACTORS
330
22D
330
22E
330
22F
102
}
330
1F
100
AcDbEntity
  8
Ech.1_5
  6
Continuous
 62
   190
370
    15
390
5F
100
AcDbLine
 10
21193.67619955636
 20
-14725.46222049068
 30
0.0
 11
21193.67619955636
 21
-14747.46222049068
 31
0.0
  0
LINE
  5
2CD
102
{ACAD_REACTORS
330
22D
330
22E
330
22F
102
}
330
1F
100
AcDbEntity
  8
Ech.1_5
  6
Continuous
 62
   190
370
    15
390
5F
100
AcDbLine
 10
20692.83331492118
 20
-14725.46222049068
 30
0.0
 11
20692.83331492118
 21
-14747.46222049068
 31
0.0
  0
LINE
  5
2CE
330
1F
100
AcDbEntity
  8
Ech.1_5
  6
Continuous
 62
   190
370
    20
390
5F
100
AcDbLine
 10
20400.13817670271
 20
-13772.88888242585
 30
0.0
 11
20429.75406885929
 21
-13678.11802752479
 31
0.0
  0
LINE
  5
2CF
330
1F
100
AcDbEntity
  8
Ech.1_5
  6
Continuous
 62
   190
370
    20
390
5F
100
AcDbLine
 10
20621.86876469586
 20
-13772.88888242585
 30
0.0
 11
20651.48465685244
 21
-13678.11802752479
 31
0.0
  0
LINE
  5
2D0
330
1F
100
AcDbEntity
  8
Ech.1_5
  6
Continuous
 62
   190
370
    20
390
5F
100
AcDbLine
 10
21232.14324347535
 20
-14362.5883497308
 30
0.0
 11
21261.75913563193
 21
-14267.81749482974
 31
0.0
  0
LINE
  5
2D1
102
{ACAD_REACTORS
330
2D2
102
}
330
1F
100
AcDbEntity
  8
ASSY
  6
ByBlock
 62
   190
370
    15
390
5F
100
AcDbLine
 10
21126.1497625007
 20
-14083.45232838797
 30
0.0
 11
21126.13721135182
 21
-14091.57121481837
 31
0.0
  0
LINE
  5
2D3
102
{ACAD_REACTORS
330
2D2
102
}
330
1F
100
AcDbEntity
  8
ASSY
  6
ByBlock
 62
   190
370
    15
390
5F
100
AcDbLine
 10
21129.94975790289
 20
-14083.45820287685
 30
0.0
 11
21129.94611941464
 21
-14089.37284188278
 31
0.0
  0
LINE
  5
2D4
102
{ACAD_REACTORS
330
2D5
102
}
330
1F
100
AcDbEntity
  8
ASSY
 62
   190
370
    15
390
5F
100
AcDbLine
 10
20519.73981823899
 20
-13734.83132222484
 30
0.0
 11
20519.58546412606
 21
-13735.85652641964
 31
0.0
  0
LINE
  5
2D6
102
{ACAD_REACTORS
330
2D7
102
}
330
1F
100
AcDbEntity
  8
ASSY
 62
   190
370
    15
390
5F
100
AcDbLine
 10
21130.10570162277
 20
-14082.4268867994
 30
0.0
 11
21129.95134750984
 21
-14083.45209099419
 31
0.0
  0
LINE
  5
2D8
102
{ACAD_REACTORS
330
2D9
102
}
330
1F
100
AcDbEntity
  8
ASSY
 62
   190
370
    15
390
5F
100
AcDbLine
 10
21130.01429701848
 20
-14324.53078952979
 30
0.0
 11
21129.85994290555
 21
-14325.55599372459
 31
0.0
  0
LINE
  5
2DA
102
{ACAD_REACTORS
330
2D5
102
}
330
1F
100
AcDbEntity
  8
ASSY
 62
   190
370
    15
390
5F
100
AcDbLine
 10
20515.63111007019
 20
-13734.83132222484
 30
0.0
 11
20515.78546418313
 21
-13735.85652641964
 31
0.0
  0
LINE
  5
2DB
102
{ACAD_REACTORS
330
2D7
102
}
330
1F
100
AcDbEntity
  8
ASSY
 62
   190
370
    15
390
5F
100
AcDbLine
 10
21125.99699345397
 20
-14082.4268867994
 30
0.0
 11
21126.15134756692
 21
-14083.45209099419
 31
0.0
  0
LINE
  5
2DC
102
{ACAD_REACTORS
330
2D9
102
}
330
1F
100
AcDbEntity
  8
ASSY
 62
   190
370
    15
390
5F
100
AcDbLine
 10
21125.90558884967
 20
-14324.53078952979
 30
0.0
 11
21126.05994296262
 21
-14325.55599372459
 31
0.0
  0
LWPOLYLINE
  5
2DD
102
{ACAD_REACTORS
330
2DE
102
}
330
1F
100
AcDbEntity
  8
Ech.1_5
  6
Continuous
 62
   190
370
    20
390
5F
100
AcDbPolyline
 90
        5
 70
     0
 43
0.0
 10
20409.34731122325
 20
-13844.00008337121
 10
20422.77666723875
 20
-13844.00008337121
 10
20409.34731122325
 20
-13820.97833020179
 10
20395.91795520777
 20
-13844.00008337121
 10
20409.34731122325
 20
-13844.00008337121
  0
LINE
  5
2DF
102
{ACAD_REACTORS
330
2E0
102
}
330
1F
100
AcDbEntity
  8
ASSY
  6
ByBlock
 62
   190
370
    15
390
5F
100
AcDbLine
 10
20515.73589294032
 20
-13766.89729420783
 30
0.0
 11
20515.73038350001
 21
-13770.4611528336
 31
0.0
  0
LINE
  5
2E1
102
{ACAD_REACTORS
330
2E0
102
}
330
1F
100
AcDbEntity
  8
ASSY
  6
ByBlock
 62
   190
370
    15
390
5F
100
AcDbLine
 10
20519.53899767166
 20
-13764.89185558658
 30
0.0
 11
20519.53246748481
 21
-13769.11599840451
 31
0.0
  0
LINE
  5
2E2
102
{ACAD_REACTORS
330
2E0
102
}
330
1F
100
AcDbEntity
  8
ASSY
  6
ByBlock
 62
   190
370
    15
390
5F
100
AcDbLine
 10
20515.72906886231
 20
-13771.31154463947
 30
0.0
 11
20514.62386487907
 21
-13770.85263246155
 31
0.0
  0
LINE
  5
2E3
102
{ACAD_REACTORS
330
2E0
102
}
330
1F
100
AcDbEntity
  8
ASSY
  6
ByBlock
 62
   190
370
    15
390
5F
100
AcDbLine
 10
20519.53378649236
 20
-13768.26277989804
 30
0.0
 11
20520.6271553814
 21
-13768.72870441561
 31
0.0
  0
LINE
  5
2E4
102
{ACAD_REACTORS
330
2E0
102
}
330
1F
100
AcDbEntity
  8
ASSY
  6
ByBlock
 62
   190
370
    15
390
5F
100
AcDbLine
 10
20514.62386487907
 20
-13770.85263246155
 30
0.0
 11
20520.6271553814
 21
-13768.72870441561
 31
0.0
  0
LINE
  5
2E5
102
{ACAD_REACTORS
330
2E0
102
}
330
1F
100
AcDbEntity
  8
ASSY
  6
ByBlock
 62
   190
370
    15
390
5F
100
AcDbLine
 10
20520.6271553814
 20
-13768.72870441561
 30
0.0
 11
20515.72906886231
 21
-13771.31154463947
 31
0.0
  0
LINE
  5
2E6
102
{ACAD_REACTORS
330
2E0
102
}
330
1F
100
AcDbEntity
  8
ASSY
  6
ByBlock
 62
   190
370
    15
390
5F
100
AcDbLine
 10
20515.72224478431
 20
-13775.72579507111
 30
0.0
 11
20514.61704080107
 21
-13775.26688289319
 31
0.0
  0
LINE
  5
2E7
102
{ACAD_REACTORS
330
2E0
102
}
330
1F
100
AcDbEntity
  8
ASSY
  6
ByBlock
 62
   190
370
    15
390
5F
100
AcDbLine
 10
20519.52696241436
 20
-13772.67703032965
 30
0.0
 11
20520.62033130339
 21
-13773.14295484725
 31
0.0
  0
LINE
  5
2E8
102
{ACAD_REACTORS
330
2E0
102
}
330
1F
100
AcDbEntity
  8
ASSY
  6
ByBlock
 62
   190
370
    15
390
5F
100
AcDbLine
 10
20514.61704080107
 20
-13775.26688289319
 30
0.0
 11
20520.62033130339
 21
-13773.14295484725
 31
0.0
  0
LINE
  5
2E9
102
{ACAD_REACTORS
330
2E0
102
}
330
1F
100
AcDbEntity
  8
ASSY
  6
ByBlock
 62
   190
370
    15
390
5F
100
AcDbLine
 10
20520.62033130339
 20
-13773.14295484725
 30
0.0
 11
20515.72224478431
 21
-13775.72579507111
 31
0.0
  0
LINE
  5
2EA
102
{ACAD_REACTORS
330
2E0
102
}
330
1F
100
AcDbEntity
  8
ASSY
  6
ByBlock
 62
   190
370
    15
390
5F
100
AcDbLine
 10
20517.61585642053
 20
-13779.85964782001
 30
0.0
 11
20518.30819691918
 21
-13777.74209970798
 31
0.0
  0
LINE
  5
2EB
102
{ACAD_REACTORS
330
2E0
102
}
330
1F
100
AcDbEntity
  8
ASSY
  6
ByBlock
 62
   190
370
    15
390
5F
100
AcDbLine
 10
20518.37992660392
 20
-13777.5227119085
 30
0.0
 11
20518.70375353432
 21
-13776.53227569044
 31
0.0
  0
LINE
  5
2EC
102
{ACAD_REACTORS
330
2E0
102
}
330
1F
100
AcDbEntity
  8
ASSY
  6
ByBlock
 62
   190
370
    15
390
5F
100
AcDbLine
 10
20518.73257578304
 20
-13776.44412181462
 30
0.0
 11
20519.52534951565
 21
-13773.72035644983
 31
0.0
  0
LINE
  5
2ED
102
{ACAD_REACTORS
330
2E0
102
}
330
1F
100
AcDbEntity
  8
ASSY
  6
ByBlock
 62
   190
370
    15
390
5F
100
AcDbLine
 10
20517.61585642053
 20
-13779.85964782001
 30
0.0
 11
20517.16851918411
 21
-13778.4769927134
 31
0.0
  0
LINE
  5
2EE
102
{ACAD_REACTORS
330
2E0
102
}
330
1F
100
AcDbEntity
  8
ASSY
  6
ByBlock
 62
   190
370
    15
390
5F
100
AcDbLine
 10
20517.07230707439
 20
-13778.17961490984
 30
0.0
 11
20516.19735444059
 21
-13775.47526206679
 31
0.0
  0
LINE
  5
2EF
102
{ACAD_REACTORS
330
2E0
102
}
330
1F
100
AcDbEntity
  8
ASSY
  6
ByBlock
 62
   190
370
    15
390
5F
100
AcDbLine
 10
20516.2089489346
 20
-13775.46914810259
 30
0.0
 11
20519.59525035327
 21
-13776.91217512736
 31
0.0
  0
LINE
  5
2F0
102
{ACAD_REACTORS
330
2E0
102
}
330
1F
100
AcDbEntity
  8
ASSY
  6
ByBlock
 62
   190
370
    15
390
5F
100
AcDbLine
 10
20516.6013464735
 20
-13778.41620929012
 30
0.0
 11
20519.59525035327
 21
-13776.91217512736
 31
0.0
  0
LINE
  5
2F1
102
{ACAD_REACTORS
330
2E0
102
}
330
1F
100
AcDbEntity
  8
ASSY
  6
ByBlock
 62
   190
370
    15
390
5F
100
AcDbLine
 10
20519.59525035327
 20
-13776.91217512736
 30
0.0
 11
20516.39510849983
 21
-13778.97570746823
 31
0.0
  0
LINE
  5
2F2
102
{ACAD_REACTORS
330
2E0
102
}
330
1F
100
AcDbEntity
  8
ASSY
  6
ByBlock
 62
   190
370
    15
390
5F
100
AcDbLine
 10
20517.61585642053
 20
-13779.85964782001
 30
0.0
 11
20516.39510849983
 21
-13778.97570746823
 31
0.0
  0
LINE
  5
2F3
102
{ACAD_REACTORS
330
2E0
102
}
330
1F
100
AcDbEntity
  8
ASSY
  6
ByBlock
 62
   190
370
    15
390
5F
100
AcDbLine
 10
20516.39510849983
 20
-13778.97570746823
 30
0.0
 11
20516.6013464735
 21
-13778.41620929012
 31
0.0
  0
LINE
  5
2F4
102
{ACAD_REACTORS
330
2E0
102
}
330
1F
100
AcDbEntity
  8
ASSY
  6
ByBlock
 62
   190
370
    15
390
5F
100
AcDbLine
 10
20516.57744650063
 20
-13775.27483337742
 30
0.0
 11
20519.59525035327
 21
-13776.91217512736
 31
0.0
  0
LINE
  5
2F5
102
{ACAD_REACTORS
330
2E0
102
}
330
1F
100
AcDbEntity
  8
ASSY
  6
ByBlock
 62
   190
370
    15
390
5F
100
AcDbLine
 10
20519.73981332936
 20
-13734.83767395138
 30
0.0
 11
20519.76961058552
 21
-13715.56290148312
 31
0.0
  0
LINE
  5
2F6
102
{ACAD_REACTORS
330
2E0
102
}
330
1F
100
AcDbEntity
  8
ASSY
  6
ByBlock
 62
   190
370
    15
390
5F
100
AcDbLine
 10
20515.63111007019
 20
-13734.83132222484
 30
0.0
 11
20515.66090732635
 21
-13715.55654975658
 31
0.0
  0
LINE
  5
2F7
102
{ACAD_REACTORS
330
2E0
102
}
330
1F
100
AcDbEntity
  8
ASSY
  6
ByBlock
 62
   190
370
    15
390
5F
100
AcDbLine
 10
20519.58078268284
 20
-13737.8626358824
 30
0.0
 11
20515.78078728066
 21
-13737.85676139352
 31
0.0
  0
LINE
  5
2F8
102
{ACAD_REACTORS
330
2E0
102
}
330
1F
100
AcDbEntity
  8
ASSY
  6
ByBlock
 62
   190
370
    15
390
5F
100
AcDbLine
 10
20515.74271701833
 20
-13762.48304377618
 30
0.0
 11
20515.73720757801
 21
-13766.04690240195
 31
0.0
  0
LINE
  5
2F9
102
{ACAD_REACTORS
330
2E0
102
}
330
1F
100
AcDbEntity
  8
ASSY
  6
ByBlock
 62
   190
370
    15
390
5F
100
AcDbLine
 10
20515.73589294032
 20
-13766.89729420783
 30
0.0
 11
20514.63068895708
 21
-13766.43838202991
 31
0.0
  0
LINE
  5
2FA
102
{ACAD_REACTORS
330
2E0
102
}
330
1F
100
AcDbEntity
  8
ASSY
  6
ByBlock
 62
   190
370
    15
390
5F
100
AcDbLine
 10
20519.54061057037
 20
-13763.8485294664
 30
0.0
 11
20520.6339794594
 21
-13764.314453984
 31
0.0
  0
LINE
  5
2FB
102
{ACAD_REACTORS
330
2E0
102
}
330
1F
100
AcDbEntity
  8
ASSY
  6
ByBlock
 62
   190
370
    15
390
5F
100
AcDbLine
 10
20514.63068895708
 20
-13766.43838202991
 30
0.0
 11
20520.6339794594
 21
-13764.314453984
 31
0.0
  0
LINE
  5
2FC
102
{ACAD_REACTORS
330
2E0
102
}
330
1F
100
AcDbEntity
  8
ASSY
  6
ByBlock
 62
   190
370
    15
390
5F
100
AcDbLine
 10
20520.6339794594
 20
-13764.314453984
 30
0.0
 11
20515.73589294032
 21
-13766.89729420783
 31
0.0
  0
LINE
  5
2FD
102
{ACAD_REACTORS
330
2E0
102
}
330
1F
100
AcDbEntity
  8
ASSY
  6
ByBlock
 62
   190
370
    15
390
5F
100
AcDbLine
 10
20519.54582174966
 20
-13760.47760515494
 30
0.0
 11
20519.53929156282
 21
-13764.70174797287
 31
0.0
  0
LINE
  5
2FE
102
{ACAD_REACTORS
330
2E0
102
}
330
1F
100
AcDbEntity
  8
ASSY
  6
ByBlock
 62
   190
370
    15
390
5F
100
AcDbLine
 10
20515.72906886231
 20
-13771.31154463947
 30
0.0
 11
20515.723559422
 21
-13774.87540326521
 31
0.0
  0
LINE
  5
2FF
102
{ACAD_REACTORS
330
2E0
102
}
330
1F
100
AcDbEntity
  8
ASSY
  6
ByBlock
 62
   190
370
    15
390
5F
100
AcDbLine
 10
20519.53217359365
 20
-13769.30610601822
 30
0.0
 11
20519.52564340681
 21
-13773.53024883615
 31
0.0
  0
LINE
  5
300
102
{ACAD_REACTORS
330
2E0
102
}
330
1F
100
AcDbEntity
  8
ASSY
  6
ByBlock
 62
   190
370
    15
390
5F
100
AcDbLine
 10
20515.74954109633
 20
-13758.06879334457
 30
0.0
 11
20515.74403165602
 21
-13761.63265197031
 31
0.0
  0
LINE
  5
301
102
{ACAD_REACTORS
330
2E0
102
}
330
1F
100
AcDbEntity
  8
ASSY
  6
ByBlock
 62
   190
370
    15
390
5F
100
AcDbLine
 10
20515.74271701833
 20
-13762.48304377618
 30
0.0
 11
20514.63751303509
 21
-13762.02413159827
 31
0.0
  0
LINE
  5
302
102
{ACAD_REACTORS
330
2E0
102
}
330
1F
100
AcDbEntity
  8
ASSY
  6
ByBlock
 62
   190
370
    15
390
5F
100
AcDbLine
 10
20519.54743464838
 20
-13759.43427903476
 30
0.0
 11
20520.64080353741
 21
-13759.90020355236
 31
0.0
  0
LINE
  5
303
102
{ACAD_REACTORS
330
2E0
102
}
330
1F
100
AcDbEntity
  8
ASSY
  6
ByBlock
 62
   190
370
    15
390
5F
100
AcDbLine
 10
20514.63751303509
 20
-13762.02413159827
 30
0.0
 11
20520.64080353741
 21
-13759.90020355236
 31
0.0
  0
LINE
  5
304
102
{ACAD_REACTORS
330
2E0
102
}
330
1F
100
AcDbEntity
  8
ASSY
  6
ByBlock
 62
   190
370
    15
390
5F
100
AcDbLine
 10
20520.64080353741
 20
-13759.90020355236
 30
0.0
 11
20515.74271701833
 21
-13762.48304377618
 31
0.0
  0
LINE
  5
305
102
{ACAD_REACTORS
330
2E0
102
}
330
1F
100
AcDbEntity
  8
ASSY
  6
ByBlock
 62
   190
370
    15
390
5F
100
AcDbLine
 10
20519.55264582767
 20
-13756.0633547233
 30
0.0
 11
20519.54611564082
 21
-13760.28749754123
 31
0.0
  0
LINE
  5
306
102
{ACAD_REACTORS
330
2E0
102
}
330
1F
100
AcDbEntity
  8
ASSY
  6
ByBlock
 62
   190
370
    15
390
5F
100
AcDbLine
 10
20515.75636517433
 20
-13753.65454291293
 30
0.0
 11
20515.75085573403
 21
-13757.2184015387
 31
0.0
  0
LINE
  5
307
102
{ACAD_REACTORS
330
2E0
102
}
330
1F
100
AcDbEntity
  8
ASSY
  6
ByBlock
 62
   190
370
    15
390
5F
100
AcDbLine
 10
20515.74954109633
 20
-13758.06879334457
 30
0.0
 11
20514.64433711309
 21
-13757.60988116666
 31
0.0
  0
LINE
  5
308
102
{ACAD_REACTORS
330
2E0
102
}
330
1F
100
AcDbEntity
  8
ASSY
  6
ByBlock
 62
   190
370
    15
390
5F
100
AcDbLine
 10
20519.55425872638
 20
-13755.02002860315
 30
0.0
 11
20520.64762761541
 21
-13755.48595312072
 31
0.0
  0
LINE
  5
309
102
{ACAD_REACTORS
330
2E0
102
}
330
1F
100
AcDbEntity
  8
ASSY
  6
ByBlock
 62
   190
370
    15
390
5F
100
AcDbLine
 10
20514.64433711309
 20
-13757.60988116666
 30
0.0
 11
20520.64762761541
 21
-13755.48595312072
 31
0.0
  0
LINE
  5
30A
102
{ACAD_REACTORS
330
2E0
102
}
330
1F
100
AcDbEntity
  8
ASSY
  6
ByBlock
 62
   190
370
    15
390
5F
100
AcDbLine
 10
20520.64762761541
 20
-13755.48595312072
 30
0.0
 11
20515.74954109633
 21
-13758.06879334457
 31
0.0
  0
LINE
  5
30B
102
{ACAD_REACTORS
330
2E0
102
}
330
1F
100
AcDbEntity
  8
ASSY
  6
ByBlock
 62
   190
370
    15
390
5F
100
AcDbLine
 10
20519.55946990567
 20
-13751.64910429169
 30
0.0
 11
20519.55293971883
 21
-13755.87324710962
 31
0.0
  0
LINE
  5
30C
102
{ACAD_REACTORS
330
2E0
102
}
330
1F
100
AcDbEntity
  8
ASSY
  6
ByBlock
 62
   190
370
    15
390
5F
100
AcDbLine
 10
20515.76318925234
 20
-13749.24029248129
 30
0.0
 11
20515.75767981203
 21
-13752.80415110706
 31
0.0
  0
LINE
  5
30D
102
{ACAD_REACTORS
330
2E0
102
}
330
1F
100
AcDbEntity
  8
ASSY
  6
ByBlock
 62
   190
370
    15
390
5F
100
AcDbLine
 10
20515.75636517433
 20
-13753.65454291293
 30
0.0
 11
20514.65116119109
 21
-13753.19563073502
 31
0.0
  0
LINE
  5
30E
102
{ACAD_REACTORS
330
2E0
102
}
330
1F
100
AcDbEntity
  8
ASSY
  6
ByBlock
 62
   190
370
    15
390
5F
100
AcDbLine
 10
20519.56108280439
 20
-13750.60577817151
 30
0.0
 11
20520.65445169342
 21
-13751.07170268911
 31
0.0
  0
LINE
  5
30F
102
{ACAD_REACTORS
330
2E0
102
}
330
1F
100
AcDbEntity
  8
ASSY
  6
ByBlock
 62
   190
370
    15
390
5F
100
AcDbLine
 10
20514.65116119109
 20
-13753.19563073502
 30
0.0
 11
20520.65445169342
 21
-13751.07170268911
 31
0.0
  0
LINE
  5
310
102
{ACAD_REACTORS
330
2E0
102
}
330
1F
100
AcDbEntity
  8
ASSY
  6
ByBlock
 62
   190
370
    15
390
5F
100
AcDbLine
 10
20520.65445169342
 20
-13751.07170268911
 30
0.0
 11
20515.75636517433
 21
-13753.65454291293
 31
0.0
  0
LINE
  5
311
102
{ACAD_REACTORS
330
2E0
102
}
330
1F
100
AcDbEntity
  8
ASSY
  6
ByBlock
 62
   190
370
    15
390
5F
100
AcDbLine
 10
20519.56629398368
 20
-13747.23485386005
 30
0.0
 11
20519.55976379683
 21
-13751.45899667797
 31
0.0
  0
LINE
  5
312
102
{ACAD_REACTORS
330
2E0
102
}
330
1F
100
AcDbEntity
  8
ASSY
  6
ByBlock
 62
   190
370
    15
390
5F
100
AcDbLine
 10
20515.77001333034
 20
-13744.82604204965
 30
0.0
 11
20515.76450389003
 21
-13748.38990067542
 31
0.0
  0
LINE
  5
313
102
{ACAD_REACTORS
330
2E0
102
}
330
1F
100
AcDbEntity
  8
ASSY
  6
ByBlock
 62
   190
370
    15
390
5F
100
AcDbLine
 10
20515.76318925234
 20
-13749.24029248129
 30
0.0
 11
20514.6579852691
 21
-13748.78138030338
 31
0.0
  0
LINE
  5
314
102
{ACAD_REACTORS
330
2E0
102
}
330
1F
100
AcDbEntity
  8
ASSY
  6
ByBlock
 62
   190
370
    15
390
5F
100
AcDbLine
 10
20519.56790688239
 20
-13746.19152773987
 30
0.0
 11
20520.66127577143
 21
-13746.65745225747
 31
0.0
  0
LINE
  5
315
102
{ACAD_REACTORS
330
2E0
102
}
330
1F
100
AcDbEntity
  8
ASSY
  6
ByBlock
 62
   190
370
    15
390
5F
100
AcDbLine
 10
20514.6579852691
 20
-13748.78138030338
 30
0.0
 11
20520.66127577143
 21
-13746.65745225747
 31
0.0
  0
LINE
  5
316
102
{ACAD_REACTORS
330
2E0
102
}
330
1F
100
AcDbEntity
  8
ASSY
  6
ByBlock
 62
   190
370
    15
390
5F
100
AcDbLine
 10
20520.66127577143
 20
-13746.65745225747
 30
0.0
 11
20515.76318925234
 21
-13749.24029248129
 31
0.0
  0
LINE
  5
317
102
{ACAD_REACTORS
330
2E0
102
}
330
1F
100
AcDbEntity
  8
ASSY
  6
ByBlock
 62
   190
370
    15
390
5F
100
AcDbLine
 10
20519.57311806168
 20
-13742.82060342841
 30
0.0
 11
20519.56658787484
 21
-13747.04474624633
 31
0.0
  0
LINE
  5
318
102
{ACAD_REACTORS
330
2E0
102
}
330
1F
100
AcDbEntity
  8
ASSY
  6
ByBlock
 62
   190
370
    15
390
5F
100
AcDbLine
 10
20515.77001333034
 20
-13744.82604204965
 30
0.0
 11
20514.6648093471
 21
-13744.36712987174
 31
0.0
  0
LINE
  5
319
102
{ACAD_REACTORS
330
2E0
102
}
330
1F
100
AcDbEntity
  8
ASSY
  6
ByBlock
 62
   190
370
    15
390
5F
100
AcDbLine
 10
20519.57473096039
 20
-13741.77727730823
 30
0.0
 11
20520.66809984943
 21
-13742.24320182583
 31
0.0
  0
LINE
  5
31A
102
{ACAD_REACTORS
330
2E0
102
}
330
1F
100
AcDbEntity
  8
ASSY
  6
ByBlock
 62
   190
370
    15
390
5F
100
AcDbLine
 10
20514.6648093471
 20
-13744.36712987174
 30
0.0
 11
20520.66809984943
 21
-13742.24320182583
 31
0.0
  0
LINE
  5
31B
102
{ACAD_REACTORS
330
2E0
102
}
330
1F
100
AcDbEntity
  8
ASSY
  6
ByBlock
 62
   190
370
    15
390
5F
100
AcDbLine
 10
20520.66809984943
 20
-13742.24320182583
 30
0.0
 11
20515.77001333034
 21
-13744.82604204965
 31
0.0
  0
LINE
  5
31C
102
{ACAD_REACTORS
330
2E0
102
}
330
1F
100
AcDbEntity
  8
ASSY
  6
ByBlock
 62
   190
370
    15
390
5F
100
AcDbLine
 10
20519.58009588441
 20
-13738.30690106808
 30
0.0
 11
20519.57341195285
 21
-13742.63049581472
 31
0.0
  0
LINE
  5
31D
102
{ACAD_REACTORS
330
2E0
102
}
330
1F
100
AcDbEntity
  8
ASSY
  6
ByBlock
 62
   190
370
    15
390
5F
100
AcDbLine
 10
20515.78387911692
 20
-13735.85676381341
 30
0.0
 11
20515.77815204605
 21
-13739.56139981217
 31
0.0
  0
LINE
  5
31E
102
{ACAD_REACTORS
330
2E0
102
}
330
1F
100
AcDbEntity
  8
ASSY
  6
ByBlock
 62
   190
370
    15
390
5F
100
AcDbLine
 10
20515.77683740835
 20
-13740.41179161801
 30
0.0
 11
20514.67163342511
 21
-13739.95287944013
 31
0.0
  0
LINE
  5
31F
102
{ACAD_REACTORS
330
2E0
102
}
330
1F
100
AcDbEntity
  8
ASSY
  6
ByBlock
 62
   190
370
    15
390
5F
100
AcDbLine
 10
20519.58078268285
 20
-13737.86263588234
 30
0.0
 11
20520.03392056493
 21
-13738.05573452564
 31
0.0
  0
LINE
  5
320
102
{ACAD_REACTORS
330
2E0
102
}
330
1F
100
AcDbEntity
  8
ASSY
  6
ByBlock
 62
   190
370
    15
390
5F
100
AcDbLine
 10
20514.67163342511
 20
-13739.95287944013
 30
0.0
 11
20520.03392056493
 21
-13738.05573452564
 31
0.0
  0
LINE
  5
321
102
{ACAD_REACTORS
330
2E0
102
}
330
1F
100
AcDbEntity
  8
ASSY
  6
ByBlock
 62
   190
370
    15
390
5F
100
AcDbLine
 10
20520.03392056493
 20
-13738.05573452564
 30
0.0
 11
20515.77683740835
 21
-13740.41179161801
 31
0.0
  0
LINE
  5
322
102
{ACAD_REACTORS
330
2E0
102
}
330
1F
100
AcDbEntity
  8
ASSY
  6
ByBlock
 62
   190
370
    15
390
5F
100
AcDbLine
 10
20519.5838745191
 20
-13735.86263830229
 30
0.0
 11
20519.58023603086
 21
-13738.21624538308
 31
0.0
  0
LINE
  5
323
102
{ACAD_REACTORS
330
2E0
102
}
330
1F
100
AcDbEntity
  8
ASSY
  6
ByBlock
 62
   190
370
    15
390
5F
100
AcDbLine
 10
20515.77683740835
 20
-13740.41179161804
 30
0.0
 11
20515.77132796804
 21
-13743.97565024378
 31
0.0
  0
LINE
  5
324
102
{ACAD_REACTORS
330
2E0
102
}
330
1F
100
AcDbEntity
  8
ASSY
  6
ByBlock
 62
   190
370
    15
390
5F
100
AcDbLine
 10
20515.66090732635
 20
-13715.55654975658
 30
0.0
 11
20514.47141630072
 21
-13714.05470912874
 31
0.0
  0
LINE
  5
325
102
{ACAD_REACTORS
330
2E0
102
}
330
1F
100
AcDbEntity
  8
ASSY
  6
ByBlock
 62
   190
370
    15
390
5F
100
AcDbLine
 10
20511.72407794898
 20
-13709.85045700782
 30
0.0
 11
20511.72284121448
 21
-13710.65045603988
 31
0.0
  0
LINE
  5
326
102
{ACAD_REACTORS
330
2E0
102
}
330
1F
100
AcDbEntity
  8
ASSY
  6
ByBlock
 62
   190
370
    15
390
5F
100
AcDbLine
 10
20523.72406342958
 20
-13709.8690080253
 30
0.0
 11
20523.72282669508
 21
-13710.66900705735
 31
0.0
  0
LINE
  5
327
102
{ACAD_REACTORS
330
2E0
102
}
330
1F
100
AcDbEntity
  8
ASSY
  6
ByBlock
 62
   190
370
    15
390
5F
100
AcDbLine
 10
20523.72406342958
 20
-13709.8690080253
 30
0.0
 11
20511.72407794898
 21
-13709.85045700782
 31
0.0
  0
LINE
  5
328
102
{ACAD_REACTORS
330
2E0
102
}
330
1F
100
AcDbEntity
  8
ASSY
  6
ByBlock
 62
   190
370
    15
390
5F
100
AcDbLine
 10
20520.96373936559
 20
-13714.06474574079
 30
0.0
 11
20514.47141630073
 21
-13714.05470912874
 31
0.0
  0
LINE
  5
329
102
{ACAD_REACTORS
330
2E0
102
}
330
1F
100
AcDbEntity
  8
ASSY
  6
ByBlock
 62
   190
370
    15
390
5F
100
AcDbLine
 10
20519.76961058552
 20
-13715.56290148312
 30
0.0
 11
20515.66090732635
 21
-13715.55654975658
 31
0.0
  0
LINE
  5
32A
102
{ACAD_REACTORS
330
2E0
102
}
330
1F
100
AcDbEntity
  8
ASSY
  6
ByBlock
 62
   190
370
    15
390
5F
100
AcDbLine
 10
20523.72282669508
 20
-13710.66900705735
 30
0.0
 11
20511.72284121448
 21
-13710.65045603988
 31
0.0
  0
LINE
  5
32B
102
{ACAD_REACTORS
330
2E0
102
}
330
1F
100
AcDbEntity
  8
ASSY
  6
ByBlock
 62
   190
370
    15
390
5F
100
AcDbLine
 10
20511.72284121448
 20
-13710.65045603988
 30
0.0
 11
20514.47141630081
 21
-13714.05470912874
 31
0.0
  0
LINE
  5
32C
102
{ACAD_REACTORS
330
2E0
102
}
330
1F
100
AcDbEntity
  8
ASSY
  6
ByBlock
 62
   190
370
    15
390
5F
100
AcDbLine
 10
20514.3194621915
 20
-13710.65447020816
 30
0.0
 11
20516.08190088009
 21
-13714.05719880908
 31
0.0
  0
LINE
  5
32D
102
{ACAD_REACTORS
330
2E0
102
}
330
1F
100
AcDbEntity
  8
ASSY
  6
ByBlock
 62
   190
370
    15
390
5F
100
AcDbLine
 10
20521.12620571806
 20
-13710.66499288907
 30
0.0
 11
20519.35325478622
 21
-13714.06225606048
 31
0.0
  0
LINE
  5
32E
102
{ACAD_REACTORS
330
2E0
102
}
330
1F
100
AcDbEntity
  8
ASSY
  6
ByBlock
 62
   190
370
    15
390
5F
100
AcDbLine
 10
20519.76961058552
 20
-13715.56290148312
 30
0.0
 11
20520.96373936559
 21
-13714.06474574079
 31
0.0
  0
LINE
  5
32F
102
{ACAD_REACTORS
330
2E0
102
}
330
1F
100
AcDbEntity
  8
ASSY
  6
ByBlock
 62
   190
370
    15
390
5F
100
AcDbLine
 10
20523.72282669508
 20
-13710.66900705735
 30
0.0
 11
20520.96373936551
 21
-13714.06474574079
 31
0.0
  0
LINE
  5
330
102
{ACAD_REACTORS
330
2D2
102
}
330
1F
100
AcDbEntity
  8
ASSY
  6
ByBlock
 62
   190
370
    15
390
5F
100
AcDbLine
 10
21126.1017763241
 20
-14114.49285878238
 30
0.0
 11
21126.09626688379
 21
-14118.05671740815
 31
0.0
  0
LINE
  5
331
102
{ACAD_REACTORS
330
2D2
102
}
330
1F
100
AcDbEntity
  8
ASSY
  6
ByBlock
 62
   190
370
    15
390
5F
100
AcDbLine
 10
21129.90488105544
 20
-14112.48742016114
 30
0.0
 11
21129.8983508686
 21
-14116.71156297906
 31
0.0
  0
LINE
  5
332
102
{ACAD_REACTORS
330
2D2
102
}
330
1F
100
AcDbEntity
  8
ASSY
  6
ByBlock
 62
   190
370
    15
390
5F
100
AcDbLine
 10
21126.09495224609
 20
-14118.90710921402
 30
0.0
 11
21124.98974826285
 21
-14118.44819703611
 31
0.0
  0
LINE
  5
333
102
{ACAD_REACTORS
330
2D2
102
}
330
1F
100
AcDbEntity
  8
ASSY
  6
ByBlock
 62
   190
370
    15
390
5F
100
AcDbLine
 10
21129.89966987615
 20
-14115.8583444726
 30
0.0
 11
21130.99303876518
 21
-14116.32426899017
 31
0.0
  0
LINE
  5
334
102
{ACAD_REACTORS
330
2D2
102
}
330
1F
100
AcDbEntity
  8
ASSY
  6
ByBlock
 62
   190
370
    15
390
5F
100
AcDbLine
 10
21124.98974826285
 20
-14118.44819703611
 30
0.0
 11
21130.99303876518
 21
-14116.32426899017
 31
0.0
  0
LINE
  5
335
102
{ACAD_REACTORS
330
2D2
102
}
330
1F
100
AcDbEntity
  8
ASSY
  6
ByBlock
 62
   190
370
    15
390
5F
100
AcDbLine
 10
21130.99303876518
 20
-14116.32426899017
 30
0.0
 11
21126.09495224609
 21
-14118.90710921402
 31
0.0
  0
LINE
  5
336
102
{ACAD_REACTORS
330
2D2
102
}
330
1F
100
AcDbEntity
  8
ASSY
  6
ByBlock
 62
   190
370
    15
390
5F
100
AcDbLine
 10
21126.08812816809
 20
-14123.32135964566
 30
0.0
 11
21124.98292418485
 21
-14122.86244746775
 31
0.0
  0
LINE
  5
337
102
{ACAD_REACTORS
330
2D2
102
}
330
1F
100
AcDbEntity
  8
ASSY
  6
ByBlock
 62
   190
370
    15
390
5F
100
AcDbLine
 10
21129.89284579814
 20
-14120.27259490421
 30
0.0
 11
21130.98621468718
 21
-14120.73851942181
 31
0.0
  0
LINE
  5
338
102
{ACAD_REACTORS
330
2D2
102
}
330
1F
100
AcDbEntity
  8
ASSY
  6
ByBlock
 62
   190
370
    15
390
5F
100
AcDbLine
 10
21124.98292418485
 20
-14122.86244746775
 30
0.0
 11
21130.98621468718
 21
-14120.73851942181
 31
0.0
  0
LINE
  5
339
102
{ACAD_REACTORS
330
2D2
102
}
330
1F
100
AcDbEntity
  8
ASSY
  6
ByBlock
 62
   190
370
    15
390
5F
100
AcDbLine
 10
21130.98621468718
 20
-14120.73851942181
 30
0.0
 11
21126.08812816809
 21
-14123.32135964566
 31
0.0
  0
LINE
  5
33A
102
{ACAD_REACTORS
330
2D2
102
}
330
1F
100
AcDbEntity
  8
ASSY
  6
ByBlock
 62
   190
370
    15
390
5F
100
AcDbLine
 10
21127.98173980432
 20
-14127.45521239456
 30
0.0
 11
21128.67408030297
 21
-14125.33766428253
 31
0.0
  0
LINE
  5
33B
102
{ACAD_REACTORS
330
2D2
102
}
330
1F
100
AcDbEntity
  8
ASSY
  6
ByBlock
 62
   190
370
    15
390
5F
100
AcDbLine
 10
21128.7458099877
 20
-14125.11827648306
 30
0.0
 11
21129.06963691811
 21
-14124.12784026499
 31
0.0
  0
LINE
  5
33C
102
{ACAD_REACTORS
330
2D2
102
}
330
1F
100
AcDbEntity
  8
ASSY
  6
ByBlock
 62
   190
370
    15
390
5F
100
AcDbLine
 10
21129.09845916682
 20
-14124.03968638918
 30
0.0
 11
21129.89123289943
 21
-14121.31592102439
 31
0.0
  0
LINE
  5
33D
102
{ACAD_REACTORS
330
2D2
102
}
330
1F
100
AcDbEntity
  8
ASSY
  6
ByBlock
 62
   190
370
    15
390
5F
100
AcDbLine
 10
21127.98173980432
 20
-14127.45521239456
 30
0.0
 11
21127.53440256789
 21
-14126.07255728796
 31
0.0
  0
LINE
  5
33E
102
{ACAD_REACTORS
330
2D2
102
}
330
1F
100
AcDbEntity
  8
ASSY
  6
ByBlock
 62
   190
370
    15
390
5F
100
AcDbLine
 10
21127.43819045817
 20
-14125.77517948439
 30
0.0
 11
21126.56323782438
 21
-14123.07082664134
 31
0.0
  0
LINE
  5
33F
102
{ACAD_REACTORS
330
2D2
102
}
330
1F
100
AcDbEntity
  8
ASSY
  6
ByBlock
 62
   190
370
    15
390
5F
100
AcDbLine
 10
21126.57483231839
 20
-14123.06471267718
 30
0.0
 11
21129.96113373705
 21
-14124.50773970192
 31
0.0
  0
LINE
  5
340
102
{ACAD_REACTORS
330
2D2
102
}
330
1F
100
AcDbEntity
  8
ASSY
  6
ByBlock
 62
   190
370
    15
390
5F
100
AcDbLine
 10
21126.96722985728
 20
-14126.01177386468
 30
0.0
 11
21129.96113373705
 21
-14124.50773970192
 31
0.0
  0
LINE
  5
341
102
{ACAD_REACTORS
330
2D2
102
}
330
1F
100
AcDbEntity
  8
ASSY
  6
ByBlock
 62
   190
370
    15
390
5F
100
AcDbLine
 10
21129.96113373705
 20
-14124.50773970192
 30
0.0
 11
21126.76099188361
 21
-14126.57127204278
 31
0.0
  0
LINE
  5
342
102
{ACAD_REACTORS
330
2D2
102
}
330
1F
100
AcDbEntity
  8
ASSY
  6
ByBlock
 62
   190
370
    15
390
5F
100
AcDbLine
 10
21127.98173980432
 20
-14127.45521239456
 30
0.0
 11
21126.76099188361
 21
-14126.57127204278
 31
0.0
  0
LINE
  5
343
102
{ACAD_REACTORS
330
2D2
102
}
330
1F
100
AcDbEntity
  8
ASSY
  6
ByBlock
 62
   190
370
    15
390
5F
100
AcDbLine
 10
21126.76099188361
 20
-14126.57127204278
 30
0.0
 11
21126.96722985728
 21
-14126.01177386468
 31
0.0
  0
LINE
  5
344
102
{ACAD_REACTORS
330
2D2
102
}
330
1F
100
AcDbEntity
  8
ASSY
  6
ByBlock
 62
   190
370
    15
390
5F
100
AcDbLine
 10
21126.94332988442
 20
-14122.87039795198
 30
0.0
 11
21129.96113373705
 21
-14124.50773970192
 31
0.0
  0
LINE
  5
345
102
{ACAD_REACTORS
330
2D2
102
}
330
1F
100
AcDbEntity
  8
ASSY
  6
ByBlock
 62
   190
370
    15
390
5F
100
AcDbLine
 10
21130.10569671314
 20
-14082.43323852593
 30
0.0
 11
21130.1354939693
 21
-14063.15846605768
 31
0.0
  0
LINE
  5
346
102
{ACAD_REACTORS
330
2D2
102
}
330
1F
100
AcDbEntity
  8
ASSY
  6
ByBlock
 62
   190
370
    15
390
5F
100
AcDbLine
 10
21125.99699345397
 20
-14082.4268867994
 30
0.0
 11
21126.02679071013
 21
-14063.15211433114
 31
0.0
  0
LINE
  5
347
102
{ACAD_REACTORS
330
2D2
102
}
330
1F
100
AcDbEntity
  8
ASSY
  6
ByBlock
 62
   190
370
    15
390
5F
100
AcDbLine
 10
21126.10860040211
 20
-14110.07860835074
 30
0.0
 11
21126.1030909618
 21
-14113.64246697651
 31
0.0
  0
LINE
  5
348
102
{ACAD_REACTORS
330
2D2
102
}
330
1F
100
AcDbEntity
  8
ASSY
  6
ByBlock
 62
   190
370
    15
390
5F
100
AcDbLine
 10
21126.1017763241
 20
-14114.49285878238
 30
0.0
 11
21124.99657234086
 21
-14114.03394660447
 31
0.0
  0
LINE
  5
349
102
{ACAD_REACTORS
330
2D2
102
}
330
1F
100
AcDbEntity
  8
ASSY
  6
ByBlock
 62
   190
370
    15
390
5F
100
AcDbLine
 10
21129.90649395416
 20
-14111.44409404095
 30
0.0
 11
21130.99986284319
 21
-14111.91001855856
 31
0.0
  0
LINE
  5
34A
102
{ACAD_REACTORS
330
2D2
102
}
330
1F
100
AcDbEntity
  8
ASSY
  6
ByBlock
 62
   190
370
    15
390
5F
100
AcDbLine
 10
21124.99657234086
 20
-14114.03394660447
 30
0.0
 11
21130.99986284319
 21
-14111.91001855856
 31
0.0
  0
LINE
  5
34B
102
{ACAD_REACTORS
330
2D2
102
}
330
1F
100
AcDbEntity
  8
ASSY
  6
ByBlock
 62
   190
370
    15
390
5F
100
AcDbLine
 10
21130.99986284319
 20
-14111.91001855856
 30
0.0
 11
21126.1017763241
 21
-14114.49285878238
 31
0.0
  0
LINE
  5
34C
102
{ACAD_REACTORS
330
2D2
102
}
330
1F
100
AcDbEntity
  8
ASSY
  6
ByBlock
 62
   190
370
    15
390
5F
100
AcDbLine
 10
21129.91170513345
 20
-14108.07316972953
 30
0.0
 11
21129.9051749466
 21
-14112.29731254742
 31
0.0
  0
LINE
  5
34D
102
{ACAD_REACTORS
330
2D2
102
}
330
1F
100
AcDbEntity
  8
ASSY
  6
ByBlock
 62
   190
370
    15
390
5F
100
AcDbLine
 10
21126.0949522461
 20
-14118.90710921402
 30
0.0
 11
21126.08944280578
 21
-14122.47096783979
 31
0.0
  0
LINE
  5
34E
102
{ACAD_REACTORS
330
2D2
102
}
330
1F
100
AcDbEntity
  8
ASSY
  6
ByBlock
 62
   190
370
    15
390
5F
100
AcDbLine
 10
21129.89805697743
 20
-14116.90167059278
 30
0.0
 11
21129.89152679059
 21
-14121.1258134107
 31
0.0
  0
LINE
  5
34F
102
{ACAD_REACTORS
330
2D2
102
}
330
1F
100
AcDbEntity
  8
ASSY
  6
ByBlock
 62
   190
370
    15
390
5F
100
AcDbLine
 10
21126.11542448011
 20
-14105.66435791913
 30
0.0
 11
21126.1099150398
 21
-14109.22821654487
 31
0.0
  0
LINE
  5
350
102
{ACAD_REACTORS
330
2D2
102
}
330
1F
100
AcDbEntity
  8
ASSY
  6
ByBlock
 62
   190
370
    15
390
5F
100
AcDbLine
 10
21126.10860040211
 20
-14110.07860835074
 30
0.0
 11
21125.00339641887
 21
-14109.61969617286
 31
0.0
  0
LINE
  5
351
102
{ACAD_REACTORS
330
2D2
102
}
330
1F
100
AcDbEntity
  8
ASSY
  6
ByBlock
 62
   190
370
    15
390
5F
100
AcDbLine
 10
21129.91331803216
 20
-14107.02984360934
 30
0.0
 11
21131.00668692119
 21
-14107.49576812692
 31
0.0
  0
LINE
  5
352
102
{ACAD_REACTORS
330
2D2
102
}
330
1F
100
AcDbEntity
  8
ASSY
  6
ByBlock
 62
   190
370
    15
390
5F
100
AcDbLine
 10
21125.00339641887
 20
-14109.61969617286
 30
0.0
 11
21131.00668692119
 21
-14107.49576812692
 31
0.0
  0
LINE
  5
353
102
{ACAD_REACTORS
330
2D2
102
}
330
1F
100
AcDbEntity
  8
ASSY
  6
ByBlock
 62
   190
370
    15
390
5F
100
AcDbLine
 10
21131.00668692119
 20
-14107.49576812692
 30
0.0
 11
21126.10860040211
 21
-14110.07860835074
 31
0.0
  0
LINE
  5
354
102
{ACAD_REACTORS
330
2D2
102
}
330
1F
100
AcDbEntity
  8
ASSY
  6
ByBlock
 62
   190
370
    15
390
5F
100
AcDbLine
 10
21129.91852921145
 20
-14103.65891929789
 30
0.0
 11
21129.91199902461
 21
-14107.88306211578
 31
0.0
  0
LINE
  5
355
102
{ACAD_REACTORS
330
2D2
102
}
330
1F
100
AcDbEntity
  8
ASSY
  6
ByBlock
 62
   190
370
    15
390
5F
100
AcDbLine
 10
21126.12224855812
 20
-14101.25010748749
 30
0.0
 11
21126.11673911781
 21
-14104.81396611326
 31
0.0
  0
LINE
  5
356
102
{ACAD_REACTORS
330
2D2
102
}
330
1F
100
AcDbEntity
  8
ASSY
  6
ByBlock
 62
   190
370
    15
390
5F
100
AcDbLine
 10
21126.11542448011
 20
-14105.66435791913
 30
0.0
 11
21125.01022049688
 21
-14105.20544574122
 31
0.0
  0
LINE
  5
357
102
{ACAD_REACTORS
330
2D2
102
}
330
1F
100
AcDbEntity
  8
ASSY
  6
ByBlock
 62
   190
370
    15
390
5F
100
AcDbLine
 10
21129.92014211016
 20
-14102.6155931777
 30
0.0
 11
21131.0135109992
 21
-14103.0815176953
 31
0.0
  0
LINE
  5
358
102
{ACAD_REACTORS
330
2D2
102
}
330
1F
100
AcDbEntity
  8
ASSY
  6
ByBlock
 62
   190
370
    15
390
5F
100
AcDbLine
 10
21125.01022049688
 20
-14105.20544574122
 30
0.0
 11
21131.0135109992
 21
-14103.0815176953
 31
0.0
  0
LINE
  5
359
102
{ACAD_REACTORS
330
2D2
102
}
330
1F
100
AcDbEntity
  8
ASSY
  6
ByBlock
 62
   190
370
    15
390
5F
100
AcDbLine
 10
21131.0135109992
 20
-14103.0815176953
 30
0.0
 11
21126.11542448011
 21
-14105.66435791913
 31
0.0
  0
LINE
  5
35A
102
{ACAD_REACTORS
330
2D2
102
}
330
1F
100
AcDbEntity
  8
ASSY
  6
ByBlock
 62
   190
370
    15
390
5F
100
AcDbLine
 10
21129.92535328945
 20
-14099.24466886625
 30
0.0
 11
21129.91882310261
 21
-14103.46881168417
 31
0.0
  0
LINE
  5
35B
102
{ACAD_REACTORS
330
2D2
102
}
330
1F
100
AcDbEntity
  8
ASSY
  6
ByBlock
 62
   190
370
    15
390
5F
100
AcDbLine
 10
21126.12907263612
 20
-14096.83585705585
 30
0.0
 11
21126.12356319582
 21
-14100.39971568162
 31
0.0
  0
LINE
  5
35C
102
{ACAD_REACTORS
330
2D2
102
}
330
1F
100
AcDbEntity
  8
ASSY
  6
ByBlock
 62
   190
370
    15
390
5F
100
AcDbLine
 10
21126.12224855812
 20
-14101.25010748749
 30
0.0
 11
21125.01704457488
 21
-14100.79119530958
 31
0.0
  0
LINE
  5
35D
102
{ACAD_REACTORS
330
2D2
102
}
330
1F
100
AcDbEntity
  8
ASSY
  6
ByBlock
 62
   190
370
    15
390
5F
100
AcDbLine
 10
21129.92696618817
 20
-14098.20134274606
 30
0.0
 11
21131.02033507721
 21
-14098.66726726366
 31
0.0
  0
LINE
  5
35E
102
{ACAD_REACTORS
330
2D2
102
}
330
1F
100
AcDbEntity
  8
ASSY
  6
ByBlock
 62
   190
370
    15
390
5F
100
AcDbLine
 10
21125.01704457488
 20
-14100.79119530958
 30
0.0
 11
21131.02033507721
 21
-14098.66726726366
 31
0.0
  0
LINE
  5
35F
102
{ACAD_REACTORS
330
2D2
102
}
330
1F
100
AcDbEntity
  8
ASSY
  6
ByBlock
 62
   190
370
    15
390
5F
100
AcDbLine
 10
21131.02033507721
 20
-14098.66726726366
 30
0.0
 11
21126.12224855812
 21
-14101.25010748749
 31
0.0
  0
LINE
  5
360
102
{ACAD_REACTORS
330
2D2
102
}
330
1F
100
AcDbEntity
  8
ASSY
  6
ByBlock
 62
   190
370
    15
390
5F
100
AcDbLine
 10
21129.93217736746
 20
-14094.83041843461
 30
0.0
 11
21129.92564718062
 21
-14099.05456125253
 31
0.0
  0
LINE
  5
361
102
{ACAD_REACTORS
330
2D2
102
}
330
1F
100
AcDbEntity
  8
ASSY
  6
ByBlock
 62
   190
370
    15
390
5F
100
AcDbLine
 10
21126.13589671413
 20
-14092.42160662424
 30
0.0
 11
21126.13038727382
 21
-14095.98546525001
 31
0.0
  0
LINE
  5
362
102
{ACAD_REACTORS
330
2D2
102
}
330
1F
100
AcDbEntity
  8
ASSY
  6
ByBlock
 62
   190
370
    15
390
5F
100
AcDbLine
 10
21126.12907263612
 20
-14096.83585705585
 30
0.0
 11
21125.02386865288
 21
-14096.37694487793
 31
0.0
  0
LINE
  5
363
102
{ACAD_REACTORS
330
2D2
102
}
330
1F
100
AcDbEntity
  8
ASSY
  6
ByBlock
 62
   190
370
    15
390
5F
100
AcDbLine
 10
21129.93379026617
 20
-14093.78709231442
 30
0.0
 11
21131.02715915521
 21
-14094.25301683202
 31
0.0
  0
LINE
  5
364
102
{ACAD_REACTORS
330
2D2
102
}
330
1F
100
AcDbEntity
  8
ASSY
  6
ByBlock
 62
   190
370
    15
390
5F
100
AcDbLine
 10
21125.02386865288
 20
-14096.37694487793
 30
0.0
 11
21131.02715915521
 21
-14094.25301683202
 31
0.0
  0
LINE
  5
365
102
{ACAD_REACTORS
330
2D2
102
}
330
1F
100
AcDbEntity
  8
ASSY
  6
ByBlock
 62
   190
370
    15
390
5F
100
AcDbLine
 10
21131.02715915521
 20
-14094.25301683202
 30
0.0
 11
21126.12907263612
 21
-14096.83585705585
 31
0.0
  0
LINE
  5
366
102
{ACAD_REACTORS
330
2D2
102
}
330
1F
100
AcDbEntity
  8
ASSY
  6
ByBlock
 62
   190
370
    15
390
5F
100
AcDbLine
 10
21129.93900144547
 20
-14090.41616800296
 30
0.0
 11
21129.93247125862
 21
-14094.64031082092
 31
0.0
  0
LINE
  5
367
102
{ACAD_REACTORS
330
2D2
102
}
330
1F
100
AcDbEntity
  8
ASSY
  6
ByBlock
 62
   190
370
    15
390
5F
100
AcDbLine
 10
21126.13589671413
 20
-14092.42160662424
 30
0.0
 11
21125.03069273089
 21
-14091.96269444629
 31
0.0
  0
LINE
  5
368
102
{ACAD_REACTORS
330
2D2
102
}
330
1F
100
AcDbEntity
  8
ASSY
  6
ByBlock
 62
   190
370
    15
390
5F
100
AcDbLine
 10
21129.94061434418
 20
-14089.37284188278
 30
0.0
 11
21131.03398323322
 21
-14089.83876640038
 31
0.0
  0
LINE
  5
369
102
{ACAD_REACTORS
330
2D2
102
}
330
1F
100
AcDbEntity
  8
ASSY
  6
ByBlock
 62
   190
370
    15
390
5F
100
AcDbLine
 10
21125.03069273089
 20
-14091.96269444629
 30
0.0
 11
21131.03398323322
 21
-14089.83876640038
 31
0.0
  0
LINE
  5
36A
102
{ACAD_REACTORS
330
2D2
102
}
330
1F
100
AcDbEntity
  8
ASSY
  6
ByBlock
 62
   190
370
    15
390
5F
100
AcDbLine
 10
21131.03398323322
 20
-14089.83876640038
 30
0.0
 11
21126.13589671413
 21
-14092.42160662424
 31
0.0
  0
LINE
  5
36B
102
{ACAD_REACTORS
330
2D2
102
}
330
1F
100
AcDbEntity
  8
ASSY
  6
ByBlock
 62
   190
370
    15
390
5F
100
AcDbLine
 10
21129.9459792682
 20
-14085.90246564263
 30
0.0
 11
21129.93929533663
 21
-14090.22606038928
 31
0.0
  0
LINE
  5
36C
102
{ACAD_REACTORS
330
2D2
102
}
330
1F
100
AcDbEntity
  8
ASSY
  6
ByBlock
 62
   190
370
    15
390
5F
100
AcDbLine
 10
21126.14272079213
 20
-14088.0073561926
 30
0.0
 11
21126.13721135182
 21
-14091.57121481837
 31
0.0
  0
LINE
  5
36D
102
{ACAD_REACTORS
330
2D2
102
}
330
1F
100
AcDbEntity
  8
ASSY
  6
ByBlock
 62
   190
370
    15
390
5F
100
AcDbLine
 10
21126.02679071013
 20
-14063.15211433114
 30
0.0
 11
21124.83729968451
 21
-14061.6502737033
 31
0.0
  0
LINE
  5
36E
102
{ACAD_REACTORS
330
2D2
102
}
330
1F
100
AcDbEntity
  8
ASSY
  6
ByBlock
 62
   190
370
    15
390
5F
100
AcDbLine
 10
21122.08996133277
 20
-14057.44602158238
 30
0.0
 11
21122.08872459827
 21
-14058.24602061443
 31
0.0
  0
LINE
  5
36F
102
{ACAD_REACTORS
330
2D2
102
}
330
1F
100
AcDbEntity
  8
ASSY
  6
ByBlock
 62
   190
370
    15
390
5F
100
AcDbLine
 10
21134.08994681336
 20
-14057.46457259989
 30
0.0
 11
21134.08871007886
 21
-14058.26457163191
 31
0.0
  0
LINE
  5
370
102
{ACAD_REACTORS
330
2D2
102
}
330
1F
100
AcDbEntity
  8
ASSY
  6
ByBlock
 62
   190
370
    15
390
5F
100
AcDbLine
 10
21134.08994681336
 20
-14057.46457259989
 30
0.0
 11
21122.08996133277
 21
-14057.44602158238
 31
0.0
  0
LINE
  5
371
102
{ACAD_REACTORS
330
2D2
102
}
330
1F
100
AcDbEntity
  8
ASSY
  6
ByBlock
 62
   190
370
    15
390
5F
100
AcDbLine
 10
21131.32962274937
 20
-14061.66031031535
 30
0.0
 11
21124.83729968451
 21
-14061.6502737033
 31
0.0
  0
LINE
  5
372
102
{ACAD_REACTORS
330
2D2
102
}
330
1F
100
AcDbEntity
  8
ASSY
  6
ByBlock
 62
   190
370
    15
390
5F
100
AcDbLine
 10
21130.1354939693
 20
-14063.15846605768
 30
0.0
 11
21126.02679071013
 21
-14063.15211433114
 31
0.0
  0
LINE
  5
373
102
{ACAD_REACTORS
330
2D2
102
}
330
1F
100
AcDbEntity
  8
ASSY
  6
ByBlock
 62
   190
370
    15
390
5F
100
AcDbLine
 10
21134.08871007886
 20
-14058.26457163191
 30
0.0
 11
21122.08872459827
 21
-14058.24602061443
 31
0.0
  0
LINE
  5
374
102
{ACAD_REACTORS
330
2D2
102
}
330
1F
100
AcDbEntity
  8
ASSY
  6
ByBlock
 62
   190
370
    15
390
5F
100
AcDbLine
 10
21122.08872459827
 20
-14058.24602061443
 30
0.0
 11
21124.83729968459
 21
-14061.6502737033
 31
0.0
  0
LINE
  5
375
102
{ACAD_REACTORS
330
2D2
102
}
330
1F
100
AcDbEntity
  8
ASSY
  6
ByBlock
 62
   190
370
    15
390
5F
100
AcDbLine
 10
21124.68534557528
 20
-14058.25003478272
 30
0.0
 11
21126.44778426388
 21
-14061.65276338364
 31
0.0
  0
LINE
  5
376
102
{ACAD_REACTORS
330
2D2
102
}
330
1F
100
AcDbEntity
  8
ASSY
  6
ByBlock
 62
   190
370
    15
390
5F
100
AcDbLine
 10
21131.49208910184
 20
-14058.26055746363
 30
0.0
 11
21129.71913817
 21
-14061.65782063504
 31
0.0
  0
LINE
  5
377
102
{ACAD_REACTORS
330
2D2
102
}
330
1F
100
AcDbEntity
  8
ASSY
  6
ByBlock
 62
   190
370
    15
390
5F
100
AcDbLine
 10
21130.1354939693
 20
-14063.15846605768
 30
0.0
 11
21131.32962274937
 21
-14061.66031031535
 31
0.0
  0
LINE
  5
378
102
{ACAD_REACTORS
330
2D2
102
}
330
1F
100
AcDbEntity
  8
ASSY
  6
ByBlock
 62
   190
370
    15
390
5F
100
AcDbLine
 10
21134.08871007886
 20
-14058.26457163194
 30
0.0
 11
21131.32962274929
 21
-14061.66031031535
 31
0.0
  0
LINE
  5
379
102
{ACAD_REACTORS
330
37A
102
}
330
1F
100
AcDbEntity
  8
ASSY
  6
ByBlock
 62
   190
370
    15
390
5F
100
AcDbLine
 10
21126.01037171981
 20
-14356.59676151277
 30
0.0
 11
21126.0048622795
 21
-14360.16062013854
 31
0.0
  0
LINE
  5
37B
102
{ACAD_REACTORS
330
37A
102
}
330
1F
100
AcDbEntity
  8
ASSY
  6
ByBlock
 62
   190
370
    15
390
5F
100
AcDbLine
 10
21129.81347645115
 20
-14354.59132289153
 30
0.0
 11
21129.8069462643
 21
-14358.81546570946
 31
0.0
  0
LINE
  5
37C
102
{ACAD_REACTORS
330
37A
102
}
330
1F
100
AcDbEntity
  8
ASSY
  6
ByBlock
 62
   190
370
    15
390
5F
100
AcDbLine
 10
21126.0035476418
 20
-14361.01101194441
 30
0.0
 11
21124.89834365856
 21
-14360.5520997665
 31
0.0
  0
LINE
  5
37D
102
{ACAD_REACTORS
330
37A
102
}
330
1F
100
AcDbEntity
  8
ASSY
  6
ByBlock
 62
   190
370
    15
390
5F
100
AcDbLine
 10
21129.80826527185
 20
-14357.96224720299
 30
0.0
 11
21130.90163416089
 21
-14358.42817172056
 31
0.0
  0
LINE
  5
37E
102
{ACAD_REACTORS
330
37A
102
}
330
1F
100
AcDbEntity
  8
ASSY
  6
ByBlock
 62
   190
370
    15
390
5F
100
AcDbLine
 10
21124.89834365856
 20
-14360.5520997665
 30
0.0
 11
21130.90163416089
 21
-14358.42817172056
 31
0.0
  0
LINE
  5
37F
102
{ACAD_REACTORS
330
37A
102
}
330
1F
100
AcDbEntity
  8
ASSY
  6
ByBlock
 62
   190
370
    15
390
5F
100
AcDbLine
 10
21130.90163416089
 20
-14358.42817172056
 30
0.0
 11
21126.0035476418
 21
-14361.01101194441
 31
0.0
  0
LINE
  5
380
102
{ACAD_REACTORS
330
37A
102
}
330
1F
100
AcDbEntity
  8
ASSY
  6
ByBlock
 62
   190
370
    15
390
5F
100
AcDbLine
 10
21125.99672356379
 20
-14365.42526237605
 30
0.0
 11
21124.89151958056
 21
-14364.96635019814
 31
0.0
  0
LINE
  5
381
102
{ACAD_REACTORS
330
37A
102
}
330
1F
100
AcDbEntity
  8
ASSY
  6
ByBlock
 62
   190
370
    15
390
5F
100
AcDbLine
 10
21129.80144119385
 20
-14362.3764976346
 30
0.0
 11
21130.89481008288
 21
-14362.8424221522
 31
0.0
  0
LINE
  5
382
102
{ACAD_REACTORS
330
37A
102
}
330
1F
100
AcDbEntity
  8
ASSY
  6
ByBlock
 62
   190
370
    15
390
5F
100
AcDbLine
 10
21124.89151958056
 20
-14364.96635019814
 30
0.0
 11
21130.89481008288
 21
-14362.8424221522
 31
0.0
  0
LINE
  5
383
102
{ACAD_REACTORS
330
37A
102
}
330
1F
100
AcDbEntity
  8
ASSY
  6
ByBlock
 62
   190
370
    15
390
5F
100
AcDbLine
 10
21130.89481008288
 20
-14362.8424221522
 30
0.0
 11
21125.99672356379
 21
-14365.42526237605
 31
0.0
  0
LINE
  5
384
102
{ACAD_REACTORS
330
37A
102
}
330
1F
100
AcDbEntity
  8
ASSY
  6
ByBlock
 62
   190
370
    15
390
5F
100
AcDbLine
 10
21127.89033520002
 20
-14369.55911512495
 30
0.0
 11
21128.58267569867
 21
-14367.44156701292
 31
0.0
  0
LINE
  5
385
102
{ACAD_REACTORS
330
37A
102
}
330
1F
100
AcDbEntity
  8
ASSY
  6
ByBlock
 62
   190
370
    15
390
5F
100
AcDbLine
 10
21128.6544053834
 20
-14367.22217921345
 30
0.0
 11
21128.97823231381
 21
-14366.23174299538
 31
0.0
  0
LINE
  5
386
102
{ACAD_REACTORS
330
37A
102
}
330
1F
100
AcDbEntity
  8
ASSY
  6
ByBlock
 62
   190
370
    15
390
5F
100
AcDbLine
 10
21129.00705456252
 20
-14366.14358911957
 30
0.0
 11
21129.79982829513
 21
-14363.41982375478
 31
0.0
  0
LINE
  5
387
102
{ACAD_REACTORS
330
37A
102
}
330
1F
100
AcDbEntity
  8
ASSY
  6
ByBlock
 62
   190
370
    15
390
5F
100
AcDbLine
 10
21127.89033520002
 20
-14369.55911512495
 30
0.0
 11
21127.4429979636
 21
-14368.17646001835
 31
0.0
  0
LINE
  5
388
102
{ACAD_REACTORS
330
37A
102
}
330
1F
100
AcDbEntity
  8
ASSY
  6
ByBlock
 62
   190
370
    15
390
5F
100
AcDbLine
 10
21127.34678585388
 20
-14367.87908221479
 30
0.0
 11
21126.47183322008
 21
-14365.17472937173
 31
0.0
  0
LINE
  5
389
102
{ACAD_REACTORS
330
37A
102
}
330
1F
100
AcDbEntity
  8
ASSY
  6
ByBlock
 62
   190
370
    15
390
5F
100
AcDbLine
 10
21126.48342771409
 20
-14365.16861540757
 30
0.0
 11
21129.86972913276
 21
-14366.61164243231
 31
0.0
  0
LINE
  5
38A
102
{ACAD_REACTORS
330
37A
102
}
330
1F
100
AcDbEntity
  8
ASSY
  6
ByBlock
 62
   190
370
    15
390
5F
100
AcDbLine
 10
21126.87582525299
 20
-14368.11567659507
 30
0.0
 11
21129.86972913276
 21
-14366.61164243231
 31
0.0
  0
LINE
  5
38B
102
{ACAD_REACTORS
330
37A
102
}
330
1F
100
AcDbEntity
  8
ASSY
  6
ByBlock
 62
   190
370
    15
390
5F
100
AcDbLine
 10
21129.86972913276
 20
-14366.61164243231
 30
0.0
 11
21126.66958727932
 21
-14368.67517477318
 31
0.0
  0
LINE
  5
38C
102
{ACAD_REACTORS
330
37A
102
}
330
1F
100
AcDbEntity
  8
ASSY
  6
ByBlock
 62
   190
370
    15
390
5F
100
AcDbLine
 10
21127.89033520002
 20
-14369.55911512495
 30
0.0
 11
21126.66958727932
 21
-14368.67517477318
 31
0.0
  0
LINE
  5
38D
102
{ACAD_REACTORS
330
37A
102
}
330
1F
100
AcDbEntity
  8
ASSY
  6
ByBlock
 62
   190
370
    15
390
5F
100
AcDbLine
 10
21126.66958727932
 20
-14368.67517477318
 30
0.0
 11
21126.87582525299
 21
-14368.11567659507
 31
0.0
  0
LINE
  5
38E
102
{ACAD_REACTORS
330
37A
102
}
330
1F
100
AcDbEntity
  8
ASSY
  6
ByBlock
 62
   190
370
    15
390
5F
100
AcDbLine
 10
21126.85192528012
 20
-14364.97430068237
 30
0.0
 11
21129.86972913276
 21
-14366.61164243231
 31
0.0
  0
LINE
  5
38F
102
{ACAD_REACTORS
330
37A
102
}
330
1F
100
AcDbEntity
  8
ASSY
  6
ByBlock
 62
   190
370
    15
390
5F
100
AcDbLine
 10
21130.01429210884
 20
-14324.53714125633
 30
0.0
 11
21130.04408936501
 21
-14305.26236878807
 31
0.0
  0
LINE
  5
390
102
{ACAD_REACTORS
330
37A
102
}
330
1F
100
AcDbEntity
  8
ASSY
  6
ByBlock
 62
   190
370
    15
390
5F
100
AcDbLine
 10
21125.90558884967
 20
-14324.53078952979
 30
0.0
 11
21125.93538610583
 21
-14305.25601706153
 31
0.0
  0
LINE
  5
391
102
{ACAD_REACTORS
330
37A
102
}
330
1F
100
AcDbEntity
  8
ASSY
  6
ByBlock
 62
   190
370
    15
390
5F
100
AcDbLine
 10
21129.85526146233
 20
-14327.56210318735
 30
0.0
 11
21126.05526606014
 21
-14327.55622869846
 31
0.0
  0
LINE
  5
392
102
{ACAD_REACTORS
330
37A
102
}
330
1F
100
AcDbEntity
  8
ASSY
  6
ByBlock
 62
   190
370
    15
390
5F
100
AcDbLine
 10
21126.01719579781
 20
-14352.18251108113
 30
0.0
 11
21126.0116863575
 21
-14355.7463697069
 31
0.0
  0
LINE
  5
393
102
{ACAD_REACTORS
330
37A
102
}
330
1F
100
AcDbEntity
  8
ASSY
  6
ByBlock
 62
   190
370
    15
390
5F
100
AcDbLine
 10
21126.01037171981
 20
-14356.59676151277
 30
0.0
 11
21124.90516773657
 21
-14356.13784933486
 31
0.0
  0
LINE
  5
394
102
{ACAD_REACTORS
330
37A
102
}
330
1F
100
AcDbEntity
  8
ASSY
  6
ByBlock
 62
   190
370
    15
390
5F
100
AcDbLine
 10
21129.81508934986
 20
-14353.54799677135
 30
0.0
 11
21130.90845823889
 21
-14354.01392128895
 31
0.0
  0
LINE
  5
395
102
{ACAD_REACTORS
330
37A
102
}
330
1F
100
AcDbEntity
  8
ASSY
  6
ByBlock
 62
   190
370
    15
390
5F
100
AcDbLine
 10
21124.90516773657
 20
-14356.13784933486
 30
0.0
 11
21130.90845823889
 21
-14354.01392128895
 31
0.0
  0
LINE
  5
396
102
{ACAD_REACTORS
330
37A
102
}
330
1F
100
AcDbEntity
  8
ASSY
  6
ByBlock
 62
   190
370
    15
390
5F
100
AcDbLine
 10
21130.90845823889
 20
-14354.01392128895
 30
0.0
 11
21126.01037171981
 21
-14356.59676151277
 31
0.0
  0
LINE
  5
397
102
{ACAD_REACTORS
330
37A
102
}
330
1F
100
AcDbEntity
  8
ASSY
  6
ByBlock
 62
   190
370
    15
390
5F
100
AcDbLine
 10
21129.82030052915
 20
-14350.17707245992
 30
0.0
 11
21129.81377034231
 21
-14354.40121527782
 31
0.0
  0
LINE
  5
398
102
{ACAD_REACTORS
330
37A
102
}
330
1F
100
AcDbEntity
  8
ASSY
  6
ByBlock
 62
   190
370
    15
390
5F
100
AcDbLine
 10
21126.0035476418
 20
-14361.01101194441
 30
0.0
 11
21125.99803820149
 21
-14364.57487057018
 31
0.0
  0
LINE
  5
399
102
{ACAD_REACTORS
330
37A
102
}
330
1F
100
AcDbEntity
  8
ASSY
  6
ByBlock
 62
   190
370
    15
390
5F
100
AcDbLine
 10
21129.80665237314
 20
-14359.00557332317
 30
0.0
 11
21129.8001221863
 21
-14363.2297161411
 31
0.0
  0
LINE
  5
39A
102
{ACAD_REACTORS
330
37A
102
}
330
1F
100
AcDbEntity
  8
ASSY
  6
ByBlock
 62
   190
370
    15
390
5F
100
AcDbLine
 10
21126.02401987582
 20
-14347.76826064952
 30
0.0
 11
21126.01851043551
 21
-14351.33211927526
 31
0.0
  0
LINE
  5
39B
102
{ACAD_REACTORS
330
37A
102
}
330
1F
100
AcDbEntity
  8
ASSY
  6
ByBlock
 62
   190
370
    15
390
5F
100
AcDbLine
 10
21126.01719579781
 20
-14352.18251108113
 30
0.0
 11
21124.91199181457
 21
-14351.72359890325
 31
0.0
  0
LINE
  5
39C
102
{ACAD_REACTORS
330
37A
102
}
330
1F
100
AcDbEntity
  8
ASSY
  6
ByBlock
 62
   190
370
    15
390
5F
100
AcDbLine
 10
21129.82191342786
 20
-14349.13374633974
 30
0.0
 11
21130.9152823169
 21
-14349.59967085731
 31
0.0
  0
LINE
  5
39D
102
{ACAD_REACTORS
330
37A
102
}
330
1F
100
AcDbEntity
  8
ASSY
  6
ByBlock
 62
   190
370
    15
390
5F
100
AcDbLine
 10
21124.91199181457
 20
-14351.72359890325
 30
0.0
 11
21130.9152823169
 21
-14349.59967085731
 31
0.0
  0
LINE
  5
39E
102
{ACAD_REACTORS
330
37A
102
}
330
1F
100
AcDbEntity
  8
ASSY
  6
ByBlock
 62
   190
370
    15
390
5F
100
AcDbLine
 10
21130.9152823169
 20
-14349.59967085731
 30
0.0
 11
21126.01719579781
 21
-14352.18251108113
 31
0.0
  0
LINE
  5
39F
102
{ACAD_REACTORS
330
37A
102
}
330
1F
100
AcDbEntity
  8
ASSY
  6
ByBlock
 62
   190
370
    15
390
5F
100
AcDbLine
 10
21129.82712460715
 20
-14345.76282202828
 30
0.0
 11
21129.82059442031
 21
-14349.98696484618
 31
0.0
  0
LINE
  5
3A0
102
{ACAD_REACTORS
330
37A
102
}
330
1F
100
AcDbEntity
  8
ASSY
  6
ByBlock
 62
   190
370
    15
390
5F
100
AcDbLine
 10
21126.03084395382
 20
-14343.35401021788
 30
0.0
 11
21126.02533451351
 21
-14346.91786884365
 31
0.0
  0
LINE
  5
3A1
102
{ACAD_REACTORS
330
37A
102
}
330
1F
100
AcDbEntity
  8
ASSY
  6
ByBlock
 62
   190
370
    15
390
5F
100
AcDbLine
 10
21126.02401987582
 20
-14347.76826064952
 30
0.0
 11
21124.91881589258
 21
-14347.30934847161
 31
0.0
  0
LINE
  5
3A2
102
{ACAD_REACTORS
330
37A
102
}
330
1F
100
AcDbEntity
  8
ASSY
  6
ByBlock
 62
   190
370
    15
390
5F
100
AcDbLine
 10
21129.82873750587
 20
-14344.7194959081
 30
0.0
 11
21130.9221063949
 21
-14345.1854204257
 31
0.0
  0
LINE
  5
3A3
102
{ACAD_REACTORS
330
37A
102
}
330
1F
100
AcDbEntity
  8
ASSY
  6
ByBlock
 62
   190
370
    15
390
5F
100
AcDbLine
 10
21124.91881589258
 20
-14347.30934847161
 30
0.0
 11
21130.9221063949
 21
-14345.1854204257
 31
0.0
  0
LINE
  5
3A4
102
{ACAD_REACTORS
330
37A
102
}
330
1F
100
AcDbEntity
  8
ASSY
  6
ByBlock
 62
   190
370
    15
390
5F
100
AcDbLine
 10
21130.9221063949
 20
-14345.1854204257
 30
0.0
 11
21126.02401987582
 21
-14347.76826064952
 31
0.0
  0
LINE
  5
3A5
102
{ACAD_REACTORS
330
37A
102
}
330
1F
100
AcDbEntity
  8
ASSY
  6
ByBlock
 62
   190
370
    15
390
5F
100
AcDbLine
 10
21129.83394868516
 20
-14341.34857159664
 30
0.0
 11
21129.82741849832
 21
-14345.57271441456
 31
0.0
  0
LINE
  5
3A6
102
{ACAD_REACTORS
330
37A
102
}
330
1F
100
AcDbEntity
  8
ASSY
  6
ByBlock
 62
   190
370
    15
390
5F
100
AcDbLine
 10
21126.03766803183
 20
-14338.93975978624
 30
0.0
 11
21126.03215859152
 21
-14342.50361841201
 31
0.0
  0
LINE
  5
3A7
102
{ACAD_REACTORS
330
37A
102
}
330
1F
100
AcDbEntity
  8
ASSY
  6
ByBlock
 62
   190
370
    15
390
5F
100
AcDbLine
 10
21126.03084395382
 20
-14343.35401021788
 30
0.0
 11
21124.92563997058
 21
-14342.89509803997
 31
0.0
  0
LINE
  5
3A8
102
{ACAD_REACTORS
330
37A
102
}
330
1F
100
AcDbEntity
  8
ASSY
  6
ByBlock
 62
   190
370
    15
390
5F
100
AcDbLine
 10
21129.83556158387
 20
-14340.30524547645
 30
0.0
 11
21130.92893047291
 21
-14340.77116999406
 31
0.0
  0
LINE
  5
3A9
102
{ACAD_REACTORS
330
37A
102
}
330
1F
100
AcDbEntity
  8
ASSY
  6
ByBlock
 62
   190
370
    15
390
5F
100
AcDbLine
 10
21124.92563997058
 20
-14342.89509803997
 30
0.0
 11
21130.92893047291
 21
-14340.77116999406
 31
0.0
  0
LINE
  5
3AA
102
{ACAD_REACTORS
330
37A
102
}
330
1F
100
AcDbEntity
  8
ASSY
  6
ByBlock
 62
   190
370
    15
390
5F
100
AcDbLine
 10
21130.92893047291
 20
-14340.77116999406
 30
0.0
 11
21126.03084395382
 21
-14343.35401021788
 31
0.0
  0
LINE
  5
3AB
102
{ACAD_REACTORS
330
37A
102
}
330
1F
100
AcDbEntity
  8
ASSY
  6
ByBlock
 62
   190
370
    15
390
5F
100
AcDbLine
 10
21129.84077276317
 20
-14336.934321165
 30
0.0
 11
21129.83424257632
 21
-14341.15846398292
 31
0.0
  0
LINE
  5
3AC
102
{ACAD_REACTORS
330
37A
102
}
330
1F
100
AcDbEntity
  8
ASSY
  6
ByBlock
 62
   190
370
    15
390
5F
100
AcDbLine
 10
21126.04449210983
 20
-14334.52550935463
 30
0.0
 11
21126.03898266952
 21
-14338.0893679804
 31
0.0
  0
LINE
  5
3AD
102
{ACAD_REACTORS
330
37A
102
}
330
1F
100
AcDbEntity
  8
ASSY
  6
ByBlock
 62
   190
370
    15
390
5F
100
AcDbLine
 10
21126.03766803183
 20
-14338.93975978624
 30
0.0
 11
21124.93246404859
 21
-14338.48084760833
 31
0.0
  0
LINE
  5
3AE
102
{ACAD_REACTORS
330
37A
102
}
330
1F
100
AcDbEntity
  8
ASSY
  6
ByBlock
 62
   190
370
    15
390
5F
100
AcDbLine
 10
21129.84238566188
 20
-14335.89099504481
 30
0.0
 11
21130.93575455092
 21
-14336.35691956241
 31
0.0
  0
LINE
  5
3AF
102
{ACAD_REACTORS
330
37A
102
}
330
1F
100
AcDbEntity
  8
ASSY
  6
ByBlock
 62
   190
370
    15
390
5F
100
AcDbLine
 10
21124.93246404859
 20
-14338.48084760833
 30
0.0
 11
21130.93575455092
 21
-14336.35691956241
 31
0.0
  0
LINE
  5
3B0
102
{ACAD_REACTORS
330
37A
102
}
330
1F
100
AcDbEntity
  8
ASSY
  6
ByBlock
 62
   190
370
    15
390
5F
100
AcDbLine
 10
21130.93575455092
 20
-14336.35691956241
 30
0.0
 11
21126.03766803183
 21
-14338.93975978624
 31
0.0
  0
LINE
  5
3B1
102
{ACAD_REACTORS
330
37A
102
}
330
1F
100
AcDbEntity
  8
ASSY
  6
ByBlock
 62
   190
370
    15
390
5F
100
AcDbLine
 10
21129.84759684117
 20
-14332.52007073336
 30
0.0
 11
21129.84106665433
 21
-14336.74421355131
 31
0.0
  0
LINE
  5
3B2
102
{ACAD_REACTORS
330
37A
102
}
330
1F
100
AcDbEntity
  8
ASSY
  6
ByBlock
 62
   190
370
    15
390
5F
100
AcDbLine
 10
21126.04449210983
 20
-14334.52550935463
 30
0.0
 11
21124.93928812659
 21
-14334.06659717669
 31
0.0
  0
LINE
  5
3B3
102
{ACAD_REACTORS
330
37A
102
}
330
1F
100
AcDbEntity
  8
ASSY
  6
ByBlock
 62
   190
370
    15
390
5F
100
AcDbLine
 10
21129.84920973988
 20
-14331.47674461317
 30
0.0
 11
21130.94257862892
 21
-14331.94266913077
 31
0.0
  0
LINE
  5
3B4
102
{ACAD_REACTORS
330
37A
102
}
330
1F
100
AcDbEntity
  8
ASSY
  6
ByBlock
 62
   190
370
    15
390
5F
100
AcDbLine
 10
21124.93928812659
 20
-14334.06659717669
 30
0.0
 11
21130.94257862892
 21
-14331.94266913077
 31
0.0
  0
LINE
  5
3B5
102
{ACAD_REACTORS
330
37A
102
}
330
1F
100
AcDbEntity
  8
ASSY
  6
ByBlock
 62
   190
370
    15
390
5F
100
AcDbLine
 10
21130.94257862892
 20
-14331.94266913077
 30
0.0
 11
21126.04449210983
 21
-14334.52550935463
 31
0.0
  0
LINE
  5
3B6
102
{ACAD_REACTORS
330
37A
102
}
330
1F
100
AcDbEntity
  8
ASSY
  6
ByBlock
 62
   190
370
    15
390
5F
100
AcDbLine
 10
21129.8545746639
 20
-14328.00636837303
 30
0.0
 11
21129.84789073233
 21
-14332.32996311967
 31
0.0
  0
LINE
  5
3B7
102
{ACAD_REACTORS
330
37A
102
}
330
1F
100
AcDbEntity
  8
ASSY
  6
ByBlock
 62
   190
370
    15
390
5F
100
AcDbLine
 10
21126.05835789641
 20
-14325.55623111836
 30
0.0
 11
21126.05263082554
 21
-14329.26086711712
 31
0.0
  0
LINE
  5
3B8
102
{ACAD_REACTORS
330
37A
102
}
330
1F
100
AcDbEntity
  8
ASSY
  6
ByBlock
 62
   190
370
    15
390
5F
100
AcDbLine
 10
21126.05131618784
 20
-14330.11125892299
 30
0.0
 11
21124.9461122046
 21
-14329.65234674508
 31
0.0
  0
LINE
  5
3B9
102
{ACAD_REACTORS
330
37A
102
}
330
1F
100
AcDbEntity
  8
ASSY
  6
ByBlock
 62
   190
370
    15
390
5F
100
AcDbLine
 10
21129.85526146234
 20
-14327.56210318729
 30
0.0
 11
21130.30839934442
 21
-14327.75520183062
 31
0.0
  0
LINE
  5
3BA
102
{ACAD_REACTORS
330
37A
102
}
330
1F
100
AcDbEntity
  8
ASSY
  6
ByBlock
 62
   190
370
    15
390
5F
100
AcDbLine
 10
21124.9461122046
 20
-14329.65234674508
 30
0.0
 11
21130.30839934442
 21
-14327.75520183062
 31
0.0
  0
LINE
  5
3BB
102
{ACAD_REACTORS
330
37A
102
}
330
1F
100
AcDbEntity
  8
ASSY
  6
ByBlock
 62
   190
370
    15
390
5F
100
AcDbLine
 10
21130.30839934442
 20
-14327.75520183062
 30
0.0
 11
21126.05131618784
 21
-14330.11125892299
 31
0.0
  0
LINE
  5
3BC
102
{ACAD_REACTORS
330
37A
102
}
330
1F
100
AcDbEntity
  8
ASSY
  6
ByBlock
 62
   190
370
    15
390
5F
100
AcDbLine
 10
21129.85835329859
 20
-14325.56210560724
 30
0.0
 11
21129.85471481034
 21
-14327.91571268803
 31
0.0
  0
LINE
  5
3BD
102
{ACAD_REACTORS
330
37A
102
}
330
1F
100
AcDbEntity
  8
ASSY
  6
ByBlock
 62
   190
370
    15
390
5F
100
AcDbLine
 10
21126.05131618783
 20
-14330.11125892299
 30
0.0
 11
21126.04580674753
 21
-14333.67511754876
 31
0.0
  0
LINE
  5
3BE
102
{ACAD_REACTORS
330
37A
102
}
330
1F
100
AcDbEntity
  8
ASSY
  6
ByBlock
 62
   190
370
    15
390
5F
100
AcDbLine
 10
21125.93538610583
 20
-14305.25601706153
 30
0.0
 11
21124.74589508021
 21
-14303.75417643369
 31
0.0
  0
LINE
  5
3BF
102
{ACAD_REACTORS
330
37A
102
}
330
1F
100
AcDbEntity
  8
ASSY
  6
ByBlock
 62
   190
370
    15
390
5F
100
AcDbLine
 10
21121.99855672847
 20
-14299.54992431277
 30
0.0
 11
21121.99731999397
 21
-14300.34992334482
 31
0.0
  0
LINE
  5
3C0
102
{ACAD_REACTORS
330
37A
102
}
330
1F
100
AcDbEntity
  8
ASSY
  6
ByBlock
 62
   190
370
    15
390
5F
100
AcDbLine
 10
21133.99854220906
 20
-14299.56847533028
 30
0.0
 11
21133.99730547456
 21
-14300.3684743623
 31
0.0
  0
LINE
  5
3C1
102
{ACAD_REACTORS
330
37A
102
}
330
1F
100
AcDbEntity
  8
ASSY
  6
ByBlock
 62
   190
370
    15
390
5F
100
AcDbLine
 10
21133.99854220906
 20
-14299.56847533028
 30
0.0
 11
21121.99855672847
 21
-14299.54992431277
 31
0.0
  0
LINE
  5
3C2
102
{ACAD_REACTORS
330
37A
102
}
330
1F
100
AcDbEntity
  8
ASSY
  6
ByBlock
 62
   190
370
    15
390
5F
100
AcDbLine
 10
21131.23821814507
 20
-14303.76421304574
 30
0.0
 11
21124.74589508022
 21
-14303.75417643369
 31
0.0
  0
LINE
  5
3C3
102
{ACAD_REACTORS
330
37A
102
}
330
1F
100
AcDbEntity
  8
ASSY
  6
ByBlock
 62
   190
370
    15
390
5F
100
AcDbLine
 10
21130.04408936501
 20
-14305.26236878807
 30
0.0
 11
21125.93538610583
 21
-14305.25601706153
 31
0.0
  0
LINE
  5
3C4
102
{ACAD_REACTORS
330
37A
102
}
330
1F
100
AcDbEntity
  8
ASSY
  6
ByBlock
 62
   190
370
    15
390
5F
100
AcDbLine
 10
21133.99730547456
 20
-14300.3684743623
 30
0.0
 11
21121.99731999397
 21
-14300.34992334482
 31
0.0
  0
LINE
  5
3C5
102
{ACAD_REACTORS
330
37A
102
}
330
1F
100
AcDbEntity
  8
ASSY
  6
ByBlock
 62
   190
370
    15
390
5F
100
AcDbLine
 10
21121.99731999397
 20
-14300.34992334482
 30
0.0
 11
21124.74589508029
 21
-14303.75417643369
 31
0.0
  0
LINE
  5
3C6
102
{ACAD_REACTORS
330
37A
102
}
330
1F
100
AcDbEntity
  8
ASSY
  6
ByBlock
 62
   190
370
    15
390
5F
100
AcDbLine
 10
21124.59394097098
 20
-14300.35393751311
 30
0.0
 11
21126.35637965958
 21
-14303.75666611403
 31
0.0
  0
LINE
  5
3C7
102
{ACAD_REACTORS
330
37A
102
}
330
1F
100
AcDbEntity
  8
ASSY
  6
ByBlock
 62
   190
370
    15
390
5F
100
AcDbLine
 10
21131.40068449755
 20
-14300.36446019402
 30
0.0
 11
21129.62773356571
 21
-14303.76172336543
 31
0.0
  0
LINE
  5
3C8
102
{ACAD_REACTORS
330
37A
102
}
330
1F
100
AcDbEntity
  8
ASSY
  6
ByBlock
 62
   190
370
    15
390
5F
100
AcDbLine
 10
21130.04408936501
 20
-14305.26236878807
 30
0.0
 11
21131.23821814507
 21
-14303.76421304574
 31
0.0
  0
LINE
  5
3C9
102
{ACAD_REACTORS
330
37A
102
}
330
1F
100
AcDbEntity
  8
ASSY
  6
ByBlock
 62
   190
370
    15
390
5F
100
AcDbLine
 10
21133.99730547457
 20
-14300.36847436233
 30
0.0
 11
21131.23821814499
 21
-14303.76421304574
 31
0.0
  0
LINE
  5
3CA
102
{ACAD_REACTORS
330
3CB
102
}
330
1F
100
AcDbEntity
  8
ASSY
  6
ByBlock
 62
   190
370
    15
390
5F
100
AcDbLine
 10
21129.90649395416
 20
-14079.56454864479
 30
0.0
 11
21130.99986284319
 21
-14080.03047316239
 31
0.0
  0
LINE
  5
3CC
102
{ACAD_REACTORS
330
3CB
102
}
330
1F
100
AcDbEntity
  8
ASSY
  6
ByBlock
 62
   190
370
    15
390
5F
100
AcDbLine
 10
21124.99657234086
 20
-14082.1544012083
 30
0.0
 11
21130.99986284319
 21
-14080.03047316239
 31
0.0
  0
LINE
  5
3CD
102
{ACAD_REACTORS
330
3CB
102
}
330
1F
100
AcDbEntity
  8
ASSY
  6
ByBlock
 62
   190
370
    15
390
5F
100
AcDbLine
 10
21130.99986284319
 20
-14080.03047316239
 30
0.0
 11
21126.1017763241
 21
-14082.61331338622
 31
0.0
  0
LINE
  5
3CE
102
{ACAD_REACTORS
330
3CB
102
}
330
1F
100
AcDbEntity
  8
ASSY
  6
ByBlock
 62
   190
370
    15
390
5F
100
AcDbLine
 10
21129.91170513345
 20
-14076.19362433333
 30
0.0
 11
21129.9051749466
 21
-14080.41776715129
 31
0.0
  0
LINE
  5
3CF
102
{ACAD_REACTORS
330
3CB
102
}
330
1F
100
AcDbEntity
  8
ASSY
  6
ByBlock
 62
   190
370
    15
390
5F
100
AcDbLine
 10
21126.11542448011
 20
-14073.78481252296
 30
0.0
 11
21126.1099150398
 21
-14077.34867114873
 31
0.0
  0
LINE
  5
3D0
102
{ACAD_REACTORS
330
3CB
102
}
330
1F
100
AcDbEntity
  8
ASSY
  6
ByBlock
 62
   190
370
    15
390
5F
100
AcDbLine
 10
21126.10860040211
 20
-14078.19906295461
 30
0.0
 11
21125.00339641887
 21
-14077.74015077666
 31
0.0
  0
LINE
  5
3D1
102
{ACAD_REACTORS
330
3CB
102
}
330
1F
100
AcDbEntity
  8
ASSY
  6
ByBlock
 62
   190
370
    15
390
5F
100
AcDbLine
 10
21129.91331803216
 20
-14075.15029821315
 30
0.0
 11
21131.00668692119
 21
-14075.61622273075
 31
0.0
  0
LINE
  5
3D2
102
{ACAD_REACTORS
330
3CB
102
}
330
1F
100
AcDbEntity
  8
ASSY
  6
ByBlock
 62
   190
370
    15
390
5F
100
AcDbLine
 10
21125.00339641887
 20
-14077.74015077666
 30
0.0
 11
21131.00668692119
 21
-14075.61622273075
 31
0.0
  0
LINE
  5
3D3
102
{ACAD_REACTORS
330
3CB
102
}
330
1F
100
AcDbEntity
  8
ASSY
  6
ByBlock
 62
   190
370
    15
390
5F
100
AcDbLine
 10
21131.00668692119
 20
-14075.61622273075
 30
0.0
 11
21126.10860040211
 21
-14078.19906295461
 31
0.0
  0
LINE
  5
3D4
102
{ACAD_REACTORS
330
3CB
102
}
330
1F
100
AcDbEntity
  8
ASSY
  6
ByBlock
 62
   190
370
    15
390
5F
100
AcDbLine
 10
21129.91852921145
 20
-14071.77937390172
 30
0.0
 11
21129.91199902461
 21
-14076.00351671965
 31
0.0
  0
LINE
  5
3D5
102
{ACAD_REACTORS
330
3CB
102
}
330
1F
100
AcDbEntity
  8
ASSY
  6
ByBlock
 62
   190
370
    15
390
5F
100
AcDbLine
 10
21126.12224855812
 20
-14069.37056209132
 30
0.0
 11
21126.11673911781
 21
-14072.93442071709
 31
0.0
  0
LINE
  5
3D6
102
{ACAD_REACTORS
330
3CB
102
}
330
1F
100
AcDbEntity
  8
ASSY
  6
ByBlock
 62
   190
370
    15
390
5F
100
AcDbLine
 10
21126.11542448011
 20
-14073.78481252296
 30
0.0
 11
21125.01022049688
 21
-14073.32590034505
 31
0.0
  0
LINE
  5
3D7
102
{ACAD_REACTORS
330
3CB
102
}
330
1F
100
AcDbEntity
  8
ASSY
  6
ByBlock
 62
   190
370
    15
390
5F
100
AcDbLine
 10
21129.92014211016
 20
-14070.73604778154
 30
0.0
 11
21131.0135109992
 21
-14071.20197229911
 31
0.0
  0
LINE
  5
3D8
102
{ACAD_REACTORS
330
3CB
102
}
330
1F
100
AcDbEntity
  8
ASSY
  6
ByBlock
 62
   190
370
    15
390
5F
100
AcDbLine
 10
21125.01022049688
 20
-14073.32590034505
 30
0.0
 11
21131.0135109992
 21
-14071.20197229911
 31
0.0
  0
LINE
  5
3D9
102
{ACAD_REACTORS
330
3CB
102
}
330
1F
100
AcDbEntity
  8
ASSY
  6
ByBlock
 62
   190
370
    15
390
5F
100
AcDbLine
 10
21131.0135109992
 20
-14071.20197229911
 30
0.0
 11
21126.11542448011
 21
-14073.78481252296
 31
0.0
  0
LINE
  5
3DA
102
{ACAD_REACTORS
330
3CB
102
}
330
1F
100
AcDbEntity
  8
ASSY
  6
ByBlock
 62
   190
370
    15
390
5F
100
AcDbLine
 10
21129.92535328945
 20
-14067.36512347008
 30
0.0
 11
21129.91882310261
 21
-14071.58926628801
 31
0.0
  0
LINE
  5
3DB
102
{ACAD_REACTORS
330
3CB
102
}
330
1F
100
AcDbEntity
  8
ASSY
  6
ByBlock
 62
   190
370
    15
390
5F
100
AcDbLine
 10
21126.12224855812
 20
-14069.37056209132
 30
0.0
 11
21125.01704457488
 21
-14068.91164991341
 31
0.0
  0
LINE
  5
3DC
102
{ACAD_REACTORS
330
3CB
102
}
330
1F
100
AcDbEntity
  8
ASSY
  6
ByBlock
 62
   190
370
    15
390
5F
100
AcDbLine
 10
21129.92696618817
 20
-14066.3217973499
 30
0.0
 11
21131.02033507721
 21
-14066.7877218675
 31
0.0
  0
LINE
  5
3DD
102
{ACAD_REACTORS
330
3CB
102
}
330
1F
100
AcDbEntity
  8
ASSY
  6
ByBlock
 62
   190
370
    15
390
5F
100
AcDbLine
 10
21125.01704457488
 20
-14068.91164991341
 30
0.0
 11
21131.02033507721
 21
-14066.7877218675
 31
0.0
  0
LINE
  5
3DE
102
{ACAD_REACTORS
330
3CB
102
}
330
1F
100
AcDbEntity
  8
ASSY
  6
ByBlock
 62
   190
370
    15
390
5F
100
AcDbLine
 10
21131.02033507721
 20
-14066.7877218675
 30
0.0
 11
21126.12224855812
 21
-14069.37056209132
 31
0.0
  0
LINE
  5
3DF
102
{ACAD_REACTORS
330
3CB
102
}
330
1F
100
AcDbEntity
  8
ASSY
  6
ByBlock
 62
   190
370
    15
390
5F
100
AcDbLine
 10
21126.10860040211
 20
-14078.19906295461
 30
0.0
 11
21126.1030909618
 21
-14081.76292158035
 31
0.0
  0
LINE
  5
3E0
102
{ACAD_REACTORS
330
3CB
102
}
330
1F
100
AcDbEntity
  8
ASSY
  6
ByBlock
 62
   190
370
    15
390
5F
100
AcDbLine
 10
21126.1017763241
 20
-14082.61331338622
 30
0.0
 11
21124.99657234086
 21
-14082.1544012083
 31
0.0
  0
LINE
  5
3E1
102
{ACAD_REACTORS
330
2E0
102
}
330
1F
100
AcDbEntity
  8
DEFPOINTS
 62
   190
370
    15
390
5F
100
AcDbLine
 10
20517.72407068928
 20
-13709.85973251658
 30
0.0
 11
20517.61585642052
 21
-13779.85964782003
 31
0.0
  0
LINE
  5
3E2
102
{ACAD_REACTORS
330
2D2
102
}
330
1F
100
AcDbEntity
  8
DEFPOINTS
 62
   190
370
    15
390
5F
100
AcDbLine
 10
21128.08995407306
 20
-14057.45529709113
 30
0.0
 11
21127.98173980431
 21
-14127.45521239459
 31
0.0
  0
LINE
  5
3E3
102
{ACAD_REACTORS
330
37A
102
}
330
1F
100
AcDbEntity
  8
DEFPOINTS
 62
   190
370
    15
390
5F
100
AcDbLine
 10
21127.99854946876
 20
-14299.55919982152
 30
0.0
 11
21127.89033520001
 21
-14369.55911512498
 31
0.0
  0
IMAGE
  5
3E5
330
1F
100
AcDbEntity
  8
Ech.1_5
  6
Continuous
390
5F
160
                 8
310
0800000000000000
100
AcDbRasterImage
 90
        0
 10
21086.21483491558
 20
-14858.51626086683
 30
0.0
 11
0.1487334262910545
 21
0.0
 31
0.0
 12
0.0
 22
0.1487334272781585
 32
0.0
 13
954.0
 23
334.0
340
3E4
 70
     7
280
     0
281
    50
282
    50
283
     0
360
3E6
 71
     1
 91
        2
 14
-0.5
 24
-0.5
 14
953.5
 24
333.5
290
     0
  0
INSERT
  5
3F8
102
{ACAD_REACTORS
330
3F9
330
3FA
102
}
330
1F
100
AcDbEntity
  8
Ech.1_5
100
AcDbBlockReference
  2
DIM320
 10
0.0
 20
0.0
 30
0.0
  0
INSERT
  5
40C
102
{ACAD_REACTORS
330
40D
330
3FA
102
}
330
1F
100
AcDbEntity
  8
Ech.1_5
100
AcDbBlockReference
  2
DIM321
 10
0.0
 20
0.0
 30
0.0
  0
INSERT
  5
41F
102
{ACAD_REACTORS
330
420
330
3FA
102
}
330
1F
100
AcDbEntity
  8
Ech.1_5
100
AcDbBlockReference
  2
DIM322
 10
0.0
 20
0.0
 30
0.0
  0
INSERT
  5
432
102
{ACAD_REACTORS
330
433
330
3FA
102
}
330
1F
100
AcDbEntity
  8
Ech.1_5
100
AcDbBlockReference
  2
DIM323
 10
0.0
 20
0.0
 30
0.0
  0
MTEXT
  5
434
102
{ACAD_REACTORS
330
3F9
102
}
330
1F
100
AcDbEntity
  8
Ech.1_5
  6
Continuous
 62
   190
390
5F
100
AcDbMText
 10
20666.38934237358
 20
-13724.17120891126
 30
0.0
 40
12.5
 41
0.0
 46
0.0
 71
     1
 72
     1
  1
\A1;\fArial|b0|i0;\W1.000000;\H12.500000;e
  7
arial-
 11
6.123233995736766E-17
 21
1.0
 31
0.0
 73
     1
 44
1.0
 90
        3
 63
     9
421
 13158600
 45
1.15
441
 33554687
  0
MTEXT
  5
435
102
{ACAD_REACTORS
330
40D
102
}
330
1F
100
AcDbEntity
  8
Ech.1_5
  6
Continuous
 62
   190
390
5F
100
AcDbMText
 10
20667.3010239974
 20
-13744.58496959269
 30
0.0
 40
12.5
 41
0.0
 46
0.0
 71
     1
 72
     1
  1
\A1;\fArial|b0|i0;\W1.000000;\H12.500000;3
  7
arial-
 11
6.123233995736766E-17
 21
1.0
 31
0.0
 73
     1
 44
1.0
 90
        3
 63
     9
421
 13158600
 45
1.15
441
 33554687
  0
MTEXT
  5
436
102
{ACAD_REACTORS
330
420
102
}
330
1F
100
AcDbEntity
  8
Ech.1_5
  6
Continuous
 62
   190
390
5F
100
AcDbMText
 10
20666.52987182179
 20
-13765.31926580254
 30
0.0
 40
12.5
 41
0.0
 46
0.0
 71
     1
 72
     1
  1
\A1;\fArial|b0|i0;\W1.000000;\H12.500000;S
  7
arial-
 11
6.123233995736766E-17
 21
1.0
 31
0.0
 73
     1
 44
1.0
 90
        3
 63
     9
421
 13158600
 45
1.15
441
 33554687
  0
MTEXT
  5
437
102
{ACAD_REACTORS
330
433
102
}
330
1F
100
AcDbEntity
  8
Ech.1_5
  6
Continuous
 62
   190
390
5F
100
AcDbMText
 10
20667.7508574408
 20
-13795.96377779724
 30
0.0
 40
12.5
 41
0.0
 46
0.0
 71
     1
 72
     1
  1
\A1;\fArial|b0|i0;\W1.000000;\H12.500000;R
  7
arial-
 11
6.123233995736766E-17
 21
1.0
 31
0.0
 73
     1
 44
1.0
 90
        3
 63
     9
421
 13158600
 45
1.15
441
 33554687
  0
MTEXT
  5
438
102
{ACAD_REACTORS
330
22D
330
22E
330
22F
102
}
330
1F
100
AcDbEntity
  8
Ech.1_5
  6
Continuous
 62
     4
420
    65535
390
5F
100
AcDbMText
 10
20943.25475723877
 20
-14729.15115328599
 30
0.0
 40
12.5
 41
488.342884635189
 46
0.0
 71
     2
 72
     1
  1
{\fArial|b0|i0;\W1.000000;\H12.500000;\c16711848;Vues en coupe longitudinale}
  7
arial-
 73
     1
 44
1.07999975538982
  0
MTEXT
  5
439
102
{ACAD_REACTORS
330
22D
330
22E
330
22F
102
}
330
1F
100
AcDbEntity
  8
Ech.1_5
  6
Continuous
 62
     4
420
    65535
390
5F
100
AcDbMText
 10
21263.57486725962
 20
-14728.98397679324
 30
0.0
 40
12.5
 41
127.2973354064998
 46
0.0
 71
     2
 72
     1
  1
{\fArial|b0|i0;\W1.000000;\H12.500000;\c16711848;Ech 1/5 }
  7
arial-
 73
     1
 44
1.07999975538982
  0
MTEXT
  5
43A
102
{ACAD_REACTORS
330
22D
330
22E
330
22F
102
}
330
1F
100
AcDbEntity
  8
Ech.1_5
  6
Continuous
 62
     4
420
    65535
390
5F
100
AcDbMText
 10
20614.7557059235
 20
-14728.71222049068
 30
0.0
 40
12.5
 41
143.6552179953542
 46
0.0
 71
     2
 72
     1
  1
{\fArial|b0|i0;\W1.000000;\H12.500000;\c16711848;LDPB-CE-06}
  7
arial-
 73
     1
 44
1.07999975538982
  0
MTEXT
  5
43C
102
{ACAD_REACTORS
330
22D
330
22E
330
22F
102
}
330
1F
100
AcDbEntity
  8
Ech.1_5
  6
Continuous
 62
   200
420
 11010303
390
5F
100
AcDbMText
 10
20840.97353496286
 20
-14750.48133782763
 30
0.0
 40
6.25
 41
978.7500000000109
 46
0.0
 71
     2
 72
     1
  3
{\fArial|b0|i1;\W1.000000;\H6.250000;\c16711848; Il est rappelé à l'utilisateur qui consulte le site et utilise les informations qu'il contient, qu'il doit les utiliser sous sa seule responsabilité en vérifiant leur pertinence, leur cohérence et leur
  1
 non obsolescence.}
  7
arial-i
 73
     1
 44
1.07999975538982
  0
MTEXT
  5
43D
102
{ACAD_REACTORS
330
22D
330
22E
330
22F
102
}
330
1F
100
AcDbEntity
  8
Ech.1_5
  6
Continuous
 62
   200
420
 11010303
390
5F
100
AcDbMText
 10
20840.97353496286
 20
-14784.64586572116
 30
0.0
 40
8.125
 41
976.8750000000109
 46
0.0
 71
     2
 72
     1
  1
{\fArial|b0|i1;\W1.000000;\H8.125000;\c16711848;www.catalogue-bois-construction.fr}
  7
arial-i
 73
     1
 44
1.07999975538982
  0
MTEXT
  5
43E
102
{ACAD_REACTORS
330
22F
102
}
330
1F
100
AcDbEntity
  8
Ech.1_5
  6
Continuous
 62
     4
420
    65535
390
5F
100
AcDbMText
 10
20840.97353496286
 20
-13579.41026497889
 30
0.0
 40
16.25
 41
968.7500000000109
 46
0.0
 71
     2
 72
     1
  1
{\fArial|b0|i0;\W1.000000;\H16.250000;\c16711848;Points singuliers : choix longueur et diamètre vis }
  7
arial-
 73
     1
 44
1.07999975538982
  0
MTEXT
  5
43F
330
1F
100
AcDbEntity
  8
Ech.1_5
  6
Continuous
 62
     4
420
    65535
390
5F
100
AcDbMText
 10
20840.97353496286
 20
-13516.00029255589
 30
0.0
 40
16.25
 41
968.7500000000109
 46
0.0
 71
     2
 72
     1
  1
{\fArial|b0|i0;\W1.000000;\H16.250000;\c16711848;PLATELAGE}
  7
arial-
 73
     1
 44
1.07999975538982
  0
MTEXT
  5
441
330
1F
100
AcDbEntity
  8
Ech.1_5
  6
Continuous
 62
     4
420
    65535
390
5F
100
AcDbMText
 10
20840.97353496286
 20
-13640.4238503729
 30
0.0
 40
15.0
 41
756.4029578070404
 46
0.0
 71
     2
 72
     1
  1
{\fArial|b1|i0;\W1.000000;\H15.000000;\c16711848;La longueur de la vis se détermine sur la base du tableau suivant :}
  7
arial-b
 73
     1
 44
1.07999975538982
  0
MTEXT
  5
442
330
1F
100
AcDbEntity
  8
Ech.1_5
  6
Continuous
 62
     4
420
    65535
390
5F
100
AcDbMText
 10
20840.97353496286
 20
-13948.98327524168
 30
0.0
 40
15.0
 41
756.4029578070404
 46
0.0
 71
     2
 72
     1
  1
{\fArial|b1|i0;\W1.000000;\H15.000000;\c16711848;La longueur exacte des vis est affinée selon les conditions suivantes :}
  7
arial-b
 73
     1
 44
1.07999975538982
  0
MTEXT
  5
443
330
1F
100
AcDbEntity
  8
Ech.1_5
  6
Continuous
 62
     4
420
    65535
390
5F
100
AcDbMText
 10
20649.07306243382
 20
-14063.85888761363
 30
0.0
 40
15.0
 41
545.3330306869175
 46
0.0
 71
     2
 72
     1
  1
{\fArial|b1|i0;\W1.000000;\H15.000000;\c16711848;Double filetage :}\P{\fArial|b0|i0;\W1.000000;\H15.000000;\c16711848;Longueur de filetage sous la tête < épaisseur de la lame}
  7
arial-b
 73
     1
 44
1.07999975538982
  0
MTEXT
  5
444
330
1F
100
AcDbEntity
  8
Ech.1_5
  6
Continuous
 62
     4
420
    65535
390
5F
100
AcDbMText
 10
20632.05310174127
 20
-14303.34989338147
 30
0.0
 40
15.0
 41
486.4257414599415
 46
0.0
 71
     2
 72
     1
  3
{\fArial|b1|i0;\W1.000000;\H15.000000;\c16711848;Congé de filetage sous tête (filetage partiel):}\P{\fArial|b0|i0;\W1.000000;\H15.000000;\c16711848;Longueur du congé de filetage sous la tête }\P{\fArial|b0|i0;\W1.000000;\H15.000000;\c16711848;> épais
  1
seur de la lame}
  7
arial-b
 73
     1
 44
1.07999975538982
  0
MTEXT
  5
445
330
1F
100
AcDbEntity
  8
Ech.1_5
  6
Continuous
 62
     4
420
    65535
390
5F
100
AcDbMText
 10
20840.97353496286
 20
-14532.89104716913
 30
0.0
 40
15.0
 41
756.4029578070404
 46
0.0
 71
     2
 72
     1
  1
{\fArial|b1|i0;\W1.000000;\H15.000000;\c16711848;Le diamètre des vis se détermine sur la base du tableau suivant :}
  7
arial-b
 73
     1
 44
1.07999975538982
  0
MTEXT
  5
446
330
1F
100
AcDbEntity
  8
Ech.1_5
  6
Continuous
 62
     4
420
    65535
390
5F
100
AcDbMText
 10
20679.47040658924
 20
-13855.46335272497
 30
0.0
 40
13.75
 41
629.2038933553704
 46
0.0
 71
     1
 72
     1
  1
{\fArial|b0|i0;\W1.000000;\H13.750000;\c16711848;Attention à la valeur de talon pour définir la hauteur minimale de lambourde.}\P{\fArial|b0|i0;\W1.000000;\H13.750000;\c16711848;Les vis ne doivent jamais dépasser sous la lambourde.}
  7
arial-
 73
     1
 44
1.07999975538982
  0
MTEXT
  5
447
330
1F
100
AcDbEntity
  8
Ech.1_5
  6
Continuous
 62
     4
420
    65535
390
5F
100
AcDbMText
 10
20840.97353496285
 20
-13546.78639256326
 30
0.0
 40
16.25
 41
968.75
 46
0.0
 71
     2
 72
     1
  1
{\fArial|b1|i0;\W1.000000;\H16.250000;\c16711848;Lames et lambourdage double sur plots béton - Conception élaborée}
  7
arial-b
 73
     1
 44
1.07999975538982
  0
TEXT
  5
448
330
1F
100
AcDbEntity
  8
Ech.1_5
  6
Continuous
 62
   190
390
5F
100
AcDbText
 10
20407.10718795507
 20
-14743.0629332051
 30
0.0
 40
12.5
  1
17/02/2022
  7
arial-
100
AcDbText
  0
TEXT
  5
449
102
{ACAD_REACTORS
330
2DE
102
}
330
1F
100
AcDbEntity
  8
Ech.1_5
  6
Continuous
 62
   190
390
5F
100
AcDbText
 10
20406.60662632213
 20
-13841.53346696022
 30
0.0
 40
13.75
  1
!
  7
arial-
100
AcDbText
  0
VIEWPORT
  5
21D
330
217
100
AcDbEntity
 67
     1
  8
0
  6
Continuous
390
5F
100
AcDbViewport
 10
98.8
 20
135.8
 30
0.0
 40
209.0608
 41
287.3528000000001
 68
     1
 69
     1
 12
128.5
 22
97.5
 13
0.0
 23
0.0
 14
10.0
 24
10.0
 15
10.0
 25
10.0
 16
0.0
 26
0.0
 36
1.0
 17
0.0
 27
0.0
 37
0.0
 42
50.0
 43
0.0
 44
0.0
 45
222.18
 50
0.0
 51
0.0
 72
   100
 90
   557152
  1

281
     0
 71
     1
 74
     0
110
0.0
120
0.0
130
0.0
111
1.0
121
0.0
131
0.0
112
0.0
122
1.0
132
0.0
 79
     0
146
0.0
170
     0
 61
     5
348
2F
292
     1
282
     1
141
0.0
142
0.0
 63
   256
361
21E
  0
VIEWPORT
  5
21F
330
217
100
AcDbEntity
 67
     1
  8
0
  6
Continuous
 60
     1
390
5F
100
AcDbViewport
 10
98.8
 20
135.8
 30
0.0
 40
197.6
 41
271.6
 68
     2
 69
     2
 12
20840.97353496286
 22
-14185.37529255591
 13
0.0
 23
0.0
 14
10.0
 24
10.0
 15
10.0
 25
10.0
 16
0.0
 26
0.0
 36
1.0
 17
0.0
 27
0.0
 37
0.0
 42
50.0
 43
0.0
 44
0.0
 45
1358.000000000029
 50
0.0
 51
0.0
 72
   100
 90
   557152
  1

281
     0
 71
     1
 74
     0
110
0.0
120
0.0
130
0.0
111
1.0
121
0.0
131
0.0
112
0.0
122
1.0
132
0.0
 79
     0
146
0.0
170
     0
 61
     5
348
2F
292
     1
282
     1
141
0.0
142
0.0
 63
   256
  0
ENDSEC
  0
SECTION
  2
OBJECTS
  0
DICTIONARY
  5
C
330
0
100
AcDbDictionary
281
     1
  3
ACAD_DETAILVIEWSTYLE
350
451
  3
ACAD_GROUP
350
D
  3
ACAD_IMAGE_DICT
350
230
  3
ACAD_IMAGE_VARS
350
60
  3
ACAD_LAYOUT
350
1A
  3
ACAD_MATERIAL
350
43
  3
ACAD_MLEADERSTYLE
350
5B
  3
ACAD_MLINESTYLE
350
17
  3
ACAD_PLOTSETTINGS
350
19
  3
ACAD_PLOTSTYLENAME
350
E
  3
ACAD_SCALELIST
350
47
  3
ACAD_SECTIONVIEWSTYLE
350
452
  3
ACAD_TABLESTYLE
350
59
  3
ACAD_VISUALSTYLE
350
2A
  3
ACAD_WIPEOUT_VARS
350
61
  3
ACDB_RECOMPOSE_DATA
350
44E
  3
AcDbVariableDictionary
350
44A
  0
SUN
  5
5D
330
29
100
AcDbSun
 90
        1
290
     0
 63
     7
421
 16777215
 40
1.0
291
     1
 91
  2455826
 92
 54000000
292
     0
 70
     2
 71
   256
280
     1
  0
IMAGEDEF_REACTOR
  5
233
330
232
100
AcDbRasterImageDefReactor
 90
        2
330
232
  0
IMAGEDEF_REACTOR
  5
236
330
235
100
AcDbRasterImageDefReactor
 90
        2
330
235
  0
IMAGEDEF_REACTOR
  5
3E6
330
3E5
100
AcDbRasterImageDefReactor
 90
        2
330
3E5
  0
SUN
  5
21E
330
21D
100
AcDbSun
 90
        1
290
     0
 63
     7
421
 16777215
 40
1.0
291
     1
 91
  2455826
 92
 54000000
292
     0
 70
     2
 71
   256
280
     1
  0
DICTIONARY
  5
451
102
{ACAD_REACTORS
330
C
102
}
330
C
100
AcDbDictionary
281
     1
  0
DICTIONARY
  5
D
102
{ACAD_REACTORS
330
C
102
}
330
C
100
AcDbDictionary
281
     1
  3
1021
350
2E0
  3
1022
350
2D2
  3
1023
350
37A
  3
1024
350
2D5
  3
1025
350
2D7
  3
1026
350
2D9
  3
1027
350
279
  3
1040
350
3CB
  3
1551
350
2DE
  3
986
350
22D
  3
987
350
22E
  3
988
350
22F
  3
989
350
271
  3
990
350
275
  3
994
350
3FA
  3
DIM320
350
3F9
  3
DIM321
350
40D
  3
DIM322
350
420
  3
DIM323
350
433
  0
DICTIONARY
  5
230
102
{ACAD_REACTORS
330
C
102
}
330
C
100
AcDbDictionary
281
     1
  3
CwRasterImage961
350
231
  3
CwRasterImage962
350
234
  3
CwRasterImage963
350
3E4
  0
RASTERVARIABLES
  5
60
102
{ACAD_REACTORS
330
C
102
}
330
C
100
AcDbRasterVariables
 90
        0
 70
     0
 71
     1
 72
     1
  0
DICTIONARY
  5
1A
102
{ACAD_REACTORS
330
C
102
}
330
C
100
AcDbDictionary
281
     1
  3
CompleteLayout
350
1E
  3
Model
350
22
  3
PrintFrame_172
350
218
  0
DICTIONARY
  5
43
102
{ACAD_REACTORS
330
C
102
}
330
C
100
AcDbDictionary
281
     1
  3
ByBlock
350
45
  3
ByLayer
350
44
  3
Global
350
46
  0
DICTIONARY
  5
5B
102
{ACAD_REACTORS
330
C
102
}
330
C
100
AcDbDictionary
281
     1
  3
Standard
350
5C
  0
DICTIONARY
  5
17
102
{ACAD_REACTORS
330
C
102
}
330
C
100
AcDbDictionary
281
     1
  3
Standard
350
18
  0
DICTIONARY
  5
19
102
{ACAD_REACTORS
330
C
102
}
330
C
100
AcDbDictionary
281
     1
  3
PlotSettings_
350
21B
  0
ACDBDICTIONARYWDFLT
  5
E
102
{ACAD_REACTORS
330
C
102
}
330
C
100
AcDbDictionary
281
     1
  3
flat
350
5F
  3
Normal
350
F
100
AcDbDictionaryWithDefault
340
F
  0
DICTIONARY
  5
47
102
{ACAD_REACTORS
330
C
102
}
330
C
100
AcDbDictionary
281
     1
  3
A0
350
48
  3
A1
350
49
  3
A2
350
4A
  3
A3
350
4B
  3
A4
350
4C
  3
A5
350
4D
  3
A6
350
4E
  3
A7
350
4F
  3
A8
350
50
  3
A9
350
51
  3
B0
350
52
  3
B1
350
53
  3
B2
350
54
  3
B3
350
55
  3
B4
350
56
  3
B5
350
57
  3
B6
350
58
  0
DICTIONARY
  5
452
102
{ACAD_REACTORS
330
C
102
}
330
C
100
AcDbDictionary
281
     1
  0
DICTIONARY
  5
59
102
{ACAD_REACTORS
330
C
102
}
330
C
100
AcDbDictionary
281
     1
  3
Standard
350
5A
  0
DICTIONARY
  5
2A
102
{ACAD_REACTORS
330
C
102
}
330
C
100
AcDbDictionary
281
     1
  3
2dWireframe
350
2F
  3
Basic
350
32
  3
Brighten
350
36
  3
ColorChange
350
3A
  3
Conceptual
350
34
  3
Dim
350
35
  3
EdgeColorOff
350
3D
  3
Facepattern
350
39
  3
Flat
350
2B
  3
FlatWithEdges
350
2C
  3
Gouraud
350
2D
  3
GouraudWithEdges
350
2E
  3
Hidden
350
31
  3
JitterOff
350
3B
  3
Linepattern
350
38
  3
OverhangOff
350
3C
  3
Realistic
350
33
  3
Shaded
350
42
  3
Shaded with edges
350
41
  3
Shades of Gray
350
3E
  3
Sketchy
350
3F
  3
Thicken
350
37
  3
Wireframe
350
30
  3
X-Ray
350
40
  0
WIPEOUTVARIABLES
  5
61
102
{ACAD_REACTORS
330
C
102
}
330
C
100
AcDbWipeoutVariables
 70
     0
  0
XRECORD
  5
44E
102
{ACAD_REACTORS
330
C
102
}
330
C
100
AcDbXrecord
280
     1
 90
        1
330
5A
  0
DICTIONARY
  5
44A
102
{ACAD_REACTORS
330
C
102
}
330
C
100
AcDbDictionary
281
     1
  3
CANNOSCALE
350
44B
  3
CENTEREXE
350
454
  3
CENTERLTYPEFILE
350
455
  3
CMLEADERSTYLE
350
450
  3
CTABLESTYLE
350
44F
  3
WIPEOUTFRAME
350
453
  0
GROUP
  5
2E0
102
{ACAD_REACTORS
330
D
102
}
330
D
100
AcDbGroup
300

 70
     0
 71
     1
340
2DF
340
2E1
340
2E2
340
2E3
340
2E4
340
2E5
340
2E6
340
2E7
340
2E8
340
2E9
340
2EA
340
2EB
340
2EC
340
2ED
340
2EE
340
2EF
340
2F0
340
2F1
340
2F2
340
2F3
340
2F4
340
2F5
340
2F6
340
2F7
340
2F8
340
2F9
340
2FA
340
2FB
340
2FC
340
2FD
340
2FE
340
2FF
340
300
340
301
340
302
340
303
340
304
340
305
340
306
340
307
340
308
340
309
340
30A
340
30B
340
30C
340
30D
340
30E
340
30F
340
310
340
311
340
312
340
313
340
314
340
315
340
316
340
317
340
318
340
319
340
31A
340
31B
340
31C
340
31D
340
31E
340
31F
340
320
340
321
340
322
340
323
340
324
340
325
340
326
340
327
340
328
340
329
340
32A
340
32B
340
32C
340
32D
340
32E
340
32F
340
3E1
  0
GROUP
  5
2D2
102
{ACAD_REACTORS
330
D
102
}
330
D
100
AcDbGroup
300

 70
     0
 71
     1
340
2D1
340
2D3
340
330
340
331
340
332
340
333
340
334
340
335
340
336
340
337
340
338
340
339
340
33A
340
33B
340
33C
340
33D
340
33E
340
33F
340
340
340
341
340
342
340
343
340
344
340
345
340
346
340
347
340
348
340
349
340
34A
340
34B
340
34C
340
34D
340
34E
340
34F
340
350
340
351
340
352
340
353
340
354
340
355
340
356
340
357
340
358
340
359
340
35A
340
35B
340
35C
340
35D
340
35E
340
35F
340
360
340
361
340
362
340
363
340
364
340
365
340
366
340
367
340
368
340
369
340
36A
340
36B
340
36C
340
36D
340
36E
340
36F
340
370
340
371
340
372
340
373
340
374
340
375
340
376
340
377
340
378
340
3E2
  0
GROUP
  5
37A
102
{ACAD_REACTORS
330
D
102
}
330
D
100
AcDbGroup
300

 70
     0
 71
     1
340
379
340
37B
340
37C
340
37D
340
37E
340
37F
340
380
340
381
340
382
340
383
340
384
340
385
340
386
340
387
340
388
340
389
340
38A
340
38B
340
38C
340
38D
340
38E
340
38F
340
390
340
391
340
392
340
393
340
394
340
395
340
396
340
397
340
398
340
399
340
39A
340
39B
340
39C
340
39D
340
39E
340
39F
340
3A0
340
3A1
340
3A2
340
3A3
340
3A4
340
3A5
340
3A6
340
3A7
340
3A8
340
3A9
340
3AA
340
3AB
340
3AC
340
3AD
340
3AE
340
3AF
340
3B0
340
3B1
340
3B2
340
3B3
340
3B4
340
3B5
340
3B6
340
3B7
340
3B8
340
3B9
340
3BA
340
3BB
340
3BC
340
3BD
340
3BE
340
3BF
340
3C0
340
3C1
340
3C2
340
3C3
340
3C4
340
3C5
340
3C6
340
3C7
340
3C8
340
3C9
340
3E3
  0
GROUP
  5
2D5
102
{ACAD_REACTORS
330
D
102
}
330
D
100
AcDbGroup
300

 70
     0
 71
     1
340
2D4
340
2DA
  0
GROUP
  5
2D7
102
{ACAD_REACTORS
330
D
102
}
330
D
100
AcDbGroup
300

 70
     0
 71
     1
340
2D6
340
2DB
  0
GROUP
  5
2D9
102
{ACAD_REACTORS
330
D
102
}
330
D
100
AcDbGroup
300

 70
     0
 71
     1
340
2D8
340
2DC
  0
GROUP
  5
279
102
{ACAD_REACTORS
330
D
102
}
330
D
100
AcDbGroup
300

 70
     0
 71
     1
340
278
340
27A
  0
GROUP
  5
3CB
102
{ACAD_REACTORS
330
D
102
}
330
D
100
AcDbGroup
300

 70
     0
 71
     1
340
3CA
340
3CC
340
3CD
340
3CE
340
3CF
340
3D0
340
3D1
340
3D2
340
3D3
340
3D4
340
3D5
340
3D6
340
3D7
340
3D8
340
3D9
340
3DA
340
3DB
340
3DC
340
3DD
340
3DE
340
3DF
340
3E0
  0
GROUP
  5
2DE
102
{ACAD_REACTORS
330
D
102
}
330
D
100
AcDbGroup
300

 70
     0
 71
     1
340
2DD
340
449
  0
GROUP
  5
22D
102
{ACAD_REACTORS
330
D
102
}
330
D
100
AcDbGroup
300

 70
     0
 71
     1
340
22C
340
2C4
340
2C5
340
2C6
340
2CB
340
2CC
340
2CD
340
438
340
439
340
43A
340
43C
340
43D
  0
GROUP
  5
22E
102
{ACAD_REACTORS
330
D
102
}
330
D
100
AcDbGroup
300

 70
     0
 71
     1
340
22C
340
232
340
2C4
340
2C5
340
2C6
340
2CB
340
2CC
340
2CD
340
438
340
439
340
43A
340
43C
340
43D
  0
GROUP
  5
22F
102
{ACAD_REACTORS
330
D
102
}
330
D
100
AcDbGroup
300

 70
     0
 71
     1
340
22C
340
232
340
235
340
2C4
340
2C5
340
2C6
340
2CA
340
2CB
340
2CC
340
2CD
340
438
340
439
340
43A
340
43C
340
43D
340
43E
  0
GROUP
  5
271
102
{ACAD_REACTORS
330
D
102
}
330
D
100
AcDbGroup
300

 70
     0
 71
     1
340
270
  0
GROUP
  5
275
102
{ACAD_REACTORS
330
D
102
}
330
D
100
AcDbGroup
300

 70
     0
 71
     1
340
274
  0
GROUP
  5
3FA
102
{ACAD_REACTORS
330
D
102
}
330
D
100
AcDbGroup
300

 70
     0
 71
     1
340
3F8
340
40C
340
41F
340
432
  0
GROUP
  5
3F9
102
{ACAD_REACTORS
330
D
102
}
330
D
100
AcDbGroup
300

 70
     0
 71
     1
340
3F8
340
434
  0
GROUP
  5
40D
102
{ACAD_REACTORS
330
D
102
}
330
D
100
AcDbGroup
300

 70
     0
 71
     1
340
40C
340
435
  0
GROUP
  5
420
102
{ACAD_REACTORS
330
D
102
}
330
D
100
AcDbGroup
300

 70
     0
 71
     1
340
41F
340
436
  0
GROUP
  5
433
102
{ACAD_REACTORS
330
D
102
}
330
D
100
AcDbGroup
300

 70
     0
 71
     1
340
432
340
437
  0
IMAGEDEF
  5
231
102
{ACAD_REACTORS
330
230
330
233
102
}
330
230
100
AcDbRasterImageDef
 90
        0
  1
fcba.jpg
 10
247.0
 20
171.0
 11
0.3527336860670194
 21
0.3527336860670194
280
     1
281
     3
  0
IMAGEDEF
  5
234
102
{ACAD_REACTORS
330
230
330
236
102
}
330
230
100
AcDbRasterImageDef
 90
        0
  1
EXE_LOGO_FBF_soutien_Q_L.jpg
 10
200.0
 20
133.0
 11
0.3527336860670194
 21
0.3527336860670194
280
     1
281
     3
  0
IMAGEDEF
  5
3E4
102
{ACAD_REACTORS
330
230
330
3E6
102
}
330
230
100
AcDbRasterImageDef
 90
        0
  1
{3D18D2F7-F982-4527-A176-7E8FDB81B9D8}.TIFF
 10
954.0
 20
334.0
 11
0.2645502645502645
 21
0.2645502645502645
280
     1
281
     3
  0
LAYOUT
  5
1E
102
{ACAD_REACTORS
330
1A
102
}
330
1A
100
AcDbPlotSettings
  1

  2
none_device
  4

  6

 40
0.0
 41
0.0
 42
0.0
 43
0.0
 44
0.0
 45
0.0
 46
0.0
 47
0.0
 48
0.0
 49
0.0
140
0.0
141
0.0
142
1.0
143
1.0
 70
   688
 72
     1
 73
     0
 74
     5
  7

 75
    16
 76
     0
 77
     2
 78
   300
147
1.0
148
0.0
149
0.0
100
AcDbLayout
  1
CompleteLayout
 70
     1
 71
     1
 10
0.0
 20
0.0
 11
420.0
 21
297.0
 12
0.0
 22
0.0
 32
0.0
 14
1.000000000000000E+20
 24
1.000000000000000E+20
 34
1.000000000000000E+20
 15
-1.000000000000000E+20
 25
-1.000000000000000E+20
 35
-1.000000000000000E+20
146
0.0
 13
0.0
 23
0.0
 33
0.0
 16
1.0
 26
0.0
 36
0.0
 17
0.0
 27
1.0
 37
0.0
 76
     0
330
1B
  0
LAYOUT
  5
22
102
{ACAD_REACTORS
330
1A
102
}
330
1A
100
AcDbPlotSettings
  1

  2
none_device
  4
Letter_(8.50_x_11.00_Inches)
  6

 40
6.35
 41
6.35
 42
6.35000508
 43
6.35000508
 44
215.9
 45
279.4
 46
0.0
 47
0.0
 48
0.0
 49
0.0
140
0.0
141
0.0
142
1.0
143
1.0
 70
  1712
 72
     1
 73
     0
 74
     0
  7

 75
     0
 76
     0
 77
     2
 78
   300
147
1.0
148
0.0
149
0.0
100
AcDbLayout
  1
Model
 70
     1
 71
     0
 10
0.0
 20
0.0
 11
420.0
 21
297.0
 12
0.0
 22
0.0
 32
0.0
 14
20348.47353496285
 24
-14862.87529255589
 34
-265.0000000000077
 15
21333.47353496286
 25
-13507.87529255589
 35
0.0
146
0.0
 13
0.0
 23
0.0
 33
0.0
 16
1.0
 26
0.0
 36
0.0
 17
0.0
 27
1.0
 37
0.0
 76
     0
330
1F
331
29
  0
LAYOUT
  5
218
102
{ACAD_REACTORS
330
1A
102
}
330
1A
100
AcDbPlotSettings
  1
PlotSettings_
  2
Custom Device
  4
Custom_210.000000x297.000000_12.700000_12.700000_6.200000_6.200000
  6

 40
6.2
 41
12.7
 42
6.2
 43
12.7
 44
210.0
 45
297.0
 46
0.0000000000000142
 47
0.0
 48
0.0
 49
0.0
140
197.6
141
271.6
142
1.0
143
1.0
 70
   756
 72
     1
 73
     0
 74
     4
  7

 75
     0
 76
     0
 77
     2
 78
   300
147
1.0
148
0.0
149
0.0
100
AcDbLayout
  1
PrintFrame_172
 70
     0
 71
     2
 10
-20.0
 20
-7.5
 11
277.0
 21
202.5
 12
0.0
 22
0.0
 32
0.0
 14
-5.730400000000003
 24
-7.876400000000018
 34
0.0
 15
203.3304
 25
279.4764
 35
0.0
146
0.0
 13
0.0
 23
0.0
 33
0.0
 16
1.0
 26
0.0
 36
0.0
 17
0.0
 27
1.0
 37
0.0
 76
     0
330
217
331
21D
1001
PLOTTRANSPARENCY
1071
        1
1000
layout-user-created
1070
     1
1000
layout-line-weight-scale
1042
1.0
  0
MATERIAL
  5
45
102
{ACAD_REACTORS
330
43
102
}
330
43
100
AcDbMaterial
  1
ByBlock
 72
     1
 94
      127
  0
MATERIAL
  5
44
102
{ACAD_REACTORS
330
43
102
}
330
43
100
AcDbMaterial
  1
ByLayer
 72
     1
 94
      127
  0
MATERIAL
  5
46
102
{ACAD_REACTORS
330
43
102
}
330
43
100
AcDbMaterial
  1
Global
 72
     1
 94
      127
  0
MLEADERSTYLE
  5
5C
102
{ACAD_REACTORS
330
5B
102
}
330
5B
100
AcDbMLeaderStyle
179
     2
170
     2
171
     1
172
     0
 90
        2
 40
0.0
 41
0.0
173
     1
 91
-1056964608
340
14
 92
       -2
290
     1
 42
2.0
291
     1
 43
8.0
  3
Standard
341
0
 44
4.0
300

342
11
174
     1
178
     6
175
     1
176
     0
 93
-1056964608
 45
4.0
292
     0
297
     0
 46
4.0
343
0
 94
-1056964608
 47
1.0
 49
1.0
140
1.0
293
     1
141
0.0
294
     1
177
     0
142
1.0
295
     0
296
     0
143
3.75
271
     0
272
     9
273
     9
298
     0
  0
MLINESTYLE
  5
18
102
{ACAD_REACTORS
330
17
102
}
330
17
100
AcDbMlineStyle
  2
Standard
 70
     0
  3

 62
   256
 51
90.0
 52
90.0
 71
     2
 49
0.5
 62
   256
  6
BYLAYER
 49
-0.5
 62
   256
  6
BYLAYER
  0
PLOTSETTINGS
  5
21B
102
{ACAD_REACTORS
330
19
102
}
330
19
100
AcDbPlotSettings
  1
PlotSettings_
  2
Custom Device
  4
Custom_210.000000x297.000000_12.700000_12.700000_6.200000_6.200000
  6

 40
6.2
 41
12.7
 42
6.2
 43
12.7
 44
210.0
 45
297.0
 46
0.0000000000000142
 47
0.0
 48
0.0
 49
0.0
140
197.6
141
271.6
142
1.0
143
1.0
 70
   756
 72
     1
 73
     0
 74
     4
  7

 75
     0
 76
     0
 77
     2
 78
   300
147
1.0
148
0.0
149
0.0
1001
PLOTTRANSPARENCY
1071
        1
1000
layout-user-created
1070
     1
1000
layout-line-weight-scale
1042
1.0
  0
ACDBPLACEHOLDER
  5
5F
102
{ACAD_REACTORS
330
E
102
}
330
E
  0
ACDBPLACEHOLDER
  5
F
102
{ACAD_REACTORS
330
E
102
}
330
E
  0
SCALE
  5
48
102
{ACAD_REACTORS
330
47
102
}
330
47
100
AcDbScale
 70
     0
300
1:1
140
1.0
141
1.0
290
     1
  0
SCALE
  5
49
102
{ACAD_REACTORS
330
47
102
}
330
47
100
AcDbScale
 70
     0
300
1:2
140
1.0
141
2.0
290
     0
  0
SCALE
  5
4A
102
{ACAD_REACTORS
330
47
102
}
330
47
100
AcDbScale
 70
     0
300
1:4
140
1.0
141
4.0
290
     0
  0
SCALE
  5
4B
102
{ACAD_REACTORS
330
47
102
}
330
47
100
AcDbScale
 70
     0
300
1:5
140
1.0
141
5.0
290
     0
  0
SCALE
  5
4C
102
{ACAD_REACTORS
330
47
102
}
330
47
100
AcDbScale
 70
     0
300
1:8
140
1.0
141
8.0
290
     0
  0
SCALE
  5
4D
102
{ACAD_REACTORS
330
47
102
}
330
47
100
AcDbScale
 70
     0
300
1:10
140
1.0
141
10.0
290
     0
  0
SCALE
  5
4E
102
{ACAD_REACTORS
330
47
102
}
330
47
100
AcDbScale
 70
     0
300
1:16
140
1.0
141
16.0
290
     0
  0
SCALE
  5
4F
102
{ACAD_REACTORS
330
47
102
}
330
47
100
AcDbScale
 70
     0
300
1:20
140
1.0
141
20.0
290
     0
  0
SCALE
  5
50
102
{ACAD_REACTORS
330
47
102
}
330
47
100
AcDbScale
 70
     0
300
1:30
140
1.0
141
30.0
290
     0
  0
SCALE
  5
51
102
{ACAD_REACTORS
330
47
102
}
330
47
100
AcDbScale
 70
     0
300
1:40
140
1.0
141
40.0
290
     0
  0
SCALE
  5
52
102
{ACAD_REACTORS
330
47
102
}
330
47
100
AcDbScale
 70
     0
300
1:50
140
1.0
141
50.0
290
     0
  0
SCALE
  5
53
102
{ACAD_REACTORS
330
47
102
}
330
47
100
AcDbScale
 70
     0
300
1:100
140
1.0
141
100.0
290
     0
  0
SCALE
  5
54
102
{ACAD_REACTORS
330
47
102
}
330
47
100
AcDbScale
 70
     0
300
2:1
140
2.0
141
1.0
290
     0
  0
SCALE
  5
55
102
{ACAD_REACTORS
330
47
102
}
330
47
100
AcDbScale
 70
     0
300
4:1
140
4.0
141
1.0
290
     0
  0
SCALE
  5
56
102
{ACAD_REACTORS
330
47
102
}
330
47
100
AcDbScale
 70
     0
300
8:1
140
8.0
141
1.0
290
     0
  0
SCALE
  5
57
102
{ACAD_REACTORS
330
47
102
}
330
47
100
AcDbScale
 70
     0
300
10:1
140
10.0
141
1.0
290
     0
  0
SCALE
  5
58
102
{ACAD_REACTORS
330
47
102
}
330
47
100
AcDbScale
 70
     0
300
100:1
140
100.0
141
1.0
290
     0
  0
TABLESTYLE
  5
5A
102
{ACAD_REACTORS
330
59
102
}
102
{ACAD_XDICTIONARY
360
44C
102
}
330
59
100
AcDbTableStyle
  3
Standard
 70
     0
 71
     0
 40
0.06
 41
0.06
280
     0
281
     0
  7
Standard
140
4.5
170
     2
 62
     0
 63
   257
283
     0
 90
        4
 91
        0
  1

274
    -2
284
     1
 64
     0
275
    -2
285
     1
 65
     0
276
    -2
286
     1
 66
     0
277
    -2
287
     1
 67
     0
278
    -2
288
     1
 68
     0
279
    -2
289
     1
 69
     0
  7
Standard
140
6.0
170
     5
 62
     0
 63
   257
283
     0
 90
        4
 91
        0
  1

274
    -2
284
     1
 64
     0
275
    -2
285
     1
 65
     0
276
    -2
286
     1
 66
     0
277
    -2
287
     1
 67
     0
278
    -2
288
     1
 68
     0
279
    -2
289
     1
 69
     0
  7
Standard
140
4.5
170
     5
 62
     0
 63
   257
283
     0
 90
        4
 91
        0
  1

274
    -2
284
     1
 64
     0
275
    -2
285
     1
 65
     0
276
    -2
286
     1
 66
     0
277
    -2
287
     1
 67
     0
278
    -2
288
     1
 68
     0
279
    -2
289
     1
 69
     0
  0
VISUALSTYLE
  5
2F
102
{ACAD_REACTORS
330
2A
102
}
330
2A
100
AcDbVisualStyle
  2
2dWireframe
 70
     4
177
     3
291
     0
 70
    58
 90
        0
176
     1
 90
        2
176
     1
 90
        0
176
     1
 90
        0
176
     1
 40
0.6
176
     1
 40
30.0
176
     1
 62
     7
420
 16777215
176
     1
 90
        1
176
     1
 90
        4
176
     1
 62
     7
176
     1
 62
   257
176
     1
 90
        1
176
     1
 90
        1
176
     1
 40
1.0
176
     1
 90
        0
176
     1
 62
   257
176
     1
 40
1.0
176
     1
 90
        1
176
     1
 90
        6
176
     1
 90
        2
176
     1
 62
     7
176
     1
 90
        5
176
     1
 90
        0
176
     1
 90
        0
176
     1
290
     0
176
     1
 90
        1
176
     1
 40
0.0
176
     1
 90
        0
176
     1
290
     1
176
     1
290
     1
176
     1
290
     0
176
     1
290
     0
176
     1
290
     0
176
     1
290
     0
176
     1
290
     0
176
     1
290
     0
176
     1
290
     0
176
     1
 90
       50
176
     1
 40
0.0
176
     1
 40
1.0
176
     1
 90
        0
176
     1
 62
    18
420
        0
176
     1
 90
       50
176
     1
 90
        3
176
     1
 62
     5
420
      255
176
     1
290
     0
176
     1
 90
       50
176
     1
 90
       50
176
     1
 90
       50
176
     1
290
     0
176
     1
 90
       50
176
     1
 62
   256
176
     0
 40
1.0
176
     0
 90
        2
176
     1
  1
strokes_ogs.tif
176
     1
290
     0
176
     1
 40
1.0
176
     1
 40
1.0
176
     1
  0
VISUALSTYLE
  5
32
102
{ACAD_REACTORS
330
2A
102
}
330
2A
100
AcDbVisualStyle
  2
Basic
 70
     7
177
     3
291
     1
 70
    58
 90
        1
176
     1
 90
        0
176
     1
 90
        1
176
     1
 90
        0
176
     1
 40
0.6
176
     1
 40
30.0
176
     1
 62
     7
420
 16777215
176
     1
 90
        0
176
     1
 90
        4
176
     1
 62
     7
176
     1
 62
   257
176
     1
 90
        1
176
     1
 90
        1
176
     1
 40
1.0
176
     1
 90
        8
176
     1
 62
     7
176
     1
 40
1.0
176
     1
 90
        1
176
     1
 90
        6
176
     1
 90
        2
176
     1
 62
     7
176
     1
 90
        5
176
     1
 90
        0
176
     1
 90
        0
176
     1
290
     0
176
     1
 90
        1
176
     1
 40
0.0
176
     1
 90
        0
176
     1
290
     0
176
     1
290
     1
176
     1
290
     1
176
     1
290
     0
176
     1
290
     0
176
     1
290
     0
176
     1
290
     0
176
     1
290
     0
176
     1
290
     0
176
     1
 90
       50
176
     1
 40
0.0
176
     1
 40
1.0
176
     1
 90
        0
176
     1
 62
    18
420
        0
176
     1
 90
       50
176
     1
 90
        3
176
     1
 62
     5
420
      255
176
     1
290
     0
176
     1
 90
       50
176
     1
 90
       50
176
     1
 90
       50
176
     1
290
     0
176
     1
 90
       50
176
     1
 62
   256
176
     0
 40
1.0
176
     0
 90
        2
176
     1
  1
strokes_ogs.tif
176
     1
290
     0
176
     1
 40
1.0
176
     1
 40
1.0
176
     1
  0
VISUALSTYLE
  5
36
102
{ACAD_REACTORS
330
2A
102
}
330
2A
100
AcDbVisualStyle
  2
Brighten
 70
    12
177
     3
291
     1
 70
    58
 90
        2
176
     1
 90
        2
176
     1
 90
        0
176
     1
 90
        0
176
     1
 40
0.6
176
     1
 40
30.0
176
     1
 62
     7
420
 16777215
176
     1
 90
        1
176
     1
 90
        4
176
     1
 62
     7
176
     1
 62
   257
176
     1
 90
        1
176
     1
 90
        1
176
     1
 40
1.0
176
     1
 90
        8
176
     1
 62
     7
176
     1
 40
1.0
176
     1
 90
        1
176
     1
 90
        6
176
     1
 90
        2
176
     1
 62
     7
176
     1
 90
        5
176
     1
 90
        0
176
     1
 90
        0
176
     1
290
     0
176
     1
 90
        1
176
     1
 40
50.0
176
     1
 90
        0
176
     1
290
     0
176
     1
290
     1
176
     1
290
     1
176
     1
290
     0
176
     1
290
     0
176
     1
290
     0
176
     1
290
     0
176
     1
290
     0
176
     1
290
     0
176
     1
 90
       50
176
     1
 40
0.0
176
     1
 40
1.0
176
     1
 90
        0
176
     1
 62
    18
420
        0
176
     1
 90
       50
176
     1
 90
        3
176
     1
 62
     5
420
      255
176
     1
290
     0
176
     1
 90
       50
176
     1
 90
       50
176
     1
 90
       50
176
     1
290
     0
176
     1
 90
       50
176
     1
 62
   256
176
     0
 40
1.0
176
     0
 90
        2
176
     1
  1
strokes_ogs.tif
176
     1
290
     0
176
     1
 40
1.0
176
     1
 40
1.0
176
     1
  0
VISUALSTYLE
  5
3A
102
{ACAD_REACTORS
330
2A
102
}
330
2A
100
AcDbVisualStyle
  2
ColorChange
 70
    16
177
     3
291
     1
 70
    58
 90
        2
176
     1
 90
        2
176
     1
 90
        3
176
     1
 90
        0
176
     1
 40
0.6
176
     1
 40
30.0
176
     1
 62
     8
420
  8421504
176
     1
 90
        1
176
     1
 90
        4
176
     1
 62
     7
176
     1
 62
   257
176
     1
 90
        1
176
     1
 90
        1
176
     1
 40
1.0
176
     1
 90
        8
176
     1
 62
     8
420
  8421504
176
     1
 40
1.0
176
     1
 90
        1
176
     1
 90
        6
176
     1
 90
        2
176
     1
 62
     7
176
     1
 90
        5
176
     1
 90
        0
176
     1
 90
        0
176
     1
290
     0
176
     1
 90
        1
176
     1
 40
0.0
176
     1
 90
        0
176
     1
290
     0
176
     1
290
     1
176
     1
290
     1
176
     1
290
     0
176
     1
290
     0
176
     1
290
     0
176
     1
290
     0
176
     1
290
     0
176
     1
290
     0
176
     1
 90
       50
176
     1
 40
0.0
176
     1
 40
1.0
176
     1
 90
        0
176
     1
 62
    18
420
        0
176
     1
 90
       50
176
     1
 90
        3
176
     1
 62
     5
420
      255
176
     1
290
     0
176
     1
 90
       50
176
     1
 90
       50
176
     1
 90
       50
176
     1
290
     0
176
     1
 90
       50
176
     1
 62
   256
176
     0
 40
1.0
176
     0
 90
        2
176
     1
  1
strokes_ogs.tif
176
     1
290
     0
176
     1
 40
1.0
176
     1
 40
1.0
176
     1
  0
VISUALSTYLE
  5
34
102
{ACAD_REACTORS
330
2A
102
}
330
2A
100
AcDbVisualStyle
  2
Conceptual
 70
     9
177
     3
291
     0
 70
    58
 90
        3
176
     1
 90
        2
176
     1
 90
        0
176
     1
 90
        0
176
     1
 40
0.6
176
     1
 40
30.0
176
     1
 62
     7
420
 16777215
176
     1
 90
        2
176
     1
 90
        2
176
     1
 62
     7
176
     1
 62
   257
176
     1
 90
        1
176
     1
 90
        1
176
     1
 40
179.0
176
     1
 90
        8
176
     1
 62
     7
176
     1
 40
1.0
176
     1
 90
        1
176
     1
 90
        6
176
     1
 90
        2
176
     1
 62
     7
176
     1
 90
        3
176
     1
 90
        0
176
     1
 90
        0
176
     1
290
     0
176
     1
 90
        1
176
     1
 40
0.0
176
     1
 90
        0
176
     1
290
     0
176
     1
290
     1
176
     1
290
     1
176
     1
290
     0
176
     1
290
     0
176
     1
290
     0
176
     1
290
     0
176
     1
290
     0
176
     1
290
     0
176
     1
 90
       50
176
     1
 40
0.0
176
     1
 40
1.0
176
     1
 90
        0
176
     1
 62
    18
420
        0
176
     1
 90
       50
176
     1
 90
        3
176
     1
 62
     5
420
      255
176
     1
290
     0
176
     1
 90
       50
176
     1
 90
       50
176
     1
 90
       50
176
     1
290
     0
176
     1
 90
       50
176
     1
 62
   256
176
     0
 40
1.0
176
     0
 90
        2
176
     1
  1
strokes_ogs.tif
176
     1
290
     0
176
     1
 40
1.0
176
     1
 40
1.0
176
     1
  0
VISUALSTYLE
  5
35
102
{ACAD_REACTORS
330
2A
102
}
330
2A
100
AcDbVisualStyle
  2
Dim
 70
    11
177
     3
291
     1
 70
    58
 90
        2
176
     1
 90
        2
176
     1
 90
        0
176
     1
 90
        0
176
     1
 40
0.6
176
     1
 40
30.0
176
     1
 62
     7
420
 16777215
176
     1
 90
        1
176
     1
 90
        4
176
     1
 62
     7
176
     1
 62
   257
176
     1
 90
        1
176
     1
 90
        1
176
     1
 40
1.0
176
     1
 90
        8
176
     1
 62
     7
176
     1
 40
1.0
176
     1
 90
        1
176
     1
 90
        6
176
     1
 90
        2
176
     1
 62
     7
176
     1
 90
        5
176
     1
 90
        0
176
     1
 90
        0
176
     1
290
     0
176
     1
 90
        1
176
     1
 40
-50.0
176
     1
 90
        0
176
     1
290
     0
176
     1
290
     1
176
     1
290
     1
176
     1
290
     0
176
     1
290
     0
176
     1
290
     0
176
     1
290
     0
176
     1
290
     0
176
     1
290
     0
176
     1
 90
       50
176
     1
 40
0.0
176
     1
 40
1.0
176
     1
 90
        0
176
     1
 62
    18
420
        0
176
     1
 90
       50
176
     1
 90
        3
176
     1
 62
     5
420
      255
176
     1
290
     0
176
     1
 90
       50
176
     1
 90
       50
176
     1
 90
       50
176
     1
290
     0
176
     1
 90
       50
176
     1
 62
   256
176
     0
 40
1.0
176
     0
 90
        2
176
     1
  1
strokes_ogs.tif
176
     1
290
     0
176
     1
 40
1.0
176
     1
 40
1.0
176
     1
  0
VISUALSTYLE
  5
3D
102
{ACAD_REACTORS
330
2A
102
}
330
2A
100
AcDbVisualStyle
  2
EdgeColorOff
 70
    22
177
     3
291
     1
 70
    58
 90
        2
176
     0
 90
        2
176
     0
 90
        0
176
     0
 90
        0
176
     0
 40
0.6
176
     0
 40
30.0
176
     0
 62
     7
420
 16777215
176
     0
 90
        1
176
     0
 90
        4
176
     0
 62
     7
176
     0
 62
   257
176
     0
 90
        1
176
     0
 90
        1
176
     0
 40
1.0
176
     0
 90
        8
176
     2
 62
     7
176
     0
 40
1.0
176
     0
 90
        1
176
     0
 90
        6
176
     0
 90
        2
176
     0
 62
     7
176
     0
 90
        5
176
     0
 90
        0
176
     0
 90
        0
176
     0
290
     0
176
     0
 90
        1
176
     0
 40
0.0
176
     0
 90
        0
176
     0
290
     0
176
     0
290
     1
176
     0
290
     1
176
     0
290
     0
176
     0
290
     0
176
     0
290
     0
176
     0
290
     0
176
     0
290
     0
176
     0
290
     0
176
     0
 90
       50
176
     0
 40
0.0
176
     0
 40
1.0
176
     0
 90
        0
176
     0
 62
    18
420
        0
176
     0
 90
       50
176
     0
 90
        3
176
     0
 62
     5
420
      255
176
     0
290
     0
176
     0
 90
       50
176
     0
 90
       50
176
     0
 90
       50
176
     0
290
     0
176
     0
 90
       50
176
     0
 62
   256
176
     0
 40
1.0
176
     0
 90
        2
176
     0
  1
strokes_ogs.tif
176
     0
290
     0
176
     0
 40
1.0
176
     0
 40
1.0
176
     0
  0
VISUALSTYLE
  5
39
102
{ACAD_REACTORS
330
2A
102
}
330
2A
100
AcDbVisualStyle
  2
Facepattern
 70
    15
177
     3
291
     1
 70
    58
 90
        2
176
     1
 90
        2
176
     1
 90
        0
176
     1
 90
        0
176
     1
 40
0.6
176
     1
 40
30.0
176
     1
 62
     7
420
 16777215
176
     1
 90
        1
176
     1
 90
        4
176
     1
 62
     7
176
     1
 62
   257
176
     1
 90
        1
176
     1
 90
        1
176
     1
 40
1.0
176
     1
 90
        8
176
     1
 62
     7
176
     1
 40
1.0
176
     1
 90
        1
176
     1
 90
        6
176
     1
 90
        2
176
     1
 62
     7
176
     1
 90
        5
176
     1
 90
        0
176
     1
 90
        0
176
     1
290
     0
176
     1
 90
        1
176
     1
 40
0.0
176
     1
 90
        0
176
     1
290
     0
176
     1
290
     1
176
     1
290
     1
176
     1
290
     0
176
     1
290
     0
176
     1
290
     0
176
     1
290
     0
176
     1
290
     0
176
     1
290
     0
176
     1
 90
       50
176
     1
 40
0.0
176
     1
 40
1.0
176
     1
 90
        0
176
     1
 62
    18
420
        0
176
     1
 90
       50
176
     1
 90
        3
176
     1
 62
     5
420
      255
176
     1
290
     0
176
     1
 90
       50
176
     1
 90
       50
176
     1
 90
       50
176
     1
290
     0
176
     1
 90
       50
176
     1
 62
   256
176
     0
 40
1.0
176
     0
 90
        2
176
     1
  1
strokes_ogs.tif
176
     1
290
     0
176
     1
 40
1.0
176
     1
 40
1.0
176
     1
  0
VISUALSTYLE
  5
2B
102
{ACAD_REACTORS
330
2A
102
}
330
2A
100
AcDbVisualStyle
  2
Flat
 70
     0
177
     3
291
     1
 70
    58
 90
        2
176
     1
 90
        1
176
     1
 90
        1
176
     1
 90
        2
176
     1
 40
0.6
176
     1
 40
30.0
176
     1
 62
     7
420
 16777215
176
     1
 90
        0
176
     1
 90
        0
176
     1
 62
     7
176
     1
 62
   257
176
     1
 90
        1
176
     1
 90
        1
176
     1
 40
1.0
176
     1
 90
        8
176
     1
 62
     7
176
     1
 40
1.0
176
     1
 90
        1
176
     1
 90
        6
176
     1
 90
        2
176
     1
 62
     7
176
     1
 90
        5
176
     1
 90
        0
176
     1
 90
        0
176
     1
290
     0
176
     1
 90
       13
176
     1
 40
0.0
176
     1
 90
        0
176
     1
290
     0
176
     1
290
     1
176
     1
290
     1
176
     1
290
     0
176
     1
290
     0
176
     1
290
     0
176
     1
290
     0
176
     1
290
     0
176
     1
290
     0
176
     1
 90
       50
176
     1
 40
0.0
176
     1
 40
1.0
176
     1
 90
        0
176
     1
 62
    18
420
        0
176
     1
 90
       50
176
     1
 90
        3
176
     1
 62
     5
420
      255
176
     1
290
     0
176
     1
 90
       50
176
     1
 90
       50
176
     1
 90
       50
176
     1
290
     0
176
     1
 90
       50
176
     1
 62
   256
176
     0
 40
1.0
176
     0
 90
        2
176
     1
  1
strokes_ogs.tif
176
     1
290
     0
176
     1
 40
1.0
176
     1
 40
1.0
176
     1
  0
VISUALSTYLE
  5
2C
102
{ACAD_REACTORS
330
2A
102
}
330
2A
100
AcDbVisualStyle
  2
FlatWithEdges
 70
     1
177
     3
291
     1
 70
    58
 90
        2
176
     1
 90
        1
176
     1
 90
        1
176
     1
 90
        2
176
     1
 40
0.6
176
     1
 40
30.0
176
     1
 62
     7
420
 16777215
176
     1
 90
        1
176
     1
 90
        0
176
     1
 62
     7
176
     1
 62
   257
176
     1
 90
        1
176
     1
 90
        1
176
     1
 40
1.0
176
     1
 90
        0
176
     1
 62
   257
176
     1
 40
1.0
176
     1
 90
        1
176
     1
 90
        6
176
     1
 90
        2
176
     1
 62
     7
176
     1
 90
        5
176
     1
 90
        0
176
     1
 90
        0
176
     1
290
     0
176
     1
 90
       13
176
     1
 40
0.0
176
     1
 90
        0
176
     1
290
     0
176
     1
290
     1
176
     1
290
     1
176
     1
290
     0
176
     1
290
     0
176
     1
290
     0
176
     1
290
     0
176
     1
290
     0
176
     1
290
     0
176
     1
 90
       50
176
     1
 40
0.0
176
     1
 40
1.0
176
     1
 90
        0
176
     1
 62
    18
420
        0
176
     1
 90
       50
176
     1
 90
        3
176
     1
 62
     5
420
      255
176
     1
290
     0
176
     1
 90
       50
176
     1
 90
       50
176
     1
 90
       50
176
     1
290
     0
176
     1
 90
       50
176
     1
 62
   256
176
     0
 40
1.0
176
     0
 90
        2
176
     1
  1
strokes_ogs.tif
176
     1
290
     0
176
     1
 40
1.0
176
     1
 40
1.0
176
     1
  0
VISUALSTYLE
  5
2D
102
{ACAD_REACTORS
330
2A
102
}
330
2A
100
AcDbVisualStyle
  2
Gouraud
 70
     2
177
     3
291
     1
 70
    58
 90
        2
176
     1
 90
        2
176
     1
 90
        1
176
     1
 90
        2
176
     1
 40
0.6
176
     1
 40
30.0
176
     1
 62
     7
420
 16777215
176
     1
 90
        0
176
     1
 90
        0
176
     1
 62
     7
176
     1
 62
   257
176
     1
 90
        1
176
     1
 90
        1
176
     1
 40
1.0
176
     1
 90
        0
176
     1
 62
     7
176
     1
 40
1.0
176
     1
 90
        1
176
     1
 90
        6
176
     1
 90
        2
176
     1
 62
     7
176
     1
 90
        5
176
     1
 90
        0
176
     1
 90
        0
176
     1
290
     0
176
     1
 90
       13
176
     1
 40
0.0
176
     1
 90
        0
176
     1
290
     0
176
     1
290
     1
176
     1
290
     1
176
     1
290
     0
176
     1
290
     0
176
     1
290
     0
176
     1
290
     0
176
     1
290
     0
176
     1
290
     0
176
     1
 90
       50
176
     1
 40
0.0
176
     1
 40
1.0
176
     1
 90
        0
176
     1
 62
    18
420
        0
176
     1
 90
       50
176
     1
 90
        3
176
     1
 62
     5
420
      255
176
     1
290
     0
176
     1
 90
       50
176
     1
 90
       50
176
     1
 90
       50
176
     1
290
     0
176
     1
 90
       50
176
     1
 62
   256
176
     0
 40
1.0
176
     0
 90
        2
176
     1
  1
strokes_ogs.tif
176
     1
290
     0
176
     1
 40
1.0
176
     1
 40
1.0
176
     1
  0
VISUALSTYLE
  5
2E
102
{ACAD_REACTORS
330
2A
102
}
330
2A
100
AcDbVisualStyle
  2
GouraudWithEdges
 70
     3
177
     3
291
     1
 70
    58
 90
        2
176
     1
 90
        2
176
     1
 90
        1
176
     1
 90
        2
176
     1
 40
0.6
176
     1
 40
30.0
176
     1
 62
     7
420
 16777215
176
     1
 90
        1
176
     1
 90
        0
176
     1
 62
     7
176
     1
 62
   257
176
     1
 90
        1
176
     1
 90
        1
176
     1
 40
1.0
176
     1
 90
        0
176
     1
 62
   257
176
     1
 40
1.0
176
     1
 90
        1
176
     1
 90
        6
176
     1
 90
        2
176
     1
 62
     7
176
     1
 90
        5
176
     1
 90
        0
176
     1
 90
        0
176
     1
290
     0
176
     1
 90
       13
176
     1
 40
0.0
176
     1
 90
        0
176
     1
290
     0
176
     1
290
     1
176
     1
290
     1
176
     1
290
     0
176
     1
290
     0
176
     1
290
     0
176
     1
290
     0
176
     1
290
     0
176
     1
290
     0
176
     1
 90
       50
176
     1
 40
0.0
176
     1
 40
1.0
176
     1
 90
        0
176
     1
 62
    18
420
        0
176
     1
 90
       50
176
     1
 90
        3
176
     1
 62
     5
420
      255
176
     1
290
     0
176
     1
 90
       50
176
     1
 90
       50
176
     1
 90
       50
176
     1
290
     0
176
     1
 90
       50
176
     1
 62
   256
176
     0
 40
1.0
176
     0
 90
        2
176
     1
  1
strokes_ogs.tif
176
     1
290
     0
176
     1
 40
1.0
176
     1
 40
1.0
176
     1
  0
VISUALSTYLE
  5
31
102
{ACAD_REACTORS
330
2A
102
}
330
2A
100
AcDbVisualStyle
  2
Hidden
 70
     6
177
     3
291
     0
 70
    58
 90
        1
176
     1
 90
        2
176
     1
 90
        2
176
     1
 90
        0
176
     1
 40
0.6
176
     1
 40
30.0
176
     1
 62
     7
420
 16777215
176
     1
 90
        2
176
     1
 90
        2
176
     1
 62
     7
176
     1
 62
   257
176
     1
 90
        2
176
     1
 90
        1
176
     1
 40
40.0
176
     1
 90
        0
176
     1
 62
   257
176
     1
 40
1.0
176
     1
 90
        1
176
     1
 90
        6
176
     1
 90
        2
176
     1
 62
     7
176
     1
 90
        3
176
     1
 90
        0
176
     1
 90
        0
176
     1
290
     0
176
     1
 90
        1
176
     1
 40
0.0
176
     1
 90
        0
176
     1
290
     0
176
     1
290
     1
176
     1
290
     1
176
     1
290
     0
176
     1
290
     0
176
     1
290
     0
176
     1
290
     0
176
     1
290
     0
176
     1
290
     0
176
     1
 90
       50
176
     1
 40
0.0
176
     1
 40
1.0
176
     1
 90
        0
176
     1
 62
    18
420
        0
176
     1
 90
       50
176
     1
 90
        3
176
     1
 62
     5
420
      255
176
     1
290
     0
176
     1
 90
       50
176
     1
 90
       50
176
     1
 90
       50
176
     1
290
     0
176
     1
 90
       50
176
     1
 62
   256
176
     0
 40
1.0
176
     0
 90
        2
176
     1
  1
strokes_ogs.tif
176
     1
290
     0
176
     1
 40
1.0
176
     1
 40
1.0
176
     1
  0
VISUALSTYLE
  5
3B
102
{ACAD_REACTORS
330
2A
102
}
330
2A
100
AcDbVisualStyle
  2
JitterOff
 70
    20
177
     3
291
     1
 70
    58
 90
        2
176
     0
 90
        2
176
     0
 90
        0
176
     0
 90
        0
176
     0
 40
0.6
176
     0
 40
30.0
176
     0
 62
     7
420
 16777215
176
     0
 90
        1
176
     0
 90
        4
176
     0
 62
     7
176
     0
 62
   257
176
     0
 90
        1
176
     0
 90
        1
176
     0
 40
1.0
176
     0
 90
       10
176
     2
 62
     7
176
     0
 40
1.0
176
     0
 90
        1
176
     0
 90
        6
176
     0
 90
        2
176
     0
 62
     7
176
     0
 90
        5
176
     0
 90
        0
176
     0
 90
        0
176
     0
290
     0
176
     0
 90
        1
176
     0
 40
0.0
176
     0
 90
        0
176
     0
290
     0
176
     0
290
     1
176
     0
290
     1
176
     0
290
     0
176
     0
290
     0
176
     0
290
     0
176
     0
290
     0
176
     0
290
     0
176
     0
290
     0
176
     0
 90
       50
176
     0
 40
0.0
176
     0
 40
1.0
176
     0
 90
        0
176
     0
 62
    18
420
        0
176
     0
 90
       50
176
     0
 90
        3
176
     0
 62
     5
420
      255
176
     0
290
     0
176
     0
 90
       50
176
     0
 90
       50
176
     0
 90
       50
176
     0
290
     0
176
     0
 90
       50
176
     0
 62
   256
176
     0
 40
1.0
176
     0
 90
        2
176
     0
  1
strokes_ogs.tif
176
     0
290
     0
176
     0
 40
1.0
176
     0
 40
1.0
176
     0
  0
VISUALSTYLE
  5
38
102
{ACAD_REACTORS
330
2A
102
}
330
2A
100
AcDbVisualStyle
  2
Linepattern
 70
    14
177
     3
291
     1
 70
    58
 90
        2
176
     1
 90
        2
176
     1
 90
        0
176
     1
 90
        0
176
     1
 40
0.6
176
     1
 40
30.0
176
     1
 62
     7
420
 16777215
176
     1
 90
        1
176
     1
 90
        4
176
     1
 62
     7
176
     1
 62
   257
176
     1
 90
        7
176
     1
 90
        7
176
     1
 40
1.0
176
     1
 90
        8
176
     1
 62
     7
176
     1
 40
1.0
176
     1
 90
        1
176
     1
 90
        6
176
     1
 90
        2
176
     1
 62
     7
176
     1
 90
        5
176
     1
 90
        0
176
     1
 90
        0
176
     1
290
     0
176
     1
 90
        1
176
     1
 40
0.0
176
     1
 90
        0
176
     1
290
     0
176
     1
290
     1
176
     1
290
     1
176
     1
290
     0
176
     1
290
     0
176
     1
290
     0
176
     1
290
     0
176
     1
290
     0
176
     1
290
     0
176
     1
 90
       50
176
     1
 40
0.0
176
     1
 40
1.0
176
     1
 90
        0
176
     1
 62
    18
420
        0
176
     1
 90
       50
176
     1
 90
        3
176
     1
 62
     5
420
      255
176
     1
290
     0
176
     1
 90
       50
176
     1
 90
       50
176
     1
 90
       50
176
     1
290
     0
176
     1
 90
       50
176
     1
 62
   256
176
     0
 40
1.0
176
     0
 90
        2
176
     1
  1
strokes_ogs.tif
176
     1
290
     0
176
     1
 40
1.0
176
     1
 40
1.0
176
     1
  0
VISUALSTYLE
  5
3C
102
{ACAD_REACTORS
330
2A
102
}
330
2A
100
AcDbVisualStyle
  2
OverhangOff
 70
    21
177
     3
291
     1
 70
    58
 90
        2
176
     0
 90
        2
176
     0
 90
        0
176
     0
 90
        0
176
     0
 40
0.6
176
     0
 40
30.0
176
     0
 62
     7
420
 16777215
176
     0
 90
        1
176
     0
 90
        4
176
     0
 62
     7
176
     0
 62
   257
176
     0
 90
        1
176
     0
 90
        1
176
     0
 40
1.0
176
     0
 90
        9
176
     2
 62
     7
176
     0
 40
1.0
176
     0
 90
        1
176
     0
 90
        6
176
     0
 90
        2
176
     0
 62
     7
176
     0
 90
        5
176
     0
 90
        0
176
     0
 90
        0
176
     0
290
     0
176
     0
 90
        1
176
     0
 40
0.0
176
     0
 90
        0
176
     0
290
     0
176
     0
290
     1
176
     0
290
     1
176
     0
290
     0
176
     0
290
     0
176
     0
290
     0
176
     0
290
     0
176
     0
290
     0
176
     0
290
     0
176
     0
 90
       50
176
     0
 40
0.0
176
     0
 40
1.0
176
     0
 90
        0
176
     0
 62
    18
420
        0
176
     0
 90
       50
176
     0
 90
        3
176
     0
 62
     5
420
      255
176
     0
290
     0
176
     0
 90
       50
176
     0
 90
       50
176
     0
 90
       50
176
     0
290
     0
176
     0
 90
       50
176
     0
 62
   256
176
     0
 40
1.0
176
     0
 90
        2
176
     0
  1
strokes_ogs.tif
176
     0
290
     0
176
     0
 40
1.0
176
     0
 40
1.0
176
     0
  0
VISUALSTYLE
  5
33
102
{ACAD_REACTORS
330
2A
102
}
330
2A
100
AcDbVisualStyle
  2
Realistic
 70
     8
177
     3
291
     0
 70
    58
 90
        2
176
     1
 90
        3
176
     1
 90
        0
176
     1
 90
        2
176
     1
 40
0.6
176
     1
 40
30.0
176
     1
 62
     7
420
 16777215
176
     1
 90
        0
176
     1
 90
        0
176
     1
 62
     7
176
     1
 62
   257
176
     1
 90
        1
176
     1
 90
        1
176
     1
 40
1.0
176
     1
 90
        8
176
     1
 62
   257
176
     1
 40
1.0
176
     1
 90
        1
176
     1
 90
        6
176
     1
 90
        2
176
     1
 62
     7
176
     1
 90
        3
176
     1
 90
        0
176
     1
 90
        0
176
     1
290
     0
176
     1
 90
       13
176
     1
 40
0.0
176
     1
 90
        0
176
     1
290
     0
176
     1
290
     1
176
     1
290
     1
176
     1
290
     0
176
     1
290
     0
176
     1
290
     0
176
     1
290
     0
176
     1
290
     0
176
     1
290
     0
176
     1
 90
       50
176
     1
 40
0.0
176
     1
 40
1.0
176
     1
 90
        0
176
     1
 62
    18
420
        0
176
     1
 90
       50
176
     1
 90
        3
176
     1
 62
     5
420
      255
176
     1
290
     0
176
     1
 90
       50
176
     1
 90
       50
176
     1
 90
       50
176
     1
290
     0
176
     1
 90
       50
176
     1
 62
   256
176
     0
 40
1.0
176
     0
 90
        2
176
     1
  1
strokes_ogs.tif
176
     1
290
     0
176
     1
 40
1.0
176
     1
 40
1.0
176
     1
  0
VISUALSTYLE
  5
42
102
{ACAD_REACTORS
330
2A
102
}
330
2A
100
AcDbVisualStyle
  2
Shaded
 70
    27
177
     3
291
     0
 70
    58
 90
        2
176
     1
 90
        2
176
     1
 90
        1
176
     1
 90
        2
176
     1
 40
0.6
176
     1
 40
30.0
176
     1
 62
     7
420
 16777215
176
     1
 90
        0
176
     1
 90
        4
176
     1
 62
     7
176
     1
 62
   257
176
     1
 90
        1
176
     1
 90
        1
176
     1
 40
1.0
176
     1
 90
        8
176
     1
 62
   257
176
     1
 40
1.0
176
     1
 90
        1
176
     1
 90
        6
176
     1
 90
        2
176
     1
 62
     8
420
  7895160
176
     1
 90
        3
176
     1
 90
        0
176
     1
 90
        0
176
     1
290
     0
176
     1
 90
        5
176
     1
 40
0.0
176
     1
 90
        0
176
     1
290
     0
176
     1
290
     1
176
     1
290
     1
176
     1
290
     0
176
     1
290
     0
176
     1
290
     0
176
     1
290
     0
176
     1
290
     0
176
     1
290
     0
176
     1
 90
       50
176
     1
 40
0.0
176
     1
 40
1.0
176
     1
 90
        0
176
     1
 62
    18
420
        0
176
     1
 90
       50
176
     1
 90
        3
176
     1
 62
     5
420
      255
176
     1
290
     0
176
     1
 90
       50
176
     1
 90
       50
176
     1
 90
       50
176
     1
290
     0
176
     1
 90
       50
176
     1
 62
   256
176
     0
 40
1.0
176
     0
 90
        2
176
     1
  1
strokes_ogs.tif
176
     1
290
     0
176
     1
 40
1.0
176
     1
 40
1.0
176
     1
  0
VISUALSTYLE
  5
41
102
{ACAD_REACTORS
330
2A
102
}
330
2A
100
AcDbVisualStyle
  2
Shaded with edges
 70
    26
177
     3
291
     0
 70
    58
 90
        2
176
     1
 90
        2
176
     1
 90
        1
176
     1
 90
        2
176
     1
 40
0.6
176
     1
 40
30.0
176
     1
 62
     7
420
 16777215
176
     1
 90
        1
176
     1
 90
       10
176
     1
 62
     7
176
     1
 62
   257
176
     1
 90
        2
176
     1
 90
        1
176
     1
 40
1.0
176
     1
 90
        8
176
     1
 62
   257
176
     1
 40
1.0
176
     1
 90
        1
176
     1
 90
        6
176
     1
 90
        2
176
     1
 62
     7
176
     1
 90
        3
176
     1
 90
        0
176
     1
 90
        0
176
     1
290
     0
176
     1
 90
        5
176
     1
 40
0.0
176
     1
 90
        0
176
     1
290
     0
176
     1
290
     1
176
     1
290
     1
176
     1
290
     0
176
     1
290
     0
176
     1
290
     0
176
     1
290
     0
176
     1
290
     0
176
     1
290
     0
176
     1
 90
       50
176
     1
 40
0.0
176
     1
 40
1.0
176
     1
 90
        0
176
     1
 62
    18
420
        0
176
     1
 90
       50
176
     1
 90
        3
176
     1
 62
     5
420
      255
176
     1
290
     0
176
     1
 90
       50
176
     1
 90
       50
176
     1
 90
       50
176
     1
290
     0
176
     1
 90
       50
176
     1
 62
   256
176
     0
 40
1.0
176
     0
 90
        2
176
     1
  1
strokes_ogs.tif
176
     1
290
     0
176
     1
 40
1.0
176
     1
 40
1.0
176
     1
  0
VISUALSTYLE
  5
3E
102
{ACAD_REACTORS
330
2A
102
}
330
2A
100
AcDbVisualStyle
  2
Shades of Gray
 70
    23
177
     3
291
     0
 70
    58
 90
        2
176
     1
 90
        2
176
     1
 90
        3
176
     1
 90
        0
176
     1
 40
0.6
176
     1
 40
30.0
176
     1
 62
     7
420
 16777215
176
     1
 90
        2
176
     1
 90
        2
176
     1
 62
     7
176
     1
 62
     7
176
     1
 90
        1
176
     1
 90
        1
176
     1
 40
40.0
176
     1
 90
        8
176
     1
 62
     7
176
     1
 40
1.0
176
     1
 90
        1
176
     1
 90
        6
176
     1
 90
        2
176
     1
 62
     7
176
     1
 90
        3
176
     1
 90
        0
176
     1
 90
        0
176
     1
290
     0
176
     1
 90
        1
176
     1
 40
0.0
176
     1
 90
        0
176
     1
290
     0
176
     1
290
     1
176
     1
290
     1
176
     1
290
     0
176
     1
290
     0
176
     1
290
     0
176
     1
290
     0
176
     1
290
     0
176
     1
290
     0
176
     1
 90
       50
176
     1
 40
0.0
176
     1
 40
1.0
176
     1
 90
        0
176
     1
 62
    18
420
        0
176
     1
 90
       50
176
     1
 90
        3
176
     1
 62
     5
420
      255
176
     1
290
     0
176
     1
 90
       50
176
     1
 90
       50
176
     1
 90
       50
176
     1
290
     0
176
     1
 90
       50
176
     1
 62
   256
176
     0
 40
1.0
176
     0
 90
        2
176
     1
  1
strokes_ogs.tif
176
     1
290
     0
176
     1
 40
1.0
176
     1
 40
1.0
176
     1
  0
VISUALSTYLE
  5
3F
102
{ACAD_REACTORS
330
2A
102
}
330
2A
100
AcDbVisualStyle
  2
Sketchy
 70
    24
177
     3
291
     0
 70
    58
 90
        1
176
     1
 90
        2
176
     1
 90
        2
176
     1
 90
        0
176
     1
 40
0.6
176
     1
 40
30.0
176
     1
 62
     7
420
 16777215
176
     1
 90
        2
176
     1
 90
        2
176
     1
 62
     7
176
     1
 62
     7
176
     1
 90
        1
176
     1
 90
        1
176
     1
 40
40.0
176
     1
 90
       11
176
     1
 62
     7
176
     1
 40
1.0
176
     1
 90
        1
176
     1
 90
        6
176
     1
 90
        2
176
     1
 62
     7
176
     1
 90
        6
176
     1
 90
        0
176
     1
 90
        0
176
     1
290
     0
176
     1
 90
        1
176
     1
 40
0.0
176
     1
 90
        0
176
     1
290
     0
176
     1
290
     1
176
     1
290
     1
176
     1
290
     0
176
     1
290
     0
176
     1
290
     0
176
     1
290
     0
176
     1
290
     0
176
     1
290
     0
176
     1
 90
       50
176
     1
 40
0.0
176
     1
 40
1.0
176
     1
 90
        0
176
     1
 62
    18
420
        0
176
     1
 90
       50
176
     1
 90
        3
176
     1
 62
     5
420
      255
176
     1
290
     0
176
     1
 90
       50
176
     1
 90
       50
176
     1
 90
       50
176
     1
290
     0
176
     1
 90
       50
176
     1
 62
   256
176
     0
 40
1.0
176
     0
 90
        2
176
     1
  1
strokes_ogs.tif
176
     1
290
     0
176
     1
 40
1.0
176
     1
 40
1.0
176
     1
  0
VISUALSTYLE
  5
37
102
{ACAD_REACTORS
330
2A
102
}
330
2A
100
AcDbVisualStyle
  2
Thicken
 70
    13
177
     3
291
     1
 70
    58
 90
        2
176
     1
 90
        2
176
     1
 90
        0
176
     1
 90
        0
176
     1
 40
0.6
176
     1
 40
30.0
176
     1
 62
     7
420
 16777215
176
     1
 90
        1
176
     1
 90
        4
176
     1
 62
     7
176
     1
 62
   257
176
     1
 90
        1
176
     1
 90
        1
176
     1
 40
1.0
176
     1
 90
       12
176
     1
 62
     7
176
     1
 40
1.0
176
     1
 90
        1
176
     1
 90
        6
176
     1
 90
        2
176
     1
 62
     7
176
     1
 90
        5
176
     1
 90
        0
176
     1
 90
        0
176
     1
290
     0
176
     1
 90
        1
176
     1
 40
0.0
176
     1
 90
        0
176
     1
290
     0
176
     1
290
     1
176
     1
290
     1
176
     1
290
     0
176
     1
290
     0
176
     1
290
     0
176
     1
290
     0
176
     1
290
     0
176
     1
290
     0
176
     1
 90
       50
176
     1
 40
0.0
176
     1
 40
1.0
176
     1
 90
        0
176
     1
 62
    18
420
        0
176
     1
 90
       50
176
     1
 90
        3
176
     1
 62
     5
420
      255
176
     1
290
     0
176
     1
 90
       50
176
     1
 90
       50
176
     1
 90
       50
176
     1
290
     0
176
     1
 90
       50
176
     1
 62
   256
176
     0
 40
1.0
176
     0
 90
        2
176
     1
  1
strokes_ogs.tif
176
     1
290
     0
176
     1
 40
1.0
176
     1
 40
1.0
176
     1
  0
VISUALSTYLE
  5
30
102
{ACAD_REACTORS
330
2A
102
}
330
2A
100
AcDbVisualStyle
  2
Wireframe
 70
     5
177
     3
291
     0
 70
    58
 90
        0
176
     1
 90
        2
176
     1
 90
        0
176
     1
 90
        0
176
     1
 40
0.6
176
     1
 40
30.0
176
     1
 62
     7
420
 16777215
176
     1
 90
        1
176
     1
 90
        4
176
     1
 62
     7
176
     1
 62
   257
176
     1
 90
        1
176
     1
 90
        1
176
     1
 40
1.0
176
     1
 90
        0
176
     1
 62
   257
176
     1
 40
1.0
176
     1
 90
        1
176
     1
 90
        6
176
     1
 90
        2
176
     1
 62
     7
176
     1
 90
        3
176
     1
 90
        0
176
     1
 90
        0
176
     1
290
     0
176
     1
 90
        1
176
     1
 40
0.0
176
     1
 90
        0
176
     1
290
     0
176
     1
290
     1
176
     1
290
     1
176
     1
290
     0
176
     1
290
     0
176
     1
290
     0
176
     1
290
     0
176
     1
290
     0
176
     1
290
     0
176
     1
 90
       50
176
     1
 40
0.0
176
     1
 40
1.0
176
     1
 90
        0
176
     1
 62
    18
420
        0
176
     1
 90
       50
176
     1
 90
        3
176
     1
 62
     5
420
      255
176
     1
290
     0
176
     1
 90
       50
176
     1
 90
       50
176
     1
 90
       50
176
     1
290
     0
176
     1
 90
       50
176
     1
 62
   256
176
     0
 40
1.0
176
     0
 90
        2
176
     1
  1
strokes_ogs.tif
176
     1
290
     0
176
     1
 40
1.0
176
     1
 40
1.0
176
     1
  0
VISUALSTYLE
  5
40
102
{ACAD_REACTORS
330
2A
102
}
330
2A
100
AcDbVisualStyle
  2
X-Ray
 70
    25
177
     3
291
     0
 70
    58
 90
        2
176
     1
 90
        2
176
     1
 90
        1
176
     1
 90
        1
176
     1
 40
0.5
176
     1
 40
30.0
176
     1
 62
     7
420
 16777215
176
     1
 90
        1
176
     1
 90
        0
176
     1
 62
     7
176
     1
 62
   257
176
     1
 90
        1
176
     1
 90
        1
176
     1
 40
1.0
176
     1
 90
        8
176
     1
 62
     7
176
     1
 40
1.0
176
     1
 90
        1
176
     1
 90
        6
176
     1
 90
        2
176
     1
 62
     7
176
     1
 90
        3
176
     1
 90
        0
176
     1
 90
        0
176
     1
290
     0
176
     1
 90
       13
176
     1
 40
0.0
176
     1
 90
        0
176
     1
290
     0
176
     1
290
     1
176
     1
290
     1
176
     1
290
     0
176
     1
290
     0
176
     1
290
     0
176
     1
290
     0
176
     1
290
     0
176
     1
290
     0
176
     1
 90
       50
176
     1
 40
0.0
176
     1
 40
1.0
176
     1
 90
        0
176
     1
 62
    18
420
        0
176
     1
 90
       50
176
     1
 90
        3
176
     1
 62
     5
420
      255
176
     1
290
     0
176
     1
 90
       50
176
     1
 90
       50
176
     1
 90
       50
176
     1
290
     0
176
     1
 90
       50
176
     1
 62
   256
176
     0
 40
1.0
176
     0
 90
        2
176
     1
  1
strokes_ogs.tif
176
     1
290
     0
176
     1
 40
1.0
176
     1
 40
1.0
176
     1
  0
DICTIONARYVAR
  5
44B
102
{ACAD_REACTORS
330
44A
102
}
330
44A
100
DictionaryVariables
280
     0
  1
1:1
  0
DICTIONARYVAR
  5
454
102
{ACAD_REACTORS
330
44A
102
}
330
44A
100
DictionaryVariables
280
     0
  1
3.500000
  0
DICTIONARYVAR
  5
455
102
{ACAD_REACTORS
330
44A
102
}
330
44A
100
DictionaryVariables
280
     0
  1
acadiso.lin
  0
DICTIONARYVAR
  5
450
102
{ACAD_REACTORS
330
44A
102
}
330
44A
100
DictionaryVariables
280
     0
  1
Standard
  0
DICTIONARYVAR
  5
44F
102
{ACAD_REACTORS
330
44A
102
}
330
44A
100
DictionaryVariables
280
     0
  1
Standard
  0
DICTIONARYVAR
  5
453
102
{ACAD_REACTORS
330
44A
102
}
330
44A
100
DictionaryVariables
280
     0
  1
0
  0
DICTIONARY
  5
44C
330
5A
100
AcDbDictionary
280
     1
281
     1
  3
ACAD_ROUNDTRIP_2008_TABLESTYLE_CELLSTYLEMAP
360
44D
  0
CELLSTYLEMAP
  5
44D
102
{ACAD_REACTORS
330
44C
102
}
330
44C
100
AcDbCellStyleMap
 90
        3
300
CELLSTYLE
  1
TABLEFORMAT_BEGIN
 90
        5
170
     1
 91
        0
 92
    32768
 62
   257
 93
        1
300
CONTENTFORMAT
  1
CONTENTFORMAT_BEGIN
 90
        0
 91
        0
 92
        4
 93
        0
300

 40
0.0
140
1.0
 94
        5
 62
     0
340
11
144
6.0
309
CONTENTFORMAT_END
171
     1
301
MARGIN
  1
CELLMARGIN_BEGIN
 40
1.5
 40
1.5
 40
1.5
 40
1.5
 40
1.5
 40
1.5
309
CELLMARGIN_END
 94
        6
 95
        1
302
GRIDFORMAT
  1
GRIDFORMAT_BEGIN
 90
        0
 91
        1
 62
     0
 92
       -2
340
14
 93
        0
 40
0.045
309
GRIDFORMAT_END
 95
        2
302
GRIDFORMAT
  1
GRIDFORMAT_BEGIN
 90
        0
 91
        1
 62
     0
 92
       -2
340
14
 93
        0
 40
0.045
309
GRIDFORMAT_END
 95
        4
302
GRIDFORMAT
  1
GRIDFORMAT_BEGIN
 90
        0
 91
        1
 62
     0
 92
       -2
340
14
 93
        0
 40
0.045
309
GRIDFORMAT_END
 95
        8
302
GRIDFORMAT
  1
GRIDFORMAT_BEGIN
 90
        0
 91
        1
 62
     0
 92
       -2
340
14
 93
        0
 40
0.045
309
GRIDFORMAT_END
 95
       16
302
GRIDFORMAT
  1
GRIDFORMAT_BEGIN
 90
        0
 91
        1
 62
     0
 92
       -2
340
14
 93
        0
 40
0.045
309
GRIDFORMAT_END
 95
       32
302
GRIDFORMAT
  1
GRIDFORMAT_BEGIN
 90
        0
 91
        1
 62
     0
 92
       -2
340
14
 93
        0
 40
0.045
309
GRIDFORMAT_END
309
TABLEFORMAT_END
  1
CELLSTYLE_BEGIN
 90
        1
 91
        1
300
_TITLE
309
CELLSTYLE_END
300
CELLSTYLE
  1
TABLEFORMAT_BEGIN
 90
        5
170
     1
 91
        0
 92
        0
 62
   257
 93
        1
300
CONTENTFORMAT
  1
CONTENTFORMAT_BEGIN
 90
        0
 91
        0
 92
        4
 93
        0
300

 40
0.0
140
1.0
 94
        5
 62
     0
340
11
144
4.5
309
CONTENTFORMAT_END
171
     1
301
MARGIN
  1
CELLMARGIN_BEGIN
 40
1.5
 40
1.5
 40
1.5
 40
1.5
 40
1.5
 40
1.5
309
CELLMARGIN_END
 94
        6
 95
        1
302
GRIDFORMAT
  1
GRIDFORMAT_BEGIN
 90
        0
 91
        1
 62
     0
 92
       -2
340
14
 93
        0
 40
0.045
309
GRIDFORMAT_END
 95
        2
302
GRIDFORMAT
  1
GRIDFORMAT_BEGIN
 90
        0
 91
        1
 62
     0
 92
       -2
340
14
 93
        0
 40
0.045
309
GRIDFORMAT_END
 95
        4
302
GRIDFORMAT
  1
GRIDFORMAT_BEGIN
 90
        0
 91
        1
 62
     0
 92
       -2
340
14
 93
        0
 40
0.045
309
GRIDFORMAT_END
 95
        8
302
GRIDFORMAT
  1
GRIDFORMAT_BEGIN
 90
        0
 91
        1
 62
     0
 92
       -2
340
14
 93
        0
 40
0.045
309
GRIDFORMAT_END
 95
       16
302
GRIDFORMAT
  1
GRIDFORMAT_BEGIN
 90
        0
 91
        1
 62
     0
 92
       -2
340
14
 93
        0
 40
0.045
309
GRIDFORMAT_END
 95
       32
302
GRIDFORMAT
  1
GRIDFORMAT_BEGIN
 90
        0
 91
        1
 62
     0
 92
       -2
340
14
 93
        0
 40
0.045
309
GRIDFORMAT_END
309
TABLEFORMAT_END
  1
CELLSTYLE_BEGIN
 90
        2
 91
        1
300
_HEADER
309
CELLSTYLE_END
300
CELLSTYLE
  1
TABLEFORMAT_BEGIN
 90
        5
170
     1
 91
        0
 92
        0
 62
   257
 93
        1
300
CONTENTFORMAT
  1
CONTENTFORMAT_BEGIN
 90
        0
 91
        0
 92
        4
 93
        0
300

 40
0.0
140
1.0
 94
        2
 62
     0
340
11
144
4.5
309
CONTENTFORMAT_END
171
     1
301
MARGIN
  1
CELLMARGIN_BEGIN
 40
1.5
 40
1.5
 40
1.5
 40
1.5
 40
1.5
 40
1.5
309
CELLMARGIN_END
 94
        6
 95
        1
302
GRIDFORMAT
  1
GRIDFORMAT_BEGIN
 90
        0
 91
        1
 62
     0
 92
       -2
340
14
 93
        0
 40
0.045
309
GRIDFORMAT_END
 95
        2
302
GRIDFORMAT
  1
GRIDFORMAT_BEGIN
 90
        0
 91
        1
 62
     0
 92
       -2
340
14
 93
        0
 40
0.045
309
GRIDFORMAT_END
 95
        4
302
GRIDFORMAT
  1
GRIDFORMAT_BEGIN
 90
        0
 91
        1
 62
     0
 92
       -2
340
14
 93
        0
 40
0.045
309
GRIDFORMAT_END
 95
        8
302
GRIDFORMAT
  1
GRIDFORMAT_BEGIN
 90
        0
 91
        1
 62
     0
 92
       -2
340
14
 93
        0
 40
0.045
309
GRIDFORMAT_END
 95
       16
302
GRIDFORMAT
  1
GRIDFORMAT_BEGIN
 90
        0
 91
        1
 62
     0
 92
       -2
340
14
 93
        0
 40
0.045
309
GRIDFORMAT_END
 95
       32
302
GRIDFORMAT
  1
GRIDFORMAT_BEGIN
 90
        0
 91
        1
 62
     0
 92
       -2
340
14
 93
        0
 40
0.045
309
GRIDFORMAT_END
309
TABLEFORMAT_END
  1
CELLSTYLE_BEGIN
 90
        3
 91
        2
300
_DATA
309
CELLSTYLE_END
  0
ENDSEC
  0
EOF
