  0
SECTION
  2
HEADER
  9
$ACADVER
  1
AC1027
  9
$ACADMAINTVER
 70
   105
  9
$DWGCODEPAGE
  3
ANSI_1252
  9
$LASTSAVEDBY
  1
mezergues
  9
$REQUIREDVERSIONS
160
                 0
  9
$INSBASE
 10
0.0
 20
0.0
 30
0.0
  9
$EXTMIN
 10
19505.20704734458
 20
-261.9628226946224
 30
-265.0000000000077
  9
$EXTMAX
 10
21333.47353496287
 20
1093.037177305407
 30
59.9999999999952
  9
$LIMMIN
 10
0.0
 20
0.0
  9
$LIMMAX
 10
420.0
 20
297.0
  9
$ORTHOMODE
 70
     0
  9
$REGENMODE
 70
     1
  9
$FILLMODE
 70
     1
  9
$QTEXTMODE
 70
     0
  9
$MIRRTEXT
 70
     1
  9
$LTSCALE
 40
5.0
  9
$ATTMODE
 70
     1
  9
$TEXTSIZE
 40
2.5
  9
$TRACEWID
 40
1.0
  9
$TEXTSTYLE
  7
Standard
  9
$CLAYER
  8
0
  9
$CELTYPE
  6
Continuous
  9
$CECOLOR
 62
   256
  9
$CELTSCALE
 40
1.0
  9
$DISPSILH
 70
     0
  9
$DIMSCALE
 40
1.0
  9
$DIMASZ
 40
2.5
  9
$DIMEXO
 40
0.625
  9
$DIMDLI
 40
3.75
  9
$DIMRND
 40
0.0
  9
$DIMDLE
 40
0.0
  9
$DIMEXE
 40
1.25
  9
$DIMTP
 40
0.0
  9
$DIMTM
 40
0.0
  9
$DIMTXT
 40
2.5
  9
$DIMCEN
 40
2.5
  9
$DIMTSZ
 40
0.0
  9
$DIMTOL
 70
     0
  9
$DIMLIM
 70
     0
  9
$DIMTIH
 70
     0
  9
$DIMTOH
 70
     0
  9
$DIMSE1
 70
     0
  9
$DIMSE2
 70
     0
  9
$DIMTAD
 70
     1
  9
$DIMZIN
 70
     8
  9
$DIMBLK
  1

  9
$DIMASO
 70
     1
  9
$DIMSHO
 70
     1
  9
$DIMPOST
  1

  9
$DIMAPOST
  1

  9
$DIMALT
 70
     0
  9
$DIMALTD
 70
     3
  9
$DIMALTF
 40
0.03937007874016
  9
$DIMLFAC
 40
1.0
  9
$DIMTOFL
 70
     1
  9
$DIMTVP
 40
0.0
  9
$DIMTIX
 70
     0
  9
$DIMSOXD
 70
     1
  9
$DIMSAH
 70
     0
  9
$DIMBLK1
  1

  9
$DIMBLK2
  1

  9
$DIMSTYLE
  2
ISO-25
  9
$DIMCLRD
 70
     0
  9
$DIMCLRE
 70
     0
  9
$DIMCLRT
 70
     0
  9
$DIMTFAC
 40
1.0
  9
$DIMGAP
 40
0.625
  9
$DIMJUST
 70
     0
  9
$DIMSD1
 70
     0
  9
$DIMSD2
 70
     0
  9
$DIMTOLJ
 70
     0
  9
$DIMTZIN
 70
     8
  9
$DIMALTZ
 70
     0
  9
$DIMALTTZ
 70
     0
  9
$DIMUPT
 70
     0
  9
$DIMDEC
 70
     2
  9
$DIMTDEC
 70
     2
  9
$DIMALTU
 70
     2
  9
$DIMALTTD
 70
     3
  9
$DIMTXSTY
  7
Standard
  9
$DIMAUNIT
 70
     0
  9
$DIMADEC
 70
     0
  9
$DIMALTRND
 40
0.0
  9
$DIMAZIN
 70
     0
  9
$DIMDSEP
 70
    44
  9
$DIMATFIT
 70
     3
  9
$DIMFRAC
 70
     0
  9
$DIMLDRBLK
  1

  9
$DIMLUNIT
 70
     2
  9
$DIMLWD
 70
    -2
  9
$DIMLWE
 70
    -2
  9
$DIMTMOVE
 70
     2
  9
$DIMFXL
 40
1.0
  9
$DIMFXLON
 70
     0
  9
$DIMJOGANG
 40
0.7853981633974483
  9
$DIMTFILL
 70
     0
  9
$DIMTFILLCLR
 70
     0
  9
$DIMARCSYM
 70
     0
  9
$DIMLTYPE
  6

  9
$DIMLTEX1
  6

  9
$DIMLTEX2
  6

  9
$DIMTXTDIRECTION
 70
     0
  9
$LUNITS
 70
     2
  9
$LUPREC
 70
     4
  9
$SKETCHINC
 40
1.0
  9
$FILLETRAD
 40
0.0
  9
$AUNITS
 70
     0
  9
$AUPREC
 70
     0
  9
$MENU
  1
.
  9
$ELEVATION
 40
0.0
  9
$PELEVATION
 40
0.0
  9
$THICKNESS
 40
0.0
  9
$LIMCHECK
 70
     0
  9
$CHAMFERA
 40
0.0
  9
$CHAMFERB
 40
0.0
  9
$CHAMFERC
 40
0.0
  9
$CHAMFERD
 40
0.0
  9
$SKPOLY
 70
     0
  9
$TDCREATE
 40
2459678.432294873
  9
$TDUCREATE
 40
2459678.34896154
  9
$TDUPDATE
 40
2459678.432302037
  9
$TDUUPDATE
 40
2459678.348968704
  9
$TDINDWG
 40
0.0000000116
  9
$TDUSRTIMER
 40
0.0000000116
  9
$USRTIMER
 70
     1
  9
$ANGBASE
 50
0.0
  9
$ANGDIR
 70
     0
  9
$PDMODE
 70
     0
  9
$PDSIZE
 40
0.0
  9
$PLINEWID
 40
0.0
  9
$SPLFRAME
 70
     0
  9
$SPLINETYPE
 70
     6
  9
$SPLINESEGS
 70
     8
  9
$HANDSEED
  5
551
  9
$SURFTAB1
 70
     6
  9
$SURFTAB2
 70
     6
  9
$SURFTYPE
 70
     6
  9
$SURFU
 70
     6
  9
$SURFV
 70
     6
  9
$UCSBASE
  2

  9
$UCSNAME
  2

  9
$UCSORG
 10
0.0
 20
0.0
 30
0.0
  9
$UCSXDIR
 10
1.0
 20
0.0
 30
0.0
  9
$UCSYDIR
 10
0.0
 20
1.0
 30
0.0
  9
$UCSORTHOREF
  2

  9
$UCSORTHOVIEW
 70
     0
  9
$UCSORGTOP
 10
0.0
 20
0.0
 30
0.0
  9
$UCSORGBOTTOM
 10
0.0
 20
0.0
 30
0.0
  9
$UCSORGLEFT
 10
0.0
 20
0.0
 30
0.0
  9
$UCSORGRIGHT
 10
0.0
 20
0.0
 30
0.0
  9
$UCSORGFRONT
 10
0.0
 20
0.0
 30
0.0
  9
$UCSORGBACK
 10
0.0
 20
0.0
 30
0.0
  9
$PUCSBASE
  2

  9
$PUCSNAME
  2

  9
$PUCSORG
 10
0.0
 20
0.0
 30
0.0
  9
$PUCSXDIR
 10
1.0
 20
0.0
 30
0.0
  9
$PUCSYDIR
 10
0.0
 20
1.0
 30
0.0
  9
$PUCSORTHOREF
  2

  9
$PUCSORTHOVIEW
 70
     0
  9
$PUCSORGTOP
 10
0.0
 20
0.0
 30
0.0
  9
$PUCSORGBOTTOM
 10
0.0
 20
0.0
 30
0.0
  9
$PUCSORGLEFT
 10
0.0
 20
0.0
 30
0.0
  9
$PUCSORGRIGHT
 10
0.0
 20
0.0
 30
0.0
  9
$PUCSORGFRONT
 10
0.0
 20
0.0
 30
0.0
  9
$PUCSORGBACK
 10
0.0
 20
0.0
 30
0.0
  9
$USERI1
 70
     0
  9
$USERI2
 70
     0
  9
$USERI3
 70
     0
  9
$USERI4
 70
     0
  9
$USERI5
 70
     0
  9
$USERR1
 40
0.0
  9
$USERR2
 40
0.0
  9
$USERR3
 40
0.0
  9
$USERR4
 40
0.0
  9
$USERR5
 40
0.0
  9
$WORLDVIEW
 70
     1
  9
$SHADEDGE
 70
     3
  9
$SHADEDIF
 70
    70
  9
$TILEMODE
 70
     1
  9
$MAXACTVP
 70
    64
  9
$PINSBASE
 10
0.0
 20
0.0
 30
0.0
  9
$PLIMCHECK
 70
     0
  9
$PEXTMIN
 10
-5.730400000000003
 20
-7.876400000000018
 30
0.0
  9
$PEXTMAX
 10
203.3304
 20
279.4764
 30
0.0
  9
$PLIMMIN
 10
-20.0
 20
-7.5
  9
$PLIMMAX
 10
277.0
 20
202.5
  9
$UNITMODE
 70
     0
  9
$VISRETAIN
 70
     1
  9
$PLINEGEN
 70
     0
  9
$PSLTSCALE
 70
     0
  9
$TREEDEPTH
 70
  3020
  9
$CMLSTYLE
  2
Standard
  9
$CMLJUST
 70
     0
  9
$CMLSCALE
 40
20.0
  9
$PROXYGRAPHICS
 70
     1
  9
$MEASUREMENT
 70
     1
  9
$CELWEIGHT
370
    -1
  9
$ENDCAPS
280
     0
  9
$JOINSTYLE
280
     0
  9
$LWDISPLAY
290
     0
  9
$INSUNITS
 70
     4
  9
$HYPERLINKBASE
  1

  9
$STYLESHEET
  1

  9
$XEDIT
290
     1
  9
$CEPSNTYPE
380
     3
  9
$CEPSNID
390
5F
  9
$PSTYLEMODE
290
     0
  9
$FINGERPRINTGUID
  2
{bd5de067-b9d4-40ce-ae23-715af225b71c}
  9
$VERSIONGUID
  2
{FAEB1C32-E019-11D5-929B-00C0DF256EC4}
  9
$EXTNAMES
290
     1
  9
$PSVPSCALE
 40
0.0
  9
$OLESTARTUP
290
     0
  9
$SORTENTS
280
   127
  9
$INDEXCTL
280
     0
  9
$HIDETEXT
280
     1
  9
$XCLIPFRAME
280
     2
  9
$HALOGAP
280
     0
  9
$OBSCOLOR
 70
   257
  9
$OBSLTYPE
280
     0
  9
$INTERSECTIONDISPLAY
280
     0
  9
$INTERSECTIONCOLOR
 70
   257
  9
$DIMASSOC
280
     2
  9
$PROJECTNAME
  1

  9
$CAMERADISPLAY
290
     0
  9
$LENSLENGTH
 40
50.0
  9
$CAMERAHEIGHT
 40
0.0
  9
$STEPSPERSEC
 40
2.0
  9
$STEPSIZE
 40
6.0
  9
$3DDWFPREC
 40
2.0
  9
$PSOLWIDTH
 40
5.0
  9
$PSOLHEIGHT
 40
80.0
  9
$LOFTANG1
 40
1.570796326794897
  9
$LOFTANG2
 40
1.570796326794897
  9
$LOFTMAG1
 40
0.0
  9
$LOFTMAG2
 40
0.0
  9
$LOFTPARAM
 70
     7
  9
$LOFTNORMALS
280
     1
  9
$LATITUDE
 40
37.795
  9
$LONGITUDE
 40
-122.394
  9
$NORTHDIRECTION
 40
0.0
  9
$TIMEZONE
 70
 -8000
  9
$LIGHTGLYPHDISPLAY
280
     1
  9
$TILEMODELIGHTSYNCH
280
     1
  9
$CMATERIAL
347
44
  9
$SOLIDHIST
280
     0
  9
$SHOWHIST
280
     1
  9
$DWFFRAME
280
     2
  9
$DGNFRAME
280
     2
  9
$REALWORLDSCALE
290
     1
  9
$INTERFERECOLOR
 62
   256
  9
$CSHADOW
280
     0
  9
$SHADOWPLANELOCATION
 40
0.0
  0
ENDSEC
  0
SECTION
  2
CLASSES
  0
CLASS
  1
ACDBDICTIONARYWDFLT
  2
AcDbDictionaryWithDefault
  3
ObjectDBX Classes
 90
        0
 91
        3
280
     0
281
     0
  0
CLASS
  1
VISUALSTYLE
  2
AcDbVisualStyle
  3
ObjectDBX Classes
 90
     4095
 91
        3
280
     0
281
     0
  0
CLASS
  1
MATERIAL
  2
AcDbMaterial
  3
ObjectDBX Classes
 90
     1153
 91
        3
280
     0
281
     0
  0
CLASS
  1
SCALE
  2
AcDbScale
  3
ObjectDBX Classes
 90
     1153
 91
        3
280
     0
281
     0
  0
CLASS
  1
TABLESTYLE
  2
AcDbTableStyle
  3
ObjectDBX Classes
 90
     4095
 91
        3
280
     0
281
     0
  0
CLASS
  1
MLEADERSTYLE
  2
AcDbMLeaderStyle
  3
ACDB_MLEADERSTYLE_CLASS
 90
     4095
 91
        3
280
     0
281
     0
  0
CLASS
  1
SUN
  2
AcDbSun
  3
SCENEOE
 90
     1153
 91
        3
280
     0
281
     0
  0
CLASS
  1
RASTERVARIABLES
  2
AcDbRasterVariables
  3
ISM
 90
        0
 91
        3
280
     0
281
     0
  0
CLASS
  1
WIPEOUTVARIABLES
  2
AcDbWipeoutVariables
  3
WipeOut|AutoCAD Express Tool|expresstools@autodesk.com
 90
        0
 91
        3
280
     0
281
     0
  0
CLASS
  1
PLOTSETTINGS
  2
AcDbPlotSettings
  3
ObjectDBX Classes
 90
        0
 91
        3
280
     0
281
     0
  0
CLASS
  1
IMAGEDEF
  2
AcDbRasterImageDef
  3
ISM
 90
        0
 91
        3
280
     0
281
     0
  0
CLASS
  1
IMAGE
  2
AcDbRasterImage
  3
ISM
 90
      127
 91
        4
280
     0
281
     1
  0
CLASS
  1
IMAGEDEF_REACTOR
  2
AcDbRasterImageDefReactor
  3
ISM
 90
        1
 91
        3
280
     0
281
     0
  0
CLASS
  1
DICTIONARYVAR
  2
AcDbDictionaryVar
  3
ObjectDBX Classes
 90
        0
 91
        3
280
     0
281
     0
  0
CLASS
  1
CELLSTYLEMAP
  2
AcDbCellStyleMap
  3
ObjectDBX Classes
 90
     1152
 91
        3
280
     0
281
     0
  0
ENDSEC
  0
SECTION
  2
TABLES
  0
TABLE
  2
VPORT
  5
8
330
0
100
AcDbSymbolTable
 70
     1
  0
VPORT
  5
29
330
8
100
AcDbSymbolTableRecord
100
AcDbViewportTableRecord
  2
*Active
 70
     0
 10
0.0
 20
0.0
 11
1.0
 21
1.0
 12
344.1869158878504
 22
148.5
 13
0.0
 23
0.0
 14
10.0
 24
10.0
 15
10.0
 25
10.0
 16
0.0
 26
0.0
 36
1.0
 17
0.0
 27
0.0
 37
0.0
 40
297.0
 41
1.972972972850329
 42
50.0
 43
0.0
 44
0.0
 50
0.0
 51
0.0
 71
     0
 72
   100
 73
     1
 74
     3
 75
     0
 76
     0
 77
     0
 78
     0
281
     0
 65
     1
110
0.0
120
0.0
130
0.0
111
1.0
121
0.0
131
0.0
112
0.0
122
1.0
132
0.0
 79
     0
146
0.0
348
2F
 60
     3
 61
     5
292
     1
282
     1
141
0.0
142
0.0
 63
   250
361
5D
  0
ENDTAB
  0
TABLE
  2
LTYPE
  5
5
330
0
100
AcDbSymbolTable
 70
     2
  0
LTYPE
  5
14
330
5
100
AcDbSymbolTableRecord
100
AcDbLinetypeTableRecord
  2
ByBlock
 70
     0
  3

 72
    65
 73
     0
 40
0.0
  0
LTYPE
  5
15
330
5
100
AcDbSymbolTableRecord
100
AcDbLinetypeTableRecord
  2
ByLayer
 70
     0
  3

 72
    65
 73
     0
 40
0.0
  0
LTYPE
  5
16
330
5
100
AcDbSymbolTableRecord
100
AcDbLinetypeTableRecord
  2
Continuous
 70
     0
  3
Solid line
 72
    65
 73
     0
 40
0.0
  0
LTYPE
  5
16C
330
5
100
AcDbSymbolTableRecord
100
AcDbLinetypeTableRecord
  2
CADWORK_3
 70
     0
  3

 72
    65
 73
     2
 40
4.0
 49
2.0
 74
     0
 49
-2.0
 74
     0
  0
ENDTAB
  0
TABLE
  2
LAYER
  5
2
330
0
100
AcDbSymbolTable
 70
    10
  0
LAYER
  5
10
330
2
100
AcDbSymbolTableRecord
100
AcDbLayerTableRecord
  2
0
 70
     0
 62
     7
  6
Continuous
370
    -3
390
F
347
46
348
0
  0
LAYER
  5
67
330
2
100
AcDbSymbolTableRecord
100
AcDbLayerTableRecord
  2
Ech.1_1
 70
     0
 62
     7
  6
Continuous
370
    -3
390
F
347
46
348
0
  0
LAYER
  5
68
330
2
100
AcDbSymbolTableRecord
100
AcDbLayerTableRecord
  2
Ech.1_2
 70
     0
 62
     7
  6
Continuous
370
    -3
390
F
347
46
348
0
  0
LAYER
  5
69
330
2
100
AcDbSymbolTableRecord
100
AcDbLayerTableRecord
  2
Ech.1_5
 70
     0
 62
     7
  6
Continuous
370
    -3
390
F
347
46
348
0
  0
LAYER
  5
6A
330
2
100
AcDbSymbolTableRecord
100
AcDbLayerTableRecord
  2
Ech.1_10
 70
     0
 62
     7
  6
Continuous
370
    -3
390
F
347
46
348
0
  0
LAYER
  5
6B
330
2
100
AcDbSymbolTableRecord
100
AcDbLayerTableRecord
  2
Ech.1_20
 70
     0
 62
     7
  6
Continuous
370
    -3
390
F
347
46
348
0
  0
LAYER
  5
6C
330
2
100
AcDbSymbolTableRecord
100
AcDbLayerTableRecord
  2
Layer_17
 70
     0
 62
     7
  6
Continuous
370
    -3
390
F
347
46
348
0
  0
LAYER
  5
6D
330
2
100
AcDbSymbolTableRecord
100
AcDbLayerTableRecord
  2
Cadres laser
 70
     0
 62
     7
  6
Continuous
370
    -3
390
F
347
46
348
0
  0
LAYER
  5
6E
330
2
100
AcDbSymbolTableRecord
100
AcDbLayerTableRecord
  2
DEFPOINTS
 70
     0
 62
     7
  6
Continuous
290
     0
370
    -3
390
F
347
46
348
0
  0
LAYER
  5
6F
330
2
100
AcDbSymbolTableRecord
100
AcDbLayerTableRecord
  2
ASSY
 70
     0
 62
     7
  6
Continuous
370
    -3
390
F
347
46
348
0
  0
ENDTAB
  0
TABLE
  2
STYLE
  5
3
330
0
100
AcDbSymbolTable
 70
    10
  0
STYLE
  5
11
330
3
100
AcDbSymbolTableRecord
100
AcDbTextStyleTableRecord
  2
Standard
 70
     0
 40
0.0
 41
1.0
 50
0.0
 71
     0
 42
2.5
  3
txt
  4

  0
STYLE
  5
62
330
3
100
AcDbSymbolTableRecord
100
AcDbTextStyleTableRecord
  2
CwStyleShx
 70
     0
 40
1.0
 41
1.0
 50
0.0
 71
     0
 42
2.5
  3

  4

  0
STYLE
  5
63
330
3
100
AcDbSymbolTableRecord
100
AcDbTextStyleTableRecord
  2
CwStyleShx16
 70
     0
 40
1.0
 41
1.0
 50
0.0
 71
     0
 42
2.5
  3

  4

  0
STYLE
  5
64
330
3
100
AcDbSymbolTableRecord
100
AcDbTextStyleTableRecord
  2
MONOTXT
 70
     0
 40
0.0
 41
1.0
 50
0.0
 71
     0
 42
2.5
  3
MONOTXT
  4

  0
STYLE
  5
65
330
3
100
AcDbSymbolTableRecord
100
AcDbTextStyleTableRecord
  2
SYMAP
 70
     0
 40
1.0
 41
1.0
 50
0.0
 71
     0
 42
2.5
  3
SYMAP
  4

  0
STYLE
  5
66
330
3
100
AcDbSymbolTableRecord
100
AcDbTextStyleTableRecord
  2
CwStyleTtf
 70
     0
 40
1.0
 41
1.0
 50
0.0
 71
     0
 42
2.5
  3
arial.ttf
  4

  0
STYLE
  5
297
330
3
100
AcDbSymbolTableRecord
100
AcDbTextStyleTableRecord
  2
arial-
 70
     0
 40
1.0
 41
1.0
 50
0.0
 71
     0
 42
2.5
  3
arial.ttf
  4

1001
ACAD
1000
Arial
1071
        0
  0
STYLE
  5
298
330
3
100
AcDbSymbolTableRecord
100
AcDbTextStyleTableRecord
  2
symbol-
 70
     0
 40
1.0
 41
1.0
 50
0.0
 71
     0
 42
2.5
  3
symbol.ttf
  4

1001
ACAD
1000
Symbol
1071
        0
  0
STYLE
  5
537
330
3
100
AcDbSymbolTableRecord
100
AcDbTextStyleTableRecord
  2
arial-i
 70
     0
 40
1.0
 41
1.0
 50
0.0
 71
     0
 42
2.5
  3
ariali.ttf
  4

1001
ACAD
1000
Arial
1071
 16777216
  0
STYLE
  5
53B
330
3
100
AcDbSymbolTableRecord
100
AcDbTextStyleTableRecord
  2
arial-b
 70
     0
 40
1.0
 41
1.0
 50
0.0
 71
     0
 42
2.5
  3
arialbd.ttf
  4

1001
ACAD
1000
Arial
1071
 33554432
  0
ENDTAB
  0
TABLE
  2
VIEW
  5
6
330
0
100
AcDbSymbolTable
 70
     0
  0
ENDTAB
  0
TABLE
  2
UCS
  5
7
330
0
100
AcDbSymbolTable
 70
     0
  0
ENDTAB
  0
TABLE
  2
APPID
  5
9
330
0
100
AcDbSymbolTable
 70
     3
  0
APPID
  5
12
330
9
100
AcDbSymbolTableRecord
100
AcDbRegAppTableRecord
  2
ACAD
 70
     0
  0
APPID
  5
5E
330
9
100
AcDbSymbolTableRecord
100
AcDbRegAppTableRecord
  2
Cadwork
 70
     0
  0
APPID
  5
21C
330
9
100
AcDbSymbolTableRecord
100
AcDbRegAppTableRecord
  2
PLOTTRANSPARENCY
 70
     0
  0
ENDTAB
  0
TABLE
  2
DIMSTYLE
  5
A
330
0
100
AcDbSymbolTable
 70
     1
100
AcDbDimStyleTable
  0
DIMSTYLE
105
27
330
A
100
AcDbSymbolTableRecord
100
AcDbDimStyleTableRecord
  2
ISO-25
 70
     0
 41
2.5
 42
0.625
 43
3.75
 44
1.25
 73
     0
 74
     0
 77
     1
 78
     8
140
2.5
141
2.5
143
0.03937007874016
147
0.625
171
     3
172
     1
178
     0
271
     2
272
     2
274
     3
278
    44
283
     0
284
     8
340
11
  0
ENDTAB
  0
TABLE
  2
BLOCK_RECORD
  5
1
330
0
100
AcDbSymbolTable
 70
    71
  0
BLOCK_RECORD
  5
1F
330
1
100
AcDbSymbolTableRecord
100
AcDbBlockTableRecord
  2
*Model_Space
340
22
 70
     0
280
     1
281
     0
  0
BLOCK_RECORD
  5
217
330
1
100
AcDbSymbolTableRecord
100
AcDbBlockTableRecord
  2
*Paper_Space
340
218
 70
     0
280
     1
281
     0
  0
BLOCK_RECORD
  5
70
330
1
100
AcDbSymbolTableRecord
100
AcDbBlockTableRecord
  2
CDWK_PTTYP1
340
0
102
{BLKREFS
331
52C
331
52D
331
52E
331
52F
331
530
331
531
102
}
 70
     0
280
     1
281
     1
  0
BLOCK_RECORD
  5
77
330
1
100
AcDbSymbolTableRecord
100
AcDbBlockTableRecord
  2
CDWK_PTTYP2
340
0
 70
     0
280
     1
281
     1
  0
BLOCK_RECORD
  5
7C
330
1
100
AcDbSymbolTableRecord
100
AcDbBlockTableRecord
  2
CDWK_PTTYP4
340
0
 70
     0
280
     1
281
     1
  0
BLOCK_RECORD
  5
80
330
1
100
AcDbSymbolTableRecord
100
AcDbBlockTableRecord
  2
CDWK_PTTYP5
340
0
 70
     0
280
     1
281
     1
  0
BLOCK_RECORD
  5
89
330
1
100
AcDbSymbolTableRecord
100
AcDbBlockTableRecord
  2
CDWK_PTTYP6
340
0
 70
     0
280
     1
281
     1
  0
BLOCK_RECORD
  5
91
330
1
100
AcDbSymbolTableRecord
100
AcDbBlockTableRecord
  2
CDWK_PTTYP7
340
0
 70
     0
280
     1
281
     1
  0
BLOCK_RECORD
  5
9A
330
1
100
AcDbSymbolTableRecord
100
AcDbBlockTableRecord
  2
CDWK_PTTYP8
340
0
 70
     0
280
     1
281
     1
  0
BLOCK_RECORD
  5
9E
330
1
100
AcDbSymbolTableRecord
100
AcDbBlockTableRecord
  2
CDWK_PTTYP9
340
0
 70
     0
280
     1
281
     1
  0
BLOCK_RECORD
  5
A3
330
1
100
AcDbSymbolTableRecord
100
AcDbBlockTableRecord
  2
CDWK_PTTYP10
340
0
 70
     0
280
     1
281
     1
  0
BLOCK_RECORD
  5
A7
330
1
100
AcDbSymbolTableRecord
100
AcDbBlockTableRecord
  2
CDWK_PTTYP11
340
0
 70
     0
280
     1
281
     1
  0
BLOCK_RECORD
  5
AC
330
1
100
AcDbSymbolTableRecord
100
AcDbBlockTableRecord
  2
CDWK_PTTYP12
340
0
 70
     0
280
     1
281
     1
  0
BLOCK_RECORD
  5
B1
330
1
100
AcDbSymbolTableRecord
100
AcDbBlockTableRecord
  2
CDWK_PTTYP13
340
0
 70
     0
280
     1
281
     1
  0
BLOCK_RECORD
  5
B7
330
1
100
AcDbSymbolTableRecord
100
AcDbBlockTableRecord
  2
CDWK_PTTYP16
340
0
 70
     0
280
     1
281
     1
  0
BLOCK_RECORD
  5
BE
330
1
100
AcDbSymbolTableRecord
100
AcDbBlockTableRecord
  2
CDWK_PTTYP17
340
0
 70
     0
280
     1
281
     1
  0
BLOCK_RECORD
  5
C3
330
1
100
AcDbSymbolTableRecord
100
AcDbBlockTableRecord
  2
CDWK_PTTYP18
340
0
 70
     0
280
     1
281
     1
  0
BLOCK_RECORD
  5
C8
330
1
100
AcDbSymbolTableRecord
100
AcDbBlockTableRecord
  2
CDWK_PTTYP19
340
0
 70
     0
280
     1
281
     1
  0
BLOCK_RECORD
  5
CE
330
1
100
AcDbSymbolTableRecord
100
AcDbBlockTableRecord
  2
CDWK_PTTYP20
340
0
 70
     0
280
     1
281
     1
  0
BLOCK_RECORD
  5
D3
330
1
100
AcDbSymbolTableRecord
100
AcDbBlockTableRecord
  2
CDWK_PTTYP21
340
0
 70
     0
280
     1
281
     1
  0
BLOCK_RECORD
  5
D8
330
1
100
AcDbSymbolTableRecord
100
AcDbBlockTableRecord
  2
CDWK_PTTYP25
340
0
 70
     0
280
     1
281
     1
  0
BLOCK_RECORD
  5
DF
330
1
100
AcDbSymbolTableRecord
100
AcDbBlockTableRecord
  2
CDWK_PTTYP26
340
0
 70
     0
280
     1
281
     1
  0
BLOCK_RECORD
  5
E6
330
1
100
AcDbSymbolTableRecord
100
AcDbBlockTableRecord
  2
CDWK_PTTYP27
340
0
 70
     0
280
     1
281
     1
  0
BLOCK_RECORD
  5
EE
330
1
100
AcDbSymbolTableRecord
100
AcDbBlockTableRecord
  2
CDWK_PTTYP28
340
0
 70
     0
280
     1
281
     1
  0
BLOCK_RECORD
  5
F5
330
1
100
AcDbSymbolTableRecord
100
AcDbBlockTableRecord
  2
CDWK_PTTYP29
340
0
 70
     0
280
     1
281
     1
  0
BLOCK_RECORD
  5
FB
330
1
100
AcDbSymbolTableRecord
100
AcDbBlockTableRecord
  2
CDWK_PTTYP30
340
0
 70
     0
280
     1
281
     1
  0
BLOCK_RECORD
  5
102
330
1
100
AcDbSymbolTableRecord
100
AcDbBlockTableRecord
  2
CDWK_PTTYP31
340
0
 70
     0
280
     1
281
     1
  0
BLOCK_RECORD
  5
10A
330
1
100
AcDbSymbolTableRecord
100
AcDbBlockTableRecord
  2
CDWK_PTTYP32
340
0
 70
     0
280
     1
281
     1
  0
BLOCK_RECORD
  5
113
330
1
100
AcDbSymbolTableRecord
100
AcDbBlockTableRecord
  2
CDWK_PTTYP33
340
0
 70
     0
280
     1
281
     1
  0
BLOCK_RECORD
  5
119
330
1
100
AcDbSymbolTableRecord
100
AcDbBlockTableRecord
  2
CDWK_PTTYP34
340
0
 70
     0
280
     1
281
     1
  0
BLOCK_RECORD
  5
11F
330
1
100
AcDbSymbolTableRecord
100
AcDbBlockTableRecord
  2
CDWK_PTTYP35
340
0
 70
     0
280
     1
281
     1
  0
BLOCK_RECORD
  5
125
330
1
100
AcDbSymbolTableRecord
100
AcDbBlockTableRecord
  2
CDWK_PTTYP36
340
0
 70
     0
280
     1
281
     1
  0
BLOCK_RECORD
  5
12D
330
1
100
AcDbSymbolTableRecord
100
AcDbBlockTableRecord
  2
CDWK_PTTYP37
340
0
 70
     0
280
     1
281
     1
  0
BLOCK_RECORD
  5
132
330
1
100
AcDbSymbolTableRecord
100
AcDbBlockTableRecord
  2
CDWK_PTTYP38
340
0
 70
     0
280
     1
281
     1
  0
BLOCK_RECORD
  5
138
330
1
100
AcDbSymbolTableRecord
100
AcDbBlockTableRecord
  2
CDWK_PTTYP41
340
0
 70
     0
280
     1
281
     1
  0
BLOCK_RECORD
  5
142
330
1
100
AcDbSymbolTableRecord
100
AcDbBlockTableRecord
  2
CDWK_PTTYP42
340
0
 70
     0
280
     1
281
     1
  0
BLOCK_RECORD
  5
14B
330
1
100
AcDbSymbolTableRecord
100
AcDbBlockTableRecord
  2
CDWK_PTTYP43
340
0
 70
     0
280
     1
281
     1
  0
BLOCK_RECORD
  5
151
330
1
100
AcDbSymbolTableRecord
100
AcDbBlockTableRecord
  2
CDWK_PTTYP44
340
0
 70
     0
280
     1
281
     1
  0
BLOCK_RECORD
  5
15A
330
1
100
AcDbSymbolTableRecord
100
AcDbBlockTableRecord
  2
CDWK_PTTYP45
340
0
 70
     0
280
     1
281
     1
  0
BLOCK_RECORD
  5
15F
330
1
100
AcDbSymbolTableRecord
100
AcDbBlockTableRecord
  2
CDWK_PTTYP46
340
0
 70
     0
280
     1
281
     1
  0
BLOCK_RECORD
  5
164
330
1
100
AcDbSymbolTableRecord
100
AcDbBlockTableRecord
  2
CDWK_PTTYP47
340
0
 70
     0
280
     1
281
     1
  0
BLOCK_RECORD
  5
16D
330
1
100
AcDbSymbolTableRecord
100
AcDbBlockTableRecord
  2
CDWK_PTTYP48
340
0
 70
     0
280
     1
281
     1
  0
BLOCK_RECORD
  5
172
330
1
100
AcDbSymbolTableRecord
100
AcDbBlockTableRecord
  2
CDWK_PTTYP49
340
0
 70
     0
280
     1
281
     1
  0
BLOCK_RECORD
  5
179
330
1
100
AcDbSymbolTableRecord
100
AcDbBlockTableRecord
  2
CDWK_PTTYP50
340
0
 70
     0
280
     1
281
     1
  0
BLOCK_RECORD
  5
183
330
1
100
AcDbSymbolTableRecord
100
AcDbBlockTableRecord
  2
CDWK_PTTYP51
340
0
 70
     0
280
     1
281
     1
  0
BLOCK_RECORD
  5
188
330
1
100
AcDbSymbolTableRecord
100
AcDbBlockTableRecord
  2
CDWK_PTTYP52
340
0
 70
     0
280
     1
281
     1
  0
BLOCK_RECORD
  5
18E
330
1
100
AcDbSymbolTableRecord
100
AcDbBlockTableRecord
  2
cw-dimension-symbol1
340
0
 70
     0
280
     1
281
     0
  0
BLOCK_RECORD
  5
195
330
1
100
AcDbSymbolTableRecord
100
AcDbBlockTableRecord
  2
cw-dimension-symbol2
340
0
 70
     0
280
     1
281
     0
  0
BLOCK_RECORD
  5
19A
330
1
100
AcDbSymbolTableRecord
100
AcDbBlockTableRecord
  2
cw-dimension-symbol3
340
0
 70
     0
280
     1
281
     0
  0
BLOCK_RECORD
  5
19F
330
1
100
AcDbSymbolTableRecord
100
AcDbBlockTableRecord
  2
cw-dimension-symbol5
340
0
 70
     0
280
     1
281
     0
  0
BLOCK_RECORD
  5
1A6
330
1
100
AcDbSymbolTableRecord
100
AcDbBlockTableRecord
  2
cw-dimension-symbol6
340
0
 70
     0
280
     1
281
     0
  0
BLOCK_RECORD
  5
1AC
330
1
100
AcDbSymbolTableRecord
100
AcDbBlockTableRecord
  2
cw-dimension-symbol11
340
0
 70
     0
280
     1
281
     0
  0
BLOCK_RECORD
  5
1B2
330
1
100
AcDbSymbolTableRecord
100
AcDbBlockTableRecord
  2
cw-dimension-symbol13
340
0
 70
     0
280
     1
281
     0
  0
BLOCK_RECORD
  5
1B8
330
1
100
AcDbSymbolTableRecord
100
AcDbBlockTableRecord
  2
cw-dimension-symbol15
340
0
 70
     0
280
     1
281
     0
  0
BLOCK_RECORD
  5
1BF
330
1
100
AcDbSymbolTableRecord
100
AcDbBlockTableRecord
  2
cw-dimension-symbol16
340
0
 70
     0
280
     1
281
     0
  0
BLOCK_RECORD
  5
1C6
330
1
100
AcDbSymbolTableRecord
100
AcDbBlockTableRecord
  2
cw-dimension-symbol17
340
0
 70
     0
280
     1
281
     0
  0
BLOCK_RECORD
  5
1CD
330
1
100
AcDbSymbolTableRecord
100
AcDbBlockTableRecord
  2
cw-dimension-symbol18
340
0
 70
     0
280
     1
281
     0
  0
BLOCK_RECORD
  5
1D4
330
1
100
AcDbSymbolTableRecord
100
AcDbBlockTableRecord
  2
cw-dimension-symbol19
340
0
 70
     0
280
     1
281
     0
  0
BLOCK_RECORD
  5
1D7
330
1
100
AcDbSymbolTableRecord
100
AcDbBlockTableRecord
  2
cw-dimension-symbol20
340
0
 70
     0
280
     1
281
     0
  0
BLOCK_RECORD
  5
1DE
330
1
100
AcDbSymbolTableRecord
100
AcDbBlockTableRecord
  2
cw-dimension-symbol21
340
0
 70
     0
280
     1
281
     0
  0
BLOCK_RECORD
  5
1E5
330
1
100
AcDbSymbolTableRecord
100
AcDbBlockTableRecord
  2
cw-line-extremity0
340
0
 70
     0
280
     1
281
     0
  0
BLOCK_RECORD
  5
1E9
330
1
100
AcDbSymbolTableRecord
100
AcDbBlockTableRecord
  2
cw-line-extremity2
340
0
 70
     0
280
     1
281
     0
  0
BLOCK_RECORD
  5
1EE
330
1
100
AcDbSymbolTableRecord
100
AcDbBlockTableRecord
  2
cw-line-extremity3
340
0
 70
     0
280
     1
281
     0
  0
BLOCK_RECORD
  5
1F3
330
1
100
AcDbSymbolTableRecord
100
AcDbBlockTableRecord
  2
cw-line-extremity301
340
0
 70
     0
280
     1
281
     0
  0
BLOCK_RECORD
  5
1F5
330
1
100
AcDbSymbolTableRecord
100
AcDbBlockTableRecord
  2
cw-line-extremity4
340
0
 70
     0
280
     1
281
     0
  0
BLOCK_RECORD
  5
1F7
330
1
100
AcDbSymbolTableRecord
100
AcDbBlockTableRecord
  2
cw-line-extremity5
340
0
 70
     0
280
     1
281
     0
  0
BLOCK_RECORD
  5
1F9
330
1
100
AcDbSymbolTableRecord
100
AcDbBlockTableRecord
  2
cw-line-extremity6
340
0
 70
     0
280
     1
281
     0
  0
BLOCK_RECORD
  5
1FB
330
1
100
AcDbSymbolTableRecord
100
AcDbBlockTableRecord
  2
cw-line-extremity9
340
0
 70
     0
280
     1
281
     0
  0
BLOCK_RECORD
  5
1FD
330
1
100
AcDbSymbolTableRecord
100
AcDbBlockTableRecord
  2
cw-line-extremity10
340
0
 70
     0
280
     1
281
     0
  0
BLOCK_RECORD
  5
1FF
330
1
100
AcDbSymbolTableRecord
100
AcDbBlockTableRecord
  2
cw-line-extremity1
340
0
 70
     0
280
     1
281
     0
  0
BLOCK_RECORD
  5
1B
330
1
100
AcDbSymbolTableRecord
100
AcDbBlockTableRecord
  2
*Paper_Space69
340
1E
 70
     0
280
     1
281
     0
  0
BLOCK_RECORD
  5
505
330
1
100
AcDbSymbolTableRecord
100
AcDbBlockTableRecord
  2
DIM83
340
0
102
{BLKREFS
331
516
102
}
 70
     0
280
     1
281
     1
  0
BLOCK_RECORD
  5
519
330
1
100
AcDbSymbolTableRecord
100
AcDbBlockTableRecord
  2
DIM84
340
0
102
{BLKREFS
331
52A
102
}
 70
     0
280
     1
281
     1
  0
ENDTAB
  0
ENDSEC
  0
SECTION
  2
BLOCKS
  0
BLOCK
  5
20
330
1F
100
AcDbEntity
  8
0
100
AcDbBlockBegin
  2
*Model_Space
 70
     0
 10
0.0
 20
0.0
 30
0.0
  3
*Model_Space
  1

  0
ENDBLK
  5
21
330
1F
100
AcDbEntity
  8
0
100
AcDbBlockEnd
  0
BLOCK
  5
219
330
217
100
AcDbEntity
 67
     1
  8
0
100
AcDbBlockBegin
  2
*Paper_Space
 70
     0
 10
0.0
 20
0.0
 30
0.0
  3
*Paper_Space
  1

  0
ENDBLK
  5
21A
330
217
100
AcDbEntity
 67
     1
  8
0
100
AcDbBlockEnd
  0
BLOCK
  5
75
330
70
100
AcDbEntity
  8
0
100
AcDbBlockBegin
  2
CDWK_PTTYP1
 70
     0
 10
0.0
 20
0.0
 30
0.0
  3
CDWK_PTTYP1
  1

  0
LINE
  5
71
330
70
100
AcDbEntity
  8
0
  6
Continuous
 62
     0
370
    -2
390
5F
100
AcDbLine
 10
-0.5
 20
0.5
 30
0.0
 11
0.5
 21
0.5
 31
0.0
  0
LINE
  5
72
330
70
100
AcDbEntity
  8
0
  6
Continuous
 62
     0
370
    -2
390
5F
100
AcDbLine
 10
0.5
 20
0.5
 30
0.0
 11
0.5
 21
-0.5
 31
0.0
  0
LINE
  5
73
330
70
100
AcDbEntity
  8
0
  6
Continuous
 62
     0
370
    -2
390
5F
100
AcDbLine
 10
0.5
 20
-0.5
 30
0.0
 11
-0.5
 21
-0.5
 31
0.0
  0
LINE
  5
74
330
70
100
AcDbEntity
  8
0
  6
Continuous
 62
     0
370
    -2
390
5F
100
AcDbLine
 10
-0.5
 20
-0.5
 30
0.0
 11
-0.5
 21
0.5
 31
0.0
  0
ENDBLK
  5
76
330
70
100
AcDbEntity
  8
0
100
AcDbBlockEnd
  0
BLOCK
  5
7A
330
77
100
AcDbEntity
  8
0
100
AcDbBlockBegin
  2
CDWK_PTTYP2
 70
     0
 10
0.0
 20
0.0
 30
0.0
  3
CDWK_PTTYP2
  1

  0
LINE
  5
78
330
77
100
AcDbEntity
  8
0
  6
Continuous
 62
     0
370
    -2
390
5F
100
AcDbLine
 10
0.0
 20
0.5
 30
0.0
 11
0.0
 21
-0.5
 31
0.0
  0
LINE
  5
79
330
77
100
AcDbEntity
  8
0
  6
Continuous
 62
     0
370
    -2
390
5F
100
AcDbLine
 10
0.5
 20
0.0
 30
0.0
 11
-0.5
 21
0.0
 31
0.0
  0
ENDBLK
  5
7B
330
77
100
AcDbEntity
  8
0
100
AcDbBlockEnd
  0
BLOCK
  5
7E
330
7C
100
AcDbEntity
  8
0
100
AcDbBlockBegin
  2
CDWK_PTTYP4
 70
     0
 10
0.0
 20
0.0
 30
0.0
  3
CDWK_PTTYP4
  1

  0
HATCH
  5
7D
330
7C
100
AcDbEntity
  8
0
  6
Continuous
 62
     0
370
    -2
390
5F
100
AcDbHatch
 10
0.0
 20
0.0
 30
0.0
210
0.0
220
0.0
230
1.0
  2
SOLID
 70
     1
 71
     0
 91
        1
 92
        1
 93
        1
 72
     2
 10
0.0
 20
0.0
 40
0.5
 50
0.0
 51
360.0
 73
     1
 97
        0
 75
     0
 76
     1
 98
        0
  0
ENDBLK
  5
7F
330
7C
100
AcDbEntity
  8
0
100
AcDbBlockEnd
  0
BLOCK
  5
87
330
80
100
AcDbEntity
  8
0
100
AcDbBlockBegin
  2
CDWK_PTTYP5
 70
     0
 10
0.0
 20
0.0
 30
0.0
  3
CDWK_PTTYP5
  1

  0
LINE
  5
81
330
80
100
AcDbEntity
  8
0
  6
Continuous
 62
     0
370
    -2
390
5F
100
AcDbLine
 10
-0.5
 20
0.5
 30
0.0
 11
0.5
 21
0.5
 31
0.0
  0
LINE
  5
82
330
80
100
AcDbEntity
  8
0
  6
Continuous
 62
     0
370
    -2
390
5F
100
AcDbLine
 10
0.5
 20
0.5
 30
0.0
 11
0.5
 21
-0.5
 31
0.0
  0
LINE
  5
83
330
80
100
AcDbEntity
  8
0
  6
Continuous
 62
     0
370
    -2
390
5F
100
AcDbLine
 10
0.5
 20
-0.5
 30
0.0
 11
-0.5
 21
-0.5
 31
0.0
  0
LINE
  5
84
330
80
100
AcDbEntity
  8
0
  6
Continuous
 62
     0
370
    -2
390
5F
100
AcDbLine
 10
-0.5
 20
-0.5
 30
0.0
 11
-0.5
 21
0.5
 31
0.0
  0
HATCH
  5
85
330
80
100
AcDbEntity
  8
0
  6
Continuous
 62
     0
370
    -2
390
5F
100
AcDbHatch
 10
0.0
 20
0.0
 30
0.0
210
0.0
220
0.0
230
1.0
  2
SOLID
 70
     1
 71
     0
 91
        1
 92
        3
 72
     0
 73
     1
 93
        4
 10
-0.5
 20
0.0
 10
0.0
 20
0.0
 10
0.0
 20
-0.5
 10
-0.5
 20
-0.5
 97
        0
 75
     0
 76
     1
 98
        0
  0
HATCH
  5
86
330
80
100
AcDbEntity
  8
0
  6
Continuous
 62
     0
370
    -2
390
5F
100
AcDbHatch
 10
0.0
 20
0.0
 30
0.0
210
0.0
220
0.0
230
1.0
  2
SOLID
 70
     1
 71
     0
 91
        1
 92
        3
 72
     0
 73
     1
 93
        4
 10
0.0
 20
0.0
 10
0.5
 20
0.0
 10
0.5
 20
0.5
 10
0.0
 20
0.5
 97
        0
 75
     0
 76
     1
 98
        0
  0
ENDBLK
  5
88
330
80
100
AcDbEntity
  8
0
100
AcDbBlockEnd
  0
BLOCK
  5
8F
330
89
100
AcDbEntity
  8
0
100
AcDbBlockBegin
  2
CDWK_PTTYP6
 70
     0
 10
0.0
 20
0.0
 30
0.0
  3
CDWK_PTTYP6
  1

  0
LINE
  5
8A
330
89
100
AcDbEntity
  8
0
  6
Continuous
 62
     0
370
    -2
390
5F
100
AcDbLine
 10
-0.5
 20
0.5
 30
0.0
 11
0.5
 21
0.5
 31
0.0
  0
LINE
  5
8B
330
89
100
AcDbEntity
  8
0
  6
Continuous
 62
     0
370
    -2
390
5F
100
AcDbLine
 10
0.5
 20
0.5
 30
0.0
 11
0.5
 21
-0.5
 31
0.0
  0
LINE
  5
8C
330
89
100
AcDbEntity
  8
0
  6
Continuous
 62
     0
370
    -2
390
5F
100
AcDbLine
 10
0.5
 20
-0.5
 30
0.0
 11
-0.5
 21
-0.5
 31
0.0
  0
LINE
  5
8D
330
89
100
AcDbEntity
  8
0
  6
Continuous
 62
     0
370
    -2
390
5F
100
AcDbLine
 10
-0.5
 20
-0.5
 30
0.0
 11
-0.5
 21
0.5
 31
0.0
  0
HATCH
  5
8E
330
89
100
AcDbEntity
  8
0
  6
Continuous
 62
     0
370
    -2
390
5F
100
AcDbHatch
 10
0.0
 20
0.0
 30
0.0
210
0.0
220
0.0
230
1.0
  2
SOLID
 70
     1
 71
     0
 91
        1
 92
        3
 72
     0
 73
     1
 93
        3
 10
-0.5
 20
-0.5
 10
-0.5
 20
0.5
 10
0.5
 20
0.5
 97
        0
 75
     0
 76
     1
 98
        0
  0
ENDBLK
  5
90
330
89
100
AcDbEntity
  8
0
100
AcDbBlockEnd
  0
BLOCK
  5
98
330
91
100
AcDbEntity
  8
0
100
AcDbBlockBegin
  2
CDWK_PTTYP7
 70
     0
 10
0.0
 20
0.0
 30
0.0
  3
CDWK_PTTYP7
  1

  0
LINE
  5
92
330
91
100
AcDbEntity
  8
0
  6
Continuous
 62
     0
370
    -2
390
5F
100
AcDbLine
 10
-0.5
 20
0.5
 30
0.0
 11
0.5
 21
0.5
 31
0.0
  0
LINE
  5
93
330
91
100
AcDbEntity
  8
0
  6
Continuous
 62
     0
370
    -2
390
5F
100
AcDbLine
 10
0.5
 20
0.5
 30
0.0
 11
0.5
 21
-0.5
 31
0.0
  0
LINE
  5
94
330
91
100
AcDbEntity
  8
0
  6
Continuous
 62
     0
370
    -2
390
5F
100
AcDbLine
 10
0.5
 20
-0.5
 30
0.0
 11
-0.5
 21
-0.5
 31
0.0
  0
LINE
  5
95
330
91
100
AcDbEntity
  8
0
  6
Continuous
 62
     0
370
    -2
390
5F
100
AcDbLine
 10
-0.5
 20
-0.5
 30
0.0
 11
-0.5
 21
0.5
 31
0.0
  0
LINE
  5
96
330
91
100
AcDbEntity
  8
0
  6
Continuous
 62
     0
370
    -2
390
5F
100
AcDbLine
 10
0.0
 20
0.5
 30
0.0
 11
0.0
 21
-0.5
 31
0.0
  0
LINE
  5
97
330
91
100
AcDbEntity
  8
0
  6
Continuous
 62
     0
370
    -2
390
5F
100
AcDbLine
 10
0.5
 20
0.0
 30
0.0
 11
-0.5
 21
0.0
 31
0.0
  0
ENDBLK
  5
99
330
91
100
AcDbEntity
  8
0
100
AcDbBlockEnd
  0
BLOCK
  5
9C
330
9A
100
AcDbEntity
  8
0
100
AcDbBlockBegin
  2
CDWK_PTTYP8
 70
     0
 10
0.0
 20
0.0
 30
0.0
  3
CDWK_PTTYP8
  1

  0
HATCH
  5
9B
330
9A
100
AcDbEntity
  8
0
  6
Continuous
 62
     0
370
    -2
390
5F
100
AcDbHatch
 10
0.0
 20
0.0
 30
0.0
210
0.0
220
0.0
230
1.0
  2
SOLID
 70
     1
 71
     0
 91
        1
 92
        3
 72
     0
 73
     1
 93
        4
 10
0.5
 20
0.5
 10
0.5
 20
-0.5
 10
-0.5
 20
-0.5
 10
-0.5
 20
0.5
 97
        0
 75
     0
 76
     1
 98
        0
  0
ENDBLK
  5
9D
330
9A
100
AcDbEntity
  8
0
100
AcDbBlockEnd
  0
BLOCK
  5
A1
330
9E
100
AcDbEntity
  8
0
100
AcDbBlockBegin
  2
CDWK_PTTYP9
 70
     0
 10
0.0
 20
0.0
 30
0.0
  3
CDWK_PTTYP9
  1

  0
CIRCLE
  5
9F
330
9E
100
AcDbEntity
  8
0
  6
Continuous
 62
     0
370
    -2
390
5F
100
AcDbCircle
 10
0.0
 20
0.0
 30
0.0
 40
0.1666666666666667
  0
CIRCLE
  5
A0
330
9E
100
AcDbEntity
  8
0
  6
Continuous
 62
     0
370
    -2
390
5F
100
AcDbCircle
 10
0.0
 20
0.0
 30
0.0
 40
0.5
  0
ENDBLK
  5
A2
330
9E
100
AcDbEntity
  8
0
100
AcDbBlockEnd
  0
BLOCK
  5
A5
330
A3
100
AcDbEntity
  8
0
100
AcDbBlockBegin
  2
CDWK_PTTYP10
 70
     0
 10
0.0
 20
0.0
 30
0.0
  3
CDWK_PTTYP10
  1

  0
CIRCLE
  5
A4
330
A3
100
AcDbEntity
  8
0
  6
Continuous
 62
     0
370
    -2
390
5F
100
AcDbCircle
 10
0.0
 20
0.0
 30
0.0
 40
0.5
  0
ENDBLK
  5
A6
330
A3
100
AcDbEntity
  8
0
100
AcDbBlockEnd
  0
BLOCK
  5
AA
330
A7
100
AcDbEntity
  8
0
100
AcDbBlockBegin
  2
CDWK_PTTYP11
 70
     0
 10
0.0
 20
0.0
 30
0.0
  3
CDWK_PTTYP11
  1

  0
CIRCLE
  5
A8
330
A7
100
AcDbEntity
  8
0
  6
Continuous
 62
     0
370
    -2
390
5F
100
AcDbCircle
 10
0.0
 20
0.0
 30
0.0
 40
0.25
  0
CIRCLE
  5
A9
330
A7
100
AcDbEntity
  8
0
  6
Continuous
 62
     0
370
    -2
390
5F
100
AcDbCircle
 10
0.0
 20
0.0
 30
0.0
 40
0.5
  0
ENDBLK
  5
AB
330
A7
100
AcDbEntity
  8
0
100
AcDbBlockEnd
  0
BLOCK
  5
AF
330
AC
100
AcDbEntity
  8
0
100
AcDbBlockBegin
  2
CDWK_PTTYP12
 70
     0
 10
0.0
 20
0.0
 30
0.0
  3
CDWK_PTTYP12
  1

  0
CIRCLE
  5
AD
330
AC
100
AcDbEntity
  8
0
  6
Continuous
 62
     0
370
    -2
390
5F
100
AcDbCircle
 10
0.25
 20
0.0
 30
0.0
 40
0.25
  0
CIRCLE
  5
AE
330
AC
100
AcDbEntity
  8
0
  6
Continuous
 62
     0
370
    -2
390
5F
100
AcDbCircle
 10
0.0
 20
0.0
 30
0.0
 40
0.5
  0
ENDBLK
  5
B0
330
AC
100
AcDbEntity
  8
0
100
AcDbBlockEnd
  0
BLOCK
  5
B5
330
B1
100
AcDbEntity
  8
0
100
AcDbBlockBegin
  2
CDWK_PTTYP13
 70
     0
 10
0.0
 20
0.0
 30
0.0
  3
CDWK_PTTYP13
  1

  0
CIRCLE
  5
B2
330
B1
100
AcDbEntity
  8
0
  6
Continuous
 62
     0
370
    -2
390
5F
100
AcDbCircle
 10
-0.25
 20
0.0
 30
0.0
 40
0.25
  0
CIRCLE
  5
B3
330
B1
100
AcDbEntity
  8
0
  6
Continuous
 62
     0
370
    -2
390
5F
100
AcDbCircle
 10
0.25
 20
0.0
 30
0.0
 40
0.25
  0
CIRCLE
  5
B4
330
B1
100
AcDbEntity
  8
0
  6
Continuous
 62
     0
370
    -2
390
5F
100
AcDbCircle
 10
0.0
 20
0.0
 30
0.0
 40
0.5
  0
ENDBLK
  5
B6
330
B1
100
AcDbEntity
  8
0
100
AcDbBlockEnd
  0
BLOCK
  5
BC
330
B7
100
AcDbEntity
  8
0
100
AcDbBlockBegin
  2
CDWK_PTTYP16
 70
     0
 10
0.0
 20
0.0
 30
0.0
  3
CDWK_PTTYP16
  1

  0
LINE
  5
B8
330
B7
100
AcDbEntity
  8
0
  6
Continuous
 62
     0
370
    -2
390
5F
100
AcDbLine
 10
-0.5
 20
-0.289
 30
0.0
 11
0.5
 21
-0.289
 31
0.0
  0
LINE
  5
B9
330
B7
100
AcDbEntity
  8
0
  6
Continuous
 62
     0
370
    -2
390
5F
100
AcDbLine
 10
0.5
 20
-0.289
 30
0.0
 11
0.0
 21
0.577
 31
0.0
  0
LINE
  5
BA
330
B7
100
AcDbEntity
  8
0
  6
Continuous
 62
     0
370
    -2
390
5F
100
AcDbLine
 10
0.0
 20
0.577
 30
0.0
 11
-0.5
 21
-0.289
 31
0.0
  0
CIRCLE
  5
BB
330
B7
100
AcDbEntity
  8
0
  6
Continuous
 62
     0
370
    -2
390
5F
100
AcDbCircle
 10
0.0
 20
0.0
 30
0.0
 40
0.289
  0
ENDBLK
  5
BD
330
B7
100
AcDbEntity
  8
0
100
AcDbBlockEnd
  0
BLOCK
  5
C1
330
BE
100
AcDbEntity
  8
0
100
AcDbBlockBegin
  2
CDWK_PTTYP17
 70
     0
 10
0.0
 20
0.0
 30
0.0
  3
CDWK_PTTYP17
  1

  0
CIRCLE
  5
BF
330
BE
100
AcDbEntity
  8
0
  6
Continuous
 62
     0
370
    -2
390
5F
100
AcDbCircle
 10
0.0
 20
0.0
 30
0.0
 40
0.5
  0
HATCH
  5
C0
330
BE
100
AcDbEntity
  8
0
  6
Continuous
 62
     0
370
    -2
390
5F
100
AcDbHatch
 10
0.0
 20
0.0
 30
0.0
210
0.0
220
0.0
230
1.0
  2
SOLID
 70
     1
 71
     0
 91
        1
 92
        1
 93
        1
 72
     2
 10
0.0
 20
0.0
 40
0.25
 50
0.0
 51
360.0
 73
     1
 97
        0
 75
     0
 76
     1
 98
        0
  0
ENDBLK
  5
C2
330
BE
100
AcDbEntity
  8
0
100
AcDbBlockEnd
  0
BLOCK
  5
C6
330
C3
100
AcDbEntity
  8
0
100
AcDbBlockBegin
  2
CDWK_PTTYP18
 70
     0
 10
0.0
 20
0.0
 30
0.0
  3
CDWK_PTTYP18
  1

  0
CIRCLE
  5
C4
330
C3
100
AcDbEntity
  8
0
  6
Continuous
 62
     0
370
    -2
390
5F
100
AcDbCircle
 10
0.0
 20
0.0
 30
0.0
 40
0.5
  0
CIRCLE
  5
C5
330
C3
100
AcDbEntity
  8
0
  6
Continuous
 62
     0
370
    -2
390
5F
100
AcDbCircle
 10
0.0
 20
0.0
 30
0.0
 40
0.208
  0
ENDBLK
  5
C7
330
C3
100
AcDbEntity
  8
0
100
AcDbBlockEnd
  0
BLOCK
  5
CC
330
C8
100
AcDbEntity
  8
0
100
AcDbBlockBegin
  2
CDWK_PTTYP19
 70
     0
 10
0.0
 20
0.0
 30
0.0
  3
CDWK_PTTYP19
  1

  0
CIRCLE
  5
C9
330
C8
100
AcDbEntity
  8
0
  6
Continuous
 62
     0
370
    -2
390
5F
100
AcDbCircle
 10
0.0
 20
0.0
 30
0.0
 40
0.25
  0
CIRCLE
  5
CA
330
C8
100
AcDbEntity
  8
0
  6
Continuous
 62
     0
370
    -2
390
5F
100
AcDbCircle
 10
0.0
 20
0.0
 30
0.0
 40
0.35
  0
LINE
  5
CB
330
C8
100
AcDbEntity
  8
0
  6
Continuous
 62
     0
370
    -2
390
5F
100
AcDbLine
 10
-0.25
 20
0.0
 30
0.0
 11
0.25
 21
0.0
 31
0.0
  0
ENDBLK
  5
CD
330
C8
100
AcDbEntity
  8
0
100
AcDbBlockEnd
  0
BLOCK
  5
D1
330
CE
100
AcDbEntity
  8
0
100
AcDbBlockBegin
  2
CDWK_PTTYP20
 70
     0
 10
0.0
 20
0.0
 30
0.0
  3
CDWK_PTTYP20
  1

  0
CIRCLE
  5
CF
330
CE
100
AcDbEntity
  8
0
  6
Continuous
 62
     0
370
    -2
390
5F
100
AcDbCircle
 10
0.0
 20
0.0
 30
0.0
 40
0.3333333333333333
  0
CIRCLE
  5
D0
330
CE
100
AcDbEntity
  8
0
  6
Continuous
 62
     0
370
    -2
390
5F
100
AcDbCircle
 10
0.0
 20
0.0
 30
0.0
 40
0.5
  0
ENDBLK
  5
D2
330
CE
100
AcDbEntity
  8
0
100
AcDbBlockEnd
  0
BLOCK
  5
D6
330
D3
100
AcDbEntity
  8
0
100
AcDbBlockBegin
  2
CDWK_PTTYP21
 70
     0
 10
0.0
 20
0.0
 30
0.0
  3
CDWK_PTTYP21
  1

  0
CIRCLE
  5
D4
330
D3
100
AcDbEntity
  8
0
  6
Continuous
 62
     0
370
    -2
390
5F
100
AcDbCircle
 10
0.0
 20
0.0
 30
0.0
 40
0.5
  0
LINE
  5
D5
330
D3
100
AcDbEntity
  8
0
  6
Continuous
 62
     0
370
    -2
390
5F
100
AcDbLine
 10
-0.5
 20
0.0
 30
0.0
 11
0.5
 21
0.0
 31
0.0
  0
ENDBLK
  5
D7
330
D3
100
AcDbEntity
  8
0
100
AcDbBlockEnd
  0
BLOCK
  5
DD
330
D8
100
AcDbEntity
  8
0
100
AcDbBlockBegin
  2
CDWK_PTTYP25
 70
     0
 10
0.0
 20
0.0
 30
0.0
  3
CDWK_PTTYP25
  1

  0
LINE
  5
D9
330
D8
100
AcDbEntity
  8
0
  6
Continuous
 62
     0
370
    -2
390
5F
100
AcDbLine
 10
0.0
 20
0.5
 30
0.0
 11
-0.4330127018922193
 21
-0.25
 31
0.0
  0
LINE
  5
DA
330
D8
100
AcDbEntity
  8
0
  6
Continuous
 62
     0
370
    -2
390
5F
100
AcDbLine
 10
-0.4330127018922193
 20
-0.25
 30
0.0
 11
0.4330127018922193
 21
-0.25
 31
0.0
  0
LINE
  5
DB
330
D8
100
AcDbEntity
  8
0
  6
Continuous
 62
     0
370
    -2
390
5F
100
AcDbLine
 10
0.4330127018922193
 20
-0.25
 30
0.0
 11
0.0
 21
0.5
 31
0.0
  0
CIRCLE
  5
DC
330
D8
100
AcDbEntity
  8
0
  6
Continuous
 62
     0
370
    -2
390
5F
100
AcDbCircle
 10
0.0
 20
0.0
 30
0.0
 40
0.5
  0
ENDBLK
  5
DE
330
D8
100
AcDbEntity
  8
0
100
AcDbBlockEnd
  0
BLOCK
  5
E4
330
DF
100
AcDbEntity
  8
0
100
AcDbBlockBegin
  2
CDWK_PTTYP26
 70
     0
 10
0.0
 20
0.0
 30
0.0
  3
CDWK_PTTYP26
  1

  0
LINE
  5
E0
330
DF
100
AcDbEntity
  8
0
  6
Continuous
 62
     0
370
    -2
390
5F
100
AcDbLine
 10
-0.5
 20
-0.289
 30
0.0
 11
0.5
 21
-0.289
 31
0.0
  0
LINE
  5
E1
330
DF
100
AcDbEntity
  8
0
  6
Continuous
 62
     0
370
    -2
390
5F
100
AcDbLine
 10
0.5
 20
-0.289
 30
0.0
 11
0.0
 21
0.577
 31
0.0
  0
LINE
  5
E2
330
DF
100
AcDbEntity
  8
0
  6
Continuous
 62
     0
370
    -2
390
5F
100
AcDbLine
 10
0.0
 20
0.577
 30
0.0
 11
-0.5
 21
-0.289
 31
0.0
  0
CIRCLE
  5
E3
330
DF
100
AcDbEntity
  8
0
  6
Continuous
 62
     0
370
    -2
390
5F
100
AcDbCircle
 10
0.0
 20
0.0
 30
0.0
 40
0.125
  0
ENDBLK
  5
E5
330
DF
100
AcDbEntity
  8
0
100
AcDbBlockEnd
  0
BLOCK
  5
EC
330
E6
100
AcDbEntity
  8
0
100
AcDbBlockBegin
  2
CDWK_PTTYP27
 70
     0
 10
0.0
 20
0.0
 30
0.0
  3
CDWK_PTTYP27
  1

  0
LINE
  5
E7
330
E6
100
AcDbEntity
  8
0
  6
Continuous
 62
     0
370
    -2
390
5F
100
AcDbLine
 10
0.0
 20
0.5
 30
0.0
 11
-0.4330127018922193
 21
-0.25
 31
0.0
  0
LINE
  5
E8
330
E6
100
AcDbEntity
  8
0
  6
Continuous
 62
     0
370
    -2
390
5F
100
AcDbLine
 10
-0.4330127018922193
 20
-0.25
 30
0.0
 11
0.4330127018922193
 21
-0.25
 31
0.0
  0
LINE
  5
E9
330
E6
100
AcDbEntity
  8
0
  6
Continuous
 62
     0
370
    -2
390
5F
100
AcDbLine
 10
0.4330127018922193
 20
-0.25
 30
0.0
 11
0.0
 21
0.5
 31
0.0
  0
CIRCLE
  5
EA
330
E6
100
AcDbEntity
  8
0
  6
Continuous
 62
     0
370
    -2
390
5F
100
AcDbCircle
 10
0.0
 20
0.0
 30
0.0
 40
0.125
  0
CIRCLE
  5
EB
330
E6
100
AcDbEntity
  8
0
  6
Continuous
 62
     0
370
    -2
390
5F
100
AcDbCircle
 10
0.0
 20
0.0
 30
0.0
 40
0.5
  0
ENDBLK
  5
ED
330
E6
100
AcDbEntity
  8
0
100
AcDbBlockEnd
  0
BLOCK
  5
F3
330
EE
100
AcDbEntity
  8
0
100
AcDbBlockBegin
  2
CDWK_PTTYP28
 70
     0
 10
0.0
 20
0.0
 30
0.0
  3
CDWK_PTTYP28
  1

  0
LINE
  5
EF
330
EE
100
AcDbEntity
  8
0
  6
Continuous
 62
     0
370
    -2
390
5F
100
AcDbLine
 10
-0.5
 20
0.5
 30
0.0
 11
0.5
 21
0.5
 31
0.0
  0
LINE
  5
F0
330
EE
100
AcDbEntity
  8
0
  6
Continuous
 62
     0
370
    -2
390
5F
100
AcDbLine
 10
0.5
 20
0.5
 30
0.0
 11
-0.5
 21
-0.5
 31
0.0
  0
LINE
  5
F1
330
EE
100
AcDbEntity
  8
0
  6
Continuous
 62
     0
370
    -2
390
5F
100
AcDbLine
 10
0.5
 20
-0.5
 30
0.0
 11
-0.5
 21
-0.5
 31
0.0
  0
LINE
  5
F2
330
EE
100
AcDbEntity
  8
0
  6
Continuous
 62
     0
370
    -2
390
5F
100
AcDbLine
 10
-0.5
 20
0.5
 30
0.0
 11
0.5
 21
-0.5
 31
0.0
  0
ENDBLK
  5
F4
330
EE
100
AcDbEntity
  8
0
100
AcDbBlockEnd
  0
BLOCK
  5
F9
330
F5
100
AcDbEntity
  8
0
100
AcDbBlockBegin
  2
CDWK_PTTYP29
 70
     0
 10
0.0
 20
0.0
 30
0.0
  3
CDWK_PTTYP29
  1

  0
CIRCLE
  5
F6
330
F5
100
AcDbEntity
  8
0
  6
Continuous
 62
     0
370
    -2
390
5F
100
AcDbCircle
 10
0.0
 20
0.0
 30
0.0
 40
0.2
  0
CIRCLE
  5
F7
330
F5
100
AcDbEntity
  8
0
  6
Continuous
 62
     0
370
    -2
390
5F
100
AcDbCircle
 10
0.0
 20
0.0
 30
0.0
 40
0.35
  0
CIRCLE
  5
F8
330
F5
100
AcDbEntity
  8
0
  6
Continuous
 62
     0
370
    -2
390
5F
100
AcDbCircle
 10
0.0
 20
0.0
 30
0.0
 40
0.5
  0
ENDBLK
  5
FA
330
F5
100
AcDbEntity
  8
0
100
AcDbBlockEnd
  0
BLOCK
  5
100
330
FB
100
AcDbEntity
  8
0
100
AcDbBlockBegin
  2
CDWK_PTTYP30
 70
     0
 10
0.0
 20
0.0
 30
0.0
  3
CDWK_PTTYP30
  1

  0
LINE
  5
FC
330
FB
100
AcDbEntity
  8
0
  6
Continuous
 62
     0
370
    -2
390
5F
100
AcDbLine
 10
-0.5
 20
0.5
 30
0.0
 11
-0.1
 21
0.1
 31
0.0
  0
LINE
  5
FD
330
FB
100
AcDbEntity
  8
0
  6
Continuous
 62
     0
370
    -2
390
5F
100
AcDbLine
 10
0.5
 20
0.5
 30
0.0
 11
0.1
 21
0.1
 31
0.0
  0
LINE
  5
FE
330
FB
100
AcDbEntity
  8
0
  6
Continuous
 62
     0
370
    -2
390
5F
100
AcDbLine
 10
0.5
 20
-0.5
 30
0.0
 11
0.1
 21
-0.1
 31
0.0
  0
LINE
  5
FF
330
FB
100
AcDbEntity
  8
0
  6
Continuous
 62
     0
370
    -2
390
5F
100
AcDbLine
 10
-0.5
 20
-0.5
 30
0.0
 11
-0.1
 21
-0.1
 31
0.0
  0
ENDBLK
  5
101
330
FB
100
AcDbEntity
  8
0
100
AcDbBlockEnd
  0
BLOCK
  5
108
330
102
100
AcDbEntity
  8
0
100
AcDbBlockBegin
  2
CDWK_PTTYP31
 70
     0
 10
0.0
 20
0.0
 30
0.0
  3
CDWK_PTTYP31
  1

  0
LINE
  5
103
330
102
100
AcDbEntity
  8
0
  6
Continuous
 62
     0
370
    -2
390
5F
100
AcDbLine
 10
-0.5
 20
0.0
 30
0.0
 11
-0.1
 21
0.0
 31
0.0
  0
LINE
  5
104
330
102
100
AcDbEntity
  8
0
  6
Continuous
 62
     0
370
    -2
390
5F
100
AcDbLine
 10
0.1
 20
0.0
 30
0.0
 11
0.5
 21
0.0
 31
0.0
  0
LINE
  5
105
330
102
100
AcDbEntity
  8
0
  6
Continuous
 62
     0
370
    -2
390
5F
100
AcDbLine
 10
0.0
 20
0.5
 30
0.0
 11
0.0
 21
0.1
 31
0.0
  0
LINE
  5
106
330
102
100
AcDbEntity
  8
0
  6
Continuous
 62
     0
370
    -2
390
5F
100
AcDbLine
 10
0.0
 20
-0.1
 30
0.0
 11
0.0
 21
-0.5
 31
0.0
  0
CIRCLE
  5
107
330
102
100
AcDbEntity
  8
0
  6
Continuous
 62
     0
370
    -2
390
5F
100
AcDbCircle
 10
0.0
 20
0.0
 30
0.0
 40
0.1
  0
ENDBLK
  5
109
330
102
100
AcDbEntity
  8
0
100
AcDbBlockEnd
  0
BLOCK
  5
111
330
10A
100
AcDbEntity
  8
0
100
AcDbBlockBegin
  2
CDWK_PTTYP32
 70
     0
 10
0.0
 20
0.0
 30
0.0
  3
CDWK_PTTYP32
  1

  0
CIRCLE
  5
10B
330
10A
100
AcDbEntity
  8
0
  6
Continuous
 62
     0
370
    -2
390
5F
100
AcDbCircle
 10
0.0
 20
0.0
 30
0.0
 40
0.2
  0
CIRCLE
  5
10C
330
10A
100
AcDbEntity
  8
0
  6
Continuous
 62
     0
370
    -2
390
5F
100
AcDbCircle
 10
0.0
 20
0.0
 30
0.0
 40
0.5
  0
LINE
  5
10D
330
10A
100
AcDbEntity
  8
0
  6
Continuous
 62
     0
370
    -2
390
5F
100
AcDbLine
 10
0.1414213562373095
 20
0.1414213562373095
 30
0.0
 11
0.3535533905932738
 21
0.3535533905932738
 31
0.0
  0
LINE
  5
10E
330
10A
100
AcDbEntity
  8
0
  6
Continuous
 62
     0
370
    -2
390
5F
100
AcDbLine
 10
-0.1414213562373095
 20
0.1414213562373095
 30
0.0
 11
-0.3535533905932738
 21
0.3535533905932738
 31
0.0
  0
LINE
  5
10F
330
10A
100
AcDbEntity
  8
0
  6
Continuous
 62
     0
370
    -2
390
5F
100
AcDbLine
 10
0.1414213562373095
 20
-0.1414213562373095
 30
0.0
 11
0.3535533905932738
 21
-0.3535533905932738
 31
0.0
  0
LINE
  5
110
330
10A
100
AcDbEntity
  8
0
  6
Continuous
 62
     0
370
    -2
390
5F
100
AcDbLine
 10
-0.1414213562373095
 20
-0.1414213562373095
 30
0.0
 11
-0.3535533905932738
 21
-0.3535533905932738
 31
0.0
  0
ENDBLK
  5
112
330
10A
100
AcDbEntity
  8
0
100
AcDbBlockEnd
  0
BLOCK
  5
117
330
113
100
AcDbEntity
  8
0
100
AcDbBlockBegin
  2
CDWK_PTTYP33
 70
     0
 10
0.0
 20
0.0
 30
0.0
  3
CDWK_PTTYP33
  1

  0
LINE
  5
114
330
113
100
AcDbEntity
  8
0
  6
Continuous
 62
     0
370
    -2
390
5F
100
AcDbLine
 10
0.0
 20
-0.5
 30
0.0
 11
0.0
 21
0.5
 31
0.0
  0
LINE
  5
115
330
113
100
AcDbEntity
  8
0
  6
Continuous
 62
     0
370
    -2
390
5F
100
AcDbLine
 10
0.5
 20
0.0
 30
0.0
 11
-0.5
 21
0.0
 31
0.0
  0
CIRCLE
  5
116
330
113
100
AcDbEntity
  8
0
  6
Continuous
 62
     0
370
    -2
390
5F
100
AcDbCircle
 10
0.0
 20
0.0
 30
0.0
 40
0.5
  0
ENDBLK
  5
118
330
113
100
AcDbEntity
  8
0
100
AcDbBlockEnd
  0
BLOCK
  5
11D
330
119
100
AcDbEntity
  8
0
100
AcDbBlockBegin
  2
CDWK_PTTYP34
 70
     0
 10
0.0
 20
0.0
 30
0.0
  3
CDWK_PTTYP34
  1

  0
CIRCLE
  5
11A
330
119
100
AcDbEntity
  8
0
  6
Continuous
 62
     0
370
    -2
390
5F
100
AcDbCircle
 10
0.0
 20
0.0
 30
0.0
 40
0.5
  0
LINE
  5
11B
330
119
100
AcDbEntity
  8
0
  6
Continuous
 62
     0
370
    -2
390
5F
100
AcDbLine
 10
-0.4
 20
-0.3
 30
0.0
 11
0.3
 21
0.4
 31
0.0
  0
LINE
  5
11C
330
119
100
AcDbEntity
  8
0
  6
Continuous
 62
     0
370
    -2
390
5F
100
AcDbLine
 10
-0.3
 20
-0.4
 30
0.0
 11
0.4
 21
0.3
 31
0.0
  0
ENDBLK
  5
11E
330
119
100
AcDbEntity
  8
0
100
AcDbBlockEnd
  0
BLOCK
  5
123
330
11F
100
AcDbEntity
  8
0
100
AcDbBlockBegin
  2
CDWK_PTTYP35
 70
     0
 10
0.0
 20
0.0
 30
0.0
  3
CDWK_PTTYP35
  1

  0
LINE
  5
120
330
11F
100
AcDbEntity
  8
0
  6
Continuous
 62
     0
370
    -2
390
5F
100
AcDbLine
 10
0.0
 20
0.2
 30
0.0
 11
0.0
 21
0.5
 31
0.0
  0
LINE
  5
121
330
11F
100
AcDbEntity
  8
0
  6
Continuous
 62
     0
370
    -2
390
5F
100
AcDbLine
 10
0.0
 20
-0.2
 30
0.0
 11
0.0
 21
-0.5
 31
0.0
  0
CIRCLE
  5
122
330
11F
100
AcDbEntity
  8
0
  6
Continuous
 62
     0
370
    -2
390
5F
100
AcDbCircle
 10
0.0
 20
0.0
 30
0.0
 40
0.2
  0
ENDBLK
  5
124
330
11F
100
AcDbEntity
  8
0
100
AcDbBlockEnd
  0
BLOCK
  5
12B
330
125
100
AcDbEntity
  8
0
100
AcDbBlockBegin
  2
CDWK_PTTYP36
 70
     0
 10
0.0
 20
0.0
 30
0.0
  3
CDWK_PTTYP36
  1

  0
LINE
  5
126
330
125
100
AcDbEntity
  8
0
  6
Continuous
 62
     0
370
    -2
390
5F
100
AcDbLine
 10
-0.5
 20
0.2
 30
0.0
 11
0.5
 21
0.2
 31
0.0
  0
LINE
  5
127
330
125
100
AcDbEntity
  8
0
  6
Continuous
 62
     0
370
    -2
390
5F
100
AcDbLine
 10
0.5
 20
0.2
 30
0.0
 11
0.5
 21
-0.2
 31
0.0
  0
LINE
  5
128
330
125
100
AcDbEntity
  8
0
  6
Continuous
 62
     0
370
    -2
390
5F
100
AcDbLine
 10
0.5
 20
-0.2
 30
0.0
 11
-0.5
 21
-0.2
 31
0.0
  0
LINE
  5
129
330
125
100
AcDbEntity
  8
0
  6
Continuous
 62
     0
370
    -2
390
5F
100
AcDbLine
 10
-0.5
 20
-0.2
 30
0.0
 11
-0.5
 21
0.2
 31
0.0
  0
HATCH
  5
12A
330
125
100
AcDbEntity
  8
0
  6
Continuous
 62
     0
370
    -2
390
5F
100
AcDbHatch
 10
0.0
 20
0.0
 30
0.0
210
0.0
220
0.0
230
1.0
  2
SOLID
 70
     1
 71
     0
 91
        1
 92
        3
 72
     0
 73
     1
 93
        3
 10
-0.5
 20
-0.2
 10
0.5
 20
-0.2
 10
0.5
 20
0.2
 97
        0
 75
     0
 76
     1
 98
        0
  0
ENDBLK
  5
12C
330
125
100
AcDbEntity
  8
0
100
AcDbBlockEnd
  0
BLOCK
  5
130
330
12D
100
AcDbEntity
  8
0
100
AcDbBlockBegin
  2
CDWK_PTTYP37
 70
     0
 10
0.0
 20
0.0
 30
0.0
  3
CDWK_PTTYP37
  1

  0
HATCH
  5
12E
330
12D
100
AcDbEntity
  8
0
  6
Continuous
 62
     0
370
    -2
390
5F
100
AcDbHatch
 10
0.0
 20
0.0
 30
0.0
210
0.0
220
0.0
230
1.0
  2
SOLID
 70
     1
 71
     0
 91
        1
 92
        3
 72
     0
 73
     1
 93
      202
 10
-0.3535533905932738
 20
-0.3535533905932738
 10
-0.3485533905932738
 20
-0.3535533905932737
 10
-0.3435533905932738
 20
-0.3584836591895546
 10
-0.3385533905932738
 20
-0.3632782236961988
 10
-0.3335533905932738
 20
-0.367942389128785
 10
-0.3285533905932738
 20
-0.372481054046687
 10
-0.3235533905932738
 20
-0.3768987523588579
 10
-0.3185533905932738
 20
-0.3811996897107819
 10
-0.3135533905932738
 20
-0.3853877752881235
 10
-0.3085533905932737
 20
-0.3894666497242888
 10
-0.3035533905932737
 20
-0.3934397096803965
 10
-0.2985533905932737
 20
-0.3973101295704999
 10
-0.2935533905932737
 20
-0.4010808808273714
 10
-0.2885533905932737
 20
-0.4047547490409382
 10
-0.2835533905932737
 20
-0.4083343492496384
 10
-0.2785533905932737
 20
-0.4118221396222626
 10
-0.2735533905932737
 20
-0.4152204337324827
 10
-0.2685533905932737
 20
-0.4185314115988474
 10
-0.2635533905932737
 20
-0.4217571296384408
 10
-0.2585533905932737
 20
-0.4248995296617653
 10
-0.2535533905932737
 20
-0.4279604470190231
 10
-0.2485533905932737
 20
-0.4309416179932669
 10
-0.2435533905932737
 20
-0.4338446865234004
 10
-0.2385533905932737
 20
-0.4366712103293738
 10
-0.2335533905932737
 20
-0.439422666502825
 10
-0.2285533905932737
 20
-0.4421004566186126
 10
-0.2235533905932737
 20
-0.4447059114159811
 10
-0.2185533905932737
 20
-0.4472402950923041
 10
-0.2135533905932737
 20
-0.4497048092473372
 10
-0.2085533905932737
 20
-0.4521005965115692
 10
-0.2035533905932737
 20
-0.4544287438884664
 10
-0.1985533905932736
 20
-0.456690285837111
 10
-0.1935533905932736
 20
-0.45888620711884
 10
-0.1885533905932736
 20
-0.4610174454289638
 10
-0.1835533905932736
 20
-0.4630848938324164
 10
-0.1785533905932736
 20
-0.4650894030202291
 10
-0.1735533905932736
 20
-0.4670317834019928
 10
-0.1685533905932736
 20
-0.46891280704794
 10
-0.1635533905932736
 20
-0.4707332094929264
 10
-0.1585533905932736
 20
-0.4724936914133818
 10
-0.1535533905932736
 20
-0.4741949201872336
 10
-0.1485533905932736
 20
-0.4758375313458466
 10
-0.1435533905932736
 20
-0.4774221299261716
 10
-0.1385533905932736
 20
-0.4789492917305286
 10
-0.1335533905932736
 20
-0.4804195645007682
 10
-0.1285533905932736
 20
-0.4818334690129366
 10
-0.1235533905932736
 20
-0.4831915000980183
 10
-0.1185533905932736
 20
-0.4844941275938295
 10
-0.1135533905932736
 20
-0.4857417972326848
 10
-0.1085533905932736
 20
-0.4869349314690531
 10
-0.1035533905932736
 20
-0.4880739302510473
 10
-0.0985533905932736
 20
-0.489159171739258
 10
-0.0935533905932736
 20
-0.4901910129761353
 10
-0.0885533905932736
 20
-0.4911697905088447
 10
-0.0835533905932735
 20
-0.4920958209682695
 10
-0.0785533905932735
 20
-0.4929694016065986
 10
-0.0735533905932735
 20
-0.4937908107957261
 10
-0.0685533905932735
 20
-0.494560308488493
 10
-0.0635533905932735
 20
-0.4952781366446192
 10
-0.0585533905932735
 20
-0.4959445196230107
 10
-0.0535533905932735
 20
-0.4965596645419678
 10
-0.0485533905932735
 20
-0.4971237616086806
 10
-0.0435533905932735
 20
-0.4976369844192622
 10
-0.0385533905932735
 20
-0.4980994902304456
 10
-0.0335533905932735
 20
-0.4985114202039533
 10
-0.0285533905932735
 20
-0.4988728996244386
 10
-0.0235533905932735
 20
-0.4991840380917923
 10
-0.0185533905932735
 20
-0.49944492968851
 10
-0.0135533905932735
 20
-0.4996556531227215
 10
-0.0085533905932735
 20
-0.4998162718473921
 10
-0.0035533905932735
 20
-0.4999268341561182
 10
0.0014466094067265
 20
-0.499987373255857
 10
0.0064466094067265
 20
-0.4999979073168451
 10
0.0114466094067265
 20
-0.4999584394998819
 10
0.0164466094067265
 20
-0.4998689579610739
 10
0.0214466094067265
 20
-0.4997294358340547
 10
0.0264466094067265
 20
-0.4995398311896213
 10
0.0314466094067265
 20
-0.4993000869726422
 10
0.0364466094067265
 20
-0.4990101309160174
 10
0.0414466094067265
 20
-0.4986698754313855
 10
0.0464466094067265
 20
-0.498279217476192
 10
0.0514466094067265
 20
-0.4978380383966446
 10
0.0564466094067265
 20
-0.497346203745994
 10
0.0614466094067265
 20
-0.4968035630774849
 10
0.0664466094067264
 20
-0.4962099497112257
 10
0.0714466094067265
 20
-0.4955651804741228
 10
0.0764466094067265
 20
-0.4948690554119167
 10
0.0814466094067265
 20
-0.4941213574722463
 10
0.0864466094067265
 20
-0.4933218521575424
 10
0.0914466094067265
 20
-0.4924702871464235
 10
0.0964466094067265
 20
-0.4915663918821278
 10
0.1014466094067265
 20
-0.4906098771263643
 10
0.1064466094067265
 20
-0.4896004344768079
 10
0.1114466094067265
 20
-0.4885377358462822
 10
0.1164466094067265
 20
-0.4874214329014929
 10
0.1214466094067265
 20
-0.4862511564589613
 10
0.1264466094067265
 20
-0.4850265158355881
 10
0.1314466094067265
 20
-0.4837470981510305
 10
0.1364466094067265
 20
-0.482412467578809
 10
0.1414466094067265
 20
-0.4810221645427664
 10
0.1464466094067265
 20
-0.4795757048551781
 10
0.1514466094067265
 20
-0.4780725787924608
 10
0.1564466094067265
 20
-0.4765122501040308
 10
0.1614466094067265
 20
-0.4748941549494363
 10
0.1664466094067265
 20
-0.4732177007584056
 10
0.1714466094067265
 20
-0.4714822650079264
 10
0.1764466094067265
 20
-0.4696871939098801
 10
0.1814466094067266
 20
-0.4678318010021017
 10
0.1864466094067266
 20
-0.4659153656350076
 10
0.1914466094067266
 20
-0.4639371313451162
 10
0.1964466094067266
 20
-0.4618963041058764
 10
0.2014466094067266
 20
-0.4597920504451997
 10
0.2064466094067266
 20
-0.4576234954179405
 10
0.2114466094067266
 20
-0.4553897204202862
 10
0.2164466094067266
 20
-0.4530897608315588
 10
0.2214466094067266
 20
-0.45072260346729
 10
0.2264466094067266
 20
-0.4482871838255748
 10
0.2314466094067266
 20
-0.4457823831065977
 10
0.2364466094067266
 20
-0.4432070249828292
 10
0.2414466094067266
 20
-0.4405598720946596
 10
0.2464466094067266
 20
-0.4378396222431172
 10
0.2514466094067266
 20
-0.4350449042477435
 10
0.2564466094067266
 20
-0.4321742734336012
 10
0.2614466094067266
 20
-0.4292262067066663
 10
0.2664466094067266
 20
-0.4261990971714118
 10
0.2714466094067266
 20
-0.4230912482380831
 10
0.2764466094067266
 20
-0.4199008671598476
 10
0.2814466094067266
 20
-0.4166260579314797
 10
0.2864466094067266
 20
-0.4132648134712868
 10
0.2914466094067266
 20
-0.4098150069963156
 10
0.2964466094067266
 20
-0.4062743824871597
 10
0.3014466094067266
 20
-0.4026405441224911
 10
0.3064466094067266
 20
-0.3989109445442534
 10
0.3114466094067266
 20
-0.3950828717916294
 10
0.3164466094067266
 20
-0.391153434714632
 10
0.3214466094067266
 20
-0.3871195466454601
 10
0.3264466094067267
 20
-0.3829779070663467
 10
0.3314466094067267
 20
-0.3787249809648844
 10
0.3364466094067267
 20
-0.3743569755097196
 10
0.3414466094067267
 20
-0.3698698136084067
 10
0.3464466094067267
 20
-0.3652591038217257
 10
0.3514466094067267
 20
-0.3605201060004601
 10
0.3564466094067267
 20
-0.3556476918757041
 10
0.3614466094067267
 20
-0.3506362996645505
 10
0.3664466094067267
 20
-0.34547988153926
 10
0.3714466094067267
 20
-0.3401718425359658
 10
0.3764466094067267
 20
-0.334704969129899
 10
0.3814466094067267
 20
-0.3290713452523318
 10
0.3864466094067267
 20
-0.3232622529342269
 10
0.3914466094067267
 20
-0.3172680539828188
 10
0.3964466094067267
 20
-0.3110780480586465
 10
0.4014466094067267
 20
-0.304680301118911
 10
0.4064466094067267
 20
-0.2980614362775617
 10
0.4114466094067267
 20
-0.291206376478565
 10
0.4164466094067267
 20
-0.2840980246459106
 10
0.4214466094067267
 20
-0.276716861635935
 10
0.4264466094067267
 20
-0.2690404345439063
 10
0.4314466094067267
 20
-0.2610426963649944
 10
0.4364466094067267
 20
-0.2526931404518915
 10
0.4414466094067268
 20
-0.2439556458403291
 10
0.4464466094067268
 20
-0.2347869056044327
 10
0.4514466094067268
 20
-0.2251342376211081
 10
0.4564466094067268
 20
-0.2149324518428296
 10
0.4614466094067268
 20
-0.2040992228331676
 10
0.4664466094067268
 20
-0.1925279893081412
 10
0.4714466094067268
 20
-0.1800765408735088
 10
0.4764466094067268
 20
-0.1665475742210051
 10
0.4814466094067268
 20
-0.1516529867323223
 10
0.4864466094067268
 20
-0.1349413290684758
 10
0.4914466094067268
 20
-0.1156274024472547
 10
0.4964466094067268
 20
-0.0920881648347501
 10
0.5
 20
0.0
 10
0.495
 20
0.0
 10
0.49
 20
0.0705336798983295
 10
0.485
 20
0.0994987437106621
 10
0.48
 20
0.1215524578114322
 10
0.475
 20
0.14
 10
0.47
 20
0.15612494995996
 10
0.465
 20
0.1705872210923199
 10
0.46
 20
0.1837797594948911
 10
0.455
 20
0.1959591794226544
 10
0.45
 20
0.2073041244162789
 10
0.445
 20
0.2179449471770338
 10
0.4399999999999999
 20
0.2279802623035601
 10
0.4349999999999999
 20
0.2374868417407584
 10
0.4299999999999999
 20
0.2465258607124211
 10
0.4249999999999999
 20
0.2551470164434615
 10
0.4199999999999999
 20
0.2633913438213186
 10
0.4149999999999999
 20
0.2712931993250108
 10
0.4099999999999999
 20
0.2788816953476869
 10
0.4049999999999999
 20
0.2861817604250838
 10
0.3999999999999999
 20
0.2932149382279151
 10
0.3949999999999999
 20
0.3000000000000002
 10
0.3899999999999999
 20
0.3065534211193868
 10
0.3849999999999999
 20
0.3128897569432404
 10
0.3799999999999999
 20
0.3190219428189855
 10
0.3749999999999999
 20
0.3249615361854385
 10
0.3699999999999999
 20
0.330718913883074
 10
0.3649999999999999
 20
0.3363034344160049
 10
0.3599999999999999
 20
0.3417235724968357
 10
0.3549999999999999
 20
0.3469870314579496
 10
0.3535533905932738
 20
0.3535533905932738
 97
        0
 75
     0
 76
     1
 98
        0
  0
CIRCLE
  5
12F
330
12D
100
AcDbEntity
  8
0
  6
Continuous
 62
     0
370
    -2
390
5F
100
AcDbCircle
 10
0.0
 20
0.0
 30
0.0
 40
0.5
  0
ENDBLK
  5
131
330
12D
100
AcDbEntity
  8
0
100
AcDbBlockEnd
  0
BLOCK
  5
136
330
132
100
AcDbEntity
  8
0
100
AcDbBlockBegin
  2
CDWK_PTTYP38
 70
     0
 10
0.0
 20
0.0
 30
0.0
  3
CDWK_PTTYP38
  1

  0
HATCH
  5
133
330
132
100
AcDbEntity
  8
0
  6
Continuous
 62
     0
370
    -2
390
5F
100
AcDbHatch
 10
0.0
 20
0.0
 30
0.0
210
0.0
220
0.0
230
1.0
  2
SOLID
 70
     1
 71
     0
 91
        1
 92
        3
 72
     0
 73
     1
 93
      102
 10
0.0
 20
0.0
 10
0.0
 20
0.5
 10
0.005
 20
0.5
 10
0.01
 20
0.4999749993749688
 10
0.015
 20
0.4998999899979995
 10
0.02
 20
0.4997749493522059
 10
0.025
 20
0.4995998398718718
 10
0.03
 20
0.4993746088859545
 10
0.035
 20
0.4990991885387112
 10
0.04
 20
0.4987734956871706
 10
0.045
 20
0.4983974317750845
 10
0.05
 20
0.4979708826829135
 10
0.055
 20
0.49749371855331
 10
0.06
 20
0.4969657935914704
 10
0.065
 20
0.4963869458396343
 10
0.07
 20
0.4957569969249047
 10
0.075
 20
0.4950757517794626
 10
0.08
 20
0.4943429983321297
 10
0.085
 20
0.4935585071701227
 10
0.09
 20
0.4927220311697053
 10
0.095
 20
0.4918333050943175
 10
0.1
 20
0.4908920451586071
 10
0.105
 20
0.4898979485566356
 10
0.11
 20
0.4888506929523574
 10
0.115
 20
0.4877499359302879
 10
0.12
 20
0.4865953144040744
 10
0.125
 20
0.4853864439804639
 10
0.13
 20
0.4841229182759271
 10
0.135
 20
0.4828043081829325
 10
0.14
 20
0.4814301610825811
 10
0.145
 20
0.48
 10
0.15
 20
0.478513322698543
 10
0.1550000000000001
 20
0.4769696007084728
 10
0.1600000000000001
 20
0.4753682782853731
 10
0.1650000000000001
 20
0.4737087712930804
 10
0.1700000000000001
 20
0.4719904660054056
 10
0.1750000000000001
 20
0.4702127178203498
 10
0.1800000000000001
 20
0.4683748498798799
 10
0.1850000000000001
 20
0.466476151587624
 10
0.1900000000000001
 20
0.4645158770160606
 10
0.1950000000000001
 20
0.4624932431938871
 10
0.2000000000000001
 20
0.460407428263272
 10
0.2050000000000001
 20
0.4582575694955839
 10
0.2100000000000001
 20
0.4560427611529427
 10
0.2150000000000001
 20
0.4537620521815371
 10
0.2200000000000001
 20
0.4514144437210665
 10
0.2250000000000001
 20
0.4489988864128729
 10
0.2300000000000001
 20
0.4465142774872937
 10
0.2350000000000001
 20
0.4439594576084622
 10
0.2400000000000001
 20
0.4413332074521472
 10
0.2450000000000001
 20
0.4386342439892261
 10
0.2500000000000001
 20
0.4358612164439502
 10
0.2550000000000001
 20
0.4330127018922192
 10
0.2600000000000001
 20
0.4300872004605577
 10
0.2650000000000001
 20
0.4270831300812524
 10
0.2700000000000001
 20
0.423998820753077
 10
0.2750000000000001
 20
0.4208325082500162
 10
0.2800000000000001
 20
0.4175823272122516
 10
0.2850000000000001
 20
0.4142463035441595
 10
0.2900000000000001
 20
0.4108223460329293
 10
0.2950000000000002
 20
0.4073082370883259
 10
0.3000000000000002
 20
0.403701622488689
 10
0.3050000000000002
 20
0.3999999999999999
 10
0.3100000000000002
 20
0.3962007067131506
 10
0.3150000000000002
 20
0.3923009049186605
 10
0.3200000000000002
 20
0.3882975663070783
 10
0.3250000000000002
 20
0.3841874542459708
 10
0.3300000000000002
 20
0.3799671038392664
 10
0.3350000000000002
 20
0.3756327994198588
 10
0.3400000000000002
 20
0.3711805490593491
 10
0.3450000000000002
 20
0.366606055596467
 10
0.3500000000000002
 20
0.3619046835839512
 10
0.3550000000000002
 20
0.3570714214271423
 10
0.3600000000000002
 20
0.3521008378291649
 10
0.3650000000000002
 20
0.3469870314579492
 10
0.3700000000000002
 20
0.3417235724968353
 10
0.3750000000000002
 20
0.3363034344160045
 10
0.3800000000000002
 20
0.3307189138830736
 10
0.3850000000000002
 20
0.3249615361854382
 10
0.3900000000000002
 20
0.3190219428189851
 10
0.3950000000000002
 20
0.31288975694324
 10
0.4000000000000002
 20
0.3065534211193863
 10
0.4050000000000002
 20
0.2999999999999997
 10
0.4100000000000003
 20
0.2932149382279147
 10
0.4150000000000003
 20
0.2861817604250834
 10
0.4200000000000003
 20
0.2788816953476864
 10
0.4250000000000003
 20
0.2712931993250103
 10
0.4300000000000003
 20
0.263391343821318
 10
0.4350000000000003
 20
0.255147016443461
 10
0.4400000000000003
 20
0.2465258607124206
 10
0.4450000000000003
 20
0.2374868417407578
 10
0.4500000000000003
 20
0.2279802623035594
 10
0.4550000000000003
 20
0.2179449471770331
 10
0.4600000000000003
 20
0.2073041244162782
 10
0.4650000000000003
 20
0.1959591794226536
 10
0.4700000000000003
 20
0.1837797594948903
 10
0.4750000000000003
 20
0.170587221092319
 10
0.4800000000000003
 20
0.156124949959959
 10
0.4850000000000003
 20
0.1399999999999989
 10
0.4900000000000003
 20
0.1215524578114309
 10
0.4950000000000003
 20
0.0994987437106604
 10
0.5
 20
0.0
 97
        0
 75
     0
 76
     1
 98
        0
  0
HATCH
  5
134
330
132
100
AcDbEntity
  8
0
  6
Continuous
 62
     0
370
    -2
390
5F
100
AcDbHatch
 10
0.0
 20
0.0
 30
0.0
210
0.0
220
0.0
230
1.0
  2
SOLID
 70
     1
 71
     0
 91
        1
 92
        3
 72
     0
 73
     1
 93
      102
 10
0.0
 20
0.0
 10
-0.5
 20
0.0
 10
-0.495
 20
0.0
 10
-0.49
 20
-0.0705336798983295
 10
-0.485
 20
-0.0994987437106621
 10
-0.48
 20
-0.1215524578114322
 10
-0.475
 20
-0.14
 10
-0.47
 20
-0.15612494995996
 10
-0.465
 20
-0.1705872210923199
 10
-0.46
 20
-0.1837797594948911
 10
-0.455
 20
-0.1959591794226544
 10
-0.45
 20
-0.2073041244162789
 10
-0.445
 20
-0.2179449471770338
 10
-0.4399999999999999
 20
-0.2279802623035601
 10
-0.4349999999999999
 20
-0.2374868417407584
 10
-0.4299999999999999
 20
-0.2465258607124211
 10
-0.4249999999999999
 20
-0.2551470164434615
 10
-0.4199999999999999
 20
-0.2633913438213186
 10
-0.4149999999999999
 20
-0.2712931993250108
 10
-0.4099999999999999
 20
-0.2788816953476869
 10
-0.4049999999999999
 20
-0.2861817604250838
 10
-0.3999999999999999
 20
-0.2932149382279151
 10
-0.3949999999999999
 20
-0.3000000000000002
 10
-0.3899999999999999
 20
-0.3065534211193868
 10
-0.3849999999999999
 20
-0.3128897569432404
 10
-0.3799999999999999
 20
-0.3190219428189855
 10
-0.3749999999999999
 20
-0.3249615361854385
 10
-0.3699999999999999
 20
-0.330718913883074
 10
-0.3649999999999999
 20
-0.3363034344160049
 10
-0.3599999999999999
 20
-0.3417235724968357
 10
-0.3549999999999999
 20
-0.3469870314579496
 10
-0.3499999999999999
 20
-0.3521008378291652
 10
-0.3449999999999999
 20
-0.3570714214271427
 10
-0.3399999999999999
 20
-0.3619046835839516
 10
-0.3349999999999999
 20
-0.3666060555964674
 10
-0.3299999999999998
 20
-0.3711805490593494
 10
-0.3249999999999998
 20
-0.3756327994198591
 10
-0.3199999999999998
 20
-0.3799671038392667
 10
-0.3149999999999998
 20
-0.3841874542459711
 10
-0.3099999999999998
 20
-0.3882975663070786
 10
-0.3049999999999998
 20
-0.3923009049186608
 10
-0.2999999999999998
 20
-0.3962007067131507
 10
-0.2949999999999998
 20
-0.4000000000000001
 10
-0.2899999999999998
 20
-0.4037016224886891
 10
-0.2849999999999998
 20
-0.4073082370883261
 10
-0.2799999999999998
 20
-0.4108223460329296
 10
-0.2749999999999998
 20
-0.4142463035441597
 10
-0.2699999999999998
 20
-0.4175823272122518
 10
-0.2649999999999998
 20
-0.4208325082500164
 10
-0.2599999999999998
 20
-0.4239988207530773
 10
-0.2549999999999998
 20
-0.4270831300812526
 10
-0.2499999999999998
 20
-0.4300872004605579
 10
-0.2449999999999998
 20
-0.4330127018922195
 10
-0.2399999999999998
 20
-0.4358612164439503
 10
-0.2349999999999998
 20
-0.4386342439892263
 10
-0.2299999999999998
 20
-0.4413332074521473
 10
-0.2249999999999998
 20
-0.4439594576084624
 10
-0.2199999999999998
 20
-0.4465142774872939
 10
-0.2149999999999997
 20
-0.4489988864128731
 10
-0.2099999999999997
 20
-0.4514144437210667
 10
-0.2049999999999997
 20
-0.4537620521815372
 10
-0.1999999999999997
 20
-0.4560427611529429
 10
-0.1949999999999997
 20
-0.4582575694955841
 10
-0.1899999999999997
 20
-0.4604074282632722
 10
-0.1849999999999997
 20
-0.4624932431938872
 10
-0.1799999999999997
 20
-0.4645158770160608
 10
-0.1749999999999997
 20
-0.4664761515876241
 10
-0.1699999999999997
 20
-0.46837484987988
 10
-0.1649999999999997
 20
-0.47021271782035
 10
-0.1599999999999997
 20
-0.4719904660054058
 10
-0.1549999999999997
 20
-0.4737087712930805
 10
-0.1499999999999997
 20
-0.4753682782853733
 10
-0.1449999999999997
 20
-0.4769696007084729
 10
-0.1399999999999997
 20
-0.4785133226985431
 10
-0.1349999999999997
 20
-0.4800000000000001
 10
-0.1299999999999997
 20
-0.4814301610825812
 10
-0.1249999999999997
 20
-0.4828043081829325
 10
-0.1199999999999997
 20
-0.4841229182759272
 10
-0.1149999999999997
 20
-0.485386443980464
 10
-0.1099999999999997
 20
-0.4865953144040744
 10
-0.1049999999999996
 20
-0.487749935930288
 10
-0.0999999999999996
 20
-0.4888506929523574
 10
-0.0949999999999996
 20
-0.4898979485566357
 10
-0.0899999999999996
 20
-0.4908920451586072
 10
-0.0849999999999996
 20
-0.4918333050943176
 10
-0.0799999999999996
 20
-0.4927220311697053
 10
-0.0749999999999996
 20
-0.4935585071701227
 10
-0.0699999999999996
 20
-0.4943429983321298
 10
-0.0649999999999996
 20
-0.4950757517794626
 10
-0.0599999999999996
 20
-0.4957569969249048
 10
-0.0549999999999996
 20
-0.4963869458396343
 10
-0.0499999999999996
 20
-0.4969657935914705
 10
-0.0449999999999996
 20
-0.49749371855331
 10
-0.0399999999999996
 20
-0.4979708826829135
 10
-0.0349999999999996
 20
-0.4983974317750846
 10
-0.0299999999999996
 20
-0.4987734956871706
 10
-0.0249999999999996
 20
-0.4990991885387112
 10
-0.0199999999999996
 20
-0.4993746088859545
 10
-0.0149999999999996
 20
-0.4995998398718719
 10
-0.0099999999999996
 20
-0.499774949352206
 10
-0.0049999999999996
 20
-0.4998999899979995
 10
0.0
 20
-0.5
 97
        0
 75
     0
 76
     1
 98
        0
  0
CIRCLE
  5
135
330
132
100
AcDbEntity
  8
0
  6
Continuous
 62
     0
370
    -2
390
5F
100
AcDbCircle
 10
0.0
 20
0.0
 30
0.0
 40
0.5
  0
ENDBLK
  5
137
330
132
100
AcDbEntity
  8
0
100
AcDbBlockEnd
  0
BLOCK
  5
140
330
138
100
AcDbEntity
  8
0
100
AcDbBlockBegin
  2
CDWK_PTTYP41
 70
     0
 10
0.0
 20
0.0
 30
0.0
  3
CDWK_PTTYP41
  1

  0
LINE
  5
139
330
138
100
AcDbEntity
  8
0
  6
Continuous
 62
     0
370
    -2
390
5F
100
AcDbLine
 10
-0.5
 20
0.5
 30
0.0
 11
0.5
 21
0.5
 31
0.0
  0
LINE
  5
13A
330
138
100
AcDbEntity
  8
0
  6
Continuous
 62
     0
370
    -2
390
5F
100
AcDbLine
 10
0.5
 20
0.5
 30
0.0
 11
0.5
 21
-0.5
 31
0.0
  0
LINE
  5
13B
330
138
100
AcDbEntity
  8
0
  6
Continuous
 62
     0
370
    -2
390
5F
100
AcDbLine
 10
0.5
 20
-0.5
 30
0.0
 11
-0.5
 21
-0.5
 31
0.0
  0
LINE
  5
13C
330
138
100
AcDbEntity
  8
0
  6
Continuous
 62
     0
370
    -2
390
5F
100
AcDbLine
 10
-0.5
 20
-0.5
 30
0.0
 11
-0.5
 21
0.5
 31
0.0
  0
LINE
  5
13D
330
138
100
AcDbEntity
  8
0
  6
Continuous
 62
     0
370
    -2
390
5F
100
AcDbLine
 10
-0.375
 20
0.25
 30
0.0
 11
0.375
 21
0.25
 31
0.0
  0
LINE
  5
13E
330
138
100
AcDbEntity
  8
0
  6
Continuous
 62
     0
370
    -2
390
5F
100
AcDbLine
 10
-0.375
 20
0.0
 30
0.0
 11
0.375
 21
0.0
 31
0.0
  0
LINE
  5
13F
330
138
100
AcDbEntity
  8
0
  6
Continuous
 62
     0
370
    -2
390
5F
100
AcDbLine
 10
-0.375
 20
-0.25
 30
0.0
 11
0.375
 21
-0.25
 31
0.0
  0
ENDBLK
  5
141
330
138
100
AcDbEntity
  8
0
100
AcDbBlockEnd
  0
BLOCK
  5
149
330
142
100
AcDbEntity
  8
0
100
AcDbBlockBegin
  2
CDWK_PTTYP42
 70
     0
 10
0.0
 20
0.0
 30
0.0
  3
CDWK_PTTYP42
  1

  0
LINE
  5
143
330
142
100
AcDbEntity
  8
0
  6
Continuous
 62
     0
370
    -2
390
5F
100
AcDbLine
 10
-0.5
 20
0.5
 30
0.0
 11
0.5
 21
0.5
 31
0.0
  0
LINE
  5
144
330
142
100
AcDbEntity
  8
0
  6
Continuous
 62
     0
370
    -2
390
5F
100
AcDbLine
 10
0.5
 20
0.5
 30
0.0
 11
0.5
 21
-0.5
 31
0.0
  0
LINE
  5
145
330
142
100
AcDbEntity
  8
0
  6
Continuous
 62
     0
370
    -2
390
5F
100
AcDbLine
 10
0.5
 20
-0.5
 30
0.0
 11
-0.5
 21
-0.5
 31
0.0
  0
LINE
  5
146
330
142
100
AcDbEntity
  8
0
  6
Continuous
 62
     0
370
    -2
390
5F
100
AcDbLine
 10
-0.5
 20
-0.5
 30
0.0
 11
-0.5
 21
0.5
 31
0.0
  0
LINE
  5
147
330
142
100
AcDbEntity
  8
0
  6
Continuous
 62
     0
370
    -2
390
5F
100
AcDbLine
 10
-0.375
 20
0.125
 30
0.0
 11
0.375
 21
0.125
 31
0.0
  0
LINE
  5
148
330
142
100
AcDbEntity
  8
0
  6
Continuous
 62
     0
370
    -2
390
5F
100
AcDbLine
 10
-0.375
 20
-0.125
 30
0.0
 11
0.375
 21
-0.125
 31
0.0
  0
ENDBLK
  5
14A
330
142
100
AcDbEntity
  8
0
100
AcDbBlockEnd
  0
BLOCK
  5
14F
330
14B
100
AcDbEntity
  8
0
100
AcDbBlockBegin
  2
CDWK_PTTYP43
 70
     0
 10
0.0
 20
0.0
 30
0.0
  3
CDWK_PTTYP43
  1

  0
CIRCLE
  5
14C
330
14B
100
AcDbEntity
  8
0
  6
Continuous
 62
     0
370
    -2
390
5F
100
AcDbCircle
 10
0.0
 20
0.0
 30
0.0
 40
0.5
  0
LINE
  5
14D
330
14B
100
AcDbEntity
  8
0
  6
Continuous
 62
     0
370
    -2
390
5F
100
AcDbLine
 10
-0.375
 20
0.166
 30
0.0
 11
0.375
 21
0.166
 31
0.0
  0
LINE
  5
14E
330
14B
100
AcDbEntity
  8
0
  6
Continuous
 62
     0
370
    -2
390
5F
100
AcDbLine
 10
-0.375
 20
-0.166
 30
0.0
 11
0.375
 21
-0.166
 31
0.0
  0
ENDBLK
  5
150
330
14B
100
AcDbEntity
  8
0
100
AcDbBlockEnd
  0
BLOCK
  5
158
330
151
100
AcDbEntity
  8
0
100
AcDbBlockBegin
  2
CDWK_PTTYP44
 70
     0
 10
0.0
 20
0.0
 30
0.0
  3
CDWK_PTTYP44
  1

  0
CIRCLE
  5
152
330
151
100
AcDbEntity
  8
0
  6
Continuous
 62
     0
370
    -2
390
5F
100
AcDbCircle
 10
0.0
 20
0.0
 30
0.0
 40
0.5
  0
LINE
  5
153
330
151
100
AcDbEntity
  8
0
  6
Continuous
 62
     0
370
    -2
390
5F
100
AcDbLine
 10
-0.375
 20
0.333
 30
0.0
 11
0.375
 21
0.333
 31
0.0
  0
LINE
  5
154
330
151
100
AcDbEntity
  8
0
  6
Continuous
 62
     0
370
    -2
390
5F
100
AcDbLine
 10
-0.375
 20
0.166
 30
0.0
 11
0.375
 21
0.166
 31
0.0
  0
LINE
  5
155
330
151
100
AcDbEntity
  8
0
  6
Continuous
 62
     0
370
    -2
390
5F
100
AcDbLine
 10
-0.375
 20
0.0
 30
0.0
 11
0.375
 21
0.0
 31
0.0
  0
LINE
  5
156
330
151
100
AcDbEntity
  8
0
  6
Continuous
 62
     0
370
    -2
390
5F
100
AcDbLine
 10
-0.375
 20
-0.166
 30
0.0
 11
0.375
 21
-0.166
 31
0.0
  0
LINE
  5
157
330
151
100
AcDbEntity
  8
0
  6
Continuous
 62
     0
370
    -2
390
5F
100
AcDbLine
 10
-0.375
 20
-0.333
 30
0.0
 11
0.375
 21
-0.333
 31
0.0
  0
ENDBLK
  5
159
330
151
100
AcDbEntity
  8
0
100
AcDbBlockEnd
  0
BLOCK
  5
15D
330
15A
100
AcDbEntity
  8
0
100
AcDbBlockBegin
  2
CDWK_PTTYP45
 70
     0
 10
0.0
 20
0.0
 30
0.0
  3
CDWK_PTTYP45
  1

  0
ELLIPSE
  5
15B
330
15A
100
AcDbEntity
  8
0
  6
Continuous
 62
     0
370
    -2
390
5F
100
AcDbEllipse
 10
0.0
 20
0.0
 30
0.0
 11
0.5
 21
0.0
 31
0.0
210
0.0
220
0.0
230
1.0
 40
0.82
 41
0.0
 42
6.283185307179586
  0
CIRCLE
  5
15C
330
15A
100
AcDbEntity
  8
0
  6
Continuous
 62
     0
370
    -2
390
5F
100
AcDbCircle
 10
-0.235
 20
0.0
 30
0.0
 40
0.26
  0
ENDBLK
  5
15E
330
15A
100
AcDbEntity
  8
0
100
AcDbBlockEnd
  0
BLOCK
  5
162
330
15F
100
AcDbEntity
  8
0
100
AcDbBlockBegin
  2
CDWK_PTTYP46
 70
     0
 10
0.0
 20
0.0
 30
0.0
  3
CDWK_PTTYP46
  1

  0
ELLIPSE
  5
160
330
15F
100
AcDbEntity
  8
0
  6
Continuous
 62
     0
370
    -2
390
5F
100
AcDbEllipse
 10
0.0
 20
0.0
 30
0.0
 11
0.5
 21
0.0
 31
0.0
210
0.0
220
0.0
230
1.0
 40
0.82
 41
0.0
 42
6.283185307179586
  0
CIRCLE
  5
161
330
15F
100
AcDbEntity
  8
0
  6
Continuous
 62
     0
370
    -2
390
5F
100
AcDbCircle
 10
0.0
 20
0.15
 30
0.0
 40
0.26
  0
ENDBLK
  5
163
330
15F
100
AcDbEntity
  8
0
100
AcDbBlockEnd
  0
BLOCK
  5
16A
330
164
100
AcDbEntity
  8
0
100
AcDbBlockBegin
  2
CDWK_PTTYP47
 70
     0
 10
0.0
 20
0.0
 30
0.0
  3
CDWK_PTTYP47
  1

  0
LINE
  5
165
330
164
100
AcDbEntity
  8
0
  6
Continuous
 62
     0
370
    -2
390
5F
100
AcDbLine
 10
-0.5
 20
0.166
 30
0.0
 11
0.5
 21
0.166
 31
0.0
  0
LINE
  5
166
330
164
100
AcDbEntity
  8
0
  6
Continuous
 62
     0
370
    -2
390
5F
100
AcDbLine
 10
0.5
 20
0.166
 30
0.0
 11
0.5
 21
-0.166
 31
0.0
  0
LINE
  5
167
330
164
100
AcDbEntity
  8
0
  6
Continuous
 62
     0
370
    -2
390
5F
100
AcDbLine
 10
0.5
 20
-0.166
 30
0.0
 11
-0.5
 21
-0.166
 31
0.0
  0
LINE
  5
168
330
164
100
AcDbEntity
  8
0
  6
Continuous
 62
     0
370
    -2
390
5F
100
AcDbLine
 10
-0.5
 20
-0.166
 30
0.0
 11
-0.5
 21
0.166
 31
0.0
  0
CIRCLE
  5
169
330
164
100
AcDbEntity
  8
0
  6
Continuous
 62
     0
370
    -2
390
5F
100
AcDbCircle
 10
0.0
 20
-0.313
 30
0.0
 40
0.4
  0
ENDBLK
  5
16B
330
164
100
AcDbEntity
  8
0
100
AcDbBlockEnd
  0
BLOCK
  5
170
330
16D
100
AcDbEntity
  8
0
100
AcDbBlockBegin
  2
CDWK_PTTYP48
 70
     0
 10
0.0
 20
0.0
 30
0.0
  3
CDWK_PTTYP48
  1

  0
CIRCLE
  5
16E
330
16D
100
AcDbEntity
  8
0
  6
CADWORK_3
 62
     0
 48
0.1
370
    -2
390
5F
100
AcDbCircle
 10
0.0
 20
0.0
 30
0.0
 40
0.5
  0
CIRCLE
  5
16F
330
16D
100
AcDbEntity
  8
0
  6
Continuous
 62
     0
370
    -2
390
5F
100
AcDbCircle
 10
0.0
 20
0.0
 30
0.0
 40
0.25
  0
ENDBLK
  5
171
330
16D
100
AcDbEntity
  8
0
100
AcDbBlockEnd
  0
BLOCK
  5
177
330
172
100
AcDbEntity
  8
0
100
AcDbBlockBegin
  2
CDWK_PTTYP49
 70
     0
 10
0.0
 20
0.0
 30
0.0
  3
CDWK_PTTYP49
  1

  0
LINE
  5
173
330
172
100
AcDbEntity
  8
0
  6
Continuous
 62
     0
370
    -2
390
5F
100
AcDbLine
 10
-0.5
 20
0.166
 30
0.0
 11
0.5
 21
0.166
 31
0.0
  0
LINE
  5
174
330
172
100
AcDbEntity
  8
0
  6
Continuous
 62
     0
370
    -2
390
5F
100
AcDbLine
 10
0.5
 20
0.166
 30
0.0
 11
0.5
 21
-0.166
 31
0.0
  0
LINE
  5
175
330
172
100
AcDbEntity
  8
0
  6
Continuous
 62
     0
370
    -2
390
5F
100
AcDbLine
 10
0.5
 20
-0.166
 30
0.0
 11
-0.5
 21
-0.166
 31
0.0
  0
LINE
  5
176
330
172
100
AcDbEntity
  8
0
  6
Continuous
 62
     0
370
    -2
390
5F
100
AcDbLine
 10
-0.5
 20
-0.166
 30
0.0
 11
-0.5
 21
0.166
 31
0.0
  0
ENDBLK
  5
178
330
172
100
AcDbEntity
  8
0
100
AcDbBlockEnd
  0
BLOCK
  5
181
330
179
100
AcDbEntity
  8
0
100
AcDbBlockBegin
  2
CDWK_PTTYP50
 70
     0
 10
0.0
 20
0.0
 30
0.0
  3
CDWK_PTTYP50
  1

  0
LINE
  5
17A
330
179
100
AcDbEntity
  8
0
  6
Continuous
 62
     0
370
    -2
390
5F
100
AcDbLine
 10
-0.5
 20
0.166
 30
0.0
 11
0.5
 21
0.166
 31
0.0
  0
LINE
  5
17B
330
179
100
AcDbEntity
  8
0
  6
Continuous
 62
     0
370
    -2
390
5F
100
AcDbLine
 10
0.5
 20
0.166
 30
0.0
 11
0.5
 21
-0.166
 31
0.0
  0
LINE
  5
17C
330
179
100
AcDbEntity
  8
0
  6
Continuous
 62
     0
370
    -2
390
5F
100
AcDbLine
 10
0.5
 20
-0.166
 30
0.0
 11
-0.5
 21
-0.166
 31
0.0
  0
LINE
  5
17D
330
179
100
AcDbEntity
  8
0
  6
Continuous
 62
     0
370
    -2
390
5F
100
AcDbLine
 10
-0.5
 20
-0.166
 30
0.0
 11
-0.5
 21
0.166
 31
0.0
  0
LINE
  5
17E
330
179
100
AcDbEntity
  8
0
  6
Continuous
 62
     0
370
    -2
390
5F
100
AcDbLine
 10
-0.25
 20
-0.166
 30
0.0
 11
-0.25
 21
0.166
 31
0.0
  0
LINE
  5
17F
330
179
100
AcDbEntity
  8
0
  6
Continuous
 62
     0
370
    -2
390
5F
100
AcDbLine
 10
0.0
 20
-0.166
 30
0.0
 11
0.0
 21
0.166
 31
0.0
  0
LINE
  5
180
330
179
100
AcDbEntity
  8
0
  6
Continuous
 62
     0
370
    -2
390
5F
100
AcDbLine
 10
0.25
 20
-0.166
 30
0.0
 11
0.25
 21
0.166
 31
0.0
  0
ENDBLK
  5
182
330
179
100
AcDbEntity
  8
0
100
AcDbBlockEnd
  0
BLOCK
  5
186
330
183
100
AcDbEntity
  8
0
100
AcDbBlockBegin
  2
CDWK_PTTYP51
 70
     0
 10
0.0
 20
0.0
 30
0.0
  3
CDWK_PTTYP51
  1

  0
SPLINE
  5
184
330
183
100
AcDbEntity
  8
0
  6
Continuous
 62
     0
370
    -2
390
5F
100
AcDbSpline
210
0.0
220
0.0
230
1.0
 70
  1064
 71
     3
 72
    12
 73
     8
 74
     6
 42
0.0000000001
 43
0.0000000001
 44
0.0000000001
 40
0.0
 40
0.0
 40
0.0
 40
0.0
 40
0.1690118339052032
 40
0.5175774661755118
 40
0.8011704844252565
 40
0.9154070810132151
 40
0.975822310881188
 40
0.975822310881188
 40
0.975822310881188
 40
0.975822310881188
 10
-0.5
 20
-0.077
 30
0.0
 10
-0.443824324006723
 20
-0.0900581618560981
 30
0.0
 10
-0.2717933876546281
 20
-0.1300471387828842
 30
0.0
 10
-0.0276699186086479
 20
-0.0006977790990417
 30
0.0
 10
0.2303349729129116
 20
0.0817803270207037
 30
0.0
 10
0.3686157174766292
 20
0.0066250198607167
 30
0.0
 10
0.4216533294581816
 20
-0.0168719667726145
 30
0.0
 10
0.44
 20
-0.025
 30
0.0
 11
-0.5
 21
-0.077
 31
0.0
 11
-0.333
 21
-0.103
 31
0.0
 11
0.0
 21
0.0
 31
0.0
 11
0.28
 21
0.045
 31
0.0
 11
0.385
 21
0.0
 31
0.0
 11
0.44
 21
-0.025
 31
0.0
  0
HATCH
  5
185
330
183
100
AcDbEntity
  8
0
  6
Continuous
 62
     0
370
    -2
390
5F
100
AcDbHatch
 10
0.0
 20
0.0
 30
0.0
210
0.0
220
0.0
230
1.0
  2
SOLID
 70
     1
 71
     0
 91
        1
 92
        3
 72
     0
 73
     1
 93
        3
 10
0.365
 20
-0.05
 10
0.5
 20
-0.042
 10
0.395
 20
0.045
 97
        0
 75
     0
 76
     1
 98
        0
  0
ENDBLK
  5
187
330
183
100
AcDbEntity
  8
0
100
AcDbBlockEnd
  0
BLOCK
  5
18C
330
188
100
AcDbEntity
  8
0
100
AcDbBlockBegin
  2
CDWK_PTTYP52
 70
     0
 10
0.0
 20
0.0
 30
0.0
  3
CDWK_PTTYP52
  1

  0
LINE
  5
189
330
188
100
AcDbEntity
  8
0
  6
Continuous
 62
     0
370
    -2
390
5F
100
AcDbLine
 10
-0.5
 20
-0.289
 30
0.0
 11
0.5
 21
-0.289
 31
0.0
  0
LINE
  5
18A
330
188
100
AcDbEntity
  8
0
  6
Continuous
 62
     0
370
    -2
390
5F
100
AcDbLine
 10
0.5
 20
-0.289
 30
0.0
 11
0.0
 21
0.577
 31
0.0
  0
LINE
  5
18B
330
188
100
AcDbEntity
  8
0
  6
Continuous
 62
     0
370
    -2
390
5F
100
AcDbLine
 10
0.0
 20
0.577
 30
0.0
 11
-0.5
 21
-0.289
 31
0.0
  0
ENDBLK
  5
18D
330
188
100
AcDbEntity
  8
0
100
AcDbBlockEnd
  0
BLOCK
  5
193
330
18E
100
AcDbEntity
  8
0
100
AcDbBlockBegin
  2
cw-dimension-symbol1
 70
     0
 10
0.0
 20
0.0
 30
0.0
  3
cw-dimension-symbol1
  1

  0
LINE
  5
18F
330
18E
100
AcDbEntity
  8
0
  6
Continuous
 62
     0
370
    -2
390
5F
100
AcDbLine
 10
0.0
 20
0.0
 30
0.0
 11
-1.0
 21
0.25
 31
0.0
  0
LINE
  5
190
330
18E
100
AcDbEntity
  8
0
  6
Continuous
 62
     0
370
    -2
390
5F
100
AcDbLine
 10
0.0
 20
0.0
 30
0.0
 11
-1.0
 21
-0.25
 31
0.0
  0
LINE
  5
191
330
18E
100
AcDbEntity
  8
0
  6
Continuous
 62
     0
370
    -2
390
5F
100
AcDbLine
 10
-1.0
 20
0.25
 30
0.0
 11
-1.0
 21
-0.25
 31
0.0
  0
LINE
  5
192
330
18E
100
AcDbEntity
  8
0
  6
Continuous
 62
     0
370
    -2
390
5F
100
AcDbLine
 10
0.0
 20
0.0
 30
0.0
 11
-1.0
 21
0.0
 31
0.0
  0
ENDBLK
  5
194
330
18E
100
AcDbEntity
  8
0
100
AcDbBlockEnd
  0
BLOCK
  5
198
330
195
100
AcDbEntity
  8
0
100
AcDbBlockBegin
  2
cw-dimension-symbol2
 70
     0
 10
0.0
 20
0.0
 30
0.0
  3
cw-dimension-symbol2
  1

  0
LINE
  5
196
330
195
100
AcDbEntity
  8
0
  6
Continuous
 62
     0
370
    -2
390
5F
100
AcDbLine
 10
-1.0
 20
0.0
 30
0.0
 11
1.0
 21
0.0
 31
0.0
  0
LINE
  5
197
330
195
100
AcDbEntity
  8
0
  6
Continuous
 62
     0
370
    -2
390
5F
100
AcDbLine
 10
-0.5
 20
-0.5
 30
0.0
 11
0.5
 21
0.5
 31
0.0
  0
ENDBLK
  5
199
330
195
100
AcDbEntity
  8
0
100
AcDbBlockEnd
  0
BLOCK
  5
19D
330
19A
100
AcDbEntity
  8
0
100
AcDbBlockBegin
  2
cw-dimension-symbol3
 70
     0
 10
0.0
 20
0.0
 30
0.0
  3
cw-dimension-symbol3
  1

  0
LINE
  5
19B
330
19A
100
AcDbEntity
  8
0
  6
Continuous
 62
     0
370
    -2
390
5F
100
AcDbLine
 10
-1.0
 20
0.0
 30
0.0
 11
1.0
 21
0.0
 31
0.0
  0
CIRCLE
  5
19C
330
19A
100
AcDbEntity
  8
0
  6
Continuous
 62
     0
370
    -2
390
5F
100
AcDbCircle
 10
0.0
 20
0.0
 30
0.0
 40
0.25
  0
ENDBLK
  5
19E
330
19A
100
AcDbEntity
  8
0
100
AcDbBlockEnd
  0
BLOCK
  5
1A4
330
19F
100
AcDbEntity
  8
0
100
AcDbBlockBegin
  2
cw-dimension-symbol5
 70
     0
 10
0.0
 20
0.0
 30
0.0
  3
cw-dimension-symbol5
  1

  0
HATCH
  5
1A0
330
19F
100
AcDbEntity
  8
0
  6
Continuous
 62
     0
370
    -2
390
5F
100
AcDbHatch
 10
0.0
 20
0.0
 30
0.0
210
0.0
220
0.0
230
1.0
  2
SOLID
 70
     1
 71
     0
 91
        1
 92
        3
 72
     0
 73
     1
 93
        3
 10
0.0
 20
0.0
 10
-1.0
 20
0.25
 10
-1.0
 20
-0.25
 97
        0
 75
     0
 76
     1
 98
        0
  0
LINE
  5
1A1
330
19F
100
AcDbEntity
  8
0
  6
Continuous
 62
     0
370
    -2
390
5F
100
AcDbLine
 10
0.0
 20
0.0
 30
0.0
 11
-1.0
 21
0.25
 31
0.0
  0
LINE
  5
1A2
330
19F
100
AcDbEntity
  8
0
  6
Continuous
 62
     0
370
    -2
390
5F
100
AcDbLine
 10
-1.0
 20
0.25
 30
0.0
 11
-1.0
 21
-0.25
 31
0.0
  0
LINE
  5
1A3
330
19F
100
AcDbEntity
  8
0
  6
Continuous
 62
     0
370
    -2
390
5F
100
AcDbLine
 10
-1.0
 20
-0.25
 30
0.0
 11
0.0
 21
0.0
 31
0.0
  0
ENDBLK
  5
1A5
330
19F
100
AcDbEntity
  8
0
100
AcDbBlockEnd
  0
BLOCK
  5
1AA
330
1A6
100
AcDbEntity
  8
0
100
AcDbBlockBegin
  2
cw-dimension-symbol6
 70
     0
 10
0.0
 20
0.0
 30
0.0
  3
cw-dimension-symbol6
  1

  0
LINE
  5
1A7
330
1A6
100
AcDbEntity
  8
0
  6
Continuous
 62
     0
370
    -2
390
5F
100
AcDbLine
 10
0.0
 20
0.0
 30
0.0
 11
-1.0
 21
0.25
 31
0.0
  0
LINE
  5
1A8
330
1A6
100
AcDbEntity
  8
0
  6
Continuous
 62
     0
370
    -2
390
5F
100
AcDbLine
 10
0.0
 20
0.0
 30
0.0
 11
-1.0
 21
-0.25
 31
0.0
  0
LINE
  5
1A9
330
1A6
100
AcDbEntity
  8
0
  6
Continuous
 62
     0
370
    -2
390
5F
100
AcDbLine
 10
0.0
 20
0.0
 30
0.0
 11
-1.0
 21
0.0
 31
0.0
  0
ENDBLK
  5
1AB
330
1A6
100
AcDbEntity
  8
0
100
AcDbBlockEnd
  0
BLOCK
  5
1B0
330
1AC
100
AcDbEntity
  8
0
100
AcDbBlockBegin
  2
cw-dimension-symbol11
 70
     0
 10
0.0
 20
0.0
 30
0.0
  3
cw-dimension-symbol11
  1

  0
LINE
  5
1AD
330
1AC
100
AcDbEntity
  8
0
  6
Continuous
 62
     0
370
    -2
390
5F
100
AcDbLine
 10
-1.0
 20
1.0
 30
0.0
 11
1.0
 21
1.0
 31
0.0
  0
LINE
  5
1AE
330
1AC
100
AcDbEntity
  8
0
  6
Continuous
 62
     0
370
    -2
390
5F
100
AcDbLine
 10
0.0
 20
0.0
 30
0.0
 11
-1.0
 21
1.0
 31
0.0
  0
LINE
  5
1AF
330
1AC
100
AcDbEntity
  8
0
  6
Continuous
 62
     0
370
    -2
390
5F
100
AcDbLine
 10
0.0
 20
0.0
 30
0.0
 11
1.0
 21
1.0
 31
0.0
  0
ENDBLK
  5
1B1
330
1AC
100
AcDbEntity
  8
0
100
AcDbBlockEnd
  0
BLOCK
  5
1B6
330
1B2
100
AcDbEntity
  8
0
100
AcDbBlockBegin
  2
cw-dimension-symbol13
 70
     0
 10
0.0
 20
0.0
 30
0.0
  3
cw-dimension-symbol13
  1

  0
LINE
  5
1B3
330
1B2
100
AcDbEntity
  8
0
  6
Continuous
 62
     0
370
    -2
390
5F
100
AcDbLine
 10
-1.0
 20
-1.0
 30
0.0
 11
1.0
 21
-1.0
 31
0.0
  0
LINE
  5
1B4
330
1B2
100
AcDbEntity
  8
0
  6
Continuous
 62
     0
370
    -2
390
5F
100
AcDbLine
 10
0.0
 20
0.0
 30
0.0
 11
-1.0
 21
-1.0
 31
0.0
  0
LINE
  5
1B5
330
1B2
100
AcDbEntity
  8
0
  6
Continuous
 62
     0
370
    -2
390
5F
100
AcDbLine
 10
0.0
 20
0.0
 30
0.0
 11
1.0
 21
-1.0
 31
0.0
  0
ENDBLK
  5
1B7
330
1B2
100
AcDbEntity
  8
0
100
AcDbBlockEnd
  0
BLOCK
  5
1BD
330
1B8
100
AcDbEntity
  8
0
100
AcDbBlockBegin
  2
cw-dimension-symbol15
 70
     0
 10
0.0
 20
0.0
 30
0.0
  3
cw-dimension-symbol15
  1

  0
HATCH
  5
1B9
330
1B8
100
AcDbEntity
  8
0
  6
Continuous
 62
     0
370
    -2
390
5F
100
AcDbHatch
 10
0.0
 20
0.0
 30
0.0
210
0.0
220
0.0
230
1.0
  2
SOLID
 70
     1
 71
     0
 91
        1
 92
        3
 72
     0
 73
     1
 93
        3
 10
0.0
 20
0.0
 10
-1.0
 20
1.0
 10
1.0
 20
1.0
 97
        0
 75
     0
 76
     1
 98
        0
  0
LINE
  5
1BA
330
1B8
100
AcDbEntity
  8
0
  6
Continuous
 62
     0
370
    -2
390
5F
100
AcDbLine
 10
0.0
 20
0.0
 30
0.0
 11
-1.0
 21
1.0
 31
0.0
  0
LINE
  5
1BB
330
1B8
100
AcDbEntity
  8
0
  6
Continuous
 62
     0
370
    -2
390
5F
100
AcDbLine
 10
-1.0
 20
1.0
 30
0.0
 11
1.0
 21
1.0
 31
0.0
  0
LINE
  5
1BC
330
1B8
100
AcDbEntity
  8
0
  6
Continuous
 62
     0
370
    -2
390
5F
100
AcDbLine
 10
1.0
 20
1.0
 30
0.0
 11
0.0
 21
0.0
 31
0.0
  0
ENDBLK
  5
1BE
330
1B8
100
AcDbEntity
  8
0
100
AcDbBlockEnd
  0
BLOCK
  5
1C4
330
1BF
100
AcDbEntity
  8
0
100
AcDbBlockBegin
  2
cw-dimension-symbol16
 70
     0
 10
0.0
 20
0.0
 30
0.0
  3
cw-dimension-symbol16
  1

  0
HATCH
  5
1C0
330
1BF
100
AcDbEntity
  8
0
  6
Continuous
 62
     0
370
    -2
390
5F
100
AcDbHatch
 10
0.0
 20
0.0
 30
0.0
210
0.0
220
0.0
230
1.0
  2
SOLID
 70
     1
 71
     0
 91
        1
 92
        3
 72
     0
 73
     1
 93
        3
 10
0.0
 20
0.0
 10
-1.0
 20
-1.0
 10
1.0
 20
-1.0
 97
        0
 75
     0
 76
     1
 98
        0
  0
LINE
  5
1C1
330
1BF
100
AcDbEntity
  8
0
  6
Continuous
 62
     0
370
    -2
390
5F
100
AcDbLine
 10
0.0
 20
0.0
 30
0.0
 11
-1.0
 21
-1.0
 31
0.0
  0
LINE
  5
1C2
330
1BF
100
AcDbEntity
  8
0
  6
Continuous
 62
     0
370
    -2
390
5F
100
AcDbLine
 10
-1.0
 20
-1.0
 30
0.0
 11
1.0
 21
-1.0
 31
0.0
  0
LINE
  5
1C3
330
1BF
100
AcDbEntity
  8
0
  6
Continuous
 62
     0
370
    -2
390
5F
100
AcDbLine
 10
1.0
 20
-1.0
 30
0.0
 11
0.0
 21
0.0
 31
0.0
  0
ENDBLK
  5
1C5
330
1BF
100
AcDbEntity
  8
0
100
AcDbBlockEnd
  0
BLOCK
  5
1CB
330
1C6
100
AcDbEntity
  8
0
100
AcDbBlockBegin
  2
cw-dimension-symbol17
 70
     0
 10
0.0
 20
0.0
 30
0.0
  3
cw-dimension-symbol17
  1

  0
LINE
  5
1C7
330
1C6
100
AcDbEntity
  8
0
  6
Continuous
 62
     0
370
    -2
390
5F
100
AcDbLine
 10
0.0
 20
0.0
 30
0.0
 11
1.0
 21
1.0
 31
0.0
  0
LINE
  5
1C8
330
1C6
100
AcDbEntity
  8
0
  6
Continuous
 62
     0
370
    -2
390
5F
100
AcDbLine
 10
1.0
 20
1.0
 30
0.0
 11
-1.0
 21
1.0
 31
0.0
  0
LINE
  5
1C9
330
1C6
100
AcDbEntity
  8
0
  6
Continuous
 62
     0
370
    -2
390
5F
100
AcDbLine
 10
-1.0
 20
1.0
 30
0.0
 11
0.0
 21
0.0
 31
0.0
  0
HATCH
  5
1CA
330
1C6
100
AcDbEntity
  8
0
  6
Continuous
 62
     0
370
    -2
390
5F
100
AcDbHatch
 10
0.0
 20
0.0
 30
0.0
210
0.0
220
0.0
230
1.0
  2
SOLID
 70
     1
 71
     0
 91
        1
 92
        3
 72
     0
 73
     1
 93
        3
 10
0.0
 20
0.0
 10
-1.0
 20
1.0
 10
0.0
 20
1.0
 97
        0
 75
     0
 76
     1
 98
        0
  0
ENDBLK
  5
1CC
330
1C6
100
AcDbEntity
  8
0
100
AcDbBlockEnd
  0
BLOCK
  5
1D2
330
1CD
100
AcDbEntity
  8
0
100
AcDbBlockBegin
  2
cw-dimension-symbol18
 70
     0
 10
0.0
 20
0.0
 30
0.0
  3
cw-dimension-symbol18
  1

  0
LINE
  5
1CE
330
1CD
100
AcDbEntity
  8
0
  6
Continuous
 62
     0
370
    -2
390
5F
100
AcDbLine
 10
0.0
 20
0.0
 30
0.0
 11
1.0
 21
-1.0
 31
0.0
  0
LINE
  5
1CF
330
1CD
100
AcDbEntity
  8
0
  6
Continuous
 62
     0
370
    -2
390
5F
100
AcDbLine
 10
1.0
 20
-1.0
 30
0.0
 11
-1.0
 21
-1.0
 31
0.0
  0
LINE
  5
1D0
330
1CD
100
AcDbEntity
  8
0
  6
Continuous
 62
     0
370
    -2
390
5F
100
AcDbLine
 10
-1.0
 20
-1.0
 30
0.0
 11
0.0
 21
0.0
 31
0.0
  0
HATCH
  5
1D1
330
1CD
100
AcDbEntity
  8
0
  6
Continuous
 62
     0
370
    -2
390
5F
100
AcDbHatch
 10
0.0
 20
0.0
 30
0.0
210
0.0
220
0.0
230
1.0
  2
SOLID
 70
     1
 71
     0
 91
        1
 92
        3
 72
     0
 73
     1
 93
        3
 10
0.0
 20
0.0
 10
-1.0
 20
-1.0
 10
0.0
 20
-1.0
 97
        0
 75
     0
 76
     1
 98
        0
  0
ENDBLK
  5
1D3
330
1CD
100
AcDbEntity
  8
0
100
AcDbBlockEnd
  0
BLOCK
  5
1D5
330
1D4
100
AcDbEntity
  8
0
100
AcDbBlockBegin
  2
cw-dimension-symbol19
 70
     0
 10
0.0
 20
0.0
 30
0.0
  3
cw-dimension-symbol19
  1

  0
ENDBLK
  5
1D6
330
1D4
100
AcDbEntity
  8
0
100
AcDbBlockEnd
  0
BLOCK
  5
1DC
330
1D7
100
AcDbEntity
  8
0
100
AcDbBlockBegin
  2
cw-dimension-symbol20
 70
     0
 10
0.0
 20
0.0
 30
0.0
  3
cw-dimension-symbol20
  1

  0
LINE
  5
1D8
330
1D7
100
AcDbEntity
  8
0
  6
Continuous
 62
     0
370
    -2
390
5F
100
AcDbLine
 10
0.0
 20
0.0
 30
0.0
 11
0.0
 21
2.0
 31
0.0
  0
LINE
  5
1D9
330
1D7
100
AcDbEntity
  8
0
  6
Continuous
 62
     0
370
    -2
390
5F
100
AcDbLine
 10
0.0
 20
0.0
 30
0.0
 11
-1.0
 21
0.33
 31
0.0
  0
LINE
  5
1DA
330
1D7
100
AcDbEntity
  8
0
  6
Continuous
 62
     0
370
    -2
390
5F
100
AcDbLine
 10
0.0
 20
0.0
 30
0.0
 11
1.0
 21
0.33
 31
0.0
  0
LINE
  5
1DB
330
1D7
100
AcDbEntity
  8
0
  6
Continuous
 62
     0
370
    -2
390
5F
100
AcDbLine
 10
0.0
 20
2.0
 30
0.0
 11
4.15
 21
2.0
 31
0.0
  0
ENDBLK
  5
1DD
330
1D7
100
AcDbEntity
  8
0
100
AcDbBlockEnd
  0
BLOCK
  5
1E3
330
1DE
100
AcDbEntity
  8
0
100
AcDbBlockBegin
  2
cw-dimension-symbol21
 70
     0
 10
0.0
 20
0.0
 30
0.0
  3
cw-dimension-symbol21
  1

  0
LINE
  5
1DF
330
1DE
100
AcDbEntity
  8
0
  6
Continuous
 62
     0
370
    -2
390
5F
100
AcDbLine
 10
0.0
 20
0.0
 30
0.0
 11
0.0
 21
-2.0
 31
0.0
  0
LINE
  5
1E0
330
1DE
100
AcDbEntity
  8
0
  6
Continuous
 62
     0
370
    -2
390
5F
100
AcDbLine
 10
0.0
 20
0.0
 30
0.0
 11
-1.0
 21
-0.33
 31
0.0
  0
LINE
  5
1E1
330
1DE
100
AcDbEntity
  8
0
  6
Continuous
 62
     0
370
    -2
390
5F
100
AcDbLine
 10
0.0
 20
0.0
 30
0.0
 11
1.0
 21
-0.33
 31
0.0
  0
LINE
  5
1E2
330
1DE
100
AcDbEntity
  8
0
  6
Continuous
 62
     0
370
    -2
390
5F
100
AcDbLine
 10
0.0
 20
-2.0
 30
0.0
 11
4.15
 21
-2.0
 31
0.0
  0
ENDBLK
  5
1E4
330
1DE
100
AcDbEntity
  8
0
100
AcDbBlockEnd
  0
BLOCK
  5
215
330
1E5
100
AcDbEntity
  8
0
100
AcDbBlockBegin
  2
cw-line-extremity0
 70
     0
 10
0.0
 20
0.0
 30
0.0
  3
cw-line-extremity0
  1

  0
LINE
  5
1E6
330
1E5
100
AcDbEntity
  8
0
  6
Continuous
 62
     0
370
    -2
390
5F
100
AcDbLine
 10
0.0
 20
0.0
 30
0.0
 11
10.0
 21
2.5
 31
0.0
  0
LINE
  5
1E7
330
1E5
100
AcDbEntity
  8
0
  6
Continuous
 62
     0
370
    -2
390
5F
100
AcDbLine
 10
0.0
 20
0.0
 30
0.0
 11
10.0
 21
-2.5
 31
0.0
  0
LINE
  5
1E8
330
1E5
100
AcDbEntity
  8
0
  6
Continuous
 62
     0
370
    -2
390
5F
100
AcDbLine
 10
10.0
 20
2.5
 30
0.0
 11
10.0
 21
-2.5
 31
0.0
  0
ENDBLK
  5
216
330
1E5
100
AcDbEntity
  8
0
100
AcDbBlockEnd
  0
BLOCK
  5
213
330
1E9
100
AcDbEntity
  8
0
100
AcDbBlockBegin
  2
cw-line-extremity2
 70
     0
 10
0.0
 20
0.0
 30
0.0
  3
cw-line-extremity2
  1

  0
HATCH
  5
1EA
330
1E9
100
AcDbEntity
  8
0
  6
Continuous
 62
     0
370
     0
390
5F
100
AcDbHatch
 10
0.0
 20
0.0
 30
0.0
210
0.0
220
0.0
230
1.0
  2
SOLID
 70
     1
 71
     0
 91
        1
 92
        3
 72
     0
 73
     1
 93
        3
 10
0.0
 20
0.0
 10
10.0
 20
2.5
 10
10.0
 20
-2.5
 97
        0
 75
     0
 76
     1
 98
        0
  0
LINE
  5
1EB
330
1E9
100
AcDbEntity
  8
0
  6
Continuous
 62
     0
370
    -2
390
5F
100
AcDbLine
 10
0.0
 20
0.0
 30
0.0
 11
10.0
 21
2.5
 31
0.0
  0
LINE
  5
1EC
330
1E9
100
AcDbEntity
  8
0
  6
Continuous
 62
     0
370
    -2
390
5F
100
AcDbLine
 10
10.0
 20
2.5
 30
0.0
 11
10.0
 21
-2.5
 31
0.0
  0
LINE
  5
1ED
330
1E9
100
AcDbEntity
  8
0
  6
Continuous
 62
     0
370
    -2
390
5F
100
AcDbLine
 10
10.0
 20
-2.5
 30
0.0
 11
0.0
 21
0.0
 31
0.0
  0
ENDBLK
  5
214
330
1E9
100
AcDbEntity
  8
0
100
AcDbBlockEnd
  0
BLOCK
  5
211
330
1EE
100
AcDbEntity
  8
0
100
AcDbBlockBegin
  2
cw-line-extremity3
 70
     0
 10
0.0
 20
0.0
 30
0.0
  3
cw-line-extremity3
  1

  0
HATCH
  5
1EF
330
1EE
100
AcDbEntity
  8
0
  6
Continuous
 62
     0
370
     0
390
5F
100
AcDbHatch
 10
0.0
 20
0.0
 30
0.0
210
0.0
220
0.0
230
1.0
  2
SOLID
 70
     1
 71
     0
 91
        1
 92
        3
 72
     0
 73
     1
 93
        3
 10
0.0
 20
0.0
 10
10.0
 20
2.5
 10
10.0
 20
-2.5
 97
        0
 75
     0
 76
     1
 98
        0
  0
LINE
  5
1F0
330
1EE
100
AcDbEntity
  8
0
  6
Continuous
 62
     0
370
    -2
390
5F
100
AcDbLine
 10
0.0
 20
0.0
 30
0.0
 11
10.0
 21
2.5
 31
0.0
  0
LINE
  5
1F1
330
1EE
100
AcDbEntity
  8
0
  6
Continuous
 62
     0
370
    -2
390
5F
100
AcDbLine
 10
10.0
 20
2.5
 30
0.0
 11
10.0
 21
-2.5
 31
0.0
  0
LINE
  5
1F2
330
1EE
100
AcDbEntity
  8
0
  6
Continuous
 62
     0
370
    -2
390
5F
100
AcDbLine
 10
10.0
 20
-2.5
 30
0.0
 11
0.0
 21
0.0
 31
0.0
  0
ENDBLK
  5
212
330
1EE
100
AcDbEntity
  8
0
100
AcDbBlockEnd
  0
BLOCK
  5
20F
330
1F3
100
AcDbEntity
  8
0
100
AcDbBlockBegin
  2
cw-line-extremity301
 70
     0
 10
0.0
 20
0.0
 30
0.0
  3
cw-line-extremity301
  1

  0
LINE
  5
1F4
330
1F3
100
AcDbEntity
  8
0
  6
Continuous
 62
     0
370
    -2
390
5F
100
AcDbLine
 10
0.0
 20
6.66665
 30
0.0
 11
0.0
 21
-6.66665
 31
0.0
  0
ENDBLK
  5
210
330
1F3
100
AcDbEntity
  8
0
100
AcDbBlockEnd
  0
BLOCK
  5
20D
330
1F5
100
AcDbEntity
  8
0
100
AcDbBlockBegin
  2
cw-line-extremity4
 70
     0
 10
0.0
 20
0.0
 30
0.0
  3
cw-line-extremity4
  1

  0
HATCH
  5
1F6
330
1F5
100
AcDbEntity
  8
0
  6
Continuous
 62
     0
370
     5
390
5F
100
AcDbHatch
 10
0.0
 20
0.0
 30
0.0
210
0.0
220
0.0
230
1.0
  2
SOLID
 70
     1
 71
     0
 91
        1
 92
        1
 93
        1
 72
     2
 10
0.0
 20
0.0
 40
2.5
 50
0.0
 51
360.0
 73
     1
 97
        0
 75
     0
 76
     1
 98
        0
  0
ENDBLK
  5
20E
330
1F5
100
AcDbEntity
  8
0
100
AcDbBlockEnd
  0
BLOCK
  5
20B
330
1F7
100
AcDbEntity
  8
0
100
AcDbBlockBegin
  2
cw-line-extremity5
 70
     0
 10
0.0
 20
0.0
 30
0.0
  3
cw-line-extremity5
  1

  0
LINE
  5
1F8
330
1F7
100
AcDbEntity
  8
0
  6
Continuous
 62
     0
370
    -2
390
5F
100
AcDbLine
 10
0.0
 20
0.0
 30
0.0
 11
-2.5
 21
0.0
 31
0.0
  0
ENDBLK
  5
20C
330
1F7
100
AcDbEntity
  8
0
100
AcDbBlockEnd
  0
BLOCK
  5
209
330
1F9
100
AcDbEntity
  8
0
100
AcDbBlockBegin
  2
cw-line-extremity6
 70
     0
 10
0.0
 20
0.0
 30
0.0
  3
cw-line-extremity6
  1

  0
LINE
  5
1FA
330
1F9
100
AcDbEntity
  8
0
  6
Continuous
 62
     0
370
    18
390
5F
100
AcDbLine
 10
0.0
 20
2.5
 30
0.0
 11
0.0
 21
-2.5
 31
0.0
  0
ENDBLK
  5
20A
330
1F9
100
AcDbEntity
  8
0
100
AcDbBlockEnd
  0
BLOCK
  5
207
330
1FB
100
AcDbEntity
  8
0
100
AcDbBlockBegin
  2
cw-line-extremity9
 70
     0
 10
0.0
 20
0.0
 30
0.0
  3
cw-line-extremity9
  1

  0
LINE
  5
1FC
330
1FB
100
AcDbEntity
  8
0
  6
Continuous
 62
     0
370
    18
390
5F
100
AcDbLine
 10
-2.5
 20
-2.5
 30
0.0
 11
2.5
 21
2.5
 31
0.0
  0
ENDBLK
  5
208
330
1FB
100
AcDbEntity
  8
0
100
AcDbBlockEnd
  0
BLOCK
  5
205
330
1FD
100
AcDbEntity
  8
0
100
AcDbBlockBegin
  2
cw-line-extremity10
 70
     0
 10
0.0
 20
0.0
 30
0.0
  3
cw-line-extremity10
  1

  0
CIRCLE
  5
1FE
330
1FD
100
AcDbEntity
  8
0
  6
Continuous
 62
     0
370
    -2
390
5F
100
AcDbCircle
 10
0.0
 20
0.0
 30
0.0
 40
2.5
  0
ENDBLK
  5
206
330
1FD
100
AcDbEntity
  8
0
100
AcDbBlockEnd
  0
BLOCK
  5
203
330
1FF
100
AcDbEntity
  8
0
100
AcDbBlockBegin
  2
cw-line-extremity1
 70
     0
 10
0.0
 20
0.0
 30
0.0
  3
cw-line-extremity1
  1

  0
LINE
  5
200
330
1FF
100
AcDbEntity
  8
0
  6
Continuous
 62
     0
370
    -2
390
5F
100
AcDbLine
 10
0.0
 20
0.0
 30
0.0
 11
0.0
 21
2.5
 31
0.0
  0
LINE
  5
201
330
1FF
100
AcDbEntity
  8
0
  6
Continuous
 62
     0
370
    -2
390
5F
100
AcDbLine
 10
0.0
 20
2.5
 30
0.0
 11
1.25
 21
3.75
 31
0.0
  0
LINE
  5
202
330
1FF
100
AcDbEntity
  8
0
  6
Continuous
 62
     0
370
    -2
390
5F
100
AcDbLine
 10
1.25
 20
3.75
 30
0.0
 11
3.75
 21
3.75
 31
0.0
  0
ENDBLK
  5
204
330
1FF
100
AcDbEntity
  8
0
100
AcDbBlockEnd
  0
BLOCK
  5
1C
330
1B
100
AcDbEntity
  8
0
100
AcDbBlockBegin
  2
*Paper_Space69
 70
     0
 10
0.0
 20
0.0
 30
0.0
  3
*Paper_Space69
  1

  0
ENDBLK
  5
1D
330
1B
100
AcDbEntity
  8
0
100
AcDbBlockEnd
  0
BLOCK
  5
514
330
505
100
AcDbEntity
  8
0
100
AcDbBlockBegin
  2
DIM83
 70
     0
 10
0.0
 20
0.0
 30
0.0
  3
DIM83
  1

  0
LINE
  5
506
330
505
100
AcDbEntity
  8
Ech.1_5
  6
Continuous
 62
   200
420
 11010303
370
    15
390
5F
100
AcDbLine
 10
20655.31537404251
 20
887.0527373447259
 30
0.0
 11
20674.51537404251
 21
887.0527373447259
 31
0.0
  0
LINE
  5
507
330
505
100
AcDbEntity
  8
Ech.1_5
  6
Continuous
 62
   200
420
 11010303
370
    15
390
5F
100
AcDbLine
 10
20669.51537404251
 20
887.0527373447259
 30
0.0
 11
20669.51537404251
 21
892.0527373447259
 31
0.0
  0
LINE
  5
508
330
505
100
AcDbEntity
  8
Ech.1_5
  6
Continuous
 62
   200
420
 11010303
370
    25
390
5F
100
AcDbLine
 10
20667.01537404251
 20
889.5527373447259
 30
0.0
 11
20672.01537404251
 21
884.5527373447259
 31
0.0
  0
LINE
  5
509
330
505
100
AcDbEntity
  8
Ech.1_5
  6
Continuous
 62
   200
420
 11010303
370
    25
390
5F
100
AcDbLine
 10
20667.01537404251
 20
889.5027373447259
 30
0.0
 11
20671.96537404251
 21
884.5527373447259
 31
0.0
  0
LINE
  5
50A
330
505
100
AcDbEntity
  8
Ech.1_5
  6
Continuous
 62
   200
420
 11010303
370
    25
390
5F
100
AcDbLine
 10
20667.06537404251
 20
889.5527373447259
 30
0.0
 11
20672.01537404251
 21
884.6027373447258
 31
0.0
  0
LINE
  5
50B
330
505
100
AcDbEntity
  8
Ech.1_5
  6
Continuous
 62
   200
420
 11010303
370
    25
390
5F
100
AcDbLine
 10
20667.01537404251
 20
889.5527373447259
 30
0.0
 11
20672.01537404251
 21
884.5527373447259
 31
0.0
  0
LINE
  5
50C
330
505
100
AcDbEntity
  8
Ech.1_5
  6
Continuous
 62
   200
420
 11010303
370
    25
390
5F
100
AcDbLine
 10
20667.06537404251
 20
889.5527373447259
 30
0.0
 11
20672.01537404251
 21
884.5527373447259
 31
0.0
  0
LINE
  5
50D
330
505
100
AcDbEntity
  8
Ech.1_5
  6
Continuous
 62
   200
420
 11010303
370
    15
390
5F
100
AcDbLine
 10
20669.51537404251
 20
887.0527373447259
 30
0.0
 11
20669.51537404251
 21
858.0527373447259
 31
0.0
  0
LINE
  5
50E
330
505
100
AcDbEntity
  8
Ech.1_5
  6
Continuous
 62
   200
420
 11010303
370
    25
390
5F
100
AcDbLine
 10
20672.01537404251
 20
860.5527373447259
 30
0.0
 11
20667.01537404251
 21
865.5527373447259
 31
0.0
  0
LINE
  5
50F
330
505
100
AcDbEntity
  8
Ech.1_5
  6
Continuous
 62
   200
420
 11010303
370
    25
390
5F
100
AcDbLine
 10
20672.01537404251
 20
860.6027373447258
 30
0.0
 11
20667.06537404251
 21
865.5527373447259
 31
0.0
  0
LINE
  5
510
330
505
100
AcDbEntity
  8
Ech.1_5
  6
Continuous
 62
   200
420
 11010303
370
    25
390
5F
100
AcDbLine
 10
20671.96537404251
 20
860.5527373447259
 30
0.0
 11
20667.01537404251
 21
865.5027373447259
 31
0.0
  0
LINE
  5
511
330
505
100
AcDbEntity
  8
Ech.1_5
  6
Continuous
 62
   200
420
 11010303
370
    25
390
5F
100
AcDbLine
 10
20672.01537404251
 20
860.5527373447259
 30
0.0
 11
20667.06537404251
 21
865.5527373447259
 31
0.0
  0
LINE
  5
512
330
505
100
AcDbEntity
  8
Ech.1_5
  6
Continuous
 62
   200
420
 11010303
370
    25
390
5F
100
AcDbLine
 10
20672.01537404251
 20
860.5527373447259
 30
0.0
 11
20667.01537404251
 21
865.5027373447259
 31
0.0
  0
LINE
  5
513
330
505
100
AcDbEntity
  8
Ech.1_5
  6
Continuous
 62
   200
420
 11010303
370
    15
390
5F
100
AcDbLine
 10
20647.81537404251
 20
863.0527373447259
 30
0.0
 11
20674.51537404251
 21
863.0527373447259
 31
0.0
  0
ENDBLK
  5
515
330
505
100
AcDbEntity
  8
0
100
AcDbBlockEnd
  0
BLOCK
  5
528
330
519
100
AcDbEntity
  8
0
100
AcDbBlockBegin
  2
DIM84
 70
     0
 10
0.0
 20
0.0
 30
0.0
  3
DIM84
  1

  0
LINE
  5
51A
330
519
100
AcDbEntity
  8
Ech.1_5
  6
Continuous
 62
   200
420
 11010303
370
    15
390
5F
100
AcDbLine
 10
20647.81537404251
 20
863.0527373446967
 30
0.0
 11
20674.51537404251
 21
863.0527373446967
 31
0.0
  0
LINE
  5
51B
330
519
100
AcDbEntity
  8
Ech.1_5
  6
Continuous
 62
   200
420
 11010303
370
    15
390
5F
100
AcDbLine
 10
20669.51537404251
 20
863.0527373446967
 30
0.0
 11
20669.51537404251
 21
868.0527373446967
 31
0.0
  0
LINE
  5
51C
330
519
100
AcDbEntity
  8
Ech.1_5
  6
Continuous
 62
   200
420
 11010303
370
    25
390
5F
100
AcDbLine
 10
20667.01537404251
 20
865.5527373446967
 30
0.0
 11
20672.01537404251
 21
860.5527373446967
 31
0.0
  0
LINE
  5
51D
330
519
100
AcDbEntity
  8
Ech.1_5
  6
Continuous
 62
   200
420
 11010303
370
    25
390
5F
100
AcDbLine
 10
20667.01537404251
 20
865.5027373446967
 30
0.0
 11
20671.96537404251
 21
860.5527373446967
 31
0.0
  0
LINE
  5
51E
330
519
100
AcDbEntity
  8
Ech.1_5
  6
Continuous
 62
   200
420
 11010303
370
    25
390
5F
100
AcDbLine
 10
20667.06537404251
 20
865.5527373446967
 30
0.0
 11
20672.01537404251
 21
860.6027373446966
 31
0.0
  0
LINE
  5
51F
330
519
100
AcDbEntity
  8
Ech.1_5
  6
Continuous
 62
   200
420
 11010303
370
    25
390
5F
100
AcDbLine
 10
20667.01537404251
 20
865.5527373446967
 30
0.0
 11
20672.01537404251
 21
860.5527373446967
 31
0.0
  0
LINE
  5
520
330
519
100
AcDbEntity
  8
Ech.1_5
  6
Continuous
 62
   200
420
 11010303
370
    25
390
5F
100
AcDbLine
 10
20667.06537404251
 20
865.5527373446967
 30
0.0
 11
20672.01537404251
 21
860.5527373446967
 31
0.0
  0
LINE
  5
521
330
519
100
AcDbEntity
  8
Ech.1_5
  6
Continuous
 62
   200
420
 11010303
370
    15
390
5F
100
AcDbLine
 10
20669.51537404251
 20
863.0527373446967
 30
0.0
 11
20669.51537404251
 21
812.0527373446967
 31
0.0
  0
LINE
  5
522
330
519
100
AcDbEntity
  8
Ech.1_5
  6
Continuous
 62
   200
420
 11010303
370
    25
390
5F
100
AcDbLine
 10
20672.01537404251
 20
814.5527373446967
 30
0.0
 11
20667.01537404251
 21
819.5527373446967
 31
0.0
  0
LINE
  5
523
330
519
100
AcDbEntity
  8
Ech.1_5
  6
Continuous
 62
   200
420
 11010303
370
    25
390
5F
100
AcDbLine
 10
20672.01537404251
 20
814.6027373446966
 30
0.0
 11
20667.06537404251
 21
819.5527373446967
 31
0.0
  0
LINE
  5
524
330
519
100
AcDbEntity
  8
Ech.1_5
  6
Continuous
 62
   200
420
 11010303
370
    25
390
5F
100
AcDbLine
 10
20671.96537404251
 20
814.5527373446967
 30
0.0
 11
20667.01537404251
 21
819.5027373446967
 31
0.0
  0
LINE
  5
525
330
519
100
AcDbEntity
  8
Ech.1_5
  6
Continuous
 62
   200
420
 11010303
370
    25
390
5F
100
AcDbLine
 10
20672.01537404251
 20
814.5527373446967
 30
0.0
 11
20667.06537404251
 21
819.5527373446967
 31
0.0
  0
LINE
  5
526
330
519
100
AcDbEntity
  8
Ech.1_5
  6
Continuous
 62
   200
420
 11010303
370
    25
390
5F
100
AcDbLine
 10
20672.01537404251
 20
814.5527373446967
 30
0.0
 11
20667.01537404251
 21
819.5027373446967
 31
0.0
  0
LINE
  5
527
330
519
100
AcDbEntity
  8
Ech.1_5
  6
Continuous
 62
   200
420
 11010303
370
    15
390
5F
100
AcDbLine
 10
20532.71537404251
 20
817.0527373446967
 30
0.0
 11
20674.51537404251
 21
817.0527373446967
 31
0.0
  0
ENDBLK
  5
529
330
519
100
AcDbEntity
  8
0
100
AcDbBlockEnd
  0
ENDSEC
  0
SECTION
  2
ENTITIES
  0
HATCH
  5
220
102
{ACAD_REACTORS
330
221
102
}
330
1F
100
AcDbEntity
  8
Ech.1_5
  6
Continuous
 62
   254
420
 15326711
440
 33554687
370
     5
390
5F
100
AcDbHatch
 10
0.0
 20
0.0
 30
0.0
210
0.0
220
0.0
230
1.0
  2
SOLID
 70
     1
 71
     0
 91
        1
 92
        3
 72
     1
 73
     1
 93
        5
 10
21056.51990250847
 20
263.0468856332591
 42
0.0
 10
21056.51990250847
 20
141.2641136264428
 42
0.3848554301480452
 10
21121.96167632975
 20
141.2641136264428
 42
-0.5310354522346789
 10
21176.51990250847
 20
141.2641136264428
 42
0.0
 10
21176.51990250847
 20
263.0468856332591
 42
0.0
 97
        0
 75
     0
 76
     1
 98
        0
  0
POLYLINE
  5
222
102
{ACAD_REACTORS
330
221
102
}
330
1F
100
AcDbEntity
  8
Ech.1_5
  6
Continuous
 62
   190
370
    20
390
5F
100
AcDb3dPolyline
 66
     1
 10
0.0
 20
0.0
 30
0.0
 70
     8
  0
VERTEX
  5
223
330
222
100
AcDbEntity
  8
Ech.1_5
  6
Continuous
 62
   190
370
    20
100
AcDbVertex
100
AcDb3dPolylineVertex
 10
21056.51990250847
 20
263.0468856332591
 30
59.9999999999952
 70
    32
  0
VERTEX
  5
224
330
222
100
AcDbEntity
  8
Ech.1_5
  6
Continuous
 62
   190
370
    20
100
AcDbVertex
100
AcDb3dPolylineVertex
 10
21056.51990250847
 20
141.2641136264428
 30
59.99999999999518
 70
    32
  0
VERTEX
  5
225
330
222
100
AcDbEntity
  8
Ech.1_5
  6
Continuous
 62
   190
370
    20
100
AcDbVertex
100
AcDb3dPolylineVertex
 10
21059.58215642536
 20
138.7163460526839
 30
59.99999999999518
 70
    32
  0
VERTEX
  5
226
330
222
100
AcDbEntity
  8
Ech.1_5
  6
Continuous
 62
   190
370
    20
100
AcDbVertex
100
AcDb3dPolylineVertex
 10
21062.8419811665
 20
136.4267912229212
 30
59.99999999999518
 70
    32
  0
VERTEX
  5
227
330
222
100
AcDbEntity
  8
Ech.1_5
  6
Continuous
 62
   190
370
    20
100
AcDbVertex
100
AcDb3dPolylineVertex
 10
21066.2776614269
 20
134.4107009943446
 30
59.99999999999517
 70
    32
  0
VERTEX
  5
228
330
222
100
AcDbEntity
  8
Ech.1_5
  6
Continuous
 62
   190
370
    20
100
AcDbVertex
100
AcDb3dPolylineVertex
 10
21069.86631044096
 20
132.6815055411734
 30
59.99999999999517
 70
    32
  0
VERTEX
  5
229
330
222
100
AcDbEntity
  8
Ech.1_5
  6
Continuous
 62
   190
370
    20
100
AcDbVertex
100
AcDb3dPolylineVertex
 10
21073.58402244258
 20
131.2507238896229
 30
59.99999999999517
 70
    32
  0
VERTEX
  5
22A
330
222
100
AcDbEntity
  8
Ech.1_5
  6
Continuous
 62
   190
370
    20
100
AcDbVertex
100
AcDb3dPolylineVertex
 10
21077.40603191324
 20
130.127887183973
 30
59.99999999999518
 70
    32
  0
VERTEX
  5
22B
330
222
100
AcDbEntity
  8
Ech.1_5
  6
Continuous
 62
   190
370
    20
100
AcDbVertex
100
AcDb3dPolylineVertex
 10
21081.30687855741
 20
129.3204751949021
 30
59.99999999999518
 70
    32
  0
VERTEX
  5
22C
330
222
100
AcDbEntity
  8
Ech.1_5
  6
Continuous
 62
   190
370
    20
100
AcDbVertex
100
AcDb3dPolylineVertex
 10
21085.26057690613
 20
128.833866493035
 30
59.99999999999518
 70
    32
  0
VERTEX
  5
22D
330
222
100
AcDbEntity
  8
Ech.1_5
  6
Continuous
 62
   190
370
    20
100
AcDbVertex
100
AcDb3dPolylineVertex
 10
21089.24078941911
 20
128.671302619623
 30
59.99999999999517
 70
    32
  0
VERTEX
  5
22E
330
222
100
AcDbEntity
  8
Ech.1_5
  6
Continuous
 62
   190
370
    20
100
AcDbVertex
100
AcDb3dPolylineVertex
 10
21093.22100193209
 20
128.833866493035
 30
59.99999999999517
 70
    32
  0
VERTEX
  5
22F
330
222
100
AcDbEntity
  8
Ech.1_5
  6
Continuous
 62
   190
370
    20
100
AcDbVertex
100
AcDb3dPolylineVertex
 10
21097.17470028081
 20
129.3204751949022
 30
59.99999999999517
 70
    32
  0
VERTEX
  5
230
330
222
100
AcDbEntity
  8
Ech.1_5
  6
Continuous
 62
   190
370
    20
100
AcDbVertex
100
AcDb3dPolylineVertex
 10
21101.07554692498
 20
130.127887183973
 30
59.99999999999517
 70
    32
  0
VERTEX
  5
231
330
222
100
AcDbEntity
  8
Ech.1_5
  6
Continuous
 62
   190
370
    20
100
AcDbVertex
100
AcDb3dPolylineVertex
 10
21104.89755639565
 20
131.2507238896229
 30
59.99999999999517
 70
    32
  0
VERTEX
  5
232
330
222
100
AcDbEntity
  8
Ech.1_5
  6
Continuous
 62
   190
370
    20
100
AcDbVertex
100
AcDb3dPolylineVertex
 10
21108.61526839727
 20
132.6815055411734
 30
59.99999999999518
 70
    32
  0
VERTEX
  5
233
330
222
100
AcDbEntity
  8
Ech.1_5
  6
Continuous
 62
   190
370
    20
100
AcDbVertex
100
AcDb3dPolylineVertex
 10
21112.20391741133
 20
134.4107009943446
 30
59.99999999999517
 70
    32
  0
VERTEX
  5
234
330
222
100
AcDbEntity
  8
Ech.1_5
  6
Continuous
 62
   190
370
    20
100
AcDbVertex
100
AcDb3dPolylineVertex
 10
21115.63959767172
 20
136.4267912229212
 30
59.99999999999517
 70
    32
  0
VERTEX
  5
235
330
222
100
AcDbEntity
  8
Ech.1_5
  6
Continuous
 62
   190
370
    20
100
AcDbVertex
100
AcDb3dPolylineVertex
 10
21118.89942241286
 20
138.716346052684
 30
59.99999999999517
 70
    32
  0
VERTEX
  5
236
330
222
100
AcDbEntity
  8
Ech.1_5
  6
Continuous
 62
   190
370
    20
100
AcDbVertex
100
AcDb3dPolylineVertex
 10
21121.96167632975
 20
141.2641136264428
 30
59.99999999999517
 70
    32
  0
VERTEX
  5
237
330
222
100
AcDbEntity
  8
Ech.1_5
  6
Continuous
 62
   190
370
    20
100
AcDbVertex
100
AcDb3dPolylineVertex
 10
21123.79183895767
 20
143.7173176269759
 30
59.99999999999517
 70
    32
  0
VERTEX
  5
238
330
222
100
AcDbEntity
  8
Ech.1_5
  6
Continuous
 62
   190
370
    20
100
AcDbVertex
100
AcDb3dPolylineVertex
 10
21125.84187589129
 20
145.9899930731452
 30
59.99999999999517
 70
    32
  0
VERTEX
  5
239
330
222
100
AcDbEntity
  8
Ech.1_5
  6
Continuous
 62
   190
370
    20
100
AcDbVertex
100
AcDb3dPolylineVertex
 10
21128.09407518419
 20
148.0625044622376
 30
59.99999999999517
 70
    32
  0
VERTEX
  5
23A
330
222
100
AcDbEntity
  8
Ech.1_5
  6
Continuous
 62
   190
370
    20
100
AcDbVertex
100
AcDb3dPolylineVertex
 10
21130.52897824388
 20
149.9169456726061
 30
59.99999999999517
 70
    32
  0
VERTEX
  5
23B
330
222
100
AcDbEntity
  8
Ech.1_5
  6
Continuous
 62
   190
370
    20
100
AcDbVertex
100
AcDb3dPolylineVertex
 10
21133.12554795058
 20
151.5372946693054
 30
59.99999999999516
 70
    32
  0
VERTEX
  5
23C
330
222
100
AcDbEntity
  8
Ech.1_5
  6
Continuous
 62
   190
370
    20
100
AcDbVertex
100
AcDb3dPolylineVertex
 10
21135.86135041403
 20
152.9095519315617
 30
59.99999999999517
 70
    32
  0
VERTEX
  5
23D
330
222
100
AcDbEntity
  8
Ech.1_5
  6
Continuous
 62
   190
370
    20
100
AcDbVertex
100
AcDb3dPolylineVertex
 10
21138.71274879829
 20
154.021861406087
 30
59.99999999999517
 70
    32
  0
VERTEX
  5
23E
330
222
100
AcDbEntity
  8
Ech.1_5
  6
Continuous
 62
   190
370
    20
100
AcDbVertex
100
AcDb3dPolylineVertex
 10
21141.65510753965
 20
154.8646129412244
 30
59.99999999999517
 70
    32
  0
VERTEX
  5
23F
330
222
100
AcDbEntity
  8
Ech.1_5
  6
Continuous
 62
   190
370
    20
100
AcDbVertex
100
AcDb3dPolylineVertex
 10
21144.66300519347
 20
155.430525316911
 30
59.99999999999516
 70
    32
  0
VERTEX
  5
240
330
222
100
AcDbEntity
  8
Ech.1_5
  6
Continuous
 62
   190
370
    20
100
AcDbVertex
100
AcDb3dPolylineVertex
 10
21147.71045407083
 20
155.7147091530962
 30
59.99999999999517
 70
    32
  0
VERTEX
  5
241
330
222
100
AcDbEntity
  8
Ech.1_5
  6
Continuous
 62
   190
370
    20
100
AcDbVertex
100
AcDb3dPolylineVertex
 10
21150.7711247674
 20
155.7147091530962
 30
59.99999999999517
 70
    32
  0
VERTEX
  5
242
330
222
100
AcDbEntity
  8
Ech.1_5
  6
Continuous
 62
   190
370
    20
100
AcDbVertex
100
AcDb3dPolylineVertex
 10
21153.81857364475
 20
155.430525316911
 30
59.99999999999517
 70
    32
  0
VERTEX
  5
243
330
222
100
AcDbEntity
  8
Ech.1_5
  6
Continuous
 62
   190
370
    20
100
AcDbVertex
100
AcDb3dPolylineVertex
 10
21156.82647129858
 20
154.8646129412244
 30
59.99999999999517
 70
    32
  0
VERTEX
  5
244
330
222
100
AcDbEntity
  8
Ech.1_5
  6
Continuous
 62
   190
370
    20
100
AcDbVertex
100
AcDb3dPolylineVertex
 10
21159.76883003994
 20
154.021861406087
 30
59.99999999999517
 70
    32
  0
VERTEX
  5
245
330
222
100
AcDbEntity
  8
Ech.1_5
  6
Continuous
 62
   190
370
    20
100
AcDbVertex
100
AcDb3dPolylineVertex
 10
21162.62022842419
 20
152.9095519315617
 30
59.99999999999517
 70
    32
  0
VERTEX
  5
246
330
222
100
AcDbEntity
  8
Ech.1_5
  6
Continuous
 62
   190
370
    20
100
AcDbVertex
100
AcDb3dPolylineVertex
 10
21165.35603088764
 20
151.5372946693054
 30
59.99999999999517
 70
    32
  0
VERTEX
  5
247
330
222
100
AcDbEntity
  8
Ech.1_5
  6
Continuous
 62
   190
370
    20
100
AcDbVertex
100
AcDb3dPolylineVertex
 10
21167.95260059434
 20
149.9169456726061
 30
59.99999999999517
 70
    32
  0
VERTEX
  5
248
330
222
100
AcDbEntity
  8
Ech.1_5
  6
Continuous
 62
   190
370
    20
100
AcDbVertex
100
AcDb3dPolylineVertex
 10
21170.38750365404
 20
148.0625044622377
 30
59.99999999999517
 70
    32
  0
VERTEX
  5
249
330
222
100
AcDbEntity
  8
Ech.1_5
  6
Continuous
 62
   190
370
    20
100
AcDbVertex
100
AcDb3dPolylineVertex
 10
21172.63970294694
 20
145.9899930731452
 30
59.99999999999517
 70
    32
  0
VERTEX
  5
24A
330
222
100
AcDbEntity
  8
Ech.1_5
  6
Continuous
 62
   190
370
    20
100
AcDbVertex
100
AcDb3dPolylineVertex
 10
21174.68973988056
 20
143.717317626976
 30
59.99999999999517
 70
    32
  0
VERTEX
  5
24B
330
222
100
AcDbEntity
  8
Ech.1_5
  6
Continuous
 62
   190
370
    20
100
AcDbVertex
100
AcDb3dPolylineVertex
 10
21176.51990250847
 20
141.2641136264428
 30
59.99999999999517
 70
    32
  0
VERTEX
  5
24C
330
222
100
AcDbEntity
  8
Ech.1_5
  6
Continuous
 62
   190
370
    20
100
AcDbVertex
100
AcDb3dPolylineVertex
 10
21176.51990250847
 20
263.0468856332591
 30
59.99999999999517
 70
    32
  0
VERTEX
  5
24D
330
222
100
AcDbEntity
  8
Ech.1_5
  6
Continuous
 62
   190
370
    20
100
AcDbVertex
100
AcDb3dPolylineVertex
 10
21056.51990250847
 20
263.0468856332591
 30
59.9999999999952
 70
    32
  0
SEQEND
  5
24E
330
222
100
AcDbEntity
  8
Ech.1_5
  6
Continuous
 62
   190
370
    20
390
5F
  0
HATCH
  5
24F
102
{ACAD_REACTORS
330
250
102
}
330
1F
100
AcDbEntity
  8
Ech.1_5
  6
Continuous
 62
   254
420
 15326711
440
 33554687
370
     5
390
5F
100
AcDbHatch
 10
0.0
 20
0.0
 30
0.0
210
0.0
220
0.0
230
1.0
  2
SOLID
 70
     1
 71
     0
 91
        1
 92
        3
 72
     1
 73
     1
 93
        5
 10
21042.88541968541
 20
526.9408423101995
 42
0.0
 10
21042.88541968541
 20
405.1580703033833
 42
0.3848554301480452
 10
21108.32719350669
 20
405.1580703033833
 42
-0.53103545223468
 10
21162.88541968541
 20
405.1580703033833
 42
0.0
 10
21162.88541968541
 20
526.9408423101995
 42
0.0
 97
        0
 75
     0
 76
     1
 98
        0
  0
POLYLINE
  5
251
102
{ACAD_REACTORS
330
250
102
}
330
1F
100
AcDbEntity
  8
Ech.1_5
  6
Continuous
 62
   190
370
    20
390
5F
100
AcDb3dPolyline
 66
     1
 10
0.0
 20
0.0
 30
0.0
 70
     8
  0
VERTEX
  5
252
330
251
100
AcDbEntity
  8
Ech.1_5
  6
Continuous
 62
   190
370
    20
100
AcDbVertex
100
AcDb3dPolylineVertex
 10
21042.88541968541
 20
526.9408423101995
 30
59.9999999999952
 70
    32
  0
VERTEX
  5
253
330
251
100
AcDbEntity
  8
Ech.1_5
  6
Continuous
 62
   190
370
    20
100
AcDbVertex
100
AcDb3dPolylineVertex
 10
21042.88541968541
 20
405.1580703033833
 30
59.99999999999518
 70
    32
  0
VERTEX
  5
254
330
251
100
AcDbEntity
  8
Ech.1_5
  6
Continuous
 62
   190
370
    20
100
AcDbVertex
100
AcDb3dPolylineVertex
 10
21045.9476736023
 20
402.6103027296244
 30
59.99999999999518
 70
    32
  0
VERTEX
  5
255
330
251
100
AcDbEntity
  8
Ech.1_5
  6
Continuous
 62
   190
370
    20
100
AcDbVertex
100
AcDb3dPolylineVertex
 10
21049.20749834344
 20
400.3207478998617
 30
59.99999999999518
 70
    32
  0
VERTEX
  5
256
330
251
100
AcDbEntity
  8
Ech.1_5
  6
Continuous
 62
   190
370
    20
100
AcDbVertex
100
AcDb3dPolylineVertex
 10
21052.64317860383
 20
398.304657671285
 30
59.99999999999517
 70
    32
  0
VERTEX
  5
257
330
251
100
AcDbEntity
  8
Ech.1_5
  6
Continuous
 62
   190
370
    20
100
AcDbVertex
100
AcDb3dPolylineVertex
 10
21056.23182761789
 20
396.5754622181138
 30
59.99999999999517
 70
    32
  0
VERTEX
  5
258
330
251
100
AcDbEntity
  8
Ech.1_5
  6
Continuous
 62
   190
370
    20
100
AcDbVertex
100
AcDb3dPolylineVertex
 10
21059.94953961951
 20
395.1446805665633
 30
59.99999999999517
 70
    32
  0
VERTEX
  5
259
330
251
100
AcDbEntity
  8
Ech.1_5
  6
Continuous
 62
   190
370
    20
100
AcDbVertex
100
AcDb3dPolylineVertex
 10
21063.77154909018
 20
394.0218438609134
 30
59.99999999999518
 70
    32
  0
VERTEX
  5
25A
330
251
100
AcDbEntity
  8
Ech.1_5
  6
Continuous
 62
   190
370
    20
100
AcDbVertex
100
AcDb3dPolylineVertex
 10
21067.67239573435
 20
393.2144318718426
 30
59.99999999999518
 70
    32
  0
VERTEX
  5
25B
330
251
100
AcDbEntity
  8
Ech.1_5
  6
Continuous
 62
   190
370
    20
100
AcDbVertex
100
AcDb3dPolylineVertex
 10
21071.62609408307
 20
392.7278231699755
 30
59.99999999999518
 70
    32
  0
VERTEX
  5
25C
330
251
100
AcDbEntity
  8
Ech.1_5
  6
Continuous
 62
   190
370
    20
100
AcDbVertex
100
AcDb3dPolylineVertex
 10
21075.60630659605
 20
392.5652592965635
 30
59.99999999999517
 70
    32
  0
VERTEX
  5
25D
330
251
100
AcDbEntity
  8
Ech.1_5
  6
Continuous
 62
   190
370
    20
100
AcDbVertex
100
AcDb3dPolylineVertex
 10
21079.58651910903
 20
392.7278231699755
 30
59.99999999999517
 70
    32
  0
VERTEX
  5
25E
330
251
100
AcDbEntity
  8
Ech.1_5
  6
Continuous
 62
   190
370
    20
100
AcDbVertex
100
AcDb3dPolylineVertex
 10
21083.54021745775
 20
393.2144318718426
 30
59.99999999999517
 70
    32
  0
VERTEX
  5
25F
330
251
100
AcDbEntity
  8
Ech.1_5
  6
Continuous
 62
   190
370
    20
100
AcDbVertex
100
AcDb3dPolylineVertex
 10
21087.44106410192
 20
394.0218438609134
 30
59.99999999999517
 70
    32
  0
VERTEX
  5
260
330
251
100
AcDbEntity
  8
Ech.1_5
  6
Continuous
 62
   190
370
    20
100
AcDbVertex
100
AcDb3dPolylineVertex
 10
21091.26307357258
 20
395.1446805665633
 30
59.99999999999517
 70
    32
  0
VERTEX
  5
261
330
251
100
AcDbEntity
  8
Ech.1_5
  6
Continuous
 62
   190
370
    20
100
AcDbVertex
100
AcDb3dPolylineVertex
 10
21094.9807855742
 20
396.5754622181138
 30
59.99999999999518
 70
    32
  0
VERTEX
  5
262
330
251
100
AcDbEntity
  8
Ech.1_5
  6
Continuous
 62
   190
370
    20
100
AcDbVertex
100
AcDb3dPolylineVertex
 10
21098.56943458827
 20
398.304657671285
 30
59.99999999999517
 70
    32
  0
VERTEX
  5
263
330
251
100
AcDbEntity
  8
Ech.1_5
  6
Continuous
 62
   190
370
    20
100
AcDbVertex
100
AcDb3dPolylineVertex
 10
21102.00511484866
 20
400.3207478998617
 30
59.99999999999517
 70
    32
  0
VERTEX
  5
264
330
251
100
AcDbEntity
  8
Ech.1_5
  6
Continuous
 62
   190
370
    20
100
AcDbVertex
100
AcDb3dPolylineVertex
 10
21105.2649395898
 20
402.6103027296244
 30
59.99999999999517
 70
    32
  0
VERTEX
  5
265
330
251
100
AcDbEntity
  8
Ech.1_5
  6
Continuous
 62
   190
370
    20
100
AcDbVertex
100
AcDb3dPolylineVertex
 10
21108.32719350669
 20
405.1580703033833
 30
59.99999999999517
 70
    32
  0
VERTEX
  5
266
330
251
100
AcDbEntity
  8
Ech.1_5
  6
Continuous
 62
   190
370
    20
100
AcDbVertex
100
AcDb3dPolylineVertex
 10
21110.1573561346
 20
407.6112743039164
 30
59.99999999999517
 70
    32
  0
VERTEX
  5
267
330
251
100
AcDbEntity
  8
Ech.1_5
  6
Continuous
 62
   190
370
    20
100
AcDbVertex
100
AcDb3dPolylineVertex
 10
21112.20739306823
 20
409.8839497500857
 30
59.99999999999517
 70
    32
  0
VERTEX
  5
268
330
251
100
AcDbEntity
  8
Ech.1_5
  6
Continuous
 62
   190
370
    20
100
AcDbVertex
100
AcDb3dPolylineVertex
 10
21114.45959236112
 20
411.9564611391781
 30
59.99999999999517
 70
    32
  0
VERTEX
  5
269
330
251
100
AcDbEntity
  8
Ech.1_5
  6
Continuous
 62
   190
370
    20
100
AcDbVertex
100
AcDb3dPolylineVertex
 10
21116.89449542082
 20
413.8109023495465
 30
59.99999999999517
 70
    32
  0
VERTEX
  5
26A
330
251
100
AcDbEntity
  8
Ech.1_5
  6
Continuous
 62
   190
370
    20
100
AcDbVertex
100
AcDb3dPolylineVertex
 10
21119.49106512752
 20
415.4312513462459
 30
59.99999999999516
 70
    32
  0
VERTEX
  5
26B
330
251
100
AcDbEntity
  8
Ech.1_5
  6
Continuous
 62
   190
370
    20
100
AcDbVertex
100
AcDb3dPolylineVertex
 10
21122.22686759097
 20
416.8035086085021
 30
59.99999999999517
 70
    32
  0
VERTEX
  5
26C
330
251
100
AcDbEntity
  8
Ech.1_5
  6
Continuous
 62
   190
370
    20
100
AcDbVertex
100
AcDb3dPolylineVertex
 10
21125.07826597522
 20
417.9158180830274
 30
59.99999999999517
 70
    32
  0
VERTEX
  5
26D
330
251
100
AcDbEntity
  8
Ech.1_5
  6
Continuous
 62
   190
370
    20
100
AcDbVertex
100
AcDb3dPolylineVertex
 10
21128.02062471658
 20
418.7585696181648
 30
59.99999999999517
 70
    32
  0
VERTEX
  5
26E
330
251
100
AcDbEntity
  8
Ech.1_5
  6
Continuous
 62
   190
370
    20
100
AcDbVertex
100
AcDb3dPolylineVertex
 10
21131.0285223704
 20
419.3244819938514
 30
59.99999999999516
 70
    32
  0
VERTEX
  5
26F
330
251
100
AcDbEntity
  8
Ech.1_5
  6
Continuous
 62
   190
370
    20
100
AcDbVertex
100
AcDb3dPolylineVertex
 10
21134.07597124776
 20
419.6086658300367
 30
59.99999999999517
 70
    32
  0
VERTEX
  5
270
330
251
100
AcDbEntity
  8
Ech.1_5
  6
Continuous
 62
   190
370
    20
100
AcDbVertex
100
AcDb3dPolylineVertex
 10
21137.13664194433
 20
419.6086658300367
 30
59.99999999999517
 70
    32
  0
VERTEX
  5
271
330
251
100
AcDbEntity
  8
Ech.1_5
  6
Continuous
 62
   190
370
    20
100
AcDbVertex
100
AcDb3dPolylineVertex
 10
21140.18409082169
 20
419.3244819938514
 30
59.99999999999517
 70
    32
  0
VERTEX
  5
272
330
251
100
AcDbEntity
  8
Ech.1_5
  6
Continuous
 62
   190
370
    20
100
AcDbVertex
100
AcDb3dPolylineVertex
 10
21143.19198847551
 20
418.7585696181648
 30
59.99999999999517
 70
    32
  0
VERTEX
  5
273
330
251
100
AcDbEntity
  8
Ech.1_5
  6
Continuous
 62
   190
370
    20
100
AcDbVertex
100
AcDb3dPolylineVertex
 10
21146.13434721687
 20
417.9158180830275
 30
59.99999999999517
 70
    32
  0
VERTEX
  5
274
330
251
100
AcDbEntity
  8
Ech.1_5
  6
Continuous
 62
   190
370
    20
100
AcDbVertex
100
AcDb3dPolylineVertex
 10
21148.98574560113
 20
416.8035086085022
 30
59.99999999999517
 70
    32
  0
VERTEX
  5
275
330
251
100
AcDbEntity
  8
Ech.1_5
  6
Continuous
 62
   190
370
    20
100
AcDbVertex
100
AcDb3dPolylineVertex
 10
21151.72154806458
 20
415.4312513462459
 30
59.99999999999517
 70
    32
  0
VERTEX
  5
276
330
251
100
AcDbEntity
  8
Ech.1_5
  6
Continuous
 62
   190
370
    20
100
AcDbVertex
100
AcDb3dPolylineVertex
 10
21154.31811777128
 20
413.8109023495465
 30
59.99999999999517
 70
    32
  0
VERTEX
  5
277
330
251
100
AcDbEntity
  8
Ech.1_5
  6
Continuous
 62
   190
370
    20
100
AcDbVertex
100
AcDb3dPolylineVertex
 10
21156.75302083098
 20
411.9564611391781
 30
59.99999999999517
 70
    32
  0
VERTEX
  5
278
330
251
100
AcDbEntity
  8
Ech.1_5
  6
Continuous
 62
   190
370
    20
100
AcDbVertex
100
AcDb3dPolylineVertex
 10
21159.00522012387
 20
409.8839497500857
 30
59.99999999999517
 70
    32
  0
VERTEX
  5
279
330
251
100
AcDbEntity
  8
Ech.1_5
  6
Continuous
 62
   190
370
    20
100
AcDbVertex
100
AcDb3dPolylineVertex
 10
21161.05525705749
 20
407.6112743039164
 30
59.99999999999517
 70
    32
  0
VERTEX
  5
27A
330
251
100
AcDbEntity
  8
Ech.1_5
  6
Continuous
 62
   190
370
    20
100
AcDbVertex
100
AcDb3dPolylineVertex
 10
21162.88541968541
 20
405.1580703033833
 30
59.99999999999517
 70
    32
  0
VERTEX
  5
27B
330
251
100
AcDbEntity
  8
Ech.1_5
  6
Continuous
 62
   190
370
    20
100
AcDbVertex
100
AcDb3dPolylineVertex
 10
21162.88541968541
 20
526.9408423101995
 30
59.99999999999517
 70
    32
  0
VERTEX
  5
27C
330
251
100
AcDbEntity
  8
Ech.1_5
  6
Continuous
 62
   190
370
    20
100
AcDbVertex
100
AcDb3dPolylineVertex
 10
21042.88541968541
 20
526.9408423101995
 30
59.9999999999952
 70
    32
  0
SEQEND
  5
27D
330
251
100
AcDbEntity
  8
Ech.1_5
  6
Continuous
 62
   190
370
    20
390
5F
  0
HATCH
  5
27E
330
1F
100
AcDbEntity
  8
Ech.1_5
  6
Continuous
 62
    33
420
 12426362
440
 33554687
370
    20
390
5F
100
AcDbHatch
 10
0.0
 20
0.0
 30
0.0
210
0.0
220
0.0
230
1.0
  2
SOLID
 70
     1
 71
     0
 91
        1
 92
        3
 72
     0
 73
     1
 93
        4
 10
21270.8745995366
 20
263.0468856332591
 10
21285.8745995366
 20
311.0468856332591
 10
20970.34327930085
 20
311.0468856332591
 10
20955.34327930083
 20
263.0468856332591
 97
        0
 75
     0
 76
     1
 98
        0
  0
LWPOLYLINE
  5
27F
330
1F
100
AcDbEntity
  8
Ech.1_5
  6
Continuous
 62
   190
370
     5
390
5F
100
AcDbPolyline
 90
        5
 70
     0
 43
0.0
 10
21270.8745995366
 20
263.0468856332591
 10
21285.8745995366
 20
311.0468856332591
 10
20970.34327930085
 20
311.0468856332591
 10
20955.34327930083
 20
263.0468856332591
 10
21270.8745995366
 20
263.0468856332591
  0
HATCH
  5
280
330
1F
100
AcDbEntity
  8
Ech.1_5
  6
Continuous
 62
    33
420
 12426362
440
 33554687
370
    20
390
5F
100
AcDbHatch
 10
0.0
 20
0.0
 30
0.0
210
0.0
220
0.0
230
1.0
  2
SOLID
 70
     1
 71
     0
 91
        1
 92
        3
 72
     0
 73
     1
 93
        4
 10
21266.54217288442
 20
526.9408423101995
 10
21281.54217288443
 20
574.9408423101995
 10
20989.53472415972
 20
574.9408423101995
 10
20974.53472415969
 20
526.9408423101995
 97
        0
 75
     0
 76
     1
 98
        0
  0
LWPOLYLINE
  5
281
330
1F
100
AcDbEntity
  8
Ech.1_5
  6
Continuous
 62
   190
370
     5
390
5F
100
AcDbPolyline
 90
        5
 70
     0
 43
0.0
 10
21266.54217288442
 20
526.9408423101995
 10
21281.54217288443
 20
574.9408423101995
 10
20989.53472415972
 20
574.9408423101995
 10
20974.53472415969
 20
526.9408423101995
 10
21266.54217288442
 20
526.9408423101995
  0
3DFACE
  5
282
102
{ACAD_REACTORS
330
283
102
}
330
1F
100
AcDbEntity
  8
Ech.1_5
  6
Continuous
 62
   190
370
    15
390
5F
100
AcDbFace
 10
21266.54217288442
 20
526.9408423101995
 30
-265.0000000000077
 11
21281.54217288443
 21
574.9408423101995
 31
-265.0000000000077
 12
20989.53472415972
 22
574.9408423101995
 32
-265.0000000000077
 13
20974.53472415969
 23
526.9408423101995
 33
-265.0000000000077
  0
LWPOLYLINE
  5
284
102
{ACAD_REACTORS
330
285
330
286
330
287
102
}
330
1F
100
AcDbEntity
  8
Ech.1_5
  6
Continuous
 62
   190
370
    15
390
5F
100
AcDbPolyline
 90
        5
 70
     0
 43
0.0
 10
20348.47353496286
 20
-124.549750629405
 10
21333.47353496287
 20
-124.549750629405
 10
21333.47353496287
 20
-261.9628226946224
 10
20348.47353496286
 20
-261.9628226946224
 10
20348.47353496286
 20
-124.549750629405
  0
IMAGE
  5
28A
102
{ACAD_REACTORS
330
286
330
287
102
}
330
1F
100
AcDbEntity
  8
Ech.1_5
  6
Continuous
390
5F
160
                 8
310
0800000000000000
100
AcDbRasterImage
 90
        0
 10
20539.53778370375
 20
-256.9272752134711
 30
0.0
 11
0.283455151826311
 21
0.0
 31
0.0
 12
0.0
 22
0.2834551571500732
 32
0.0
 13
247.0
 23
171.0
340
289
 70
     7
280
     0
281
    50
282
    50
283
     0
360
28B
 71
     1
 91
        2
 14
-0.5
 24
-0.5
 14
246.5
 24
170.5
290
     0
  0
IMAGE
  5
28D
102
{ACAD_REACTORS
330
287
102
}
330
1F
100
AcDbEntity
  8
Ech.1_5
  6
Continuous
390
5F
160
                 8
310
0800000000000000
100
AcDbRasterImage
 90
        0
 10
20800.61545494573
 20
-259.4818875173223
 30
0.0
 11
0.4035808001714759
 21
0.0
 31
0.0
 12
0.0
 22
0.4035808103932838
 32
0.0
 13
200.0
 23
133.0
340
28C
 70
     7
280
     0
281
    50
282
    50
283
     0
360
28E
 71
     1
 91
        2
 14
-0.5
 24
-0.5
 14
199.5
 24
132.5
290
     0
  0
HATCH
  5
28F
330
1F
100
AcDbEntity
  8
Ech.1_5
  6
Continuous
 62
   254
420
 15326711
440
 33554687
370
     5
390
5F
100
AcDbHatch
 10
0.0
 20
0.0
 30
0.0
210
0.0
220
0.0
230
1.0
  2
SOLID
 70
     1
 71
     0
 91
        1
 92
        3
 72
     0
 73
     1
 93
        4
 10
20547.74786769551
 20
683.0527373446967
 10
20547.74786769551
 20
863.0527373446967
 10
20487.74786769551
 20
863.0527373446967
 10
20487.74786769551
 20
683.0527373446967
 97
        0
 75
     0
 76
     1
 98
        0
  0
LINE
  5
290
330
1F
100
AcDbEntity
  8
Ech.1_5
  6
Continuous
 62
   190
370
    15
390
5F
100
AcDbLine
 10
20547.74786769551
 20
863.0527373446967
 30
0.0
 11
20487.74786769551
 21
683.0527373446967
 31
0.0
  0
LINE
  5
291
330
1F
100
AcDbEntity
  8
Ech.1_5
  6
Continuous
 62
   190
370
    15
390
5F
100
AcDbLine
 10
20487.74786769551
 20
863.0527373446967
 30
0.0
 11
20547.74786769551
 21
683.0527373446967
 31
0.0
  0
3DFACE
  5
292
330
1F
100
AcDbEntity
  8
Ech.1_5
  6
Continuous
 62
   190
370
    20
390
5F
100
AcDbFace
 10
20547.74786769551
 20
683.0527373446967
 30
59.99999999999517
 11
20547.74786769551
 21
863.0527373446967
 31
59.99999999999517
 12
20487.74786769551
 22
863.0527373446967
 32
59.9999999999952
 13
20487.74786769551
 23
683.0527373446967
 33
59.99999999999517
  0
HATCH
  5
293
330
1F
100
AcDbEntity
  8
Ech.1_5
  6
Continuous
 62
    33
420
 12426362
440
 33554687
370
    20
390
5F
100
AcDbHatch
 10
0.0
 20
0.0
 30
0.0
210
0.0
220
0.0
230
1.0
  2
SOLID
 70
     1
 71
     0
 91
        1
 92
        3
 72
     0
 73
     1
 93
        4
 10
20632.81537404251
 20
863.0527373446967
 10
20640.31537404251
 20
887.0527373447258
 10
20418.58478604937
 20
887.0527373447258
 10
20411.08478604935
 20
863.0527373446967
 97
        0
 75
     0
 76
     1
 98
        0
  0
LWPOLYLINE
  5
294
330
1F
100
AcDbEntity
  8
Ech.1_5
  6
Continuous
 62
   190
370
     5
390
5F
100
AcDbPolyline
 90
        5
 70
     0
 43
0.0
 10
20632.81537404251
 20
863.0527373446967
 10
20640.31537404251
 20
887.0527373447258
 10
20418.58478604937
 20
887.0527373447258
 10
20411.08478604935
 20
863.0527373446967
 10
20632.81537404251
 20
863.0527373446967
  0
3DFACE
  5
295
102
{ACAD_REACTORS
330
296
102
}
330
1F
100
AcDbEntity
  8
Ech.1_5
  6
Continuous
 62
   190
370
    15
390
5F
100
AcDbFace
 10
20632.81537404251
 20
863.0527373446967
 30
-265.0000000000077
 11
20640.31537404251
 21
887.0527373447258
 31
-265.0000000000077
 12
20418.58478604937
 22
887.0527373447258
 32
-265.0000000000077
 13
20411.08478604935
 23
863.0527373446967
 33
-265.0000000000077
  0
LINE
  5
299
330
1F
100
AcDbEntity
  8
Ech.1_5
  6
Continuous
 62
    18
420
        0
370
    20
390
5F
100
AcDbLine
 10
20761.07475036671
 20
885.4867972242355
 30
0.0
 11
20901.14339524796
 21
885.4867972242355
 31
0.0
  0
LINE
  5
29A
330
1F
100
AcDbEntity
  8
Ech.1_5
  6
Continuous
 62
    18
420
        0
370
    20
390
5F
100
AcDbLine
 10
20761.07475036671
 20
885.4867972242355
 30
0.0
 11
20761.07475036671
 21
858.6831920551776
 31
0.0
  0
LINE
  5
29B
330
1F
100
AcDbEntity
  8
Ech.1_5
  6
Continuous
 62
    18
420
        0
370
    20
390
5F
100
AcDbLine
 10
20901.14339524796
 20
885.4867972242355
 30
0.0
 11
21056.84563523819
 21
885.4867972242355
 31
0.0
  0
LINE
  5
29C
330
1F
100
AcDbEntity
  8
Ech.1_5
  6
Continuous
 62
    18
420
        0
370
    20
390
5F
100
AcDbLine
 10
20901.14339524796
 20
885.4867972242355
 30
0.0
 11
20901.14339524796
 21
858.6831920551776
 31
0.0
  0
LINE
  5
29D
330
1F
100
AcDbEntity
  8
Ech.1_5
  6
Continuous
 62
    18
420
        0
370
    20
390
5F
100
AcDbLine
 10
21056.84563523819
 20
885.4867972242355
 30
0.0
 11
21206.42119676163
 21
885.4867972242355
 31
0.0
  0
LINE
  5
29E
330
1F
100
AcDbEntity
  8
Ech.1_5
  6
Continuous
 62
    18
420
        0
370
    20
390
5F
100
AcDbLine
 10
21056.84563523819
 20
885.4867972242355
 30
0.0
 11
21056.84563523819
 21
858.6831920551776
 31
0.0
  0
LINE
  5
29F
330
1F
100
AcDbEntity
  8
Ech.1_5
  6
Continuous
 62
    18
420
        0
370
    20
390
5F
100
AcDbLine
 10
21206.42119676163
 20
885.4867972242355
 30
0.0
 11
21206.42119676163
 21
858.6831920551776
 31
0.0
  0
LINE
  5
2A0
330
1F
100
AcDbEntity
  8
Ech.1_5
  6
Continuous
 62
    18
420
        0
370
    20
390
5F
100
AcDbLine
 10
20761.07475036671
 20
858.6831920551776
 30
0.0
 11
20901.14339524796
 21
858.6831920551776
 31
0.0
  0
LINE
  5
2A1
330
1F
100
AcDbEntity
  8
Ech.1_5
  6
Continuous
 62
    18
420
        0
370
    20
390
5F
100
AcDbLine
 10
20761.07475036671
 20
858.6831920551776
 30
0.0
 11
20761.07475036671
 21
834.8577659534931
 31
0.0
  0
LINE
  5
2A2
330
1F
100
AcDbEntity
  8
Ech.1_5
  6
Continuous
 62
    18
420
        0
370
    20
390
5F
100
AcDbLine
 10
20901.14339524796
 20
858.6831920551776
 30
0.0
 11
21056.84563523819
 21
858.6831920551776
 31
0.0
  0
LINE
  5
2A3
330
1F
100
AcDbEntity
  8
Ech.1_5
  6
Continuous
 62
    18
420
        0
370
    20
390
5F
100
AcDbLine
 10
20901.14339524796
 20
858.6831920551776
 30
0.0
 11
20901.14339524796
 21
834.8577659534931
 31
0.0
  0
LINE
  5
2A4
330
1F
100
AcDbEntity
  8
Ech.1_5
  6
Continuous
 62
    18
420
        0
370
    20
390
5F
100
AcDbLine
 10
21056.84563523819
 20
858.6831920551776
 30
0.0
 11
21206.42119676163
 21
858.6831920551776
 31
0.0
  0
LINE
  5
2A5
330
1F
100
AcDbEntity
  8
Ech.1_5
  6
Continuous
 62
    18
420
        0
370
    20
390
5F
100
AcDbLine
 10
21056.84563523819
 20
858.6831920551776
 30
0.0
 11
21056.84563523819
 21
811.0323379444599
 31
0.0
  0
LINE
  5
2A6
330
1F
100
AcDbEntity
  8
Ech.1_5
  6
Continuous
 62
    18
420
        0
370
    20
390
5F
100
AcDbLine
 10
21206.42119676163
 20
858.6831920551776
 30
0.0
 11
21206.42119676163
 21
811.0323379444599
 31
0.0
  0
LINE
  5
2A7
330
1F
100
AcDbEntity
  8
Ech.1_5
  6
Continuous
 62
    18
420
        0
370
    20
390
5F
100
AcDbLine
 10
20761.07475036671
 20
834.8577659534931
 30
0.0
 11
20901.14339524796
 21
834.8577659534931
 31
0.0
  0
LINE
  5
2A8
330
1F
100
AcDbEntity
  8
Ech.1_5
  6
Continuous
 62
    18
420
        0
370
    20
390
5F
100
AcDbLine
 10
20761.07475036671
 20
834.8577659534931
 30
0.0
 11
20761.07475036671
 21
811.0323379444599
 31
0.0
  0
LINE
  5
2A9
330
1F
100
AcDbEntity
  8
Ech.1_5
  6
Continuous
 62
    18
420
        0
370
    20
390
5F
100
AcDbLine
 10
20901.14339524796
 20
834.8577659534931
 30
0.0
 11
21056.84563523819
 21
834.8577659534931
 31
0.0
  0
LINE
  5
2AA
330
1F
100
AcDbEntity
  8
Ech.1_5
  6
Continuous
 62
    18
420
        0
370
    20
390
5F
100
AcDbLine
 10
20901.14339524796
 20
834.8577659534931
 30
0.0
 11
20901.14339524796
 21
811.0323379444599
 31
0.0
  0
LINE
  5
2AB
330
1F
100
AcDbEntity
  8
Ech.1_5
  6
Continuous
 62
    18
420
        0
370
    20
390
5F
100
AcDbLine
 10
20761.07475036671
 20
811.0323379444599
 30
0.0
 11
20901.14339524796
 21
811.0323379444599
 31
0.0
  0
LINE
  5
2AC
330
1F
100
AcDbEntity
  8
Ech.1_5
  6
Continuous
 62
    18
420
        0
370
    20
390
5F
100
AcDbLine
 10
20761.07475036671
 20
811.0323379444599
 30
0.0
 11
20761.07475036671
 21
786.3559997486591
 31
0.0
  0
LINE
  5
2AD
330
1F
100
AcDbEntity
  8
Ech.1_5
  6
Continuous
 62
    18
420
        0
370
    20
390
5F
100
AcDbLine
 10
20901.14339524796
 20
811.0323379444599
 30
0.0
 11
21056.84563523819
 21
811.0323379444599
 31
0.0
  0
LINE
  5
2AE
330
1F
100
AcDbEntity
  8
Ech.1_5
  6
Continuous
 62
    18
420
        0
370
    20
390
5F
100
AcDbLine
 10
20901.14339524796
 20
811.0323379444599
 30
0.0
 11
20901.14339524796
 21
786.3559997486591
 31
0.0
  0
LINE
  5
2AF
330
1F
100
AcDbEntity
  8
Ech.1_5
  6
Continuous
 62
    18
420
        0
370
    20
390
5F
100
AcDbLine
 10
21056.84563523819
 20
811.0323379444599
 30
0.0
 11
21206.42119676163
 21
811.0323379444599
 31
0.0
  0
LINE
  5
2B0
330
1F
100
AcDbEntity
  8
Ech.1_5
  6
Continuous
 62
    18
420
        0
370
    20
390
5F
100
AcDbLine
 10
21056.84563523819
 20
811.0323379444599
 30
0.0
 11
21056.84563523819
 21
761.6796691822528
 31
0.0
  0
LINE
  5
2B1
330
1F
100
AcDbEntity
  8
Ech.1_5
  6
Continuous
 62
    18
420
        0
370
    20
390
5F
100
AcDbLine
 10
21206.42119676163
 20
811.0323379444599
 30
0.0
 11
21206.42119676163
 21
761.6796691822528
 31
0.0
  0
LINE
  5
2B2
330
1F
100
AcDbEntity
  8
Ech.1_5
  6
Continuous
 62
    18
420
        0
370
    20
390
5F
100
AcDbLine
 10
21056.84563523819
 20
761.6796691822528
 30
0.0
 11
21206.42119676163
 21
761.6796691822528
 31
0.0
  0
LINE
  5
2B3
330
1F
100
AcDbEntity
  8
Ech.1_5
  6
Continuous
 62
    18
420
        0
370
    20
390
5F
100
AcDbLine
 10
20761.07475036671
 20
786.3559997486591
 30
0.0
 11
20901.14339524796
 21
786.3559997486591
 31
0.0
  0
LINE
  5
2B4
330
1F
100
AcDbEntity
  8
Ech.1_5
  6
Continuous
 62
    18
420
        0
370
    20
390
5F
100
AcDbLine
 10
20761.07475036671
 20
786.3559997486591
 30
0.0
 11
20761.07475036671
 21
761.6796691822528
 31
0.0
  0
LINE
  5
2B5
330
1F
100
AcDbEntity
  8
Ech.1_5
  6
Continuous
 62
    18
420
        0
370
    20
390
5F
100
AcDbLine
 10
20761.07475036671
 20
761.6796691822528
 30
0.0
 11
20901.14339524796
 21
761.6796691822528
 31
0.0
  0
LINE
  5
2B6
330
1F
100
AcDbEntity
  8
Ech.1_5
  6
Continuous
 62
    18
420
        0
370
    20
390
5F
100
AcDbLine
 10
20901.14339524796
 20
786.3559997486591
 30
0.0
 11
21056.84563523819
 21
786.3559997486591
 31
0.0
  0
LINE
  5
2B7
330
1F
100
AcDbEntity
  8
Ech.1_5
  6
Continuous
 62
    18
420
        0
370
    20
390
5F
100
AcDbLine
 10
20901.14339524796
 20
786.3559997486591
 30
0.0
 11
20901.14339524796
 21
761.6796691822528
 31
0.0
  0
LINE
  5
2B8
330
1F
100
AcDbEntity
  8
Ech.1_5
  6
Continuous
 62
    18
420
        0
370
    20
390
5F
100
AcDbLine
 10
20901.14339524796
 20
761.6796691822528
 30
0.0
 11
21056.84563523819
 21
761.6796691822528
 31
0.0
  0
TEXT
  5
2B9
330
1F
100
AcDbEntity
  8
Ech.1_5
  6
Continuous
 62
     7
390
5F
100
AcDbText
 10
20811.41142484397
 20
866.5658170973965
 30
0.0
 40
14.02825854836017
  1
Lame
 41
0.9946531966622038
  7
arial-
100
AcDbText
  0
TEXT
  5
2BA
330
1F
100
AcDbEntity
  8
Ech.1_5
  6
Continuous
 62
     7
390
5F
100
AcDbText
 10
20948.55126079673
 20
863.9818046886012
 30
0.0
 40
15.28872746450271
  1
Support
 41
0.9931756653251888
  7
arial-
100
AcDbText
  0
TEXT
  5
2BB
330
1F
100
AcDbEntity
  8
Ech.1_5
  6
Continuous
 62
     7
390
5F
100
AcDbText
 10
21082.01415085409
 20
866.6149406771788
 30
0.0
 40
13.95463322883885
  1
Ancrage (S)
 41
1.002609978213526
  7
arial-
100
AcDbText
  0
TEXT
  5
2BC
330
1F
100
AcDbEntity
  8
Ech.1_5
  6
Continuous
 62
     7
390
5F
100
AcDbText
 10
20794.8344549423
 20
839.7644463766428
 30
0.0
 40
14.16791156737041
  1
Résineux
 41
0.9763019822311232
  7
arial-
100
AcDbText
  0
TEXT
  5
2BD
330
1F
100
AcDbEntity
  8
Ech.1_5
  6
Continuous
 62
     7
390
5F
100
AcDbText
 10
20942.5045570802
 20
839.7644463766428
 30
0.0
 40
14.16791156737041
  1
Résineux
 41
0.978919413818874
  7
arial-
100
AcDbText
  0
TEXT
  5
2BE
330
1F
100
AcDbEntity
  8
Ech.1_5
  6
Continuous
 62
     7
390
5F
100
AcDbText
 10
21092.0864413965
 20
837.8645403567921
 30
0.0
 40
14.19551715225961
  1
S
 41
0.974673186264859
  7
arial-
100
AcDbText
  0
TEXT
  5
2BF
330
1F
100
AcDbEntity
  8
Ech.1_5
  6
Continuous
 62
     7
390
5F
100
AcDbText
 10
21109.93974971425
 20
837.7555724474119
 30
0.0
 40
13.50919211169531
  1
³ 1,5
 41
0.976395751686125
  7
symbol-
100
AcDbText
  0
TEXT
  5
2C0
330
1F
100
AcDbEntity
  8
Ech.1_5
  6
Continuous
 62
     7
390
5F
100
AcDbText
 10
21154.73360816313
 20
837.8480271598153
 30
0.0
 40
14.05066216322673
  1
x e
 41
0.9889860667313995
  7
arial-
100
AcDbText
  0
TEXT
  5
2C1
330
1F
100
AcDbEntity
  8
Ech.1_5
  6
Continuous
 62
     7
390
5F
100
AcDbText
 10
21089.13749296916
 20
820.9859045497451
 30
0.0
 40
10.29324315247997
  1
tolérance 5%
 41
0.9834448548245969
  7
arial-
100
AcDbText
  0
TEXT
  5
2C2
330
1F
100
AcDbEntity
  8
Ech.1_5
  6
Continuous
 62
     7
390
5F
100
AcDbText
 10
20794.8344549423
 20
815.9390195597025
 30
0.0
 40
14.16791156737041
  1
Résineux
 41
0.9763019822311232
  7
arial-
100
AcDbText
  0
TEXT
  5
2C3
330
1F
100
AcDbEntity
  8
Ech.1_5
  6
Continuous
 62
     7
390
5F
100
AcDbText
 10
20949.61617326172
 20
815.9401351432905
 30
0.0
 40
14.23763554161928
  1
Feuillus
 41
0.9753744687529042
  7
arial-
100
AcDbText
  0
TEXT
  5
2C4
330
1F
100
AcDbEntity
  8
Ech.1_5
  6
Continuous
 62
     7
390
5F
100
AcDbText
 10
20801.73072701128
 20
791.9019813011989
 30
0.0
 40
14.23763554161928
  1
Feuillus
 41
0.9753744687529042
  7
arial-
100
AcDbText
  0
TEXT
  5
2C5
330
1F
100
AcDbEntity
  8
Ech.1_5
  6
Continuous
 62
     7
390
5F
100
AcDbText
 10
20949.61617326172
 20
791.9019813011989
 30
0.0
 40
14.23763554161928
  1
Feuillus
 41
0.9753744687529042
  7
arial-
100
AcDbText
  0
TEXT
  5
2C6
330
1F
100
AcDbEntity
  8
Ech.1_5
  6
Continuous
 62
     7
390
5F
100
AcDbText
 10
21092.0864413965
 20
790.2136867229115
 30
0.0
 40
14.19551715225961
  1
S
 41
0.974673186264859
  7
arial-
100
AcDbText
  0
TEXT
  5
2C7
330
1F
100
AcDbEntity
  8
Ech.1_5
  6
Continuous
 62
     7
390
5F
100
AcDbText
 10
21109.94071444446
 20
790.2753792404612
 30
0.0
 40
13.3381896799017
  1
³ 2,2
 41
0.9872315896229311
  7
symbol-
100
AcDbText
  0
TEXT
  5
2C8
330
1F
100
AcDbEntity
  8
Ech.1_5
  6
Continuous
 62
     7
390
5F
100
AcDbText
 10
21154.73360816313
 20
790.2016697378268
 30
0.0
 40
14.33167540649127
  1
x e
 41
0.9695941830699996
  7
arial-
100
AcDbText
  0
TEXT
  5
2C9
330
1F
100
AcDbEntity
  8
Ech.1_5
  6
Continuous
 62
     7
390
5F
100
AcDbText
 10
21089.13749296916
 20
773.3350509158645
 30
0.0
 40
10.29324315247997
  1
tolérance 5%
 41
0.9834448548245969
  7
arial-
100
AcDbText
  0
TEXT
  5
2CA
330
1F
100
AcDbEntity
  8
Ech.1_5
  6
Continuous
 62
     7
390
5F
100
AcDbText
 10
20801.73072701128
 20
767.4350233769127
 30
0.0
 40
14.02825854836017
  1
Feuillus
 41
0.9899322966447386
  7
arial-
100
AcDbText
  0
TEXT
  5
2CB
330
1F
100
AcDbEntity
  8
Ech.1_5
  6
Continuous
 62
     7
390
5F
100
AcDbText
 10
20942.5045570802
 20
767.4339241989658
 30
0.0
 40
13.95955992667378
  1
Résineux
 41
0.9935301513385589
  7
arial-
100
AcDbText
  0
LINE
  5
2CC
330
1F
100
AcDbEntity
  8
Ech.1_5
  6
Continuous
 62
    18
420
        0
370
    20
390
5F
100
AcDbLine
 10
20563.91023562686
 20
35.87904532550601
 30
0.0
 11
20756.8776593043
 21
35.87904532550601
 31
0.0
  0
LINE
  5
2CD
330
1F
100
AcDbEntity
  8
Ech.1_5
  6
Continuous
 62
    18
420
        0
370
    20
390
5F
100
AcDbLine
 10
20563.91023562686
 20
35.87904532550601
 30
0.0
 11
20563.91023562686
 21
-16.05135188699933
 31
0.0
  0
LINE
  5
2CE
330
1F
100
AcDbEntity
  8
Ech.1_5
  6
Continuous
 62
    18
420
        0
370
    20
390
5F
100
AcDbLine
 10
20756.8776593043
 20
35.87904532550601
 30
0.0
 11
21122.94513366953
 21
35.87904532550601
 31
0.0
  0
LINE
  5
2CF
330
1F
100
AcDbEntity
  8
Ech.1_5
  6
Continuous
 62
    18
420
        0
370
    20
390
5F
100
AcDbLine
 10
20756.8776593043
 20
35.87904532550601
 30
0.0
 11
20756.8776593043
 21
9.062528270471375
 31
0.0
  0
LINE
  5
2D0
330
1F
100
AcDbEntity
  8
Ech.1_5
  6
Continuous
 62
    18
420
        0
370
     0
390
5F
100
AcDbLine
 10
21122.94513366953
 20
35.87904532550601
 30
0.0
 11
21122.94513366953
 21
9.062528270471375
 31
0.0
  0
LINE
  5
2D1
330
1F
100
AcDbEntity
  8
Ech.1_5
  6
Continuous
 62
    18
420
        0
370
    20
390
5F
100
AcDbLine
 10
20756.8776593043
 20
9.062528270471375
 30
0.0
 11
20944.56122253672
 21
9.062528270471375
 31
0.0
  0
LINE
  5
2D2
330
1F
100
AcDbEntity
  8
Ech.1_5
  6
Continuous
 62
    18
420
        0
370
    20
390
5F
100
AcDbLine
 10
20756.8776593043
 20
9.062528270471375
 30
0.0
 11
20756.8776593043
 21
-16.05135188699933
 31
0.0
  0
LINE
  5
2D3
330
1F
100
AcDbEntity
  8
Ech.1_5
  6
Continuous
 62
    18
420
        0
370
    20
390
5F
100
AcDbLine
 10
20944.56122253672
 20
9.062528270471375
 30
0.0
 11
21122.94513366953
 21
9.062528270471375
 31
0.0
  0
LINE
  5
2D4
330
1F
100
AcDbEntity
  8
Ech.1_5
  6
Continuous
 62
    18
420
        0
370
    20
390
5F
100
AcDbLine
 10
20944.56122253672
 20
9.062528270471375
 30
0.0
 11
20944.56122253672
 21
-16.05135188699933
 31
0.0
  0
LINE
  5
2D5
330
1F
100
AcDbEntity
  8
Ech.1_5
  6
Continuous
 62
    18
420
        0
370
    20
390
5F
100
AcDbLine
 10
21122.94513366953
 20
9.062528270471375
 30
0.0
 11
21122.94513366953
 21
-16.05135188699933
 31
0.0
  0
LINE
  5
2D6
330
1F
100
AcDbEntity
  8
Ech.1_5
  6
Continuous
 62
    18
420
        0
370
    20
390
5F
100
AcDbLine
 10
20563.91023562686
 20
-16.05135188699933
 30
0.0
 11
20756.8776593043
 21
-16.05135188699933
 31
0.0
  0
LINE
  5
2D7
330
1F
100
AcDbEntity
  8
Ech.1_5
  6
Continuous
 62
    18
420
        0
370
    20
390
5F
100
AcDbLine
 10
20563.91023562686
 20
-16.05135188699933
 30
0.0
 11
20563.91023562686
 21
-39.8882583201048
 31
0.0
  0
LINE
  5
2D8
330
1F
100
AcDbEntity
  8
Ech.1_5
  6
Continuous
 62
    18
420
        0
370
    20
390
5F
100
AcDbLine
 10
20756.8776593043
 20
-16.05135188699933
 30
0.0
 11
20944.56122253672
 21
-16.05135188699933
 31
0.0
  0
LINE
  5
2D9
330
1F
100
AcDbEntity
  8
Ech.1_5
  6
Continuous
 62
    18
420
        0
370
    20
390
5F
100
AcDbLine
 10
20756.8776593043
 20
-16.05135188699933
 30
0.0
 11
20756.8776593043
 21
-39.8882583201048
 31
0.0
  0
LINE
  5
2DA
330
1F
100
AcDbEntity
  8
Ech.1_5
  6
Continuous
 62
    18
420
        0
370
    20
390
5F
100
AcDbLine
 10
20944.56122253672
 20
-16.05135188699933
 30
0.0
 11
21122.94513366953
 21
-16.05135188699933
 31
0.0
  0
LINE
  5
2DB
330
1F
100
AcDbEntity
  8
Ech.1_5
  6
Continuous
 62
    18
420
        0
370
    20
390
5F
100
AcDbLine
 10
20944.56122253672
 20
-16.05135188699933
 30
0.0
 11
20944.56122253672
 21
-39.8882583201048
 31
0.0
  0
LINE
  5
2DC
330
1F
100
AcDbEntity
  8
Ech.1_5
  6
Continuous
 62
    18
420
        0
370
    20
390
5F
100
AcDbLine
 10
21122.94513366953
 20
-16.05135188699933
 30
0.0
 11
21122.94513366953
 21
-39.8882583201048
 31
0.0
  0
LINE
  5
2DD
330
1F
100
AcDbEntity
  8
Ech.1_5
  6
Continuous
 62
    18
420
        0
370
    20
390
5F
100
AcDbLine
 10
20563.91023562686
 20
-39.8882583201048
 30
0.0
 11
20756.8776593043
 21
-39.8882583201048
 31
0.0
  0
LINE
  5
2DE
330
1F
100
AcDbEntity
  8
Ech.1_5
  6
Continuous
 62
    18
420
        0
370
    20
390
5F
100
AcDbLine
 10
20563.91023562686
 20
-39.8882583201048
 30
0.0
 11
20563.91023562686
 21
-64.57647548319073
 31
0.0
  0
LINE
  5
2DF
330
1F
100
AcDbEntity
  8
Ech.1_5
  6
Continuous
 62
    18
420
        0
370
    20
390
5F
100
AcDbLine
 10
20756.8776593043
 20
-39.8882583201048
 30
0.0
 11
20944.56122253672
 21
-39.8882583201048
 31
0.0
  0
LINE
  5
2E0
330
1F
100
AcDbEntity
  8
Ech.1_5
  6
Continuous
 62
    18
420
        0
370
    20
390
5F
100
AcDbLine
 10
20756.8776593043
 20
-39.8882583201048
 30
0.0
 11
20756.8776593043
 21
-64.57647548319073
 31
0.0
  0
LINE
  5
2E1
330
1F
100
AcDbEntity
  8
Ech.1_5
  6
Continuous
 62
    18
420
        0
370
    20
390
5F
100
AcDbLine
 10
20944.56122253672
 20
-39.8882583201048
 30
0.0
 11
21122.94513366953
 21
-39.8882583201048
 31
0.0
  0
LINE
  5
2E2
330
1F
100
AcDbEntity
  8
Ech.1_5
  6
Continuous
 62
    18
420
        0
370
    20
390
5F
100
AcDbLine
 10
20944.56122253672
 20
-39.8882583201048
 30
0.0
 11
20944.56122253672
 21
-64.57647548319073
 31
0.0
  0
LINE
  5
2E3
330
1F
100
AcDbEntity
  8
Ech.1_5
  6
Continuous
 62
    18
420
        0
370
    20
390
5F
100
AcDbLine
 10
21122.94513366953
 20
-39.8882583201048
 30
0.0
 11
21122.94513366953
 21
-64.57647548319073
 31
0.0
  0
LINE
  5
2E4
330
1F
100
AcDbEntity
  8
Ech.1_5
  6
Continuous
 62
    18
420
        0
370
    20
390
5F
100
AcDbLine
 10
20563.91023562686
 20
-64.57647548319073
 30
0.0
 11
20756.8776593043
 21
-64.57647548319073
 31
0.0
  0
LINE
  5
2E5
330
1F
100
AcDbEntity
  8
Ech.1_5
  6
Continuous
 62
    18
420
        0
370
    20
390
5F
100
AcDbLine
 10
20563.91023562686
 20
-64.57647548319073
 30
0.0
 11
20563.91023562686
 21
-89.2647002756712
 31
0.0
  0
LINE
  5
2E6
330
1F
100
AcDbEntity
  8
Ech.1_5
  6
Continuous
 62
    18
420
        0
370
    20
390
5F
100
AcDbLine
 10
20563.91023562686
 20
-89.2647002756712
 30
0.0
 11
20756.8776593043
 21
-89.2647002756712
 31
0.0
  0
LINE
  5
2E7
330
1F
100
AcDbEntity
  8
Ech.1_5
  6
Continuous
 62
    18
420
        0
370
    20
390
5F
100
AcDbLine
 10
20756.8776593043
 20
-64.57647548319073
 30
0.0
 11
20944.56122253672
 21
-64.57647548319073
 31
0.0
  0
LINE
  5
2E8
330
1F
100
AcDbEntity
  8
Ech.1_5
  6
Continuous
 62
    18
420
        0
370
    20
390
5F
100
AcDbLine
 10
20756.8776593043
 20
-64.57647548319073
 30
0.0
 11
20756.8776593043
 21
-89.2647002756712
 31
0.0
  0
LINE
  5
2E9
330
1F
100
AcDbEntity
  8
Ech.1_5
  6
Continuous
 62
    18
420
        0
370
    20
390
5F
100
AcDbLine
 10
20756.8776593043
 20
-89.2647002756712
 30
0.0
 11
20944.56122253672
 21
-89.2647002756712
 31
0.0
  0
LINE
  5
2EA
330
1F
100
AcDbEntity
  8
Ech.1_5
  6
Continuous
 62
    18
420
        0
370
    20
390
5F
100
AcDbLine
 10
20944.56122253672
 20
-64.57647548319073
 30
0.0
 11
21122.94513366953
 21
-64.57647548319073
 31
0.0
  0
LINE
  5
2EB
330
1F
100
AcDbEntity
  8
Ech.1_5
  6
Continuous
 62
    18
420
        0
370
    20
390
5F
100
AcDbLine
 10
20944.56122253672
 20
-64.57647548319073
 30
0.0
 11
20944.56122253672
 21
-89.2647002756712
 31
0.0
  0
LINE
  5
2EC
330
1F
100
AcDbEntity
  8
Ech.1_5
  6
Continuous
 62
    18
420
        0
370
    20
390
5F
100
AcDbLine
 10
21122.94513366953
 20
-64.57647548319073
 30
0.0
 11
21122.94513366953
 21
-89.2647002756712
 31
0.0
  0
LINE
  5
2ED
330
1F
100
AcDbEntity
  8
Ech.1_5
  6
Continuous
 62
    18
420
        0
370
    20
390
5F
100
AcDbLine
 10
20944.56122253672
 20
-89.2647002756712
 30
0.0
 11
21122.94513366953
 21
-89.2647002756712
 31
0.0
  0
TEXT
  5
2EE
330
1F
100
AcDbEntity
  8
Ech.1_5
  6
Continuous
 62
     7
390
5F
100
AcDbText
 10
20568.08616702231
 20
16.98421894021352
 30
0.0
 40
13.99974787524648
  1
Epaisseur de la lame
 41
0.9939548047767909
  7
arial-
100
AcDbText
  0
TEXT
  5
2EF
330
1F
100
AcDbEntity
  8
Ech.1_5
  6
Continuous
 62
     7
390
5F
100
AcDbText
 10
20639.86339564803
 20
-5.4413960211266
 30
0.0
 40
13.64708247075554
  1
(mm)
 41
1.027188131673229
  7
arial-
100
AcDbText
  0
TEXT
  5
2F0
330
1F
100
AcDbEntity
  8
Ech.1_5
  6
Continuous
 62
     7
390
5F
100
AcDbText
 10
20775.79936699091
 20
13.93031261557587
 30
0.0
 40
15.10926987833649
  1
Masse volumique de la lame (kg/m
 41
1.005346577358385
  7
arial-
100
AcDbText
  0
TEXT
  5
2F1
330
1F
100
AcDbEntity
  8
Ech.1_5
  6
Continuous
 62
     7
390
5F
100
AcDbText
 10
21103.54340948815
 20
21.35681926582986
 30
0.0
 40
9.588792380109707
  1
3
 41
1.04480023680122
  7
arial-
100
AcDbText
  0
TEXT
  5
2F2
330
1F
100
AcDbEntity
  8
Ech.1_5
  6
Continuous
 62
     7
390
5F
100
AcDbText
 10
21111.33658691468
 20
13.93031261557587
 30
0.0
 40
15.10926987833649
  1
)
 41
0.9749529320154244
  7
arial-
100
AcDbText
  0
TEXT
  5
2F3
330
1F
100
AcDbEntity
  8
Ech.1_5
  6
Continuous
 62
     7
390
5F
100
AcDbText
 10
20830.63543881485
 20
-10.06398574772354
 30
0.0
 40
14.17473656190131
  1
< 600
 41
0.9858318667626798
  7
arial-
100
AcDbText
  0
TEXT
  5
2F4
330
1F
100
AcDbEntity
  8
Ech.1_5
  6
Continuous
 62
     7
390
5F
100
AcDbText
 10
21013.9431921592
 20
-12.00759227277013
 30
0.0
 40
13.4467440363109
  1
³
 41
0.9972772665729455
  7
symbol-
100
AcDbText
  0
TEXT
  5
2F5
330
1F
100
AcDbEntity
  8
Ech.1_5
  6
Continuous
 62
     7
390
5F
100
AcDbText
 10
21030.06779283328
 20
-11.97945125165459
 30
0.0
 40
14.17473656190131
  1
600
 41
0.985497156984467
  7
arial-
100
AcDbText
  0
TEXT
  5
2F6
330
1F
100
AcDbEntity
  8
Ech.1_5
  6
Continuous
 62
     7
390
5F
100
AcDbText
 10
20634.35351135692
 20
-34.96858098296761
 30
0.0
 40
13.96628455363805
  1
21 - 23
 41
0.9991302424108526
  7
arial-
100
AcDbText
  0
TEXT
  5
2F7
330
1F
100
AcDbEntity
  8
Ech.1_5
  6
Continuous
 62
     7
390
5F
100
AcDbText
 10
20845.29188252156
 20
-34.96792736226374
 30
0.0
 40
14.00473283033666
  1
5
 41
0.957479986250318
  7
arial-
100
AcDbText
  0
TEXT
  5
2F8
330
1F
100
AcDbEntity
  8
Ech.1_5
  6
Continuous
 62
     7
390
5F
100
AcDbText
 10
21028.32560995882
 20
-34.96792736226374
 30
0.0
 40
14.00473283033666
  1
5
 41
0.957479986250318
  7
arial-
100
AcDbText
  0
TEXT
  5
2F9
330
1F
100
AcDbEntity
  8
Ech.1_5
  6
Continuous
 62
     7
390
5F
100
AcDbText
 10
20634.35337642305
 20
-58.83008236886235
 30
0.0
 40
13.99078389325465
  1
24 - 27
 41
0.9976158911650291
  7
arial-
100
AcDbText
  0
TEXT
  5
2FA
330
1F
100
AcDbEntity
  8
Ech.1_5
  6
Continuous
 62
     7
390
5F
100
AcDbText
 10
20845.29188252156
 20
-58.80483141118341
 30
0.0
 40
14.00473283033666
  1
5
 41
0.957479986250318
  7
arial-
100
AcDbText
  0
TEXT
  5
2FB
330
1F
100
AcDbEntity
  8
Ech.1_5
  6
Continuous
 62
     7
390
5F
100
AcDbText
 10
21027.94904579875
 20
-58.80548503188729
 30
0.0
 40
13.96628455363805
  1
6
 41
1.007357357655256
  7
arial-
100
AcDbText
  0
TEXT
  5
2FC
330
1F
100
AcDbEntity
  8
Ech.1_5
  6
Continuous
 62
     7
390
5F
100
AcDbText
 10
20634.35445411526
 20
-83.4937070825541
 30
0.0
 40
13.96628455363805
  1
28 - 45
 41
0.997483841352266
  7
arial-
100
AcDbText
  0
TEXT
  5
2FD
330
1F
100
AcDbEntity
  8
Ech.1_5
  6
Continuous
 62
     7
390
5F
100
AcDbText
 10
20844.91531836149
 20
-83.4937070825541
 30
0.0
 40
13.96628455363805
  1
6
 41
1.007357357655256
  7
arial-
100
AcDbText
  0
TEXT
  5
2FE
330
1F
100
AcDbEntity
  8
Ech.1_5
  6
Continuous
 62
     7
390
5F
100
AcDbText
 10
21027.94904579875
 20
-83.4937070825541
 30
0.0
 40
13.96628455363805
  1
6
 41
1.007357357655256
  7
arial-
100
AcDbText
  0
LINE
  5
2FF
330
1F
100
AcDbEntity
  8
Ech.1_5
  6
Continuous
 62
    18
420
        0
370
    20
390
5F
100
AcDbLine
 10
19505.20704734458
 20
2.440764768980443
 30
0.0
 11
19822.45141804351
 21
2.440764768980443
 31
0.0
  0
LINE
  5
300
330
1F
100
AcDbEntity
  8
Ech.1_5
  6
Continuous
 62
    18
420
        0
370
    20
390
5F
100
AcDbLine
 10
19505.20704734458
 20
2.440764768980443
 30
0.0
 11
19505.20704734458
 21
-24.56625001225621
 31
0.0
  0
LINE
  5
301
330
1F
100
AcDbEntity
  8
Ech.1_5
  6
Continuous
 62
    18
420
        0
370
    20
390
5F
100
AcDbLine
 10
19822.45141804351
 20
2.440764768980443
 30
0.0
 11
19952.01223957671
 21
2.440764768980443
 31
0.0
  0
LINE
  5
302
330
1F
100
AcDbEntity
  8
Ech.1_5
  6
Continuous
 62
    18
420
        0
370
    20
390
5F
100
AcDbLine
 10
19822.45141804351
 20
2.440764768980443
 30
0.0
 11
19822.45141804351
 21
-24.56625001225621
 31
0.0
  0
LINE
  5
303
330
1F
100
AcDbEntity
  8
Ech.1_5
  6
Continuous
 62
    18
420
        0
370
    20
390
5F
100
AcDbLine
 10
19952.01223957671
 20
2.440764768980443
 30
0.0
 11
20088.97052204741
 21
2.440764768980443
 31
0.0
  0
LINE
  5
304
330
1F
100
AcDbEntity
  8
Ech.1_5
  6
Continuous
 62
    18
420
        0
370
    20
390
5F
100
AcDbLine
 10
19952.01223957671
 20
2.440764768980443
 30
0.0
 11
19952.01223957671
 21
-24.56625001225621
 31
0.0
  0
LINE
  5
305
330
1F
100
AcDbEntity
  8
Ech.1_5
  6
Continuous
 62
    18
420
        0
370
    20
390
5F
100
AcDbLine
 10
20088.97052204741
 20
2.440764768980443
 30
0.0
 11
20210.9225484146
 21
2.440764768980443
 31
0.0
  0
LINE
  5
306
330
1F
100
AcDbEntity
  8
Ech.1_5
  6
Continuous
 62
    18
420
        0
370
    20
390
5F
100
AcDbLine
 10
20088.97052204741
 20
2.440764768980443
 30
0.0
 11
20088.97052204741
 21
-24.56625001225621
 31
0.0
  0
LINE
  5
307
330
1F
100
AcDbEntity
  8
Ech.1_5
  6
Continuous
 62
    18
420
        0
370
    20
390
5F
100
AcDbLine
 10
20210.9225484146
 20
2.440764768980443
 30
0.0
 11
20210.9225484146
 21
-24.56625001225621
 31
0.0
  0
LINE
  5
308
330
1F
100
AcDbEntity
  8
Ech.1_5
  6
Continuous
 62
    18
420
        0
370
    20
390
5F
100
AcDbLine
 10
19505.20704734458
 20
-24.56625001225621
 30
0.0
 11
19822.45141804351
 21
-24.56625001225621
 31
0.0
  0
LINE
  5
309
330
1F
100
AcDbEntity
  8
Ech.1_5
  6
Continuous
 62
    18
420
        0
370
    20
390
5F
100
AcDbLine
 10
19505.20704734458
 20
-24.56625001225621
 30
0.0
 11
19505.20704734458
 21
-48.57248513493687
 31
0.0
  0
LINE
  5
30A
330
1F
100
AcDbEntity
  8
Ech.1_5
  6
Continuous
 62
    18
420
        0
370
     0
390
5F
100
AcDbLine
 10
19505.20704734458
 20
-48.57248513493687
 30
0.0
 11
19822.45141804351
 21
-48.57248513493687
 31
0.0
  0
LINE
  5
30B
330
1F
100
AcDbEntity
  8
Ech.1_5
  6
Continuous
 62
    18
420
        0
370
    20
390
5F
100
AcDbLine
 10
19822.45141804351
 20
-24.56625001225621
 30
0.0
 11
19952.01223957671
 21
-24.56625001225621
 31
0.0
  0
LINE
  5
30C
330
1F
100
AcDbEntity
  8
Ech.1_5
  6
Continuous
 62
    18
420
        0
370
    20
390
5F
100
AcDbLine
 10
19822.45141804351
 20
-24.56625001225621
 30
0.0
 11
19822.45141804351
 21
-48.57248513493687
 31
0.0
  0
LINE
  5
30D
330
1F
100
AcDbEntity
  8
Ech.1_5
  6
Continuous
 62
    18
420
        0
370
     0
390
5F
100
AcDbLine
 10
19822.45141804351
 20
-48.57248513493687
 30
0.0
 11
19952.01223957671
 21
-48.57248513493687
 31
0.0
  0
LINE
  5
30E
330
1F
100
AcDbEntity
  8
Ech.1_5
  6
Continuous
 62
    18
420
        0
370
    20
390
5F
100
AcDbLine
 10
19952.01223957671
 20
-24.56625001225621
 30
0.0
 11
20088.97052204741
 21
-24.56625001225621
 31
0.0
  0
LINE
  5
30F
330
1F
100
AcDbEntity
  8
Ech.1_5
  6
Continuous
 62
    18
420
        0
370
    20
390
5F
100
AcDbLine
 10
19952.01223957671
 20
-24.56625001225621
 30
0.0
 11
19952.01223957671
 21
-48.57248513493687
 31
0.0
  0
LINE
  5
310
330
1F
100
AcDbEntity
  8
Ech.1_5
  6
Continuous
 62
    18
420
        0
370
     0
390
5F
100
AcDbLine
 10
19952.01223957671
 20
-48.57248513493687
 30
0.0
 11
20088.97052204741
 21
-48.57248513493687
 31
0.0
  0
LINE
  5
311
330
1F
100
AcDbEntity
  8
Ech.1_5
  6
Continuous
 62
    18
420
        0
370
    20
390
5F
100
AcDbLine
 10
20088.97052204741
 20
-24.56625001225621
 30
0.0
 11
20210.9225484146
 21
-24.56625001225621
 31
0.0
  0
LINE
  5
312
330
1F
100
AcDbEntity
  8
Ech.1_5
  6
Continuous
 62
    18
420
        0
370
    20
390
5F
100
AcDbLine
 10
20088.97052204741
 20
-24.56625001225621
 30
0.0
 11
20088.97052204741
 21
-48.57248513493687
 31
0.0
  0
LINE
  5
313
330
1F
100
AcDbEntity
  8
Ech.1_5
  6
Continuous
 62
    18
420
        0
370
    20
390
5F
100
AcDbLine
 10
20210.9225484146
 20
-24.56625001225621
 30
0.0
 11
20210.9225484146
 21
-48.57248513493687
 31
0.0
  0
LINE
  5
314
330
1F
100
AcDbEntity
  8
Ech.1_5
  6
Continuous
 62
    18
420
        0
370
     0
390
5F
100
AcDbLine
 10
20088.97052204741
 20
-48.57248513493687
 30
0.0
 11
20210.9225484146
 21
-48.57248513493687
 31
0.0
  0
TEXT
  5
315
330
1F
100
AcDbEntity
  8
Ech.1_5
  6
Continuous
 62
     7
390
5F
100
AcDbText
 10
19506.18085524463
 20
-16.61483534056708
 30
0.0
 40
14.69529588705879
  1
Humidité des lames
 41
0.9493175017052119
  7
arial-
100
AcDbText
  0
TEXT
  5
316
330
1F
100
AcDbEntity
  8
Ech.1_5
  6
Continuous
 62
     7
390
5F
100
AcDbText
 10
19847.5974956464
 20
-19.10969583760678
 30
0.0
 40
14.2351964902154
  1
12% à 17%
 41
0.9792081458935034
  7
arial-
100
AcDbText
  0
TEXT
  5
317
330
1F
100
AcDbEntity
  8
Ech.1_5
  6
Continuous
 62
     7
390
5F
100
AcDbText
 10
19978.63780859224
 20
-16.32325780462205
 30
0.0
 40
14.2351964902154
  1
18% à 22%
 41
0.9792081458935034
  7
arial-
100
AcDbText
  0
TEXT
  5
318
330
1F
100
AcDbEntity
  8
Ech.1_5
  6
Continuous
 62
     7
390
5F
100
AcDbText
 10
20121.30203176884
 20
-16.33830644091171
 30
0.0
 40
13.82847659049495
  1
>22% *
 41
1.01108907054663
  7
arial-
100
AcDbText
  0
TEXT
  5
319
330
1F
100
AcDbEntity
  8
Ech.1_5
  6
Continuous
 62
     7
390
5F
100
AcDbText
 10
19506.20973616464
 20
-43.62627153089341
 30
0.0
 40
13.90764725799779
  1
Epaisseur de la cale de pose (mm)
 41
1.002440814374618
  7
arial-
100
AcDbText
  0
TEXT
  5
31A
330
1F
100
AcDbEntity
  8
Ech.1_5
  6
Continuous
 62
     7
390
5F
100
AcDbText
 10
19864.64563003857
 20
-43.83220278578705
 30
0.0
 40
14.06549749189913
  1
7 ou 6
 41
0.9934882867624478
  7
arial-
100
AcDbText
  0
TEXT
  5
31B
330
1F
100
AcDbEntity
  8
Ech.1_5
  6
Continuous
 62
     7
390
5F
100
AcDbText
 10
19998.12350638642
 20
-43.83102604633153
 30
0.0
 40
14.13471745987107
  1
5 ou 4
 41
0.9875698889666606
  7
arial-
100
AcDbText
  0
TEXT
  5
31C
330
1F
100
AcDbEntity
  8
Ech.1_5
  6
Continuous
 62
     7
390
5F
100
AcDbText
 10
20127.45725918102
 20
-43.83220278578705
 30
0.0
 40
14.06549749189913
  1
3 ou 2
 41
0.9945488560570968
  7
arial-
100
AcDbText
  0
3DFACE
  5
31D
102
{ACAD_REACTORS
330
31E
102
}
330
1F
100
AcDbEntity
  8
Ech.1_5
  6
Continuous
 62
   190
370
    15
390
5F
100
AcDbFace
 10
21270.8745995366
 20
263.0468856332591
 30
-265.0000000000077
 11
21285.8745995366
 21
311.0468856332591
 31
-265.0000000000077
 12
20970.34327930085
 22
311.0468856332591
 32
-265.0000000000077
 13
20955.34327930083
 23
263.0468856332591
 33
-265.0000000000077
  0
TEXT
  5
31F
330
1F
100
AcDbEntity
  8
Ech.1_5
  6
Continuous
 62
     7
390
5F
100
AcDbText
 10
20637.48455130053
 20
712.4472446867451
 30
0.0
 40
12.57543321137085
  1
Longueur de vis
 41
0.9931946998719025
  7
arial-
100
AcDbText
  0
TEXT
  5
320
330
1F
100
AcDbEntity
  8
Ech.1_5
  6
Continuous
 62
     7
390
5F
100
AcDbText
 10
20770.87711323904
 20
712.3525206443737
 30
0.0
 40
11.73162708679835
  1
³
 41
1.016443285196103
  7
symbol-
100
AcDbText
  0
TEXT
  5
321
330
1F
100
AcDbEntity
  8
Ech.1_5
  6
Continuous
 62
     7
390
5F
100
AcDbText
 10
20784.92993369073
 20
712.3566051567057
 30
0.0
 40
12.6619882290783
  1
S+e
 41
0.9853051388716848
  7
arial-
100
AcDbText
  0
LWPOLYLINE
  5
322
102
{ACAD_REACTORS
330
285
330
286
330
287
102
}
330
1F
100
AcDbEntity
  8
Ech.1_5
  6
Continuous
 62
   190
370
    15
390
5F
100
AcDbPolyline
 90
        5
 70
     0
 43
0.0
 10
21333.47353496287
 20
997.5202142996422
 10
20348.47353496286
 20
997.5202142996422
 10
20348.47353496286
 20
1093.037177305407
 10
21333.47353496287
 20
1093.037177305407
 10
21333.47353496287
 20
997.5202142996422
  0
LWPOLYLINE
  5
323
102
{ACAD_REACTORS
330
285
330
286
330
287
102
}
330
1F
100
AcDbEntity
  8
Ech.1_5
  6
Continuous
 62
   190
370
    15
390
5F
100
AcDbPolyline
 90
        5
 70
     0
 43
0.0
 10
21333.47353496287
 20
-146.549750629405
 10
20348.47353496286
 20
-146.549750629405
 10
20348.47353496286
 20
-124.549750629405
 10
21333.47353496287
 20
-124.549750629405
 10
21333.47353496287
 20
-146.549750629405
  0
LWPOLYLINE
  5
324
102
{ACAD_REACTORS
330
285
330
286
330
287
102
}
330
1F
100
AcDbEntity
  8
Ech.1_5
  6
Continuous
 62
   190
370
    15
390
5F
100
AcDbPolyline
 90
        5
 70
     0
 43
0.0
 10
21333.47353496287
 20
-203.4208958598902
 10
20348.47353496286
 20
-203.4208958598902
 10
20348.47353496286
 20
-179.6938675491256
 10
21333.47353496287
 20
-179.6938675491256
 10
21333.47353496287
 20
-203.4208958598902
  0
LWPOLYLINE
  5
325
102
{ACAD_REACTORS
330
287
102
}
330
1F
100
AcDbEntity
  8
Ech.1_5
  6
Continuous
 62
   190
370
    15
390
5F
100
AcDbPolyline
 90
        5
 70
     0
 43
0.0
 10
21333.47353496287
 20
-261.9628226946224
 10
21333.47353496287
 20
1093.037177305407
 10
20348.47353496286
 20
1093.037177305407
 10
20348.47353496286
 20
-261.9628226946224
 10
21333.47353496287
 20
-261.9628226946224
  0
LINE
  5
326
102
{ACAD_REACTORS
330
285
330
286
330
287
102
}
330
1F
100
AcDbEntity
  8
Ech.1_5
  6
Continuous
 62
   190
370
    15
390
5F
100
AcDbLine
 10
20536.67809692583
 20
-124.549750629405
 30
0.0
 11
20536.67809692583
 21
-146.549750629405
 31
0.0
  0
LINE
  5
327
102
{ACAD_REACTORS
330
285
330
286
330
287
102
}
330
1F
100
AcDbEntity
  8
Ech.1_5
  6
Continuous
 62
   190
370
    15
390
5F
100
AcDbLine
 10
21193.67619955637
 20
-124.549750629405
 30
0.0
 11
21193.67619955637
 21
-146.549750629405
 31
0.0
  0
LINE
  5
328
102
{ACAD_REACTORS
330
285
330
286
330
287
102
}
330
1F
100
AcDbEntity
  8
Ech.1_5
  6
Continuous
 62
   190
370
    15
390
5F
100
AcDbLine
 10
20692.83331492118
 20
-124.549750629405
 30
0.0
 11
20692.83331492118
 21
-146.549750629405
 31
0.0
  0
LINE
  5
329
330
1F
100
AcDbEntity
  8
Ech.1_5
  6
Continuous
 62
   190
370
    20
390
5F
100
AcDbLine
 10
20400.13817670271
 20
828.0235874354257
 30
0.0
 11
20429.75406885929
 21
922.7944423365116
 31
0.0
  0
LINE
  5
32A
330
1F
100
AcDbEntity
  8
Ech.1_5
  6
Continuous
 62
   190
370
    20
390
5F
100
AcDbLine
 10
20621.86876469586
 20
828.0235874354257
 30
0.0
 11
20651.48465685244
 21
922.7944423365116
 31
0.0
  0
LINE
  5
32B
330
1F
100
AcDbEntity
  8
Ech.1_5
  6
Continuous
 62
   190
370
    20
390
5F
100
AcDbLine
 10
20952.64150546641
 20
456.8825424916577
 30
0.0
 11
21002.34319748187
 21
615.9279569411301
 31
0.0
  0
LINE
  5
32C
330
1F
100
AcDbEntity
  8
Ech.1_5
  6
Continuous
 62
   190
370
    20
390
5F
100
AcDbLine
 10
21244.64895419114
 20
456.8825424916577
 30
0.0
 11
21294.35064620659
 21
615.9279569411301
 31
0.0
  0
LINE
  5
32D
330
1F
100
AcDbEntity
  8
Ech.1_5
  6
Continuous
 62
   190
370
    20
390
5F
100
AcDbLine
 10
20933.45006060755
 20
192.9885858147172
 30
0.0
 11
20985.4848123549
 21
359.4997914062114
 31
0.0
  0
LINE
  5
32E
330
1F
100
AcDbEntity
  8
Ech.1_5
  6
Continuous
 62
   190
370
    20
390
5F
100
AcDbLine
 10
21248.98138084331
 20
192.9885858147172
 30
0.0
 11
21301.01613259067
 21
359.4997914062114
 31
0.0
  0
LINE
  5
32F
102
{ACAD_REACTORS
330
330
330
331
102
}
330
1F
100
AcDbEntity
  8
ASSY
 62
   190
370
     5
390
5F
100
AcDbLine
 10
21105.63959470241
 20
447.7753412975289
 30
0.0
 11
21105.63959470241
 21
450.8753412975057
 31
0.0
  0
LINE
  5
332
102
{ACAD_REACTORS
330
330
330
331
102
}
330
1F
100
AcDbEntity
  8
ASSY
 62
   190
370
     5
390
5F
100
AcDbLine
 10
21099.23959470241
 20
450.8753412975057
 30
0.0
 11
21099.23959470241
 21
453.9753412975115
 31
0.0
  0
LINE
  5
333
102
{ACAD_REACTORS
330
330
330
331
102
}
330
1F
100
AcDbEntity
  8
ASSY
 62
   190
370
     5
390
5F
100
AcDbLine
 10
21105.63959470241
 20
453.9753412975115
 30
0.0
 11
21107.43959470241
 21
452.4253412975231
 31
0.0
  0
LINE
  5
334
102
{ACAD_REACTORS
330
330
330
331
102
}
330
1F
100
AcDbEntity
  8
ASSY
 62
   190
370
     5
390
5F
100
AcDbLine
 10
21107.43959470241
 20
452.4253412975231
 30
0.0
 11
21105.63959470241
 21
450.8753412975057
 31
0.0
  0
LINE
  5
335
102
{ACAD_REACTORS
330
330
330
331
102
}
330
1F
100
AcDbEntity
  8
ASSY
 62
   190
370
     5
390
5F
100
AcDbLine
 10
21099.23959470241
 20
450.8753412975057
 30
0.0
 11
21097.43959470241
 21
449.3253412975173
 31
0.0
  0
LINE
  5
336
102
{ACAD_REACTORS
330
330
330
331
102
}
330
1F
100
AcDbEntity
  8
ASSY
 62
   190
370
     5
390
5F
100
AcDbLine
 10
21097.43959470241
 20
449.3253412975173
 30
0.0
 11
21099.23959470241
 21
447.7753412975289
 31
0.0
  0
LINE
  5
337
102
{ACAD_REACTORS
330
330
330
331
102
}
330
1F
100
AcDbEntity
  8
ASSY
 62
   190
370
     5
390
5F
100
AcDbLine
 10
21099.23959470241
 20
447.7753412975289
 30
0.0
 11
21105.63959470241
 21
450.8753412975057
 31
0.0
  0
LINE
  5
338
102
{ACAD_REACTORS
330
330
330
331
102
}
330
1F
100
AcDbEntity
  8
ASSY
 62
   190
370
     5
390
5F
100
AcDbLine
 10
21099.23959470241
 20
450.8753412975057
 30
0.0
 11
21105.63959470241
 21
453.9753412975115
 31
0.0
  0
LINE
  5
339
102
{ACAD_REACTORS
330
330
330
331
102
}
330
1F
100
AcDbEntity
  8
ASSY
 62
   190
370
     5
390
5F
100
AcDbLine
 10
21097.43959470241
 20
449.3253412975173
 30
0.0
 11
21107.43959470241
 21
452.4253412975231
 31
0.0
  0
LINE
  5
33A
102
{ACAD_REACTORS
330
330
330
331
102
}
330
1F
100
AcDbEntity
  8
ASSY
 62
   190
370
     5
390
5F
100
AcDbLine
 10
21102.43959470241
 20
434.9408423101995
 30
0.0
 11
21104.76051269698
 21
444.2495359511522
 31
0.0
  0
LINE
  5
33B
102
{ACAD_REACTORS
330
330
330
331
102
}
330
1F
100
AcDbEntity
  8
ASSY
 62
   190
370
     5
390
5F
100
AcDbLine
 10
21102.43959470241
 20
434.9408423101995
 30
0.0
 11
21100.61885720001
 21
442.2434215697867
 31
0.0
  0
LINE
  5
33C
102
{ACAD_REACTORS
330
330
330
331
102
}
330
1F
100
AcDbEntity
  8
ASSY
 62
   190
370
     5
390
5F
100
AcDbLine
 10
21105.63959470241
 20
453.9753412975115
 30
0.0
 11
21105.63959470241
 21
457.0753412975173
 31
0.0
  0
LINE
  5
33D
102
{ACAD_REACTORS
330
330
330
331
102
}
330
1F
100
AcDbEntity
  8
ASSY
 62
   190
370
     5
390
5F
100
AcDbLine
 10
21099.23959470241
 20
457.0753412975173
 30
0.0
 11
21099.23959470241
 21
460.1753412975231
 31
0.0
  0
LINE
  5
33E
102
{ACAD_REACTORS
330
330
330
331
102
}
330
1F
100
AcDbEntity
  8
ASSY
 62
   190
370
     5
390
5F
100
AcDbLine
 10
21099.23959470241
 20
457.0753412975173
 30
0.0
 11
21097.43959470241
 21
455.5253412975289
 31
0.0
  0
LINE
  5
33F
102
{ACAD_REACTORS
330
330
330
331
102
}
330
1F
100
AcDbEntity
  8
ASSY
 62
   190
370
     5
390
5F
100
AcDbLine
 10
21097.43959470241
 20
455.5253412975289
 30
0.0
 11
21099.23959470241
 21
453.9753412975115
 31
0.0
  0
LINE
  5
340
102
{ACAD_REACTORS
330
330
330
331
102
}
330
1F
100
AcDbEntity
  8
ASSY
 62
   190
370
     5
390
5F
100
AcDbLine
 10
21099.23959470241
 20
453.9753412975115
 30
0.0
 11
21105.63959470241
 21
457.0753412975173
 31
0.0
  0
LINE
  5
341
102
{ACAD_REACTORS
330
330
330
331
102
}
330
1F
100
AcDbEntity
  8
ASSY
 62
   190
370
     5
390
5F
100
AcDbLine
 10
21097.43959470241
 20
455.5253412975289
 30
0.0
 11
21107.43959470241
 21
458.6253412975057
 31
0.0
  0
LINE
  5
342
102
{ACAD_REACTORS
330
330
330
331
102
}
330
1F
100
AcDbEntity
  8
ASSY
 62
   190
370
     5
390
5F
100
AcDbLine
 10
21099.23959470241
 20
457.0753412975173
 30
0.0
 11
21105.63959470241
 21
460.1753412975231
 31
0.0
  0
LINE
  5
343
102
{ACAD_REACTORS
330
330
330
331
102
}
330
1F
100
AcDbEntity
  8
ASSY
 62
   190
370
     5
390
5F
100
AcDbLine
 10
21105.63959470241
 20
460.1753412975231
 30
0.0
 11
21107.43959470241
 21
458.6253412975057
 31
0.0
  0
LINE
  5
344
102
{ACAD_REACTORS
330
330
330
331
102
}
330
1F
100
AcDbEntity
  8
ASSY
 62
   190
370
     5
390
5F
100
AcDbLine
 10
21107.43959470241
 20
458.6253412975057
 30
0.0
 11
21105.63959470241
 21
457.0753412975173
 31
0.0
  0
LINE
  5
345
102
{ACAD_REACTORS
330
330
330
331
102
}
330
1F
100
AcDbEntity
  8
ASSY
 62
   190
370
     5
390
5F
100
AcDbLine
 10
21105.63959470241
 20
460.1753412975231
 30
0.0
 11
21105.63959470241
 21
463.2753412975289
 31
0.0
  0
LINE
  5
346
102
{ACAD_REACTORS
330
330
330
331
102
}
330
1F
100
AcDbEntity
  8
ASSY
 62
   190
370
     5
390
5F
100
AcDbLine
 10
21099.23959470241
 20
463.2753412975289
 30
0.0
 11
21099.23959470241
 21
466.3753412975057
 31
0.0
  0
LINE
  5
347
102
{ACAD_REACTORS
330
330
330
331
102
}
330
1F
100
AcDbEntity
  8
ASSY
 62
   190
370
     5
390
5F
100
AcDbLine
 10
21099.23959470241
 20
463.2753412975289
 30
0.0
 11
21097.43959470241
 21
461.7253412975115
 31
0.0
  0
LINE
  5
348
102
{ACAD_REACTORS
330
330
330
331
102
}
330
1F
100
AcDbEntity
  8
ASSY
 62
   190
370
     5
390
5F
100
AcDbLine
 10
21097.43959470241
 20
461.7253412975115
 30
0.0
 11
21099.23959470241
 21
460.1753412975231
 31
0.0
  0
LINE
  5
349
102
{ACAD_REACTORS
330
330
330
331
102
}
330
1F
100
AcDbEntity
  8
ASSY
 62
   190
370
     5
390
5F
100
AcDbLine
 10
21099.23959470241
 20
460.1753412975231
 30
0.0
 11
21105.63959470241
 21
463.2753412975289
 31
0.0
  0
LINE
  5
34A
102
{ACAD_REACTORS
330
330
330
331
102
}
330
1F
100
AcDbEntity
  8
ASSY
 62
   190
370
     5
390
5F
100
AcDbLine
 10
21097.43959470241
 20
461.7253412975115
 30
0.0
 11
21107.43959470241
 21
464.8253412975173
 31
0.0
  0
LINE
  5
34B
102
{ACAD_REACTORS
330
330
330
331
102
}
330
1F
100
AcDbEntity
  8
ASSY
 62
   190
370
     5
390
5F
100
AcDbLine
 10
21099.23959470241
 20
463.2753412975289
 30
0.0
 11
21105.63959470241
 21
466.3753412975057
 31
0.0
  0
LINE
  5
34C
102
{ACAD_REACTORS
330
330
330
331
102
}
330
1F
100
AcDbEntity
  8
ASSY
 62
   190
370
     5
390
5F
100
AcDbLine
 10
21105.63959470241
 20
466.3753412975057
 30
0.0
 11
21107.43959470241
 21
464.8253412975173
 31
0.0
  0
LINE
  5
34D
102
{ACAD_REACTORS
330
330
330
331
102
}
330
1F
100
AcDbEntity
  8
ASSY
 62
   190
370
     5
390
5F
100
AcDbLine
 10
21107.43959470241
 20
464.8253412975173
 30
0.0
 11
21105.63959470241
 21
463.2753412975289
 31
0.0
  0
LINE
  5
34E
102
{ACAD_REACTORS
330
330
330
331
102
}
330
1F
100
AcDbEntity
  8
ASSY
 62
   190
370
     5
390
5F
100
AcDbLine
 10
21105.63959470241
 20
466.3753412975057
 30
0.0
 11
21105.63959470241
 21
469.4753412975115
 31
0.0
  0
LINE
  5
34F
102
{ACAD_REACTORS
330
330
330
331
102
}
330
1F
100
AcDbEntity
  8
ASSY
 62
   190
370
     5
390
5F
100
AcDbLine
 10
21099.23959470241
 20
469.4753412975115
 30
0.0
 11
21097.43959470241
 21
467.9253412975231
 31
0.0
  0
LINE
  5
350
102
{ACAD_REACTORS
330
330
330
331
102
}
330
1F
100
AcDbEntity
  8
ASSY
 62
   190
370
     5
390
5F
100
AcDbLine
 10
21097.43959470241
 20
467.9253412975231
 30
0.0
 11
21107.43959470241
 21
471.0253412975289
 31
0.0
  0
LINE
  5
351
102
{ACAD_REACTORS
330
330
330
331
102
}
330
1F
100
AcDbEntity
  8
ASSY
 62
   190
370
     5
390
5F
100
AcDbLine
 10
21097.43959470241
 20
467.9253412975231
 30
0.0
 11
21099.23959470241
 21
466.3753412975057
 31
0.0
  0
LINE
  5
352
102
{ACAD_REACTORS
330
330
330
331
102
}
330
1F
100
AcDbEntity
  8
ASSY
 62
   190
370
     5
390
5F
100
AcDbLine
 10
21099.23959470241
 20
466.3753412975057
 30
0.0
 11
21105.63959470241
 21
469.4753412975115
 31
0.0
  0
LINE
  5
353
102
{ACAD_REACTORS
330
330
330
331
102
}
330
1F
100
AcDbEntity
  8
ASSY
 62
   190
370
     5
390
5F
100
AcDbLine
 10
21099.23959470241
 20
469.4753412975115
 30
0.0
 11
21105.63959470241
 21
472.5753412975173
 31
0.0
  0
LINE
  5
354
102
{ACAD_REACTORS
330
330
330
331
102
}
330
1F
100
AcDbEntity
  8
ASSY
 62
   190
370
     5
390
5F
100
AcDbLine
 10
21105.63959470241
 20
472.5753412975173
 30
0.0
 11
21107.43959470241
 21
471.0253412975289
 31
0.0
  0
LINE
  5
355
102
{ACAD_REACTORS
330
330
330
331
102
}
330
1F
100
AcDbEntity
  8
ASSY
 62
   190
370
     5
390
5F
100
AcDbLine
 10
21107.43959470241
 20
471.0253412975289
 30
0.0
 11
21105.63959470241
 21
469.4753412975115
 31
0.0
  0
LINE
  5
356
102
{ACAD_REACTORS
330
330
330
331
102
}
330
1F
100
AcDbEntity
  8
ASSY
 62
   190
370
     5
390
5F
100
AcDbLine
 10
21111.93959470241
 20
574.9408423101995
 30
0.0
 11
21111.93959470241
 21
573.7008423102088
 31
0.0
  0
LINE
  5
357
102
{ACAD_REACTORS
330
330
330
331
102
}
330
1F
100
AcDbEntity
  8
ASSY
 62
   190
370
     5
390
5F
100
AcDbLine
 10
21092.93959470241
 20
573.7008423102088
 30
0.0
 11
21092.93959470241
 21
574.9408423101995
 31
0.0
  0
LINE
  5
358
102
{ACAD_REACTORS
330
330
330
331
102
}
330
1F
100
AcDbEntity
  8
ASSY
 62
   190
370
     5
390
5F
100
AcDbLine
 10
21092.93959470241
 20
574.9408423101995
 30
0.0
 11
21111.93959470241
 21
574.9408423101995
 31
0.0
  0
LINE
  5
359
102
{ACAD_REACTORS
330
330
330
331
102
}
330
1F
100
AcDbEntity
  8
ASSY
 62
   190
370
     5
390
5F
100
AcDbLine
 10
21092.93959470241
 20
573.7008423102088
 30
0.0
 11
21111.93959470241
 21
573.7008423102088
 31
0.0
  0
LINE
  5
35A
102
{ACAD_REACTORS
330
330
330
331
102
}
330
1F
100
AcDbEntity
  8
ASSY
 62
   190
370
     5
390
5F
100
AcDbLine
 10
21111.93959470241
 20
573.7008423102088
 30
0.0
 11
21107.31012399281
 21
568.8223980858747
 31
0.0
  0
LINE
  5
35B
102
{ACAD_REACTORS
330
330
330
331
102
}
330
1F
100
AcDbEntity
  8
ASSY
 62
   190
370
     5
390
5F
100
AcDbLine
 10
21092.93959470241
 20
573.7008423102088
 30
0.0
 11
21097.569065412
 21
568.8223980858747
 31
0.0
  0
LINE
  5
35C
102
{ACAD_REACTORS
330
330
330
331
102
}
330
1F
100
AcDbEntity
  8
ASSY
 62
   190
370
     5
390
5F
100
AcDbLine
 10
21107.18081482308
 20
568.6411133158836
 30
0.0
 11
21106.26557303605
 21
566.8829502011358
 31
0.0
  0
LINE
  5
35D
102
{ACAD_REACTORS
330
330
330
331
102
}
330
1F
100
AcDbEntity
  8
ASSY
 62
   190
370
     5
390
5F
100
AcDbLine
 10
21097.69837458173
 20
568.6411133158836
 30
0.0
 11
21098.61361636877
 21
566.8829502011358
 31
0.0
  0
LINE
  5
35E
102
{ACAD_REACTORS
330
330
330
331
102
}
330
1F
100
AcDbEntity
  8
ASSY
 62
   190
370
     5
390
5F
100
AcDbLine
 10
21100.61885720001
 20
442.2434215697867
 30
0.0
 11
21104.76051269698
 21
444.2495359511522
 31
0.0
  0
LINE
  5
35F
102
{ACAD_REACTORS
330
330
330
331
102
}
330
1F
100
AcDbEntity
  8
ASSY
 62
   190
370
     5
390
5F
100
AcDbLine
 10
21098.46463805881
 20
443.4431047379912
 30
0.0
 11
21107.08048460801
 21
446.1140171682637
 31
0.0
  0
LINE
  5
360
102
{ACAD_REACTORS
330
330
330
331
102
}
330
1F
100
AcDbEntity
  8
ASSY
 62
   190
370
     5
390
5F
100
AcDbLine
 10
21099.92922595121
 20
445.0093814336578
 30
0.0
 11
21105.63959470241
 21
447.7753412975289
 31
0.0
  0
LINE
  5
361
102
{ACAD_REACTORS
330
330
330
331
102
}
330
1F
100
AcDbEntity
  8
ASSY
 62
   190
370
     5
390
5F
100
AcDbLine
 10
21105.63959470241
 20
447.7753412975289
 30
0.0
 11
21107.08048460801
 21
446.1140171682637
 31
0.0
  0
LINE
  5
362
102
{ACAD_REACTORS
330
330
330
331
102
}
330
1F
100
AcDbEntity
  8
ASSY
 62
   190
370
     5
390
5F
100
AcDbLine
 10
21107.08048460801
 20
446.1140171682637
 30
0.0
 11
21104.76051269698
 21
444.2495359511522
 31
0.0
  0
LINE
  5
363
102
{ACAD_REACTORS
330
330
330
331
102
}
330
1F
100
AcDbEntity
  8
ASSY
 62
   190
370
     5
390
5F
100
AcDbLine
 10
21100.61885720001
 20
442.2434215697867
 30
0.0
 11
21098.46463805881
 21
443.4431047379912
 31
0.0
  0
LINE
  5
364
102
{ACAD_REACTORS
330
330
330
331
102
}
330
1F
100
AcDbEntity
  8
ASSY
 62
   190
370
     5
390
5F
100
AcDbLine
 10
21098.46463805881
 20
443.4431047379912
 30
0.0
 11
21099.92922595121
 21
445.0093814336578
 31
0.0
  0
LINE
  5
365
102
{ACAD_REACTORS
330
330
330
331
102
}
330
1F
100
AcDbEntity
  8
ASSY
 62
   190
370
     5
390
5F
100
AcDbLine
 10
21099.92922595121
 20
445.0093814336578
 30
0.0
 11
21099.23959470241
 21
447.7753412975289
 31
0.0
  0
ARC
  5
366
102
{ACAD_REACTORS
330
330
330
331
102
}
330
1F
100
AcDbEntity
  8
ASSY
 62
   190
370
     5
390
5F
100
AcDbCircle
 10
21096.9887659154
 20
568.271714425526
 30
0.0
 40
0.7999999997099912
100
AcDbArc
 50
27.49999999215837
 51
43.49999999927888
  0
ARC
  5
367
102
{ACAD_REACTORS
330
330
330
331
102
}
330
1F
100
AcDbEntity
  8
ASSY
 62
   190
370
     5
390
5F
100
AcDbCircle
 10
21107.89042348892
 20
568.2717144258795
 30
0.0
 40
0.799999999107252
100
AcDbArc
 50
136.4999999945122
 51
152.5000000138132
  0
LINE
  5
368
102
{ACAD_REACTORS
330
330
330
331
102
}
330
1F
100
AcDbEntity
  8
ASSY
 62
   190
370
     5
390
5F
100
AcDbLine
 10
21098.61361636877
 20
566.8829502011358
 30
0.0
 11
21106.26557303605
 21
566.8829502011358
 31
0.0
  0
LINE
  5
369
102
{ACAD_REACTORS
330
330
330
331
102
}
330
1F
100
AcDbEntity
  8
ASSY
 62
   190
370
     5
390
5F
100
AcDbLine
 10
21107.31012399281
 20
568.8223980858747
 30
0.0
 11
21097.569065412
 21
568.8223980858747
 31
0.0
  0
LINE
  5
36A
102
{ACAD_REACTORS
330
330
330
331
102
}
330
1F
100
AcDbEntity
  8
ASSY
 62
   190
370
     5
390
5F
100
AcDbLine
 10
21097.69837458173
 20
568.6411133158836
 30
0.0
 11
21107.18081482308
 21
568.6411133158836
 31
0.0
  0
LINE
  5
36B
102
{ACAD_REACTORS
330
330
330
331
102
}
330
1F
100
AcDbEntity
  8
ASSY
 62
   190
370
     5
390
5F
100
AcDbLine
 10
21107.18959470241
 20
573.7008423102088
 30
0.0
 11
21104.38388579257
 21
569.816468124307
 31
0.0
  0
LINE
  5
36C
102
{ACAD_REACTORS
330
330
330
331
102
}
330
1F
100
AcDbEntity
  8
ASSY
 62
   190
370
     5
390
5F
100
AcDbLine
 10
21097.68959470241
 20
573.7008423102088
 30
0.0
 11
21100.49530361225
 21
569.816468124307
 31
0.0
  0
LINE
  5
36D
102
{ACAD_REACTORS
330
330
330
331
102
}
330
1F
100
AcDbEntity
  8
ASSY
 62
   190
370
     5
390
5F
100
AcDbLine
 10
21108.13959470241
 20
573.7008423102088
 30
0.0
 11
21106.40493021407
 21
569.9808423102077
 31
0.0
  0
ARC
  5
36E
102
{ACAD_REACTORS
330
330
330
331
102
}
330
1F
100
AcDbEntity
  8
ASSY
 62
   190
370
     5
390
5F
100
AcDbCircle
 10
21107.6444178003
 20
570.0164867133047
 30
0.0
 40
1.239999999950602
100
AcDbArc
 50
181.647221952905
 51
254.3600231515154
  0
ARC
  5
36F
102
{ACAD_REACTORS
330
330
330
331
102
}
330
1F
100
AcDbEntity
  8
ASSY
 62
   190
370
     5
390
5F
100
AcDbCircle
 10
21102.43959470241
 20
571.2208423102466
 30
0.0
 40
2.398444224371766
100
AcDbArc
 50
215.8408281059925
 51
324.1591718940075
  0
ARC
  5
370
102
{ACAD_REACTORS
330
330
330
331
102
}
330
1F
100
AcDbEntity
  8
ASSY
 62
   190
370
     5
390
5F
100
AcDbCircle
 10
21097.23477160452
 20
570.0164867133047
 30
0.0
 40
1.239999999950602
100
AcDbArc
 50
285.6399768484846
 51
358.352778047095
  0
LINE
  5
371
102
{ACAD_REACTORS
330
330
330
331
102
}
330
1F
100
AcDbEntity
  8
ASSY
 62
   190
370
     5
390
5F
100
AcDbLine
 10
21096.73959470241
 20
573.7008423102088
 30
0.0
 11
21098.47425919075
 21
569.9808423102077
 31
0.0
  0
LINE
  5
372
102
{ACAD_REACTORS
330
330
330
331
102
}
330
1F
100
AcDbEntity
  8
DEFPOINTS
 62
   190
370
    18
390
5F
100
AcDbLine
 10
21102.43959470241
 20
574.9408423101995
 30
0.0
 11
21102.43959470241
 21
434.9408423101995
 31
0.0
  0
LINE
  5
373
102
{ACAD_REACTORS
330
330
330
331
102
}
330
1F
100
AcDbEntity
  8
ASSY
 62
   190
370
     5
390
5F
100
AcDbLine
 10
21099.23959470241
 20
469.4753412975115
 30
0.0
 11
21099.23959470241
 21
472.5753412975173
 31
0.0
  0
LINE
  5
374
102
{ACAD_REACTORS
330
330
330
331
102
}
330
1F
100
AcDbEntity
  8
ASSY
 62
   190
370
     5
390
5F
100
AcDbLine
 10
21105.63959470241
 20
472.5753412975173
 30
0.0
 11
21105.63959470241
 21
475.6753412975231
 31
0.0
  0
LINE
  5
375
102
{ACAD_REACTORS
330
330
330
331
102
}
330
1F
100
AcDbEntity
  8
ASSY
 62
   190
370
     5
390
5F
100
AcDbLine
 10
21099.23959470241
 20
475.6753412975231
 30
0.0
 11
21097.43959470241
 21
474.1253412975057
 31
0.0
  0
LINE
  5
376
102
{ACAD_REACTORS
330
330
330
331
102
}
330
1F
100
AcDbEntity
  8
ASSY
 62
   190
370
     5
390
5F
100
AcDbLine
 10
21097.43959470241
 20
474.1253412975057
 30
0.0
 11
21099.23959470241
 21
472.5753412975173
 31
0.0
  0
LINE
  5
377
102
{ACAD_REACTORS
330
330
330
331
102
}
330
1F
100
AcDbEntity
  8
ASSY
 62
   190
370
     5
390
5F
100
AcDbLine
 10
21099.23959470241
 20
472.5753412975173
 30
0.0
 11
21105.63959470241
 21
475.6753412975231
 31
0.0
  0
LINE
  5
378
102
{ACAD_REACTORS
330
330
330
331
102
}
330
1F
100
AcDbEntity
  8
ASSY
 62
   190
370
     5
390
5F
100
AcDbLine
 10
21097.43959470241
 20
474.1253412975057
 30
0.0
 11
21107.43959470241
 21
477.2253412975115
 31
0.0
  0
LINE
  5
379
102
{ACAD_REACTORS
330
330
330
331
102
}
330
1F
100
AcDbEntity
  8
ASSY
 62
   190
370
     5
390
5F
100
AcDbLine
 10
21099.23959470241
 20
475.6753412975231
 30
0.0
 11
21105.63959470241
 21
478.7753412975289
 31
0.0
  0
LINE
  5
37A
102
{ACAD_REACTORS
330
330
330
331
102
}
330
1F
100
AcDbEntity
  8
ASSY
 62
   190
370
     5
390
5F
100
AcDbLine
 10
21105.63959470241
 20
478.7753412975289
 30
0.0
 11
21107.43959470241
 21
477.2253412975115
 31
0.0
  0
LINE
  5
37B
102
{ACAD_REACTORS
330
330
330
331
102
}
330
1F
100
AcDbEntity
  8
ASSY
 62
   190
370
     5
390
5F
100
AcDbLine
 10
21107.43959470241
 20
477.2253412975115
 30
0.0
 11
21105.63959470241
 21
475.6753412975231
 31
0.0
  0
LINE
  5
37C
102
{ACAD_REACTORS
330
330
330
331
102
}
330
1F
100
AcDbEntity
  8
ASSY
 62
   190
370
     5
390
5F
100
AcDbLine
 10
21099.23959470241
 20
475.6753412975231
 30
0.0
 11
21099.23959470241
 21
478.7753412975289
 31
0.0
  0
LINE
  5
37D
102
{ACAD_REACTORS
330
330
330
331
102
}
330
1F
100
AcDbEntity
  8
ASSY
 62
   190
370
     5
390
5F
100
AcDbLine
 10
21105.63959470241
 20
478.7753412975289
 30
0.0
 11
21105.63959470241
 21
481.8753412975057
 31
0.0
  0
LINE
  5
37E
102
{ACAD_REACTORS
330
330
330
331
102
}
330
1F
100
AcDbEntity
  8
ASSY
 62
   190
370
     5
390
5F
100
AcDbLine
 10
21099.23959470241
 20
481.8753412975057
 30
0.0
 11
21097.43959470241
 21
480.3253412975173
 31
0.0
  0
LINE
  5
37F
102
{ACAD_REACTORS
330
330
330
331
102
}
330
1F
100
AcDbEntity
  8
ASSY
 62
   190
370
     5
390
5F
100
AcDbLine
 10
21097.43959470241
 20
480.3253412975173
 30
0.0
 11
21099.23959470241
 21
478.7753412975289
 31
0.0
  0
LINE
  5
380
102
{ACAD_REACTORS
330
330
330
331
102
}
330
1F
100
AcDbEntity
  8
ASSY
 62
   190
370
     5
390
5F
100
AcDbLine
 10
21099.23959470241
 20
478.7753412975289
 30
0.0
 11
21105.63959470241
 21
481.8753412975057
 31
0.0
  0
LINE
  5
381
102
{ACAD_REACTORS
330
330
330
331
102
}
330
1F
100
AcDbEntity
  8
ASSY
 62
   190
370
     5
390
5F
100
AcDbLine
 10
21097.43959470241
 20
480.3253412975173
 30
0.0
 11
21107.43959470241
 21
483.4253412975231
 31
0.0
  0
LINE
  5
382
102
{ACAD_REACTORS
330
330
330
331
102
}
330
1F
100
AcDbEntity
  8
ASSY
 62
   190
370
     5
390
5F
100
AcDbLine
 10
21099.23959470241
 20
481.8753412975057
 30
0.0
 11
21105.63959470241
 21
484.9753412975115
 31
0.0
  0
LINE
  5
383
102
{ACAD_REACTORS
330
330
330
331
102
}
330
1F
100
AcDbEntity
  8
ASSY
 62
   190
370
     5
390
5F
100
AcDbLine
 10
21105.63959470241
 20
484.9753412975115
 30
0.0
 11
21107.43959470241
 21
483.4253412975231
 31
0.0
  0
LINE
  5
384
102
{ACAD_REACTORS
330
330
330
331
102
}
330
1F
100
AcDbEntity
  8
ASSY
 62
   190
370
     5
390
5F
100
AcDbLine
 10
21107.43959470241
 20
483.4253412975231
 30
0.0
 11
21105.63959470241
 21
481.8753412975057
 31
0.0
  0
LINE
  5
385
102
{ACAD_REACTORS
330
330
330
331
102
}
330
1F
100
AcDbEntity
  8
ASSY
 62
   190
370
     5
390
5F
100
AcDbLine
 10
21099.23959470241
 20
481.8753412975057
 30
0.0
 11
21099.23959470241
 21
484.9753412975115
 31
0.0
  0
LINE
  5
386
102
{ACAD_REACTORS
330
330
330
331
102
}
330
1F
100
AcDbEntity
  8
ASSY
 62
   190
370
     5
390
5F
100
AcDbLine
 10
21105.63959470241
 20
484.9753412975115
 30
0.0
 11
21105.63959470241
 21
488.0753412975173
 31
0.0
  0
LINE
  5
387
102
{ACAD_REACTORS
330
330
330
331
102
}
330
1F
100
AcDbEntity
  8
ASSY
 62
   190
370
     5
390
5F
100
AcDbLine
 10
21099.23959470241
 20
488.0753412975173
 30
0.0
 11
21097.43959470241
 21
486.5253412975289
 31
0.0
  0
LINE
  5
388
102
{ACAD_REACTORS
330
330
330
331
102
}
330
1F
100
AcDbEntity
  8
ASSY
 62
   190
370
     5
390
5F
100
AcDbLine
 10
21097.43959470241
 20
486.5253412975289
 30
0.0
 11
21099.23959470241
 21
484.9753412975115
 31
0.0
  0
LINE
  5
389
102
{ACAD_REACTORS
330
330
330
331
102
}
330
1F
100
AcDbEntity
  8
ASSY
 62
   190
370
     5
390
5F
100
AcDbLine
 10
21099.23959470241
 20
484.9753412975115
 30
0.0
 11
21105.63959470241
 21
488.0753412975173
 31
0.0
  0
LINE
  5
38A
102
{ACAD_REACTORS
330
330
330
331
102
}
330
1F
100
AcDbEntity
  8
ASSY
 62
   190
370
     5
390
5F
100
AcDbLine
 10
21097.43959470241
 20
486.5253412975289
 30
0.0
 11
21107.43959470241
 21
489.6253412975057
 31
0.0
  0
LINE
  5
38B
102
{ACAD_REACTORS
330
330
330
331
102
}
330
1F
100
AcDbEntity
  8
ASSY
 62
   190
370
     5
390
5F
100
AcDbLine
 10
21099.23959470241
 20
488.0753412975173
 30
0.0
 11
21105.63959470241
 21
491.1753412975231
 31
0.0
  0
LINE
  5
38C
102
{ACAD_REACTORS
330
330
330
331
102
}
330
1F
100
AcDbEntity
  8
ASSY
 62
   190
370
     5
390
5F
100
AcDbLine
 10
21105.63959470241
 20
491.1753412975231
 30
0.0
 11
21107.43959470241
 21
489.6253412975057
 31
0.0
  0
LINE
  5
38D
102
{ACAD_REACTORS
330
330
330
331
102
}
330
1F
100
AcDbEntity
  8
ASSY
 62
   190
370
     5
390
5F
100
AcDbLine
 10
21107.43959470241
 20
489.6253412975057
 30
0.0
 11
21105.63959470241
 21
488.0753412975173
 31
0.0
  0
LINE
  5
38E
102
{ACAD_REACTORS
330
330
330
331
102
}
330
1F
100
AcDbEntity
  8
ASSY
 62
   190
370
     5
390
5F
100
AcDbLine
 10
21099.23959470241
 20
488.0753412975173
 30
0.0
 11
21099.23959470241
 21
491.1753412975231
 31
0.0
  0
LINE
  5
38F
102
{ACAD_REACTORS
330
330
330
331
102
}
330
1F
100
AcDbEntity
  8
ASSY
 62
   190
370
     5
390
5F
100
AcDbLine
 10
21105.63959470241
 20
491.1753412975231
 30
0.0
 11
21105.63959470241
 21
494.2753412975289
 31
0.0
  0
LINE
  5
390
102
{ACAD_REACTORS
330
330
330
331
102
}
330
1F
100
AcDbEntity
  8
ASSY
 62
   190
370
     5
390
5F
100
AcDbLine
 10
21099.23959470241
 20
494.2753412975289
 30
0.0
 11
21097.43959470241
 21
492.7253412975115
 31
0.0
  0
LINE
  5
391
102
{ACAD_REACTORS
330
330
330
331
102
}
330
1F
100
AcDbEntity
  8
ASSY
 62
   190
370
     5
390
5F
100
AcDbLine
 10
21097.43959470241
 20
492.7253412975115
 30
0.0
 11
21099.23959470241
 21
491.1753412975231
 31
0.0
  0
LINE
  5
392
102
{ACAD_REACTORS
330
330
330
331
102
}
330
1F
100
AcDbEntity
  8
ASSY
 62
   190
370
     5
390
5F
100
AcDbLine
 10
21099.23959470241
 20
491.1753412975231
 30
0.0
 11
21105.63959470241
 21
494.2753412975289
 31
0.0
  0
LINE
  5
393
102
{ACAD_REACTORS
330
330
330
331
102
}
330
1F
100
AcDbEntity
  8
ASSY
 62
   190
370
     5
390
5F
100
AcDbLine
 10
21097.43959470241
 20
492.7253412975115
 30
0.0
 11
21107.43959470241
 21
495.8253412975173
 31
0.0
  0
LINE
  5
394
102
{ACAD_REACTORS
330
330
330
331
102
}
330
1F
100
AcDbEntity
  8
ASSY
 62
   190
370
     5
390
5F
100
AcDbLine
 10
21099.23959470241
 20
494.2753412975289
 30
0.0
 11
21105.63959470241
 21
497.3753412975057
 31
0.0
  0
LINE
  5
395
102
{ACAD_REACTORS
330
330
330
331
102
}
330
1F
100
AcDbEntity
  8
ASSY
 62
   190
370
     5
390
5F
100
AcDbLine
 10
21105.63959470241
 20
497.3753412975057
 30
0.0
 11
21107.43959470241
 21
495.8253412975173
 31
0.0
  0
LINE
  5
396
102
{ACAD_REACTORS
330
330
330
331
102
}
330
1F
100
AcDbEntity
  8
ASSY
 62
   190
370
     5
390
5F
100
AcDbLine
 10
21107.43959470241
 20
495.8253412975173
 30
0.0
 11
21105.63959470241
 21
494.2753412975289
 31
0.0
  0
LINE
  5
397
102
{ACAD_REACTORS
330
330
330
331
102
}
330
1F
100
AcDbEntity
  8
ASSY
 62
   190
370
     5
390
5F
100
AcDbLine
 10
21099.23959470241
 20
494.2753412975289
 30
0.0
 11
21099.23959470241
 21
497.3753412975057
 31
0.0
  0
LINE
  5
398
102
{ACAD_REACTORS
330
330
330
331
102
}
330
1F
100
AcDbEntity
  8
ASSY
 62
   190
370
     5
390
5F
100
AcDbLine
 10
21105.63959470241
 20
497.3753412975057
 30
0.0
 11
21105.63959470241
 21
500.4753412975115
 31
0.0
  0
LINE
  5
399
102
{ACAD_REACTORS
330
330
330
331
102
}
330
1F
100
AcDbEntity
  8
ASSY
 62
   190
370
     5
390
5F
100
AcDbLine
 10
21099.23959470241
 20
500.4753412975115
 30
0.0
 11
21097.43959470241
 21
498.9253412975231
 31
0.0
  0
LINE
  5
39A
102
{ACAD_REACTORS
330
330
330
331
102
}
330
1F
100
AcDbEntity
  8
ASSY
 62
   190
370
     5
390
5F
100
AcDbLine
 10
21097.43959470241
 20
498.9253412975231
 30
0.0
 11
21099.23959470241
 21
497.3753412975057
 31
0.0
  0
LINE
  5
39B
102
{ACAD_REACTORS
330
330
330
331
102
}
330
1F
100
AcDbEntity
  8
ASSY
 62
   190
370
     5
390
5F
100
AcDbLine
 10
21099.23959470241
 20
497.3753412975057
 30
0.0
 11
21105.63959470241
 21
500.4753412975115
 31
0.0
  0
LINE
  5
39C
102
{ACAD_REACTORS
330
330
330
331
102
}
330
1F
100
AcDbEntity
  8
ASSY
 62
   190
370
     5
390
5F
100
AcDbLine
 10
21097.43959470241
 20
498.9253412975231
 30
0.0
 11
21107.43959470241
 21
502.0253412975289
 31
0.0
  0
LINE
  5
39D
102
{ACAD_REACTORS
330
330
330
331
102
}
330
1F
100
AcDbEntity
  8
ASSY
 62
   190
370
     5
390
5F
100
AcDbLine
 10
21099.23959470241
 20
500.4753412975115
 30
0.0
 11
21105.63959470241
 21
503.5753412975173
 31
0.0
  0
LINE
  5
39E
102
{ACAD_REACTORS
330
330
330
331
102
}
330
1F
100
AcDbEntity
  8
ASSY
 62
   190
370
     5
390
5F
100
AcDbLine
 10
21105.63959470241
 20
503.5753412975173
 30
0.0
 11
21107.43959470241
 21
502.0253412975289
 31
0.0
  0
LINE
  5
39F
102
{ACAD_REACTORS
330
330
330
331
102
}
330
1F
100
AcDbEntity
  8
ASSY
 62
   190
370
     5
390
5F
100
AcDbLine
 10
21107.43959470241
 20
502.0253412975289
 30
0.0
 11
21105.63959470241
 21
500.4753412975115
 31
0.0
  0
LINE
  5
3A0
102
{ACAD_REACTORS
330
330
330
331
102
}
330
1F
100
AcDbEntity
  8
ASSY
 62
   190
370
     5
390
5F
100
AcDbLine
 10
21099.23959470241
 20
500.4753412975115
 30
0.0
 11
21099.23959470241
 21
503.5753412975173
 31
0.0
  0
LINE
  5
3A1
102
{ACAD_REACTORS
330
330
330
331
102
}
330
1F
100
AcDbEntity
  8
ASSY
 62
   190
370
     5
390
5F
100
AcDbLine
 10
21105.63959470241
 20
503.5753412975173
 30
0.0
 11
21105.63959470241
 21
506.6753412975231
 31
0.0
  0
LINE
  5
3A2
102
{ACAD_REACTORS
330
330
330
331
102
}
330
1F
100
AcDbEntity
  8
ASSY
 62
   190
370
     5
390
5F
100
AcDbLine
 10
21099.23959470241
 20
506.6753412975231
 30
0.0
 11
21097.43959470241
 21
505.1253412975057
 31
0.0
  0
LINE
  5
3A3
102
{ACAD_REACTORS
330
330
330
331
102
}
330
1F
100
AcDbEntity
  8
ASSY
 62
   190
370
     5
390
5F
100
AcDbLine
 10
21097.43959470241
 20
505.1253412975057
 30
0.0
 11
21099.23959470241
 21
503.5753412975173
 31
0.0
  0
LINE
  5
3A4
102
{ACAD_REACTORS
330
330
330
331
102
}
330
1F
100
AcDbEntity
  8
ASSY
 62
   190
370
     5
390
5F
100
AcDbLine
 10
21099.23959470241
 20
503.5753412975173
 30
0.0
 11
21105.63959470241
 21
506.6753412975231
 31
0.0
  0
LINE
  5
3A5
102
{ACAD_REACTORS
330
330
330
331
102
}
330
1F
100
AcDbEntity
  8
ASSY
 62
   190
370
     5
390
5F
100
AcDbLine
 10
21097.43959470241
 20
505.1253412975057
 30
0.0
 11
21107.43959470241
 21
508.2253412975115
 31
0.0
  0
LINE
  5
3A6
102
{ACAD_REACTORS
330
330
330
331
102
}
330
1F
100
AcDbEntity
  8
ASSY
 62
   190
370
     5
390
5F
100
AcDbLine
 10
21099.23959470241
 20
506.6753412975231
 30
0.0
 11
21105.63959470241
 21
509.7753412975289
 31
0.0
  0
LINE
  5
3A7
102
{ACAD_REACTORS
330
330
330
331
102
}
330
1F
100
AcDbEntity
  8
ASSY
 62
   190
370
     5
390
5F
100
AcDbLine
 10
21105.63959470241
 20
509.7753412975289
 30
0.0
 11
21107.43959470241
 21
508.2253412975115
 31
0.0
  0
LINE
  5
3A8
102
{ACAD_REACTORS
330
330
330
331
102
}
330
1F
100
AcDbEntity
  8
ASSY
 62
   190
370
     5
390
5F
100
AcDbLine
 10
21107.43959470241
 20
508.2253412975115
 30
0.0
 11
21105.63959470241
 21
506.6753412975231
 31
0.0
  0
LINE
  5
3A9
102
{ACAD_REACTORS
330
330
330
331
102
}
330
1F
100
AcDbEntity
  8
ASSY
 62
   190
370
     5
390
5F
100
AcDbLine
 10
21099.23959470241
 20
506.6753412975231
 30
0.0
 11
21099.23959470241
 21
509.7753412975289
 31
0.0
  0
LINE
  5
3AA
102
{ACAD_REACTORS
330
330
330
331
102
}
330
1F
100
AcDbEntity
  8
ASSY
 62
   190
370
     5
390
5F
100
AcDbLine
 10
21105.63959470241
 20
509.7753412975289
 30
0.0
 11
21105.63959470241
 21
512.8753412975057
 31
0.0
  0
LINE
  5
3AB
102
{ACAD_REACTORS
330
330
330
331
102
}
330
1F
100
AcDbEntity
  8
ASSY
 62
   190
370
     5
390
5F
100
AcDbLine
 10
21099.23959470241
 20
512.8753412975057
 30
0.0
 11
21097.43959470241
 21
511.3253412975173
 31
0.0
  0
LINE
  5
3AC
102
{ACAD_REACTORS
330
330
330
331
102
}
330
1F
100
AcDbEntity
  8
ASSY
 62
   190
370
     5
390
5F
100
AcDbLine
 10
21097.43959470241
 20
511.3253412975173
 30
0.0
 11
21099.23959470241
 21
509.7753412975289
 31
0.0
  0
LINE
  5
3AD
102
{ACAD_REACTORS
330
330
330
331
102
}
330
1F
100
AcDbEntity
  8
ASSY
 62
   190
370
     5
390
5F
100
AcDbLine
 10
21099.23959470241
 20
509.7753412975289
 30
0.0
 11
21105.63959470241
 21
512.8753412975057
 31
0.0
  0
LINE
  5
3AE
102
{ACAD_REACTORS
330
330
330
331
102
}
330
1F
100
AcDbEntity
  8
ASSY
 62
   190
370
     5
390
5F
100
AcDbLine
 10
21097.43959470241
 20
511.3253412975173
 30
0.0
 11
21107.43959470241
 21
514.4253412975231
 31
0.0
  0
LINE
  5
3AF
102
{ACAD_REACTORS
330
330
330
331
102
}
330
1F
100
AcDbEntity
  8
ASSY
 62
   190
370
     5
390
5F
100
AcDbLine
 10
21099.23959470241
 20
512.8753412975057
 30
0.0
 11
21105.63959470241
 21
515.9753412975115
 31
0.0
  0
LINE
  5
3B0
102
{ACAD_REACTORS
330
330
330
331
102
}
330
1F
100
AcDbEntity
  8
ASSY
 62
   190
370
     5
390
5F
100
AcDbLine
 10
21105.63959470241
 20
515.9753412975115
 30
0.0
 11
21107.43959470241
 21
514.4253412975231
 31
0.0
  0
LINE
  5
3B1
102
{ACAD_REACTORS
330
330
330
331
102
}
330
1F
100
AcDbEntity
  8
ASSY
 62
   190
370
     5
390
5F
100
AcDbLine
 10
21107.43959470241
 20
514.4253412975231
 30
0.0
 11
21105.63959470241
 21
512.8753412975057
 31
0.0
  0
LINE
  5
3B2
102
{ACAD_REACTORS
330
330
330
331
102
}
330
1F
100
AcDbEntity
  8
ASSY
 62
   190
370
     5
390
5F
100
AcDbLine
 10
21099.23959470241
 20
565.9594529746973
 30
0.0
 11
21099.23959470241
 21
512.8753412975057
 31
0.0
  0
LINE
  5
3B3
102
{ACAD_REACTORS
330
331
102
}
330
1F
100
AcDbEntity
  8
ASSY
 62
   190
370
     5
390
5F
100
AcDbLine
 10
21098.61361636877
 20
566.8829502011358
 30
0.0
 11
21099.23959470241
 21
565.9594529746973
 31
0.0
  0
LINE
  5
3B4
102
{ACAD_REACTORS
330
330
330
331
102
}
330
1F
100
AcDbEntity
  8
ASSY
 62
   190
370
     5
390
5F
100
AcDbLine
 10
21105.63959470241
 20
565.9594529746973
 30
0.0
 11
21105.63959470241
 21
515.9753412975115
 31
0.0
  0
LINE
  5
3B5
102
{ACAD_REACTORS
330
331
102
}
330
1F
100
AcDbEntity
  8
ASSY
 62
   190
370
     5
390
5F
100
AcDbLine
 10
21106.26557303605
 20
566.8829502011358
 30
0.0
 11
21105.63959470241
 21
565.9594529746973
 31
0.0
  0
LINE
  5
3B6
102
{ACAD_REACTORS
330
3B7
330
331
102
}
330
1F
100
AcDbEntity
  8
ASSY
 62
   190
370
     5
390
5F
100
AcDbLine
 10
21099.23959470241
 20
529.2568958511692
 30
0.0
 11
21099.23959470241
 21
532.3568958511751
 31
0.0
  0
LINE
  5
3B8
102
{ACAD_REACTORS
330
3B7
330
331
102
}
330
1F
100
AcDbEntity
  8
ASSY
 62
   190
370
     5
390
5F
100
AcDbLine
 10
21105.63959470241
 20
532.3568958511751
 30
0.0
 11
21105.63959470241
 21
535.4568958511518
 31
0.0
  0
LINE
  5
3B9
102
{ACAD_REACTORS
330
3B7
330
331
102
}
330
1F
100
AcDbEntity
  8
ASSY
 62
   190
370
     5
390
5F
100
AcDbLine
 10
21099.23959470241
 20
535.4568958511518
 30
0.0
 11
21097.43959470241
 21
533.9068958511634
 31
0.0
  0
LINE
  5
3BA
102
{ACAD_REACTORS
330
3B7
330
331
102
}
330
1F
100
AcDbEntity
  8
ASSY
 62
   190
370
     5
390
5F
100
AcDbLine
 10
21097.43959470241
 20
533.9068958511634
 30
0.0
 11
21099.23959470241
 21
532.3568958511751
 31
0.0
  0
LINE
  5
3BB
102
{ACAD_REACTORS
330
3B7
330
331
102
}
330
1F
100
AcDbEntity
  8
ASSY
 62
   190
370
     5
390
5F
100
AcDbLine
 10
21099.23959470241
 20
532.3568958511751
 30
0.0
 11
21105.63959470241
 21
535.4568958511518
 31
0.0
  0
LINE
  5
3BC
102
{ACAD_REACTORS
330
3B7
330
331
102
}
330
1F
100
AcDbEntity
  8
ASSY
 62
   190
370
     5
390
5F
100
AcDbLine
 10
21097.43959470241
 20
533.9068958511634
 30
0.0
 11
21107.43959470241
 21
537.0068958511692
 31
0.0
  0
LINE
  5
3BD
102
{ACAD_REACTORS
330
3B7
330
331
102
}
330
1F
100
AcDbEntity
  8
ASSY
 62
   190
370
     5
390
5F
100
AcDbLine
 10
21099.23959470241
 20
535.4568958511518
 30
0.0
 11
21105.63959470241
 21
538.5568958511576
 31
0.0
  0
LINE
  5
3BE
102
{ACAD_REACTORS
330
3B7
330
331
102
}
330
1F
100
AcDbEntity
  8
ASSY
 62
   190
370
     5
390
5F
100
AcDbLine
 10
21105.63959470241
 20
538.5568958511576
 30
0.0
 11
21107.43959470241
 21
537.0068958511692
 31
0.0
  0
LINE
  5
3BF
102
{ACAD_REACTORS
330
3B7
330
331
102
}
330
1F
100
AcDbEntity
  8
ASSY
 62
   190
370
     5
390
5F
100
AcDbLine
 10
21107.43959470241
 20
537.0068958511692
 30
0.0
 11
21105.63959470241
 21
535.4568958511518
 31
0.0
  0
LINE
  5
3C0
102
{ACAD_REACTORS
330
3B7
330
331
102
}
330
1F
100
AcDbEntity
  8
ASSY
 62
   190
370
     5
390
5F
100
AcDbLine
 10
21099.23959470241
 20
535.4568958511518
 30
0.0
 11
21099.23959470241
 21
538.5568958511576
 31
0.0
  0
LINE
  5
3C1
102
{ACAD_REACTORS
330
3B7
330
331
102
}
330
1F
100
AcDbEntity
  8
ASSY
 62
   190
370
     5
390
5F
100
AcDbLine
 10
21105.63959470241
 20
538.5568958511576
 30
0.0
 11
21105.63959470241
 21
541.6568958511634
 31
0.0
  0
LINE
  5
3C2
102
{ACAD_REACTORS
330
3B7
330
331
102
}
330
1F
100
AcDbEntity
  8
ASSY
 62
   190
370
     5
390
5F
100
AcDbLine
 10
21099.23959470241
 20
541.6568958511634
 30
0.0
 11
21097.43959470241
 21
540.1068958511751
 31
0.0
  0
LINE
  5
3C3
102
{ACAD_REACTORS
330
3B7
330
331
102
}
330
1F
100
AcDbEntity
  8
ASSY
 62
   190
370
     5
390
5F
100
AcDbLine
 10
21097.43959470241
 20
540.1068958511751
 30
0.0
 11
21099.23959470241
 21
538.5568958511576
 31
0.0
  0
LINE
  5
3C4
102
{ACAD_REACTORS
330
3B7
330
331
102
}
330
1F
100
AcDbEntity
  8
ASSY
 62
   190
370
     5
390
5F
100
AcDbLine
 10
21099.23959470241
 20
538.5568958511576
 30
0.0
 11
21105.63959470241
 21
541.6568958511634
 31
0.0
  0
LINE
  5
3C5
102
{ACAD_REACTORS
330
3B7
330
331
102
}
330
1F
100
AcDbEntity
  8
ASSY
 62
   190
370
     5
390
5F
100
AcDbLine
 10
21097.43959470241
 20
540.1068958511751
 30
0.0
 11
21107.43959470241
 21
543.2068958511518
 31
0.0
  0
LINE
  5
3C6
102
{ACAD_REACTORS
330
3B7
330
331
102
}
330
1F
100
AcDbEntity
  8
ASSY
 62
   190
370
     5
390
5F
100
AcDbLine
 10
21099.23959470241
 20
541.6568958511634
 30
0.0
 11
21105.63959470241
 21
544.7568958511692
 31
0.0
  0
LINE
  5
3C7
102
{ACAD_REACTORS
330
3B7
330
331
102
}
330
1F
100
AcDbEntity
  8
ASSY
 62
   190
370
     5
390
5F
100
AcDbLine
 10
21105.63959470241
 20
544.7568958511692
 30
0.0
 11
21107.43959470241
 21
543.2068958511518
 31
0.0
  0
LINE
  5
3C8
102
{ACAD_REACTORS
330
3B7
330
331
102
}
330
1F
100
AcDbEntity
  8
ASSY
 62
   190
370
     5
390
5F
100
AcDbLine
 10
21107.43959470241
 20
543.2068958511518
 30
0.0
 11
21105.63959470241
 21
541.6568958511634
 31
0.0
  0
LINE
  5
3C9
102
{ACAD_REACTORS
330
3B7
330
331
102
}
330
1F
100
AcDbEntity
  8
ASSY
 62
   190
370
     5
390
5F
100
AcDbLine
 10
21099.23959470241
 20
541.6568958511634
 30
0.0
 11
21099.23959470241
 21
544.7568958511692
 31
0.0
  0
LINE
  5
3CA
102
{ACAD_REACTORS
330
3B7
330
331
102
}
330
1F
100
AcDbEntity
  8
ASSY
 62
   190
370
     5
390
5F
100
AcDbLine
 10
21105.63959470241
 20
544.7568958511692
 30
0.0
 11
21105.63959470241
 21
547.8568958511751
 31
0.0
  0
LINE
  5
3CB
102
{ACAD_REACTORS
330
3B7
330
331
102
}
330
1F
100
AcDbEntity
  8
ASSY
 62
   190
370
     5
390
5F
100
AcDbLine
 10
21099.23959470241
 20
547.8568958511751
 30
0.0
 11
21097.43959470241
 21
546.3068958511576
 31
0.0
  0
LINE
  5
3CC
102
{ACAD_REACTORS
330
3B7
330
331
102
}
330
1F
100
AcDbEntity
  8
ASSY
 62
   190
370
     5
390
5F
100
AcDbLine
 10
21097.43959470241
 20
546.3068958511576
 30
0.0
 11
21099.23959470241
 21
544.7568958511692
 31
0.0
  0
LINE
  5
3CD
102
{ACAD_REACTORS
330
3B7
330
331
102
}
330
1F
100
AcDbEntity
  8
ASSY
 62
   190
370
     5
390
5F
100
AcDbLine
 10
21099.23959470241
 20
544.7568958511692
 30
0.0
 11
21105.63959470241
 21
547.8568958511751
 31
0.0
  0
LINE
  5
3CE
102
{ACAD_REACTORS
330
3B7
330
331
102
}
330
1F
100
AcDbEntity
  8
ASSY
 62
   190
370
     5
390
5F
100
AcDbLine
 10
21097.43959470241
 20
546.3068958511576
 30
0.0
 11
21107.43959470241
 21
549.4068958511634
 31
0.0
  0
LINE
  5
3CF
102
{ACAD_REACTORS
330
3B7
330
331
102
}
330
1F
100
AcDbEntity
  8
ASSY
 62
   190
370
     5
390
5F
100
AcDbLine
 10
21099.23959470241
 20
547.8568958511751
 30
0.0
 11
21105.63959470241
 21
550.9568958511518
 31
0.0
  0
LINE
  5
3D0
102
{ACAD_REACTORS
330
3B7
330
331
102
}
330
1F
100
AcDbEntity
  8
ASSY
 62
   190
370
     5
390
5F
100
AcDbLine
 10
21105.63959470241
 20
550.9568958511518
 30
0.0
 11
21107.43959470241
 21
549.4068958511634
 31
0.0
  0
LINE
  5
3D1
102
{ACAD_REACTORS
330
3B7
330
331
102
}
330
1F
100
AcDbEntity
  8
ASSY
 62
   190
370
     5
390
5F
100
AcDbLine
 10
21107.43959470241
 20
549.4068958511634
 30
0.0
 11
21105.63959470241
 21
547.8568958511751
 31
0.0
  0
LINE
  5
3D2
102
{ACAD_REACTORS
330
3B7
330
331
102
}
330
1F
100
AcDbEntity
  8
ASSY
 62
   190
370
     5
390
5F
100
AcDbLine
 10
21099.23959470241
 20
547.8568958511751
 30
0.0
 11
21099.23959470241
 21
550.9568958511518
 31
0.0
  0
LINE
  5
3D3
102
{ACAD_REACTORS
330
3B7
330
331
102
}
330
1F
100
AcDbEntity
  8
ASSY
 62
   190
370
     5
390
5F
100
AcDbLine
 10
21105.63959470241
 20
550.9568958511518
 30
0.0
 11
21105.63959470241
 21
554.0568958511576
 31
0.0
  0
LINE
  5
3D4
102
{ACAD_REACTORS
330
3B7
330
331
102
}
330
1F
100
AcDbEntity
  8
ASSY
 62
   190
370
     5
390
5F
100
AcDbLine
 10
21099.23959470241
 20
554.0568958511576
 30
0.0
 11
21097.43959470241
 21
552.5068958511692
 31
0.0
  0
LINE
  5
3D5
102
{ACAD_REACTORS
330
3B7
330
331
102
}
330
1F
100
AcDbEntity
  8
ASSY
 62
   190
370
     5
390
5F
100
AcDbLine
 10
21097.43959470241
 20
552.5068958511692
 30
0.0
 11
21099.23959470241
 21
550.9568958511518
 31
0.0
  0
LINE
  5
3D6
102
{ACAD_REACTORS
330
3B7
330
331
102
}
330
1F
100
AcDbEntity
  8
ASSY
 62
   190
370
     5
390
5F
100
AcDbLine
 10
21099.23959470241
 20
550.9568958511518
 30
0.0
 11
21105.63959470241
 21
554.0568958511576
 31
0.0
  0
LINE
  5
3D7
102
{ACAD_REACTORS
330
3B7
330
331
102
}
330
1F
100
AcDbEntity
  8
ASSY
 62
   190
370
     5
390
5F
100
AcDbLine
 10
21097.43959470241
 20
552.5068958511692
 30
0.0
 11
21107.43959470241
 21
555.6068958511751
 31
0.0
  0
LINE
  5
3D8
102
{ACAD_REACTORS
330
3B7
330
331
102
}
330
1F
100
AcDbEntity
  8
ASSY
 62
   190
370
     5
390
5F
100
AcDbLine
 10
21099.23959470241
 20
554.0568958511576
 30
0.0
 11
21105.63959470241
 21
557.1568958511634
 31
0.0
  0
LINE
  5
3D9
102
{ACAD_REACTORS
330
3B7
330
331
102
}
330
1F
100
AcDbEntity
  8
ASSY
 62
   190
370
     5
390
5F
100
AcDbLine
 10
21105.63959470241
 20
557.1568958511634
 30
0.0
 11
21107.43959470241
 21
555.6068958511751
 31
0.0
  0
LINE
  5
3DA
102
{ACAD_REACTORS
330
3B7
330
331
102
}
330
1F
100
AcDbEntity
  8
ASSY
 62
   190
370
     5
390
5F
100
AcDbLine
 10
21107.43959470241
 20
555.6068958511751
 30
0.0
 11
21105.63959470241
 21
554.0568958511576
 31
0.0
  0
LINE
  5
3DB
102
{ACAD_REACTORS
330
3B7
330
331
102
}
330
1F
100
AcDbEntity
  8
ASSY
 62
   190
370
     5
390
5F
100
AcDbLine
 10
21099.23959470241
 20
554.0568958511576
 30
0.0
 11
21099.23959470241
 21
557.1568958511634
 31
0.0
  0
LINE
  5
3DC
102
{ACAD_REACTORS
330
3B7
330
331
102
}
330
1F
100
AcDbEntity
  8
ASSY
 62
   190
370
     5
390
5F
100
AcDbLine
 10
21105.63959470241
 20
557.1568958511634
 30
0.0
 11
21105.63959470241
 21
560.2568958511692
 31
0.0
  0
LINE
  5
3DD
102
{ACAD_REACTORS
330
3B7
330
331
102
}
330
1F
100
AcDbEntity
  8
ASSY
 62
   190
370
     5
390
5F
100
AcDbLine
 10
21099.23959470241
 20
560.2568958511692
 30
0.0
 11
21097.43959470241
 21
558.7068958511518
 31
0.0
  0
LINE
  5
3DE
102
{ACAD_REACTORS
330
3B7
330
331
102
}
330
1F
100
AcDbEntity
  8
ASSY
 62
   190
370
     5
390
5F
100
AcDbLine
 10
21097.43959470241
 20
558.7068958511518
 30
0.0
 11
21099.23959470241
 21
557.1568958511634
 31
0.0
  0
LINE
  5
3DF
102
{ACAD_REACTORS
330
3B7
330
331
102
}
330
1F
100
AcDbEntity
  8
ASSY
 62
   190
370
     5
390
5F
100
AcDbLine
 10
21099.23959470241
 20
557.1568958511634
 30
0.0
 11
21105.63959470241
 21
560.2568958511692
 31
0.0
  0
LINE
  5
3E0
102
{ACAD_REACTORS
330
3B7
330
331
102
}
330
1F
100
AcDbEntity
  8
ASSY
 62
   190
370
     5
390
5F
100
AcDbLine
 10
21097.43959470241
 20
558.7068958511518
 30
0.0
 11
21107.43959470241
 21
561.8068958511576
 31
0.0
  0
LINE
  5
3E1
102
{ACAD_REACTORS
330
3B7
330
331
102
}
330
1F
100
AcDbEntity
  8
ASSY
 62
   190
370
     5
390
5F
100
AcDbLine
 10
21099.23959470241
 20
560.2568958511692
 30
0.0
 11
21105.63959470241
 21
563.3568958511751
 31
0.0
  0
LINE
  5
3E2
102
{ACAD_REACTORS
330
3B7
330
331
102
}
330
1F
100
AcDbEntity
  8
ASSY
 62
   190
370
     5
390
5F
100
AcDbLine
 10
21105.63959470241
 20
563.3568958511751
 30
0.0
 11
21107.43959470241
 21
561.8068958511576
 31
0.0
  0
LINE
  5
3E3
102
{ACAD_REACTORS
330
3B7
330
331
102
}
330
1F
100
AcDbEntity
  8
ASSY
 62
   190
370
     5
390
5F
100
AcDbLine
 10
21107.43959470241
 20
561.8068958511576
 30
0.0
 11
21105.63959470241
 21
560.2568958511692
 31
0.0
  0
LINE
  5
3E4
102
{ACAD_REACTORS
330
3E5
102
}
330
1F
100
AcDbEntity
  8
ASSY
 62
   190
370
     5
390
5F
100
AcDbLine
 10
21116.07895204719
 20
171.0468856332591
 30
0.0
 11
21118.39987004176
 21
180.3555792742118
 31
0.0
  0
LINE
  5
3E6
102
{ACAD_REACTORS
330
3E5
102
}
330
1F
100
AcDbEntity
  8
ASSY
 62
   190
370
     5
390
5F
100
AcDbLine
 10
21116.07895204719
 20
171.0468856332591
 30
0.0
 11
21114.25821454479
 21
178.3494648928463
 31
0.0
  0
LINE
  5
3E7
102
{ACAD_REACTORS
330
3E5
102
}
330
1F
100
AcDbEntity
  8
ASSY
 62
   190
370
     5
390
5F
100
AcDbLine
 10
21119.27895204719
 20
183.8813846205885
 30
0.0
 11
21119.27895204719
 21
186.9813846205652
 31
0.0
  0
LINE
  5
3E8
102
{ACAD_REACTORS
330
3E5
102
}
330
1F
100
AcDbEntity
  8
ASSY
 62
   190
370
     5
390
5F
100
AcDbLine
 10
21112.87895204719
 20
186.9813846205652
 30
0.0
 11
21112.87895204719
 21
190.081384620571
 31
0.0
  0
LINE
  5
3E9
102
{ACAD_REACTORS
330
3E5
102
}
330
1F
100
AcDbEntity
  8
ASSY
 62
   190
370
     5
390
5F
100
AcDbLine
 10
21119.27895204719
 20
190.081384620571
 30
0.0
 11
21121.07895204719
 21
188.5313846205827
 31
0.0
  0
LINE
  5
3EA
102
{ACAD_REACTORS
330
3E5
102
}
330
1F
100
AcDbEntity
  8
ASSY
 62
   190
370
     5
390
5F
100
AcDbLine
 10
21121.07895204719
 20
188.5313846205827
 30
0.0
 11
21119.27895204719
 21
186.9813846205652
 31
0.0
  0
LINE
  5
3EB
102
{ACAD_REACTORS
330
3E5
102
}
330
1F
100
AcDbEntity
  8
ASSY
 62
   190
370
     5
390
5F
100
AcDbLine
 10
21112.87895204719
 20
186.9813846205652
 30
0.0
 11
21111.07895204719
 21
185.4313846205769
 31
0.0
  0
LINE
  5
3EC
102
{ACAD_REACTORS
330
3E5
102
}
330
1F
100
AcDbEntity
  8
ASSY
 62
   190
370
     5
390
5F
100
AcDbLine
 10
21111.07895204719
 20
185.4313846205769
 30
0.0
 11
21112.87895204719
 21
183.8813846205885
 31
0.0
  0
LINE
  5
3ED
102
{ACAD_REACTORS
330
3E5
102
}
330
1F
100
AcDbEntity
  8
ASSY
 62
   190
370
     5
390
5F
100
AcDbLine
 10
21112.87895204719
 20
183.8813846205885
 30
0.0
 11
21119.27895204719
 21
186.9813846205652
 31
0.0
  0
LINE
  5
3EE
102
{ACAD_REACTORS
330
3E5
102
}
330
1F
100
AcDbEntity
  8
ASSY
 62
   190
370
     5
390
5F
100
AcDbLine
 10
21112.87895204719
 20
186.9813846205652
 30
0.0
 11
21119.27895204719
 21
190.081384620571
 31
0.0
  0
LINE
  5
3EF
102
{ACAD_REACTORS
330
3E5
102
}
330
1F
100
AcDbEntity
  8
ASSY
 62
   190
370
     5
390
5F
100
AcDbLine
 10
21111.07895204719
 20
185.4313846205769
 30
0.0
 11
21121.07895204719
 21
188.5313846205827
 31
0.0
  0
LINE
  5
3F0
102
{ACAD_REACTORS
330
3E5
102
}
330
1F
100
AcDbEntity
  8
ASSY
 62
   190
370
     5
390
5F
100
AcDbLine
 10
21119.27895204719
 20
190.081384620571
 30
0.0
 11
21119.27895204719
 21
193.1813846205769
 31
0.0
  0
LINE
  5
3F1
102
{ACAD_REACTORS
330
3E5
102
}
330
1F
100
AcDbEntity
  8
ASSY
 62
   190
370
     5
390
5F
100
AcDbLine
 10
21112.87895204719
 20
193.1813846205769
 30
0.0
 11
21112.87895204719
 21
196.2813846205827
 31
0.0
  0
LINE
  5
3F2
102
{ACAD_REACTORS
330
3E5
102
}
330
1F
100
AcDbEntity
  8
ASSY
 62
   190
370
     5
390
5F
100
AcDbLine
 10
21112.87895204719
 20
193.1813846205769
 30
0.0
 11
21111.07895204719
 21
191.6313846205885
 31
0.0
  0
LINE
  5
3F3
102
{ACAD_REACTORS
330
3E5
102
}
330
1F
100
AcDbEntity
  8
ASSY
 62
   190
370
     5
390
5F
100
AcDbLine
 10
21111.07895204719
 20
191.6313846205885
 30
0.0
 11
21112.87895204719
 21
190.081384620571
 31
0.0
  0
LINE
  5
3F4
102
{ACAD_REACTORS
330
3E5
102
}
330
1F
100
AcDbEntity
  8
ASSY
 62
   190
370
     5
390
5F
100
AcDbLine
 10
21112.87895204719
 20
190.081384620571
 30
0.0
 11
21119.27895204719
 21
193.1813846205769
 31
0.0
  0
LINE
  5
3F5
102
{ACAD_REACTORS
330
3E5
102
}
330
1F
100
AcDbEntity
  8
ASSY
 62
   190
370
     5
390
5F
100
AcDbLine
 10
21111.07895204719
 20
191.6313846205885
 30
0.0
 11
21121.07895204719
 21
194.7313846205652
 31
0.0
  0
LINE
  5
3F6
102
{ACAD_REACTORS
330
3E5
102
}
330
1F
100
AcDbEntity
  8
ASSY
 62
   190
370
     5
390
5F
100
AcDbLine
 10
21112.87895204719
 20
193.1813846205769
 30
0.0
 11
21119.27895204719
 21
196.2813846205827
 31
0.0
  0
LINE
  5
3F7
102
{ACAD_REACTORS
330
3E5
102
}
330
1F
100
AcDbEntity
  8
ASSY
 62
   190
370
     5
390
5F
100
AcDbLine
 10
21119.27895204719
 20
196.2813846205827
 30
0.0
 11
21121.07895204719
 21
194.7313846205652
 31
0.0
  0
LINE
  5
3F8
102
{ACAD_REACTORS
330
3E5
102
}
330
1F
100
AcDbEntity
  8
ASSY
 62
   190
370
     5
390
5F
100
AcDbLine
 10
21121.07895204719
 20
194.7313846205652
 30
0.0
 11
21119.27895204719
 21
193.1813846205769
 31
0.0
  0
LINE
  5
3F9
102
{ACAD_REACTORS
330
3E5
102
}
330
1F
100
AcDbEntity
  8
ASSY
 62
   190
370
     5
390
5F
100
AcDbLine
 10
21119.27895204719
 20
196.2813846205827
 30
0.0
 11
21119.27895204719
 21
199.3813846205885
 31
0.0
  0
LINE
  5
3FA
102
{ACAD_REACTORS
330
3E5
102
}
330
1F
100
AcDbEntity
  8
ASSY
 62
   190
370
     5
390
5F
100
AcDbLine
 10
21112.87895204719
 20
199.3813846205885
 30
0.0
 11
21112.87895204719
 21
202.4813846205652
 31
0.0
  0
LINE
  5
3FB
102
{ACAD_REACTORS
330
3E5
102
}
330
1F
100
AcDbEntity
  8
ASSY
 62
   190
370
     5
390
5F
100
AcDbLine
 10
21112.87895204719
 20
199.3813846205885
 30
0.0
 11
21111.07895204719
 21
197.831384620571
 31
0.0
  0
LINE
  5
3FC
102
{ACAD_REACTORS
330
3E5
102
}
330
1F
100
AcDbEntity
  8
ASSY
 62
   190
370
     5
390
5F
100
AcDbLine
 10
21111.07895204719
 20
197.831384620571
 30
0.0
 11
21112.87895204719
 21
196.2813846205827
 31
0.0
  0
LINE
  5
3FD
102
{ACAD_REACTORS
330
3E5
102
}
330
1F
100
AcDbEntity
  8
ASSY
 62
   190
370
     5
390
5F
100
AcDbLine
 10
21112.87895204719
 20
196.2813846205827
 30
0.0
 11
21119.27895204719
 21
199.3813846205885
 31
0.0
  0
LINE
  5
3FE
102
{ACAD_REACTORS
330
3E5
102
}
330
1F
100
AcDbEntity
  8
ASSY
 62
   190
370
     5
390
5F
100
AcDbLine
 10
21111.07895204719
 20
197.831384620571
 30
0.0
 11
21121.07895204719
 21
200.9313846205769
 31
0.0
  0
LINE
  5
3FF
102
{ACAD_REACTORS
330
3E5
102
}
330
1F
100
AcDbEntity
  8
ASSY
 62
   190
370
     5
390
5F
100
AcDbLine
 10
21112.87895204719
 20
199.3813846205885
 30
0.0
 11
21119.27895204719
 21
202.4813846205652
 31
0.0
  0
LINE
  5
400
102
{ACAD_REACTORS
330
3E5
102
}
330
1F
100
AcDbEntity
  8
ASSY
 62
   190
370
     5
390
5F
100
AcDbLine
 10
21119.27895204719
 20
202.4813846205652
 30
0.0
 11
21121.07895204719
 21
200.9313846205769
 31
0.0
  0
LINE
  5
401
102
{ACAD_REACTORS
330
3E5
102
}
330
1F
100
AcDbEntity
  8
ASSY
 62
   190
370
     5
390
5F
100
AcDbLine
 10
21121.07895204719
 20
200.9313846205769
 30
0.0
 11
21119.27895204719
 21
199.3813846205885
 31
0.0
  0
LINE
  5
402
102
{ACAD_REACTORS
330
3E5
102
}
330
1F
100
AcDbEntity
  8
ASSY
 62
   190
370
     5
390
5F
100
AcDbLine
 10
21119.27895204719
 20
202.4813846205652
 30
0.0
 11
21119.27895204719
 21
205.581384620571
 31
0.0
  0
LINE
  5
403
102
{ACAD_REACTORS
330
3E5
102
}
330
1F
100
AcDbEntity
  8
ASSY
 62
   190
370
     5
390
5F
100
AcDbLine
 10
21112.87895204719
 20
205.581384620571
 30
0.0
 11
21111.07895204719
 21
204.0313846205827
 31
0.0
  0
LINE
  5
404
102
{ACAD_REACTORS
330
3E5
102
}
330
1F
100
AcDbEntity
  8
ASSY
 62
   190
370
     5
390
5F
100
AcDbLine
 10
21111.07895204719
 20
204.0313846205827
 30
0.0
 11
21121.07895204719
 21
207.1313846205885
 31
0.0
  0
LINE
  5
405
102
{ACAD_REACTORS
330
3E5
102
}
330
1F
100
AcDbEntity
  8
ASSY
 62
   190
370
     5
390
5F
100
AcDbLine
 10
21111.07895204719
 20
204.0313846205827
 30
0.0
 11
21112.87895204719
 21
202.4813846205652
 31
0.0
  0
LINE
  5
406
102
{ACAD_REACTORS
330
3E5
102
}
330
1F
100
AcDbEntity
  8
ASSY
 62
   190
370
     5
390
5F
100
AcDbLine
 10
21112.87895204719
 20
202.4813846205652
 30
0.0
 11
21119.27895204719
 21
205.581384620571
 31
0.0
  0
LINE
  5
407
102
{ACAD_REACTORS
330
3E5
102
}
330
1F
100
AcDbEntity
  8
ASSY
 62
   190
370
     5
390
5F
100
AcDbLine
 10
21112.87895204719
 20
205.581384620571
 30
0.0
 11
21119.27895204719
 21
208.6813846205769
 31
0.0
  0
LINE
  5
408
102
{ACAD_REACTORS
330
3E5
102
}
330
1F
100
AcDbEntity
  8
ASSY
 62
   190
370
     5
390
5F
100
AcDbLine
 10
21119.27895204719
 20
208.6813846205769
 30
0.0
 11
21121.07895204719
 21
207.1313846205885
 31
0.0
  0
LINE
  5
409
102
{ACAD_REACTORS
330
3E5
102
}
330
1F
100
AcDbEntity
  8
ASSY
 62
   190
370
     5
390
5F
100
AcDbLine
 10
21121.07895204719
 20
207.1313846205885
 30
0.0
 11
21119.27895204719
 21
205.581384620571
 31
0.0
  0
LINE
  5
40A
102
{ACAD_REACTORS
330
3E5
102
}
330
1F
100
AcDbEntity
  8
ASSY
 62
   190
370
     5
390
5F
100
AcDbLine
 10
21125.57895204719
 20
311.0468856332591
 30
0.0
 11
21125.57895204719
 21
309.8068856332684
 31
0.0
  0
LINE
  5
40B
102
{ACAD_REACTORS
330
3E5
102
}
330
1F
100
AcDbEntity
  8
ASSY
 62
   190
370
     5
390
5F
100
AcDbLine
 10
21106.57895204719
 20
309.8068856332684
 30
0.0
 11
21106.57895204719
 21
311.0468856332591
 31
0.0
  0
LINE
  5
40C
102
{ACAD_REACTORS
330
3E5
102
}
330
1F
100
AcDbEntity
  8
ASSY
 62
   190
370
     5
390
5F
100
AcDbLine
 10
21106.57895204719
 20
311.0468856332591
 30
0.0
 11
21125.57895204719
 21
311.0468856332591
 31
0.0
  0
LINE
  5
40D
102
{ACAD_REACTORS
330
3E5
102
}
330
1F
100
AcDbEntity
  8
ASSY
 62
   190
370
     5
390
5F
100
AcDbLine
 10
21106.57895204719
 20
309.8068856332684
 30
0.0
 11
21125.57895204719
 21
309.8068856332684
 31
0.0
  0
LINE
  5
40E
102
{ACAD_REACTORS
330
3E5
102
}
330
1F
100
AcDbEntity
  8
ASSY
 62
   190
370
     5
390
5F
100
AcDbLine
 10
21125.57895204719
 20
309.8068856332684
 30
0.0
 11
21120.94948133759
 21
304.9284414089343
 31
0.0
  0
LINE
  5
40F
102
{ACAD_REACTORS
330
3E5
102
}
330
1F
100
AcDbEntity
  8
ASSY
 62
   190
370
     5
390
5F
100
AcDbLine
 10
21106.57895204719
 20
309.8068856332684
 30
0.0
 11
21111.20842275678
 21
304.9284414089343
 31
0.0
  0
LINE
  5
410
102
{ACAD_REACTORS
330
3E5
102
}
330
1F
100
AcDbEntity
  8
ASSY
 62
   190
370
     5
390
5F
100
AcDbLine
 10
21120.82017216786
 20
304.7471566389431
 30
0.0
 11
21119.90493038083
 21
302.9889935241954
 31
0.0
  0
LINE
  5
411
102
{ACAD_REACTORS
330
3E5
102
}
330
1F
100
AcDbEntity
  8
ASSY
 62
   190
370
     5
390
5F
100
AcDbLine
 10
21111.33773192651
 20
304.7471566389431
 30
0.0
 11
21112.25297371355
 21
302.9889935241954
 31
0.0
  0
LINE
  5
412
102
{ACAD_REACTORS
330
3E5
102
}
330
1F
100
AcDbEntity
  8
ASSY
 62
   190
370
     5
390
5F
100
AcDbLine
 10
21112.47895204719
 20
302.0654962977569
 30
0.0
 11
21112.47895204719
 21
255.0468856332591
 31
0.0
  0
LINE
  5
413
102
{ACAD_REACTORS
330
3E5
102
}
330
1F
100
AcDbEntity
  8
ASSY
 62
   190
370
     5
390
5F
100
AcDbLine
 10
21112.47895204719
 20
255.0468856332591
 30
0.0
 11
21119.67895204719
 21
255.0468856332591
 31
0.0
  0
LINE
  5
414
102
{ACAD_REACTORS
330
3E5
102
}
330
1F
100
AcDbEntity
  8
ASSY
 62
   190
370
     5
390
5F
100
AcDbLine
 10
21119.67895204719
 20
255.0468856332591
 30
0.0
 11
21119.27895204719
 21
252.6813846205769
 31
0.0
  0
LINE
  5
415
102
{ACAD_REACTORS
330
3E5
102
}
330
1F
100
AcDbEntity
  8
ASSY
 62
   190
370
     5
390
5F
100
AcDbLine
 10
21119.27895204719
 20
252.6813846205769
 30
0.0
 11
21112.87895204719
 21
252.6813846205769
 31
0.0
  0
LINE
  5
416
102
{ACAD_REACTORS
330
3E5
102
}
330
1F
100
AcDbEntity
  8
ASSY
 62
   190
370
     5
390
5F
100
AcDbLine
 10
21112.87895204719
 20
252.6813846205769
 30
0.0
 11
21112.47895204719
 21
255.0468856332591
 31
0.0
  0
LINE
  5
417
102
{ACAD_REACTORS
330
3E5
102
}
330
1F
100
AcDbEntity
  8
ASSY
 62
   190
370
     5
390
5F
100
AcDbLine
 10
21114.25821454479
 20
178.3494648928463
 30
0.0
 11
21118.39987004176
 21
180.3555792742118
 31
0.0
  0
LINE
  5
418
102
{ACAD_REACTORS
330
3E5
102
}
330
1F
100
AcDbEntity
  8
ASSY
 62
   190
370
     5
390
5F
100
AcDbLine
 10
21112.10399540359
 20
179.5491480610508
 30
0.0
 11
21120.71984195279
 21
182.2200604913232
 31
0.0
  0
LINE
  5
419
102
{ACAD_REACTORS
330
3E5
102
}
330
1F
100
AcDbEntity
  8
ASSY
 62
   190
370
     5
390
5F
100
AcDbLine
 10
21113.56858329599
 20
181.1154247567174
 30
0.0
 11
21119.27895204719
 21
183.8813846205885
 31
0.0
  0
LINE
  5
41A
102
{ACAD_REACTORS
330
3E5
102
}
330
1F
100
AcDbEntity
  8
ASSY
 62
   190
370
     5
390
5F
100
AcDbLine
 10
21119.27895204719
 20
183.8813846205885
 30
0.0
 11
21120.71984195279
 21
182.2200604913232
 31
0.0
  0
LINE
  5
41B
102
{ACAD_REACTORS
330
3E5
102
}
330
1F
100
AcDbEntity
  8
ASSY
 62
   190
370
     5
390
5F
100
AcDbLine
 10
21120.71984195279
 20
182.2200604913232
 30
0.0
 11
21118.39987004176
 21
180.3555792742118
 31
0.0
  0
LINE
  5
41C
102
{ACAD_REACTORS
330
3E5
102
}
330
1F
100
AcDbEntity
  8
ASSY
 62
   190
370
     5
390
5F
100
AcDbLine
 10
21114.25821454479
 20
178.3494648928463
 30
0.0
 11
21112.10399540359
 21
179.5491480610508
 31
0.0
  0
LINE
  5
41D
102
{ACAD_REACTORS
330
3E5
102
}
330
1F
100
AcDbEntity
  8
ASSY
 62
   190
370
     5
390
5F
100
AcDbLine
 10
21112.10399540359
 20
179.5491480610508
 30
0.0
 11
21113.56858329599
 21
181.1154247567174
 31
0.0
  0
LINE
  5
41E
102
{ACAD_REACTORS
330
3E5
102
}
330
1F
100
AcDbEntity
  8
ASSY
 62
   190
370
     5
390
5F
100
AcDbLine
 10
21113.56858329599
 20
181.1154247567174
 30
0.0
 11
21112.87895204719
 21
183.8813846205885
 31
0.0
  0
ARC
  5
41F
102
{ACAD_REACTORS
330
3E5
102
}
330
1F
100
AcDbEntity
  8
ASSY
 62
   190
370
     5
390
5F
100
AcDbCircle
 10
21121.67895204699
 20
302.0654962977773
 30
0.0
 40
1.999999999805671
100
AcDbArc
 50
152.4999999988011
 51
179.9999999994154
  0
ARC
  5
420
102
{ACAD_REACTORS
330
3E5
102
}
330
1F
100
AcDbEntity
  8
ASSY
 62
   190
370
     5
390
5F
100
AcDbCircle
 10
21110.47895204738
 20
302.0654962977773
 30
0.0
 40
1.999999999805672
100
AcDbArc
 50
0.0000000005846114
 51
27.50000000119895
  0
ARC
  5
421
102
{ACAD_REACTORS
330
3E5
102
}
330
1F
100
AcDbEntity
  8
ASSY
 62
   190
370
     5
390
5F
100
AcDbCircle
 10
21110.62812326018
 20
304.3777577485856
 30
0.0
 40
0.7999999997099912
100
AcDbArc
 50
27.49999999215837
 51
43.49999999927888
  0
ARC
  5
422
102
{ACAD_REACTORS
330
3E5
102
}
330
1F
100
AcDbEntity
  8
ASSY
 62
   190
370
     5
390
5F
100
AcDbCircle
 10
21121.5297808337
 20
304.3777577489391
 30
0.0
 40
0.799999999107252
100
AcDbArc
 50
136.4999999945122
 51
152.5000000138132
  0
LINE
  5
423
102
{ACAD_REACTORS
330
3E5
102
}
330
1F
100
AcDbEntity
  8
ASSY
 62
   190
370
     5
390
5F
100
AcDbLine
 10
21119.67895204719
 20
302.0654962977569
 30
0.0
 11
21112.47895204719
 21
302.0654962977569
 31
0.0
  0
LINE
  5
424
102
{ACAD_REACTORS
330
3E5
102
}
330
1F
100
AcDbEntity
  8
ASSY
 62
   190
370
     5
390
5F
100
AcDbLine
 10
21112.25297371355
 20
302.9889935241954
 30
0.0
 11
21119.90493038083
 21
302.9889935241954
 31
0.0
  0
LINE
  5
425
102
{ACAD_REACTORS
330
3E5
102
}
330
1F
100
AcDbEntity
  8
ASSY
 62
   190
370
     5
390
5F
100
AcDbLine
 10
21120.94948133759
 20
304.9284414089343
 30
0.0
 11
21111.20842275678
 21
304.9284414089343
 31
0.0
  0
LINE
  5
426
102
{ACAD_REACTORS
330
3E5
102
}
330
1F
100
AcDbEntity
  8
ASSY
 62
   190
370
     5
390
5F
100
AcDbLine
 10
21111.33773192651
 20
304.7471566389431
 30
0.0
 11
21120.82017216786
 21
304.7471566389431
 31
0.0
  0
LINE
  5
427
102
{ACAD_REACTORS
330
3E5
102
}
330
1F
100
AcDbEntity
  8
ASSY
 62
   190
370
     5
390
5F
100
AcDbLine
 10
21120.82895204719
 20
309.8068856332684
 30
0.0
 11
21118.02324313735
 21
305.9225114473666
 31
0.0
  0
LINE
  5
428
102
{ACAD_REACTORS
330
3E5
102
}
330
1F
100
AcDbEntity
  8
ASSY
 62
   190
370
     5
390
5F
100
AcDbLine
 10
21111.32895204719
 20
309.8068856332684
 30
0.0
 11
21114.13466095702
 21
305.9225114473666
 31
0.0
  0
LINE
  5
429
102
{ACAD_REACTORS
330
3E5
102
}
330
1F
100
AcDbEntity
  8
ASSY
 62
   190
370
     5
390
5F
100
AcDbLine
 10
21121.77895204719
 20
309.8068856332684
 30
0.0
 11
21120.04428755885
 21
306.0868856332672
 31
0.0
  0
ARC
  5
42A
102
{ACAD_REACTORS
330
3E5
102
}
330
1F
100
AcDbEntity
  8
ASSY
 62
   190
370
     5
390
5F
100
AcDbCircle
 10
21121.28377514508
 20
306.1225300363644
 30
0.0
 40
1.239999999950602
100
AcDbArc
 50
181.6472219529076
 51
254.3600231515161
  0
ARC
  5
42B
102
{ACAD_REACTORS
330
3E5
102
}
330
1F
100
AcDbEntity
  8
ASSY
 62
   190
370
     5
390
5F
100
AcDbCircle
 10
21116.07895204719
 20
307.3268856333061
 30
0.0
 40
2.398444224371766
100
AcDbArc
 50
215.8408281059914
 51
324.1591718940086
  0
ARC
  5
42C
102
{ACAD_REACTORS
330
3E5
102
}
330
1F
100
AcDbEntity
  8
ASSY
 62
   190
370
     5
390
5F
100
AcDbCircle
 10
21110.8741289493
 20
306.1225300363644
 30
0.0
 40
1.239999999950602
100
AcDbArc
 50
285.6399768484839
 51
358.3527780470923
  0
LINE
  5
42D
102
{ACAD_REACTORS
330
3E5
102
}
330
1F
100
AcDbEntity
  8
ASSY
 62
   190
370
     5
390
5F
100
AcDbLine
 10
21110.37895204719
 20
309.8068856332684
 30
0.0
 11
21112.11361653553
 21
306.0868856332672
 31
0.0
  0
LINE
  5
42E
102
{ACAD_REACTORS
330
3E5
102
}
330
1F
100
AcDbEntity
  8
ASSY
 62
   190
370
     5
390
5F
100
AcDbLine
 10
21119.67895204719
 20
295.0468856332591
 30
0.0
 11
21119.67895204719
 21
302.0654962977569
 31
0.0
  0
LINE
  5
42F
102
{ACAD_REACTORS
330
3E5
102
}
330
1F
100
AcDbEntity
  8
ASSY
 62
   190
370
     5
390
5F
100
AcDbLine
 10
21119.67895204719
 20
295.0468856332591
 30
0.0
 11
21119.67895204719
 21
255.0468856332591
 31
0.0
  0
LINE
  5
430
102
{ACAD_REACTORS
330
3E5
102
}
330
1F
100
AcDbEntity
  8
DEFPOINTS
 62
   190
370
    18
390
5F
100
AcDbLine
 10
21116.07895204719
 20
311.0468856332591
 30
0.0
 11
21116.07895204719
 21
171.0468856332591
 31
0.0
  0
LINE
  5
431
102
{ACAD_REACTORS
330
3E5
102
}
330
1F
100
AcDbEntity
  8
ASSY
 62
   190
370
     5
390
5F
100
AcDbLine
 10
21112.87895204719
 20
205.581384620571
 30
0.0
 11
21112.87895204719
 21
208.6813846205769
 31
0.0
  0
LINE
  5
432
102
{ACAD_REACTORS
330
3E5
102
}
330
1F
100
AcDbEntity
  8
ASSY
 62
   190
370
     5
390
5F
100
AcDbLine
 10
21119.27895204719
 20
208.6813846205769
 30
0.0
 11
21119.27895204719
 21
211.7813846205827
 31
0.0
  0
LINE
  5
433
102
{ACAD_REACTORS
330
3E5
102
}
330
1F
100
AcDbEntity
  8
ASSY
 62
   190
370
     5
390
5F
100
AcDbLine
 10
21112.87895204719
 20
211.7813846205827
 30
0.0
 11
21111.07895204719
 21
210.2313846205652
 31
0.0
  0
LINE
  5
434
102
{ACAD_REACTORS
330
3E5
102
}
330
1F
100
AcDbEntity
  8
ASSY
 62
   190
370
     5
390
5F
100
AcDbLine
 10
21111.07895204719
 20
210.2313846205652
 30
0.0
 11
21112.87895204719
 21
208.6813846205769
 31
0.0
  0
LINE
  5
435
102
{ACAD_REACTORS
330
3E5
102
}
330
1F
100
AcDbEntity
  8
ASSY
 62
   190
370
     5
390
5F
100
AcDbLine
 10
21112.87895204719
 20
208.6813846205769
 30
0.0
 11
21119.27895204719
 21
211.7813846205827
 31
0.0
  0
LINE
  5
436
102
{ACAD_REACTORS
330
3E5
102
}
330
1F
100
AcDbEntity
  8
ASSY
 62
   190
370
     5
390
5F
100
AcDbLine
 10
21111.07895204719
 20
210.2313846205652
 30
0.0
 11
21121.07895204719
 21
213.331384620571
 31
0.0
  0
LINE
  5
437
102
{ACAD_REACTORS
330
3E5
102
}
330
1F
100
AcDbEntity
  8
ASSY
 62
   190
370
     5
390
5F
100
AcDbLine
 10
21112.87895204719
 20
211.7813846205827
 30
0.0
 11
21119.27895204719
 21
214.8813846205885
 31
0.0
  0
LINE
  5
438
102
{ACAD_REACTORS
330
3E5
102
}
330
1F
100
AcDbEntity
  8
ASSY
 62
   190
370
     5
390
5F
100
AcDbLine
 10
21119.27895204719
 20
214.8813846205885
 30
0.0
 11
21121.07895204719
 21
213.331384620571
 31
0.0
  0
LINE
  5
439
102
{ACAD_REACTORS
330
3E5
102
}
330
1F
100
AcDbEntity
  8
ASSY
 62
   190
370
     5
390
5F
100
AcDbLine
 10
21121.07895204719
 20
213.331384620571
 30
0.0
 11
21119.27895204719
 21
211.7813846205827
 31
0.0
  0
LINE
  5
43A
102
{ACAD_REACTORS
330
3E5
102
}
330
1F
100
AcDbEntity
  8
ASSY
 62
   190
370
     5
390
5F
100
AcDbLine
 10
21112.87895204719
 20
211.7813846205827
 30
0.0
 11
21112.87895204719
 21
214.8813846205885
 31
0.0
  0
LINE
  5
43B
102
{ACAD_REACTORS
330
3E5
102
}
330
1F
100
AcDbEntity
  8
ASSY
 62
   190
370
     5
390
5F
100
AcDbLine
 10
21119.27895204719
 20
214.8813846205885
 30
0.0
 11
21119.27895204719
 21
217.9813846205652
 31
0.0
  0
LINE
  5
43C
102
{ACAD_REACTORS
330
3E5
102
}
330
1F
100
AcDbEntity
  8
ASSY
 62
   190
370
     5
390
5F
100
AcDbLine
 10
21112.87895204719
 20
217.9813846205652
 30
0.0
 11
21111.07895204719
 21
216.4313846205769
 31
0.0
  0
LINE
  5
43D
102
{ACAD_REACTORS
330
3E5
102
}
330
1F
100
AcDbEntity
  8
ASSY
 62
   190
370
     5
390
5F
100
AcDbLine
 10
21111.07895204719
 20
216.4313846205769
 30
0.0
 11
21112.87895204719
 21
214.8813846205885
 31
0.0
  0
LINE
  5
43E
102
{ACAD_REACTORS
330
3E5
102
}
330
1F
100
AcDbEntity
  8
ASSY
 62
   190
370
     5
390
5F
100
AcDbLine
 10
21112.87895204719
 20
214.8813846205885
 30
0.0
 11
21119.27895204719
 21
217.9813846205652
 31
0.0
  0
LINE
  5
43F
102
{ACAD_REACTORS
330
3E5
102
}
330
1F
100
AcDbEntity
  8
ASSY
 62
   190
370
     5
390
5F
100
AcDbLine
 10
21111.07895204719
 20
216.4313846205769
 30
0.0
 11
21121.07895204719
 21
219.5313846205827
 31
0.0
  0
LINE
  5
440
102
{ACAD_REACTORS
330
3E5
102
}
330
1F
100
AcDbEntity
  8
ASSY
 62
   190
370
     5
390
5F
100
AcDbLine
 10
21112.87895204719
 20
217.9813846205652
 30
0.0
 11
21119.27895204719
 21
221.081384620571
 31
0.0
  0
LINE
  5
441
102
{ACAD_REACTORS
330
3E5
102
}
330
1F
100
AcDbEntity
  8
ASSY
 62
   190
370
     5
390
5F
100
AcDbLine
 10
21119.27895204719
 20
221.081384620571
 30
0.0
 11
21121.07895204719
 21
219.5313846205827
 31
0.0
  0
LINE
  5
442
102
{ACAD_REACTORS
330
3E5
102
}
330
1F
100
AcDbEntity
  8
ASSY
 62
   190
370
     5
390
5F
100
AcDbLine
 10
21121.07895204719
 20
219.5313846205827
 30
0.0
 11
21119.27895204719
 21
217.9813846205652
 31
0.0
  0
LINE
  5
443
102
{ACAD_REACTORS
330
3E5
102
}
330
1F
100
AcDbEntity
  8
ASSY
 62
   190
370
     5
390
5F
100
AcDbLine
 10
21112.87895204719
 20
217.9813846205652
 30
0.0
 11
21112.87895204719
 21
221.081384620571
 31
0.0
  0
LINE
  5
444
102
{ACAD_REACTORS
330
3E5
102
}
330
1F
100
AcDbEntity
  8
ASSY
 62
   190
370
     5
390
5F
100
AcDbLine
 10
21119.27895204719
 20
221.081384620571
 30
0.0
 11
21119.27895204719
 21
224.1813846205769
 31
0.0
  0
LINE
  5
445
102
{ACAD_REACTORS
330
3E5
102
}
330
1F
100
AcDbEntity
  8
ASSY
 62
   190
370
     5
390
5F
100
AcDbLine
 10
21112.87895204719
 20
224.1813846205769
 30
0.0
 11
21111.07895204719
 21
222.6313846205885
 31
0.0
  0
LINE
  5
446
102
{ACAD_REACTORS
330
3E5
102
}
330
1F
100
AcDbEntity
  8
ASSY
 62
   190
370
     5
390
5F
100
AcDbLine
 10
21111.07895204719
 20
222.6313846205885
 30
0.0
 11
21112.87895204719
 21
221.081384620571
 31
0.0
  0
LINE
  5
447
102
{ACAD_REACTORS
330
3E5
102
}
330
1F
100
AcDbEntity
  8
ASSY
 62
   190
370
     5
390
5F
100
AcDbLine
 10
21112.87895204719
 20
221.081384620571
 30
0.0
 11
21119.27895204719
 21
224.1813846205769
 31
0.0
  0
LINE
  5
448
102
{ACAD_REACTORS
330
3E5
102
}
330
1F
100
AcDbEntity
  8
ASSY
 62
   190
370
     5
390
5F
100
AcDbLine
 10
21111.07895204719
 20
222.6313846205885
 30
0.0
 11
21121.07895204719
 21
225.7313846205652
 31
0.0
  0
LINE
  5
449
102
{ACAD_REACTORS
330
3E5
102
}
330
1F
100
AcDbEntity
  8
ASSY
 62
   190
370
     5
390
5F
100
AcDbLine
 10
21112.87895204719
 20
224.1813846205769
 30
0.0
 11
21119.27895204719
 21
227.2813846205827
 31
0.0
  0
LINE
  5
44A
102
{ACAD_REACTORS
330
3E5
102
}
330
1F
100
AcDbEntity
  8
ASSY
 62
   190
370
     5
390
5F
100
AcDbLine
 10
21119.27895204719
 20
227.2813846205827
 30
0.0
 11
21121.07895204719
 21
225.7313846205652
 31
0.0
  0
LINE
  5
44B
102
{ACAD_REACTORS
330
3E5
102
}
330
1F
100
AcDbEntity
  8
ASSY
 62
   190
370
     5
390
5F
100
AcDbLine
 10
21121.07895204719
 20
225.7313846205652
 30
0.0
 11
21119.27895204719
 21
224.1813846205769
 31
0.0
  0
LINE
  5
44C
102
{ACAD_REACTORS
330
3E5
102
}
330
1F
100
AcDbEntity
  8
ASSY
 62
   190
370
     5
390
5F
100
AcDbLine
 10
21112.87895204719
 20
224.1813846205769
 30
0.0
 11
21112.87895204719
 21
227.2813846205827
 31
0.0
  0
LINE
  5
44D
102
{ACAD_REACTORS
330
3E5
102
}
330
1F
100
AcDbEntity
  8
ASSY
 62
   190
370
     5
390
5F
100
AcDbLine
 10
21119.27895204719
 20
227.2813846205827
 30
0.0
 11
21119.27895204719
 21
230.3813846205885
 31
0.0
  0
LINE
  5
44E
102
{ACAD_REACTORS
330
3E5
102
}
330
1F
100
AcDbEntity
  8
ASSY
 62
   190
370
     5
390
5F
100
AcDbLine
 10
21112.87895204719
 20
230.3813846205885
 30
0.0
 11
21111.07895204719
 21
228.831384620571
 31
0.0
  0
LINE
  5
44F
102
{ACAD_REACTORS
330
3E5
102
}
330
1F
100
AcDbEntity
  8
ASSY
 62
   190
370
     5
390
5F
100
AcDbLine
 10
21111.07895204719
 20
228.831384620571
 30
0.0
 11
21112.87895204719
 21
227.2813846205827
 31
0.0
  0
LINE
  5
450
102
{ACAD_REACTORS
330
3E5
102
}
330
1F
100
AcDbEntity
  8
ASSY
 62
   190
370
     5
390
5F
100
AcDbLine
 10
21112.87895204719
 20
227.2813846205827
 30
0.0
 11
21119.27895204719
 21
230.3813846205885
 31
0.0
  0
LINE
  5
451
102
{ACAD_REACTORS
330
3E5
102
}
330
1F
100
AcDbEntity
  8
ASSY
 62
   190
370
     5
390
5F
100
AcDbLine
 10
21111.07895204719
 20
228.831384620571
 30
0.0
 11
21121.07895204719
 21
231.9313846205769
 31
0.0
  0
LINE
  5
452
102
{ACAD_REACTORS
330
3E5
102
}
330
1F
100
AcDbEntity
  8
ASSY
 62
   190
370
     5
390
5F
100
AcDbLine
 10
21112.87895204719
 20
230.3813846205885
 30
0.0
 11
21119.27895204719
 21
233.4813846205652
 31
0.0
  0
LINE
  5
453
102
{ACAD_REACTORS
330
3E5
102
}
330
1F
100
AcDbEntity
  8
ASSY
 62
   190
370
     5
390
5F
100
AcDbLine
 10
21119.27895204719
 20
233.4813846205652
 30
0.0
 11
21121.07895204719
 21
231.9313846205769
 31
0.0
  0
LINE
  5
454
102
{ACAD_REACTORS
330
3E5
102
}
330
1F
100
AcDbEntity
  8
ASSY
 62
   190
370
     5
390
5F
100
AcDbLine
 10
21121.07895204719
 20
231.9313846205769
 30
0.0
 11
21119.27895204719
 21
230.3813846205885
 31
0.0
  0
LINE
  5
455
102
{ACAD_REACTORS
330
3E5
102
}
330
1F
100
AcDbEntity
  8
ASSY
 62
   190
370
     5
390
5F
100
AcDbLine
 10
21112.87895204719
 20
230.3813846205885
 30
0.0
 11
21112.87895204719
 21
233.4813846205652
 31
0.0
  0
LINE
  5
456
102
{ACAD_REACTORS
330
3E5
102
}
330
1F
100
AcDbEntity
  8
ASSY
 62
   190
370
     5
390
5F
100
AcDbLine
 10
21119.27895204719
 20
233.4813846205652
 30
0.0
 11
21119.27895204719
 21
236.581384620571
 31
0.0
  0
LINE
  5
457
102
{ACAD_REACTORS
330
3E5
102
}
330
1F
100
AcDbEntity
  8
ASSY
 62
   190
370
     5
390
5F
100
AcDbLine
 10
21112.87895204719
 20
236.581384620571
 30
0.0
 11
21111.07895204719
 21
235.0313846205827
 31
0.0
  0
LINE
  5
458
102
{ACAD_REACTORS
330
3E5
102
}
330
1F
100
AcDbEntity
  8
ASSY
 62
   190
370
     5
390
5F
100
AcDbLine
 10
21111.07895204719
 20
235.0313846205827
 30
0.0
 11
21112.87895204719
 21
233.4813846205652
 31
0.0
  0
LINE
  5
459
102
{ACAD_REACTORS
330
3E5
102
}
330
1F
100
AcDbEntity
  8
ASSY
 62
   190
370
     5
390
5F
100
AcDbLine
 10
21112.87895204719
 20
233.4813846205652
 30
0.0
 11
21119.27895204719
 21
236.581384620571
 31
0.0
  0
LINE
  5
45A
102
{ACAD_REACTORS
330
3E5
102
}
330
1F
100
AcDbEntity
  8
ASSY
 62
   190
370
     5
390
5F
100
AcDbLine
 10
21111.07895204719
 20
235.0313846205827
 30
0.0
 11
21121.07895204719
 21
238.1313846205885
 31
0.0
  0
LINE
  5
45B
102
{ACAD_REACTORS
330
3E5
102
}
330
1F
100
AcDbEntity
  8
ASSY
 62
   190
370
     5
390
5F
100
AcDbLine
 10
21112.87895204719
 20
236.581384620571
 30
0.0
 11
21119.27895204719
 21
239.6813846205769
 31
0.0
  0
LINE
  5
45C
102
{ACAD_REACTORS
330
3E5
102
}
330
1F
100
AcDbEntity
  8
ASSY
 62
   190
370
     5
390
5F
100
AcDbLine
 10
21119.27895204719
 20
239.6813846205769
 30
0.0
 11
21121.07895204719
 21
238.1313846205885
 31
0.0
  0
LINE
  5
45D
102
{ACAD_REACTORS
330
3E5
102
}
330
1F
100
AcDbEntity
  8
ASSY
 62
   190
370
     5
390
5F
100
AcDbLine
 10
21121.07895204719
 20
238.1313846205885
 30
0.0
 11
21119.27895204719
 21
236.581384620571
 31
0.0
  0
LINE
  5
45E
102
{ACAD_REACTORS
330
3E5
102
}
330
1F
100
AcDbEntity
  8
ASSY
 62
   190
370
     5
390
5F
100
AcDbLine
 10
21112.87895204719
 20
236.581384620571
 30
0.0
 11
21112.87895204719
 21
239.6813846205769
 31
0.0
  0
LINE
  5
45F
102
{ACAD_REACTORS
330
3E5
102
}
330
1F
100
AcDbEntity
  8
ASSY
 62
   190
370
     5
390
5F
100
AcDbLine
 10
21119.27895204719
 20
239.6813846205769
 30
0.0
 11
21119.27895204719
 21
242.7813846205827
 31
0.0
  0
LINE
  5
460
102
{ACAD_REACTORS
330
3E5
102
}
330
1F
100
AcDbEntity
  8
ASSY
 62
   190
370
     5
390
5F
100
AcDbLine
 10
21112.87895204719
 20
242.7813846205827
 30
0.0
 11
21111.07895204719
 21
241.2313846205652
 31
0.0
  0
LINE
  5
461
102
{ACAD_REACTORS
330
3E5
102
}
330
1F
100
AcDbEntity
  8
ASSY
 62
   190
370
     5
390
5F
100
AcDbLine
 10
21111.07895204719
 20
241.2313846205652
 30
0.0
 11
21112.87895204719
 21
239.6813846205769
 31
0.0
  0
LINE
  5
462
102
{ACAD_REACTORS
330
3E5
102
}
330
1F
100
AcDbEntity
  8
ASSY
 62
   190
370
     5
390
5F
100
AcDbLine
 10
21112.87895204719
 20
239.6813846205769
 30
0.0
 11
21119.27895204719
 21
242.7813846205827
 31
0.0
  0
LINE
  5
463
102
{ACAD_REACTORS
330
3E5
102
}
330
1F
100
AcDbEntity
  8
ASSY
 62
   190
370
     5
390
5F
100
AcDbLine
 10
21111.07895204719
 20
241.2313846205652
 30
0.0
 11
21121.07895204719
 21
244.331384620571
 31
0.0
  0
LINE
  5
464
102
{ACAD_REACTORS
330
3E5
102
}
330
1F
100
AcDbEntity
  8
ASSY
 62
   190
370
     5
390
5F
100
AcDbLine
 10
21112.87895204719
 20
242.7813846205827
 30
0.0
 11
21119.27895204719
 21
245.8813846205885
 31
0.0
  0
LINE
  5
465
102
{ACAD_REACTORS
330
3E5
102
}
330
1F
100
AcDbEntity
  8
ASSY
 62
   190
370
     5
390
5F
100
AcDbLine
 10
21119.27895204719
 20
245.8813846205885
 30
0.0
 11
21121.07895204719
 21
244.331384620571
 31
0.0
  0
LINE
  5
466
102
{ACAD_REACTORS
330
3E5
102
}
330
1F
100
AcDbEntity
  8
ASSY
 62
   190
370
     5
390
5F
100
AcDbLine
 10
21121.07895204719
 20
244.331384620571
 30
0.0
 11
21119.27895204719
 21
242.7813846205827
 31
0.0
  0
LINE
  5
467
102
{ACAD_REACTORS
330
3E5
102
}
330
1F
100
AcDbEntity
  8
ASSY
 62
   190
370
     5
390
5F
100
AcDbLine
 10
21112.87895204719
 20
242.7813846205827
 30
0.0
 11
21112.87895204719
 21
245.8813846205885
 31
0.0
  0
LINE
  5
468
102
{ACAD_REACTORS
330
3E5
102
}
330
1F
100
AcDbEntity
  8
ASSY
 62
   190
370
     5
390
5F
100
AcDbLine
 10
21119.27895204719
 20
245.8813846205885
 30
0.0
 11
21119.27895204719
 21
248.9813846205652
 31
0.0
  0
LINE
  5
469
102
{ACAD_REACTORS
330
3E5
102
}
330
1F
100
AcDbEntity
  8
ASSY
 62
   190
370
     5
390
5F
100
AcDbLine
 10
21112.87895204719
 20
248.9813846205652
 30
0.0
 11
21111.07895204719
 21
247.4313846205769
 31
0.0
  0
LINE
  5
46A
102
{ACAD_REACTORS
330
3E5
102
}
330
1F
100
AcDbEntity
  8
ASSY
 62
   190
370
     5
390
5F
100
AcDbLine
 10
21111.07895204719
 20
247.4313846205769
 30
0.0
 11
21112.87895204719
 21
245.8813846205885
 31
0.0
  0
LINE
  5
46B
102
{ACAD_REACTORS
330
3E5
102
}
330
1F
100
AcDbEntity
  8
ASSY
 62
   190
370
     5
390
5F
100
AcDbLine
 10
21112.87895204719
 20
245.8813846205885
 30
0.0
 11
21119.27895204719
 21
248.9813846205652
 31
0.0
  0
LINE
  5
46C
102
{ACAD_REACTORS
330
3E5
102
}
330
1F
100
AcDbEntity
  8
ASSY
 62
   190
370
     5
390
5F
100
AcDbLine
 10
21111.07895204719
 20
247.4313846205769
 30
0.0
 11
21121.07895204719
 21
250.5313846205827
 31
0.0
  0
LINE
  5
46D
102
{ACAD_REACTORS
330
3E5
102
}
330
1F
100
AcDbEntity
  8
ASSY
 62
   190
370
     5
390
5F
100
AcDbLine
 10
21112.87895204719
 20
248.9813846205652
 30
0.0
 11
21119.27895204719
 21
252.081384620571
 31
0.0
  0
LINE
  5
46E
102
{ACAD_REACTORS
330
3E5
102
}
330
1F
100
AcDbEntity
  8
ASSY
 62
   190
370
     5
390
5F
100
AcDbLine
 10
21119.27895204719
 20
252.081384620571
 30
0.0
 11
21121.07895204719
 21
250.5313846205827
 31
0.0
  0
LINE
  5
46F
102
{ACAD_REACTORS
330
3E5
102
}
330
1F
100
AcDbEntity
  8
ASSY
 62
   190
370
     5
390
5F
100
AcDbLine
 10
21121.07895204719
 20
250.5313846205827
 30
0.0
 11
21119.27895204719
 21
248.9813846205652
 31
0.0
  0
LINE
  5
470
102
{ACAD_REACTORS
330
3E5
102
}
330
1F
100
AcDbEntity
  8
ASSY
 62
   190
370
     5
390
5F
100
AcDbLine
 10
21112.87895204719
 20
252.6813846205769
 30
0.0
 11
21112.87895204719
 21
248.9813846205652
 31
0.0
  0
LINE
  5
471
102
{ACAD_REACTORS
330
3E5
102
}
330
1F
100
AcDbEntity
  8
ASSY
 62
   190
370
     5
390
5F
100
AcDbLine
 10
21119.27895204719
 20
252.6813846205769
 30
0.0
 11
21119.27895204719
 21
252.081384620571
 31
0.0
  0
LWPOLYLINE
  5
472
102
{ACAD_REACTORS
330
473
102
}
330
1F
100
AcDbEntity
  8
Ech.1_5
  6
Continuous
 62
   190
370
    20
390
5F
100
AcDbPolyline
 90
        5
 70
     0
 43
0.0
 10
20615.07198923663
 20
709.8140397075331
 10
20628.50134525212
 20
709.8140397075331
 10
20615.07198923663
 20
732.8357928769838
 10
20601.64263322114
 20
709.8140397075331
 10
20615.07198923663
 20
709.8140397075331
  0
LINE
  5
474
102
{ACAD_REACTORS
330
475
102
}
330
1F
100
AcDbEntity
  8
ASSY
 62
   190
370
    15
390
5F
100
AcDbLine
 10
20515.92407068927
 20
882.562042676931
 30
0.0
 11
20515.92407068927
 21
859.0527373446967
 31
0.0
  0
LINE
  5
476
102
{ACAD_REACTORS
330
475
102
}
330
1F
100
AcDbEntity
  8
ASSY
 62
   190
370
    15
390
5F
100
AcDbLine
 10
20515.92407068927
 20
859.0527373446967
 30
0.0
 11
20519.52407068927
 21
859.0527373446967
 31
0.0
  0
LINE
  5
477
102
{ACAD_REACTORS
330
475
102
}
330
1F
100
AcDbEntity
  8
ASSY
 62
   190
370
    15
390
5F
100
AcDbLine
 10
20519.52407068927
 20
859.0527373446967
 30
0.0
 11
20519.32407068928
 21
857.869986838341
 31
0.0
  0
LINE
  5
478
102
{ACAD_REACTORS
330
475
102
}
330
1F
100
AcDbEntity
  8
ASSY
 62
   190
370
    15
390
5F
100
AcDbLine
 10
20519.32407068928
 20
857.869986838341
 30
0.0
 11
20516.12407068928
 21
857.869986838341
 31
0.0
  0
LINE
  5
479
102
{ACAD_REACTORS
330
475
102
}
330
1F
100
AcDbEntity
  8
ASSY
 62
   190
370
    15
390
5F
100
AcDbLine
 10
20516.12407068928
 20
857.869986838341
 30
0.0
 11
20515.92407068927
 21
859.0527373446967
 31
0.0
  0
ARC
  5
47A
102
{ACAD_REACTORS
330
475
102
}
330
1F
100
AcDbEntity
  8
ASSY
 62
   190
370
    15
390
5F
100
AcDbCircle
 10
20520.52407068971
 20
882.5620426768621
 30
0.0
 40
1.000000000435241
100
AcDbArc
 50
152.5000000058269
 51
179.9999999960527
  0
ARC
  5
47B
102
{ACAD_REACTORS
330
475
102
}
330
1F
100
AcDbEntity
  8
ASSY
 62
   190
370
    15
390
5F
100
AcDbCircle
 10
20514.92407068897
 20
882.5620426769071
 30
0.0
 40
1.000000000308296
100
AcDbArc
 50
0.000000001367893
 51
27.49999999506125
  0
LINE
  5
47C
102
{ACAD_REACTORS
330
475
102
}
330
1F
100
AcDbEntity
  8
ASSY
 62
   190
370
    15
390
5F
100
AcDbLine
 10
20519.52407068927
 20
882.562042676931
 30
0.0
 11
20515.92407068927
 21
882.562042676931
 31
0.0
  0
LINE
  5
47D
102
{ACAD_REACTORS
330
475
102
}
330
1F
100
AcDbEntity
  8
ASSY
 62
   190
370
    15
390
5F
100
AcDbLine
 10
20519.52407068927
 20
879.0527373447258
 30
0.0
 11
20519.52407068927
 21
882.562042676931
 31
0.0
  0
LINE
  5
47E
102
{ACAD_REACTORS
330
475
102
}
330
1F
100
AcDbEntity
  8
ASSY
 62
   190
370
    15
390
5F
100
AcDbLine
 10
20519.52407068927
 20
879.0527373447258
 30
0.0
 11
20519.52407068927
 21
859.0527373446967
 31
0.0
  0
LINE
  5
47F
102
{ACAD_REACTORS
330
475
102
}
330
1F
100
AcDbEntity
  8
ASSY
 62
   190
370
    15
390
5F
100
AcDbLine
 10
20516.12407068928
 20
857.869986838341
 30
0.0
 11
20516.12407068928
 21
856.0199868383643
 31
0.0
  0
LINE
  5
480
102
{ACAD_REACTORS
330
475
102
}
330
1F
100
AcDbEntity
  8
ASSY
 62
   190
370
    15
390
5F
100
AcDbLine
 10
20519.32407068928
 20
857.869986838341
 30
0.0
 11
20519.32407068928
 21
857.5699868383526
 31
0.0
  0
LINE
  5
481
102
{ACAD_REACTORS
330
475
102
}
330
1F
100
AcDbEntity
  8
ASSY
 62
   190
370
    15
390
5F
100
AcDbLine
 10
20517.72407068928
 20
817.0527373446967
 30
0.0
 11
20518.88452968656
 21
821.7070841651584
 31
0.0
  0
LINE
  5
482
102
{ACAD_REACTORS
330
475
102
}
330
1F
100
AcDbEntity
  8
ASSY
 62
   190
370
    15
390
5F
100
AcDbLine
 10
20517.72407068928
 20
817.0527373446967
 30
0.0
 11
20516.81370193807
 21
820.7040269744757
 31
0.0
  0
LINE
  5
483
102
{ACAD_REACTORS
330
475
102
}
330
1F
100
AcDbEntity
  8
ASSY
 62
   190
370
    15
390
5F
100
AcDbLine
 10
20519.32407068928
 20
823.4699868383468
 30
0.0
 11
20519.32407068928
 21
825.0199868383643
 31
0.0
  0
LINE
  5
484
102
{ACAD_REACTORS
330
475
102
}
330
1F
100
AcDbEntity
  8
ASSY
 62
   190
370
    15
390
5F
100
AcDbLine
 10
20516.12407068928
 20
825.0199868383643
 30
0.0
 11
20516.12407068928
 21
826.5699868383526
 31
0.0
  0
LINE
  5
485
102
{ACAD_REACTORS
330
475
102
}
330
1F
100
AcDbEntity
  8
ASSY
 62
   190
370
    15
390
5F
100
AcDbLine
 10
20519.32407068928
 20
826.5699868383526
 30
0.0
 11
20520.22407068928
 21
825.7949868383585
 31
0.0
  0
LINE
  5
486
102
{ACAD_REACTORS
330
475
102
}
330
1F
100
AcDbEntity
  8
ASSY
 62
   190
370
    15
390
5F
100
AcDbLine
 10
20520.22407068928
 20
825.7949868383585
 30
0.0
 11
20519.32407068928
 21
825.0199868383643
 31
0.0
  0
LINE
  5
487
102
{ACAD_REACTORS
330
475
102
}
330
1F
100
AcDbEntity
  8
ASSY
 62
   190
370
    15
390
5F
100
AcDbLine
 10
20516.12407068928
 20
825.0199868383643
 30
0.0
 11
20515.22407068928
 21
824.244986838341
 31
0.0
  0
LINE
  5
488
102
{ACAD_REACTORS
330
475
102
}
330
1F
100
AcDbEntity
  8
ASSY
 62
   190
370
    15
390
5F
100
AcDbLine
 10
20515.22407068928
 20
824.244986838341
 30
0.0
 11
20516.12407068928
 21
823.4699868383468
 31
0.0
  0
LINE
  5
489
102
{ACAD_REACTORS
330
475
102
}
330
1F
100
AcDbEntity
  8
ASSY
 62
   190
370
    15
390
5F
100
AcDbLine
 10
20516.12407068928
 20
823.4699868383468
 30
0.0
 11
20519.32407068928
 21
825.0199868383643
 31
0.0
  0
LINE
  5
48A
102
{ACAD_REACTORS
330
475
102
}
330
1F
100
AcDbEntity
  8
ASSY
 62
   190
370
    15
390
5F
100
AcDbLine
 10
20516.12407068928
 20
825.0199868383643
 30
0.0
 11
20519.32407068928
 21
826.5699868383526
 31
0.0
  0
LINE
  5
48B
102
{ACAD_REACTORS
330
475
102
}
330
1F
100
AcDbEntity
  8
ASSY
 62
   190
370
    15
390
5F
100
AcDbLine
 10
20515.22407068928
 20
824.244986838341
 30
0.0
 11
20520.22407068928
 21
825.7949868383585
 31
0.0
  0
LINE
  5
48C
102
{ACAD_REACTORS
330
475
102
}
330
1F
100
AcDbEntity
  8
ASSY
 62
   190
370
    15
390
5F
100
AcDbLine
 10
20519.32407068928
 20
826.5699868383526
 30
0.0
 11
20519.32407068928
 21
828.119986838341
 31
0.0
  0
LINE
  5
48D
102
{ACAD_REACTORS
330
475
102
}
330
1F
100
AcDbEntity
  8
ASSY
 62
   190
370
    15
390
5F
100
AcDbLine
 10
20516.12407068928
 20
828.119986838341
 30
0.0
 11
20516.12407068928
 21
829.6699868383585
 31
0.0
  0
LINE
  5
48E
102
{ACAD_REACTORS
330
475
102
}
330
1F
100
AcDbEntity
  8
ASSY
 62
   190
370
    15
390
5F
100
AcDbLine
 10
20516.12407068928
 20
828.119986838341
 30
0.0
 11
20515.22407068928
 21
827.3449868383468
 31
0.0
  0
LINE
  5
48F
102
{ACAD_REACTORS
330
475
102
}
330
1F
100
AcDbEntity
  8
ASSY
 62
   190
370
    15
390
5F
100
AcDbLine
 10
20515.22407068928
 20
827.3449868383468
 30
0.0
 11
20516.12407068928
 21
826.5699868383526
 31
0.0
  0
LINE
  5
490
102
{ACAD_REACTORS
330
475
102
}
330
1F
100
AcDbEntity
  8
ASSY
 62
   190
370
    15
390
5F
100
AcDbLine
 10
20516.12407068928
 20
826.5699868383526
 30
0.0
 11
20519.32407068928
 21
828.119986838341
 31
0.0
  0
LINE
  5
491
102
{ACAD_REACTORS
330
475
102
}
330
1F
100
AcDbEntity
  8
ASSY
 62
   190
370
    15
390
5F
100
AcDbLine
 10
20515.22407068928
 20
827.3449868383468
 30
0.0
 11
20520.22407068928
 21
828.8949868383643
 31
0.0
  0
LINE
  5
492
102
{ACAD_REACTORS
330
475
102
}
330
1F
100
AcDbEntity
  8
ASSY
 62
   190
370
    15
390
5F
100
AcDbLine
 10
20516.12407068928
 20
828.119986838341
 30
0.0
 11
20519.32407068928
 21
829.6699868383585
 31
0.0
  0
LINE
  5
493
102
{ACAD_REACTORS
330
475
102
}
330
1F
100
AcDbEntity
  8
ASSY
 62
   190
370
    15
390
5F
100
AcDbLine
 10
20519.32407068928
 20
829.6699868383585
 30
0.0
 11
20520.22407068928
 21
828.8949868383643
 31
0.0
  0
LINE
  5
494
102
{ACAD_REACTORS
330
475
102
}
330
1F
100
AcDbEntity
  8
ASSY
 62
   190
370
    15
390
5F
100
AcDbLine
 10
20520.22407068928
 20
828.8949868383643
 30
0.0
 11
20519.32407068928
 21
828.119986838341
 31
0.0
  0
LINE
  5
495
102
{ACAD_REACTORS
330
475
102
}
330
1F
100
AcDbEntity
  8
ASSY
 62
   190
370
    15
390
5F
100
AcDbLine
 10
20519.32407068928
 20
829.6699868383585
 30
0.0
 11
20519.32407068928
 21
831.2199868383468
 31
0.0
  0
LINE
  5
496
102
{ACAD_REACTORS
330
475
102
}
330
1F
100
AcDbEntity
  8
ASSY
 62
   190
370
    15
390
5F
100
AcDbLine
 10
20516.12407068928
 20
831.2199868383468
 30
0.0
 11
20516.12407068928
 21
832.7699868383643
 31
0.0
  0
LINE
  5
497
102
{ACAD_REACTORS
330
475
102
}
330
1F
100
AcDbEntity
  8
ASSY
 62
   190
370
    15
390
5F
100
AcDbLine
 10
20516.12407068928
 20
831.2199868383468
 30
0.0
 11
20515.22407068928
 21
830.4449868383526
 31
0.0
  0
LINE
  5
498
102
{ACAD_REACTORS
330
475
102
}
330
1F
100
AcDbEntity
  8
ASSY
 62
   190
370
    15
390
5F
100
AcDbLine
 10
20515.22407068928
 20
830.4449868383526
 30
0.0
 11
20516.12407068928
 21
829.6699868383585
 31
0.0
  0
LINE
  5
499
102
{ACAD_REACTORS
330
475
102
}
330
1F
100
AcDbEntity
  8
ASSY
 62
   190
370
    15
390
5F
100
AcDbLine
 10
20516.12407068928
 20
829.6699868383585
 30
0.0
 11
20519.32407068928
 21
831.2199868383468
 31
0.0
  0
LINE
  5
49A
102
{ACAD_REACTORS
330
475
102
}
330
1F
100
AcDbEntity
  8
ASSY
 62
   190
370
    15
390
5F
100
AcDbLine
 10
20515.22407068928
 20
830.4449868383526
 30
0.0
 11
20520.22407068928
 21
831.994986838341
 31
0.0
  0
LINE
  5
49B
102
{ACAD_REACTORS
330
475
102
}
330
1F
100
AcDbEntity
  8
ASSY
 62
   190
370
    15
390
5F
100
AcDbLine
 10
20516.12407068928
 20
831.2199868383468
 30
0.0
 11
20519.32407068928
 21
832.7699868383643
 31
0.0
  0
LINE
  5
49C
102
{ACAD_REACTORS
330
475
102
}
330
1F
100
AcDbEntity
  8
ASSY
 62
   190
370
    15
390
5F
100
AcDbLine
 10
20519.32407068928
 20
832.7699868383643
 30
0.0
 11
20520.22407068928
 21
831.994986838341
 31
0.0
  0
LINE
  5
49D
102
{ACAD_REACTORS
330
475
102
}
330
1F
100
AcDbEntity
  8
ASSY
 62
   190
370
    15
390
5F
100
AcDbLine
 10
20520.22407068928
 20
831.994986838341
 30
0.0
 11
20519.32407068928
 21
831.2199868383468
 31
0.0
  0
LINE
  5
49E
102
{ACAD_REACTORS
330
475
102
}
330
1F
100
AcDbEntity
  8
ASSY
 62
   190
370
    15
390
5F
100
AcDbLine
 10
20519.32407068928
 20
832.7699868383643
 30
0.0
 11
20519.32407068928
 21
834.3199868383526
 31
0.0
  0
LINE
  5
49F
102
{ACAD_REACTORS
330
475
102
}
330
1F
100
AcDbEntity
  8
ASSY
 62
   190
370
    15
390
5F
100
AcDbLine
 10
20516.12407068928
 20
834.3199868383526
 30
0.0
 11
20515.22407068928
 21
833.5449868383585
 31
0.0
  0
LINE
  5
4A0
102
{ACAD_REACTORS
330
475
102
}
330
1F
100
AcDbEntity
  8
ASSY
 62
   190
370
    15
390
5F
100
AcDbLine
 10
20515.22407068928
 20
833.5449868383585
 30
0.0
 11
20520.22407068928
 21
835.0949868383468
 31
0.0
  0
LINE
  5
4A1
102
{ACAD_REACTORS
330
475
102
}
330
1F
100
AcDbEntity
  8
ASSY
 62
   190
370
    15
390
5F
100
AcDbLine
 10
20515.22407068928
 20
833.5449868383585
 30
0.0
 11
20516.12407068928
 21
832.7699868383643
 31
0.0
  0
LINE
  5
4A2
102
{ACAD_REACTORS
330
475
102
}
330
1F
100
AcDbEntity
  8
ASSY
 62
   190
370
    15
390
5F
100
AcDbLine
 10
20516.12407068928
 20
832.7699868383643
 30
0.0
 11
20519.32407068928
 21
834.3199868383526
 31
0.0
  0
LINE
  5
4A3
102
{ACAD_REACTORS
330
475
102
}
330
1F
100
AcDbEntity
  8
ASSY
 62
   190
370
    15
390
5F
100
AcDbLine
 10
20516.12407068928
 20
834.3199868383526
 30
0.0
 11
20519.32407068928
 21
835.869986838341
 31
0.0
  0
LINE
  5
4A4
102
{ACAD_REACTORS
330
475
102
}
330
1F
100
AcDbEntity
  8
ASSY
 62
   190
370
    15
390
5F
100
AcDbLine
 10
20519.32407068928
 20
835.869986838341
 30
0.0
 11
20520.22407068928
 21
835.0949868383468
 31
0.0
  0
LINE
  5
4A5
102
{ACAD_REACTORS
330
475
102
}
330
1F
100
AcDbEntity
  8
ASSY
 62
   190
370
    15
390
5F
100
AcDbLine
 10
20520.22407068928
 20
835.0949868383468
 30
0.0
 11
20519.32407068928
 21
834.3199868383526
 31
0.0
  0
LINE
  5
4A6
102
{ACAD_REACTORS
330
475
102
}
330
1F
100
AcDbEntity
  8
ASSY
 62
   190
370
    15
390
5F
100
AcDbLine
 10
20522.47407068928
 20
887.0527373447258
 30
0.0
 11
20522.47407068928
 21
886.4327373447304
 31
0.0
  0
LINE
  5
4A7
102
{ACAD_REACTORS
330
475
102
}
330
1F
100
AcDbEntity
  8
ASSY
 62
   190
370
    15
390
5F
100
AcDbLine
 10
20512.97407068928
 20
886.4327373447304
 30
0.0
 11
20512.97407068928
 21
887.0527373447258
 31
0.0
  0
LINE
  5
4A8
102
{ACAD_REACTORS
330
475
102
}
330
1F
100
AcDbEntity
  8
ASSY
 62
   190
370
    15
390
5F
100
AcDbLine
 10
20512.97407068928
 20
887.0527373447258
 30
0.0
 11
20522.47407068928
 21
887.0527373447258
 31
0.0
  0
LINE
  5
4A9
102
{ACAD_REACTORS
330
475
102
}
330
1F
100
AcDbEntity
  8
ASSY
 62
   190
370
    15
390
5F
100
AcDbLine
 10
20512.97407068928
 20
886.4327373447304
 30
0.0
 11
20522.47407068928
 21
886.4327373447304
 31
0.0
  0
LINE
  5
4AA
102
{ACAD_REACTORS
330
475
102
}
330
1F
100
AcDbEntity
  8
ASSY
 62
   190
370
    15
390
5F
100
AcDbLine
 10
20522.47407068928
 20
886.4327373447304
 30
0.0
 11
20520.15933533448
 21
883.9935152325488
 31
0.0
  0
LINE
  5
4AB
102
{ACAD_REACTORS
330
475
102
}
330
1F
100
AcDbEntity
  8
ASSY
 62
   190
370
    15
390
5F
100
AcDbLine
 10
20512.97407068928
 20
886.4327373447304
 30
0.0
 11
20515.28880604407
 21
883.9935152325488
 31
0.0
  0
LINE
  5
4AC
102
{ACAD_REACTORS
330
475
102
}
330
1F
100
AcDbEntity
  8
ASSY
 62
   190
370
    15
390
5F
100
AcDbLine
 10
20520.09468074961
 20
883.9028728475387
 30
0.0
 11
20519.6370598561
 21
883.0237912902085
 31
0.0
  0
LINE
  5
4AD
102
{ACAD_REACTORS
330
475
102
}
330
1F
100
AcDbEntity
  8
ASSY
 62
   190
370
    15
390
5F
100
AcDbLine
 10
20515.35346062894
 20
883.9028728475387
 30
0.0
 11
20515.81108152246
 21
883.0237912902085
 31
0.0
  0
LINE
  5
4AE
102
{ACAD_REACTORS
330
475
102
}
330
1F
100
AcDbEntity
  8
ASSY
 62
   190
370
    15
390
5F
100
AcDbLine
 10
20516.81370193807
 20
820.7040269744757
 30
0.0
 11
20518.88452968656
 21
821.7070841651584
 31
0.0
  0
LINE
  5
4AF
102
{ACAD_REACTORS
330
475
102
}
330
1F
100
AcDbEntity
  8
ASSY
 62
   190
370
    15
390
5F
100
AcDbLine
 10
20515.73659236747
 20
821.303868558578
 30
0.0
 11
20520.04451564208
 21
822.6393247737142
 31
0.0
  0
LINE
  5
4B0
102
{ACAD_REACTORS
330
475
102
}
330
1F
100
AcDbEntity
  8
ASSY
 62
   190
370
    15
390
5F
100
AcDbLine
 10
20516.46888631368
 20
822.0870069064258
 30
0.0
 11
20519.32407068928
 21
823.4699868383468
 31
0.0
  0
LINE
  5
4B1
102
{ACAD_REACTORS
330
475
102
}
330
1F
100
AcDbEntity
  8
ASSY
 62
   190
370
    15
390
5F
100
AcDbLine
 10
20519.32407068928
 20
823.4699868383468
 30
0.0
 11
20520.04451564208
 21
822.6393247737142
 31
0.0
  0
LINE
  5
4B2
102
{ACAD_REACTORS
330
475
102
}
330
1F
100
AcDbEntity
  8
ASSY
 62
   190
370
    15
390
5F
100
AcDbLine
 10
20520.04451564208
 20
822.6393247737142
 30
0.0
 11
20518.88452968656
 21
821.7070841651584
 31
0.0
  0
LINE
  5
4B3
102
{ACAD_REACTORS
330
475
102
}
330
1F
100
AcDbEntity
  8
ASSY
 62
   190
370
    15
390
5F
100
AcDbLine
 10
20516.81370193807
 20
820.7040269744757
 30
0.0
 11
20515.73659236747
 21
821.303868558578
 31
0.0
  0
LINE
  5
4B4
102
{ACAD_REACTORS
330
475
102
}
330
1F
100
AcDbEntity
  8
ASSY
 62
   190
370
    15
390
5F
100
AcDbLine
 10
20515.73659236747
 20
821.303868558578
 30
0.0
 11
20516.46888631368
 21
822.0870069064258
 31
0.0
  0
LINE
  5
4B5
102
{ACAD_REACTORS
330
475
102
}
330
1F
100
AcDbEntity
  8
ASSY
 62
   190
370
    15
390
5F
100
AcDbLine
 10
20516.46888631368
 20
822.0870069064258
 30
0.0
 11
20516.12407068928
 21
823.4699868383468
 31
0.0
  0
ARC
  5
4B6
102
{ACAD_REACTORS
330
475
102
}
330
1F
100
AcDbEntity
  8
ASSY
 62
   190
370
    15
390
5F
100
AcDbCircle
 10
20514.99865629463
 20
883.7181734015861
 30
0.0
 40
0.4000000012294957
100
AcDbArc
 50
27.50000001467997
 51
43.49999996819993
  0
ARC
  5
4B7
102
{ACAD_REACTORS
330
475
102
}
330
1F
100
AcDbEntity
  8
ASSY
 62
   190
370
    15
390
5F
100
AcDbCircle
 10
20520.44948508343
 20
883.7181734019396
 30
0.0
 40
0.4000000006267561
100
AcDbArc
 50
136.500000019741
 51
152.4999999975039
  0
LINE
  5
4B8
102
{ACAD_REACTORS
330
475
102
}
330
1F
100
AcDbEntity
  8
ASSY
 62
   190
370
    15
390
5F
100
AcDbLine
 10
20515.81108152246
 20
883.0237912902085
 30
0.0
 11
20519.6370598561
 21
883.0237912902085
 31
0.0
  0
LINE
  5
4B9
102
{ACAD_REACTORS
330
475
102
}
330
1F
100
AcDbEntity
  8
ASSY
 62
   190
370
    15
390
5F
100
AcDbLine
 10
20520.15933533448
 20
883.9935152325488
 30
0.0
 11
20515.28880604407
 21
883.9935152325488
 31
0.0
  0
LINE
  5
4BA
102
{ACAD_REACTORS
330
475
102
}
330
1F
100
AcDbEntity
  8
ASSY
 62
   190
370
    15
390
5F
100
AcDbLine
 10
20515.35346062894
 20
883.9028728475387
 30
0.0
 11
20520.09468074961
 21
883.9028728475387
 31
0.0
  0
LINE
  5
4BB
102
{ACAD_REACTORS
330
475
102
}
330
1F
100
AcDbEntity
  8
ASSY
 62
   190
370
    15
390
5F
100
AcDbLine
 10
20520.09907068928
 20
886.4327373447304
 30
0.0
 11
20518.69621623436
 21
884.490550251765
 31
0.0
  0
LINE
  5
4BC
102
{ACAD_REACTORS
330
475
102
}
330
1F
100
AcDbEntity
  8
ASSY
 62
   190
370
    15
390
5F
100
AcDbLine
 10
20515.34907068928
 20
886.4327373447304
 30
0.0
 11
20516.75192514419
 21
884.490550251765
 31
0.0
  0
LINE
  5
4BD
102
{ACAD_REACTORS
330
475
102
}
330
1F
100
AcDbEntity
  8
ASSY
 62
   190
370
    15
390
5F
100
AcDbLine
 10
20520.57407068928
 20
886.4327373447304
 30
0.0
 11
20519.70673844511
 21
884.5727373446862
 31
0.0
  0
ARC
  5
4BE
102
{ACAD_REACTORS
330
475
102
}
330
1F
100
AcDbEntity
  8
ASSY
 62
   190
370
    15
390
5F
100
AcDbCircle
 10
20520.32648223814
 20
884.5905595462
 30
0.0
 40
0.619999999891451
100
AcDbArc
 50
181.6472219499238
 51
254.3600231575331
  0
ARC
  5
4BF
102
{ACAD_REACTORS
330
475
102
}
330
1F
100
AcDbEntity
  8
ASSY
 62
   190
370
    15
390
5F
100
AcDbCircle
 10
20517.72407068927
 20
885.1927373447347
 30
0.0
 40
1.199222112185883
100
AcDbArc
 50
215.8408281059925
 51
324.1591718940075
  0
ARC
  5
4C0
102
{ACAD_REACTORS
330
475
102
}
330
1F
100
AcDbEntity
  8
ASSY
 62
   190
370
    15
390
5F
100
AcDbCircle
 10
20515.12165914039
 20
884.5905595462181
 30
0.0
 40
0.6199999999151712
100
AcDbArc
 50
285.6399768442828
 51
358.352778048474
  0
LINE
  5
4C1
102
{ACAD_REACTORS
330
475
102
}
330
1F
100
AcDbEntity
  8
ASSY
 62
   190
370
    15
390
5F
100
AcDbLine
 10
20514.87407068928
 20
886.4327373447304
 30
0.0
 11
20515.74140293345
 21
884.5727373446862
 31
0.0
  0
LINE
  5
4C2
102
{ACAD_REACTORS
330
475
102
}
330
1F
100
AcDbEntity
  8
ASSY
 62
   190
370
    15
390
5F
100
AcDbLine
 10
20516.12407068928
 20
834.3199868383526
 30
0.0
 11
20516.12407068928
 21
835.869986838341
 31
0.0
  0
LINE
  5
4C3
102
{ACAD_REACTORS
330
475
102
}
330
1F
100
AcDbEntity
  8
ASSY
 62
   190
370
    15
390
5F
100
AcDbLine
 10
20519.32407068928
 20
835.869986838341
 30
0.0
 11
20519.32407068928
 21
837.4199868383585
 31
0.0
  0
LINE
  5
4C4
102
{ACAD_REACTORS
330
475
102
}
330
1F
100
AcDbEntity
  8
ASSY
 62
   190
370
    15
390
5F
100
AcDbLine
 10
20516.12407068928
 20
837.4199868383585
 30
0.0
 11
20515.22407068928
 21
836.6449868383643
 31
0.0
  0
LINE
  5
4C5
102
{ACAD_REACTORS
330
475
102
}
330
1F
100
AcDbEntity
  8
ASSY
 62
   190
370
    15
390
5F
100
AcDbLine
 10
20515.22407068928
 20
836.6449868383643
 30
0.0
 11
20516.12407068928
 21
835.869986838341
 31
0.0
  0
LINE
  5
4C6
102
{ACAD_REACTORS
330
475
102
}
330
1F
100
AcDbEntity
  8
ASSY
 62
   190
370
    15
390
5F
100
AcDbLine
 10
20516.12407068928
 20
835.869986838341
 30
0.0
 11
20519.32407068928
 21
837.4199868383585
 31
0.0
  0
LINE
  5
4C7
102
{ACAD_REACTORS
330
475
102
}
330
1F
100
AcDbEntity
  8
ASSY
 62
   190
370
    15
390
5F
100
AcDbLine
 10
20515.22407068928
 20
836.6449868383643
 30
0.0
 11
20520.22407068928
 21
838.1949868383526
 31
0.0
  0
LINE
  5
4C8
102
{ACAD_REACTORS
330
475
102
}
330
1F
100
AcDbEntity
  8
ASSY
 62
   190
370
    15
390
5F
100
AcDbLine
 10
20516.12407068928
 20
837.4199868383585
 30
0.0
 11
20519.32407068928
 21
838.9699868383468
 31
0.0
  0
LINE
  5
4C9
102
{ACAD_REACTORS
330
475
102
}
330
1F
100
AcDbEntity
  8
ASSY
 62
   190
370
    15
390
5F
100
AcDbLine
 10
20519.32407068928
 20
838.9699868383468
 30
0.0
 11
20520.22407068928
 21
838.1949868383526
 31
0.0
  0
LINE
  5
4CA
102
{ACAD_REACTORS
330
475
102
}
330
1F
100
AcDbEntity
  8
ASSY
 62
   190
370
    15
390
5F
100
AcDbLine
 10
20520.22407068928
 20
838.1949868383526
 30
0.0
 11
20519.32407068928
 21
837.4199868383585
 31
0.0
  0
LINE
  5
4CB
102
{ACAD_REACTORS
330
475
102
}
330
1F
100
AcDbEntity
  8
ASSY
 62
   190
370
    15
390
5F
100
AcDbLine
 10
20516.12407068928
 20
837.4199868383585
 30
0.0
 11
20516.12407068928
 21
838.9699868383468
 31
0.0
  0
LINE
  5
4CC
102
{ACAD_REACTORS
330
475
102
}
330
1F
100
AcDbEntity
  8
ASSY
 62
   190
370
    15
390
5F
100
AcDbLine
 10
20519.32407068928
 20
838.9699868383468
 30
0.0
 11
20519.32407068928
 21
840.5199868383643
 31
0.0
  0
LINE
  5
4CD
102
{ACAD_REACTORS
330
475
102
}
330
1F
100
AcDbEntity
  8
ASSY
 62
   190
370
    15
390
5F
100
AcDbLine
 10
20516.12407068928
 20
840.5199868383643
 30
0.0
 11
20515.22407068928
 21
839.744986838341
 31
0.0
  0
LINE
  5
4CE
102
{ACAD_REACTORS
330
475
102
}
330
1F
100
AcDbEntity
  8
ASSY
 62
   190
370
    15
390
5F
100
AcDbLine
 10
20515.22407068928
 20
839.744986838341
 30
0.0
 11
20516.12407068928
 21
838.9699868383468
 31
0.0
  0
LINE
  5
4CF
102
{ACAD_REACTORS
330
475
102
}
330
1F
100
AcDbEntity
  8
ASSY
 62
   190
370
    15
390
5F
100
AcDbLine
 10
20516.12407068928
 20
838.9699868383468
 30
0.0
 11
20519.32407068928
 21
840.5199868383643
 31
0.0
  0
LINE
  5
4D0
102
{ACAD_REACTORS
330
475
102
}
330
1F
100
AcDbEntity
  8
ASSY
 62
   190
370
    15
390
5F
100
AcDbLine
 10
20515.22407068928
 20
839.744986838341
 30
0.0
 11
20520.22407068928
 21
841.2949868383585
 31
0.0
  0
LINE
  5
4D1
102
{ACAD_REACTORS
330
475
102
}
330
1F
100
AcDbEntity
  8
ASSY
 62
   190
370
    15
390
5F
100
AcDbLine
 10
20516.12407068928
 20
840.5199868383643
 30
0.0
 11
20519.32407068928
 21
842.0699868383526
 31
0.0
  0
LINE
  5
4D2
102
{ACAD_REACTORS
330
475
102
}
330
1F
100
AcDbEntity
  8
ASSY
 62
   190
370
    15
390
5F
100
AcDbLine
 10
20519.32407068928
 20
842.0699868383526
 30
0.0
 11
20520.22407068928
 21
841.2949868383585
 31
0.0
  0
LINE
  5
4D3
102
{ACAD_REACTORS
330
475
102
}
330
1F
100
AcDbEntity
  8
ASSY
 62
   190
370
    15
390
5F
100
AcDbLine
 10
20520.22407068928
 20
841.2949868383585
 30
0.0
 11
20519.32407068928
 21
840.5199868383643
 31
0.0
  0
LINE
  5
4D4
102
{ACAD_REACTORS
330
475
102
}
330
1F
100
AcDbEntity
  8
ASSY
 62
   190
370
    15
390
5F
100
AcDbLine
 10
20516.12407068928
 20
840.5199868383643
 30
0.0
 11
20516.12407068928
 21
842.0699868383526
 31
0.0
  0
LINE
  5
4D5
102
{ACAD_REACTORS
330
475
102
}
330
1F
100
AcDbEntity
  8
ASSY
 62
   190
370
    15
390
5F
100
AcDbLine
 10
20519.32407068928
 20
842.0699868383526
 30
0.0
 11
20519.32407068928
 21
843.619986838341
 31
0.0
  0
LINE
  5
4D6
102
{ACAD_REACTORS
330
475
102
}
330
1F
100
AcDbEntity
  8
ASSY
 62
   190
370
    15
390
5F
100
AcDbLine
 10
20516.12407068928
 20
843.619986838341
 30
0.0
 11
20515.22407068928
 21
842.8449868383468
 31
0.0
  0
LINE
  5
4D7
102
{ACAD_REACTORS
330
475
102
}
330
1F
100
AcDbEntity
  8
ASSY
 62
   190
370
    15
390
5F
100
AcDbLine
 10
20515.22407068928
 20
842.8449868383468
 30
0.0
 11
20516.12407068928
 21
842.0699868383526
 31
0.0
  0
LINE
  5
4D8
102
{ACAD_REACTORS
330
475
102
}
330
1F
100
AcDbEntity
  8
ASSY
 62
   190
370
    15
390
5F
100
AcDbLine
 10
20516.12407068928
 20
842.0699868383526
 30
0.0
 11
20519.32407068928
 21
843.619986838341
 31
0.0
  0
LINE
  5
4D9
102
{ACAD_REACTORS
330
475
102
}
330
1F
100
AcDbEntity
  8
ASSY
 62
   190
370
    15
390
5F
100
AcDbLine
 10
20515.22407068928
 20
842.8449868383468
 30
0.0
 11
20520.22407068928
 21
844.3949868383643
 31
0.0
  0
LINE
  5
4DA
102
{ACAD_REACTORS
330
475
102
}
330
1F
100
AcDbEntity
  8
ASSY
 62
   190
370
    15
390
5F
100
AcDbLine
 10
20516.12407068928
 20
843.619986838341
 30
0.0
 11
20519.32407068928
 21
845.1699868383585
 31
0.0
  0
LINE
  5
4DB
102
{ACAD_REACTORS
330
475
102
}
330
1F
100
AcDbEntity
  8
ASSY
 62
   190
370
    15
390
5F
100
AcDbLine
 10
20519.32407068928
 20
845.1699868383585
 30
0.0
 11
20520.22407068928
 21
844.3949868383643
 31
0.0
  0
LINE
  5
4DC
102
{ACAD_REACTORS
330
475
102
}
330
1F
100
AcDbEntity
  8
ASSY
 62
   190
370
    15
390
5F
100
AcDbLine
 10
20520.22407068928
 20
844.3949868383643
 30
0.0
 11
20519.32407068928
 21
843.619986838341
 31
0.0
  0
LINE
  5
4DD
102
{ACAD_REACTORS
330
475
102
}
330
1F
100
AcDbEntity
  8
ASSY
 62
   190
370
    15
390
5F
100
AcDbLine
 10
20516.12407068928
 20
843.619986838341
 30
0.0
 11
20516.12407068928
 21
845.1699868383585
 31
0.0
  0
LINE
  5
4DE
102
{ACAD_REACTORS
330
475
102
}
330
1F
100
AcDbEntity
  8
ASSY
 62
   190
370
    15
390
5F
100
AcDbLine
 10
20519.32407068928
 20
845.1699868383585
 30
0.0
 11
20519.32407068928
 21
846.7199868383759
 31
0.0
  0
LINE
  5
4DF
102
{ACAD_REACTORS
330
475
102
}
330
1F
100
AcDbEntity
  8
ASSY
 62
   190
370
    15
390
5F
100
AcDbLine
 10
20516.12407068928
 20
846.7199868383759
 30
0.0
 11
20515.22407068928
 21
845.9449868383526
 31
0.0
  0
LINE
  5
4E0
102
{ACAD_REACTORS
330
475
102
}
330
1F
100
AcDbEntity
  8
ASSY
 62
   190
370
    15
390
5F
100
AcDbLine
 10
20515.22407068928
 20
845.9449868383526
 30
0.0
 11
20516.12407068928
 21
845.1699868383585
 31
0.0
  0
LINE
  5
4E1
102
{ACAD_REACTORS
330
475
102
}
330
1F
100
AcDbEntity
  8
ASSY
 62
   190
370
    15
390
5F
100
AcDbLine
 10
20516.12407068928
 20
845.1699868383585
 30
0.0
 11
20519.32407068928
 21
846.7199868383759
 31
0.0
  0
LINE
  5
4E2
102
{ACAD_REACTORS
330
475
102
}
330
1F
100
AcDbEntity
  8
ASSY
 62
   190
370
    15
390
5F
100
AcDbLine
 10
20515.22407068928
 20
845.9449868383526
 30
0.0
 11
20520.22407068928
 21
847.494986838341
 31
0.0
  0
LINE
  5
4E3
102
{ACAD_REACTORS
330
475
102
}
330
1F
100
AcDbEntity
  8
ASSY
 62
   190
370
    15
390
5F
100
AcDbLine
 10
20516.12407068928
 20
846.7199868383759
 30
0.0
 11
20519.32407068928
 21
848.2699868383643
 31
0.0
  0
LINE
  5
4E4
102
{ACAD_REACTORS
330
475
102
}
330
1F
100
AcDbEntity
  8
ASSY
 62
   190
370
    15
390
5F
100
AcDbLine
 10
20519.32407068928
 20
848.2699868383643
 30
0.0
 11
20520.22407068928
 21
847.494986838341
 31
0.0
  0
LINE
  5
4E5
102
{ACAD_REACTORS
330
475
102
}
330
1F
100
AcDbEntity
  8
ASSY
 62
   190
370
    15
390
5F
100
AcDbLine
 10
20520.22407068928
 20
847.494986838341
 30
0.0
 11
20519.32407068928
 21
846.7199868383759
 31
0.0
  0
LINE
  5
4E6
102
{ACAD_REACTORS
330
475
102
}
330
1F
100
AcDbEntity
  8
ASSY
 62
   190
370
    15
390
5F
100
AcDbLine
 10
20516.12407068928
 20
846.7199868383759
 30
0.0
 11
20516.12407068928
 21
848.2699868383643
 31
0.0
  0
LINE
  5
4E7
102
{ACAD_REACTORS
330
475
102
}
330
1F
100
AcDbEntity
  8
ASSY
 62
   190
370
    15
390
5F
100
AcDbLine
 10
20519.32407068928
 20
848.2699868383643
 30
0.0
 11
20519.32407068928
 21
849.8199868383526
 31
0.0
  0
LINE
  5
4E8
102
{ACAD_REACTORS
330
475
102
}
330
1F
100
AcDbEntity
  8
ASSY
 62
   190
370
    15
390
5F
100
AcDbLine
 10
20516.12407068928
 20
849.8199868383526
 30
0.0
 11
20515.22407068928
 21
849.0449868383585
 31
0.0
  0
LINE
  5
4E9
102
{ACAD_REACTORS
330
475
102
}
330
1F
100
AcDbEntity
  8
ASSY
 62
   190
370
    15
390
5F
100
AcDbLine
 10
20515.22407068928
 20
849.0449868383585
 30
0.0
 11
20516.12407068928
 21
848.2699868383643
 31
0.0
  0
LINE
  5
4EA
102
{ACAD_REACTORS
330
475
102
}
330
1F
100
AcDbEntity
  8
ASSY
 62
   190
370
    15
390
5F
100
AcDbLine
 10
20516.12407068928
 20
848.2699868383643
 30
0.0
 11
20519.32407068928
 21
849.8199868383526
 31
0.0
  0
LINE
  5
4EB
102
{ACAD_REACTORS
330
475
102
}
330
1F
100
AcDbEntity
  8
ASSY
 62
   190
370
    15
390
5F
100
AcDbLine
 10
20515.22407068928
 20
849.0449868383585
 30
0.0
 11
20520.22407068928
 21
850.5949868383759
 31
0.0
  0
LINE
  5
4EC
102
{ACAD_REACTORS
330
475
102
}
330
1F
100
AcDbEntity
  8
ASSY
 62
   190
370
    15
390
5F
100
AcDbLine
 10
20516.12407068928
 20
849.8199868383526
 30
0.0
 11
20519.32407068928
 21
851.369986838341
 31
0.0
  0
LINE
  5
4ED
102
{ACAD_REACTORS
330
475
102
}
330
1F
100
AcDbEntity
  8
ASSY
 62
   190
370
    15
390
5F
100
AcDbLine
 10
20519.32407068928
 20
851.369986838341
 30
0.0
 11
20520.22407068928
 21
850.5949868383759
 31
0.0
  0
LINE
  5
4EE
102
{ACAD_REACTORS
330
475
102
}
330
1F
100
AcDbEntity
  8
ASSY
 62
   190
370
    15
390
5F
100
AcDbLine
 10
20520.22407068928
 20
850.5949868383759
 30
0.0
 11
20519.32407068928
 21
849.8199868383526
 31
0.0
  0
LINE
  5
4EF
102
{ACAD_REACTORS
330
475
102
}
330
1F
100
AcDbEntity
  8
ASSY
 62
   190
370
    15
390
5F
100
AcDbLine
 10
20516.12407068928
 20
849.8199868383526
 30
0.0
 11
20516.12407068928
 21
851.369986838341
 31
0.0
  0
LINE
  5
4F0
102
{ACAD_REACTORS
330
475
102
}
330
1F
100
AcDbEntity
  8
ASSY
 62
   190
370
    15
390
5F
100
AcDbLine
 10
20519.32407068928
 20
851.369986838341
 30
0.0
 11
20519.32407068928
 21
852.9199868383585
 31
0.0
  0
LINE
  5
4F1
102
{ACAD_REACTORS
330
475
102
}
330
1F
100
AcDbEntity
  8
ASSY
 62
   190
370
    15
390
5F
100
AcDbLine
 10
20516.12407068928
 20
852.9199868383585
 30
0.0
 11
20515.22407068928
 21
852.1449868383643
 31
0.0
  0
LINE
  5
4F2
102
{ACAD_REACTORS
330
475
102
}
330
1F
100
AcDbEntity
  8
ASSY
 62
   190
370
    15
390
5F
100
AcDbLine
 10
20515.22407068928
 20
852.1449868383643
 30
0.0
 11
20516.12407068928
 21
851.369986838341
 31
0.0
  0
LINE
  5
4F3
102
{ACAD_REACTORS
330
475
102
}
330
1F
100
AcDbEntity
  8
ASSY
 62
   190
370
    15
390
5F
100
AcDbLine
 10
20516.12407068928
 20
851.369986838341
 30
0.0
 11
20519.32407068928
 21
852.9199868383585
 31
0.0
  0
LINE
  5
4F4
102
{ACAD_REACTORS
330
475
102
}
330
1F
100
AcDbEntity
  8
ASSY
 62
   190
370
    15
390
5F
100
AcDbLine
 10
20515.22407068928
 20
852.1449868383643
 30
0.0
 11
20520.22407068928
 21
853.6949868383526
 31
0.0
  0
LINE
  5
4F5
102
{ACAD_REACTORS
330
475
102
}
330
1F
100
AcDbEntity
  8
ASSY
 62
   190
370
    15
390
5F
100
AcDbLine
 10
20516.12407068928
 20
852.9199868383585
 30
0.0
 11
20519.32407068928
 21
854.4699868383759
 31
0.0
  0
LINE
  5
4F6
102
{ACAD_REACTORS
330
475
102
}
330
1F
100
AcDbEntity
  8
ASSY
 62
   190
370
    15
390
5F
100
AcDbLine
 10
20519.32407068928
 20
854.4699868383759
 30
0.0
 11
20520.22407068928
 21
853.6949868383526
 31
0.0
  0
LINE
  5
4F7
102
{ACAD_REACTORS
330
475
102
}
330
1F
100
AcDbEntity
  8
ASSY
 62
   190
370
    15
390
5F
100
AcDbLine
 10
20520.22407068928
 20
853.6949868383526
 30
0.0
 11
20519.32407068928
 21
852.9199868383585
 31
0.0
  0
LINE
  5
4F8
102
{ACAD_REACTORS
330
475
102
}
330
1F
100
AcDbEntity
  8
ASSY
 62
   190
370
    15
390
5F
100
AcDbLine
 10
20516.12407068928
 20
852.9199868383585
 30
0.0
 11
20516.12407068928
 21
854.4699868383759
 31
0.0
  0
LINE
  5
4F9
102
{ACAD_REACTORS
330
475
102
}
330
1F
100
AcDbEntity
  8
ASSY
 62
   190
370
    15
390
5F
100
AcDbLine
 10
20519.32407068928
 20
854.4699868383759
 30
0.0
 11
20519.32407068928
 21
856.0199868383643
 31
0.0
  0
LINE
  5
4FA
102
{ACAD_REACTORS
330
475
102
}
330
1F
100
AcDbEntity
  8
ASSY
 62
   190
370
    15
390
5F
100
AcDbLine
 10
20516.12407068928
 20
856.0199868383643
 30
0.0
 11
20515.22407068928
 21
855.244986838341
 31
0.0
  0
LINE
  5
4FB
102
{ACAD_REACTORS
330
475
102
}
330
1F
100
AcDbEntity
  8
ASSY
 62
   190
370
    15
390
5F
100
AcDbLine
 10
20515.22407068928
 20
855.244986838341
 30
0.0
 11
20516.12407068928
 21
854.4699868383759
 31
0.0
  0
LINE
  5
4FC
102
{ACAD_REACTORS
330
475
102
}
330
1F
100
AcDbEntity
  8
ASSY
 62
   190
370
    15
390
5F
100
AcDbLine
 10
20516.12407068928
 20
854.4699868383759
 30
0.0
 11
20519.32407068928
 21
856.0199868383643
 31
0.0
  0
LINE
  5
4FD
102
{ACAD_REACTORS
330
475
102
}
330
1F
100
AcDbEntity
  8
ASSY
 62
   190
370
    15
390
5F
100
AcDbLine
 10
20515.22407068928
 20
855.244986838341
 30
0.0
 11
20520.22407068928
 21
856.7949868383585
 31
0.0
  0
LINE
  5
4FE
102
{ACAD_REACTORS
330
475
102
}
330
1F
100
AcDbEntity
  8
ASSY
 62
   190
370
    15
390
5F
100
AcDbLine
 10
20516.12407068928
 20
856.0199868383643
 30
0.0
 11
20519.32407068928
 21
857.5699868383526
 31
0.0
  0
LINE
  5
4FF
102
{ACAD_REACTORS
330
475
102
}
330
1F
100
AcDbEntity
  8
ASSY
 62
   190
370
    15
390
5F
100
AcDbLine
 10
20519.32407068928
 20
857.5699868383526
 30
0.0
 11
20520.22407068928
 21
856.7949868383585
 31
0.0
  0
LINE
  5
500
102
{ACAD_REACTORS
330
475
102
}
330
1F
100
AcDbEntity
  8
ASSY
 62
   190
370
    15
390
5F
100
AcDbLine
 10
20520.22407068928
 20
856.7949868383585
 30
0.0
 11
20519.32407068928
 21
856.0199868383643
 31
0.0
  0
LINE
  5
501
102
{ACAD_REACTORS
330
475
102
}
330
1F
100
AcDbEntity
  8
DEFPOINTS
 62
   190
370
    15
390
5F
100
AcDbLine
 10
20517.72407068928
 20
887.0527373447258
 30
0.0
 11
20517.72407068928
 21
817.0527373446967
 31
0.0
  0
IMAGE
  5
503
330
1F
100
AcDbEntity
  8
Ech.1_5
  6
Continuous
390
5F
160
                 8
310
0800000000000000
100
AcDbRasterImage
 90
        0
 10
21086.21483491558
 20
-257.6037910055893
 30
0.0
 11
0.1487334262910545
 21
0.0
 31
0.0
 12
0.0
 22
0.1487334272781531
 32
0.0
 13
954.0
 23
334.0
340
502
 70
     7
280
     0
281
    50
282
    50
283
     0
360
504
 71
     1
 91
        2
 14
-0.5
 24
-0.5
 14
953.5
 24
333.5
290
     0
  0
INSERT
  5
516
102
{ACAD_REACTORS
330
517
330
518
102
}
330
1F
100
AcDbEntity
  8
Ech.1_5
100
AcDbBlockReference
  2
DIM83
 10
0.0
 20
0.0
 30
0.0
  0
INSERT
  5
52A
102
{ACAD_REACTORS
330
52B
330
518
102
}
330
1F
100
AcDbEntity
  8
Ech.1_5
100
AcDbBlockReference
  2
DIM84
 10
0.0
 20
0.0
 30
0.0
  0
INSERT
  5
52C
102
{ACAD_REACTORS
330
475
102
}
330
1F
100
AcDbEntity
  8
ASSY
 62
   190
370
     0
100
AcDbBlockReference
  2
CDWK_PTTYP1
 10
20517.72407068928
 20
887.0527373447259
 30
0.0
 41
1.000000014901161
 42
1.000000014901161
 43
1.000000014901161
  0
INSERT
  5
52D
102
{ACAD_REACTORS
330
475
102
}
330
1F
100
AcDbEntity
  8
ASSY
 62
   190
370
     0
100
AcDbBlockReference
  2
CDWK_PTTYP1
 10
20517.72407068928
 20
817.0527373446967
 30
0.0
 41
1.000000014901161
 42
1.000000014901161
 43
1.000000014901161
  0
INSERT
  5
52E
102
{ACAD_REACTORS
330
330
330
331
102
}
330
1F
100
AcDbEntity
  8
ASSY
 62
   190
370
     0
100
AcDbBlockReference
  2
CDWK_PTTYP1
 10
21102.43959470241
 20
434.9408423101995
 30
0.0
 41
2.000000029802322
 42
2.000000029802322
 43
2.000000029802322
  0
INSERT
  5
52F
102
{ACAD_REACTORS
330
330
330
331
102
}
330
1F
100
AcDbEntity
  8
ASSY
 62
   190
370
     0
100
AcDbBlockReference
  2
CDWK_PTTYP1
 10
21102.43959470241
 20
574.9408423101995
 30
0.0
 41
2.000000029802322
 42
2.000000029802322
 43
2.000000029802322
  0
INSERT
  5
530
102
{ACAD_REACTORS
330
3E5
102
}
330
1F
100
AcDbEntity
  8
ASSY
 62
   190
370
     0
100
AcDbBlockReference
  2
CDWK_PTTYP1
 10
21116.07895204719
 20
311.0468856332591
 30
0.0
 41
2.000000029802322
 42
2.000000029802322
 43
2.000000029802322
  0
INSERT
  5
531
102
{ACAD_REACTORS
330
3E5
102
}
330
1F
100
AcDbEntity
  8
ASSY
 62
   190
370
     0
100
AcDbBlockReference
  2
CDWK_PTTYP1
 10
21116.07895204719
 20
171.0468856332591
 30
0.0
 41
2.000000029802322
 42
2.000000029802322
 43
2.000000029802322
  0
TEXT
  5
532
102
{ACAD_REACTORS
330
517
102
}
330
1F
100
AcDbEntity
  8
Ech.1_5
  6
Continuous
 62
   190
390
5F
100
AcDbText
 10
20664.52705343429
 20
868.8827620016236
 30
0.0
 40
12.5
  1
e
 50
90.0
  7
arial-
100
AcDbText
  0
TEXT
  5
533
102
{ACAD_REACTORS
330
52B
102
}
330
1F
100
AcDbEntity
  8
Ech.1_5
  6
Continuous
 62
   190
390
5F
100
AcDbText
 10
20666.00767804748
 20
835.8010102598055
 30
0.0
 40
12.5
  1
S
 50
90.0
  7
arial-
100
AcDbText
  0
MTEXT
  5
534
102
{ACAD_REACTORS
330
285
330
286
330
287
102
}
330
1F
100
AcDbEntity
  8
Ech.1_5
  6
Continuous
 62
     4
420
    65535
390
5F
100
AcDbMText
 10
20943.25475723878
 20
-128.2386834247154
 30
0.0
 40
12.5
 41
488.3428846351853
 46
0.0
 71
     2
 72
     1
  1
{\fArial|b0|i0;\W1.000000;\H12.500000;\c16711848;Vues en coupe longitudinale}
  7
arial-
 73
     1
 44
1.07999975538982
  0
MTEXT
  5
535
102
{ACAD_REACTORS
330
285
330
286
330
287
102
}
330
1F
100
AcDbEntity
  8
Ech.1_5
  6
Continuous
 62
     4
420
    65535
390
5F
100
AcDbMText
 10
21263.57486725962
 20
-128.0715069319704
 30
0.0
 40
12.5
 41
127.2973354064961
 46
0.0
 71
     2
 72
     1
  1
{\fArial|b0|i0;\W1.000000;\H12.500000;\c16711848;Ech 1/5 }
  7
arial-
 73
     1
 44
1.07999975538982
  0
MTEXT
  5
536
102
{ACAD_REACTORS
330
285
330
286
330
287
102
}
330
1F
100
AcDbEntity
  8
Ech.1_5
  6
Continuous
 62
     4
420
    65535
390
5F
100
AcDbMText
 10
20614.7557059235
 20
-127.799750629405
 30
0.0
 40
12.5
 41
143.6552179953615
 46
0.0
 71
     2
 72
     1
  1
{\fArial|b0|i0;\W1.000000;\H12.500000;\c16711848;L-CC-06}
  7
arial-
 73
     1
 44
1.07999975538982
  0
MTEXT
  5
538
102
{ACAD_REACTORS
330
285
330
286
330
287
102
}
330
1F
100
AcDbEntity
  8
Ech.1_5
  6
Continuous
 62
   200
420
 11010303
390
5F
100
AcDbMText
 10
20840.97353496286
 20
-149.5688679663581
 30
0.0
 40
6.25
 41
978.7500000000073
 46
0.0
 71
     2
 72
     1
  3
{\fArial|b0|i1;\W1.000000;\H6.250000;\c16711848; Il est rappelé à l'utilisateur qui consulte le site et utilise les informations qu'il contient, qu'il doit les utiliser sous sa seule responsabilité en vérifiant leur pertinence, leur cohérence et leur
  1
 non obsolescence.}
  7
arial-i
 73
     1
 44
1.07999975538982
  0
MTEXT
  5
539
102
{ACAD_REACTORS
330
285
330
286
330
287
102
}
330
1F
100
AcDbEntity
  8
Ech.1_5
  6
Continuous
 62
   200
420
 11010303
390
5F
100
AcDbMText
 10
20840.97353496286
 20
-183.7333958598902
 30
0.0
 40
8.125
 41
976.8750000000073
 46
0.0
 71
     2
 72
     1
  1
{\fArial|b0|i1;\W1.000000;\H8.125000;\c16711848;www.catalogue-bois-construction.fr}
  7
arial-i
 73
     1
 44
1.07999975538982
  0
MTEXT
  5
53A
102
{ACAD_REACTORS
330
287
102
}
330
1F
100
AcDbEntity
  8
Ech.1_5
  6
Continuous
 62
     4
420
    65535
390
5F
100
AcDbMText
 10
20840.97353496286
 20
1021.502204882418
 30
0.0
 40
16.25
 41
968.7500000000073
 46
0.0
 71
     2
 72
     1
  1
{\fArial|b0|i0;\W1.000000;\H16.250000;\c16711848;Points singuliers : choix longueur et diamètre vis (exemple sur porteurs bois)}
  7
arial-
 73
     1
 44
1.07999975538982
  0
MTEXT
  5
53C
330
1F
100
AcDbEntity
  8
Ech.1_5
  6
Continuous
 62
     4
420
    65535
390
5F
100
AcDbMText
 10
20840.97353496286
 20
1054.126077298046
 30
0.0
 40
16.25
 41
968.7500000000073
 46
0.0
 71
     2
 72
     1
  1
{\fArial|b1|i0;\W1.000000;\H16.250000;\c16711848;Lames sur porteurs linéaires - Conception courante}
  7
arial-b
 73
     1
 44
1.07999975538982
  0
MTEXT
  5
53D
330
1F
100
AcDbEntity
  8
Ech.1_5
  6
Continuous
 62
     4
420
    65535
390
5F
100
AcDbMText
 10
20840.97353496286
 20
1084.912177305407
 30
0.0
 40
16.25
 41
968.7500000000073
 46
0.0
 71
     2
 72
     1
  1
{\fArial|b0|i0;\W1.000000;\H16.250000;\c16711848;PLATELAGE}
  7
arial-
 73
     1
 44
1.07999975538982
  0
MTEXT
  5
53E
330
1F
100
AcDbEntity
  8
Ech.1_5
  6
Continuous
 62
     4
420
    65535
390
5F
100
AcDbMText
 10
20840.97353496286
 20
960.4886194884022
 30
0.0
 40
15.0
 41
756.4029578070476
 46
0.0
 71
     2
 72
     1
  1
{\fArial|b1|i0;\W1.000000;\H15.000000;\c16711848;La longueur de la vis se détermine sur la base du tableau suivant :}
  7
arial-b
 73
     1
 44
1.07999975538982
  0
MTEXT
  5
53F
330
1F
100
AcDbEntity
  8
Ech.1_5
  6
Continuous
 62
     4
420
    65535
390
5F
100
AcDbMText
 10
20840.97353496286
 20
651.9291946195881
 30
0.0
 40
15.0
 41
756.4029578070476
 46
0.0
 71
     2
 72
     1
  1
{\fArial|b1|i0;\W1.000000;\H15.000000;\c16711848;La longueur exacte des vis est affinée selon les conditions suivantes :}
  7
arial-b
 73
     1
 44
1.07999975538982
  0
MTEXT
  5
540
330
1F
100
AcDbEntity
  8
Ech.1_5
  6
Continuous
 62
     4
420
    65535
390
5F
100
AcDbMText
 10
20649.07306243383
 20
537.0535822476377
 30
0.0
 40
15.0
 41
545.3330306869284
 46
0.0
 71
     2
 72
     1
  1
{\fArial|b1|i0;\W1.000000;\H15.000000;\c16711848;Double filetage :}\P{\fArial|b0|i0;\W1.000000;\H15.000000;\c16711848;Longueur de filetage sous la tête < épaisseur de la lame}
  7
arial-b
 73
     1
 44
1.07999975538982
  0
MTEXT
  5
541
330
1F
100
AcDbEntity
  8
Ech.1_5
  6
Continuous
 62
     4
420
    65535
390
5F
100
AcDbMText
 10
20632.05310174127
 20
297.5625764798024
 30
0.0
 40
15.0
 41
486.4257414599415
 46
0.0
 71
     2
 72
     1
  3
{\fArial|b1|i0;\W1.000000;\H15.000000;\c16711848;Congé de filetage sous tête (filetage partiel):}\P{\fArial|b0|i0;\W1.000000;\H15.000000;\c16711848;Longueur du congé de filetage sous la tête }\P{\fArial|b0|i0;\W1.000000;\H15.000000;\c16711848;> épais
  1
seur de la lame}
  7
arial-b
 73
     1
 44
1.07999975538982
  0
MTEXT
  5
542
330
1F
100
AcDbEntity
  8
Ech.1_5
  6
Continuous
 62
     4
420
    65535
390
5F
100
AcDbMText
 10
20840.97353496286
 20
84.44873800087953
 30
0.0
 40
15.0
 41
756.4029578070476
 46
0.0
 71
     2
 72
     1
  1
{\fArial|b1|i0;\W1.000000;\H15.000000;\c16711848;Le diamètre des vis se détermine sur la base du tableau suivant :}
  7
arial-b
 73
     1
 44
1.07999975538982
  0
TEXT
  5
543
330
1F
100
AcDbEntity
  8
Ech.1_5
  6
Continuous
 62
   190
390
5F
100
AcDbText
 10
20407.10718795507
 20
-142.1504633438308
 30
0.0
 40
12.5
  1
17/02/2022
  7
arial-
100
AcDbText
  0
TEXT
  5
544
102
{ACAD_REACTORS
330
473
102
}
330
1F
100
AcDbEntity
  8
Ech.1_5
  6
Continuous
 62
   190
390
5F
100
AcDbText
 10
20612.3313043355
 20
712.2806561185571
 30
0.0
 40
13.75
  1
!
  7
arial-
100
AcDbText
  0
VIEWPORT
  5
21D
330
217
100
AcDbEntity
 67
     1
  8
0
  6
Continuous
390
5F
100
AcDbViewport
 10
98.8
 20
135.8
 30
0.0
 40
209.0608
 41
287.3528000000001
 68
     1
 69
     1
 12
128.5
 22
97.5
 13
0.0
 23
0.0
 14
10.0
 24
10.0
 15
10.0
 25
10.0
 16
0.0
 26
0.0
 36
1.0
 17
0.0
 27
0.0
 37
0.0
 42
50.0
 43
0.0
 44
0.0
 45
222.18
 50
0.0
 51
0.0
 72
   100
 90
   557152
  1

281
     0
 71
     1
 74
     0
110
0.0
120
0.0
130
0.0
111
1.0
121
0.0
131
0.0
112
0.0
122
1.0
132
0.0
 79
     0
146
0.0
170
     0
 61
     5
348
2F
292
     1
282
     1
141
0.0
142
0.0
 63
   256
361
21E
  0
VIEWPORT
  5
21F
330
217
100
AcDbEntity
 67
     1
  8
0
  6
Continuous
 60
     1
390
5F
100
AcDbViewport
 10
98.8
 20
135.8
 30
0.0
 40
197.6
 41
271.6
 68
     2
 69
     2
 12
20840.97353496286
 22
415.5371773053921
 13
0.0
 23
0.0
 14
10.0
 24
10.0
 15
10.0
 25
10.0
 16
0.0
 26
0.0
 36
1.0
 17
0.0
 27
0.0
 37
0.0
 42
50.0
 43
0.0
 44
0.0
 45
1358.000000000029
 50
0.0
 51
0.0
 72
   100
 90
   557152
  1

281
     0
 71
     1
 74
     0
110
0.0
120
0.0
130
0.0
111
1.0
121
0.0
131
0.0
112
0.0
122
1.0
132
0.0
 79
     0
146
0.0
170
     0
 61
     5
348
2F
292
     1
282
     1
141
0.0
142
0.0
 63
   256
  0
ENDSEC
  0
SECTION
  2
OBJECTS
  0
DICTIONARY
  5
C
330
0
100
AcDbDictionary
281
     1
  3
ACAD_DETAILVIEWSTYLE
350
54C
  3
ACAD_GROUP
350
D
  3
ACAD_IMAGE_DICT
350
288
  3
ACAD_IMAGE_VARS
350
60
  3
ACAD_LAYOUT
350
1A
  3
ACAD_MATERIAL
350
43
  3
ACAD_MLEADERSTYLE
350
5B
  3
ACAD_MLINESTYLE
350
17
  3
ACAD_PLOTSETTINGS
350
19
  3
ACAD_PLOTSTYLENAME
350
E
  3
ACAD_SCALELIST
350
47
  3
ACAD_SECTIONVIEWSTYLE
350
54D
  3
ACAD_TABLESTYLE
350
59
  3
ACAD_VISUALSTYLE
350
2A
  3
ACAD_WIPEOUT_VARS
350
61
  3
ACDB_RECOMPOSE_DATA
350
549
  3
AcDbVariableDictionary
350
545
  0
SUN
  5
5D
330
29
100
AcDbSun
 90
        1
290
     0
 63
     7
421
 16777215
 40
1.0
291
     1
 91
  2455826
 92
 54000000
292
     0
 70
     2
 71
   256
280
     1
  0
IMAGEDEF_REACTOR
  5
28B
330
28A
100
AcDbRasterImageDefReactor
 90
        2
330
28A
  0
IMAGEDEF_REACTOR
  5
28E
330
28D
100
AcDbRasterImageDefReactor
 90
        2
330
28D
  0
IMAGEDEF_REACTOR
  5
504
330
503
100
AcDbRasterImageDefReactor
 90
        2
330
503
  0
SUN
  5
21E
330
21D
100
AcDbSun
 90
        1
290
     0
 63
     7
421
 16777215
 40
1.0
291
     1
 91
  2455826
 92
 54000000
292
     0
 70
     2
 71
   256
280
     1
  0
DICTIONARY
  5
54C
102
{ACAD_REACTORS
330
C
102
}
330
C
100
AcDbDictionary
281
     1
  0
DICTIONARY
  5
D
102
{ACAD_REACTORS
330
C
102
}
330
C
100
AcDbDictionary
281
     1
  3
1545
350
473
  3
211
350
285
  3
212
350
286
  3
213
350
287
  3
214
350
296
  3
215
350
518
  3
308
350
283
  3
309
350
31E
  3
356
350
250
  3
357
350
221
  3
613
350
475
  3
619
350
330
  3
620
350
3B7
  3
621
350
331
  3
622
350
3E5
  3
DIM83
350
517
  3
DIM84
350
52B
  0
DICTIONARY
  5
288
102
{ACAD_REACTORS
330
C
102
}
330
C
100
AcDbDictionary
281
     1
  3
CwRasterImage1127
350
289
  3
CwRasterImage1128
350
28C
  3
CwRasterImage1129
350
502
  0
RASTERVARIABLES
  5
60
102
{ACAD_REACTORS
330
C
102
}
330
C
100
AcDbRasterVariables
 90
        0
 70
     0
 71
     1
 72
     1
  0
DICTIONARY
  5
1A
102
{ACAD_REACTORS
330
C
102
}
330
C
100
AcDbDictionary
281
     1
  3
CompleteLayout
350
1E
  3
Model
350
22
  3
PrintFrame_6
350
218
  0
DICTIONARY
  5
43
102
{ACAD_REACTORS
330
C
102
}
330
C
100
AcDbDictionary
281
     1
  3
ByBlock
350
45
  3
ByLayer
350
44
  3
Global
350
46
  0
DICTIONARY
  5
5B
102
{ACAD_REACTORS
330
C
102
}
330
C
100
AcDbDictionary
281
     1
  3
Standard
350
5C
  0
DICTIONARY
  5
17
102
{ACAD_REACTORS
330
C
102
}
330
C
100
AcDbDictionary
281
     1
  3
Standard
350
18
  0
DICTIONARY
  5
19
102
{ACAD_REACTORS
330
C
102
}
330
C
100
AcDbDictionary
281
     1
  3
PlotSettings_
350
21B
  0
ACDBDICTIONARYWDFLT
  5
E
102
{ACAD_REACTORS
330
C
102
}
330
C
100
AcDbDictionary
281
     1
  3
flat
350
5F
  3
Normal
350
F
100
AcDbDictionaryWithDefault
340
F
  0
DICTIONARY
  5
47
102
{ACAD_REACTORS
330
C
102
}
330
C
100
AcDbDictionary
281
     1
  3
A0
350
48
  3
A1
350
49
  3
A2
350
4A
  3
A3
350
4B
  3
A4
350
4C
  3
A5
350
4D
  3
A6
350
4E
  3
A7
350
4F
  3
A8
350
50
  3
A9
350
51
  3
B0
350
52
  3
B1
350
53
  3
B2
350
54
  3
B3
350
55
  3
B4
350
56
  3
B5
350
57
  3
B6
350
58
  0
DICTIONARY
  5
54D
102
{ACAD_REACTORS
330
C
102
}
330
C
100
AcDbDictionary
281
     1
  0
DICTIONARY
  5
59
102
{ACAD_REACTORS
330
C
102
}
330
C
100
AcDbDictionary
281
     1
  3
Standard
350
5A
  0
DICTIONARY
  5
2A
102
{ACAD_REACTORS
330
C
102
}
330
C
100
AcDbDictionary
281
     1
  3
2dWireframe
350
2F
  3
Basic
350
32
  3
Brighten
350
36
  3
ColorChange
350
3A
  3
Conceptual
350
34
  3
Dim
350
35
  3
EdgeColorOff
350
3D
  3
Facepattern
350
39
  3
Flat
350
2B
  3
FlatWithEdges
350
2C
  3
Gouraud
350
2D
  3
GouraudWithEdges
350
2E
  3
Hidden
350
31
  3
JitterOff
350
3B
  3
Linepattern
350
38
  3
OverhangOff
350
3C
  3
Realistic
350
33
  3
Shaded
350
42
  3
Shaded with edges
350
41
  3
Shades of Gray
350
3E
  3
Sketchy
350
3F
  3
Thicken
350
37
  3
Wireframe
350
30
  3
X-Ray
350
40
  0
WIPEOUTVARIABLES
  5
61
102
{ACAD_REACTORS
330
C
102
}
330
C
100
AcDbWipeoutVariables
 70
     0
  0
XRECORD
  5
549
102
{ACAD_REACTORS
330
C
102
}
330
C
100
AcDbXrecord
280
     1
 90
        1
330
5A
  0
DICTIONARY
  5
545
102
{ACAD_REACTORS
330
C
102
}
330
C
100
AcDbDictionary
281
     1
  3
CANNOSCALE
350
546
  3
CENTEREXE
350
54F
  3
CENTERLTYPEFILE
350
550
  3
CMLEADERSTYLE
350
54B
  3
CTABLESTYLE
350
54A
  3
WIPEOUTFRAME
350
54E
  0
GROUP
  5
473
102
{ACAD_REACTORS
330
D
102
}
330
D
100
AcDbGroup
300

 70
     0
 71
     1
340
472
340
544
  0
GROUP
  5
285
102
{ACAD_REACTORS
330
D
102
}
330
D
100
AcDbGroup
300

 70
     0
 71
     1
340
284
340
322
340
323
340
324
340
326
340
327
340
328
340
534
340
535
340
536
340
538
340
539
  0
GROUP
  5
286
102
{ACAD_REACTORS
330
D
102
}
330
D
100
AcDbGroup
300

 70
     0
 71
     1
340
284
340
28A
340
322
340
323
340
324
340
326
340
327
340
328
340
534
340
535
340
536
340
538
340
539
  0
GROUP
  5
287
102
{ACAD_REACTORS
330
D
102
}
330
D
100
AcDbGroup
300

 70
     0
 71
     1
340
284
340
28A
340
28D
340
322
340
323
340
324
340
325
340
326
340
327
340
328
340
534
340
535
340
536
340
538
340
539
340
53A
  0
GROUP
  5
296
102
{ACAD_REACTORS
330
D
102
}
330
D
100
AcDbGroup
300

 70
     0
 71
     1
340
295
  0
GROUP
  5
518
102
{ACAD_REACTORS
330
D
102
}
330
D
100
AcDbGroup
300

 70
     0
 71
     1
340
516
340
52A
  0
GROUP
  5
283
102
{ACAD_REACTORS
330
D
102
}
330
D
100
AcDbGroup
300

 70
     0
 71
     1
340
282
  0
GROUP
  5
31E
102
{ACAD_REACTORS
330
D
102
}
330
D
100
AcDbGroup
300

 70
     0
 71
     1
340
31D
  0
GROUP
  5
250
102
{ACAD_REACTORS
330
D
102
}
330
D
100
AcDbGroup
300

 70
     0
 71
     1
340
24F
340
251
  0
GROUP
  5
221
102
{ACAD_REACTORS
330
D
102
}
330
D
100
AcDbGroup
300

 70
     0
 71
     1
340
220
340
222
  0
GROUP
  5
475
102
{ACAD_REACTORS
330
D
102
}
330
D
100
AcDbGroup
300

 70
     0
 71
     1
340
474
340
476
340
477
340
478
340
479
340
47A
340
47B
340
47C
340
47D
340
47E
340
47F
340
480
340
481
340
482
340
483
340
484
340
485
340
486
340
487
340
488
340
489
340
48A
340
48B
340
48C
340
48D
340
48E
340
48F
340
490
340
491
340
492
340
493
340
494
340
495
340
496
340
497
340
498
340
499
340
49A
340
49B
340
49C
340
49D
340
49E
340
49F
340
4A0
340
4A1
340
4A2
340
4A3
340
4A4
340
4A5
340
4A6
340
4A7
340
4A8
340
4A9
340
4AA
340
4AB
340
4AC
340
4AD
340
4AE
340
4AF
340
4B0
340
4B1
340
4B2
340
4B3
340
4B4
340
4B5
340
4B6
340
4B7
340
4B8
340
4B9
340
4BA
340
4BB
340
4BC
340
4BD
340
4BE
340
4BF
340
4C0
340
4C1
340
4C2
340
4C3
340
4C4
340
4C5
340
4C6
340
4C7
340
4C8
340
4C9
340
4CA
340
4CB
340
4CC
340
4CD
340
4CE
340
4CF
340
4D0
340
4D1
340
4D2
340
4D3
340
4D4
340
4D5
340
4D6
340
4D7
340
4D8
340
4D9
340
4DA
340
4DB
340
4DC
340
4DD
340
4DE
340
4DF
340
4E0
340
4E1
340
4E2
340
4E3
340
4E4
340
4E5
340
4E6
340
4E7
340
4E8
340
4E9
340
4EA
340
4EB
340
4EC
340
4ED
340
4EE
340
4EF
340
4F0
340
4F1
340
4F2
340
4F3
340
4F4
340
4F5
340
4F6
340
4F7
340
4F8
340
4F9
340
4FA
340
4FB
340
4FC
340
4FD
340
4FE
340
4FF
340
500
340
501
340
52C
340
52D
  0
GROUP
  5
330
102
{ACAD_REACTORS
330
D
102
}
330
D
100
AcDbGroup
300

 70
     0
 71
     1
340
32F
340
332
340
333
340
334
340
335
340
336
340
337
340
338
340
339
340
33A
340
33B
340
33C
340
33D
340
33E
340
33F
340
340
340
341
340
342
340
343
340
344
340
345
340
346
340
347
340
348
340
349
340
34A
340
34B
340
34C
340
34D
340
34E
340
34F
340
350
340
351
340
352
340
353
340
354
340
355
340
356
340
357
340
358
340
359
340
35A
340
35B
340
35C
340
35D
340
35E
340
35F
340
360
340
361
340
362
340
363
340
364
340
365
340
366
340
367
340
368
340
369
340
36A
340
36B
340
36C
340
36D
340
36E
340
36F
340
370
340
371
340
372
340
373
340
374
340
375
340
376
340
377
340
378
340
379
340
37A
340
37B
340
37C
340
37D
340
37E
340
37F
340
380
340
381
340
382
340
383
340
384
340
385
340
386
340
387
340
388
340
389
340
38A
340
38B
340
38C
340
38D
340
38E
340
38F
340
390
340
391
340
392
340
393
340
394
340
395
340
396
340
397
340
398
340
399
340
39A
340
39B
340
39C
340
39D
340
39E
340
39F
340
3A0
340
3A1
340
3A2
340
3A3
340
3A4
340
3A5
340
3A6
340
3A7
340
3A8
340
3A9
340
3AA
340
3AB
340
3AC
340
3AD
340
3AE
340
3AF
340
3B0
340
3B1
340
3B2
340
3B4
340
52E
340
52F
  0
GROUP
  5
3B7
102
{ACAD_REACTORS
330
D
102
}
330
D
100
AcDbGroup
300

 70
     0
 71
     1
340
3B6
340
3B8
340
3B9
340
3BA
340
3BB
340
3BC
340
3BD
340
3BE
340
3BF
340
3C0
340
3C1
340
3C2
340
3C3
340
3C4
340
3C5
340
3C6
340
3C7
340
3C8
340
3C9
340
3CA
340
3CB
340
3CC
340
3CD
340
3CE
340
3CF
340
3D0
340
3D1
340
3D2
340
3D3
340
3D4
340
3D5
340
3D6
340
3D7
340
3D8
340
3D9
340
3DA
340
3DB
340
3DC
340
3DD
340
3DE
340
3DF
340
3E0
340
3E1
340
3E2
340
3E3
  0
GROUP
  5
331
102
{ACAD_REACTORS
330
D
102
}
330
D
100
AcDbGroup
300

 70
     0
 71
     1
340
32F
340
332
340
333
340
334
340
335
340
336
340
337
340
338
340
339
340
33A
340
33B
340
33C
340
33D
340
33E
340
33F
340
340
340
341
340
342
340
343
340
344
340
345
340
346
340
347
340
348
340
349
340
34A
340
34B
340
34C
340
34D
340
34E
340
34F
340
350
340
351
340
352
340
353
340
354
340
355
340
356
340
357
340
358
340
359
340
35A
340
35B
340
35C
340
35D
340
35E
340
35F
340
360
340
361
340
362
340
363
340
364
340
365
340
366
340
367
340
368
340
369
340
36A
340
36B
340
36C
340
36D
340
36E
340
36F
340
370
340
371
340
372
340
373
340
374
340
375
340
376
340
377
340
378
340
379
340
37A
340
37B
340
37C
340
37D
340
37E
340
37F
340
380
340
381
340
382
340
383
340
384
340
385
340
386
340
387
340
388
340
389
340
38A
340
38B
340
38C
340
38D
340
38E
340
38F
340
390
340
391
340
392
340
393
340
394
340
395
340
396
340
397
340
398
340
399
340
39A
340
39B
340
39C
340
39D
340
39E
340
39F
340
3A0
340
3A1
340
3A2
340
3A3
340
3A4
340
3A5
340
3A6
340
3A7
340
3A8
340
3A9
340
3AA
340
3AB
340
3AC
340
3AD
340
3AE
340
3AF
340
3B0
340
3B1
340
3B2
340
3B3
340
3B4
340
3B5
340
3B6
340
3B8
340
3B9
340
3BA
340
3BB
340
3BC
340
3BD
340
3BE
340
3BF
340
3C0
340
3C1
340
3C2
340
3C3
340
3C4
340
3C5
340
3C6
340
3C7
340
3C8
340
3C9
340
3CA
340
3CB
340
3CC
340
3CD
340
3CE
340
3CF
340
3D0
340
3D1
340
3D2
340
3D3
340
3D4
340
3D5
340
3D6
340
3D7
340
3D8
340
3D9
340
3DA
340
3DB
340
3DC
340
3DD
340
3DE
340
3DF
340
3E0
340
3E1
340
3E2
340
3E3
340
52E
340
52F
  0
GROUP
  5
3E5
102
{ACAD_REACTORS
330
D
102
}
330
D
100
AcDbGroup
300

 70
     0
 71
     1
340
3E4
340
3E6
340
3E7
340
3E8
340
3E9
340
3EA
340
3EB
340
3EC
340
3ED
340
3EE
340
3EF
340
3F0
340
3F1
340
3F2
340
3F3
340
3F4
340
3F5
340
3F6
340
3F7
340
3F8
340
3F9
340
3FA
340
3FB
340
3FC
340
3FD
340
3FE
340
3FF
340
400
340
401
340
402
340
403
340
404
340
405
340
406
340
407
340
408
340
409
340
40A
340
40B
340
40C
340
40D
340
40E
340
40F
340
410
340
411
340
412
340
413
340
414
340
415
340
416
340
417
340
418
340
419
340
41A
340
41B
340
41C
340
41D
340
41E
340
41F
340
420
340
421
340
422
340
423
340
424
340
425
340
426
340
427
340
428
340
429
340
42A
340
42B
340
42C
340
42D
340
42E
340
42F
340
430
340
431
340
432
340
433
340
434
340
435
340
436
340
437
340
438
340
439
340
43A
340
43B
340
43C
340
43D
340
43E
340
43F
340
440
340
441
340
442
340
443
340
444
340
445
340
446
340
447
340
448
340
449
340
44A
340
44B
340
44C
340
44D
340
44E
340
44F
340
450
340
451
340
452
340
453
340
454
340
455
340
456
340
457
340
458
340
459
340
45A
340
45B
340
45C
340
45D
340
45E
340
45F
340
460
340
461
340
462
340
463
340
464
340
465
340
466
340
467
340
468
340
469
340
46A
340
46B
340
46C
340
46D
340
46E
340
46F
340
470
340
471
340
530
340
531
  0
GROUP
  5
517
102
{ACAD_REACTORS
330
D
102
}
330
D
100
AcDbGroup
300

 70
     0
 71
     1
340
516
340
532
  0
GROUP
  5
52B
102
{ACAD_REACTORS
330
D
102
}
330
D
100
AcDbGroup
300

 70
     0
 71
     1
340
52A
340
533
  0
IMAGEDEF
  5
289
102
{ACAD_REACTORS
330
288
330
28B
102
}
330
288
100
AcDbRasterImageDef
 90
        0
  1
fcba.jpg
 10
247.0
 20
171.0
 11
0.3527336860670194
 21
0.3527336860670194
280
     1
281
     3
  0
IMAGEDEF
  5
28C
102
{ACAD_REACTORS
330
288
330
28E
102
}
330
288
100
AcDbRasterImageDef
 90
        0
  1
EXE_LOGO_FBF_soutien_Q_L.jpg
 10
200.0
 20
133.0
 11
0.3527336860670194
 21
0.3527336860670194
280
     1
281
     3
  0
IMAGEDEF
  5
502
102
{ACAD_REACTORS
330
288
330
504
102
}
330
288
100
AcDbRasterImageDef
 90
        0
  1
{3D18D2F7-F982-4527-A176-7E8FDB81B9D8}.TIFF
 10
954.0
 20
334.0
 11
0.2645502645502645
 21
0.2645502645502645
280
     1
281
     3
  0
LAYOUT
  5
1E
102
{ACAD_REACTORS
330
1A
102
}
330
1A
100
AcDbPlotSettings
  1

  2
none_device
  4

  6

 40
0.0
 41
0.0
 42
0.0
 43
0.0
 44
0.0
 45
0.0
 46
0.0
 47
0.0
 48
0.0
 49
0.0
140
0.0
141
0.0
142
1.0
143
1.0
 70
   688
 72
     1
 73
     0
 74
     5
  7

 75
    16
 76
     0
 77
     2
 78
   300
147
1.0
148
0.0
149
0.0
100
AcDbLayout
  1
CompleteLayout
 70
     1
 71
     1
 10
0.0
 20
0.0
 11
420.0
 21
297.0
 12
0.0
 22
0.0
 32
0.0
 14
1.000000000000000E+20
 24
1.000000000000000E+20
 34
1.000000000000000E+20
 15
-1.000000000000000E+20
 25
-1.000000000000000E+20
 35
-1.000000000000000E+20
146
0.0
 13
0.0
 23
0.0
 33
0.0
 16
1.0
 26
0.0
 36
0.0
 17
0.0
 27
1.0
 37
0.0
 76
     0
330
1B
  0
LAYOUT
  5
22
102
{ACAD_REACTORS
330
1A
102
}
330
1A
100
AcDbPlotSettings
  1

  2
none_device
  4
Letter_(8.50_x_11.00_Inches)
  6

 40
6.35
 41
6.35
 42
6.35000508
 43
6.35000508
 44
215.9
 45
279.4
 46
0.0
 47
0.0
 48
0.0
 49
0.0
140
0.0
141
0.0
142
1.0
143
1.0
 70
  1712
 72
     1
 73
     0
 74
     0
  7

 75
     0
 76
     0
 77
     2
 78
   300
147
1.0
148
0.0
149
0.0
100
AcDbLayout
  1
Model
 70
     1
 71
     0
 10
0.0
 20
0.0
 11
420.0
 21
297.0
 12
0.0
 22
0.0
 32
0.0
 14
19505.20704734458
 24
-261.9628226946224
 34
-265.0000000000077
 15
21333.47353496287
 25
1093.037177305407
 35
59.9999999999952
146
0.0
 13
0.0
 23
0.0
 33
0.0
 16
1.0
 26
0.0
 36
0.0
 17
0.0
 27
1.0
 37
0.0
 76
     0
330
1F
331
29
  0
LAYOUT
  5
218
102
{ACAD_REACTORS
330
1A
102
}
330
1A
100
AcDbPlotSettings
  1
PlotSettings_
  2
Custom Device
  4
Custom_210.000000x297.000000_12.700000_12.700000_6.200000_6.200000
  6

 40
6.2
 41
12.7
 42
6.2
 43
12.7
 44
210.0
 45
297.0
 46
0.0000000000000142
 47
0.0
 48
0.0
 49
0.0
140
197.6
141
271.6
142
1.0
143
1.0
 70
   756
 72
     1
 73
     0
 74
     4
  7

 75
     0
 76
     0
 77
     2
 78
   300
147
1.0
148
0.0
149
0.0
100
AcDbLayout
  1
PrintFrame_6
 70
     0
 71
     2
 10
-20.0
 20
-7.5
 11
277.0
 21
202.5
 12
0.0
 22
0.0
 32
0.0
 14
-5.730400000000003
 24
-7.876400000000018
 34
0.0
 15
203.3304
 25
279.4764
 35
0.0
146
0.0
 13
0.0
 23
0.0
 33
0.0
 16
1.0
 26
0.0
 36
0.0
 17
0.0
 27
1.0
 37
0.0
 76
     0
330
217
331
21D
1001
PLOTTRANSPARENCY
1071
        1
1000
layout-user-created
1070
     1
1000
layout-line-weight-scale
1042
1.0
  0
MATERIAL
  5
45
102
{ACAD_REACTORS
330
43
102
}
330
43
100
AcDbMaterial
  1
ByBlock
 72
     1
 94
      127
  0
MATERIAL
  5
44
102
{ACAD_REACTORS
330
43
102
}
330
43
100
AcDbMaterial
  1
ByLayer
 72
     1
 94
      127
  0
MATERIAL
  5
46
102
{ACAD_REACTORS
330
43
102
}
330
43
100
AcDbMaterial
  1
Global
 72
     1
 94
      127
  0
MLEADERSTYLE
  5
5C
102
{ACAD_REACTORS
330
5B
102
}
330
5B
100
AcDbMLeaderStyle
179
     2
170
     2
171
     1
172
     0
 90
        2
 40
0.0
 41
0.0
173
     1
 91
-1056964608
340
14
 92
       -2
290
     1
 42
2.0
291
     1
 43
8.0
  3
Standard
341
0
 44
4.0
300

342
11
174
     1
178
     6
175
     1
176
     0
 93
-1056964608
 45
4.0
292
     0
297
     0
 46
4.0
343
0
 94
-1056964608
 47
1.0
 49
1.0
140
1.0
293
     1
141
0.0
294
     1
177
     0
142
1.0
295
     0
296
     0
143
3.75
271
     0
272
     9
273
     9
298
     0
  0
MLINESTYLE
  5
18
102
{ACAD_REACTORS
330
17
102
}
330
17
100
AcDbMlineStyle
  2
Standard
 70
     0
  3

 62
   256
 51
90.0
 52
90.0
 71
     2
 49
0.5
 62
   256
  6
BYLAYER
 49
-0.5
 62
   256
  6
BYLAYER
  0
PLOTSETTINGS
  5
21B
102
{ACAD_REACTORS
330
19
102
}
330
19
100
AcDbPlotSettings
  1
PlotSettings_
  2
Custom Device
  4
Custom_210.000000x297.000000_12.700000_12.700000_6.200000_6.200000
  6

 40
6.2
 41
12.7
 42
6.2
 43
12.7
 44
210.0
 45
297.0
 46
0.0000000000000142
 47
0.0
 48
0.0
 49
0.0
140
197.6
141
271.6
142
1.0
143
1.0
 70
   756
 72
     1
 73
     0
 74
     4
  7

 75
     0
 76
     0
 77
     2
 78
   300
147
1.0
148
0.0
149
0.0
1001
PLOTTRANSPARENCY
1071
        1
1000
layout-user-created
1070
     1
1000
layout-line-weight-scale
1042
1.0
  0
ACDBPLACEHOLDER
  5
5F
102
{ACAD_REACTORS
330
E
102
}
330
E
  0
ACDBPLACEHOLDER
  5
F
102
{ACAD_REACTORS
330
E
102
}
330
E
  0
SCALE
  5
48
102
{ACAD_REACTORS
330
47
102
}
330
47
100
AcDbScale
 70
     0
300
1:1
140
1.0
141
1.0
290
     1
  0
SCALE
  5
49
102
{ACAD_REACTORS
330
47
102
}
330
47
100
AcDbScale
 70
     0
300
1:2
140
1.0
141
2.0
290
     0
  0
SCALE
  5
4A
102
{ACAD_REACTORS
330
47
102
}
330
47
100
AcDbScale
 70
     0
300
1:4
140
1.0
141
4.0
290
     0
  0
SCALE
  5
4B
102
{ACAD_REACTORS
330
47
102
}
330
47
100
AcDbScale
 70
     0
300
1:5
140
1.0
141
5.0
290
     0
  0
SCALE
  5
4C
102
{ACAD_REACTORS
330
47
102
}
330
47
100
AcDbScale
 70
     0
300
1:8
140
1.0
141
8.0
290
     0
  0
SCALE
  5
4D
102
{ACAD_REACTORS
330
47
102
}
330
47
100
AcDbScale
 70
     0
300
1:10
140
1.0
141
10.0
290
     0
  0
SCALE
  5
4E
102
{ACAD_REACTORS
330
47
102
}
330
47
100
AcDbScale
 70
     0
300
1:16
140
1.0
141
16.0
290
     0
  0
SCALE
  5
4F
102
{ACAD_REACTORS
330
47
102
}
330
47
100
AcDbScale
 70
     0
300
1:20
140
1.0
141
20.0
290
     0
  0
SCALE
  5
50
102
{ACAD_REACTORS
330
47
102
}
330
47
100
AcDbScale
 70
     0
300
1:30
140
1.0
141
30.0
290
     0
  0
SCALE
  5
51
102
{ACAD_REACTORS
330
47
102
}
330
47
100
AcDbScale
 70
     0
300
1:40
140
1.0
141
40.0
290
     0
  0
SCALE
  5
52
102
{ACAD_REACTORS
330
47
102
}
330
47
100
AcDbScale
 70
     0
300
1:50
140
1.0
141
50.0
290
     0
  0
SCALE
  5
53
102
{ACAD_REACTORS
330
47
102
}
330
47
100
AcDbScale
 70
     0
300
1:100
140
1.0
141
100.0
290
     0
  0
SCALE
  5
54
102
{ACAD_REACTORS
330
47
102
}
330
47
100
AcDbScale
 70
     0
300
2:1
140
2.0
141
1.0
290
     0
  0
SCALE
  5
55
102
{ACAD_REACTORS
330
47
102
}
330
47
100
AcDbScale
 70
     0
300
4:1
140
4.0
141
1.0
290
     0
  0
SCALE
  5
56
102
{ACAD_REACTORS
330
47
102
}
330
47
100
AcDbScale
 70
     0
300
8:1
140
8.0
141
1.0
290
     0
  0
SCALE
  5
57
102
{ACAD_REACTORS
330
47
102
}
330
47
100
AcDbScale
 70
     0
300
10:1
140
10.0
141
1.0
290
     0
  0
SCALE
  5
58
102
{ACAD_REACTORS
330
47
102
}
330
47
100
AcDbScale
 70
     0
300
100:1
140
100.0
141
1.0
290
     0
  0
TABLESTYLE
  5
5A
102
{ACAD_REACTORS
330
59
102
}
102
{ACAD_XDICTIONARY
360
547
102
}
330
59
100
AcDbTableStyle
  3
Standard
 70
     0
 71
     0
 40
0.06
 41
0.06
280
     0
281
     0
  7
Standard
140
4.5
170
     2
 62
     0
 63
   257
283
     0
 90
        4
 91
        0
  1

274
    -2
284
     1
 64
     0
275
    -2
285
     1
 65
     0
276
    -2
286
     1
 66
     0
277
    -2
287
     1
 67
     0
278
    -2
288
     1
 68
     0
279
    -2
289
     1
 69
     0
  7
Standard
140
6.0
170
     5
 62
     0
 63
   257
283
     0
 90
        4
 91
        0
  1

274
    -2
284
     1
 64
     0
275
    -2
285
     1
 65
     0
276
    -2
286
     1
 66
     0
277
    -2
287
     1
 67
     0
278
    -2
288
     1
 68
     0
279
    -2
289
     1
 69
     0
  7
Standard
140
4.5
170
     5
 62
     0
 63
   257
283
     0
 90
        4
 91
        0
  1

274
    -2
284
     1
 64
     0
275
    -2
285
     1
 65
     0
276
    -2
286
     1
 66
     0
277
    -2
287
     1
 67
     0
278
    -2
288
     1
 68
     0
279
    -2
289
     1
 69
     0
  0
VISUALSTYLE
  5
2F
102
{ACAD_REACTORS
330
2A
102
}
330
2A
100
AcDbVisualStyle
  2
2dWireframe
 70
     4
177
     3
291
     0
 70
    58
 90
        0
176
     1
 90
        2
176
     1
 90
        0
176
     1
 90
        0
176
     1
 40
0.6
176
     1
 40
30.0
176
     1
 62
     7
420
 16777215
176
     1
 90
        1
176
     1
 90
        4
176
     1
 62
     7
176
     1
 62
   257
176
     1
 90
        1
176
     1
 90
        1
176
     1
 40
1.0
176
     1
 90
        0
176
     1
 62
   257
176
     1
 40
1.0
176
     1
 90
        1
176
     1
 90
        6
176
     1
 90
        2
176
     1
 62
     7
176
     1
 90
        5
176
     1
 90
        0
176
     1
 90
        0
176
     1
290
     0
176
     1
 90
        1
176
     1
 40
0.0
176
     1
 90
        0
176
     1
290
     1
176
     1
290
     1
176
     1
290
     0
176
     1
290
     0
176
     1
290
     0
176
     1
290
     0
176
     1
290
     0
176
     1
290
     0
176
     1
290
     0
176
     1
 90
       50
176
     1
 40
0.0
176
     1
 40
1.0
176
     1
 90
        0
176
     1
 62
    18
420
        0
176
     1
 90
       50
176
     1
 90
        3
176
     1
 62
     5
420
      255
176
     1
290
     0
176
     1
 90
       50
176
     1
 90
       50
176
     1
 90
       50
176
     1
290
     0
176
     1
 90
       50
176
     1
 62
   256
176
     0
 40
1.0
176
     0
 90
        2
176
     1
  1
strokes_ogs.tif
176
     1
290
     0
176
     1
 40
1.0
176
     1
 40
1.0
176
     1
  0
VISUALSTYLE
  5
32
102
{ACAD_REACTORS
330
2A
102
}
330
2A
100
AcDbVisualStyle
  2
Basic
 70
     7
177
     3
291
     1
 70
    58
 90
        1
176
     1
 90
        0
176
     1
 90
        1
176
     1
 90
        0
176
     1
 40
0.6
176
     1
 40
30.0
176
     1
 62
     7
420
 16777215
176
     1
 90
        0
176
     1
 90
        4
176
     1
 62
     7
176
     1
 62
   257
176
     1
 90
        1
176
     1
 90
        1
176
     1
 40
1.0
176
     1
 90
        8
176
     1
 62
     7
176
     1
 40
1.0
176
     1
 90
        1
176
     1
 90
        6
176
     1
 90
        2
176
     1
 62
     7
176
     1
 90
        5
176
     1
 90
        0
176
     1
 90
        0
176
     1
290
     0
176
     1
 90
        1
176
     1
 40
0.0
176
     1
 90
        0
176
     1
290
     0
176
     1
290
     1
176
     1
290
     1
176
     1
290
     0
176
     1
290
     0
176
     1
290
     0
176
     1
290
     0
176
     1
290
     0
176
     1
290
     0
176
     1
 90
       50
176
     1
 40
0.0
176
     1
 40
1.0
176
     1
 90
        0
176
     1
 62
    18
420
        0
176
     1
 90
       50
176
     1
 90
        3
176
     1
 62
     5
420
      255
176
     1
290
     0
176
     1
 90
       50
176
     1
 90
       50
176
     1
 90
       50
176
     1
290
     0
176
     1
 90
       50
176
     1
 62
   256
176
     0
 40
1.0
176
     0
 90
        2
176
     1
  1
strokes_ogs.tif
176
     1
290
     0
176
     1
 40
1.0
176
     1
 40
1.0
176
     1
  0
VISUALSTYLE
  5
36
102
{ACAD_REACTORS
330
2A
102
}
330
2A
100
AcDbVisualStyle
  2
Brighten
 70
    12
177
     3
291
     1
 70
    58
 90
        2
176
     1
 90
        2
176
     1
 90
        0
176
     1
 90
        0
176
     1
 40
0.6
176
     1
 40
30.0
176
     1
 62
     7
420
 16777215
176
     1
 90
        1
176
     1
 90
        4
176
     1
 62
     7
176
     1
 62
   257
176
     1
 90
        1
176
     1
 90
        1
176
     1
 40
1.0
176
     1
 90
        8
176
     1
 62
     7
176
     1
 40
1.0
176
     1
 90
        1
176
     1
 90
        6
176
     1
 90
        2
176
     1
 62
     7
176
     1
 90
        5
176
     1
 90
        0
176
     1
 90
        0
176
     1
290
     0
176
     1
 90
        1
176
     1
 40
50.0
176
     1
 90
        0
176
     1
290
     0
176
     1
290
     1
176
     1
290
     1
176
     1
290
     0
176
     1
290
     0
176
     1
290
     0
176
     1
290
     0
176
     1
290
     0
176
     1
290
     0
176
     1
 90
       50
176
     1
 40
0.0
176
     1
 40
1.0
176
     1
 90
        0
176
     1
 62
    18
420
        0
176
     1
 90
       50
176
     1
 90
        3
176
     1
 62
     5
420
      255
176
     1
290
     0
176
     1
 90
       50
176
     1
 90
       50
176
     1
 90
       50
176
     1
290
     0
176
     1
 90
       50
176
     1
 62
   256
176
     0
 40
1.0
176
     0
 90
        2
176
     1
  1
strokes_ogs.tif
176
     1
290
     0
176
     1
 40
1.0
176
     1
 40
1.0
176
     1
  0
VISUALSTYLE
  5
3A
102
{ACAD_REACTORS
330
2A
102
}
330
2A
100
AcDbVisualStyle
  2
ColorChange
 70
    16
177
     3
291
     1
 70
    58
 90
        2
176
     1
 90
        2
176
     1
 90
        3
176
     1
 90
        0
176
     1
 40
0.6
176
     1
 40
30.0
176
     1
 62
     8
420
  8421504
176
     1
 90
        1
176
     1
 90
        4
176
     1
 62
     7
176
     1
 62
   257
176
     1
 90
        1
176
     1
 90
        1
176
     1
 40
1.0
176
     1
 90
        8
176
     1
 62
     8
420
  8421504
176
     1
 40
1.0
176
     1
 90
        1
176
     1
 90
        6
176
     1
 90
        2
176
     1
 62
     7
176
     1
 90
        5
176
     1
 90
        0
176
     1
 90
        0
176
     1
290
     0
176
     1
 90
        1
176
     1
 40
0.0
176
     1
 90
        0
176
     1
290
     0
176
     1
290
     1
176
     1
290
     1
176
     1
290
     0
176
     1
290
     0
176
     1
290
     0
176
     1
290
     0
176
     1
290
     0
176
     1
290
     0
176
     1
 90
       50
176
     1
 40
0.0
176
     1
 40
1.0
176
     1
 90
        0
176
     1
 62
    18
420
        0
176
     1
 90
       50
176
     1
 90
        3
176
     1
 62
     5
420
      255
176
     1
290
     0
176
     1
 90
       50
176
     1
 90
       50
176
     1
 90
       50
176
     1
290
     0
176
     1
 90
       50
176
     1
 62
   256
176
     0
 40
1.0
176
     0
 90
        2
176
     1
  1
strokes_ogs.tif
176
     1
290
     0
176
     1
 40
1.0
176
     1
 40
1.0
176
     1
  0
VISUALSTYLE
  5
34
102
{ACAD_REACTORS
330
2A
102
}
330
2A
100
AcDbVisualStyle
  2
Conceptual
 70
     9
177
     3
291
     0
 70
    58
 90
        3
176
     1
 90
        2
176
     1
 90
        0
176
     1
 90
        0
176
     1
 40
0.6
176
     1
 40
30.0
176
     1
 62
     7
420
 16777215
176
     1
 90
        2
176
     1
 90
        2
176
     1
 62
     7
176
     1
 62
   257
176
     1
 90
        1
176
     1
 90
        1
176
     1
 40
179.0
176
     1
 90
        8
176
     1
 62
     7
176
     1
 40
1.0
176
     1
 90
        1
176
     1
 90
        6
176
     1
 90
        2
176
     1
 62
     7
176
     1
 90
        3
176
     1
 90
        0
176
     1
 90
        0
176
     1
290
     0
176
     1
 90
        1
176
     1
 40
0.0
176
     1
 90
        0
176
     1
290
     0
176
     1
290
     1
176
     1
290
     1
176
     1
290
     0
176
     1
290
     0
176
     1
290
     0
176
     1
290
     0
176
     1
290
     0
176
     1
290
     0
176
     1
 90
       50
176
     1
 40
0.0
176
     1
 40
1.0
176
     1
 90
        0
176
     1
 62
    18
420
        0
176
     1
 90
       50
176
     1
 90
        3
176
     1
 62
     5
420
      255
176
     1
290
     0
176
     1
 90
       50
176
     1
 90
       50
176
     1
 90
       50
176
     1
290
     0
176
     1
 90
       50
176
     1
 62
   256
176
     0
 40
1.0
176
     0
 90
        2
176
     1
  1
strokes_ogs.tif
176
     1
290
     0
176
     1
 40
1.0
176
     1
 40
1.0
176
     1
  0
VISUALSTYLE
  5
35
102
{ACAD_REACTORS
330
2A
102
}
330
2A
100
AcDbVisualStyle
  2
Dim
 70
    11
177
     3
291
     1
 70
    58
 90
        2
176
     1
 90
        2
176
     1
 90
        0
176
     1
 90
        0
176
     1
 40
0.6
176
     1
 40
30.0
176
     1
 62
     7
420
 16777215
176
     1
 90
        1
176
     1
 90
        4
176
     1
 62
     7
176
     1
 62
   257
176
     1
 90
        1
176
     1
 90
        1
176
     1
 40
1.0
176
     1
 90
        8
176
     1
 62
     7
176
     1
 40
1.0
176
     1
 90
        1
176
     1
 90
        6
176
     1
 90
        2
176
     1
 62
     7
176
     1
 90
        5
176
     1
 90
        0
176
     1
 90
        0
176
     1
290
     0
176
     1
 90
        1
176
     1
 40
-50.0
176
     1
 90
        0
176
     1
290
     0
176
     1
290
     1
176
     1
290
     1
176
     1
290
     0
176
     1
290
     0
176
     1
290
     0
176
     1
290
     0
176
     1
290
     0
176
     1
290
     0
176
     1
 90
       50
176
     1
 40
0.0
176
     1
 40
1.0
176
     1
 90
        0
176
     1
 62
    18
420
        0
176
     1
 90
       50
176
     1
 90
        3
176
     1
 62
     5
420
      255
176
     1
290
     0
176
     1
 90
       50
176
     1
 90
       50
176
     1
 90
       50
176
     1
290
     0
176
     1
 90
       50
176
     1
 62
   256
176
     0
 40
1.0
176
     0
 90
        2
176
     1
  1
strokes_ogs.tif
176
     1
290
     0
176
     1
 40
1.0
176
     1
 40
1.0
176
     1
  0
VISUALSTYLE
  5
3D
102
{ACAD_REACTORS
330
2A
102
}
330
2A
100
AcDbVisualStyle
  2
EdgeColorOff
 70
    22
177
     3
291
     1
 70
    58
 90
        2
176
     0
 90
        2
176
     0
 90
        0
176
     0
 90
        0
176
     0
 40
0.6
176
     0
 40
30.0
176
     0
 62
     7
420
 16777215
176
     0
 90
        1
176
     0
 90
        4
176
     0
 62
     7
176
     0
 62
   257
176
     0
 90
        1
176
     0
 90
        1
176
     0
 40
1.0
176
     0
 90
        8
176
     2
 62
     7
176
     0
 40
1.0
176
     0
 90
        1
176
     0
 90
        6
176
     0
 90
        2
176
     0
 62
     7
176
     0
 90
        5
176
     0
 90
        0
176
     0
 90
        0
176
     0
290
     0
176
     0
 90
        1
176
     0
 40
0.0
176
     0
 90
        0
176
     0
290
     0
176
     0
290
     1
176
     0
290
     1
176
     0
290
     0
176
     0
290
     0
176
     0
290
     0
176
     0
290
     0
176
     0
290
     0
176
     0
290
     0
176
     0
 90
       50
176
     0
 40
0.0
176
     0
 40
1.0
176
     0
 90
        0
176
     0
 62
    18
420
        0
176
     0
 90
       50
176
     0
 90
        3
176
     0
 62
     5
420
      255
176
     0
290
     0
176
     0
 90
       50
176
     0
 90
       50
176
     0
 90
       50
176
     0
290
     0
176
     0
 90
       50
176
     0
 62
   256
176
     0
 40
1.0
176
     0
 90
        2
176
     0
  1
strokes_ogs.tif
176
     0
290
     0
176
     0
 40
1.0
176
     0
 40
1.0
176
     0
  0
VISUALSTYLE
  5
39
102
{ACAD_REACTORS
330
2A
102
}
330
2A
100
AcDbVisualStyle
  2
Facepattern
 70
    15
177
     3
291
     1
 70
    58
 90
        2
176
     1
 90
        2
176
     1
 90
        0
176
     1
 90
        0
176
     1
 40
0.6
176
     1
 40
30.0
176
     1
 62
     7
420
 16777215
176
     1
 90
        1
176
     1
 90
        4
176
     1
 62
     7
176
     1
 62
   257
176
     1
 90
        1
176
     1
 90
        1
176
     1
 40
1.0
176
     1
 90
        8
176
     1
 62
     7
176
     1
 40
1.0
176
     1
 90
        1
176
     1
 90
        6
176
     1
 90
        2
176
     1
 62
     7
176
     1
 90
        5
176
     1
 90
        0
176
     1
 90
        0
176
     1
290
     0
176
     1
 90
        1
176
     1
 40
0.0
176
     1
 90
        0
176
     1
290
     0
176
     1
290
     1
176
     1
290
     1
176
     1
290
     0
176
     1
290
     0
176
     1
290
     0
176
     1
290
     0
176
     1
290
     0
176
     1
290
     0
176
     1
 90
       50
176
     1
 40
0.0
176
     1
 40
1.0
176
     1
 90
        0
176
     1
 62
    18
420
        0
176
     1
 90
       50
176
     1
 90
        3
176
     1
 62
     5
420
      255
176
     1
290
     0
176
     1
 90
       50
176
     1
 90
       50
176
     1
 90
       50
176
     1
290
     0
176
     1
 90
       50
176
     1
 62
   256
176
     0
 40
1.0
176
     0
 90
        2
176
     1
  1
strokes_ogs.tif
176
     1
290
     0
176
     1
 40
1.0
176
     1
 40
1.0
176
     1
  0
VISUALSTYLE
  5
2B
102
{ACAD_REACTORS
330
2A
102
}
330
2A
100
AcDbVisualStyle
  2
Flat
 70
     0
177
     3
291
     1
 70
    58
 90
        2
176
     1
 90
        1
176
     1
 90
        1
176
     1
 90
        2
176
     1
 40
0.6
176
     1
 40
30.0
176
     1
 62
     7
420
 16777215
176
     1
 90
        0
176
     1
 90
        0
176
     1
 62
     7
176
     1
 62
   257
176
     1
 90
        1
176
     1
 90
        1
176
     1
 40
1.0
176
     1
 90
        8
176
     1
 62
     7
176
     1
 40
1.0
176
     1
 90
        1
176
     1
 90
        6
176
     1
 90
        2
176
     1
 62
     7
176
     1
 90
        5
176
     1
 90
        0
176
     1
 90
        0
176
     1
290
     0
176
     1
 90
       13
176
     1
 40
0.0
176
     1
 90
        0
176
     1
290
     0
176
     1
290
     1
176
     1
290
     1
176
     1
290
     0
176
     1
290
     0
176
     1
290
     0
176
     1
290
     0
176
     1
290
     0
176
     1
290
     0
176
     1
 90
       50
176
     1
 40
0.0
176
     1
 40
1.0
176
     1
 90
        0
176
     1
 62
    18
420
        0
176
     1
 90
       50
176
     1
 90
        3
176
     1
 62
     5
420
      255
176
     1
290
     0
176
     1
 90
       50
176
     1
 90
       50
176
     1
 90
       50
176
     1
290
     0
176
     1
 90
       50
176
     1
 62
   256
176
     0
 40
1.0
176
     0
 90
        2
176
     1
  1
strokes_ogs.tif
176
     1
290
     0
176
     1
 40
1.0
176
     1
 40
1.0
176
     1
  0
VISUALSTYLE
  5
2C
102
{ACAD_REACTORS
330
2A
102
}
330
2A
100
AcDbVisualStyle
  2
FlatWithEdges
 70
     1
177
     3
291
     1
 70
    58
 90
        2
176
     1
 90
        1
176
     1
 90
        1
176
     1
 90
        2
176
     1
 40
0.6
176
     1
 40
30.0
176
     1
 62
     7
420
 16777215
176
     1
 90
        1
176
     1
 90
        0
176
     1
 62
     7
176
     1
 62
   257
176
     1
 90
        1
176
     1
 90
        1
176
     1
 40
1.0
176
     1
 90
        0
176
     1
 62
   257
176
     1
 40
1.0
176
     1
 90
        1
176
     1
 90
        6
176
     1
 90
        2
176
     1
 62
     7
176
     1
 90
        5
176
     1
 90
        0
176
     1
 90
        0
176
     1
290
     0
176
     1
 90
       13
176
     1
 40
0.0
176
     1
 90
        0
176
     1
290
     0
176
     1
290
     1
176
     1
290
     1
176
     1
290
     0
176
     1
290
     0
176
     1
290
     0
176
     1
290
     0
176
     1
290
     0
176
     1
290
     0
176
     1
 90
       50
176
     1
 40
0.0
176
     1
 40
1.0
176
     1
 90
        0
176
     1
 62
    18
420
        0
176
     1
 90
       50
176
     1
 90
        3
176
     1
 62
     5
420
      255
176
     1
290
     0
176
     1
 90
       50
176
     1
 90
       50
176
     1
 90
       50
176
     1
290
     0
176
     1
 90
       50
176
     1
 62
   256
176
     0
 40
1.0
176
     0
 90
        2
176
     1
  1
strokes_ogs.tif
176
     1
290
     0
176
     1
 40
1.0
176
     1
 40
1.0
176
     1
  0
VISUALSTYLE
  5
2D
102
{ACAD_REACTORS
330
2A
102
}
330
2A
100
AcDbVisualStyle
  2
Gouraud
 70
     2
177
     3
291
     1
 70
    58
 90
        2
176
     1
 90
        2
176
     1
 90
        1
176
     1
 90
        2
176
     1
 40
0.6
176
     1
 40
30.0
176
     1
 62
     7
420
 16777215
176
     1
 90
        0
176
     1
 90
        0
176
     1
 62
     7
176
     1
 62
   257
176
     1
 90
        1
176
     1
 90
        1
176
     1
 40
1.0
176
     1
 90
        0
176
     1
 62
     7
176
     1
 40
1.0
176
     1
 90
        1
176
     1
 90
        6
176
     1
 90
        2
176
     1
 62
     7
176
     1
 90
        5
176
     1
 90
        0
176
     1
 90
        0
176
     1
290
     0
176
     1
 90
       13
176
     1
 40
0.0
176
     1
 90
        0
176
     1
290
     0
176
     1
290
     1
176
     1
290
     1
176
     1
290
     0
176
     1
290
     0
176
     1
290
     0
176
     1
290
     0
176
     1
290
     0
176
     1
290
     0
176
     1
 90
       50
176
     1
 40
0.0
176
     1
 40
1.0
176
     1
 90
        0
176
     1
 62
    18
420
        0
176
     1
 90
       50
176
     1
 90
        3
176
     1
 62
     5
420
      255
176
     1
290
     0
176
     1
 90
       50
176
     1
 90
       50
176
     1
 90
       50
176
     1
290
     0
176
     1
 90
       50
176
     1
 62
   256
176
     0
 40
1.0
176
     0
 90
        2
176
     1
  1
strokes_ogs.tif
176
     1
290
     0
176
     1
 40
1.0
176
     1
 40
1.0
176
     1
  0
VISUALSTYLE
  5
2E
102
{ACAD_REACTORS
330
2A
102
}
330
2A
100
AcDbVisualStyle
  2
GouraudWithEdges
 70
     3
177
     3
291
     1
 70
    58
 90
        2
176
     1
 90
        2
176
     1
 90
        1
176
     1
 90
        2
176
     1
 40
0.6
176
     1
 40
30.0
176
     1
 62
     7
420
 16777215
176
     1
 90
        1
176
     1
 90
        0
176
     1
 62
     7
176
     1
 62
   257
176
     1
 90
        1
176
     1
 90
        1
176
     1
 40
1.0
176
     1
 90
        0
176
     1
 62
   257
176
     1
 40
1.0
176
     1
 90
        1
176
     1
 90
        6
176
     1
 90
        2
176
     1
 62
     7
176
     1
 90
        5
176
     1
 90
        0
176
     1
 90
        0
176
     1
290
     0
176
     1
 90
       13
176
     1
 40
0.0
176
     1
 90
        0
176
     1
290
     0
176
     1
290
     1
176
     1
290
     1
176
     1
290
     0
176
     1
290
     0
176
     1
290
     0
176
     1
290
     0
176
     1
290
     0
176
     1
290
     0
176
     1
 90
       50
176
     1
 40
0.0
176
     1
 40
1.0
176
     1
 90
        0
176
     1
 62
    18
420
        0
176
     1
 90
       50
176
     1
 90
        3
176
     1
 62
     5
420
      255
176
     1
290
     0
176
     1
 90
       50
176
     1
 90
       50
176
     1
 90
       50
176
     1
290
     0
176
     1
 90
       50
176
     1
 62
   256
176
     0
 40
1.0
176
     0
 90
        2
176
     1
  1
strokes_ogs.tif
176
     1
290
     0
176
     1
 40
1.0
176
     1
 40
1.0
176
     1
  0
VISUALSTYLE
  5
31
102
{ACAD_REACTORS
330
2A
102
}
330
2A
100
AcDbVisualStyle
  2
Hidden
 70
     6
177
     3
291
     0
 70
    58
 90
        1
176
     1
 90
        2
176
     1
 90
        2
176
     1
 90
        0
176
     1
 40
0.6
176
     1
 40
30.0
176
     1
 62
     7
420
 16777215
176
     1
 90
        2
176
     1
 90
        2
176
     1
 62
     7
176
     1
 62
   257
176
     1
 90
        2
176
     1
 90
        1
176
     1
 40
40.0
176
     1
 90
        0
176
     1
 62
   257
176
     1
 40
1.0
176
     1
 90
        1
176
     1
 90
        6
176
     1
 90
        2
176
     1
 62
     7
176
     1
 90
        3
176
     1
 90
        0
176
     1
 90
        0
176
     1
290
     0
176
     1
 90
        1
176
     1
 40
0.0
176
     1
 90
        0
176
     1
290
     0
176
     1
290
     1
176
     1
290
     1
176
     1
290
     0
176
     1
290
     0
176
     1
290
     0
176
     1
290
     0
176
     1
290
     0
176
     1
290
     0
176
     1
 90
       50
176
     1
 40
0.0
176
     1
 40
1.0
176
     1
 90
        0
176
     1
 62
    18
420
        0
176
     1
 90
       50
176
     1
 90
        3
176
     1
 62
     5
420
      255
176
     1
290
     0
176
     1
 90
       50
176
     1
 90
       50
176
     1
 90
       50
176
     1
290
     0
176
     1
 90
       50
176
     1
 62
   256
176
     0
 40
1.0
176
     0
 90
        2
176
     1
  1
strokes_ogs.tif
176
     1
290
     0
176
     1
 40
1.0
176
     1
 40
1.0
176
     1
  0
VISUALSTYLE
  5
3B
102
{ACAD_REACTORS
330
2A
102
}
330
2A
100
AcDbVisualStyle
  2
JitterOff
 70
    20
177
     3
291
     1
 70
    58
 90
        2
176
     0
 90
        2
176
     0
 90
        0
176
     0
 90
        0
176
     0
 40
0.6
176
     0
 40
30.0
176
     0
 62
     7
420
 16777215
176
     0
 90
        1
176
     0
 90
        4
176
     0
 62
     7
176
     0
 62
   257
176
     0
 90
        1
176
     0
 90
        1
176
     0
 40
1.0
176
     0
 90
       10
176
     2
 62
     7
176
     0
 40
1.0
176
     0
 90
        1
176
     0
 90
        6
176
     0
 90
        2
176
     0
 62
     7
176
     0
 90
        5
176
     0
 90
        0
176
     0
 90
        0
176
     0
290
     0
176
     0
 90
        1
176
     0
 40
0.0
176
     0
 90
        0
176
     0
290
     0
176
     0
290
     1
176
     0
290
     1
176
     0
290
     0
176
     0
290
     0
176
     0
290
     0
176
     0
290
     0
176
     0
290
     0
176
     0
290
     0
176
     0
 90
       50
176
     0
 40
0.0
176
     0
 40
1.0
176
     0
 90
        0
176
     0
 62
    18
420
        0
176
     0
 90
       50
176
     0
 90
        3
176
     0
 62
     5
420
      255
176
     0
290
     0
176
     0
 90
       50
176
     0
 90
       50
176
     0
 90
       50
176
     0
290
     0
176
     0
 90
       50
176
     0
 62
   256
176
     0
 40
1.0
176
     0
 90
        2
176
     0
  1
strokes_ogs.tif
176
     0
290
     0
176
     0
 40
1.0
176
     0
 40
1.0
176
     0
  0
VISUALSTYLE
  5
38
102
{ACAD_REACTORS
330
2A
102
}
330
2A
100
AcDbVisualStyle
  2
Linepattern
 70
    14
177
     3
291
     1
 70
    58
 90
        2
176
     1
 90
        2
176
     1
 90
        0
176
     1
 90
        0
176
     1
 40
0.6
176
     1
 40
30.0
176
     1
 62
     7
420
 16777215
176
     1
 90
        1
176
     1
 90
        4
176
     1
 62
     7
176
     1
 62
   257
176
     1
 90
        7
176
     1
 90
        7
176
     1
 40
1.0
176
     1
 90
        8
176
     1
 62
     7
176
     1
 40
1.0
176
     1
 90
        1
176
     1
 90
        6
176
     1
 90
        2
176
     1
 62
     7
176
     1
 90
        5
176
     1
 90
        0
176
     1
 90
        0
176
     1
290
     0
176
     1
 90
        1
176
     1
 40
0.0
176
     1
 90
        0
176
     1
290
     0
176
     1
290
     1
176
     1
290
     1
176
     1
290
     0
176
     1
290
     0
176
     1
290
     0
176
     1
290
     0
176
     1
290
     0
176
     1
290
     0
176
     1
 90
       50
176
     1
 40
0.0
176
     1
 40
1.0
176
     1
 90
        0
176
     1
 62
    18
420
        0
176
     1
 90
       50
176
     1
 90
        3
176
     1
 62
     5
420
      255
176
     1
290
     0
176
     1
 90
       50
176
     1
 90
       50
176
     1
 90
       50
176
     1
290
     0
176
     1
 90
       50
176
     1
 62
   256
176
     0
 40
1.0
176
     0
 90
        2
176
     1
  1
strokes_ogs.tif
176
     1
290
     0
176
     1
 40
1.0
176
     1
 40
1.0
176
     1
  0
VISUALSTYLE
  5
3C
102
{ACAD_REACTORS
330
2A
102
}
330
2A
100
AcDbVisualStyle
  2
OverhangOff
 70
    21
177
     3
291
     1
 70
    58
 90
        2
176
     0
 90
        2
176
     0
 90
        0
176
     0
 90
        0
176
     0
 40
0.6
176
     0
 40
30.0
176
     0
 62
     7
420
 16777215
176
     0
 90
        1
176
     0
 90
        4
176
     0
 62
     7
176
     0
 62
   257
176
     0
 90
        1
176
     0
 90
        1
176
     0
 40
1.0
176
     0
 90
        9
176
     2
 62
     7
176
     0
 40
1.0
176
     0
 90
        1
176
     0
 90
        6
176
     0
 90
        2
176
     0
 62
     7
176
     0
 90
        5
176
     0
 90
        0
176
     0
 90
        0
176
     0
290
     0
176
     0
 90
        1
176
     0
 40
0.0
176
     0
 90
        0
176
     0
290
     0
176
     0
290
     1
176
     0
290
     1
176
     0
290
     0
176
     0
290
     0
176
     0
290
     0
176
     0
290
     0
176
     0
290
     0
176
     0
290
     0
176
     0
 90
       50
176
     0
 40
0.0
176
     0
 40
1.0
176
     0
 90
        0
176
     0
 62
    18
420
        0
176
     0
 90
       50
176
     0
 90
        3
176
     0
 62
     5
420
      255
176
     0
290
     0
176
     0
 90
       50
176
     0
 90
       50
176
     0
 90
       50
176
     0
290
     0
176
     0
 90
       50
176
     0
 62
   256
176
     0
 40
1.0
176
     0
 90
        2
176
     0
  1
strokes_ogs.tif
176
     0
290
     0
176
     0
 40
1.0
176
     0
 40
1.0
176
     0
  0
VISUALSTYLE
  5
33
102
{ACAD_REACTORS
330
2A
102
}
330
2A
100
AcDbVisualStyle
  2
Realistic
 70
     8
177
     3
291
     0
 70
    58
 90
        2
176
     1
 90
        3
176
     1
 90
        0
176
     1
 90
        2
176
     1
 40
0.6
176
     1
 40
30.0
176
     1
 62
     7
420
 16777215
176
     1
 90
        0
176
     1
 90
        0
176
     1
 62
     7
176
     1
 62
   257
176
     1
 90
        1
176
     1
 90
        1
176
     1
 40
1.0
176
     1
 90
        8
176
     1
 62
   257
176
     1
 40
1.0
176
     1
 90
        1
176
     1
 90
        6
176
     1
 90
        2
176
     1
 62
     7
176
     1
 90
        3
176
     1
 90
        0
176
     1
 90
        0
176
     1
290
     0
176
     1
 90
       13
176
     1
 40
0.0
176
     1
 90
        0
176
     1
290
     0
176
     1
290
     1
176
     1
290
     1
176
     1
290
     0
176
     1
290
     0
176
     1
290
     0
176
     1
290
     0
176
     1
290
     0
176
     1
290
     0
176
     1
 90
       50
176
     1
 40
0.0
176
     1
 40
1.0
176
     1
 90
        0
176
     1
 62
    18
420
        0
176
     1
 90
       50
176
     1
 90
        3
176
     1
 62
     5
420
      255
176
     1
290
     0
176
     1
 90
       50
176
     1
 90
       50
176
     1
 90
       50
176
     1
290
     0
176
     1
 90
       50
176
     1
 62
   256
176
     0
 40
1.0
176
     0
 90
        2
176
     1
  1
strokes_ogs.tif
176
     1
290
     0
176
     1
 40
1.0
176
     1
 40
1.0
176
     1
  0
VISUALSTYLE
  5
42
102
{ACAD_REACTORS
330
2A
102
}
330
2A
100
AcDbVisualStyle
  2
Shaded
 70
    27
177
     3
291
     0
 70
    58
 90
        2
176
     1
 90
        2
176
     1
 90
        1
176
     1
 90
        2
176
     1
 40
0.6
176
     1
 40
30.0
176
     1
 62
     7
420
 16777215
176
     1
 90
        0
176
     1
 90
        4
176
     1
 62
     7
176
     1
 62
   257
176
     1
 90
        1
176
     1
 90
        1
176
     1
 40
1.0
176
     1
 90
        8
176
     1
 62
   257
176
     1
 40
1.0
176
     1
 90
        1
176
     1
 90
        6
176
     1
 90
        2
176
     1
 62
     8
420
  7895160
176
     1
 90
        3
176
     1
 90
        0
176
     1
 90
        0
176
     1
290
     0
176
     1
 90
        5
176
     1
 40
0.0
176
     1
 90
        0
176
     1
290
     0
176
     1
290
     1
176
     1
290
     1
176
     1
290
     0
176
     1
290
     0
176
     1
290
     0
176
     1
290
     0
176
     1
290
     0
176
     1
290
     0
176
     1
 90
       50
176
     1
 40
0.0
176
     1
 40
1.0
176
     1
 90
        0
176
     1
 62
    18
420
        0
176
     1
 90
       50
176
     1
 90
        3
176
     1
 62
     5
420
      255
176
     1
290
     0
176
     1
 90
       50
176
     1
 90
       50
176
     1
 90
       50
176
     1
290
     0
176
     1
 90
       50
176
     1
 62
   256
176
     0
 40
1.0
176
     0
 90
        2
176
     1
  1
strokes_ogs.tif
176
     1
290
     0
176
     1
 40
1.0
176
     1
 40
1.0
176
     1
  0
VISUALSTYLE
  5
41
102
{ACAD_REACTORS
330
2A
102
}
330
2A
100
AcDbVisualStyle
  2
Shaded with edges
 70
    26
177
     3
291
     0
 70
    58
 90
        2
176
     1
 90
        2
176
     1
 90
        1
176
     1
 90
        2
176
     1
 40
0.6
176
     1
 40
30.0
176
     1
 62
     7
420
 16777215
176
     1
 90
        1
176
     1
 90
       10
176
     1
 62
     7
176
     1
 62
   257
176
     1
 90
        2
176
     1
 90
        1
176
     1
 40
1.0
176
     1
 90
        8
176
     1
 62
   257
176
     1
 40
1.0
176
     1
 90
        1
176
     1
 90
        6
176
     1
 90
        2
176
     1
 62
     7
176
     1
 90
        3
176
     1
 90
        0
176
     1
 90
        0
176
     1
290
     0
176
     1
 90
        5
176
     1
 40
0.0
176
     1
 90
        0
176
     1
290
     0
176
     1
290
     1
176
     1
290
     1
176
     1
290
     0
176
     1
290
     0
176
     1
290
     0
176
     1
290
     0
176
     1
290
     0
176
     1
290
     0
176
     1
 90
       50
176
     1
 40
0.0
176
     1
 40
1.0
176
     1
 90
        0
176
     1
 62
    18
420
        0
176
     1
 90
       50
176
     1
 90
        3
176
     1
 62
     5
420
      255
176
     1
290
     0
176
     1
 90
       50
176
     1
 90
       50
176
     1
 90
       50
176
     1
290
     0
176
     1
 90
       50
176
     1
 62
   256
176
     0
 40
1.0
176
     0
 90
        2
176
     1
  1
strokes_ogs.tif
176
     1
290
     0
176
     1
 40
1.0
176
     1
 40
1.0
176
     1
  0
VISUALSTYLE
  5
3E
102
{ACAD_REACTORS
330
2A
102
}
330
2A
100
AcDbVisualStyle
  2
Shades of Gray
 70
    23
177
     3
291
     0
 70
    58
 90
        2
176
     1
 90
        2
176
     1
 90
        3
176
     1
 90
        0
176
     1
 40
0.6
176
     1
 40
30.0
176
     1
 62
     7
420
 16777215
176
     1
 90
        2
176
     1
 90
        2
176
     1
 62
     7
176
     1
 62
     7
176
     1
 90
        1
176
     1
 90
        1
176
     1
 40
40.0
176
     1
 90
        8
176
     1
 62
     7
176
     1
 40
1.0
176
     1
 90
        1
176
     1
 90
        6
176
     1
 90
        2
176
     1
 62
     7
176
     1
 90
        3
176
     1
 90
        0
176
     1
 90
        0
176
     1
290
     0
176
     1
 90
        1
176
     1
 40
0.0
176
     1
 90
        0
176
     1
290
     0
176
     1
290
     1
176
     1
290
     1
176
     1
290
     0
176
     1
290
     0
176
     1
290
     0
176
     1
290
     0
176
     1
290
     0
176
     1
290
     0
176
     1
 90
       50
176
     1
 40
0.0
176
     1
 40
1.0
176
     1
 90
        0
176
     1
 62
    18
420
        0
176
     1
 90
       50
176
     1
 90
        3
176
     1
 62
     5
420
      255
176
     1
290
     0
176
     1
 90
       50
176
     1
 90
       50
176
     1
 90
       50
176
     1
290
     0
176
     1
 90
       50
176
     1
 62
   256
176
     0
 40
1.0
176
     0
 90
        2
176
     1
  1
strokes_ogs.tif
176
     1
290
     0
176
     1
 40
1.0
176
     1
 40
1.0
176
     1
  0
VISUALSTYLE
  5
3F
102
{ACAD_REACTORS
330
2A
102
}
330
2A
100
AcDbVisualStyle
  2
Sketchy
 70
    24
177
     3
291
     0
 70
    58
 90
        1
176
     1
 90
        2
176
     1
 90
        2
176
     1
 90
        0
176
     1
 40
0.6
176
     1
 40
30.0
176
     1
 62
     7
420
 16777215
176
     1
 90
        2
176
     1
 90
        2
176
     1
 62
     7
176
     1
 62
     7
176
     1
 90
        1
176
     1
 90
        1
176
     1
 40
40.0
176
     1
 90
       11
176
     1
 62
     7
176
     1
 40
1.0
176
     1
 90
        1
176
     1
 90
        6
176
     1
 90
        2
176
     1
 62
     7
176
     1
 90
        6
176
     1
 90
        0
176
     1
 90
        0
176
     1
290
     0
176
     1
 90
        1
176
     1
 40
0.0
176
     1
 90
        0
176
     1
290
     0
176
     1
290
     1
176
     1
290
     1
176
     1
290
     0
176
     1
290
     0
176
     1
290
     0
176
     1
290
     0
176
     1
290
     0
176
     1
290
     0
176
     1
 90
       50
176
     1
 40
0.0
176
     1
 40
1.0
176
     1
 90
        0
176
     1
 62
    18
420
        0
176
     1
 90
       50
176
     1
 90
        3
176
     1
 62
     5
420
      255
176
     1
290
     0
176
     1
 90
       50
176
     1
 90
       50
176
     1
 90
       50
176
     1
290
     0
176
     1
 90
       50
176
     1
 62
   256
176
     0
 40
1.0
176
     0
 90
        2
176
     1
  1
strokes_ogs.tif
176
     1
290
     0
176
     1
 40
1.0
176
     1
 40
1.0
176
     1
  0
VISUALSTYLE
  5
37
102
{ACAD_REACTORS
330
2A
102
}
330
2A
100
AcDbVisualStyle
  2
Thicken
 70
    13
177
     3
291
     1
 70
    58
 90
        2
176
     1
 90
        2
176
     1
 90
        0
176
     1
 90
        0
176
     1
 40
0.6
176
     1
 40
30.0
176
     1
 62
     7
420
 16777215
176
     1
 90
        1
176
     1
 90
        4
176
     1
 62
     7
176
     1
 62
   257
176
     1
 90
        1
176
     1
 90
        1
176
     1
 40
1.0
176
     1
 90
       12
176
     1
 62
     7
176
     1
 40
1.0
176
     1
 90
        1
176
     1
 90
        6
176
     1
 90
        2
176
     1
 62
     7
176
     1
 90
        5
176
     1
 90
        0
176
     1
 90
        0
176
     1
290
     0
176
     1
 90
        1
176
     1
 40
0.0
176
     1
 90
        0
176
     1
290
     0
176
     1
290
     1
176
     1
290
     1
176
     1
290
     0
176
     1
290
     0
176
     1
290
     0
176
     1
290
     0
176
     1
290
     0
176
     1
290
     0
176
     1
 90
       50
176
     1
 40
0.0
176
     1
 40
1.0
176
     1
 90
        0
176
     1
 62
    18
420
        0
176
     1
 90
       50
176
     1
 90
        3
176
     1
 62
     5
420
      255
176
     1
290
     0
176
     1
 90
       50
176
     1
 90
       50
176
     1
 90
       50
176
     1
290
     0
176
     1
 90
       50
176
     1
 62
   256
176
     0
 40
1.0
176
     0
 90
        2
176
     1
  1
strokes_ogs.tif
176
     1
290
     0
176
     1
 40
1.0
176
     1
 40
1.0
176
     1
  0
VISUALSTYLE
  5
30
102
{ACAD_REACTORS
330
2A
102
}
330
2A
100
AcDbVisualStyle
  2
Wireframe
 70
     5
177
     3
291
     0
 70
    58
 90
        0
176
     1
 90
        2
176
     1
 90
        0
176
     1
 90
        0
176
     1
 40
0.6
176
     1
 40
30.0
176
     1
 62
     7
420
 16777215
176
     1
 90
        1
176
     1
 90
        4
176
     1
 62
     7
176
     1
 62
   257
176
     1
 90
        1
176
     1
 90
        1
176
     1
 40
1.0
176
     1
 90
        0
176
     1
 62
   257
176
     1
 40
1.0
176
     1
 90
        1
176
     1
 90
        6
176
     1
 90
        2
176
     1
 62
     7
176
     1
 90
        3
176
     1
 90
        0
176
     1
 90
        0
176
     1
290
     0
176
     1
 90
        1
176
     1
 40
0.0
176
     1
 90
        0
176
     1
290
     0
176
     1
290
     1
176
     1
290
     1
176
     1
290
     0
176
     1
290
     0
176
     1
290
     0
176
     1
290
     0
176
     1
290
     0
176
     1
290
     0
176
     1
 90
       50
176
     1
 40
0.0
176
     1
 40
1.0
176
     1
 90
        0
176
     1
 62
    18
420
        0
176
     1
 90
       50
176
     1
 90
        3
176
     1
 62
     5
420
      255
176
     1
290
     0
176
     1
 90
       50
176
     1
 90
       50
176
     1
 90
       50
176
     1
290
     0
176
     1
 90
       50
176
     1
 62
   256
176
     0
 40
1.0
176
     0
 90
        2
176
     1
  1
strokes_ogs.tif
176
     1
290
     0
176
     1
 40
1.0
176
     1
 40
1.0
176
     1
  0
VISUALSTYLE
  5
40
102
{ACAD_REACTORS
330
2A
102
}
330
2A
100
AcDbVisualStyle
  2
X-Ray
 70
    25
177
     3
291
     0
 70
    58
 90
        2
176
     1
 90
        2
176
     1
 90
        1
176
     1
 90
        1
176
     1
 40
0.5
176
     1
 40
30.0
176
     1
 62
     7
420
 16777215
176
     1
 90
        1
176
     1
 90
        0
176
     1
 62
     7
176
     1
 62
   257
176
     1
 90
        1
176
     1
 90
        1
176
     1
 40
1.0
176
     1
 90
        8
176
     1
 62
     7
176
     1
 40
1.0
176
     1
 90
        1
176
     1
 90
        6
176
     1
 90
        2
176
     1
 62
     7
176
     1
 90
        3
176
     1
 90
        0
176
     1
 90
        0
176
     1
290
     0
176
     1
 90
       13
176
     1
 40
0.0
176
     1
 90
        0
176
     1
290
     0
176
     1
290
     1
176
     1
290
     1
176
     1
290
     0
176
     1
290
     0
176
     1
290
     0
176
     1
290
     0
176
     1
290
     0
176
     1
290
     0
176
     1
 90
       50
176
     1
 40
0.0
176
     1
 40
1.0
176
     1
 90
        0
176
     1
 62
    18
420
        0
176
     1
 90
       50
176
     1
 90
        3
176
     1
 62
     5
420
      255
176
     1
290
     0
176
     1
 90
       50
176
     1
 90
       50
176
     1
 90
       50
176
     1
290
     0
176
     1
 90
       50
176
     1
 62
   256
176
     0
 40
1.0
176
     0
 90
        2
176
     1
  1
strokes_ogs.tif
176
     1
290
     0
176
     1
 40
1.0
176
     1
 40
1.0
176
     1
  0
DICTIONARYVAR
  5
546
102
{ACAD_REACTORS
330
545
102
}
330
545
100
DictionaryVariables
280
     0
  1
1:1
  0
DICTIONARYVAR
  5
54F
102
{ACAD_REACTORS
330
545
102
}
330
545
100
DictionaryVariables
280
     0
  1
3.500000
  0
DICTIONARYVAR
  5
550
102
{ACAD_REACTORS
330
545
102
}
330
545
100
DictionaryVariables
280
     0
  1
acadiso.lin
  0
DICTIONARYVAR
  5
54B
102
{ACAD_REACTORS
330
545
102
}
330
545
100
DictionaryVariables
280
     0
  1
Standard
  0
DICTIONARYVAR
  5
54A
102
{ACAD_REACTORS
330
545
102
}
330
545
100
DictionaryVariables
280
     0
  1
Standard
  0
DICTIONARYVAR
  5
54E
102
{ACAD_REACTORS
330
545
102
}
330
545
100
DictionaryVariables
280
     0
  1
0
  0
DICTIONARY
  5
547
330
5A
100
AcDbDictionary
280
     1
281
     1
  3
ACAD_ROUNDTRIP_2008_TABLESTYLE_CELLSTYLEMAP
360
548
  0
CELLSTYLEMAP
  5
548
102
{ACAD_REACTORS
330
547
102
}
330
547
100
AcDbCellStyleMap
 90
        3
300
CELLSTYLE
  1
TABLEFORMAT_BEGIN
 90
        5
170
     1
 91
        0
 92
    32768
 62
   257
 93
        1
300
CONTENTFORMAT
  1
CONTENTFORMAT_BEGIN
 90
        0
 91
        0
 92
        4
 93
        0
300

 40
0.0
140
1.0
 94
        5
 62
     0
340
11
144
6.0
309
CONTENTFORMAT_END
171
     1
301
MARGIN
  1
CELLMARGIN_BEGIN
 40
1.5
 40
1.5
 40
1.5
 40
1.5
 40
1.5
 40
1.5
309
CELLMARGIN_END
 94
        6
 95
        1
302
GRIDFORMAT
  1
GRIDFORMAT_BEGIN
 90
        0
 91
        1
 62
     0
 92
       -2
340
14
 93
        0
 40
0.045
309
GRIDFORMAT_END
 95
        2
302
GRIDFORMAT
  1
GRIDFORMAT_BEGIN
 90
        0
 91
        1
 62
     0
 92
       -2
340
14
 93
        0
 40
0.045
309
GRIDFORMAT_END
 95
        4
302
GRIDFORMAT
  1
GRIDFORMAT_BEGIN
 90
        0
 91
        1
 62
     0
 92
       -2
340
14
 93
        0
 40
0.045
309
GRIDFORMAT_END
 95
        8
302
GRIDFORMAT
  1
GRIDFORMAT_BEGIN
 90
        0
 91
        1
 62
     0
 92
       -2
340
14
 93
        0
 40
0.045
309
GRIDFORMAT_END
 95
       16
302
GRIDFORMAT
  1
GRIDFORMAT_BEGIN
 90
        0
 91
        1
 62
     0
 92
       -2
340
14
 93
        0
 40
0.045
309
GRIDFORMAT_END
 95
       32
302
GRIDFORMAT
  1
GRIDFORMAT_BEGIN
 90
        0
 91
        1
 62
     0
 92
       -2
340
14
 93
        0
 40
0.045
309
GRIDFORMAT_END
309
TABLEFORMAT_END
  1
CELLSTYLE_BEGIN
 90
        1
 91
        1
300
_TITLE
309
CELLSTYLE_END
300
CELLSTYLE
  1
TABLEFORMAT_BEGIN
 90
        5
170
     1
 91
        0
 92
        0
 62
   257
 93
        1
300
CONTENTFORMAT
  1
CONTENTFORMAT_BEGIN
 90
        0
 91
        0
 92
        4
 93
        0
300

 40
0.0
140
1.0
 94
        5
 62
     0
340
11
144
4.5
309
CONTENTFORMAT_END
171
     1
301
MARGIN
  1
CELLMARGIN_BEGIN
 40
1.5
 40
1.5
 40
1.5
 40
1.5
 40
1.5
 40
1.5
309
CELLMARGIN_END
 94
        6
 95
        1
302
GRIDFORMAT
  1
GRIDFORMAT_BEGIN
 90
        0
 91
        1
 62
     0
 92
       -2
340
14
 93
        0
 40
0.045
309
GRIDFORMAT_END
 95
        2
302
GRIDFORMAT
  1
GRIDFORMAT_BEGIN
 90
        0
 91
        1
 62
     0
 92
       -2
340
14
 93
        0
 40
0.045
309
GRIDFORMAT_END
 95
        4
302
GRIDFORMAT
  1
GRIDFORMAT_BEGIN
 90
        0
 91
        1
 62
     0
 92
       -2
340
14
 93
        0
 40
0.045
309
GRIDFORMAT_END
 95
        8
302
GRIDFORMAT
  1
GRIDFORMAT_BEGIN
 90
        0
 91
        1
 62
     0
 92
       -2
340
14
 93
        0
 40
0.045
309
GRIDFORMAT_END
 95
       16
302
GRIDFORMAT
  1
GRIDFORMAT_BEGIN
 90
        0
 91
        1
 62
     0
 92
       -2
340
14
 93
        0
 40
0.045
309
GRIDFORMAT_END
 95
       32
302
GRIDFORMAT
  1
GRIDFORMAT_BEGIN
 90
        0
 91
        1
 62
     0
 92
       -2
340
14
 93
        0
 40
0.045
309
GRIDFORMAT_END
309
TABLEFORMAT_END
  1
CELLSTYLE_BEGIN
 90
        2
 91
        1
300
_HEADER
309
CELLSTYLE_END
300
CELLSTYLE
  1
TABLEFORMAT_BEGIN
 90
        5
170
     1
 91
        0
 92
        0
 62
   257
 93
        1
300
CONTENTFORMAT
  1
CONTENTFORMAT_BEGIN
 90
        0
 91
        0
 92
        4
 93
        0
300

 40
0.0
140
1.0
 94
        2
 62
     0
340
11
144
4.5
309
CONTENTFORMAT_END
171
     1
301
MARGIN
  1
CELLMARGIN_BEGIN
 40
1.5
 40
1.5
 40
1.5
 40
1.5
 40
1.5
 40
1.5
309
CELLMARGIN_END
 94
        6
 95
        1
302
GRIDFORMAT
  1
GRIDFORMAT_BEGIN
 90
        0
 91
        1
 62
     0
 92
       -2
340
14
 93
        0
 40
0.045
309
GRIDFORMAT_END
 95
        2
302
GRIDFORMAT
  1
GRIDFORMAT_BEGIN
 90
        0
 91
        1
 62
     0
 92
       -2
340
14
 93
        0
 40
0.045
309
GRIDFORMAT_END
 95
        4
302
GRIDFORMAT
  1
GRIDFORMAT_BEGIN
 90
        0
 91
        1
 62
     0
 92
       -2
340
14
 93
        0
 40
0.045
309
GRIDFORMAT_END
 95
        8
302
GRIDFORMAT
  1
GRIDFORMAT_BEGIN
 90
        0
 91
        1
 62
     0
 92
       -2
340
14
 93
        0
 40
0.045
309
GRIDFORMAT_END
 95
       16
302
GRIDFORMAT
  1
GRIDFORMAT_BEGIN
 90
        0
 91
        1
 62
     0
 92
       -2
340
14
 93
        0
 40
0.045
309
GRIDFORMAT_END
 95
       32
302
GRIDFORMAT
  1
GRIDFORMAT_BEGIN
 90
        0
 91
        1
 62
     0
 92
       -2
340
14
 93
        0
 40
0.045
309
GRIDFORMAT_END
309
TABLEFORMAT_END
  1
CELLSTYLE_BEGIN
 90
        3
 91
        2
300
_DATA
309
CELLSTYLE_END
  0
ENDSEC
  0
EOF
