  0
SECTION
  2
HEADER
  9
$ACADVER
  1
AC1027
  9
$ACADMAINTVER
 70
   105
  9
$DWGCODEPAGE
  3
ANSI_1252
  9
$LASTSAVEDBY
  1
mezergues
  9
$REQUIREDVERSIONS
160
                 0
  9
$INSBASE
 10
0.0
 20
0.0
 30
0.0
  9
$EXTMIN
 10
19195.53154230327
 20
-20705.38825737588
 30
0.0
  9
$EXTMAX
 10
20180.53154230327
 20
-19350.38825737588
 30
2500.0
  9
$LIMMIN
 10
0.0
 20
0.0
  9
$LIMMAX
 10
420.0
 20
297.0
  9
$ORTHOMODE
 70
     0
  9
$REGENMODE
 70
     1
  9
$FILLMODE
 70
     1
  9
$QTEXTMODE
 70
     0
  9
$MIRRTEXT
 70
     1
  9
$LTSCALE
 40
5.0
  9
$ATTMODE
 70
     1
  9
$TEXTSIZE
 40
2.5
  9
$TRACEWID
 40
1.0
  9
$TEXTSTYLE
  7
Standard
  9
$CLAYER
  8
0
  9
$CELTYPE
  6
Continuous
  9
$CECOLOR
 62
   256
  9
$CELTSCALE
 40
1.0
  9
$DISPSILH
 70
     0
  9
$DIMSCALE
 40
1.0
  9
$DIMASZ
 40
2.5
  9
$DIMEXO
 40
0.625
  9
$DIMDLI
 40
3.75
  9
$DIMRND
 40
0.0
  9
$DIMDLE
 40
0.0
  9
$DIMEXE
 40
1.25
  9
$DIMTP
 40
0.0
  9
$DIMTM
 40
0.0
  9
$DIMTXT
 40
2.5
  9
$DIMCEN
 40
2.5
  9
$DIMTSZ
 40
0.0
  9
$DIMTOL
 70
     0
  9
$DIMLIM
 70
     0
  9
$DIMTIH
 70
     0
  9
$DIMTOH
 70
     0
  9
$DIMSE1
 70
     0
  9
$DIMSE2
 70
     0
  9
$DIMTAD
 70
     1
  9
$DIMZIN
 70
     8
  9
$DIMBLK
  1

  9
$DIMASO
 70
     1
  9
$DIMSHO
 70
     1
  9
$DIMPOST
  1

  9
$DIMAPOST
  1

  9
$DIMALT
 70
     0
  9
$DIMALTD
 70
     3
  9
$DIMALTF
 40
0.03937007874016
  9
$DIMLFAC
 40
1.0
  9
$DIMTOFL
 70
     1
  9
$DIMTVP
 40
0.0
  9
$DIMTIX
 70
     0
  9
$DIMSOXD
 70
     1
  9
$DIMSAH
 70
     0
  9
$DIMBLK1
  1

  9
$DIMBLK2
  1

  9
$DIMSTYLE
  2
ISO-25
  9
$DIMCLRD
 70
     0
  9
$DIMCLRE
 70
     0
  9
$DIMCLRT
 70
     0
  9
$DIMTFAC
 40
1.0
  9
$DIMGAP
 40
0.625
  9
$DIMJUST
 70
     0
  9
$DIMSD1
 70
     0
  9
$DIMSD2
 70
     0
  9
$DIMTOLJ
 70
     0
  9
$DIMTZIN
 70
     8
  9
$DIMALTZ
 70
     0
  9
$DIMALTTZ
 70
     0
  9
$DIMUPT
 70
     0
  9
$DIMDEC
 70
     2
  9
$DIMTDEC
 70
     2
  9
$DIMALTU
 70
     2
  9
$DIMALTTD
 70
     3
  9
$DIMTXSTY
  7
Standard
  9
$DIMAUNIT
 70
     0
  9
$DIMADEC
 70
     0
  9
$DIMALTRND
 40
0.0
  9
$DIMAZIN
 70
     0
  9
$DIMDSEP
 70
    44
  9
$DIMATFIT
 70
     3
  9
$DIMFRAC
 70
     0
  9
$DIMLDRBLK
  1

  9
$DIMLUNIT
 70
     2
  9
$DIMLWD
 70
    -2
  9
$DIMLWE
 70
    -2
  9
$DIMTMOVE
 70
     2
  9
$DIMFXL
 40
1.0
  9
$DIMFXLON
 70
     0
  9
$DIMJOGANG
 40
0.7853981633974483
  9
$DIMTFILL
 70
     0
  9
$DIMTFILLCLR
 70
     0
  9
$DIMARCSYM
 70
     0
  9
$DIMLTYPE
  6

  9
$DIMLTEX1
  6

  9
$DIMLTEX2
  6

  9
$DIMTXTDIRECTION
 70
     0
  9
$LUNITS
 70
     2
  9
$LUPREC
 70
     4
  9
$SKETCHINC
 40
1.0
  9
$FILLETRAD
 40
0.0
  9
$AUNITS
 70
     0
  9
$AUPREC
 70
     0
  9
$MENU
  1
.
  9
$ELEVATION
 40
0.0
  9
$PELEVATION
 40
0.0
  9
$THICKNESS
 40
0.0
  9
$LIMCHECK
 70
     0
  9
$CHAMFERA
 40
0.0
  9
$CHAMFERB
 40
0.0
  9
$CHAMFERC
 40
0.0
  9
$CHAMFERD
 40
0.0
  9
$SKPOLY
 70
     0
  9
$TDCREATE
 40
2459677.726784942
  9
$TDUCREATE
 40
2459677.643451609
  9
$TDUPDATE
 40
2459677.726789549
  9
$TDUUPDATE
 40
2459677.643456216
  9
$TDINDWG
 40
0.0000000116
  9
$TDUSRTIMER
 40
0.0000000116
  9
$USRTIMER
 70
     1
  9
$ANGBASE
 50
0.0
  9
$ANGDIR
 70
     0
  9
$PDMODE
 70
     0
  9
$PDSIZE
 40
0.0
  9
$PLINEWID
 40
0.0
  9
$SPLFRAME
 70
     0
  9
$SPLINETYPE
 70
     6
  9
$SPLINESEGS
 70
     8
  9
$HANDSEED
  5
332
  9
$SURFTAB1
 70
     6
  9
$SURFTAB2
 70
     6
  9
$SURFTYPE
 70
     6
  9
$SURFU
 70
     6
  9
$SURFV
 70
     6
  9
$UCSBASE
  2

  9
$UCSNAME
  2

  9
$UCSORG
 10
0.0
 20
0.0
 30
0.0
  9
$UCSXDIR
 10
1.0
 20
0.0
 30
0.0
  9
$UCSYDIR
 10
0.0
 20
1.0
 30
0.0
  9
$UCSORTHOREF
  2

  9
$UCSORTHOVIEW
 70
     0
  9
$UCSORGTOP
 10
0.0
 20
0.0
 30
0.0
  9
$UCSORGBOTTOM
 10
0.0
 20
0.0
 30
0.0
  9
$UCSORGLEFT
 10
0.0
 20
0.0
 30
0.0
  9
$UCSORGRIGHT
 10
0.0
 20
0.0
 30
0.0
  9
$UCSORGFRONT
 10
0.0
 20
0.0
 30
0.0
  9
$UCSORGBACK
 10
0.0
 20
0.0
 30
0.0
  9
$PUCSBASE
  2

  9
$PUCSNAME
  2

  9
$PUCSORG
 10
0.0
 20
0.0
 30
0.0
  9
$PUCSXDIR
 10
1.0
 20
0.0
 30
0.0
  9
$PUCSYDIR
 10
0.0
 20
1.0
 30
0.0
  9
$PUCSORTHOREF
  2

  9
$PUCSORTHOVIEW
 70
     0
  9
$PUCSORGTOP
 10
0.0
 20
0.0
 30
0.0
  9
$PUCSORGBOTTOM
 10
0.0
 20
0.0
 30
0.0
  9
$PUCSORGLEFT
 10
0.0
 20
0.0
 30
0.0
  9
$PUCSORGRIGHT
 10
0.0
 20
0.0
 30
0.0
  9
$PUCSORGFRONT
 10
0.0
 20
0.0
 30
0.0
  9
$PUCSORGBACK
 10
0.0
 20
0.0
 30
0.0
  9
$USERI1
 70
     0
  9
$USERI2
 70
     0
  9
$USERI3
 70
     0
  9
$USERI4
 70
     0
  9
$USERI5
 70
     0
  9
$USERR1
 40
0.0
  9
$USERR2
 40
0.0
  9
$USERR3
 40
0.0
  9
$USERR4
 40
0.0
  9
$USERR5
 40
0.0
  9
$WORLDVIEW
 70
     1
  9
$SHADEDGE
 70
     3
  9
$SHADEDIF
 70
    70
  9
$TILEMODE
 70
     1
  9
$MAXACTVP
 70
    64
  9
$PINSBASE
 10
0.0
 20
0.0
 30
0.0
  9
$PLIMCHECK
 70
     0
  9
$PEXTMIN
 10
-5.730400000000003
 20
-7.876400000000018
 30
0.0
  9
$PEXTMAX
 10
203.3304
 20
279.4764
 30
0.0
  9
$PLIMMIN
 10
-20.0
 20
-7.5
  9
$PLIMMAX
 10
277.0
 20
202.5
  9
$UNITMODE
 70
     0
  9
$VISRETAIN
 70
     1
  9
$PLINEGEN
 70
     0
  9
$PSLTSCALE
 70
     0
  9
$TREEDEPTH
 70
  3020
  9
$CMLSTYLE
  2
Standard
  9
$CMLJUST
 70
     0
  9
$CMLSCALE
 40
20.0
  9
$PROXYGRAPHICS
 70
     1
  9
$MEASUREMENT
 70
     1
  9
$CELWEIGHT
370
    -1
  9
$ENDCAPS
280
     0
  9
$JOINSTYLE
280
     0
  9
$LWDISPLAY
290
     0
  9
$INSUNITS
 70
     4
  9
$HYPERLINKBASE
  1

  9
$STYLESHEET
  1

  9
$XEDIT
290
     1
  9
$CEPSNTYPE
380
     3
  9
$CEPSNID
390
5F
  9
$PSTYLEMODE
290
     0
  9
$FINGERPRINTGUID
  2
{733e6c5f-6c52-478c-a8bb-bd6f00d4d214}
  9
$VERSIONGUID
  2
{FAEB1C32-E019-11D5-929B-00C0DF256EC4}
  9
$EXTNAMES
290
     1
  9
$PSVPSCALE
 40
0.0
  9
$OLESTARTUP
290
     0
  9
$SORTENTS
280
   127
  9
$INDEXCTL
280
     0
  9
$HIDETEXT
280
     1
  9
$XCLIPFRAME
280
     2
  9
$HALOGAP
280
     0
  9
$OBSCOLOR
 70
   257
  9
$OBSLTYPE
280
     0
  9
$INTERSECTIONDISPLAY
280
     0
  9
$INTERSECTIONCOLOR
 70
   257
  9
$DIMASSOC
280
     2
  9
$PROJECTNAME
  1

  9
$CAMERADISPLAY
290
     0
  9
$LENSLENGTH
 40
50.0
  9
$CAMERAHEIGHT
 40
0.0
  9
$STEPSPERSEC
 40
2.0
  9
$STEPSIZE
 40
6.0
  9
$3DDWFPREC
 40
2.0
  9
$PSOLWIDTH
 40
5.0
  9
$PSOLHEIGHT
 40
80.0
  9
$LOFTANG1
 40
1.570796326794897
  9
$LOFTANG2
 40
1.570796326794897
  9
$LOFTMAG1
 40
0.0
  9
$LOFTMAG2
 40
0.0
  9
$LOFTPARAM
 70
     7
  9
$LOFTNORMALS
280
     1
  9
$LATITUDE
 40
37.795
  9
$LONGITUDE
 40
-122.394
  9
$NORTHDIRECTION
 40
0.0
  9
$TIMEZONE
 70
 -8000
  9
$LIGHTGLYPHDISPLAY
280
     1
  9
$TILEMODELIGHTSYNCH
280
     1
  9
$CMATERIAL
347
44
  9
$SOLIDHIST
280
     0
  9
$SHOWHIST
280
     1
  9
$DWFFRAME
280
     2
  9
$DGNFRAME
280
     2
  9
$REALWORLDSCALE
290
     1
  9
$INTERFERECOLOR
 62
   256
  9
$CSHADOW
280
     0
  9
$SHADOWPLANELOCATION
 40
0.0
  0
ENDSEC
  0
SECTION
  2
CLASSES
  0
CLASS
  1
ACDBDICTIONARYWDFLT
  2
AcDbDictionaryWithDefault
  3
ObjectDBX Classes
 90
        0
 91
        3
280
     0
281
     0
  0
CLASS
  1
VISUALSTYLE
  2
AcDbVisualStyle
  3
ObjectDBX Classes
 90
     4095
 91
        3
280
     0
281
     0
  0
CLASS
  1
MATERIAL
  2
AcDbMaterial
  3
ObjectDBX Classes
 90
     1153
 91
        3
280
     0
281
     0
  0
CLASS
  1
SCALE
  2
AcDbScale
  3
ObjectDBX Classes
 90
     1153
 91
        3
280
     0
281
     0
  0
CLASS
  1
TABLESTYLE
  2
AcDbTableStyle
  3
ObjectDBX Classes
 90
     4095
 91
        3
280
     0
281
     0
  0
CLASS
  1
MLEADERSTYLE
  2
AcDbMLeaderStyle
  3
ACDB_MLEADERSTYLE_CLASS
 90
     4095
 91
        3
280
     0
281
     0
  0
CLASS
  1
SUN
  2
AcDbSun
  3
SCENEOE
 90
     1153
 91
        3
280
     0
281
     0
  0
CLASS
  1
RASTERVARIABLES
  2
AcDbRasterVariables
  3
ISM
 90
        0
 91
        3
280
     0
281
     0
  0
CLASS
  1
WIPEOUTVARIABLES
  2
AcDbWipeoutVariables
  3
WipeOut|AutoCAD Express Tool|expresstools@autodesk.com
 90
        0
 91
        3
280
     0
281
     0
  0
CLASS
  1
PLOTSETTINGS
  2
AcDbPlotSettings
  3
ObjectDBX Classes
 90
        0
 91
        3
280
     0
281
     0
  0
CLASS
  1
IMAGEDEF
  2
AcDbRasterImageDef
  3
ISM
 90
        0
 91
        3
280
     0
281
     0
  0
CLASS
  1
IMAGE
  2
AcDbRasterImage
  3
ISM
 90
      127
 91
        4
280
     0
281
     1
  0
CLASS
  1
IMAGEDEF_REACTOR
  2
AcDbRasterImageDefReactor
  3
ISM
 90
        1
 91
        3
280
     0
281
     0
  0
CLASS
  1
DICTIONARYVAR
  2
AcDbDictionaryVar
  3
ObjectDBX Classes
 90
        0
 91
        3
280
     0
281
     0
  0
CLASS
  1
CELLSTYLEMAP
  2
AcDbCellStyleMap
  3
ObjectDBX Classes
 90
     1152
 91
        3
280
     0
281
     0
  0
ENDSEC
  0
SECTION
  2
TABLES
  0
TABLE
  2
VPORT
  5
8
330
0
100
AcDbSymbolTable
 70
     1
  0
VPORT
  5
29
330
8
100
AcDbSymbolTableRecord
100
AcDbViewportTableRecord
  2
*Active
 70
     0
 10
0.0
 20
0.0
 11
1.0
 21
1.0
 12
344.1869158878504
 22
148.5
 13
0.0
 23
0.0
 14
10.0
 24
10.0
 15
10.0
 25
10.0
 16
0.0
 26
0.0
 36
1.0
 17
0.0
 27
0.0
 37
0.0
 40
297.0
 41
1.972972972850329
 42
50.0
 43
0.0
 44
0.0
 50
0.0
 51
0.0
 71
     0
 72
   100
 73
     1
 74
     3
 75
     0
 76
     0
 77
     0
 78
     0
281
     0
 65
     1
110
0.0
120
0.0
130
0.0
111
1.0
121
0.0
131
0.0
112
0.0
122
1.0
132
0.0
 79
     0
146
0.0
348
2F
 60
     3
 61
     5
292
     1
282
     1
141
0.0
142
0.0
 63
   250
361
5D
  0
ENDTAB
  0
TABLE
  2
LTYPE
  5
5
330
0
100
AcDbSymbolTable
 70
     3
  0
LTYPE
  5
14
330
5
100
AcDbSymbolTableRecord
100
AcDbLinetypeTableRecord
  2
ByBlock
 70
     0
  3

 72
    65
 73
     0
 40
0.0
  0
LTYPE
  5
15
330
5
100
AcDbSymbolTableRecord
100
AcDbLinetypeTableRecord
  2
ByLayer
 70
     0
  3

 72
    65
 73
     0
 40
0.0
  0
LTYPE
  5
16
330
5
100
AcDbSymbolTableRecord
100
AcDbLinetypeTableRecord
  2
Continuous
 70
     0
  3
Solid line
 72
    65
 73
     0
 40
0.0
  0
LTYPE
  5
164
330
5
100
AcDbSymbolTableRecord
100
AcDbLinetypeTableRecord
  2
CADWORK_3
 70
     0
  3

 72
    65
 73
     2
 40
4.0
 49
2.0
 74
     0
 49
-2.0
 74
     0
  0
LTYPE
  5
26A
330
5
100
AcDbSymbolTableRecord
100
AcDbLinetypeTableRecord
  2
CADWORK_22
 70
     0
  3

 72
    65
 73
     0
 40
0.0
  0
ENDTAB
  0
TABLE
  2
LAYER
  5
2
330
0
100
AcDbSymbolTable
 70
     2
  0
LAYER
  5
10
330
2
100
AcDbSymbolTableRecord
100
AcDbLayerTableRecord
  2
0
 70
     0
 62
     7
  6
Continuous
370
    -3
390
F
347
46
348
0
  0
LAYER
  5
67
330
2
100
AcDbSymbolTableRecord
100
AcDbLayerTableRecord
  2
Ech.1_5
 70
     0
 62
     7
  6
Continuous
370
    -3
390
F
347
46
348
0
  0
ENDTAB
  0
TABLE
  2
STYLE
  5
3
330
0
100
AcDbSymbolTable
 70
    11
  0
STYLE
  5
11
330
3
100
AcDbSymbolTableRecord
100
AcDbTextStyleTableRecord
  2
Standard
 70
     0
 40
0.0
 41
1.0
 50
0.0
 71
     0
 42
2.5
  3
txt
  4

  0
STYLE
  5
62
330
3
100
AcDbSymbolTableRecord
100
AcDbTextStyleTableRecord
  2
CwStyleShx
 70
     0
 40
1.0
 41
1.0
 50
0.0
 71
     0
 42
2.5
  3

  4

  0
STYLE
  5
63
330
3
100
AcDbSymbolTableRecord
100
AcDbTextStyleTableRecord
  2
CwStyleShx16
 70
     0
 40
1.0
 41
1.0
 50
0.0
 71
     0
 42
2.5
  3

  4

  0
STYLE
  5
64
330
3
100
AcDbSymbolTableRecord
100
AcDbTextStyleTableRecord
  2
MONOTXT
 70
     0
 40
0.0
 41
1.0
 50
0.0
 71
     0
 42
2.5
  3
MONOTXT
  4

  0
STYLE
  5
65
330
3
100
AcDbSymbolTableRecord
100
AcDbTextStyleTableRecord
  2
SYMAP
 70
     0
 40
1.0
 41
1.0
 50
0.0
 71
     0
 42
2.5
  3
SYMAP
  4

  0
STYLE
  5
66
330
3
100
AcDbSymbolTableRecord
100
AcDbTextStyleTableRecord
  2
CwStyleTtf
 70
     0
 40
1.0
 41
1.0
 50
0.0
 71
     0
 42
2.5
  3
arial.ttf
  4

  0
STYLE
  5
25F
330
3
100
AcDbSymbolTableRecord
100
AcDbTextStyleTableRecord
  2
arial-
 70
     0
 40
1.0
 41
1.0
 50
0.0
 71
     0
 42
2.5
  3
arial.ttf
  4

1001
ACAD
1000
Arial
1071
        0
  0
STYLE
  5
260
330
3
100
AcDbSymbolTableRecord
100
AcDbTextStyleTableRecord
  2
symbol-
 70
     0
 40
1.0
 41
1.0
 50
0.0
 71
     0
 42
2.5
  3
symbol.ttf
  4

1001
ACAD
1000
Symbol
1071
        0
  0
STYLE
  5
308
330
3
100
AcDbSymbolTableRecord
100
AcDbTextStyleTableRecord
  2
arial-i
 70
     0
 40
1.0
 41
1.0
 50
0.0
 71
     0
 42
2.5
  3
ariali.ttf
  4

1001
ACAD
1000
Arial
1071
 16777216
  0
STYLE
  5
318
330
3
100
AcDbSymbolTableRecord
100
AcDbTextStyleTableRecord
  2
arial-bi
 70
     0
 40
1.0
 41
1.0
 50
0.0
 71
     0
 42
2.5
  3
arialbi.ttf
  4

1001
ACAD
1000
Arial
1071
 50331648
  0
STYLE
  5
31D
330
3
100
AcDbSymbolTableRecord
100
AcDbTextStyleTableRecord
  2
arial-b
 70
     0
 40
1.0
 41
1.0
 50
0.0
 71
     0
 42
2.5
  3
arialbd.ttf
  4

1001
ACAD
1000
Arial
1071
 33554432
  0
ENDTAB
  0
TABLE
  2
VIEW
  5
6
330
0
100
AcDbSymbolTable
 70
     0
  0
ENDTAB
  0
TABLE
  2
UCS
  5
7
330
0
100
AcDbSymbolTable
 70
     0
  0
ENDTAB
  0
TABLE
  2
APPID
  5
9
330
0
100
AcDbSymbolTable
 70
     3
  0
APPID
  5
12
330
9
100
AcDbSymbolTableRecord
100
AcDbRegAppTableRecord
  2
ACAD
 70
     0
  0
APPID
  5
5E
330
9
100
AcDbSymbolTableRecord
100
AcDbRegAppTableRecord
  2
Cadwork
 70
     0
  0
APPID
  5
214
330
9
100
AcDbSymbolTableRecord
100
AcDbRegAppTableRecord
  2
PLOTTRANSPARENCY
 70
     0
  0
ENDTAB
  0
TABLE
  2
DIMSTYLE
  5
A
330
0
100
AcDbSymbolTable
 70
     1
100
AcDbDimStyleTable
  0
DIMSTYLE
105
27
330
A
100
AcDbSymbolTableRecord
100
AcDbDimStyleTableRecord
  2
ISO-25
 70
     0
 41
2.5
 42
0.625
 43
3.75
 44
1.25
 73
     0
 74
     0
 77
     1
 78
     8
140
2.5
141
2.5
143
0.03937007874016
147
0.625
171
     3
172
     1
178
     0
271
     2
272
     2
274
     3
278
    44
283
     0
284
     8
340
11
  0
ENDTAB
  0
TABLE
  2
BLOCK_RECORD
  5
1
330
0
100
AcDbSymbolTable
 70
    73
  0
BLOCK_RECORD
  5
1F
330
1
100
AcDbSymbolTableRecord
100
AcDbBlockTableRecord
  2
*Model_Space
340
22
 70
     0
280
     1
281
     0
  0
BLOCK_RECORD
  5
20F
330
1
100
AcDbSymbolTableRecord
100
AcDbBlockTableRecord
  2
*Paper_Space
340
210
 70
     0
280
     1
281
     0
  0
BLOCK_RECORD
  5
68
330
1
100
AcDbSymbolTableRecord
100
AcDbBlockTableRecord
  2
CDWK_PTTYP1
340
0
 70
     0
280
     1
281
     1
  0
BLOCK_RECORD
  5
6F
330
1
100
AcDbSymbolTableRecord
100
AcDbBlockTableRecord
  2
CDWK_PTTYP2
340
0
 70
     0
280
     1
281
     1
  0
BLOCK_RECORD
  5
74
330
1
100
AcDbSymbolTableRecord
100
AcDbBlockTableRecord
  2
CDWK_PTTYP4
340
0
 70
     0
280
     1
281
     1
  0
BLOCK_RECORD
  5
78
330
1
100
AcDbSymbolTableRecord
100
AcDbBlockTableRecord
  2
CDWK_PTTYP5
340
0
 70
     0
280
     1
281
     1
  0
BLOCK_RECORD
  5
81
330
1
100
AcDbSymbolTableRecord
100
AcDbBlockTableRecord
  2
CDWK_PTTYP6
340
0
 70
     0
280
     1
281
     1
  0
BLOCK_RECORD
  5
89
330
1
100
AcDbSymbolTableRecord
100
AcDbBlockTableRecord
  2
CDWK_PTTYP7
340
0
 70
     0
280
     1
281
     1
  0
BLOCK_RECORD
  5
92
330
1
100
AcDbSymbolTableRecord
100
AcDbBlockTableRecord
  2
CDWK_PTTYP8
340
0
 70
     0
280
     1
281
     1
  0
BLOCK_RECORD
  5
96
330
1
100
AcDbSymbolTableRecord
100
AcDbBlockTableRecord
  2
CDWK_PTTYP9
340
0
 70
     0
280
     1
281
     1
  0
BLOCK_RECORD
  5
9B
330
1
100
AcDbSymbolTableRecord
100
AcDbBlockTableRecord
  2
CDWK_PTTYP10
340
0
 70
     0
280
     1
281
     1
  0
BLOCK_RECORD
  5
9F
330
1
100
AcDbSymbolTableRecord
100
AcDbBlockTableRecord
  2
CDWK_PTTYP11
340
0
 70
     0
280
     1
281
     1
  0
BLOCK_RECORD
  5
A4
330
1
100
AcDbSymbolTableRecord
100
AcDbBlockTableRecord
  2
CDWK_PTTYP12
340
0
 70
     0
280
     1
281
     1
  0
BLOCK_RECORD
  5
A9
330
1
100
AcDbSymbolTableRecord
100
AcDbBlockTableRecord
  2
CDWK_PTTYP13
340
0
 70
     0
280
     1
281
     1
  0
BLOCK_RECORD
  5
AF
330
1
100
AcDbSymbolTableRecord
100
AcDbBlockTableRecord
  2
CDWK_PTTYP16
340
0
 70
     0
280
     1
281
     1
  0
BLOCK_RECORD
  5
B6
330
1
100
AcDbSymbolTableRecord
100
AcDbBlockTableRecord
  2
CDWK_PTTYP17
340
0
 70
     0
280
     1
281
     1
  0
BLOCK_RECORD
  5
BB
330
1
100
AcDbSymbolTableRecord
100
AcDbBlockTableRecord
  2
CDWK_PTTYP18
340
0
 70
     0
280
     1
281
     1
  0
BLOCK_RECORD
  5
C0
330
1
100
AcDbSymbolTableRecord
100
AcDbBlockTableRecord
  2
CDWK_PTTYP19
340
0
 70
     0
280
     1
281
     1
  0
BLOCK_RECORD
  5
C6
330
1
100
AcDbSymbolTableRecord
100
AcDbBlockTableRecord
  2
CDWK_PTTYP20
340
0
 70
     0
280
     1
281
     1
  0
BLOCK_RECORD
  5
CB
330
1
100
AcDbSymbolTableRecord
100
AcDbBlockTableRecord
  2
CDWK_PTTYP21
340
0
 70
     0
280
     1
281
     1
  0
BLOCK_RECORD
  5
D0
330
1
100
AcDbSymbolTableRecord
100
AcDbBlockTableRecord
  2
CDWK_PTTYP25
340
0
 70
     0
280
     1
281
     1
  0
BLOCK_RECORD
  5
D7
330
1
100
AcDbSymbolTableRecord
100
AcDbBlockTableRecord
  2
CDWK_PTTYP26
340
0
 70
     0
280
     1
281
     1
  0
BLOCK_RECORD
  5
DE
330
1
100
AcDbSymbolTableRecord
100
AcDbBlockTableRecord
  2
CDWK_PTTYP27
340
0
 70
     0
280
     1
281
     1
  0
BLOCK_RECORD
  5
E6
330
1
100
AcDbSymbolTableRecord
100
AcDbBlockTableRecord
  2
CDWK_PTTYP28
340
0
 70
     0
280
     1
281
     1
  0
BLOCK_RECORD
  5
ED
330
1
100
AcDbSymbolTableRecord
100
AcDbBlockTableRecord
  2
CDWK_PTTYP29
340
0
 70
     0
280
     1
281
     1
  0
BLOCK_RECORD
  5
F3
330
1
100
AcDbSymbolTableRecord
100
AcDbBlockTableRecord
  2
CDWK_PTTYP30
340
0
 70
     0
280
     1
281
     1
  0
BLOCK_RECORD
  5
FA
330
1
100
AcDbSymbolTableRecord
100
AcDbBlockTableRecord
  2
CDWK_PTTYP31
340
0
 70
     0
280
     1
281
     1
  0
BLOCK_RECORD
  5
102
330
1
100
AcDbSymbolTableRecord
100
AcDbBlockTableRecord
  2
CDWK_PTTYP32
340
0
 70
     0
280
     1
281
     1
  0
BLOCK_RECORD
  5
10B
330
1
100
AcDbSymbolTableRecord
100
AcDbBlockTableRecord
  2
CDWK_PTTYP33
340
0
 70
     0
280
     1
281
     1
  0
BLOCK_RECORD
  5
111
330
1
100
AcDbSymbolTableRecord
100
AcDbBlockTableRecord
  2
CDWK_PTTYP34
340
0
 70
     0
280
     1
281
     1
  0
BLOCK_RECORD
  5
117
330
1
100
AcDbSymbolTableRecord
100
AcDbBlockTableRecord
  2
CDWK_PTTYP35
340
0
 70
     0
280
     1
281
     1
  0
BLOCK_RECORD
  5
11D
330
1
100
AcDbSymbolTableRecord
100
AcDbBlockTableRecord
  2
CDWK_PTTYP36
340
0
 70
     0
280
     1
281
     1
  0
BLOCK_RECORD
  5
125
330
1
100
AcDbSymbolTableRecord
100
AcDbBlockTableRecord
  2
CDWK_PTTYP37
340
0
 70
     0
280
     1
281
     1
  0
BLOCK_RECORD
  5
12A
330
1
100
AcDbSymbolTableRecord
100
AcDbBlockTableRecord
  2
CDWK_PTTYP38
340
0
 70
     0
280
     1
281
     1
  0
BLOCK_RECORD
  5
130
330
1
100
AcDbSymbolTableRecord
100
AcDbBlockTableRecord
  2
CDWK_PTTYP41
340
0
 70
     0
280
     1
281
     1
  0
BLOCK_RECORD
  5
13A
330
1
100
AcDbSymbolTableRecord
100
AcDbBlockTableRecord
  2
CDWK_PTTYP42
340
0
 70
     0
280
     1
281
     1
  0
BLOCK_RECORD
  5
143
330
1
100
AcDbSymbolTableRecord
100
AcDbBlockTableRecord
  2
CDWK_PTTYP43
340
0
 70
     0
280
     1
281
     1
  0
BLOCK_RECORD
  5
149
330
1
100
AcDbSymbolTableRecord
100
AcDbBlockTableRecord
  2
CDWK_PTTYP44
340
0
 70
     0
280
     1
281
     1
  0
BLOCK_RECORD
  5
152
330
1
100
AcDbSymbolTableRecord
100
AcDbBlockTableRecord
  2
CDWK_PTTYP45
340
0
 70
     0
280
     1
281
     1
  0
BLOCK_RECORD
  5
157
330
1
100
AcDbSymbolTableRecord
100
AcDbBlockTableRecord
  2
CDWK_PTTYP46
340
0
 70
     0
280
     1
281
     1
  0
BLOCK_RECORD
  5
15C
330
1
100
AcDbSymbolTableRecord
100
AcDbBlockTableRecord
  2
CDWK_PTTYP47
340
0
 70
     0
280
     1
281
     1
  0
BLOCK_RECORD
  5
165
330
1
100
AcDbSymbolTableRecord
100
AcDbBlockTableRecord
  2
CDWK_PTTYP48
340
0
 70
     0
280
     1
281
     1
  0
BLOCK_RECORD
  5
16A
330
1
100
AcDbSymbolTableRecord
100
AcDbBlockTableRecord
  2
CDWK_PTTYP49
340
0
 70
     0
280
     1
281
     1
  0
BLOCK_RECORD
  5
171
330
1
100
AcDbSymbolTableRecord
100
AcDbBlockTableRecord
  2
CDWK_PTTYP50
340
0
 70
     0
280
     1
281
     1
  0
BLOCK_RECORD
  5
17B
330
1
100
AcDbSymbolTableRecord
100
AcDbBlockTableRecord
  2
CDWK_PTTYP51
340
0
 70
     0
280
     1
281
     1
  0
BLOCK_RECORD
  5
180
330
1
100
AcDbSymbolTableRecord
100
AcDbBlockTableRecord
  2
CDWK_PTTYP52
340
0
 70
     0
280
     1
281
     1
  0
BLOCK_RECORD
  5
186
330
1
100
AcDbSymbolTableRecord
100
AcDbBlockTableRecord
  2
cw-dimension-symbol1
340
0
 70
     0
280
     1
281
     0
  0
BLOCK_RECORD
  5
18D
330
1
100
AcDbSymbolTableRecord
100
AcDbBlockTableRecord
  2
cw-dimension-symbol2
340
0
 70
     0
280
     1
281
     0
  0
BLOCK_RECORD
  5
192
330
1
100
AcDbSymbolTableRecord
100
AcDbBlockTableRecord
  2
cw-dimension-symbol3
340
0
 70
     0
280
     1
281
     0
  0
BLOCK_RECORD
  5
197
330
1
100
AcDbSymbolTableRecord
100
AcDbBlockTableRecord
  2
cw-dimension-symbol5
340
0
 70
     0
280
     1
281
     0
  0
BLOCK_RECORD
  5
19E
330
1
100
AcDbSymbolTableRecord
100
AcDbBlockTableRecord
  2
cw-dimension-symbol6
340
0
 70
     0
280
     1
281
     0
  0
BLOCK_RECORD
  5
1A4
330
1
100
AcDbSymbolTableRecord
100
AcDbBlockTableRecord
  2
cw-dimension-symbol11
340
0
 70
     0
280
     1
281
     0
  0
BLOCK_RECORD
  5
1AA
330
1
100
AcDbSymbolTableRecord
100
AcDbBlockTableRecord
  2
cw-dimension-symbol13
340
0
 70
     0
280
     1
281
     0
  0
BLOCK_RECORD
  5
1B0
330
1
100
AcDbSymbolTableRecord
100
AcDbBlockTableRecord
  2
cw-dimension-symbol15
340
0
 70
     0
280
     1
281
     0
  0
BLOCK_RECORD
  5
1B7
330
1
100
AcDbSymbolTableRecord
100
AcDbBlockTableRecord
  2
cw-dimension-symbol16
340
0
 70
     0
280
     1
281
     0
  0
BLOCK_RECORD
  5
1BE
330
1
100
AcDbSymbolTableRecord
100
AcDbBlockTableRecord
  2
cw-dimension-symbol17
340
0
 70
     0
280
     1
281
     0
  0
BLOCK_RECORD
  5
1C5
330
1
100
AcDbSymbolTableRecord
100
AcDbBlockTableRecord
  2
cw-dimension-symbol18
340
0
 70
     0
280
     1
281
     0
  0
BLOCK_RECORD
  5
1CC
330
1
100
AcDbSymbolTableRecord
100
AcDbBlockTableRecord
  2
cw-dimension-symbol19
340
0
 70
     0
280
     1
281
     0
  0
BLOCK_RECORD
  5
1CF
330
1
100
AcDbSymbolTableRecord
100
AcDbBlockTableRecord
  2
cw-dimension-symbol20
340
0
 70
     0
280
     1
281
     0
  0
BLOCK_RECORD
  5
1D6
330
1
100
AcDbSymbolTableRecord
100
AcDbBlockTableRecord
  2
cw-dimension-symbol21
340
0
 70
     0
280
     1
281
     0
  0
BLOCK_RECORD
  5
1DD
330
1
100
AcDbSymbolTableRecord
100
AcDbBlockTableRecord
  2
cw-line-extremity0
340
0
 70
     0
280
     1
281
     0
  0
BLOCK_RECORD
  5
1E1
330
1
100
AcDbSymbolTableRecord
100
AcDbBlockTableRecord
  2
cw-line-extremity2
340
0
 70
     0
280
     1
281
     0
  0
BLOCK_RECORD
  5
1E6
330
1
100
AcDbSymbolTableRecord
100
AcDbBlockTableRecord
  2
cw-line-extremity3
340
0
 70
     0
280
     1
281
     0
  0
BLOCK_RECORD
  5
1EB
330
1
100
AcDbSymbolTableRecord
100
AcDbBlockTableRecord
  2
cw-line-extremity301
340
0
 70
     0
280
     1
281
     0
  0
BLOCK_RECORD
  5
1ED
330
1
100
AcDbSymbolTableRecord
100
AcDbBlockTableRecord
  2
cw-line-extremity4
340
0
102
{BLKREFS
331
25E
331
269
331
297
331
299
331
29B
331
29E
331
2A0
331
2A2
331
2A4
331
2A9
331
2AA
331
2AC
331
2AE
331
2B0
331
2B2
102
}
 70
     0
280
     1
281
     0
  0
BLOCK_RECORD
  5
1EF
330
1
100
AcDbSymbolTableRecord
100
AcDbBlockTableRecord
  2
cw-line-extremity5
340
0
 70
     0
280
     1
281
     0
  0
BLOCK_RECORD
  5
1F1
330
1
100
AcDbSymbolTableRecord
100
AcDbBlockTableRecord
  2
cw-line-extremity6
340
0
 70
     0
280
     1
281
     0
  0
BLOCK_RECORD
  5
1F3
330
1
100
AcDbSymbolTableRecord
100
AcDbBlockTableRecord
  2
cw-line-extremity9
340
0
 70
     0
280
     1
281
     0
  0
BLOCK_RECORD
  5
1F5
330
1
100
AcDbSymbolTableRecord
100
AcDbBlockTableRecord
  2
cw-line-extremity10
340
0
 70
     0
280
     1
281
     0
  0
BLOCK_RECORD
  5
1F7
330
1
100
AcDbSymbolTableRecord
100
AcDbBlockTableRecord
  2
cw-line-extremity1
340
0
 70
     0
280
     1
281
     0
  0
BLOCK_RECORD
  5
1B
330
1
100
AcDbSymbolTableRecord
100
AcDbBlockTableRecord
  2
*Paper_Space69
340
1E
 70
     0
280
     1
281
     0
  0
BLOCK_RECORD
  5
2B6
330
1
100
AcDbSymbolTableRecord
100
AcDbBlockTableRecord
  2
DIM304
340
0
102
{BLKREFS
331
2C7
102
}
 70
     0
280
     1
281
     1
  0
BLOCK_RECORD
  5
2C9
330
1
100
AcDbSymbolTableRecord
100
AcDbBlockTableRecord
  2
DIM305
340
0
102
{BLKREFS
331
2DA
102
}
 70
     0
280
     1
281
     1
  0
BLOCK_RECORD
  5
2DC
330
1
100
AcDbSymbolTableRecord
100
AcDbBlockTableRecord
  2
DIM306
340
0
102
{BLKREFS
331
2ED
102
}
 70
     0
280
     1
281
     1
  0
BLOCK_RECORD
  5
2EF
330
1
100
AcDbSymbolTableRecord
100
AcDbBlockTableRecord
  2
DIM307
340
0
102
{BLKREFS
331
300
102
}
 70
     0
280
     1
281
     1
  0
ENDTAB
  0
ENDSEC
  0
SECTION
  2
BLOCKS
  0
BLOCK
  5
20
330
1F
100
AcDbEntity
  8
0
100
AcDbBlockBegin
  2
*Model_Space
 70
     0
 10
0.0
 20
0.0
 30
0.0
  3
*Model_Space
  1

  0
ENDBLK
  5
21
330
1F
100
AcDbEntity
  8
0
100
AcDbBlockEnd
  0
BLOCK
  5
211
330
20F
100
AcDbEntity
 67
     1
  8
0
100
AcDbBlockBegin
  2
*Paper_Space
 70
     0
 10
0.0
 20
0.0
 30
0.0
  3
*Paper_Space
  1

  0
ENDBLK
  5
212
330
20F
100
AcDbEntity
 67
     1
  8
0
100
AcDbBlockEnd
  0
BLOCK
  5
6D
330
68
100
AcDbEntity
  8
0
100
AcDbBlockBegin
  2
CDWK_PTTYP1
 70
     0
 10
0.0
 20
0.0
 30
0.0
  3
CDWK_PTTYP1
  1

  0
LINE
  5
69
330
68
100
AcDbEntity
  8
0
  6
Continuous
 62
     0
370
    -2
390
5F
100
AcDbLine
 10
-0.5
 20
0.5
 30
0.0
 11
0.5
 21
0.5
 31
0.0
  0
LINE
  5
6A
330
68
100
AcDbEntity
  8
0
  6
Continuous
 62
     0
370
    -2
390
5F
100
AcDbLine
 10
0.5
 20
0.5
 30
0.0
 11
0.5
 21
-0.5
 31
0.0
  0
LINE
  5
6B
330
68
100
AcDbEntity
  8
0
  6
Continuous
 62
     0
370
    -2
390
5F
100
AcDbLine
 10
0.5
 20
-0.5
 30
0.0
 11
-0.5
 21
-0.5
 31
0.0
  0
LINE
  5
6C
330
68
100
AcDbEntity
  8
0
  6
Continuous
 62
     0
370
    -2
390
5F
100
AcDbLine
 10
-0.5
 20
-0.5
 30
0.0
 11
-0.5
 21
0.5
 31
0.0
  0
ENDBLK
  5
6E
330
68
100
AcDbEntity
  8
0
100
AcDbBlockEnd
  0
BLOCK
  5
72
330
6F
100
AcDbEntity
  8
0
100
AcDbBlockBegin
  2
CDWK_PTTYP2
 70
     0
 10
0.0
 20
0.0
 30
0.0
  3
CDWK_PTTYP2
  1

  0
LINE
  5
70
330
6F
100
AcDbEntity
  8
0
  6
Continuous
 62
     0
370
    -2
390
5F
100
AcDbLine
 10
0.0
 20
0.5
 30
0.0
 11
0.0
 21
-0.5
 31
0.0
  0
LINE
  5
71
330
6F
100
AcDbEntity
  8
0
  6
Continuous
 62
     0
370
    -2
390
5F
100
AcDbLine
 10
0.5
 20
0.0
 30
0.0
 11
-0.5
 21
0.0
 31
0.0
  0
ENDBLK
  5
73
330
6F
100
AcDbEntity
  8
0
100
AcDbBlockEnd
  0
BLOCK
  5
76
330
74
100
AcDbEntity
  8
0
100
AcDbBlockBegin
  2
CDWK_PTTYP4
 70
     0
 10
0.0
 20
0.0
 30
0.0
  3
CDWK_PTTYP4
  1

  0
HATCH
  5
75
330
74
100
AcDbEntity
  8
0
  6
Continuous
 62
     0
370
    -2
390
5F
100
AcDbHatch
 10
0.0
 20
0.0
 30
0.0
210
0.0
220
0.0
230
1.0
  2
SOLID
 70
     1
 71
     0
 91
        1
 92
        1
 93
        1
 72
     2
 10
0.0
 20
0.0
 40
0.5
 50
0.0
 51
360.0
 73
     1
 97
        0
 75
     0
 76
     1
 98
        0
  0
ENDBLK
  5
77
330
74
100
AcDbEntity
  8
0
100
AcDbBlockEnd
  0
BLOCK
  5
7F
330
78
100
AcDbEntity
  8
0
100
AcDbBlockBegin
  2
CDWK_PTTYP5
 70
     0
 10
0.0
 20
0.0
 30
0.0
  3
CDWK_PTTYP5
  1

  0
LINE
  5
79
330
78
100
AcDbEntity
  8
0
  6
Continuous
 62
     0
370
    -2
390
5F
100
AcDbLine
 10
-0.5
 20
0.5
 30
0.0
 11
0.5
 21
0.5
 31
0.0
  0
LINE
  5
7A
330
78
100
AcDbEntity
  8
0
  6
Continuous
 62
     0
370
    -2
390
5F
100
AcDbLine
 10
0.5
 20
0.5
 30
0.0
 11
0.5
 21
-0.5
 31
0.0
  0
LINE
  5
7B
330
78
100
AcDbEntity
  8
0
  6
Continuous
 62
     0
370
    -2
390
5F
100
AcDbLine
 10
0.5
 20
-0.5
 30
0.0
 11
-0.5
 21
-0.5
 31
0.0
  0
LINE
  5
7C
330
78
100
AcDbEntity
  8
0
  6
Continuous
 62
     0
370
    -2
390
5F
100
AcDbLine
 10
-0.5
 20
-0.5
 30
0.0
 11
-0.5
 21
0.5
 31
0.0
  0
HATCH
  5
7D
330
78
100
AcDbEntity
  8
0
  6
Continuous
 62
     0
370
    -2
390
5F
100
AcDbHatch
 10
0.0
 20
0.0
 30
0.0
210
0.0
220
0.0
230
1.0
  2
SOLID
 70
     1
 71
     0
 91
        1
 92
        3
 72
     0
 73
     1
 93
        4
 10
-0.5
 20
0.0
 10
0.0
 20
0.0
 10
0.0
 20
-0.5
 10
-0.5
 20
-0.5
 97
        0
 75
     0
 76
     1
 98
        0
  0
HATCH
  5
7E
330
78
100
AcDbEntity
  8
0
  6
Continuous
 62
     0
370
    -2
390
5F
100
AcDbHatch
 10
0.0
 20
0.0
 30
0.0
210
0.0
220
0.0
230
1.0
  2
SOLID
 70
     1
 71
     0
 91
        1
 92
        3
 72
     0
 73
     1
 93
        4
 10
0.0
 20
0.0
 10
0.5
 20
0.0
 10
0.5
 20
0.5
 10
0.0
 20
0.5
 97
        0
 75
     0
 76
     1
 98
        0
  0
ENDBLK
  5
80
330
78
100
AcDbEntity
  8
0
100
AcDbBlockEnd
  0
BLOCK
  5
87
330
81
100
AcDbEntity
  8
0
100
AcDbBlockBegin
  2
CDWK_PTTYP6
 70
     0
 10
0.0
 20
0.0
 30
0.0
  3
CDWK_PTTYP6
  1

  0
LINE
  5
82
330
81
100
AcDbEntity
  8
0
  6
Continuous
 62
     0
370
    -2
390
5F
100
AcDbLine
 10
-0.5
 20
0.5
 30
0.0
 11
0.5
 21
0.5
 31
0.0
  0
LINE
  5
83
330
81
100
AcDbEntity
  8
0
  6
Continuous
 62
     0
370
    -2
390
5F
100
AcDbLine
 10
0.5
 20
0.5
 30
0.0
 11
0.5
 21
-0.5
 31
0.0
  0
LINE
  5
84
330
81
100
AcDbEntity
  8
0
  6
Continuous
 62
     0
370
    -2
390
5F
100
AcDbLine
 10
0.5
 20
-0.5
 30
0.0
 11
-0.5
 21
-0.5
 31
0.0
  0
LINE
  5
85
330
81
100
AcDbEntity
  8
0
  6
Continuous
 62
     0
370
    -2
390
5F
100
AcDbLine
 10
-0.5
 20
-0.5
 30
0.0
 11
-0.5
 21
0.5
 31
0.0
  0
HATCH
  5
86
330
81
100
AcDbEntity
  8
0
  6
Continuous
 62
     0
370
    -2
390
5F
100
AcDbHatch
 10
0.0
 20
0.0
 30
0.0
210
0.0
220
0.0
230
1.0
  2
SOLID
 70
     1
 71
     0
 91
        1
 92
        3
 72
     0
 73
     1
 93
        3
 10
-0.5
 20
-0.5
 10
-0.5
 20
0.5
 10
0.5
 20
0.5
 97
        0
 75
     0
 76
     1
 98
        0
  0
ENDBLK
  5
88
330
81
100
AcDbEntity
  8
0
100
AcDbBlockEnd
  0
BLOCK
  5
90
330
89
100
AcDbEntity
  8
0
100
AcDbBlockBegin
  2
CDWK_PTTYP7
 70
     0
 10
0.0
 20
0.0
 30
0.0
  3
CDWK_PTTYP7
  1

  0
LINE
  5
8A
330
89
100
AcDbEntity
  8
0
  6
Continuous
 62
     0
370
    -2
390
5F
100
AcDbLine
 10
-0.5
 20
0.5
 30
0.0
 11
0.5
 21
0.5
 31
0.0
  0
LINE
  5
8B
330
89
100
AcDbEntity
  8
0
  6
Continuous
 62
     0
370
    -2
390
5F
100
AcDbLine
 10
0.5
 20
0.5
 30
0.0
 11
0.5
 21
-0.5
 31
0.0
  0
LINE
  5
8C
330
89
100
AcDbEntity
  8
0
  6
Continuous
 62
     0
370
    -2
390
5F
100
AcDbLine
 10
0.5
 20
-0.5
 30
0.0
 11
-0.5
 21
-0.5
 31
0.0
  0
LINE
  5
8D
330
89
100
AcDbEntity
  8
0
  6
Continuous
 62
     0
370
    -2
390
5F
100
AcDbLine
 10
-0.5
 20
-0.5
 30
0.0
 11
-0.5
 21
0.5
 31
0.0
  0
LINE
  5
8E
330
89
100
AcDbEntity
  8
0
  6
Continuous
 62
     0
370
    -2
390
5F
100
AcDbLine
 10
0.0
 20
0.5
 30
0.0
 11
0.0
 21
-0.5
 31
0.0
  0
LINE
  5
8F
330
89
100
AcDbEntity
  8
0
  6
Continuous
 62
     0
370
    -2
390
5F
100
AcDbLine
 10
0.5
 20
0.0
 30
0.0
 11
-0.5
 21
0.0
 31
0.0
  0
ENDBLK
  5
91
330
89
100
AcDbEntity
  8
0
100
AcDbBlockEnd
  0
BLOCK
  5
94
330
92
100
AcDbEntity
  8
0
100
AcDbBlockBegin
  2
CDWK_PTTYP8
 70
     0
 10
0.0
 20
0.0
 30
0.0
  3
CDWK_PTTYP8
  1

  0
HATCH
  5
93
330
92
100
AcDbEntity
  8
0
  6
Continuous
 62
     0
370
    -2
390
5F
100
AcDbHatch
 10
0.0
 20
0.0
 30
0.0
210
0.0
220
0.0
230
1.0
  2
SOLID
 70
     1
 71
     0
 91
        1
 92
        3
 72
     0
 73
     1
 93
        4
 10
0.5
 20
0.5
 10
0.5
 20
-0.5
 10
-0.5
 20
-0.5
 10
-0.5
 20
0.5
 97
        0
 75
     0
 76
     1
 98
        0
  0
ENDBLK
  5
95
330
92
100
AcDbEntity
  8
0
100
AcDbBlockEnd
  0
BLOCK
  5
99
330
96
100
AcDbEntity
  8
0
100
AcDbBlockBegin
  2
CDWK_PTTYP9
 70
     0
 10
0.0
 20
0.0
 30
0.0
  3
CDWK_PTTYP9
  1

  0
CIRCLE
  5
97
330
96
100
AcDbEntity
  8
0
  6
Continuous
 62
     0
370
    -2
390
5F
100
AcDbCircle
 10
0.0
 20
0.0
 30
0.0
 40
0.1666666666666667
  0
CIRCLE
  5
98
330
96
100
AcDbEntity
  8
0
  6
Continuous
 62
     0
370
    -2
390
5F
100
AcDbCircle
 10
0.0
 20
0.0
 30
0.0
 40
0.5
  0
ENDBLK
  5
9A
330
96
100
AcDbEntity
  8
0
100
AcDbBlockEnd
  0
BLOCK
  5
9D
330
9B
100
AcDbEntity
  8
0
100
AcDbBlockBegin
  2
CDWK_PTTYP10
 70
     0
 10
0.0
 20
0.0
 30
0.0
  3
CDWK_PTTYP10
  1

  0
CIRCLE
  5
9C
330
9B
100
AcDbEntity
  8
0
  6
Continuous
 62
     0
370
    -2
390
5F
100
AcDbCircle
 10
0.0
 20
0.0
 30
0.0
 40
0.5
  0
ENDBLK
  5
9E
330
9B
100
AcDbEntity
  8
0
100
AcDbBlockEnd
  0
BLOCK
  5
A2
330
9F
100
AcDbEntity
  8
0
100
AcDbBlockBegin
  2
CDWK_PTTYP11
 70
     0
 10
0.0
 20
0.0
 30
0.0
  3
CDWK_PTTYP11
  1

  0
CIRCLE
  5
A0
330
9F
100
AcDbEntity
  8
0
  6
Continuous
 62
     0
370
    -2
390
5F
100
AcDbCircle
 10
0.0
 20
0.0
 30
0.0
 40
0.25
  0
CIRCLE
  5
A1
330
9F
100
AcDbEntity
  8
0
  6
Continuous
 62
     0
370
    -2
390
5F
100
AcDbCircle
 10
0.0
 20
0.0
 30
0.0
 40
0.5
  0
ENDBLK
  5
A3
330
9F
100
AcDbEntity
  8
0
100
AcDbBlockEnd
  0
BLOCK
  5
A7
330
A4
100
AcDbEntity
  8
0
100
AcDbBlockBegin
  2
CDWK_PTTYP12
 70
     0
 10
0.0
 20
0.0
 30
0.0
  3
CDWK_PTTYP12
  1

  0
CIRCLE
  5
A5
330
A4
100
AcDbEntity
  8
0
  6
Continuous
 62
     0
370
    -2
390
5F
100
AcDbCircle
 10
0.25
 20
0.0
 30
0.0
 40
0.25
  0
CIRCLE
  5
A6
330
A4
100
AcDbEntity
  8
0
  6
Continuous
 62
     0
370
    -2
390
5F
100
AcDbCircle
 10
0.0
 20
0.0
 30
0.0
 40
0.5
  0
ENDBLK
  5
A8
330
A4
100
AcDbEntity
  8
0
100
AcDbBlockEnd
  0
BLOCK
  5
AD
330
A9
100
AcDbEntity
  8
0
100
AcDbBlockBegin
  2
CDWK_PTTYP13
 70
     0
 10
0.0
 20
0.0
 30
0.0
  3
CDWK_PTTYP13
  1

  0
CIRCLE
  5
AA
330
A9
100
AcDbEntity
  8
0
  6
Continuous
 62
     0
370
    -2
390
5F
100
AcDbCircle
 10
-0.25
 20
0.0
 30
0.0
 40
0.25
  0
CIRCLE
  5
AB
330
A9
100
AcDbEntity
  8
0
  6
Continuous
 62
     0
370
    -2
390
5F
100
AcDbCircle
 10
0.25
 20
0.0
 30
0.0
 40
0.25
  0
CIRCLE
  5
AC
330
A9
100
AcDbEntity
  8
0
  6
Continuous
 62
     0
370
    -2
390
5F
100
AcDbCircle
 10
0.0
 20
0.0
 30
0.0
 40
0.5
  0
ENDBLK
  5
AE
330
A9
100
AcDbEntity
  8
0
100
AcDbBlockEnd
  0
BLOCK
  5
B4
330
AF
100
AcDbEntity
  8
0
100
AcDbBlockBegin
  2
CDWK_PTTYP16
 70
     0
 10
0.0
 20
0.0
 30
0.0
  3
CDWK_PTTYP16
  1

  0
LINE
  5
B0
330
AF
100
AcDbEntity
  8
0
  6
Continuous
 62
     0
370
    -2
390
5F
100
AcDbLine
 10
-0.5
 20
-0.289
 30
0.0
 11
0.5
 21
-0.289
 31
0.0
  0
LINE
  5
B1
330
AF
100
AcDbEntity
  8
0
  6
Continuous
 62
     0
370
    -2
390
5F
100
AcDbLine
 10
0.5
 20
-0.289
 30
0.0
 11
0.0
 21
0.577
 31
0.0
  0
LINE
  5
B2
330
AF
100
AcDbEntity
  8
0
  6
Continuous
 62
     0
370
    -2
390
5F
100
AcDbLine
 10
0.0
 20
0.577
 30
0.0
 11
-0.5
 21
-0.289
 31
0.0
  0
CIRCLE
  5
B3
330
AF
100
AcDbEntity
  8
0
  6
Continuous
 62
     0
370
    -2
390
5F
100
AcDbCircle
 10
0.0
 20
0.0
 30
0.0
 40
0.289
  0
ENDBLK
  5
B5
330
AF
100
AcDbEntity
  8
0
100
AcDbBlockEnd
  0
BLOCK
  5
B9
330
B6
100
AcDbEntity
  8
0
100
AcDbBlockBegin
  2
CDWK_PTTYP17
 70
     0
 10
0.0
 20
0.0
 30
0.0
  3
CDWK_PTTYP17
  1

  0
CIRCLE
  5
B7
330
B6
100
AcDbEntity
  8
0
  6
Continuous
 62
     0
370
    -2
390
5F
100
AcDbCircle
 10
0.0
 20
0.0
 30
0.0
 40
0.5
  0
HATCH
  5
B8
330
B6
100
AcDbEntity
  8
0
  6
Continuous
 62
     0
370
    -2
390
5F
100
AcDbHatch
 10
0.0
 20
0.0
 30
0.0
210
0.0
220
0.0
230
1.0
  2
SOLID
 70
     1
 71
     0
 91
        1
 92
        1
 93
        1
 72
     2
 10
0.0
 20
0.0
 40
0.25
 50
0.0
 51
360.0
 73
     1
 97
        0
 75
     0
 76
     1
 98
        0
  0
ENDBLK
  5
BA
330
B6
100
AcDbEntity
  8
0
100
AcDbBlockEnd
  0
BLOCK
  5
BE
330
BB
100
AcDbEntity
  8
0
100
AcDbBlockBegin
  2
CDWK_PTTYP18
 70
     0
 10
0.0
 20
0.0
 30
0.0
  3
CDWK_PTTYP18
  1

  0
CIRCLE
  5
BC
330
BB
100
AcDbEntity
  8
0
  6
Continuous
 62
     0
370
    -2
390
5F
100
AcDbCircle
 10
0.0
 20
0.0
 30
0.0
 40
0.5
  0
CIRCLE
  5
BD
330
BB
100
AcDbEntity
  8
0
  6
Continuous
 62
     0
370
    -2
390
5F
100
AcDbCircle
 10
0.0
 20
0.0
 30
0.0
 40
0.208
  0
ENDBLK
  5
BF
330
BB
100
AcDbEntity
  8
0
100
AcDbBlockEnd
  0
BLOCK
  5
C4
330
C0
100
AcDbEntity
  8
0
100
AcDbBlockBegin
  2
CDWK_PTTYP19
 70
     0
 10
0.0
 20
0.0
 30
0.0
  3
CDWK_PTTYP19
  1

  0
CIRCLE
  5
C1
330
C0
100
AcDbEntity
  8
0
  6
Continuous
 62
     0
370
    -2
390
5F
100
AcDbCircle
 10
0.0
 20
0.0
 30
0.0
 40
0.25
  0
CIRCLE
  5
C2
330
C0
100
AcDbEntity
  8
0
  6
Continuous
 62
     0
370
    -2
390
5F
100
AcDbCircle
 10
0.0
 20
0.0
 30
0.0
 40
0.35
  0
LINE
  5
C3
330
C0
100
AcDbEntity
  8
0
  6
Continuous
 62
     0
370
    -2
390
5F
100
AcDbLine
 10
-0.25
 20
0.0
 30
0.0
 11
0.25
 21
0.0
 31
0.0
  0
ENDBLK
  5
C5
330
C0
100
AcDbEntity
  8
0
100
AcDbBlockEnd
  0
BLOCK
  5
C9
330
C6
100
AcDbEntity
  8
0
100
AcDbBlockBegin
  2
CDWK_PTTYP20
 70
     0
 10
0.0
 20
0.0
 30
0.0
  3
CDWK_PTTYP20
  1

  0
CIRCLE
  5
C7
330
C6
100
AcDbEntity
  8
0
  6
Continuous
 62
     0
370
    -2
390
5F
100
AcDbCircle
 10
0.0
 20
0.0
 30
0.0
 40
0.3333333333333333
  0
CIRCLE
  5
C8
330
C6
100
AcDbEntity
  8
0
  6
Continuous
 62
     0
370
    -2
390
5F
100
AcDbCircle
 10
0.0
 20
0.0
 30
0.0
 40
0.5
  0
ENDBLK
  5
CA
330
C6
100
AcDbEntity
  8
0
100
AcDbBlockEnd
  0
BLOCK
  5
CE
330
CB
100
AcDbEntity
  8
0
100
AcDbBlockBegin
  2
CDWK_PTTYP21
 70
     0
 10
0.0
 20
0.0
 30
0.0
  3
CDWK_PTTYP21
  1

  0
CIRCLE
  5
CC
330
CB
100
AcDbEntity
  8
0
  6
Continuous
 62
     0
370
    -2
390
5F
100
AcDbCircle
 10
0.0
 20
0.0
 30
0.0
 40
0.5
  0
LINE
  5
CD
330
CB
100
AcDbEntity
  8
0
  6
Continuous
 62
     0
370
    -2
390
5F
100
AcDbLine
 10
-0.5
 20
0.0
 30
0.0
 11
0.5
 21
0.0
 31
0.0
  0
ENDBLK
  5
CF
330
CB
100
AcDbEntity
  8
0
100
AcDbBlockEnd
  0
BLOCK
  5
D5
330
D0
100
AcDbEntity
  8
0
100
AcDbBlockBegin
  2
CDWK_PTTYP25
 70
     0
 10
0.0
 20
0.0
 30
0.0
  3
CDWK_PTTYP25
  1

  0
LINE
  5
D1
330
D0
100
AcDbEntity
  8
0
  6
Continuous
 62
     0
370
    -2
390
5F
100
AcDbLine
 10
0.0
 20
0.5
 30
0.0
 11
-0.4330127018922193
 21
-0.25
 31
0.0
  0
LINE
  5
D2
330
D0
100
AcDbEntity
  8
0
  6
Continuous
 62
     0
370
    -2
390
5F
100
AcDbLine
 10
-0.4330127018922193
 20
-0.25
 30
0.0
 11
0.4330127018922193
 21
-0.25
 31
0.0
  0
LINE
  5
D3
330
D0
100
AcDbEntity
  8
0
  6
Continuous
 62
     0
370
    -2
390
5F
100
AcDbLine
 10
0.4330127018922193
 20
-0.25
 30
0.0
 11
0.0
 21
0.5
 31
0.0
  0
CIRCLE
  5
D4
330
D0
100
AcDbEntity
  8
0
  6
Continuous
 62
     0
370
    -2
390
5F
100
AcDbCircle
 10
0.0
 20
0.0
 30
0.0
 40
0.5
  0
ENDBLK
  5
D6
330
D0
100
AcDbEntity
  8
0
100
AcDbBlockEnd
  0
BLOCK
  5
DC
330
D7
100
AcDbEntity
  8
0
100
AcDbBlockBegin
  2
CDWK_PTTYP26
 70
     0
 10
0.0
 20
0.0
 30
0.0
  3
CDWK_PTTYP26
  1

  0
LINE
  5
D8
330
D7
100
AcDbEntity
  8
0
  6
Continuous
 62
     0
370
    -2
390
5F
100
AcDbLine
 10
-0.5
 20
-0.289
 30
0.0
 11
0.5
 21
-0.289
 31
0.0
  0
LINE
  5
D9
330
D7
100
AcDbEntity
  8
0
  6
Continuous
 62
     0
370
    -2
390
5F
100
AcDbLine
 10
0.5
 20
-0.289
 30
0.0
 11
0.0
 21
0.577
 31
0.0
  0
LINE
  5
DA
330
D7
100
AcDbEntity
  8
0
  6
Continuous
 62
     0
370
    -2
390
5F
100
AcDbLine
 10
0.0
 20
0.577
 30
0.0
 11
-0.5
 21
-0.289
 31
0.0
  0
CIRCLE
  5
DB
330
D7
100
AcDbEntity
  8
0
  6
Continuous
 62
     0
370
    -2
390
5F
100
AcDbCircle
 10
0.0
 20
0.0
 30
0.0
 40
0.125
  0
ENDBLK
  5
DD
330
D7
100
AcDbEntity
  8
0
100
AcDbBlockEnd
  0
BLOCK
  5
E4
330
DE
100
AcDbEntity
  8
0
100
AcDbBlockBegin
  2
CDWK_PTTYP27
 70
     0
 10
0.0
 20
0.0
 30
0.0
  3
CDWK_PTTYP27
  1

  0
LINE
  5
DF
330
DE
100
AcDbEntity
  8
0
  6
Continuous
 62
     0
370
    -2
390
5F
100
AcDbLine
 10
0.0
 20
0.5
 30
0.0
 11
-0.4330127018922193
 21
-0.25
 31
0.0
  0
LINE
  5
E0
330
DE
100
AcDbEntity
  8
0
  6
Continuous
 62
     0
370
    -2
390
5F
100
AcDbLine
 10
-0.4330127018922193
 20
-0.25
 30
0.0
 11
0.4330127018922193
 21
-0.25
 31
0.0
  0
LINE
  5
E1
330
DE
100
AcDbEntity
  8
0
  6
Continuous
 62
     0
370
    -2
390
5F
100
AcDbLine
 10
0.4330127018922193
 20
-0.25
 30
0.0
 11
0.0
 21
0.5
 31
0.0
  0
CIRCLE
  5
E2
330
DE
100
AcDbEntity
  8
0
  6
Continuous
 62
     0
370
    -2
390
5F
100
AcDbCircle
 10
0.0
 20
0.0
 30
0.0
 40
0.125
  0
CIRCLE
  5
E3
330
DE
100
AcDbEntity
  8
0
  6
Continuous
 62
     0
370
    -2
390
5F
100
AcDbCircle
 10
0.0
 20
0.0
 30
0.0
 40
0.5
  0
ENDBLK
  5
E5
330
DE
100
AcDbEntity
  8
0
100
AcDbBlockEnd
  0
BLOCK
  5
EB
330
E6
100
AcDbEntity
  8
0
100
AcDbBlockBegin
  2
CDWK_PTTYP28
 70
     0
 10
0.0
 20
0.0
 30
0.0
  3
CDWK_PTTYP28
  1

  0
LINE
  5
E7
330
E6
100
AcDbEntity
  8
0
  6
Continuous
 62
     0
370
    -2
390
5F
100
AcDbLine
 10
-0.5
 20
0.5
 30
0.0
 11
0.5
 21
0.5
 31
0.0
  0
LINE
  5
E8
330
E6
100
AcDbEntity
  8
0
  6
Continuous
 62
     0
370
    -2
390
5F
100
AcDbLine
 10
0.5
 20
0.5
 30
0.0
 11
-0.5
 21
-0.5
 31
0.0
  0
LINE
  5
E9
330
E6
100
AcDbEntity
  8
0
  6
Continuous
 62
     0
370
    -2
390
5F
100
AcDbLine
 10
0.5
 20
-0.5
 30
0.0
 11
-0.5
 21
-0.5
 31
0.0
  0
LINE
  5
EA
330
E6
100
AcDbEntity
  8
0
  6
Continuous
 62
     0
370
    -2
390
5F
100
AcDbLine
 10
-0.5
 20
0.5
 30
0.0
 11
0.5
 21
-0.5
 31
0.0
  0
ENDBLK
  5
EC
330
E6
100
AcDbEntity
  8
0
100
AcDbBlockEnd
  0
BLOCK
  5
F1
330
ED
100
AcDbEntity
  8
0
100
AcDbBlockBegin
  2
CDWK_PTTYP29
 70
     0
 10
0.0
 20
0.0
 30
0.0
  3
CDWK_PTTYP29
  1

  0
CIRCLE
  5
EE
330
ED
100
AcDbEntity
  8
0
  6
Continuous
 62
     0
370
    -2
390
5F
100
AcDbCircle
 10
0.0
 20
0.0
 30
0.0
 40
0.2
  0
CIRCLE
  5
EF
330
ED
100
AcDbEntity
  8
0
  6
Continuous
 62
     0
370
    -2
390
5F
100
AcDbCircle
 10
0.0
 20
0.0
 30
0.0
 40
0.35
  0
CIRCLE
  5
F0
330
ED
100
AcDbEntity
  8
0
  6
Continuous
 62
     0
370
    -2
390
5F
100
AcDbCircle
 10
0.0
 20
0.0
 30
0.0
 40
0.5
  0
ENDBLK
  5
F2
330
ED
100
AcDbEntity
  8
0
100
AcDbBlockEnd
  0
BLOCK
  5
F8
330
F3
100
AcDbEntity
  8
0
100
AcDbBlockBegin
  2
CDWK_PTTYP30
 70
     0
 10
0.0
 20
0.0
 30
0.0
  3
CDWK_PTTYP30
  1

  0
LINE
  5
F4
330
F3
100
AcDbEntity
  8
0
  6
Continuous
 62
     0
370
    -2
390
5F
100
AcDbLine
 10
-0.5
 20
0.5
 30
0.0
 11
-0.1
 21
0.1
 31
0.0
  0
LINE
  5
F5
330
F3
100
AcDbEntity
  8
0
  6
Continuous
 62
     0
370
    -2
390
5F
100
AcDbLine
 10
0.5
 20
0.5
 30
0.0
 11
0.1
 21
0.1
 31
0.0
  0
LINE
  5
F6
330
F3
100
AcDbEntity
  8
0
  6
Continuous
 62
     0
370
    -2
390
5F
100
AcDbLine
 10
0.5
 20
-0.5
 30
0.0
 11
0.1
 21
-0.1
 31
0.0
  0
LINE
  5
F7
330
F3
100
AcDbEntity
  8
0
  6
Continuous
 62
     0
370
    -2
390
5F
100
AcDbLine
 10
-0.5
 20
-0.5
 30
0.0
 11
-0.1
 21
-0.1
 31
0.0
  0
ENDBLK
  5
F9
330
F3
100
AcDbEntity
  8
0
100
AcDbBlockEnd
  0
BLOCK
  5
100
330
FA
100
AcDbEntity
  8
0
100
AcDbBlockBegin
  2
CDWK_PTTYP31
 70
     0
 10
0.0
 20
0.0
 30
0.0
  3
CDWK_PTTYP31
  1

  0
LINE
  5
FB
330
FA
100
AcDbEntity
  8
0
  6
Continuous
 62
     0
370
    -2
390
5F
100
AcDbLine
 10
-0.5
 20
0.0
 30
0.0
 11
-0.1
 21
0.0
 31
0.0
  0
LINE
  5
FC
330
FA
100
AcDbEntity
  8
0
  6
Continuous
 62
     0
370
    -2
390
5F
100
AcDbLine
 10
0.1
 20
0.0
 30
0.0
 11
0.5
 21
0.0
 31
0.0
  0
LINE
  5
FD
330
FA
100
AcDbEntity
  8
0
  6
Continuous
 62
     0
370
    -2
390
5F
100
AcDbLine
 10
0.0
 20
0.5
 30
0.0
 11
0.0
 21
0.1
 31
0.0
  0
LINE
  5
FE
330
FA
100
AcDbEntity
  8
0
  6
Continuous
 62
     0
370
    -2
390
5F
100
AcDbLine
 10
0.0
 20
-0.1
 30
0.0
 11
0.0
 21
-0.5
 31
0.0
  0
CIRCLE
  5
FF
330
FA
100
AcDbEntity
  8
0
  6
Continuous
 62
     0
370
    -2
390
5F
100
AcDbCircle
 10
0.0
 20
0.0
 30
0.0
 40
0.1
  0
ENDBLK
  5
101
330
FA
100
AcDbEntity
  8
0
100
AcDbBlockEnd
  0
BLOCK
  5
109
330
102
100
AcDbEntity
  8
0
100
AcDbBlockBegin
  2
CDWK_PTTYP32
 70
     0
 10
0.0
 20
0.0
 30
0.0
  3
CDWK_PTTYP32
  1

  0
CIRCLE
  5
103
330
102
100
AcDbEntity
  8
0
  6
Continuous
 62
     0
370
    -2
390
5F
100
AcDbCircle
 10
0.0
 20
0.0
 30
0.0
 40
0.2
  0
CIRCLE
  5
104
330
102
100
AcDbEntity
  8
0
  6
Continuous
 62
     0
370
    -2
390
5F
100
AcDbCircle
 10
0.0
 20
0.0
 30
0.0
 40
0.5
  0
LINE
  5
105
330
102
100
AcDbEntity
  8
0
  6
Continuous
 62
     0
370
    -2
390
5F
100
AcDbLine
 10
0.1414213562373095
 20
0.1414213562373095
 30
0.0
 11
0.3535533905932738
 21
0.3535533905932738
 31
0.0
  0
LINE
  5
106
330
102
100
AcDbEntity
  8
0
  6
Continuous
 62
     0
370
    -2
390
5F
100
AcDbLine
 10
-0.1414213562373095
 20
0.1414213562373095
 30
0.0
 11
-0.3535533905932738
 21
0.3535533905932738
 31
0.0
  0
LINE
  5
107
330
102
100
AcDbEntity
  8
0
  6
Continuous
 62
     0
370
    -2
390
5F
100
AcDbLine
 10
0.1414213562373095
 20
-0.1414213562373095
 30
0.0
 11
0.3535533905932738
 21
-0.3535533905932738
 31
0.0
  0
LINE
  5
108
330
102
100
AcDbEntity
  8
0
  6
Continuous
 62
     0
370
    -2
390
5F
100
AcDbLine
 10
-0.1414213562373095
 20
-0.1414213562373095
 30
0.0
 11
-0.3535533905932738
 21
-0.3535533905932738
 31
0.0
  0
ENDBLK
  5
10A
330
102
100
AcDbEntity
  8
0
100
AcDbBlockEnd
  0
BLOCK
  5
10F
330
10B
100
AcDbEntity
  8
0
100
AcDbBlockBegin
  2
CDWK_PTTYP33
 70
     0
 10
0.0
 20
0.0
 30
0.0
  3
CDWK_PTTYP33
  1

  0
LINE
  5
10C
330
10B
100
AcDbEntity
  8
0
  6
Continuous
 62
     0
370
    -2
390
5F
100
AcDbLine
 10
0.0
 20
-0.5
 30
0.0
 11
0.0
 21
0.5
 31
0.0
  0
LINE
  5
10D
330
10B
100
AcDbEntity
  8
0
  6
Continuous
 62
     0
370
    -2
390
5F
100
AcDbLine
 10
0.5
 20
0.0
 30
0.0
 11
-0.5
 21
0.0
 31
0.0
  0
CIRCLE
  5
10E
330
10B
100
AcDbEntity
  8
0
  6
Continuous
 62
     0
370
    -2
390
5F
100
AcDbCircle
 10
0.0
 20
0.0
 30
0.0
 40
0.5
  0
ENDBLK
  5
110
330
10B
100
AcDbEntity
  8
0
100
AcDbBlockEnd
  0
BLOCK
  5
115
330
111
100
AcDbEntity
  8
0
100
AcDbBlockBegin
  2
CDWK_PTTYP34
 70
     0
 10
0.0
 20
0.0
 30
0.0
  3
CDWK_PTTYP34
  1

  0
CIRCLE
  5
112
330
111
100
AcDbEntity
  8
0
  6
Continuous
 62
     0
370
    -2
390
5F
100
AcDbCircle
 10
0.0
 20
0.0
 30
0.0
 40
0.5
  0
LINE
  5
113
330
111
100
AcDbEntity
  8
0
  6
Continuous
 62
     0
370
    -2
390
5F
100
AcDbLine
 10
-0.4
 20
-0.3
 30
0.0
 11
0.3
 21
0.4
 31
0.0
  0
LINE
  5
114
330
111
100
AcDbEntity
  8
0
  6
Continuous
 62
     0
370
    -2
390
5F
100
AcDbLine
 10
-0.3
 20
-0.4
 30
0.0
 11
0.4
 21
0.3
 31
0.0
  0
ENDBLK
  5
116
330
111
100
AcDbEntity
  8
0
100
AcDbBlockEnd
  0
BLOCK
  5
11B
330
117
100
AcDbEntity
  8
0
100
AcDbBlockBegin
  2
CDWK_PTTYP35
 70
     0
 10
0.0
 20
0.0
 30
0.0
  3
CDWK_PTTYP35
  1

  0
LINE
  5
118
330
117
100
AcDbEntity
  8
0
  6
Continuous
 62
     0
370
    -2
390
5F
100
AcDbLine
 10
0.0
 20
0.2
 30
0.0
 11
0.0
 21
0.5
 31
0.0
  0
LINE
  5
119
330
117
100
AcDbEntity
  8
0
  6
Continuous
 62
     0
370
    -2
390
5F
100
AcDbLine
 10
0.0
 20
-0.2
 30
0.0
 11
0.0
 21
-0.5
 31
0.0
  0
CIRCLE
  5
11A
330
117
100
AcDbEntity
  8
0
  6
Continuous
 62
     0
370
    -2
390
5F
100
AcDbCircle
 10
0.0
 20
0.0
 30
0.0
 40
0.2
  0
ENDBLK
  5
11C
330
117
100
AcDbEntity
  8
0
100
AcDbBlockEnd
  0
BLOCK
  5
123
330
11D
100
AcDbEntity
  8
0
100
AcDbBlockBegin
  2
CDWK_PTTYP36
 70
     0
 10
0.0
 20
0.0
 30
0.0
  3
CDWK_PTTYP36
  1

  0
LINE
  5
11E
330
11D
100
AcDbEntity
  8
0
  6
Continuous
 62
     0
370
    -2
390
5F
100
AcDbLine
 10
-0.5
 20
0.2
 30
0.0
 11
0.5
 21
0.2
 31
0.0
  0
LINE
  5
11F
330
11D
100
AcDbEntity
  8
0
  6
Continuous
 62
     0
370
    -2
390
5F
100
AcDbLine
 10
0.5
 20
0.2
 30
0.0
 11
0.5
 21
-0.2
 31
0.0
  0
LINE
  5
120
330
11D
100
AcDbEntity
  8
0
  6
Continuous
 62
     0
370
    -2
390
5F
100
AcDbLine
 10
0.5
 20
-0.2
 30
0.0
 11
-0.5
 21
-0.2
 31
0.0
  0
LINE
  5
121
330
11D
100
AcDbEntity
  8
0
  6
Continuous
 62
     0
370
    -2
390
5F
100
AcDbLine
 10
-0.5
 20
-0.2
 30
0.0
 11
-0.5
 21
0.2
 31
0.0
  0
HATCH
  5
122
330
11D
100
AcDbEntity
  8
0
  6
Continuous
 62
     0
370
    -2
390
5F
100
AcDbHatch
 10
0.0
 20
0.0
 30
0.0
210
0.0
220
0.0
230
1.0
  2
SOLID
 70
     1
 71
     0
 91
        1
 92
        3
 72
     0
 73
     1
 93
        3
 10
-0.5
 20
-0.2
 10
0.5
 20
-0.2
 10
0.5
 20
0.2
 97
        0
 75
     0
 76
     1
 98
        0
  0
ENDBLK
  5
124
330
11D
100
AcDbEntity
  8
0
100
AcDbBlockEnd
  0
BLOCK
  5
128
330
125
100
AcDbEntity
  8
0
100
AcDbBlockBegin
  2
CDWK_PTTYP37
 70
     0
 10
0.0
 20
0.0
 30
0.0
  3
CDWK_PTTYP37
  1

  0
HATCH
  5
126
330
125
100
AcDbEntity
  8
0
  6
Continuous
 62
     0
370
    -2
390
5F
100
AcDbHatch
 10
0.0
 20
0.0
 30
0.0
210
0.0
220
0.0
230
1.0
  2
SOLID
 70
     1
 71
     0
 91
        1
 92
        3
 72
     0
 73
     1
 93
      202
 10
-0.3535533905932738
 20
-0.3535533905932738
 10
-0.3485533905932738
 20
-0.3535533905932737
 10
-0.3435533905932738
 20
-0.3584836591895546
 10
-0.3385533905932738
 20
-0.3632782236961988
 10
-0.3335533905932738
 20
-0.367942389128785
 10
-0.3285533905932738
 20
-0.372481054046687
 10
-0.3235533905932738
 20
-0.3768987523588579
 10
-0.3185533905932738
 20
-0.3811996897107819
 10
-0.3135533905932738
 20
-0.3853877752881235
 10
-0.3085533905932737
 20
-0.3894666497242888
 10
-0.3035533905932737
 20
-0.3934397096803965
 10
-0.2985533905932737
 20
-0.3973101295704999
 10
-0.2935533905932737
 20
-0.4010808808273714
 10
-0.2885533905932737
 20
-0.4047547490409382
 10
-0.2835533905932737
 20
-0.4083343492496384
 10
-0.2785533905932737
 20
-0.4118221396222626
 10
-0.2735533905932737
 20
-0.4152204337324827
 10
-0.2685533905932737
 20
-0.4185314115988474
 10
-0.2635533905932737
 20
-0.4217571296384408
 10
-0.2585533905932737
 20
-0.4248995296617653
 10
-0.2535533905932737
 20
-0.4279604470190231
 10
-0.2485533905932737
 20
-0.4309416179932669
 10
-0.2435533905932737
 20
-0.4338446865234004
 10
-0.2385533905932737
 20
-0.4366712103293738
 10
-0.2335533905932737
 20
-0.439422666502825
 10
-0.2285533905932737
 20
-0.4421004566186126
 10
-0.2235533905932737
 20
-0.4447059114159811
 10
-0.2185533905932737
 20
-0.4472402950923041
 10
-0.2135533905932737
 20
-0.4497048092473372
 10
-0.2085533905932737
 20
-0.4521005965115692
 10
-0.2035533905932737
 20
-0.4544287438884664
 10
-0.1985533905932736
 20
-0.456690285837111
 10
-0.1935533905932736
 20
-0.45888620711884
 10
-0.1885533905932736
 20
-0.4610174454289638
 10
-0.1835533905932736
 20
-0.4630848938324164
 10
-0.1785533905932736
 20
-0.4650894030202291
 10
-0.1735533905932736
 20
-0.4670317834019928
 10
-0.1685533905932736
 20
-0.46891280704794
 10
-0.1635533905932736
 20
-0.4707332094929264
 10
-0.1585533905932736
 20
-0.4724936914133818
 10
-0.1535533905932736
 20
-0.4741949201872336
 10
-0.1485533905932736
 20
-0.4758375313458466
 10
-0.1435533905932736
 20
-0.4774221299261716
 10
-0.1385533905932736
 20
-0.4789492917305286
 10
-0.1335533905932736
 20
-0.4804195645007682
 10
-0.1285533905932736
 20
-0.4818334690129366
 10
-0.1235533905932736
 20
-0.4831915000980183
 10
-0.1185533905932736
 20
-0.4844941275938295
 10
-0.1135533905932736
 20
-0.4857417972326848
 10
-0.1085533905932736
 20
-0.4869349314690531
 10
-0.1035533905932736
 20
-0.4880739302510473
 10
-0.0985533905932736
 20
-0.489159171739258
 10
-0.0935533905932736
 20
-0.4901910129761353
 10
-0.0885533905932736
 20
-0.4911697905088447
 10
-0.0835533905932735
 20
-0.4920958209682695
 10
-0.0785533905932735
 20
-0.4929694016065986
 10
-0.0735533905932735
 20
-0.4937908107957261
 10
-0.0685533905932735
 20
-0.494560308488493
 10
-0.0635533905932735
 20
-0.4952781366446192
 10
-0.0585533905932735
 20
-0.4959445196230107
 10
-0.0535533905932735
 20
-0.4965596645419678
 10
-0.0485533905932735
 20
-0.4971237616086806
 10
-0.0435533905932735
 20
-0.4976369844192622
 10
-0.0385533905932735
 20
-0.4980994902304456
 10
-0.0335533905932735
 20
-0.4985114202039533
 10
-0.0285533905932735
 20
-0.4988728996244386
 10
-0.0235533905932735
 20
-0.4991840380917923
 10
-0.0185533905932735
 20
-0.49944492968851
 10
-0.0135533905932735
 20
-0.4996556531227215
 10
-0.0085533905932735
 20
-0.4998162718473921
 10
-0.0035533905932735
 20
-0.4999268341561182
 10
0.0014466094067265
 20
-0.499987373255857
 10
0.0064466094067265
 20
-0.4999979073168451
 10
0.0114466094067265
 20
-0.4999584394998819
 10
0.0164466094067265
 20
-0.4998689579610739
 10
0.0214466094067265
 20
-0.4997294358340547
 10
0.0264466094067265
 20
-0.4995398311896213
 10
0.0314466094067265
 20
-0.4993000869726422
 10
0.0364466094067265
 20
-0.4990101309160174
 10
0.0414466094067265
 20
-0.4986698754313855
 10
0.0464466094067265
 20
-0.498279217476192
 10
0.0514466094067265
 20
-0.4978380383966446
 10
0.0564466094067265
 20
-0.497346203745994
 10
0.0614466094067265
 20
-0.4968035630774849
 10
0.0664466094067264
 20
-0.4962099497112257
 10
0.0714466094067265
 20
-0.4955651804741228
 10
0.0764466094067265
 20
-0.4948690554119167
 10
0.0814466094067265
 20
-0.4941213574722463
 10
0.0864466094067265
 20
-0.4933218521575424
 10
0.0914466094067265
 20
-0.4924702871464235
 10
0.0964466094067265
 20
-0.4915663918821278
 10
0.1014466094067265
 20
-0.4906098771263643
 10
0.1064466094067265
 20
-0.4896004344768079
 10
0.1114466094067265
 20
-0.4885377358462822
 10
0.1164466094067265
 20
-0.4874214329014929
 10
0.1214466094067265
 20
-0.4862511564589613
 10
0.1264466094067265
 20
-0.4850265158355881
 10
0.1314466094067265
 20
-0.4837470981510305
 10
0.1364466094067265
 20
-0.482412467578809
 10
0.1414466094067265
 20
-0.4810221645427664
 10
0.1464466094067265
 20
-0.4795757048551781
 10
0.1514466094067265
 20
-0.4780725787924608
 10
0.1564466094067265
 20
-0.4765122501040308
 10
0.1614466094067265
 20
-0.4748941549494363
 10
0.1664466094067265
 20
-0.4732177007584056
 10
0.1714466094067265
 20
-0.4714822650079264
 10
0.1764466094067265
 20
-0.4696871939098801
 10
0.1814466094067266
 20
-0.4678318010021017
 10
0.1864466094067266
 20
-0.4659153656350076
 10
0.1914466094067266
 20
-0.4639371313451162
 10
0.1964466094067266
 20
-0.4618963041058764
 10
0.2014466094067266
 20
-0.4597920504451997
 10
0.2064466094067266
 20
-0.4576234954179405
 10
0.2114466094067266
 20
-0.4553897204202862
 10
0.2164466094067266
 20
-0.4530897608315588
 10
0.2214466094067266
 20
-0.45072260346729
 10
0.2264466094067266
 20
-0.4482871838255748
 10
0.2314466094067266
 20
-0.4457823831065977
 10
0.2364466094067266
 20
-0.4432070249828292
 10
0.2414466094067266
 20
-0.4405598720946596
 10
0.2464466094067266
 20
-0.4378396222431172
 10
0.2514466094067266
 20
-0.4350449042477435
 10
0.2564466094067266
 20
-0.4321742734336012
 10
0.2614466094067266
 20
-0.4292262067066663
 10
0.2664466094067266
 20
-0.4261990971714118
 10
0.2714466094067266
 20
-0.4230912482380831
 10
0.2764466094067266
 20
-0.4199008671598476
 10
0.2814466094067266
 20
-0.4166260579314797
 10
0.2864466094067266
 20
-0.4132648134712868
 10
0.2914466094067266
 20
-0.4098150069963156
 10
0.2964466094067266
 20
-0.4062743824871597
 10
0.3014466094067266
 20
-0.4026405441224911
 10
0.3064466094067266
 20
-0.3989109445442534
 10
0.3114466094067266
 20
-0.3950828717916294
 10
0.3164466094067266
 20
-0.391153434714632
 10
0.3214466094067266
 20
-0.3871195466454601
 10
0.3264466094067267
 20
-0.3829779070663467
 10
0.3314466094067267
 20
-0.3787249809648844
 10
0.3364466094067267
 20
-0.3743569755097196
 10
0.3414466094067267
 20
-0.3698698136084067
 10
0.3464466094067267
 20
-0.3652591038217257
 10
0.3514466094067267
 20
-0.3605201060004601
 10
0.3564466094067267
 20
-0.3556476918757041
 10
0.3614466094067267
 20
-0.3506362996645505
 10
0.3664466094067267
 20
-0.34547988153926
 10
0.3714466094067267
 20
-0.3401718425359658
 10
0.3764466094067267
 20
-0.334704969129899
 10
0.3814466094067267
 20
-0.3290713452523318
 10
0.3864466094067267
 20
-0.3232622529342269
 10
0.3914466094067267
 20
-0.3172680539828188
 10
0.3964466094067267
 20
-0.3110780480586465
 10
0.4014466094067267
 20
-0.304680301118911
 10
0.4064466094067267
 20
-0.2980614362775617
 10
0.4114466094067267
 20
-0.291206376478565
 10
0.4164466094067267
 20
-0.2840980246459106
 10
0.4214466094067267
 20
-0.276716861635935
 10
0.4264466094067267
 20
-0.2690404345439063
 10
0.4314466094067267
 20
-0.2610426963649944
 10
0.4364466094067267
 20
-0.2526931404518915
 10
0.4414466094067268
 20
-0.2439556458403291
 10
0.4464466094067268
 20
-0.2347869056044327
 10
0.4514466094067268
 20
-0.2251342376211081
 10
0.4564466094067268
 20
-0.2149324518428296
 10
0.4614466094067268
 20
-0.2040992228331676
 10
0.4664466094067268
 20
-0.1925279893081412
 10
0.4714466094067268
 20
-0.1800765408735088
 10
0.4764466094067268
 20
-0.1665475742210051
 10
0.4814466094067268
 20
-0.1516529867323223
 10
0.4864466094067268
 20
-0.1349413290684758
 10
0.4914466094067268
 20
-0.1156274024472547
 10
0.4964466094067268
 20
-0.0920881648347501
 10
0.5
 20
0.0
 10
0.495
 20
0.0
 10
0.49
 20
0.0705336798983295
 10
0.485
 20
0.0994987437106621
 10
0.48
 20
0.1215524578114322
 10
0.475
 20
0.14
 10
0.47
 20
0.15612494995996
 10
0.465
 20
0.1705872210923199
 10
0.46
 20
0.1837797594948911
 10
0.455
 20
0.1959591794226544
 10
0.45
 20
0.2073041244162789
 10
0.445
 20
0.2179449471770338
 10
0.4399999999999999
 20
0.2279802623035601
 10
0.4349999999999999
 20
0.2374868417407584
 10
0.4299999999999999
 20
0.2465258607124211
 10
0.4249999999999999
 20
0.2551470164434615
 10
0.4199999999999999
 20
0.2633913438213186
 10
0.4149999999999999
 20
0.2712931993250108
 10
0.4099999999999999
 20
0.2788816953476869
 10
0.4049999999999999
 20
0.2861817604250838
 10
0.3999999999999999
 20
0.2932149382279151
 10
0.3949999999999999
 20
0.3000000000000002
 10
0.3899999999999999
 20
0.3065534211193868
 10
0.3849999999999999
 20
0.3128897569432404
 10
0.3799999999999999
 20
0.3190219428189855
 10
0.3749999999999999
 20
0.3249615361854385
 10
0.3699999999999999
 20
0.330718913883074
 10
0.3649999999999999
 20
0.3363034344160049
 10
0.3599999999999999
 20
0.3417235724968357
 10
0.3549999999999999
 20
0.3469870314579496
 10
0.3535533905932738
 20
0.3535533905932738
 97
        0
 75
     0
 76
     1
 98
        0
  0
CIRCLE
  5
127
330
125
100
AcDbEntity
  8
0
  6
Continuous
 62
     0
370
    -2
390
5F
100
AcDbCircle
 10
0.0
 20
0.0
 30
0.0
 40
0.5
  0
ENDBLK
  5
129
330
125
100
AcDbEntity
  8
0
100
AcDbBlockEnd
  0
BLOCK
  5
12E
330
12A
100
AcDbEntity
  8
0
100
AcDbBlockBegin
  2
CDWK_PTTYP38
 70
     0
 10
0.0
 20
0.0
 30
0.0
  3
CDWK_PTTYP38
  1

  0
HATCH
  5
12B
330
12A
100
AcDbEntity
  8
0
  6
Continuous
 62
     0
370
    -2
390
5F
100
AcDbHatch
 10
0.0
 20
0.0
 30
0.0
210
0.0
220
0.0
230
1.0
  2
SOLID
 70
     1
 71
     0
 91
        1
 92
        3
 72
     0
 73
     1
 93
      102
 10
0.0
 20
0.0
 10
0.0
 20
0.5
 10
0.005
 20
0.5
 10
0.01
 20
0.4999749993749688
 10
0.015
 20
0.4998999899979995
 10
0.02
 20
0.4997749493522059
 10
0.025
 20
0.4995998398718718
 10
0.03
 20
0.4993746088859545
 10
0.035
 20
0.4990991885387112
 10
0.04
 20
0.4987734956871706
 10
0.045
 20
0.4983974317750845
 10
0.05
 20
0.4979708826829135
 10
0.055
 20
0.49749371855331
 10
0.06
 20
0.4969657935914704
 10
0.065
 20
0.4963869458396343
 10
0.07
 20
0.4957569969249047
 10
0.075
 20
0.4950757517794626
 10
0.08
 20
0.4943429983321297
 10
0.085
 20
0.4935585071701227
 10
0.09
 20
0.4927220311697053
 10
0.095
 20
0.4918333050943175
 10
0.1
 20
0.4908920451586071
 10
0.105
 20
0.4898979485566356
 10
0.11
 20
0.4888506929523574
 10
0.115
 20
0.4877499359302879
 10
0.12
 20
0.4865953144040744
 10
0.125
 20
0.4853864439804639
 10
0.13
 20
0.4841229182759271
 10
0.135
 20
0.4828043081829325
 10
0.14
 20
0.4814301610825811
 10
0.145
 20
0.48
 10
0.15
 20
0.478513322698543
 10
0.1550000000000001
 20
0.4769696007084728
 10
0.1600000000000001
 20
0.4753682782853731
 10
0.1650000000000001
 20
0.4737087712930804
 10
0.1700000000000001
 20
0.4719904660054056
 10
0.1750000000000001
 20
0.4702127178203498
 10
0.1800000000000001
 20
0.4683748498798799
 10
0.1850000000000001
 20
0.466476151587624
 10
0.1900000000000001
 20
0.4645158770160606
 10
0.1950000000000001
 20
0.4624932431938871
 10
0.2000000000000001
 20
0.460407428263272
 10
0.2050000000000001
 20
0.4582575694955839
 10
0.2100000000000001
 20
0.4560427611529427
 10
0.2150000000000001
 20
0.4537620521815371
 10
0.2200000000000001
 20
0.4514144437210665
 10
0.2250000000000001
 20
0.4489988864128729
 10
0.2300000000000001
 20
0.4465142774872937
 10
0.2350000000000001
 20
0.4439594576084622
 10
0.2400000000000001
 20
0.4413332074521472
 10
0.2450000000000001
 20
0.4386342439892261
 10
0.2500000000000001
 20
0.4358612164439502
 10
0.2550000000000001
 20
0.4330127018922192
 10
0.2600000000000001
 20
0.4300872004605577
 10
0.2650000000000001
 20
0.4270831300812524
 10
0.2700000000000001
 20
0.423998820753077
 10
0.2750000000000001
 20
0.4208325082500162
 10
0.2800000000000001
 20
0.4175823272122516
 10
0.2850000000000001
 20
0.4142463035441595
 10
0.2900000000000001
 20
0.4108223460329293
 10
0.2950000000000002
 20
0.4073082370883259
 10
0.3000000000000002
 20
0.403701622488689
 10
0.3050000000000002
 20
0.3999999999999999
 10
0.3100000000000002
 20
0.3962007067131506
 10
0.3150000000000002
 20
0.3923009049186605
 10
0.3200000000000002
 20
0.3882975663070783
 10
0.3250000000000002
 20
0.3841874542459708
 10
0.3300000000000002
 20
0.3799671038392664
 10
0.3350000000000002
 20
0.3756327994198588
 10
0.3400000000000002
 20
0.3711805490593491
 10
0.3450000000000002
 20
0.366606055596467
 10
0.3500000000000002
 20
0.3619046835839512
 10
0.3550000000000002
 20
0.3570714214271423
 10
0.3600000000000002
 20
0.3521008378291649
 10
0.3650000000000002
 20
0.3469870314579492
 10
0.3700000000000002
 20
0.3417235724968353
 10
0.3750000000000002
 20
0.3363034344160045
 10
0.3800000000000002
 20
0.3307189138830736
 10
0.3850000000000002
 20
0.3249615361854382
 10
0.3900000000000002
 20
0.3190219428189851
 10
0.3950000000000002
 20
0.31288975694324
 10
0.4000000000000002
 20
0.3065534211193863
 10
0.4050000000000002
 20
0.2999999999999997
 10
0.4100000000000003
 20
0.2932149382279147
 10
0.4150000000000003
 20
0.2861817604250834
 10
0.4200000000000003
 20
0.2788816953476864
 10
0.4250000000000003
 20
0.2712931993250103
 10
0.4300000000000003
 20
0.263391343821318
 10
0.4350000000000003
 20
0.255147016443461
 10
0.4400000000000003
 20
0.2465258607124206
 10
0.4450000000000003
 20
0.2374868417407578
 10
0.4500000000000003
 20
0.2279802623035594
 10
0.4550000000000003
 20
0.2179449471770331
 10
0.4600000000000003
 20
0.2073041244162782
 10
0.4650000000000003
 20
0.1959591794226536
 10
0.4700000000000003
 20
0.1837797594948903
 10
0.4750000000000003
 20
0.170587221092319
 10
0.4800000000000003
 20
0.156124949959959
 10
0.4850000000000003
 20
0.1399999999999989
 10
0.4900000000000003
 20
0.1215524578114309
 10
0.4950000000000003
 20
0.0994987437106604
 10
0.5
 20
0.0
 97
        0
 75
     0
 76
     1
 98
        0
  0
HATCH
  5
12C
330
12A
100
AcDbEntity
  8
0
  6
Continuous
 62
     0
370
    -2
390
5F
100
AcDbHatch
 10
0.0
 20
0.0
 30
0.0
210
0.0
220
0.0
230
1.0
  2
SOLID
 70
     1
 71
     0
 91
        1
 92
        3
 72
     0
 73
     1
 93
      102
 10
0.0
 20
0.0
 10
-0.5
 20
0.0
 10
-0.495
 20
0.0
 10
-0.49
 20
-0.0705336798983295
 10
-0.485
 20
-0.0994987437106621
 10
-0.48
 20
-0.1215524578114322
 10
-0.475
 20
-0.14
 10
-0.47
 20
-0.15612494995996
 10
-0.465
 20
-0.1705872210923199
 10
-0.46
 20
-0.1837797594948911
 10
-0.455
 20
-0.1959591794226544
 10
-0.45
 20
-0.2073041244162789
 10
-0.445
 20
-0.2179449471770338
 10
-0.4399999999999999
 20
-0.2279802623035601
 10
-0.4349999999999999
 20
-0.2374868417407584
 10
-0.4299999999999999
 20
-0.2465258607124211
 10
-0.4249999999999999
 20
-0.2551470164434615
 10
-0.4199999999999999
 20
-0.2633913438213186
 10
-0.4149999999999999
 20
-0.2712931993250108
 10
-0.4099999999999999
 20
-0.2788816953476869
 10
-0.4049999999999999
 20
-0.2861817604250838
 10
-0.3999999999999999
 20
-0.2932149382279151
 10
-0.3949999999999999
 20
-0.3000000000000002
 10
-0.3899999999999999
 20
-0.3065534211193868
 10
-0.3849999999999999
 20
-0.3128897569432404
 10
-0.3799999999999999
 20
-0.3190219428189855
 10
-0.3749999999999999
 20
-0.3249615361854385
 10
-0.3699999999999999
 20
-0.330718913883074
 10
-0.3649999999999999
 20
-0.3363034344160049
 10
-0.3599999999999999
 20
-0.3417235724968357
 10
-0.3549999999999999
 20
-0.3469870314579496
 10
-0.3499999999999999
 20
-0.3521008378291652
 10
-0.3449999999999999
 20
-0.3570714214271427
 10
-0.3399999999999999
 20
-0.3619046835839516
 10
-0.3349999999999999
 20
-0.3666060555964674
 10
-0.3299999999999998
 20
-0.3711805490593494
 10
-0.3249999999999998
 20
-0.3756327994198591
 10
-0.3199999999999998
 20
-0.3799671038392667
 10
-0.3149999999999998
 20
-0.3841874542459711
 10
-0.3099999999999998
 20
-0.3882975663070786
 10
-0.3049999999999998
 20
-0.3923009049186608
 10
-0.2999999999999998
 20
-0.3962007067131507
 10
-0.2949999999999998
 20
-0.4000000000000001
 10
-0.2899999999999998
 20
-0.4037016224886891
 10
-0.2849999999999998
 20
-0.4073082370883261
 10
-0.2799999999999998
 20
-0.4108223460329296
 10
-0.2749999999999998
 20
-0.4142463035441597
 10
-0.2699999999999998
 20
-0.4175823272122518
 10
-0.2649999999999998
 20
-0.4208325082500164
 10
-0.2599999999999998
 20
-0.4239988207530773
 10
-0.2549999999999998
 20
-0.4270831300812526
 10
-0.2499999999999998
 20
-0.4300872004605579
 10
-0.2449999999999998
 20
-0.4330127018922195
 10
-0.2399999999999998
 20
-0.4358612164439503
 10
-0.2349999999999998
 20
-0.4386342439892263
 10
-0.2299999999999998
 20
-0.4413332074521473
 10
-0.2249999999999998
 20
-0.4439594576084624
 10
-0.2199999999999998
 20
-0.4465142774872939
 10
-0.2149999999999997
 20
-0.4489988864128731
 10
-0.2099999999999997
 20
-0.4514144437210667
 10
-0.2049999999999997
 20
-0.4537620521815372
 10
-0.1999999999999997
 20
-0.4560427611529429
 10
-0.1949999999999997
 20
-0.4582575694955841
 10
-0.1899999999999997
 20
-0.4604074282632722
 10
-0.1849999999999997
 20
-0.4624932431938872
 10
-0.1799999999999997
 20
-0.4645158770160608
 10
-0.1749999999999997
 20
-0.4664761515876241
 10
-0.1699999999999997
 20
-0.46837484987988
 10
-0.1649999999999997
 20
-0.47021271782035
 10
-0.1599999999999997
 20
-0.4719904660054058
 10
-0.1549999999999997
 20
-0.4737087712930805
 10
-0.1499999999999997
 20
-0.4753682782853733
 10
-0.1449999999999997
 20
-0.4769696007084729
 10
-0.1399999999999997
 20
-0.4785133226985431
 10
-0.1349999999999997
 20
-0.4800000000000001
 10
-0.1299999999999997
 20
-0.4814301610825812
 10
-0.1249999999999997
 20
-0.4828043081829325
 10
-0.1199999999999997
 20
-0.4841229182759272
 10
-0.1149999999999997
 20
-0.485386443980464
 10
-0.1099999999999997
 20
-0.4865953144040744
 10
-0.1049999999999996
 20
-0.487749935930288
 10
-0.0999999999999996
 20
-0.4888506929523574
 10
-0.0949999999999996
 20
-0.4898979485566357
 10
-0.0899999999999996
 20
-0.4908920451586072
 10
-0.0849999999999996
 20
-0.4918333050943176
 10
-0.0799999999999996
 20
-0.4927220311697053
 10
-0.0749999999999996
 20
-0.4935585071701227
 10
-0.0699999999999996
 20
-0.4943429983321298
 10
-0.0649999999999996
 20
-0.4950757517794626
 10
-0.0599999999999996
 20
-0.4957569969249048
 10
-0.0549999999999996
 20
-0.4963869458396343
 10
-0.0499999999999996
 20
-0.4969657935914705
 10
-0.0449999999999996
 20
-0.49749371855331
 10
-0.0399999999999996
 20
-0.4979708826829135
 10
-0.0349999999999996
 20
-0.4983974317750846
 10
-0.0299999999999996
 20
-0.4987734956871706
 10
-0.0249999999999996
 20
-0.4990991885387112
 10
-0.0199999999999996
 20
-0.4993746088859545
 10
-0.0149999999999996
 20
-0.4995998398718719
 10
-0.0099999999999996
 20
-0.499774949352206
 10
-0.0049999999999996
 20
-0.4998999899979995
 10
0.0
 20
-0.5
 97
        0
 75
     0
 76
     1
 98
        0
  0
CIRCLE
  5
12D
330
12A
100
AcDbEntity
  8
0
  6
Continuous
 62
     0
370
    -2
390
5F
100
AcDbCircle
 10
0.0
 20
0.0
 30
0.0
 40
0.5
  0
ENDBLK
  5
12F
330
12A
100
AcDbEntity
  8
0
100
AcDbBlockEnd
  0
BLOCK
  5
138
330
130
100
AcDbEntity
  8
0
100
AcDbBlockBegin
  2
CDWK_PTTYP41
 70
     0
 10
0.0
 20
0.0
 30
0.0
  3
CDWK_PTTYP41
  1

  0
LINE
  5
131
330
130
100
AcDbEntity
  8
0
  6
Continuous
 62
     0
370
    -2
390
5F
100
AcDbLine
 10
-0.5
 20
0.5
 30
0.0
 11
0.5
 21
0.5
 31
0.0
  0
LINE
  5
132
330
130
100
AcDbEntity
  8
0
  6
Continuous
 62
     0
370
    -2
390
5F
100
AcDbLine
 10
0.5
 20
0.5
 30
0.0
 11
0.5
 21
-0.5
 31
0.0
  0
LINE
  5
133
330
130
100
AcDbEntity
  8
0
  6
Continuous
 62
     0
370
    -2
390
5F
100
AcDbLine
 10
0.5
 20
-0.5
 30
0.0
 11
-0.5
 21
-0.5
 31
0.0
  0
LINE
  5
134
330
130
100
AcDbEntity
  8
0
  6
Continuous
 62
     0
370
    -2
390
5F
100
AcDbLine
 10
-0.5
 20
-0.5
 30
0.0
 11
-0.5
 21
0.5
 31
0.0
  0
LINE
  5
135
330
130
100
AcDbEntity
  8
0
  6
Continuous
 62
     0
370
    -2
390
5F
100
AcDbLine
 10
-0.375
 20
0.25
 30
0.0
 11
0.375
 21
0.25
 31
0.0
  0
LINE
  5
136
330
130
100
AcDbEntity
  8
0
  6
Continuous
 62
     0
370
    -2
390
5F
100
AcDbLine
 10
-0.375
 20
0.0
 30
0.0
 11
0.375
 21
0.0
 31
0.0
  0
LINE
  5
137
330
130
100
AcDbEntity
  8
0
  6
Continuous
 62
     0
370
    -2
390
5F
100
AcDbLine
 10
-0.375
 20
-0.25
 30
0.0
 11
0.375
 21
-0.25
 31
0.0
  0
ENDBLK
  5
139
330
130
100
AcDbEntity
  8
0
100
AcDbBlockEnd
  0
BLOCK
  5
141
330
13A
100
AcDbEntity
  8
0
100
AcDbBlockBegin
  2
CDWK_PTTYP42
 70
     0
 10
0.0
 20
0.0
 30
0.0
  3
CDWK_PTTYP42
  1

  0
LINE
  5
13B
330
13A
100
AcDbEntity
  8
0
  6
Continuous
 62
     0
370
    -2
390
5F
100
AcDbLine
 10
-0.5
 20
0.5
 30
0.0
 11
0.5
 21
0.5
 31
0.0
  0
LINE
  5
13C
330
13A
100
AcDbEntity
  8
0
  6
Continuous
 62
     0
370
    -2
390
5F
100
AcDbLine
 10
0.5
 20
0.5
 30
0.0
 11
0.5
 21
-0.5
 31
0.0
  0
LINE
  5
13D
330
13A
100
AcDbEntity
  8
0
  6
Continuous
 62
     0
370
    -2
390
5F
100
AcDbLine
 10
0.5
 20
-0.5
 30
0.0
 11
-0.5
 21
-0.5
 31
0.0
  0
LINE
  5
13E
330
13A
100
AcDbEntity
  8
0
  6
Continuous
 62
     0
370
    -2
390
5F
100
AcDbLine
 10
-0.5
 20
-0.5
 30
0.0
 11
-0.5
 21
0.5
 31
0.0
  0
LINE
  5
13F
330
13A
100
AcDbEntity
  8
0
  6
Continuous
 62
     0
370
    -2
390
5F
100
AcDbLine
 10
-0.375
 20
0.125
 30
0.0
 11
0.375
 21
0.125
 31
0.0
  0
LINE
  5
140
330
13A
100
AcDbEntity
  8
0
  6
Continuous
 62
     0
370
    -2
390
5F
100
AcDbLine
 10
-0.375
 20
-0.125
 30
0.0
 11
0.375
 21
-0.125
 31
0.0
  0
ENDBLK
  5
142
330
13A
100
AcDbEntity
  8
0
100
AcDbBlockEnd
  0
BLOCK
  5
147
330
143
100
AcDbEntity
  8
0
100
AcDbBlockBegin
  2
CDWK_PTTYP43
 70
     0
 10
0.0
 20
0.0
 30
0.0
  3
CDWK_PTTYP43
  1

  0
CIRCLE
  5
144
330
143
100
AcDbEntity
  8
0
  6
Continuous
 62
     0
370
    -2
390
5F
100
AcDbCircle
 10
0.0
 20
0.0
 30
0.0
 40
0.5
  0
LINE
  5
145
330
143
100
AcDbEntity
  8
0
  6
Continuous
 62
     0
370
    -2
390
5F
100
AcDbLine
 10
-0.375
 20
0.166
 30
0.0
 11
0.375
 21
0.166
 31
0.0
  0
LINE
  5
146
330
143
100
AcDbEntity
  8
0
  6
Continuous
 62
     0
370
    -2
390
5F
100
AcDbLine
 10
-0.375
 20
-0.166
 30
0.0
 11
0.375
 21
-0.166
 31
0.0
  0
ENDBLK
  5
148
330
143
100
AcDbEntity
  8
0
100
AcDbBlockEnd
  0
BLOCK
  5
150
330
149
100
AcDbEntity
  8
0
100
AcDbBlockBegin
  2
CDWK_PTTYP44
 70
     0
 10
0.0
 20
0.0
 30
0.0
  3
CDWK_PTTYP44
  1

  0
CIRCLE
  5
14A
330
149
100
AcDbEntity
  8
0
  6
Continuous
 62
     0
370
    -2
390
5F
100
AcDbCircle
 10
0.0
 20
0.0
 30
0.0
 40
0.5
  0
LINE
  5
14B
330
149
100
AcDbEntity
  8
0
  6
Continuous
 62
     0
370
    -2
390
5F
100
AcDbLine
 10
-0.375
 20
0.333
 30
0.0
 11
0.375
 21
0.333
 31
0.0
  0
LINE
  5
14C
330
149
100
AcDbEntity
  8
0
  6
Continuous
 62
     0
370
    -2
390
5F
100
AcDbLine
 10
-0.375
 20
0.166
 30
0.0
 11
0.375
 21
0.166
 31
0.0
  0
LINE
  5
14D
330
149
100
AcDbEntity
  8
0
  6
Continuous
 62
     0
370
    -2
390
5F
100
AcDbLine
 10
-0.375
 20
0.0
 30
0.0
 11
0.375
 21
0.0
 31
0.0
  0
LINE
  5
14E
330
149
100
AcDbEntity
  8
0
  6
Continuous
 62
     0
370
    -2
390
5F
100
AcDbLine
 10
-0.375
 20
-0.166
 30
0.0
 11
0.375
 21
-0.166
 31
0.0
  0
LINE
  5
14F
330
149
100
AcDbEntity
  8
0
  6
Continuous
 62
     0
370
    -2
390
5F
100
AcDbLine
 10
-0.375
 20
-0.333
 30
0.0
 11
0.375
 21
-0.333
 31
0.0
  0
ENDBLK
  5
151
330
149
100
AcDbEntity
  8
0
100
AcDbBlockEnd
  0
BLOCK
  5
155
330
152
100
AcDbEntity
  8
0
100
AcDbBlockBegin
  2
CDWK_PTTYP45
 70
     0
 10
0.0
 20
0.0
 30
0.0
  3
CDWK_PTTYP45
  1

  0
ELLIPSE
  5
153
330
152
100
AcDbEntity
  8
0
  6
Continuous
 62
     0
370
    -2
390
5F
100
AcDbEllipse
 10
0.0
 20
0.0
 30
0.0
 11
0.5
 21
0.0
 31
0.0
210
0.0
220
0.0
230
1.0
 40
0.82
 41
0.0
 42
6.283185307179586
  0
CIRCLE
  5
154
330
152
100
AcDbEntity
  8
0
  6
Continuous
 62
     0
370
    -2
390
5F
100
AcDbCircle
 10
-0.235
 20
0.0
 30
0.0
 40
0.26
  0
ENDBLK
  5
156
330
152
100
AcDbEntity
  8
0
100
AcDbBlockEnd
  0
BLOCK
  5
15A
330
157
100
AcDbEntity
  8
0
100
AcDbBlockBegin
  2
CDWK_PTTYP46
 70
     0
 10
0.0
 20
0.0
 30
0.0
  3
CDWK_PTTYP46
  1

  0
ELLIPSE
  5
158
330
157
100
AcDbEntity
  8
0
  6
Continuous
 62
     0
370
    -2
390
5F
100
AcDbEllipse
 10
0.0
 20
0.0
 30
0.0
 11
0.5
 21
0.0
 31
0.0
210
0.0
220
0.0
230
1.0
 40
0.82
 41
0.0
 42
6.283185307179586
  0
CIRCLE
  5
159
330
157
100
AcDbEntity
  8
0
  6
Continuous
 62
     0
370
    -2
390
5F
100
AcDbCircle
 10
0.0
 20
0.15
 30
0.0
 40
0.26
  0
ENDBLK
  5
15B
330
157
100
AcDbEntity
  8
0
100
AcDbBlockEnd
  0
BLOCK
  5
162
330
15C
100
AcDbEntity
  8
0
100
AcDbBlockBegin
  2
CDWK_PTTYP47
 70
     0
 10
0.0
 20
0.0
 30
0.0
  3
CDWK_PTTYP47
  1

  0
LINE
  5
15D
330
15C
100
AcDbEntity
  8
0
  6
Continuous
 62
     0
370
    -2
390
5F
100
AcDbLine
 10
-0.5
 20
0.166
 30
0.0
 11
0.5
 21
0.166
 31
0.0
  0
LINE
  5
15E
330
15C
100
AcDbEntity
  8
0
  6
Continuous
 62
     0
370
    -2
390
5F
100
AcDbLine
 10
0.5
 20
0.166
 30
0.0
 11
0.5
 21
-0.166
 31
0.0
  0
LINE
  5
15F
330
15C
100
AcDbEntity
  8
0
  6
Continuous
 62
     0
370
    -2
390
5F
100
AcDbLine
 10
0.5
 20
-0.166
 30
0.0
 11
-0.5
 21
-0.166
 31
0.0
  0
LINE
  5
160
330
15C
100
AcDbEntity
  8
0
  6
Continuous
 62
     0
370
    -2
390
5F
100
AcDbLine
 10
-0.5
 20
-0.166
 30
0.0
 11
-0.5
 21
0.166
 31
0.0
  0
CIRCLE
  5
161
330
15C
100
AcDbEntity
  8
0
  6
Continuous
 62
     0
370
    -2
390
5F
100
AcDbCircle
 10
0.0
 20
-0.313
 30
0.0
 40
0.4
  0
ENDBLK
  5
163
330
15C
100
AcDbEntity
  8
0
100
AcDbBlockEnd
  0
BLOCK
  5
168
330
165
100
AcDbEntity
  8
0
100
AcDbBlockBegin
  2
CDWK_PTTYP48
 70
     0
 10
0.0
 20
0.0
 30
0.0
  3
CDWK_PTTYP48
  1

  0
CIRCLE
  5
166
330
165
100
AcDbEntity
  8
0
  6
CADWORK_3
 62
     0
 48
0.1
370
    -2
390
5F
100
AcDbCircle
 10
0.0
 20
0.0
 30
0.0
 40
0.5
  0
CIRCLE
  5
167
330
165
100
AcDbEntity
  8
0
  6
Continuous
 62
     0
370
    -2
390
5F
100
AcDbCircle
 10
0.0
 20
0.0
 30
0.0
 40
0.25
  0
ENDBLK
  5
169
330
165
100
AcDbEntity
  8
0
100
AcDbBlockEnd
  0
BLOCK
  5
16F
330
16A
100
AcDbEntity
  8
0
100
AcDbBlockBegin
  2
CDWK_PTTYP49
 70
     0
 10
0.0
 20
0.0
 30
0.0
  3
CDWK_PTTYP49
  1

  0
LINE
  5
16B
330
16A
100
AcDbEntity
  8
0
  6
Continuous
 62
     0
370
    -2
390
5F
100
AcDbLine
 10
-0.5
 20
0.166
 30
0.0
 11
0.5
 21
0.166
 31
0.0
  0
LINE
  5
16C
330
16A
100
AcDbEntity
  8
0
  6
Continuous
 62
     0
370
    -2
390
5F
100
AcDbLine
 10
0.5
 20
0.166
 30
0.0
 11
0.5
 21
-0.166
 31
0.0
  0
LINE
  5
16D
330
16A
100
AcDbEntity
  8
0
  6
Continuous
 62
     0
370
    -2
390
5F
100
AcDbLine
 10
0.5
 20
-0.166
 30
0.0
 11
-0.5
 21
-0.166
 31
0.0
  0
LINE
  5
16E
330
16A
100
AcDbEntity
  8
0
  6
Continuous
 62
     0
370
    -2
390
5F
100
AcDbLine
 10
-0.5
 20
-0.166
 30
0.0
 11
-0.5
 21
0.166
 31
0.0
  0
ENDBLK
  5
170
330
16A
100
AcDbEntity
  8
0
100
AcDbBlockEnd
  0
BLOCK
  5
179
330
171
100
AcDbEntity
  8
0
100
AcDbBlockBegin
  2
CDWK_PTTYP50
 70
     0
 10
0.0
 20
0.0
 30
0.0
  3
CDWK_PTTYP50
  1

  0
LINE
  5
172
330
171
100
AcDbEntity
  8
0
  6
Continuous
 62
     0
370
    -2
390
5F
100
AcDbLine
 10
-0.5
 20
0.166
 30
0.0
 11
0.5
 21
0.166
 31
0.0
  0
LINE
  5
173
330
171
100
AcDbEntity
  8
0
  6
Continuous
 62
     0
370
    -2
390
5F
100
AcDbLine
 10
0.5
 20
0.166
 30
0.0
 11
0.5
 21
-0.166
 31
0.0
  0
LINE
  5
174
330
171
100
AcDbEntity
  8
0
  6
Continuous
 62
     0
370
    -2
390
5F
100
AcDbLine
 10
0.5
 20
-0.166
 30
0.0
 11
-0.5
 21
-0.166
 31
0.0
  0
LINE
  5
175
330
171
100
AcDbEntity
  8
0
  6
Continuous
 62
     0
370
    -2
390
5F
100
AcDbLine
 10
-0.5
 20
-0.166
 30
0.0
 11
-0.5
 21
0.166
 31
0.0
  0
LINE
  5
176
330
171
100
AcDbEntity
  8
0
  6
Continuous
 62
     0
370
    -2
390
5F
100
AcDbLine
 10
-0.25
 20
-0.166
 30
0.0
 11
-0.25
 21
0.166
 31
0.0
  0
LINE
  5
177
330
171
100
AcDbEntity
  8
0
  6
Continuous
 62
     0
370
    -2
390
5F
100
AcDbLine
 10
0.0
 20
-0.166
 30
0.0
 11
0.0
 21
0.166
 31
0.0
  0
LINE
  5
178
330
171
100
AcDbEntity
  8
0
  6
Continuous
 62
     0
370
    -2
390
5F
100
AcDbLine
 10
0.25
 20
-0.166
 30
0.0
 11
0.25
 21
0.166
 31
0.0
  0
ENDBLK
  5
17A
330
171
100
AcDbEntity
  8
0
100
AcDbBlockEnd
  0
BLOCK
  5
17E
330
17B
100
AcDbEntity
  8
0
100
AcDbBlockBegin
  2
CDWK_PTTYP51
 70
     0
 10
0.0
 20
0.0
 30
0.0
  3
CDWK_PTTYP51
  1

  0
SPLINE
  5
17C
330
17B
100
AcDbEntity
  8
0
  6
Continuous
 62
     0
370
    -2
390
5F
100
AcDbSpline
210
0.0
220
0.0
230
1.0
 70
  1064
 71
     3
 72
    12
 73
     8
 74
     6
 42
0.0000000001
 43
0.0000000001
 44
0.0000000001
 40
0.0
 40
0.0
 40
0.0
 40
0.0
 40
0.1690118339052032
 40
0.5175774661755118
 40
0.8011704844252565
 40
0.9154070810132151
 40
0.975822310881188
 40
0.975822310881188
 40
0.975822310881188
 40
0.975822310881188
 10
-0.5
 20
-0.077
 30
0.0
 10
-0.443824324006723
 20
-0.0900581618560981
 30
0.0
 10
-0.2717933876546281
 20
-0.1300471387828842
 30
0.0
 10
-0.0276699186086479
 20
-0.0006977790990417
 30
0.0
 10
0.2303349729129116
 20
0.0817803270207037
 30
0.0
 10
0.3686157174766292
 20
0.0066250198607167
 30
0.0
 10
0.4216533294581816
 20
-0.0168719667726145
 30
0.0
 10
0.44
 20
-0.025
 30
0.0
 11
-0.5
 21
-0.077
 31
0.0
 11
-0.333
 21
-0.103
 31
0.0
 11
0.0
 21
0.0
 31
0.0
 11
0.28
 21
0.045
 31
0.0
 11
0.385
 21
0.0
 31
0.0
 11
0.44
 21
-0.025
 31
0.0
  0
HATCH
  5
17D
330
17B
100
AcDbEntity
  8
0
  6
Continuous
 62
     0
370
    -2
390
5F
100
AcDbHatch
 10
0.0
 20
0.0
 30
0.0
210
0.0
220
0.0
230
1.0
  2
SOLID
 70
     1
 71
     0
 91
        1
 92
        3
 72
     0
 73
     1
 93
        3
 10
0.365
 20
-0.05
 10
0.5
 20
-0.042
 10
0.395
 20
0.045
 97
        0
 75
     0
 76
     1
 98
        0
  0
ENDBLK
  5
17F
330
17B
100
AcDbEntity
  8
0
100
AcDbBlockEnd
  0
BLOCK
  5
184
330
180
100
AcDbEntity
  8
0
100
AcDbBlockBegin
  2
CDWK_PTTYP52
 70
     0
 10
0.0
 20
0.0
 30
0.0
  3
CDWK_PTTYP52
  1

  0
LINE
  5
181
330
180
100
AcDbEntity
  8
0
  6
Continuous
 62
     0
370
    -2
390
5F
100
AcDbLine
 10
-0.5
 20
-0.289
 30
0.0
 11
0.5
 21
-0.289
 31
0.0
  0
LINE
  5
182
330
180
100
AcDbEntity
  8
0
  6
Continuous
 62
     0
370
    -2
390
5F
100
AcDbLine
 10
0.5
 20
-0.289
 30
0.0
 11
0.0
 21
0.577
 31
0.0
  0
LINE
  5
183
330
180
100
AcDbEntity
  8
0
  6
Continuous
 62
     0
370
    -2
390
5F
100
AcDbLine
 10
0.0
 20
0.577
 30
0.0
 11
-0.5
 21
-0.289
 31
0.0
  0
ENDBLK
  5
185
330
180
100
AcDbEntity
  8
0
100
AcDbBlockEnd
  0
BLOCK
  5
18B
330
186
100
AcDbEntity
  8
0
100
AcDbBlockBegin
  2
cw-dimension-symbol1
 70
     0
 10
0.0
 20
0.0
 30
0.0
  3
cw-dimension-symbol1
  1

  0
LINE
  5
187
330
186
100
AcDbEntity
  8
0
  6
Continuous
 62
     0
370
    -2
390
5F
100
AcDbLine
 10
0.0
 20
0.0
 30
0.0
 11
-1.0
 21
0.25
 31
0.0
  0
LINE
  5
188
330
186
100
AcDbEntity
  8
0
  6
Continuous
 62
     0
370
    -2
390
5F
100
AcDbLine
 10
0.0
 20
0.0
 30
0.0
 11
-1.0
 21
-0.25
 31
0.0
  0
LINE
  5
189
330
186
100
AcDbEntity
  8
0
  6
Continuous
 62
     0
370
    -2
390
5F
100
AcDbLine
 10
-1.0
 20
0.25
 30
0.0
 11
-1.0
 21
-0.25
 31
0.0
  0
LINE
  5
18A
330
186
100
AcDbEntity
  8
0
  6
Continuous
 62
     0
370
    -2
390
5F
100
AcDbLine
 10
0.0
 20
0.0
 30
0.0
 11
-1.0
 21
0.0
 31
0.0
  0
ENDBLK
  5
18C
330
186
100
AcDbEntity
  8
0
100
AcDbBlockEnd
  0
BLOCK
  5
190
330
18D
100
AcDbEntity
  8
0
100
AcDbBlockBegin
  2
cw-dimension-symbol2
 70
     0
 10
0.0
 20
0.0
 30
0.0
  3
cw-dimension-symbol2
  1

  0
LINE
  5
18E
330
18D
100
AcDbEntity
  8
0
  6
Continuous
 62
     0
370
    -2
390
5F
100
AcDbLine
 10
-1.0
 20
0.0
 30
0.0
 11
1.0
 21
0.0
 31
0.0
  0
LINE
  5
18F
330
18D
100
AcDbEntity
  8
0
  6
Continuous
 62
     0
370
    -2
390
5F
100
AcDbLine
 10
-0.5
 20
-0.5
 30
0.0
 11
0.5
 21
0.5
 31
0.0
  0
ENDBLK
  5
191
330
18D
100
AcDbEntity
  8
0
100
AcDbBlockEnd
  0
BLOCK
  5
195
330
192
100
AcDbEntity
  8
0
100
AcDbBlockBegin
  2
cw-dimension-symbol3
 70
     0
 10
0.0
 20
0.0
 30
0.0
  3
cw-dimension-symbol3
  1

  0
LINE
  5
193
330
192
100
AcDbEntity
  8
0
  6
Continuous
 62
     0
370
    -2
390
5F
100
AcDbLine
 10
-1.0
 20
0.0
 30
0.0
 11
1.0
 21
0.0
 31
0.0
  0
CIRCLE
  5
194
330
192
100
AcDbEntity
  8
0
  6
Continuous
 62
     0
370
    -2
390
5F
100
AcDbCircle
 10
0.0
 20
0.0
 30
0.0
 40
0.25
  0
ENDBLK
  5
196
330
192
100
AcDbEntity
  8
0
100
AcDbBlockEnd
  0
BLOCK
  5
19C
330
197
100
AcDbEntity
  8
0
100
AcDbBlockBegin
  2
cw-dimension-symbol5
 70
     0
 10
0.0
 20
0.0
 30
0.0
  3
cw-dimension-symbol5
  1

  0
HATCH
  5
198
330
197
100
AcDbEntity
  8
0
  6
Continuous
 62
     0
370
    -2
390
5F
100
AcDbHatch
 10
0.0
 20
0.0
 30
0.0
210
0.0
220
0.0
230
1.0
  2
SOLID
 70
     1
 71
     0
 91
        1
 92
        3
 72
     0
 73
     1
 93
        3
 10
0.0
 20
0.0
 10
-1.0
 20
0.25
 10
-1.0
 20
-0.25
 97
        0
 75
     0
 76
     1
 98
        0
  0
LINE
  5
199
330
197
100
AcDbEntity
  8
0
  6
Continuous
 62
     0
370
    -2
390
5F
100
AcDbLine
 10
0.0
 20
0.0
 30
0.0
 11
-1.0
 21
0.25
 31
0.0
  0
LINE
  5
19A
330
197
100
AcDbEntity
  8
0
  6
Continuous
 62
     0
370
    -2
390
5F
100
AcDbLine
 10
-1.0
 20
0.25
 30
0.0
 11
-1.0
 21
-0.25
 31
0.0
  0
LINE
  5
19B
330
197
100
AcDbEntity
  8
0
  6
Continuous
 62
     0
370
    -2
390
5F
100
AcDbLine
 10
-1.0
 20
-0.25
 30
0.0
 11
0.0
 21
0.0
 31
0.0
  0
ENDBLK
  5
19D
330
197
100
AcDbEntity
  8
0
100
AcDbBlockEnd
  0
BLOCK
  5
1A2
330
19E
100
AcDbEntity
  8
0
100
AcDbBlockBegin
  2
cw-dimension-symbol6
 70
     0
 10
0.0
 20
0.0
 30
0.0
  3
cw-dimension-symbol6
  1

  0
LINE
  5
19F
330
19E
100
AcDbEntity
  8
0
  6
Continuous
 62
     0
370
    -2
390
5F
100
AcDbLine
 10
0.0
 20
0.0
 30
0.0
 11
-1.0
 21
0.25
 31
0.0
  0
LINE
  5
1A0
330
19E
100
AcDbEntity
  8
0
  6
Continuous
 62
     0
370
    -2
390
5F
100
AcDbLine
 10
0.0
 20
0.0
 30
0.0
 11
-1.0
 21
-0.25
 31
0.0
  0
LINE
  5
1A1
330
19E
100
AcDbEntity
  8
0
  6
Continuous
 62
     0
370
    -2
390
5F
100
AcDbLine
 10
0.0
 20
0.0
 30
0.0
 11
-1.0
 21
0.0
 31
0.0
  0
ENDBLK
  5
1A3
330
19E
100
AcDbEntity
  8
0
100
AcDbBlockEnd
  0
BLOCK
  5
1A8
330
1A4
100
AcDbEntity
  8
0
100
AcDbBlockBegin
  2
cw-dimension-symbol11
 70
     0
 10
0.0
 20
0.0
 30
0.0
  3
cw-dimension-symbol11
  1

  0
LINE
  5
1A5
330
1A4
100
AcDbEntity
  8
0
  6
Continuous
 62
     0
370
    -2
390
5F
100
AcDbLine
 10
-1.0
 20
1.0
 30
0.0
 11
1.0
 21
1.0
 31
0.0
  0
LINE
  5
1A6
330
1A4
100
AcDbEntity
  8
0
  6
Continuous
 62
     0
370
    -2
390
5F
100
AcDbLine
 10
0.0
 20
0.0
 30
0.0
 11
-1.0
 21
1.0
 31
0.0
  0
LINE
  5
1A7
330
1A4
100
AcDbEntity
  8
0
  6
Continuous
 62
     0
370
    -2
390
5F
100
AcDbLine
 10
0.0
 20
0.0
 30
0.0
 11
1.0
 21
1.0
 31
0.0
  0
ENDBLK
  5
1A9
330
1A4
100
AcDbEntity
  8
0
100
AcDbBlockEnd
  0
BLOCK
  5
1AE
330
1AA
100
AcDbEntity
  8
0
100
AcDbBlockBegin
  2
cw-dimension-symbol13
 70
     0
 10
0.0
 20
0.0
 30
0.0
  3
cw-dimension-symbol13
  1

  0
LINE
  5
1AB
330
1AA
100
AcDbEntity
  8
0
  6
Continuous
 62
     0
370
    -2
390
5F
100
AcDbLine
 10
-1.0
 20
-1.0
 30
0.0
 11
1.0
 21
-1.0
 31
0.0
  0
LINE
  5
1AC
330
1AA
100
AcDbEntity
  8
0
  6
Continuous
 62
     0
370
    -2
390
5F
100
AcDbLine
 10
0.0
 20
0.0
 30
0.0
 11
-1.0
 21
-1.0
 31
0.0
  0
LINE
  5
1AD
330
1AA
100
AcDbEntity
  8
0
  6
Continuous
 62
     0
370
    -2
390
5F
100
AcDbLine
 10
0.0
 20
0.0
 30
0.0
 11
1.0
 21
-1.0
 31
0.0
  0
ENDBLK
  5
1AF
330
1AA
100
AcDbEntity
  8
0
100
AcDbBlockEnd
  0
BLOCK
  5
1B5
330
1B0
100
AcDbEntity
  8
0
100
AcDbBlockBegin
  2
cw-dimension-symbol15
 70
     0
 10
0.0
 20
0.0
 30
0.0
  3
cw-dimension-symbol15
  1

  0
HATCH
  5
1B1
330
1B0
100
AcDbEntity
  8
0
  6
Continuous
 62
     0
370
    -2
390
5F
100
AcDbHatch
 10
0.0
 20
0.0
 30
0.0
210
0.0
220
0.0
230
1.0
  2
SOLID
 70
     1
 71
     0
 91
        1
 92
        3
 72
     0
 73
     1
 93
        3
 10
0.0
 20
0.0
 10
-1.0
 20
1.0
 10
1.0
 20
1.0
 97
        0
 75
     0
 76
     1
 98
        0
  0
LINE
  5
1B2
330
1B0
100
AcDbEntity
  8
0
  6
Continuous
 62
     0
370
    -2
390
5F
100
AcDbLine
 10
0.0
 20
0.0
 30
0.0
 11
-1.0
 21
1.0
 31
0.0
  0
LINE
  5
1B3
330
1B0
100
AcDbEntity
  8
0
  6
Continuous
 62
     0
370
    -2
390
5F
100
AcDbLine
 10
-1.0
 20
1.0
 30
0.0
 11
1.0
 21
1.0
 31
0.0
  0
LINE
  5
1B4
330
1B0
100
AcDbEntity
  8
0
  6
Continuous
 62
     0
370
    -2
390
5F
100
AcDbLine
 10
1.0
 20
1.0
 30
0.0
 11
0.0
 21
0.0
 31
0.0
  0
ENDBLK
  5
1B6
330
1B0
100
AcDbEntity
  8
0
100
AcDbBlockEnd
  0
BLOCK
  5
1BC
330
1B7
100
AcDbEntity
  8
0
100
AcDbBlockBegin
  2
cw-dimension-symbol16
 70
     0
 10
0.0
 20
0.0
 30
0.0
  3
cw-dimension-symbol16
  1

  0
HATCH
  5
1B8
330
1B7
100
AcDbEntity
  8
0
  6
Continuous
 62
     0
370
    -2
390
5F
100
AcDbHatch
 10
0.0
 20
0.0
 30
0.0
210
0.0
220
0.0
230
1.0
  2
SOLID
 70
     1
 71
     0
 91
        1
 92
        3
 72
     0
 73
     1
 93
        3
 10
0.0
 20
0.0
 10
-1.0
 20
-1.0
 10
1.0
 20
-1.0
 97
        0
 75
     0
 76
     1
 98
        0
  0
LINE
  5
1B9
330
1B7
100
AcDbEntity
  8
0
  6
Continuous
 62
     0
370
    -2
390
5F
100
AcDbLine
 10
0.0
 20
0.0
 30
0.0
 11
-1.0
 21
-1.0
 31
0.0
  0
LINE
  5
1BA
330
1B7
100
AcDbEntity
  8
0
  6
Continuous
 62
     0
370
    -2
390
5F
100
AcDbLine
 10
-1.0
 20
-1.0
 30
0.0
 11
1.0
 21
-1.0
 31
0.0
  0
LINE
  5
1BB
330
1B7
100
AcDbEntity
  8
0
  6
Continuous
 62
     0
370
    -2
390
5F
100
AcDbLine
 10
1.0
 20
-1.0
 30
0.0
 11
0.0
 21
0.0
 31
0.0
  0
ENDBLK
  5
1BD
330
1B7
100
AcDbEntity
  8
0
100
AcDbBlockEnd
  0
BLOCK
  5
1C3
330
1BE
100
AcDbEntity
  8
0
100
AcDbBlockBegin
  2
cw-dimension-symbol17
 70
     0
 10
0.0
 20
0.0
 30
0.0
  3
cw-dimension-symbol17
  1

  0
LINE
  5
1BF
330
1BE
100
AcDbEntity
  8
0
  6
Continuous
 62
     0
370
    -2
390
5F
100
AcDbLine
 10
0.0
 20
0.0
 30
0.0
 11
1.0
 21
1.0
 31
0.0
  0
LINE
  5
1C0
330
1BE
100
AcDbEntity
  8
0
  6
Continuous
 62
     0
370
    -2
390
5F
100
AcDbLine
 10
1.0
 20
1.0
 30
0.0
 11
-1.0
 21
1.0
 31
0.0
  0
LINE
  5
1C1
330
1BE
100
AcDbEntity
  8
0
  6
Continuous
 62
     0
370
    -2
390
5F
100
AcDbLine
 10
-1.0
 20
1.0
 30
0.0
 11
0.0
 21
0.0
 31
0.0
  0
HATCH
  5
1C2
330
1BE
100
AcDbEntity
  8
0
  6
Continuous
 62
     0
370
    -2
390
5F
100
AcDbHatch
 10
0.0
 20
0.0
 30
0.0
210
0.0
220
0.0
230
1.0
  2
SOLID
 70
     1
 71
     0
 91
        1
 92
        3
 72
     0
 73
     1
 93
        3
 10
0.0
 20
0.0
 10
-1.0
 20
1.0
 10
0.0
 20
1.0
 97
        0
 75
     0
 76
     1
 98
        0
  0
ENDBLK
  5
1C4
330
1BE
100
AcDbEntity
  8
0
100
AcDbBlockEnd
  0
BLOCK
  5
1CA
330
1C5
100
AcDbEntity
  8
0
100
AcDbBlockBegin
  2
cw-dimension-symbol18
 70
     0
 10
0.0
 20
0.0
 30
0.0
  3
cw-dimension-symbol18
  1

  0
LINE
  5
1C6
330
1C5
100
AcDbEntity
  8
0
  6
Continuous
 62
     0
370
    -2
390
5F
100
AcDbLine
 10
0.0
 20
0.0
 30
0.0
 11
1.0
 21
-1.0
 31
0.0
  0
LINE
  5
1C7
330
1C5
100
AcDbEntity
  8
0
  6
Continuous
 62
     0
370
    -2
390
5F
100
AcDbLine
 10
1.0
 20
-1.0
 30
0.0
 11
-1.0
 21
-1.0
 31
0.0
  0
LINE
  5
1C8
330
1C5
100
AcDbEntity
  8
0
  6
Continuous
 62
     0
370
    -2
390
5F
100
AcDbLine
 10
-1.0
 20
-1.0
 30
0.0
 11
0.0
 21
0.0
 31
0.0
  0
HATCH
  5
1C9
330
1C5
100
AcDbEntity
  8
0
  6
Continuous
 62
     0
370
    -2
390
5F
100
AcDbHatch
 10
0.0
 20
0.0
 30
0.0
210
0.0
220
0.0
230
1.0
  2
SOLID
 70
     1
 71
     0
 91
        1
 92
        3
 72
     0
 73
     1
 93
        3
 10
0.0
 20
0.0
 10
-1.0
 20
-1.0
 10
0.0
 20
-1.0
 97
        0
 75
     0
 76
     1
 98
        0
  0
ENDBLK
  5
1CB
330
1C5
100
AcDbEntity
  8
0
100
AcDbBlockEnd
  0
BLOCK
  5
1CD
330
1CC
100
AcDbEntity
  8
0
100
AcDbBlockBegin
  2
cw-dimension-symbol19
 70
     0
 10
0.0
 20
0.0
 30
0.0
  3
cw-dimension-symbol19
  1

  0
ENDBLK
  5
1CE
330
1CC
100
AcDbEntity
  8
0
100
AcDbBlockEnd
  0
BLOCK
  5
1D4
330
1CF
100
AcDbEntity
  8
0
100
AcDbBlockBegin
  2
cw-dimension-symbol20
 70
     0
 10
0.0
 20
0.0
 30
0.0
  3
cw-dimension-symbol20
  1

  0
LINE
  5
1D0
330
1CF
100
AcDbEntity
  8
0
  6
Continuous
 62
     0
370
    -2
390
5F
100
AcDbLine
 10
0.0
 20
0.0
 30
0.0
 11
0.0
 21
2.0
 31
0.0
  0
LINE
  5
1D1
330
1CF
100
AcDbEntity
  8
0
  6
Continuous
 62
     0
370
    -2
390
5F
100
AcDbLine
 10
0.0
 20
0.0
 30
0.0
 11
-1.0
 21
0.33
 31
0.0
  0
LINE
  5
1D2
330
1CF
100
AcDbEntity
  8
0
  6
Continuous
 62
     0
370
    -2
390
5F
100
AcDbLine
 10
0.0
 20
0.0
 30
0.0
 11
1.0
 21
0.33
 31
0.0
  0
LINE
  5
1D3
330
1CF
100
AcDbEntity
  8
0
  6
Continuous
 62
     0
370
    -2
390
5F
100
AcDbLine
 10
0.0
 20
2.0
 30
0.0
 11
4.15
 21
2.0
 31
0.0
  0
ENDBLK
  5
1D5
330
1CF
100
AcDbEntity
  8
0
100
AcDbBlockEnd
  0
BLOCK
  5
1DB
330
1D6
100
AcDbEntity
  8
0
100
AcDbBlockBegin
  2
cw-dimension-symbol21
 70
     0
 10
0.0
 20
0.0
 30
0.0
  3
cw-dimension-symbol21
  1

  0
LINE
  5
1D7
330
1D6
100
AcDbEntity
  8
0
  6
Continuous
 62
     0
370
    -2
390
5F
100
AcDbLine
 10
0.0
 20
0.0
 30
0.0
 11
0.0
 21
-2.0
 31
0.0
  0
LINE
  5
1D8
330
1D6
100
AcDbEntity
  8
0
  6
Continuous
 62
     0
370
    -2
390
5F
100
AcDbLine
 10
0.0
 20
0.0
 30
0.0
 11
-1.0
 21
-0.33
 31
0.0
  0
LINE
  5
1D9
330
1D6
100
AcDbEntity
  8
0
  6
Continuous
 62
     0
370
    -2
390
5F
100
AcDbLine
 10
0.0
 20
0.0
 30
0.0
 11
1.0
 21
-0.33
 31
0.0
  0
LINE
  5
1DA
330
1D6
100
AcDbEntity
  8
0
  6
Continuous
 62
     0
370
    -2
390
5F
100
AcDbLine
 10
0.0
 20
-2.0
 30
0.0
 11
4.15
 21
-2.0
 31
0.0
  0
ENDBLK
  5
1DC
330
1D6
100
AcDbEntity
  8
0
100
AcDbBlockEnd
  0
BLOCK
  5
20D
330
1DD
100
AcDbEntity
  8
0
100
AcDbBlockBegin
  2
cw-line-extremity0
 70
     0
 10
0.0
 20
0.0
 30
0.0
  3
cw-line-extremity0
  1

  0
LINE
  5
1DE
330
1DD
100
AcDbEntity
  8
0
  6
Continuous
 62
     0
370
    -2
390
5F
100
AcDbLine
 10
0.0
 20
0.0
 30
0.0
 11
10.0
 21
2.5
 31
0.0
  0
LINE
  5
1DF
330
1DD
100
AcDbEntity
  8
0
  6
Continuous
 62
     0
370
    -2
390
5F
100
AcDbLine
 10
0.0
 20
0.0
 30
0.0
 11
10.0
 21
-2.5
 31
0.0
  0
LINE
  5
1E0
330
1DD
100
AcDbEntity
  8
0
  6
Continuous
 62
     0
370
    -2
390
5F
100
AcDbLine
 10
10.0
 20
2.5
 30
0.0
 11
10.0
 21
-2.5
 31
0.0
  0
ENDBLK
  5
20E
330
1DD
100
AcDbEntity
  8
0
100
AcDbBlockEnd
  0
BLOCK
  5
20B
330
1E1
100
AcDbEntity
  8
0
100
AcDbBlockBegin
  2
cw-line-extremity2
 70
     0
 10
0.0
 20
0.0
 30
0.0
  3
cw-line-extremity2
  1

  0
HATCH
  5
1E2
330
1E1
100
AcDbEntity
  8
0
  6
Continuous
 62
     0
370
     0
390
5F
100
AcDbHatch
 10
0.0
 20
0.0
 30
0.0
210
0.0
220
0.0
230
1.0
  2
SOLID
 70
     1
 71
     0
 91
        1
 92
        3
 72
     0
 73
     1
 93
        3
 10
0.0
 20
0.0
 10
10.0
 20
2.5
 10
10.0
 20
-2.5
 97
        0
 75
     0
 76
     1
 98
        0
  0
LINE
  5
1E3
330
1E1
100
AcDbEntity
  8
0
  6
Continuous
 62
     0
370
    -2
390
5F
100
AcDbLine
 10
0.0
 20
0.0
 30
0.0
 11
10.0
 21
2.5
 31
0.0
  0
LINE
  5
1E4
330
1E1
100
AcDbEntity
  8
0
  6
Continuous
 62
     0
370
    -2
390
5F
100
AcDbLine
 10
10.0
 20
2.5
 30
0.0
 11
10.0
 21
-2.5
 31
0.0
  0
LINE
  5
1E5
330
1E1
100
AcDbEntity
  8
0
  6
Continuous
 62
     0
370
    -2
390
5F
100
AcDbLine
 10
10.0
 20
-2.5
 30
0.0
 11
0.0
 21
0.0
 31
0.0
  0
ENDBLK
  5
20C
330
1E1
100
AcDbEntity
  8
0
100
AcDbBlockEnd
  0
BLOCK
  5
209
330
1E6
100
AcDbEntity
  8
0
100
AcDbBlockBegin
  2
cw-line-extremity3
 70
     0
 10
0.0
 20
0.0
 30
0.0
  3
cw-line-extremity3
  1

  0
HATCH
  5
1E7
330
1E6
100
AcDbEntity
  8
0
  6
Continuous
 62
     0
370
     0
390
5F
100
AcDbHatch
 10
0.0
 20
0.0
 30
0.0
210
0.0
220
0.0
230
1.0
  2
SOLID
 70
     1
 71
     0
 91
        1
 92
        3
 72
     0
 73
     1
 93
        3
 10
0.0
 20
0.0
 10
10.0
 20
2.5
 10
10.0
 20
-2.5
 97
        0
 75
     0
 76
     1
 98
        0
  0
LINE
  5
1E8
330
1E6
100
AcDbEntity
  8
0
  6
Continuous
 62
     0
370
    -2
390
5F
100
AcDbLine
 10
0.0
 20
0.0
 30
0.0
 11
10.0
 21
2.5
 31
0.0
  0
LINE
  5
1E9
330
1E6
100
AcDbEntity
  8
0
  6
Continuous
 62
     0
370
    -2
390
5F
100
AcDbLine
 10
10.0
 20
2.5
 30
0.0
 11
10.0
 21
-2.5
 31
0.0
  0
LINE
  5
1EA
330
1E6
100
AcDbEntity
  8
0
  6
Continuous
 62
     0
370
    -2
390
5F
100
AcDbLine
 10
10.0
 20
-2.5
 30
0.0
 11
0.0
 21
0.0
 31
0.0
  0
ENDBLK
  5
20A
330
1E6
100
AcDbEntity
  8
0
100
AcDbBlockEnd
  0
BLOCK
  5
207
330
1EB
100
AcDbEntity
  8
0
100
AcDbBlockBegin
  2
cw-line-extremity301
 70
     0
 10
0.0
 20
0.0
 30
0.0
  3
cw-line-extremity301
  1

  0
LINE
  5
1EC
330
1EB
100
AcDbEntity
  8
0
  6
Continuous
 62
     0
370
    -2
390
5F
100
AcDbLine
 10
0.0
 20
6.66665
 30
0.0
 11
0.0
 21
-6.66665
 31
0.0
  0
ENDBLK
  5
208
330
1EB
100
AcDbEntity
  8
0
100
AcDbBlockEnd
  0
BLOCK
  5
205
330
1ED
100
AcDbEntity
  8
0
100
AcDbBlockBegin
  2
cw-line-extremity4
 70
     0
 10
0.0
 20
0.0
 30
0.0
  3
cw-line-extremity4
  1

  0
HATCH
  5
1EE
330
1ED
100
AcDbEntity
  8
0
  6
Continuous
 62
     0
370
     5
390
5F
100
AcDbHatch
 10
0.0
 20
0.0
 30
0.0
210
0.0
220
0.0
230
1.0
  2
SOLID
 70
     1
 71
     0
 91
        1
 92
        1
 93
        1
 72
     2
 10
0.0
 20
0.0
 40
2.5
 50
0.0
 51
360.0
 73
     1
 97
        0
 75
     0
 76
     1
 98
        0
  0
ENDBLK
  5
206
330
1ED
100
AcDbEntity
  8
0
100
AcDbBlockEnd
  0
BLOCK
  5
203
330
1EF
100
AcDbEntity
  8
0
100
AcDbBlockBegin
  2
cw-line-extremity5
 70
     0
 10
0.0
 20
0.0
 30
0.0
  3
cw-line-extremity5
  1

  0
LINE
  5
1F0
330
1EF
100
AcDbEntity
  8
0
  6
Continuous
 62
     0
370
    -2
390
5F
100
AcDbLine
 10
0.0
 20
0.0
 30
0.0
 11
-2.5
 21
0.0
 31
0.0
  0
ENDBLK
  5
204
330
1EF
100
AcDbEntity
  8
0
100
AcDbBlockEnd
  0
BLOCK
  5
201
330
1F1
100
AcDbEntity
  8
0
100
AcDbBlockBegin
  2
cw-line-extremity6
 70
     0
 10
0.0
 20
0.0
 30
0.0
  3
cw-line-extremity6
  1

  0
LINE
  5
1F2
330
1F1
100
AcDbEntity
  8
0
  6
Continuous
 62
     0
370
    18
390
5F
100
AcDbLine
 10
0.0
 20
2.5
 30
0.0
 11
0.0
 21
-2.5
 31
0.0
  0
ENDBLK
  5
202
330
1F1
100
AcDbEntity
  8
0
100
AcDbBlockEnd
  0
BLOCK
  5
1FF
330
1F3
100
AcDbEntity
  8
0
100
AcDbBlockBegin
  2
cw-line-extremity9
 70
     0
 10
0.0
 20
0.0
 30
0.0
  3
cw-line-extremity9
  1

  0
LINE
  5
1F4
330
1F3
100
AcDbEntity
  8
0
  6
Continuous
 62
     0
370
    18
390
5F
100
AcDbLine
 10
-2.5
 20
-2.5
 30
0.0
 11
2.5
 21
2.5
 31
0.0
  0
ENDBLK
  5
200
330
1F3
100
AcDbEntity
  8
0
100
AcDbBlockEnd
  0
BLOCK
  5
1FD
330
1F5
100
AcDbEntity
  8
0
100
AcDbBlockBegin
  2
cw-line-extremity10
 70
     0
 10
0.0
 20
0.0
 30
0.0
  3
cw-line-extremity10
  1

  0
CIRCLE
  5
1F6
330
1F5
100
AcDbEntity
  8
0
  6
Continuous
 62
     0
370
    -2
390
5F
100
AcDbCircle
 10
0.0
 20
0.0
 30
0.0
 40
2.5
  0
ENDBLK
  5
1FE
330
1F5
100
AcDbEntity
  8
0
100
AcDbBlockEnd
  0
BLOCK
  5
1FB
330
1F7
100
AcDbEntity
  8
0
100
AcDbBlockBegin
  2
cw-line-extremity1
 70
     0
 10
0.0
 20
0.0
 30
0.0
  3
cw-line-extremity1
  1

  0
LINE
  5
1F8
330
1F7
100
AcDbEntity
  8
0
  6
Continuous
 62
     0
370
    -2
390
5F
100
AcDbLine
 10
0.0
 20
0.0
 30
0.0
 11
0.0
 21
2.5
 31
0.0
  0
LINE
  5
1F9
330
1F7
100
AcDbEntity
  8
0
  6
Continuous
 62
     0
370
    -2
390
5F
100
AcDbLine
 10
0.0
 20
2.5
 30
0.0
 11
1.25
 21
3.75
 31
0.0
  0
LINE
  5
1FA
330
1F7
100
AcDbEntity
  8
0
  6
Continuous
 62
     0
370
    -2
390
5F
100
AcDbLine
 10
1.25
 20
3.75
 30
0.0
 11
3.75
 21
3.75
 31
0.0
  0
ENDBLK
  5
1FC
330
1F7
100
AcDbEntity
  8
0
100
AcDbBlockEnd
  0
BLOCK
  5
1C
330
1B
100
AcDbEntity
  8
0
100
AcDbBlockBegin
  2
*Paper_Space69
 70
     0
 10
0.0
 20
0.0
 30
0.0
  3
*Paper_Space69
  1

  0
ENDBLK
  5
1D
330
1B
100
AcDbEntity
  8
0
100
AcDbBlockEnd
  0
BLOCK
  5
2C5
330
2B6
100
AcDbEntity
  8
0
100
AcDbBlockBegin
  2
DIM304
 70
     0
 10
0.0
 20
0.0
 30
0.0
  3
DIM304
  1

  0
LINE
  5
2B7
330
2B6
100
AcDbEntity
  8
Ech.1_5
  6
Continuous
 62
   200
420
 11010303
370
    15
390
5F
100
AcDbLine
 10
19392.59198127763
 20
-19943.75202506913
 30
0.0
 11
19392.59198127763
 21
-19956.25202506913
 31
0.0
  0
LINE
  5
2B8
330
2B6
100
AcDbEntity
  8
Ech.1_5
  6
Continuous
 62
   200
420
 11010303
370
    15
390
5F
100
AcDbLine
 10
19392.59198127763
 20
-19951.25202506913
 30
0.0
 11
19387.59198127763
 21
-19951.25202506913
 31
0.0
  0
LINE
  5
2B9
330
2B6
100
AcDbEntity
  8
Ech.1_5
  6
Continuous
 62
   200
420
 11010303
370
    25
390
5F
100
AcDbLine
 10
19390.09198127763
 20
-19953.75202506913
 30
0.0
 11
19395.09198127763
 21
-19948.75202506913
 31
0.0
  0
LINE
  5
2BA
330
2B6
100
AcDbEntity
  8
Ech.1_5
  6
Continuous
 62
   200
420
 11010303
370
    25
390
5F
100
AcDbLine
 10
19390.14198127763
 20
-19953.75202506913
 30
0.0
 11
19395.09198127763
 21
-19948.80202506913
 31
0.0
  0
LINE
  5
2BB
330
2B6
100
AcDbEntity
  8
Ech.1_5
  6
Continuous
 62
   200
420
 11010303
370
    25
390
5F
100
AcDbLine
 10
19390.09198127763
 20
-19953.70202506913
 30
0.0
 11
19395.04198127763
 21
-19948.75202506913
 31
0.0
  0
LINE
  5
2BC
330
2B6
100
AcDbEntity
  8
Ech.1_5
  6
Continuous
 62
   200
420
 11010303
370
    25
390
5F
100
AcDbLine
 10
19390.09198127763
 20
-19953.75202506913
 30
0.0
 11
19395.09198127763
 21
-19948.80202506913
 31
0.0
  0
LINE
  5
2BD
330
2B6
100
AcDbEntity
  8
Ech.1_5
  6
Continuous
 62
   200
420
 11010303
370
    25
390
5F
100
AcDbLine
 10
19390.09198127763
 20
-19953.75202506913
 30
0.0
 11
19395.09198127763
 21
-19948.75202506913
 31
0.0
  0
LINE
  5
2BE
330
2B6
100
AcDbEntity
  8
Ech.1_5
  6
Continuous
 62
   200
420
 11010303
370
    15
390
5F
100
AcDbLine
 10
19392.59198127763
 20
-19951.25202506913
 30
0.0
 11
19407.59198127763
 21
-19951.25202506913
 31
0.0
  0
LINE
  5
2BF
330
2B6
100
AcDbEntity
  8
Ech.1_5
  6
Continuous
 62
   200
420
 11010303
370
    25
390
5F
100
AcDbLine
 10
19405.09198127763
 20
-19948.75202506913
 30
0.0
 11
19400.09198127763
 21
-19953.75202506913
 31
0.0
  0
LINE
  5
2C0
330
2B6
100
AcDbEntity
  8
Ech.1_5
  6
Continuous
 62
   200
420
 11010303
370
    25
390
5F
100
AcDbLine
 10
19405.04198127763
 20
-19948.75202506913
 30
0.0
 11
19400.09198127763
 21
-19953.70202506913
 31
0.0
  0
LINE
  5
2C1
330
2B6
100
AcDbEntity
  8
Ech.1_5
  6
Continuous
 62
   200
420
 11010303
370
    25
390
5F
100
AcDbLine
 10
19405.09198127763
 20
-19948.80202506913
 30
0.0
 11
19400.14198127763
 21
-19953.75202506913
 31
0.0
  0
LINE
  5
2C2
330
2B6
100
AcDbEntity
  8
Ech.1_5
  6
Continuous
 62
   200
420
 11010303
370
    25
390
5F
100
AcDbLine
 10
19405.09198127763
 20
-19948.75202506913
 30
0.0
 11
19400.09198127763
 21
-19953.75202506913
 31
0.0
  0
LINE
  5
2C3
330
2B6
100
AcDbEntity
  8
Ech.1_5
  6
Continuous
 62
   200
420
 11010303
370
    25
390
5F
100
AcDbLine
 10
19405.09198127763
 20
-19948.80202506913
 30
0.0
 11
19400.14198127763
 21
-19953.75202506913
 31
0.0
  0
LINE
  5
2C4
330
2B6
100
AcDbEntity
  8
Ech.1_5
  6
Continuous
 62
   200
420
 11010303
370
    15
390
5F
100
AcDbLine
 10
19402.59198127763
 20
-19943.75202506913
 30
0.0
 11
19402.59198127763
 21
-19956.25202506913
 31
0.0
  0
ENDBLK
  5
2C6
330
2B6
100
AcDbEntity
  8
0
100
AcDbBlockEnd
  0
BLOCK
  5
2D8
330
2C9
100
AcDbEntity
  8
0
100
AcDbBlockBegin
  2
DIM305
 70
     0
 10
0.0
 20
0.0
 30
0.0
  3
DIM305
  1

  0
LINE
  5
2CA
330
2C9
100
AcDbEntity
  8
Ech.1_5
  6
Continuous
 62
   200
420
 11010303
370
    15
390
5F
100
AcDbLine
 10
19407.60301240507
 20
-19913.06650552869
 30
0.0
 11
19431.40301240507
 21
-19913.06650552869
 31
0.0
  0
LINE
  5
2CB
330
2C9
100
AcDbEntity
  8
Ech.1_5
  6
Continuous
 62
   200
420
 11010303
370
    15
390
5F
100
AcDbLine
 10
19426.40301240507
 20
-19913.06650552869
 30
0.0
 11
19426.40301240507
 21
-19908.06650552869
 31
0.0
  0
LINE
  5
2CC
330
2C9
100
AcDbEntity
  8
Ech.1_5
  6
Continuous
 62
   200
420
 11010303
370
    25
390
5F
100
AcDbLine
 10
19423.90301240507
 20
-19910.56650552869
 30
0.0
 11
19428.90301240507
 21
-19915.56650552869
 31
0.0
  0
LINE
  5
2CD
330
2C9
100
AcDbEntity
  8
Ech.1_5
  6
Continuous
 62
   200
420
 11010303
370
    25
390
5F
100
AcDbLine
 10
19423.90301240507
 20
-19910.61650552869
 30
0.0
 11
19428.85301240507
 21
-19915.56650552869
 31
0.0
  0
LINE
  5
2CE
330
2C9
100
AcDbEntity
  8
Ech.1_5
  6
Continuous
 62
   200
420
 11010303
370
    25
390
5F
100
AcDbLine
 10
19423.95301240507
 20
-19910.56650552869
 30
0.0
 11
19428.90301240507
 21
-19915.51650552869
 31
0.0
  0
LINE
  5
2CF
330
2C9
100
AcDbEntity
  8
Ech.1_5
  6
Continuous
 62
   200
420
 11010303
370
    25
390
5F
100
AcDbLine
 10
19423.90301240507
 20
-19910.56650552869
 30
0.0
 11
19428.85301240507
 21
-19915.56650552869
 31
0.0
  0
LINE
  5
2D0
330
2C9
100
AcDbEntity
  8
Ech.1_5
  6
Continuous
 62
   200
420
 11010303
370
    25
390
5F
100
AcDbLine
 10
19423.90301240507
 20
-19910.56650552869
 30
0.0
 11
19428.90301240507
 21
-19915.56650552869
 31
0.0
  0
LINE
  5
2D1
330
2C9
100
AcDbEntity
  8
Ech.1_5
  6
Continuous
 62
   200
420
 11010303
370
    15
390
5F
100
AcDbLine
 10
19426.40301240507
 20
-19913.06650552869
 30
0.0
 11
19426.40301240507
 21
-19928.06650552869
 31
0.0
  0
LINE
  5
2D2
330
2C9
100
AcDbEntity
  8
Ech.1_5
  6
Continuous
 62
   200
420
 11010303
370
    25
390
5F
100
AcDbLine
 10
19428.90301240507
 20
-19925.56650552869
 30
0.0
 11
19423.90301240507
 21
-19920.56650552869
 31
0.0
  0
LINE
  5
2D3
330
2C9
100
AcDbEntity
  8
Ech.1_5
  6
Continuous
 62
   200
420
 11010303
370
    25
390
5F
100
AcDbLine
 10
19428.90301240507
 20
-19925.51650552869
 30
0.0
 11
19423.95301240507
 21
-19920.56650552869
 31
0.0
  0
LINE
  5
2D4
330
2C9
100
AcDbEntity
  8
Ech.1_5
  6
Continuous
 62
   200
420
 11010303
370
    25
390
5F
100
AcDbLine
 10
19428.85301240507
 20
-19925.56650552869
 30
0.0
 11
19423.90301240507
 21
-19920.61650552869
 31
0.0
  0
LINE
  5
2D5
330
2C9
100
AcDbEntity
  8
Ech.1_5
  6
Continuous
 62
   200
420
 11010303
370
    25
390
5F
100
AcDbLine
 10
19428.90301240507
 20
-19925.56650552869
 30
0.0
 11
19423.90301240507
 21
-19920.56650552869
 31
0.0
  0
LINE
  5
2D6
330
2C9
100
AcDbEntity
  8
Ech.1_5
  6
Continuous
 62
   200
420
 11010303
370
    25
390
5F
100
AcDbLine
 10
19428.85301240507
 20
-19925.56650552869
 30
0.0
 11
19423.90301240507
 21
-19920.61650552869
 31
0.0
  0
LINE
  5
2D7
330
2C9
100
AcDbEntity
  8
Ech.1_5
  6
Continuous
 62
   200
420
 11010303
370
    15
390
5F
100
AcDbLine
 10
19417.60301240507
 20
-19923.06650552869
 30
0.0
 11
19431.40301240507
 21
-19923.06650552869
 31
0.0
  0
ENDBLK
  5
2D9
330
2C9
100
AcDbEntity
  8
0
100
AcDbBlockEnd
  0
BLOCK
  5
2EB
330
2DC
100
AcDbEntity
  8
0
100
AcDbBlockBegin
  2
DIM306
 70
     0
 10
0.0
 20
0.0
 30
0.0
  3
DIM306
  1

  0
LINE
  5
2DD
330
2DC
100
AcDbEntity
  8
Ech.1_5
  6
Continuous
 62
   200
420
 11010303
370
    15
390
5F
100
AcDbLine
 10
19402.5843449193
 20
-19978.06650511967
 30
0.0
 11
19402.5843449193
 21
-20013.26650511967
 31
0.0
  0
LINE
  5
2DE
330
2DC
100
AcDbEntity
  8
Ech.1_5
  6
Continuous
 62
   200
420
 11010303
370
    15
390
5F
100
AcDbLine
 10
19402.5843449193
 20
-20008.26650511967
 30
0.0
 11
19397.5843449193
 21
-20008.26650511967
 31
0.0
  0
LINE
  5
2DF
330
2DC
100
AcDbEntity
  8
Ech.1_5
  6
Continuous
 62
   200
420
 11010303
370
    25
390
5F
100
AcDbLine
 10
19400.0843449193
 20
-20010.76650511967
 30
0.0
 11
19405.0843449193
 21
-20005.76650511967
 31
0.0
  0
LINE
  5
2E0
330
2DC
100
AcDbEntity
  8
Ech.1_5
  6
Continuous
 62
   200
420
 11010303
370
    25
390
5F
100
AcDbLine
 10
19400.1343449193
 20
-20010.76650511967
 30
0.0
 11
19405.0843449193
 21
-20005.81650511967
 31
0.0
  0
LINE
  5
2E1
330
2DC
100
AcDbEntity
  8
Ech.1_5
  6
Continuous
 62
   200
420
 11010303
370
    25
390
5F
100
AcDbLine
 10
19400.0843449193
 20
-20010.71650511968
 30
0.0
 11
19405.0343449193
 21
-20005.76650511967
 31
0.0
  0
LINE
  5
2E2
330
2DC
100
AcDbEntity
  8
Ech.1_5
  6
Continuous
 62
   200
420
 11010303
370
    25
390
5F
100
AcDbLine
 10
19400.0843449193
 20
-20010.76650511967
 30
0.0
 11
19405.0843449193
 21
-20005.81650511967
 31
0.0
  0
LINE
  5
2E3
330
2DC
100
AcDbEntity
  8
Ech.1_5
  6
Continuous
 62
   200
420
 11010303
370
    25
390
5F
100
AcDbLine
 10
19400.0843449193
 20
-20010.76650511967
 30
0.0
 11
19405.0843449193
 21
-20005.76650511967
 31
0.0
  0
LINE
  5
2E4
330
2DC
100
AcDbEntity
  8
Ech.1_5
  6
Continuous
 62
   200
420
 11010303
370
    15
390
5F
100
AcDbLine
 10
19402.5843449193
 20
-20008.26650511967
 30
0.0
 11
19533.6343449193
 21
-20008.26650511967
 31
0.0
  0
LINE
  5
2E5
330
2DC
100
AcDbEntity
  8
Ech.1_5
  6
Continuous
 62
   200
420
 11010303
370
    25
390
5F
100
AcDbLine
 10
19531.1343449193
 20
-20005.76650511967
 30
0.0
 11
19526.1343449193
 21
-20010.76650511967
 31
0.0
  0
LINE
  5
2E6
330
2DC
100
AcDbEntity
  8
Ech.1_5
  6
Continuous
 62
   200
420
 11010303
370
    25
390
5F
100
AcDbLine
 10
19531.0843449193
 20
-20005.76650511967
 30
0.0
 11
19526.1343449193
 21
-20010.71650511968
 31
0.0
  0
LINE
  5
2E7
330
2DC
100
AcDbEntity
  8
Ech.1_5
  6
Continuous
 62
   200
420
 11010303
370
    25
390
5F
100
AcDbLine
 10
19531.1343449193
 20
-20005.81650511967
 30
0.0
 11
19526.1843449193
 21
-20010.76650511967
 31
0.0
  0
LINE
  5
2E8
330
2DC
100
AcDbEntity
  8
Ech.1_5
  6
Continuous
 62
   200
420
 11010303
370
    25
390
5F
100
AcDbLine
 10
19531.0843449193
 20
-20005.76650511967
 30
0.0
 11
19526.1343449193
 21
-20010.76650511967
 31
0.0
  0
LINE
  5
2E9
330
2DC
100
AcDbEntity
  8
Ech.1_5
  6
Continuous
 62
   200
420
 11010303
370
    25
390
5F
100
AcDbLine
 10
19531.1343449193
 20
-20005.81650511967
 30
0.0
 11
19526.1343449193
 21
-20010.76650511967
 31
0.0
  0
LINE
  5
2EA
330
2DC
100
AcDbEntity
  8
Ech.1_5
  6
Continuous
 62
   200
420
 11010303
370
    15
390
5F
100
AcDbLine
 10
19528.6343449193
 20
-19996.76650511967
 30
0.0
 11
19528.6343449193
 21
-20013.26650511967
 31
0.0
  0
ENDBLK
  5
2EC
330
2DC
100
AcDbEntity
  8
0
100
AcDbBlockEnd
  0
BLOCK
  5
2FE
330
2EF
100
AcDbEntity
  8
0
100
AcDbBlockBegin
  2
DIM307
 70
     0
 10
0.0
 20
0.0
 30
0.0
  3
DIM307
  1

  0
LINE
  5
2F0
330
2EF
100
AcDbEntity
  8
Ech.1_5
  6
Continuous
 62
   200
420
 11010303
370
    15
390
5F
100
AcDbLine
 10
19417.5843449193
 20
-19968.06650511967
 30
0.0
 11
19516.7843449193
 21
-19968.06650511967
 31
0.0
  0
LINE
  5
2F1
330
2EF
100
AcDbEntity
  8
Ech.1_5
  6
Continuous
 62
   200
420
 11010303
370
    15
390
5F
100
AcDbLine
 10
19511.7843449193
 20
-19968.06650511967
 30
0.0
 11
19511.7843449193
 21
-19973.06650511967
 31
0.0
  0
LINE
  5
2F2
330
2EF
100
AcDbEntity
  8
Ech.1_5
  6
Continuous
 62
   200
420
 11010303
370
    25
390
5F
100
AcDbLine
 10
19514.2843449193
 20
-19970.56650511967
 30
0.0
 11
19509.2843449193
 21
-19965.56650511967
 31
0.0
  0
LINE
  5
2F3
330
2EF
100
AcDbEntity
  8
Ech.1_5
  6
Continuous
 62
   200
420
 11010303
370
    25
390
5F
100
AcDbLine
 10
19514.2843449193
 20
-19970.51650511967
 30
0.0
 11
19509.3343449193
 21
-19965.56650511967
 31
0.0
  0
LINE
  5
2F4
330
2EF
100
AcDbEntity
  8
Ech.1_5
  6
Continuous
 62
   200
420
 11010303
370
    25
390
5F
100
AcDbLine
 10
19514.2343449193
 20
-19970.56650511967
 30
0.0
 11
19509.2843449193
 21
-19965.61650511967
 31
0.0
  0
LINE
  5
2F5
330
2EF
100
AcDbEntity
  8
Ech.1_5
  6
Continuous
 62
   200
420
 11010303
370
    25
390
5F
100
AcDbLine
 10
19514.2843449193
 20
-19970.56650511967
 30
0.0
 11
19509.2843449193
 21
-19965.56650511967
 31
0.0
  0
LINE
  5
2F6
330
2EF
100
AcDbEntity
  8
Ech.1_5
  6
Continuous
 62
   200
420
 11010303
370
    25
390
5F
100
AcDbLine
 10
19514.2343449193
 20
-19970.56650511967
 30
0.0
 11
19509.2843449193
 21
-19965.56650511967
 31
0.0
  0
LINE
  5
2F7
330
2EF
100
AcDbEntity
  8
Ech.1_5
  6
Continuous
 62
   200
420
 11010303
370
    15
390
5F
100
AcDbLine
 10
19511.7843449193
 20
-19968.06650511967
 30
0.0
 11
19511.7843449193
 21
-19918.06650511967
 31
0.0
  0
LINE
  5
2F8
330
2EF
100
AcDbEntity
  8
Ech.1_5
  6
Continuous
 62
   200
420
 11010303
370
    25
390
5F
100
AcDbLine
 10
19509.2843449193
 20
-19920.56650511967
 30
0.0
 11
19514.2843449193
 21
-19925.56650511967
 31
0.0
  0
LINE
  5
2F9
330
2EF
100
AcDbEntity
  8
Ech.1_5
  6
Continuous
 62
   200
420
 11010303
370
    25
390
5F
100
AcDbLine
 10
19509.2843449193
 20
-19920.61650511967
 30
0.0
 11
19514.2343449193
 21
-19925.56650511967
 31
0.0
  0
LINE
  5
2FA
330
2EF
100
AcDbEntity
  8
Ech.1_5
  6
Continuous
 62
   200
420
 11010303
370
    25
390
5F
100
AcDbLine
 10
19509.3343449193
 20
-19920.56650511967
 30
0.0
 11
19514.2843449193
 21
-19925.51650511967
 31
0.0
  0
LINE
  5
2FB
330
2EF
100
AcDbEntity
  8
Ech.1_5
  6
Continuous
 62
   200
420
 11010303
370
    25
390
5F
100
AcDbLine
 10
19509.2843449193
 20
-19920.56650511967
 30
0.0
 11
19514.2343449193
 21
-19925.56650511967
 31
0.0
  0
LINE
  5
2FC
330
2EF
100
AcDbEntity
  8
Ech.1_5
  6
Continuous
 62
   200
420
 11010303
370
    25
390
5F
100
AcDbLine
 10
19509.2843449193
 20
-19920.56650511967
 30
0.0
 11
19514.2843449193
 21
-19925.51650511967
 31
0.0
  0
LINE
  5
2FD
330
2EF
100
AcDbEntity
  8
Ech.1_5
  6
Continuous
 62
   200
420
 11010303
370
    15
390
5F
100
AcDbLine
 10
19417.5843449193
 20
-19923.06650511967
 30
0.0
 11
19516.7843449193
 21
-19923.06650511967
 31
0.0
  0
ENDBLK
  5
2FF
330
2EF
100
AcDbEntity
  8
0
100
AcDbBlockEnd
  0
ENDSEC
  0
SECTION
  2
ENTITIES
  0
LWPOLYLINE
  5
218
102
{ACAD_REACTORS
330
219
102
}
330
1F
100
AcDbEntity
  8
Ech.1_5
  6
Continuous
 62
   190
370
    15
390
5F
100
AcDbPolyline
 90
        5
 70
     0
 43
0.0
 10
20180.53154230327
 20
-20705.38825737588
 10
20180.53154230327
 20
-19350.38825737588
 10
19195.53154230327
 20
-19350.38825737588
 10
19195.53154230327
 20
-20705.38825737588
 10
20180.53154230327
 20
-20705.38825737588
  0
LWPOLYLINE
  5
21A
102
{ACAD_REACTORS
330
219
330
21B
330
21C
102
}
330
1F
100
AcDbEntity
  8
Ech.1_5
  6
Continuous
 62
   190
370
    15
390
5F
100
AcDbPolyline
 90
        5
 70
     0
 43
0.0
 10
19195.53154230327
 20
-20567.97518531082
 10
20180.53154230327
 20
-20567.97518531082
 10
20180.53154230327
 20
-20705.38825737588
 10
19195.53154230327
 20
-20705.38825737588
 10
19195.53154230327
 20
-20567.97518531082
  0
LWPOLYLINE
  5
21D
102
{ACAD_REACTORS
330
219
330
21B
330
21C
102
}
330
1F
100
AcDbEntity
  8
Ech.1_5
  6
Continuous
 62
   190
370
    15
390
5F
100
AcDbPolyline
 90
        5
 70
     0
 43
0.0
 10
20180.53154230327
 20
-19445.90522038164
 10
19195.53154230327
 20
-19445.90522038164
 10
19195.53154230327
 20
-19350.38825737599
 10
20180.53154230327
 20
-19350.38825737599
 10
20180.53154230327
 20
-19445.90522038164
  0
LWPOLYLINE
  5
21E
102
{ACAD_REACTORS
330
219
330
21B
330
21C
102
}
330
1F
100
AcDbEntity
  8
Ech.1_5
  6
Continuous
 62
   190
370
    15
390
5F
100
AcDbPolyline
 90
        5
 70
     0
 43
0.0
 10
20180.53154230327
 20
-20589.97518531082
 10
19195.53154230327
 20
-20589.97518531082
 10
19195.53154230327
 20
-20567.97518531082
 10
20180.53154230327
 20
-20567.97518531082
 10
20180.53154230327
 20
-20589.97518531082
  0
LWPOLYLINE
  5
21F
102
{ACAD_REACTORS
330
219
330
21B
330
21C
102
}
330
1F
100
AcDbEntity
  8
Ech.1_5
  6
Continuous
 62
   190
370
    15
390
5F
100
AcDbPolyline
 90
        5
 70
     0
 43
0.0
 10
20180.53154230327
 20
-20646.84633054116
 10
19195.53154230327
 20
-20646.84633054116
 10
19195.53154230327
 20
-20623.11930223043
 10
20180.53154230327
 20
-20623.11930223043
 10
20180.53154230327
 20
-20646.84633054116
  0
LINE
  5
220
102
{ACAD_REACTORS
330
219
330
21B
330
21C
102
}
330
1F
100
AcDbEntity
  8
Ech.1_5
  6
Continuous
 62
   190
370
    15
390
5F
100
AcDbLine
 10
19383.73610426622
 20
-20567.97518531082
 30
0.0
 11
19383.73610426622
 21
-20589.97518531082
 31
0.0
  0
LINE
  5
221
102
{ACAD_REACTORS
330
219
330
21B
330
21C
102
}
330
1F
100
AcDbEntity
  8
Ech.1_5
  6
Continuous
 62
   190
370
    15
390
5F
100
AcDbLine
 10
20040.73420689677
 20
-20567.97518531082
 30
0.0
 11
20040.73420689677
 21
-20589.97518531082
 31
0.0
  0
LINE
  5
222
102
{ACAD_REACTORS
330
219
330
21B
330
21C
102
}
330
1F
100
AcDbEntity
  8
Ech.1_5
  6
Continuous
 62
   190
370
    15
390
5F
100
AcDbLine
 10
19539.89132226157
 20
-20567.97518531082
 30
0.0
 11
19539.89132226157
 21
-20589.97518531082
 31
0.0
  0
IMAGE
  5
225
102
{ACAD_REACTORS
330
219
330
21C
102
}
330
1F
100
AcDbEntity
  8
Ech.1_5
  6
Continuous
390
5F
160
                 8
310
0800000000000000
100
AcDbRasterImage
 90
        0
 10
19386.59579104414
 20
-20700.35270989483
 30
0.0
 11
0.283455151826311
 21
0.0
 31
0.0
 12
0.0
 22
0.2834551571498179
 32
0.0
 13
247.0
 23
171.0
340
224
 70
     7
280
     0
281
    50
282
    50
283
     0
360
226
 71
     1
 91
        2
 14
-0.5
 24
-0.5
 14
246.5
 24
170.5
290
     0
  0
IMAGE
  5
228
102
{ACAD_REACTORS
330
219
102
}
330
1F
100
AcDbEntity
  8
Ech.1_5
  6
Continuous
390
5F
160
                 8
310
0800000000000000
100
AcDbRasterImage
 90
        0
 10
19647.67346228613
 20
-20702.90732219862
 30
0.0
 11
0.4035808001714759
 21
0.0
 31
0.0
 12
0.0
 22
0.4035808103925179
 32
0.0
 13
200.0
 23
133.0
340
227
 70
     7
280
     0
281
    50
282
    50
283
     0
360
229
 71
     1
 91
        2
 14
-0.5
 24
-0.5
 14
199.5
 24
132.5
290
     0
  0
LINE
  5
22A
330
1F
100
AcDbEntity
  8
Ech.1_5
  6
Continuous
 62
   190
370
    15
390
5F
100
AcDbLine
 10
20180.53154230327
 20
-19380.38825737599
 30
0.0
 11
19195.53154230327
 21
-19380.38825737599
 31
0.0
  0
HATCH
  5
22B
330
1F
100
AcDbEntity
  8
Ech.1_5
  6
Continuous
 62
   254
420
 16643007
440
 33554687
370
     5
390
5F
100
AcDbHatch
 10
0.0
 20
0.0
 30
0.0
210
0.0
220
0.0
230
1.0
  2
SOLID
 70
     1
 71
     0
 91
        1
 92
        3
 72
     0
 73
     1
 93
        8
 10
19743.43298086218
 20
-19878.10884374714
 10
19743.43298086218
 20
-19508.25755574115
 10
19653.79533158156
 20
-19508.25755574115
 10
19637.30982842567
 20
-19526.23653389819
 10
19651.41976844348
 20
-19490.28083397754
 10
19634.93341436196
 20
-19508.25918557056
 10
19598.43298086215
 20
-19508.25918557056
 10
19598.43298086215
 20
-19878.10884374714
 97
        0
 75
     0
 76
     1
 98
        0
  0
HATCH
  5
22C
330
1F
100
AcDbEntity
  8
Ech.1_5
  6
Continuous
 62
     8
440
 33554687
370
    20
390
5F
100
AcDbHatch
 10
0.0
 20
0.0
 30
0.0
210
0.0
220
0.0
230
1.0
  2
CwHatchPattern_201
 70
     0
 71
     0
 91
        1
 92
        3
 72
     0
 73
     1
 93
        8
 10
19743.43298086218
 20
-19878.10884374714
 10
19743.43298086218
 20
-19508.25755574115
 10
19653.79533158156
 20
-19508.25755574115
 10
19637.30982842567
 20
-19526.23653389819
 10
19651.41976844348
 20
-19490.28083397754
 10
19634.93341436196
 20
-19508.25918557056
 10
19598.43298086215
 20
-19508.25918557056
 10
19598.43298086215
 20
-19878.10884374714
 97
        0
 75
     0
 76
     2
 52
90.0
 41
2.900000095367432
 77
     0
 78
    29
 53
90.0
 43
19743.43298086218
 44
-19881.34520032803
 45
-145.0000047683716
 46
0.0000000000000089
 79
     2
 49
6.472713161775587
 49
-17.69395934117938
 53
180.0000000000059
 43
19723.18802227253
 44
-19902.27550198968
 45
0.0000000000049953
 46
-48.33333031336451
 79
     2
 49
3.921713481170173
 49
-141.0782912872014
 53
180.0000000000059
 43
19622.59964816463
 44
-19878.10884374714
 45
0.0000000000049953
 46
-48.33333031336451
 79
     2
 49
3.921713481170173
 49
-141.0782912872014
 53
194.9324645996163
 43
19714.08229823442
 44
-19854.51818341258
 45
-144.9993095038583
 46
-48.3359814437894
 79
     2
 49
89.31476672155326
 49
-661.0203426301995
 53
165.0675354003956
 43
19714.08229823442
 44
-19853.36617376833
 45
144.9993095038682
 46
-48.33598144375943
 79
     2
 49
89.31476672155327
 49
-661.0203426301996
 53
105.2551193237315
 43
19743.43298086218
 44
-19874.87248716625
 45
-0.0000012956450574
 46
-48.33332879607747
 79
     2
 49
6.569094531198019
 49
-544.5157172931704
 53
254.7448883056749
 43
19743.43298086218
 44
-19881.34520032803
 45
0.0000077316271012
 46
-48.33332879607688
 79
     2
 49
6.569094531198019
 49
-544.5157172931704
 53
105.2551193237315
 43
19600.1614140512
 44
-19863.51615923672
 45
-0.0000012956450574
 46
-48.33332879607747
 79
     2
 49
6.569094531198019
 49
-544.5157172931704
 53
74.74488067626852
 43
19598.43297609381
 44
-19850.70582913977
 45
-0.0000012956450522
 46
48.33332879607747
 79
     2
 49
6.569094531198019
 49
-544.5157172931704
 53
120.9637565612813
 43
19741.70453728706
 44
-19868.53487001501
 45
0.0000003210802688
 46
-48.33333866514959
 79
     2
 49
6.310936569088454
 49
-275.5184006697027
 53
239.0362396240333
 43
19741.70453728706
 44
-19887.71857394921
 45
-0.0000035390569272
 46
-48.33333866514947
 79
     2
 49
6.310936569088454
 49
-275.5184006697027
 53
120.9637565612813
 43
19603.40837670528
 44
-19868.92773312274
 45
0.0000003210802688
 46
-48.33333866514959
 79
     2
 49
6.310936569088454
 49
-275.5184006697027
 53
59.03624343871866
 43
19600.1614140512
 44
-19844.36819794419
 45
0.0000003210802765
 46
48.33333866514959
 79
     2
 49
6.310936569088454
 49
-275.5184006697027
 53
135.000000000003
 43
19738.45758111499
 44
-19863.12329612899
 45
0.000000000002483
 46
-48.33334305883081
 79
     2
 49
5.366870520176406
 49
-199.6941079006228
 53
225.0000000000089
 43
19738.45758111499
 44
-19893.09439136528
 45
0.0000000000075056
 46
-48.33334305883082
 79
     2
 49
5.366870520176406
 49
-199.6941079006228
 53
135.000000000003
 43
19607.20331253335
 44
-19872.72267370428
 45
0.000000000002483
 46
-48.33334305883081
 79
     2
 49
5.366870520176406
 49
-199.6941079006228
 53
44.99999999999704
 43
19603.40837670528
 44
-19838.95662232964
 45
0.0000000000025036
 46
48.33334305883081
 79
     2
 49
5.366870520176406
 49
-199.6941079006228
 53
146.309932708744
 43
19734.66264096558
 44
-19859.32834128704
 45
0.000005471509411
 46
-48.33333736175739
 79
     2
 49
5.629320866217142
 49
-168.6389897490858
 53
213.6900634765706
 43
19734.66264096558
 44
-19896.88934620724
 45
-0.0000086894860024
 46
-48.33333736175692
 79
     2
 49
5.629320866217142
 49
-168.6389897490858
 53
146.309932708744
 43
19611.8871992154
 44
-19875.84526309711
 45
0.000005471509411
 46
-48.33333736175739
 79
     2
 49
5.629320866217142
 49
-168.6389897490858
 53
33.69006729125606
 43
19607.20331253335
 44
-19835.16166921621
 45
0.0000054715094032
 46
48.33333736175739
 79
     2
 49
5.629320866217142
 49
-168.6389897490858
 53
161.5650482177782
 43
19729.97876379047
 44
-19856.20575189421
 45
0.0000024231020311
 46
-48.3333407928251
 79
     2
 49
7.158070278124811
 49
-145.6853618847208
 53
198.4349517822336
 43
19729.97876379047
 44
-19900.01193560007
 45
-0.0000024230920451
 46
-48.3333407928251
 79
     2
 49
7.158070278124811
 49
-145.6853618847208
 53
161.5650482177782
 43
19618.67793468346
 44
-19878.10884374714
 45
0.0000024231020311
 46
-48.3333407928251
 79
     2
 49
7.158070278124811
 49
-145.6853618847208
 53
18.43495178222185
 43
19611.8871992154
 44
-19832.0390953802
 45
0.0000024231020286
 46
48.3333407928251
 79
     2
 49
7.158070278124811
 49
-145.6853618847208
 53
173.6598052978571
 43
19719.26632261964
 44
-19902.27550198968
 45
290.0000241734639
 46
-48.33334860488391
 79
     2
 49
5.215925790533547
 49
-432.4610318302621
 53
186.3401947021548
 43
19719.26632261964
 44
-19853.94218550459
 45
-290.0000241734539
 46
-48.33334860494386
 79
     2
 49
5.215925790533546
 49
-432.461031830262
 53
353.659820556658
 43
19622.59964816463
 44
-19878.10884374714
 45
-290.0000370454129
 46
48.33327137314426
 79
     2
 49
5.215925790533547
 49
-432.4610318302621
 53
6.340194702142933
 43
19622.59964816463
 44
-19878.10884374714
 45
290.0000241734639
 46
48.33334860488388
 79
     2
 49
5.215925790533547
 49
-432.4610318302621
 98
        0
1001
ACAD
1010
19743.43298086218
1020
-19878.10884374714
1030
0.0
  0
LWPOLYLINE
  5
22D
330
1F
100
AcDbEntity
  8
Ech.1_5
  6
Continuous
 62
   190
370
    15
390
5F
100
AcDbPolyline
 90
        9
 70
     0
 43
0.0
 10
19743.43298086218
 20
-19878.10884374714
 10
19743.43298086218
 20
-19508.25755574115
 10
19653.79533158156
 20
-19508.25755574115
 10
19637.30982842567
 20
-19526.23653389819
 10
19651.41976844348
 20
-19490.28083397754
 10
19634.93341436196
 20
-19508.25918557056
 10
19598.43298086215
 20
-19508.25918557056
 10
19598.43298086215
 20
-19878.10884374714
 10
19743.43298086218
 20
-19878.10884374714
  0
HATCH
  5
22E
330
1F
100
AcDbEntity
  8
Ech.1_5
  6
Continuous
 62
   254
420
 16643007
440
 33554687
370
     5
390
5F
100
AcDbHatch
 10
0.0
 20
0.0
 30
0.0
210
0.0
220
0.0
230
1.0
  2
SOLID
 70
     1
 71
     0
 91
        1
 92
        3
 72
     0
 73
     1
 93
        8
 10
19743.43298086217
 20
-20477.83010027602
 10
19743.43298086217
 20
-20013.10884374714
 10
19598.43298086217
 20
-20013.10884374714
 10
19598.43298086217
 20
-20477.82862398817
 10
19649.04335437978
 20
-20477.82862398817
 10
19665.52970846128
 20
-20495.80697558119
 10
19651.41976844348
 20
-20459.85127566054
 10
19667.90527159939
 20
-20477.83010027602
 97
        0
 75
     0
 76
     1
 98
        0
  0
HATCH
  5
22F
330
1F
100
AcDbEntity
  8
Ech.1_5
  6
Continuous
 62
     8
440
 33554687
370
    20
390
5F
100
AcDbHatch
 10
0.0
 20
0.0
 30
0.0
210
0.0
220
0.0
230
1.0
  2
CwHatchPattern_201
 70
     0
 71
     0
 91
        1
 92
        3
 72
     0
 73
     1
 93
        8
 10
19743.43298086217
 20
-20477.83010027602
 10
19743.43298086217
 20
-20013.10884374714
 10
19598.43298086217
 20
-20013.10884374714
 10
19598.43298086217
 20
-20477.82862398817
 10
19649.04335437978
 20
-20477.82862398817
 10
19665.52970846128
 20
-20495.80697558119
 10
19651.41976844348
 20
-20459.85127566054
 10
19667.90527159939
 20
-20477.83010027602
 97
        0
 75
     0
 76
     2
 52
90.0
 41
2.900000095367432
 77
     0
 78
    29
 53
90.0
 43
19743.43298086217
 44
-20481.0664568569
 45
-145.0000047683716
 46
0.0000000000000089
 79
     2
 49
6.472713161775587
 49
-17.69395934117938
 53
180.0000000000059
 43
19723.18802227252
 44
-20501.99675851856
 45
0.0000000000049953
 46
-48.33333031336451
 79
     2
 49
3.921713481170173
 49
-141.0782912872014
 53
180.0000000000059
 43
19622.59964816462
 44
-20477.83010027602
 45
0.0000000000049953
 46
-48.33333031336451
 79
     2
 49
3.921713481170173
 49
-141.0782912872014
 53
194.9324645996163
 43
19714.0822982344
 44
-20454.23943994146
 45
-144.9993095038583
 46
-48.3359814437894
 79
     2
 49
89.31476672155326
 49
-661.0203426301995
 53
165.0675354003956
 43
19714.0822982344
 44
-20453.08743029721
 45
144.9993095038682
 46
-48.33598144375943
 79
     2
 49
89.31476672155327
 49
-661.0203426301996
 53
105.2551193237315
 43
19743.43298086217
 44
-20474.59374369513
 45
-0.0000012956450574
 46
-48.33332879607747
 79
     2
 49
6.569094531198019
 49
-544.5157172931704
 53
254.7448883056749
 43
19743.43298086217
 44
-20481.0664568569
 45
0.0000077316271012
 46
-48.33332879607688
 79
     2
 49
6.569094531198019
 49
-544.5157172931704
 53
105.2551193237315
 43
19600.16141405118
 44
-20463.2374157656
 45
-0.0000012956450574
 46
-48.33332879607747
 79
     2
 49
6.569094531198019
 49
-544.5157172931704
 53
74.74488067626852
 43
19598.4329760938
 44
-20450.42708566865
 45
-0.0000012956450522
 46
48.33332879607747
 79
     2
 49
6.569094531198019
 49
-544.5157172931704
 53
120.9637565612813
 43
19741.70453728705
 44
-20468.25612654389
 45
0.0000003210802688
 46
-48.33333866514959
 79
     2
 49
6.310936569088454
 49
-275.5184006697027
 53
239.0362396240333
 43
19741.70453728705
 44
-20487.43983047809
 45
-0.0000035390569272
 46
-48.33333866514947
 79
     2
 49
6.310936569088454
 49
-275.5184006697027
 53
120.9637565612813
 43
19603.40837670526
 44
-20468.64898965162
 45
0.0000003210802688
 46
-48.33333866514959
 79
     2
 49
6.310936569088454
 49
-275.5184006697027
 53
59.03624343871866
 43
19600.16141405118
 44
-20444.08945447307
 45
0.0000003210802765
 46
48.33333866514959
 79
     2
 49
6.310936569088454
 49
-275.5184006697027
 53
135.000000000003
 43
19738.45758111497
 44
-20462.84455265787
 45
0.000000000002483
 46
-48.33334305883081
 79
     2
 49
5.366870520176406
 49
-199.6941079006228
 53
225.0000000000089
 43
19738.45758111497
 44
-20492.81564789416
 45
0.0000000000075056
 46
-48.33334305883082
 79
     2
 49
5.366870520176406
 49
-199.6941079006228
 53
135.000000000003
 43
19607.20331253334
 44
-20472.44393023316
 45
0.000000000002483
 46
-48.33334305883081
 79
     2
 49
5.366870520176406
 49
-199.6941079006228
 53
44.99999999999704
 43
19603.40837670526
 44
-20438.67787885852
 45
0.0000000000025036
 46
48.33334305883081
 79
     2
 49
5.366870520176406
 49
-199.6941079006228
 53
146.309932708744
 43
19734.66264096556
 44
-20459.04959781592
 45
0.000005471509411
 46
-48.33333736175739
 79
     2
 49
5.629320866217142
 49
-168.6389897490858
 53
213.6900634765706
 43
19734.66264096556
 44
-20496.61060273612
 45
-0.0000086894860024
 46
-48.33333736175692
 79
     2
 49
5.629320866217142
 49
-168.6389897490858
 53
146.309932708744
 43
19611.88719921538
 44
-20475.56651962599
 45
0.000005471509411
 46
-48.33333736175739
 79
     2
 49
5.629320866217142
 49
-168.6389897490858
 53
33.69006729125606
 43
19607.20331253334
 44
-20434.88292574509
 45
0.0000054715094032
 46
48.33333736175739
 79
     2
 49
5.629320866217142
 49
-168.6389897490858
 53
161.5650482177782
 43
19729.97876379046
 44
-20455.92700842308
 45
0.0000024231020311
 46
-48.3333407928251
 79
     2
 49
7.158070278124811
 49
-145.6853618847208
 53
198.4349517822336
 43
19729.97876379046
 44
-20499.73319212895
 45
-0.0000024230920451
 46
-48.3333407928251
 79
     2
 49
7.158070278124811
 49
-145.6853618847208
 53
161.5650482177782
 43
19618.67793468345
 44
-20477.83010027602
 45
0.0000024231020311
 46
-48.3333407928251
 79
     2
 49
7.158070278124811
 49
-145.6853618847208
 53
18.43495178222185
 43
19611.88719921538
 44
-20431.76035190908
 45
0.0000024231020286
 46
48.3333407928251
 79
     2
 49
7.158070278124811
 49
-145.6853618847208
 53
173.6598052978571
 43
19719.26632261963
 44
-20501.99675851856
 45
290.0000241734639
 46
-48.33334860488391
 79
     2
 49
5.215925790533547
 49
-432.4610318302621
 53
186.3401947021548
 43
19719.26632261963
 44
-20453.66344203347
 45
-290.0000241734539
 46
-48.33334860494386
 79
     2
 49
5.215925790533546
 49
-432.461031830262
 53
353.659820556658
 43
19622.59964816462
 44
-20477.83010027602
 45
-290.0000370454129
 46
48.33327137314426
 79
     2
 49
5.215925790533547
 49
-432.4610318302621
 53
6.340194702142933
 43
19622.59964816462
 44
-20477.83010027602
 45
290.0000241734639
 46
48.33334860488388
 79
     2
 49
5.215925790533547
 49
-432.4610318302621
 98
        0
1001
ACAD
1010
19743.43298086217
1020
-20477.83010027602
1030
0.0
  0
LWPOLYLINE
  5
230
330
1F
100
AcDbEntity
  8
Ech.1_5
  6
Continuous
 62
   190
370
    15
390
5F
100
AcDbPolyline
 90
        9
 70
     0
 43
0.0
 10
19743.43298086217
 20
-20477.83010027602
 10
19743.43298086217
 20
-20013.10884374714
 10
19598.43298086217
 20
-20013.10884374714
 10
19598.43298086217
 20
-20477.82862398817
 10
19649.04335437978
 20
-20477.82862398817
 10
19665.52970846128
 20
-20495.80697558119
 10
19651.41976844348
 20
-20459.85127566054
 10
19667.90527159939
 20
-20477.83010027602
 10
19743.43298086217
 20
-20477.83010027602
  0
HATCH
  5
231
330
1F
100
AcDbEntity
  8
Ech.1_5
  6
Continuous
 62
   254
420
 16643007
440
 33554687
370
     5
390
5F
100
AcDbHatch
 10
0.0
 20
0.0
 30
0.0
210
0.0
220
0.0
230
1.0
  2
SOLID
 70
     1
 71
     0
 91
        1
 92
        3
 72
     0
 73
     1
 93
        4
 10
19753.43298086216
 20
-19921.0665052782
 10
19753.43298086216
 20
-19508.25769682836
 10
19803.43298086216
 20
-19508.25769682836
 10
19803.43298086216
 20
-19921.0665052782
 97
        0
 75
     0
 76
     1
 98
        0
  0
HATCH
  5
232
330
1F
100
AcDbEntity
  8
Ech.1_5
  6
Continuous
 62
     8
440
 33554687
370
    20
390
5F
100
AcDbHatch
 10
0.0
 20
0.0
 30
0.0
210
0.0
220
0.0
230
1.0
  2
CwHatchPattern_201
 70
     0
 71
     0
 91
        1
 92
        3
 72
     0
 73
     1
 93
        4
 10
19753.43298086216
 20
-19921.0665052782
 10
19753.43298086216
 20
-19508.25769682836
 10
19803.43298086216
 20
-19508.25769682836
 10
19803.43298086216
 20
-19921.0665052782
 97
        0
 75
     0
 76
     2
 52
90.0
 41
1.0
 77
     0
 78
    29
 53
90.0
 43
19753.43298086216
 44
-19922.1824902694
 45
-50.0
 46
0.0000000000000031
 79
     2
 49
2.231969982385635
 49
-6.101365089416504
 53
180.0000000000059
 43
19746.45196088841
 44
-19929.39983543262
 45
0.0000000000017225
 46
-16.66666507720947
 79
     2
 49
1.352314949035645
 49
-48.64768505096436
 53
180.0000000000059
 43
19711.76631578495
 44
-19921.06650527821
 45
0.0000000000017225
 46
-16.66666507720947
 79
     2
 49
1.352314949035645
 49
-48.64768505096436
 53
194.9324645996163
 43
19743.31205615093
 44
-19912.93179508553
 45
-49.99976025362398
 46
-16.66757926008454
 79
     2
 49
30.79819440841674
 49
-227.9380416870117
 53
165.0675354003956
 43
19743.31205615093
 44
-19912.53455039368
 45
49.99976025362742
 46
-16.66757926007421
 79
     2
 49
30.79819440841675
 49
-227.9380416870117
 53
105.2551193237315
 43
19753.43298086216
 44
-19919.95052028701
 45
-0.000000446774143
 46
-16.66666455400706
 79
     2
 49
2.265204936265945
 49
-187.7640342712402
 53
254.7448883056749
 43
19753.43298086216
 44
-19922.1824902694
 45
0.0000026660782231
 46
-16.66666455400686
 79
     2
 49
2.265204936265945
 49
-187.7640342712402
 53
105.2551193237315
 43
19704.02899393132
 44
-19916.03454526768
 45
-0.000000446774143
 46
-16.66666455400706
 79
     2
 49
2.265204936265945
 49
-187.7640342712402
 53
74.74488067626852
 43
19703.43298086216
 44
-19911.6171902071
 45
-0.0000004467741412
 46
16.66666455400706
 79
     2
 49
2.265204936265945
 49
-187.7640342712402
 53
120.9637565612813
 43
19752.83696585586
 44
-19917.76513513432
 45
0.0000001107173304
 46
-16.66666795713527
 79
     2
 49
2.176184952259064
 49
-95.0063419342041
 53
239.0362396240333
 43
19752.83696585586
 44
-19924.38020523891
 45
-0.0000012203644175
 46
-16.66666795713522
 79
     2
 49
2.176184952259064
 49
-95.0063419342041
 53
120.9637565612813
 43
19705.14863618901
 44
-19917.90060516701
 45
0.0000001107173304
 46
-16.66666795713527
 79
     2
 49
2.176184952259064
 49
-95.0063419342041
 53
59.03624343871866
 43
19704.02899393132
 44
-19909.43180021153
 45
0.0000001107173331
 46
16.66666795713527
 79
     2
 49
2.176184952259064
 49
-95.0063419342041
 53
135.000000000003
 43
19751.71732583334
 44
-19915.89907523499
 45
0.0000000000008562
 46
-16.66666947219771
 79
     2
 49
1.850644946098328
 49
-68.86003494262695
 53
225.0000000000089
 43
19751.71732583334
 44
-19926.23393532143
 45
0.0000000000025882
 46
-16.66666947219771
 79
     2
 49
1.850644946098328
 49
-68.86003494262695
 53
135.000000000003
 43
19706.45723470738
 44
-19919.20920532451
 45
0.0000000000008562
 46
-16.66666947219771
 79
     2
 49
1.850644946098328
 49
-68.86003494262695
 53
44.99999999999704
 43
19705.14863618901
 44
-19907.56573971615
 45
0.0000000000008633
 46
16.66666947219771
 79
     2
 49
1.850644946098328
 49
-68.86003494262695
 53
146.309932708744
 43
19750.40872582485
 44
-19914.5904701601
 45
0.000001886727321
 46
-16.6666675076897
 79
     2
 49
1.941145062446594
 49
-58.15137386322021
 53
213.6900634765706
 43
19750.40872582485
 44
-19927.54254039631
 45
-0.0000029963743851
 46
-16.66666750768953
 79
     2
 49
1.941145062446594
 49
-58.15137386322021
 53
146.309932708744
 43
19708.0723679929
 44
-19920.28596025214
 45
0.000001886727321
 46
-16.6666675076897
 79
     2
 49
1.941145062446594
 49
-58.15137386322021
 53
33.69006729125606
 43
19706.45723470738
 44
-19906.25713523731
 45
0.0000018867273184
 46
16.6666675076897
 79
     2
 49
1.941145062446594
 49
-58.15137386322021
 53
161.5650482177782
 43
19748.79359581759
 44
-19913.51371523247
 45
0.000000835552397
 46
-16.66666869081645
 79
     2
 49
2.468300014734268
 49
-50.23633003234863
 53
198.4349517822336
 43
19748.79359581759
 44
-19928.61929532394
 45
-0.0000008355489536
 46
-16.66666869081645
 79
     2
 49
2.468300014734268
 49
-50.23633003234863
 53
161.5650482177782
 43
19710.41400083592
 44
-19921.06650527821
 45
0.000000835552397
 46
-16.66666869081645
 79
     2
 49
2.468300014734268
 49
-50.23633003234863
 53
18.43495178222185
 43
19708.0723679929
 44
-19905.1803856741
 45
0.0000008355523962
 46
16.66666869081645
 79
     2
 49
2.468300014734268
 49
-50.23633003234863
 53
173.6598052978571
 43
19745.09965070774
 44
-19929.39983543262
 45
100.0000050471449
 46
-16.66667138462975
 79
     2
 49
1.798595041036606
 49
-149.1244888305664
 53
186.3401947021548
 43
19745.09965070774
 44
-19912.73317512379
 45
-100.0000050471415
 46
-16.66667138465042
 79
     2
 49
1.798595041036606
 49
-149.1244888305664
 53
353.659820556658
 43
19711.76631578495
 44
-19921.06650527821
 45
-100.0000094857479
 46
16.66664475299626
 79
     2
 49
1.798595041036606
 49
-149.1244888305664
 53
6.340194702142933
 43
19711.76631578495
 44
-19921.06650527821
 45
100.0000050471449
 46
16.66667138462974
 79
     2
 49
1.798595041036606
 49
-149.1244888305664
 98
        0
1001
ACAD
1010
19753.43298086216
1020
-19921.06650527821
1030
0.0
  0
LWPOLYLINE
  5
233
330
1F
100
AcDbEntity
  8
Ech.1_5
  6
Continuous
 62
   190
370
    15
390
5F
100
AcDbPolyline
 90
        5
 70
     0
 43
0.0
 10
19753.43298086216
 20
-19921.0665052782
 10
19753.43298086216
 20
-19508.25769682836
 10
19803.43298086216
 20
-19508.25769682836
 10
19803.43298086216
 20
-19921.0665052782
 10
19753.43298086216
 20
-19921.0665052782
  0
HATCH
  5
234
330
1F
100
AcDbEntity
  8
Ech.1_5
  6
Continuous
 62
   254
420
 16643007
440
 33554687
370
     5
390
5F
100
AcDbHatch
 10
0.0
 20
0.0
 30
0.0
210
0.0
220
0.0
230
1.0
  2
SOLID
 70
     1
 71
     0
 91
        1
 92
        3
 72
     0
 73
     1
 93
        4
 10
19753.43298086216
 20
-20085.067013797
 10
19753.43298086216
 20
-20477.82924685008
 10
19803.43298086216
 20
-20477.82924685008
 10
19803.43298086216
 20
-20085.067013797
 97
        0
 75
     0
 76
     1
 98
        0
  0
HATCH
  5
235
330
1F
100
AcDbEntity
  8
Ech.1_5
  6
Continuous
 62
     8
440
 33554687
370
    20
390
5F
100
AcDbHatch
 10
0.0
 20
0.0
 30
0.0
210
0.0
220
0.0
230
1.0
  2
CwHatchPattern_201
 70
     0
 71
     0
 91
        1
 92
        3
 72
     0
 73
     1
 93
        4
 10
19753.43298086216
 20
-20085.067013797
 10
19753.43298086216
 20
-20477.82924685008
 10
19803.43298086216
 20
-20477.82924685008
 10
19803.43298086216
 20
-20085.067013797
 97
        0
 75
     0
 76
     2
 52
270.0
 41
1.0
 77
     0
 78
    29
 53
270.0
 43
19753.43298086216
 44
-20083.95102880582
 45
50.0
 46
0.0000000000000031
 79
     2
 49
2.231969982385635
 49
-6.101365089416504
 53
0.0000000000059286
 43
19760.41400083592
 44
-20076.73368364259
 45
-0.0000000000017245
 46
16.66666507720947
 79
     2
 49
1.352314949035645
 49
-48.64768505096436
 53
0.0000000000059286
 43
19795.09964593937
 44
-20085.06701379701
 45
-0.0000000000017245
 46
16.66666507720947
 79
     2
 49
1.352314949035645
 49
-48.64768505096436
 53
14.93246459961628
 43
19763.55390557339
 44
-20093.20172398969
 45
49.99976025362398
 46
16.66757926008454
 79
     2
 49
30.79819440841674
 49
-227.9380416870117
 53
345.0675354003956
 43
19763.55390557339
 44
-20093.59896868154
 45
-49.99976025362743
 46
16.66757926007419
 79
     2
 49
30.79819440841675
 49
-227.9380416870117
 53
285.2551193237315
 43
19753.43298086216
 44
-20086.1829987882
 45
0.0000004467741412
 46
16.66666455400706
 79
     2
 49
2.265204936265945
 49
-187.7640342712402
 53
74.74488830567492
 43
19753.43298086216
 44
-20083.95102880582
 45
-0.0000026660782186
 46
16.66666455400686
 79
     2
 49
2.265204936265945
 49
-187.7640342712402
 53
285.2551193237315
 43
19802.83696779301
 44
-20090.09897380754
 45
0.0000004467741412
 46
16.66666455400706
 79
     2
 49
2.265204936265945
 49
-187.7640342712402
 53
254.7448806762685
 43
19803.43298086216
 44
-20094.51632886811
 45
0.000000446774143
 46
-16.66666455400706
 79
     2
 49
2.265204936265945
 49
-187.7640342712402
 53
300.9637565612813
 43
19754.02899586847
 44
-20088.3683839409
 45
-0.0000001107173331
 46
16.66666795713527
 79
     2
 49
2.176184952259064
 49
-95.0063419342041
 53
59.03623962403325
 43
19754.02899586847
 44
-20081.7533138363
 45
0.0000012203644237
 46
16.66666795713522
 79
     2
 49
2.176184952259064
 49
-95.0063419342041
 53
300.9637565612813
 43
19801.71732553532
 44
-20088.23291390821
 45
-0.0000001107173331
 46
16.66666795713527
 79
     2
 49
2.176184952259064
 49
-95.0063419342041
 53
239.0362434387187
 43
19802.83696779301
 44
-20096.70171886369
 45
-0.0000001107173304
 46
-16.66666795713527
 79
     2
 49
2.176184952259064
 49
-95.0063419342041
 53
315.000000000003
 43
19755.14863589098
 44
-20090.23444384023
 45
-0.0000000000008633
 46
16.66666947219771
 79
     2
 49
1.850644946098328
 49
-68.86003494262695
 53
45.0000000000089
 43
19755.14863589098
 44
-20079.89958375379
 45
-0.0000000000025899
 46
16.66666947219771
 79
     2
 49
1.850644946098328
 49
-68.86003494262695
 53
315.000000000003
 43
19800.40872701695
 44
-20086.92431375071
 45
-0.0000000000008633
 46
16.66666947219771
 79
     2
 49
1.850644946098328
 49
-68.86003494262695
 53
224.999999999997
 43
19801.71732553532
 44
-20098.56777935907
 45
-0.0000000000008562
 46
-16.66666947219771
 79
     2
 49
1.850644946098328
 49
-68.86003494262695
 53
326.3099327087439
 43
19756.45723589947
 44
-20091.54304891511
 45
-0.0000018867273184
 46
16.6666675076897
 79
     2
 49
1.941145062446594
 49
-58.15137386322021
 53
33.69006347657064
 43
19756.45723589947
 44
-20078.59097867891
 45
0.0000029963743824
 46
16.66666750768953
 79
     2
 49
1.941145062446594
 49
-58.15137386322021
 53
326.3099327087439
 43
19798.79359373143
 44
-20085.84755882307
 45
-0.0000018867273184
 46
16.6666675076897
 79
     2
 49
1.941145062446594
 49
-58.15137386322021
 53
213.690067291256
 43
19800.40872701695
 44
-20099.8763838379
 45
-0.000001886727321
 46
-16.6666675076897
 79
     2
 49
1.941145062446594
 49
-58.15137386322021
 53
341.5650482177782
 43
19758.07236590674
 44
-20092.61980384275
 45
-0.0000008355523962
 46
16.66666869081645
 79
     2
 49
2.468300014734268
 49
-50.23633003234863
 53
18.43495178223369
 43
19758.07236590674
 44
-20077.51422375127
 45
0.0000008355489509
 46
16.66666869081645
 79
     2
 49
2.468300014734268
 49
-50.23633003234863
 53
341.5650482177782
 43
19796.45196088841
 44
-20085.06701379701
 45
-0.0000008355523962
 46
16.66666869081645
 79
     2
 49
2.468300014734268
 49
-50.23633003234863
 53
198.4349517822218
 43
19798.79359373143
 44
-20100.95313340112
 45
-0.000000835552397
 46
-16.66666869081645
 79
     2
 49
2.468300014734268
 49
-50.23633003234863
 53
353.6598052978571
 43
19761.76631101658
 44
-20076.73368364259
 45
-100.0000050471449
 46
16.66667138462974
 79
     2
 49
1.798595041036606
 49
-149.1244888305664
 53
6.340194702154776
 43
19761.76631101658
 44
-20093.40034395143
 45
100.0000050471415
 46
16.66667138465041
 79
     2
 49
1.798595041036606
 49
-149.1244888305664
 53
173.659820556658
 43
19795.09964593937
 44
-20085.06701379701
 45
100.0000094857479
 46
-16.66664475299625
 79
     2
 49
1.798595041036606
 49
-149.1244888305664
 53
186.3401947021429
 43
19795.09964593937
 44
-20085.06701379701
 45
-100.0000050471449
 46
-16.66667138462975
 79
     2
 49
1.798595041036606
 49
-149.1244888305664
 98
        0
1001
ACAD
1010
19753.43298086216
1020
-20085.06701379701
1030
0.0
  0
LWPOLYLINE
  5
236
330
1F
100
AcDbEntity
  8
Ech.1_5
  6
Continuous
 62
   190
370
    15
390
5F
100
AcDbPolyline
 90
        5
 70
     0
 43
0.0
 10
19753.43298086216
 20
-20085.067013797
 10
19753.43298086216
 20
-20477.82924685008
 10
19803.43298086216
 20
-20477.82924685008
 10
19803.43298086216
 20
-20085.067013797
 10
19753.43298086216
 20
-20085.067013797
  0
HATCH
  5
237
102
{ACAD_REACTORS
330
238
330
239
102
}
330
1F
100
AcDbEntity
  8
Ech.1_5
  6
Continuous
 62
    54
440
 33554687
370
     5
390
5F
100
AcDbHatch
 10
0.0
 20
0.0
 30
0.0
210
0.0
220
0.0
230
1.0
  2
SOLID
 70
     1
 71
     0
 91
        1
 92
        3
 72
     0
 73
     1
 93
        4
 10
19773.43298086217
 20
-20083.06701354652
 10
19773.43298086217
 20
-19923.06650552868
 10
19743.43298086217
 20
-19923.06650552868
 10
19743.43298086217
 20
-20083.06701354652
 97
        0
 75
     0
 76
     1
 98
        0
  0
HATCH
  5
23A
102
{ACAD_REACTORS
330
238
330
239
102
}
330
1F
100
AcDbEntity
  8
Ech.1_5
  6
Continuous
 62
     8
440
 33554687
370
    20
390
5F
100
AcDbHatch
 10
0.0
 20
0.0
 30
0.0
210
0.0
220
0.0
230
1.0
  2
CwHatchPattern_201
 70
     0
 71
     0
 91
        1
 92
        3
 72
     0
 73
     1
 93
        4
 10
19773.43298086217
 20
-20083.06701354652
 10
19773.43298086217
 20
-19923.06650552868
 10
19743.43298086217
 20
-19923.06650552868
 10
19743.43298086217
 20
-20083.06701354652
 97
        0
 75
     0
 76
     2
 52
90.0
 41
0.6000000238418579
 77
     0
 78
    29
 53
90.0
 43
19773.43298086217
 44
-20083.73660456785
 45
-30.0000011920929
 46
0.0000000000000018
 79
     2
 49
1.339182042645692
 49
-3.660819199117782
 53
180.0000000000059
 43
19769.24436871148
 44
-20088.06701183786
 45
0.0000000000010335
 46
-9.999999443689944
 79
     2
 49
0.8113890016630876
 49
-29.18861219042981
 53
180.0000000000059
 43
19748.43298082243
 44
-20083.06701354653
 45
0.0000000000010335
 46
-9.999999443689944
 79
     2
 49
0.8113890016630876
 49
-29.18861219042981
 53
194.9324645996163
 43
19767.36042579413
 44
-20078.18618723697
 45
-29.99985734426157
 46
-10.00054795343678
 79
     2
 49
18.47891737933622
 49
-136.7628304466734
 53
165.0675354003956
 43
19767.36042579413
 44
-20077.94784041239
 45
29.99985734426363
 46
-10.00054795343058
 79
     2
 49
18.47891737933622
 49
-136.7628304466734
 53
105.2551193237315
 43
19773.43298086217
 44
-20082.3974225252
 45
-0.0000002680644965
 46
-9.999999129768486
 79
     2
 49
1.359123015766261
 49
-112.6584250393876
 53
254.7448883056749
 43
19773.43298086217
 44
-20083.73660456785
 45
0.0000015996469974
 46
-9.999999129768362
 79
     2
 49
1.359123015766261
 49
-112.6584250393876
 53
105.2551193237315
 43
19743.79058752578
 44
-20080.04783742024
 45
-0.0000002680644965
 46
-9.999999129768486
 79
     2
 49
1.359123015766261
 49
-112.6584250393876
 53
74.74488067626852
 43
19743.43297967008
 44
-20077.39742427857
 45
-0.0000002680644954
 46
9.999999129768486
 79
     2
 49
1.359123015766261
 49
-112.6584250393876
 53
120.9637565612813
 43
19773.07537184418
 44
-20081.08619138148
 45
0.0000000664304009
 46
-10.00000117164549
 79
     2
 49
1.305711023239731
 49
-57.00380742565017
 53
239.0362396240333
 43
19773.07537184418
 44
-20085.05523360196
 45
-0.0000007322186796
 46
-10.00000117164546
 79
     2
 49
1.305711023239731
 49
-57.00380742565017
 53
120.9637565612813
 43
19744.46237290709
 44
-20081.16747340433
 45
0.0000000664304009
 46
-10.00000117164549
 79
     2
 49
1.305711023239731
 49
-57.00380742565017
 53
59.03624343871866
 43
19743.79058752578
 44
-20076.08619022913
 45
0.0000000664304025
 46
10.00000117164549
 79
     2
 49
1.305711023239731
 49
-57.00380742565017
 53
135.000000000003
 43
19772.40358780397
 44
-20079.96655539739
 45
0.0000000000005137
 46
-10.00000208068299
 79
     2
 49
1.11038701178181
 49
-41.31602260732734
 53
225.0000000000089
 43
19772.40358780397
 44
-20086.16747169566
 45
0.0000000000015529
 46
-10.00000208068299
 79
     2
 49
1.11038701178181
 49
-41.31602260732734
 53
135.000000000003
 43
19745.24753204931
 44
-20081.95263353003
 45
0.0000000000005137
 46
-10.00000208068299
 79
     2
 49
1.11038701178181
 49
-41.31602260732734
 53
44.99999999999704
 43
19744.46237290709
 44
-20074.96655388741
 45
0.000000000000518
 46
10.00000208068299
 79
     2
 49
1.11038701178181
 49
-41.31602260732734
 53
146.309932708744
 43
19771.61842776768
 44
-20079.18139232126
 45
0.0000011320364376
 46
-10.00000090197813
 79
     2
 49
1.164687083748461
 49
-34.89082570436892
 53
213.6900634765706
 43
19771.61842776768
 44
-20086.95263477179
 45
-0.0000017978247025
 46
-10.00000090197804
 79
     2
 49
1.164687083748461
 49
-34.89082570436892
 53
146.309932708744
 43
19746.21661205913
 44
-20082.59868651228
 45
0.0000011320364376
 46
-10.00000090197813
 79
     2
 49
1.164687083748461
 49
-34.89082570436892
 53
33.69006729125606
 43
19745.24753204931
 44
-20074.18139116891
 45
0.000001132036436
 46
10.00000090197813
 79
     2
 49
1.164687083748461
 49
-34.89082570436892
 53
161.5650482177782
 43
19770.64934972481
 44
-20078.53533933901
 45
0.0000005013314582
 46
-10.00000161185422
 79
     2
 49
1.480980067689419
 49
-30.14179921713662
 53
198.4349517822336
 43
19770.64934972481
 44
-20087.59868775404
 45
-0.0000005013293921
 46
-10.00000161185422
 79
     2
 49
1.480980067689419
 49
-30.14179921713662
 53
161.5650482177782
 43
19747.62159182077
 44
-20083.06701354653
 45
0.0000005013314582
 46
-10.00000161185422
 79
     2
 49
1.480980067689419
 49
-30.14179921713662
 53
18.43495178222185
 43
19746.21661205913
 44
-20073.53534140531
 45
0.0000005013314576
 46
10.00000161185422
 79
     2
 49
1.480980067689419
 49
-30.14179921713662
 53
173.6598052978571
 43
19768.43298257084
 44
-20088.06701183786
 45
60.00000541247286
 46
-10.00000322814226
 79
     2
 49
1.079157067503811
 49
-89.47469685374472
 53
186.3401947021548
 43
19768.43298257084
 44
-20078.06701525519
 45
-60.00000541247078
 46
-10.00000322815466
 79
     2
 49
1.079157067503811
 49
-89.4746968537447
 53
353.659820556658
 43
19748.43298082243
 44
-20083.06701354653
 45
-60.00000807563475
 46
9.999987249161531
 79
     2
 49
1.079157067503811
 49
-89.47469685374472
 53
6.340194702142933
 43
19748.43298082243
 44
-20083.06701354653
 45
60.00000541247286
 46
10.00000322814225
 79
     2
 49
1.079157067503811
 49
-89.47469685374472
 98
        0
1001
ACAD
1010
19773.43298086217
1020
-20083.06701354653
1030
0.0
  0
LWPOLYLINE
  5
23B
102
{ACAD_REACTORS
330
238
330
239
102
}
330
1F
100
AcDbEntity
  8
Ech.1_5
  6
Continuous
 62
   190
370
    15
390
5F
100
AcDbPolyline
 90
        5
 70
     0
 43
0.0
 10
19773.43298086217
 20
-20083.06701354652
 10
19773.43298086217
 20
-19923.06650552868
 10
19743.43298086217
 20
-19923.06650552868
 10
19743.43298086217
 20
-20083.06701354652
 10
19773.43298086217
 20
-20083.06701354652
  0
HATCH
  5
23D
330
1F
100
AcDbEntity
  8
Ech.1_5
  6
Continuous
 62
   254
420
 14407639
440
 33554687
370
     5
390
5F
100
AcDbHatch
 10
0.0
 20
0.0
 30
0.0
210
0.0
220
0.0
230
1.0
  2
SOLID
 70
     1
 71
     0
 91
        1
 92
        3
 72
     0
 73
     1
 93
        4
 10
19816.43298086217
 20
-19923.06650552868
 10
19816.43298086217
 20
-19508.25769682836
 10
19803.43298086217
 20
-19508.25769682836
 10
19803.43298086217
 20
-19923.06650552868
 97
        0
 75
     0
 76
     1
 98
        0
  0
HATCH
  5
23E
330
1F
100
AcDbEntity
  8
Ech.1_5
  6
Continuous
 62
   190
440
 33554687
370
    15
390
23C
100
AcDbHatch
 10
0.0
 20
0.0
 30
0.0
210
0.0
220
0.0
230
1.0
  2
CwHatchPattern_84
 70
     0
 71
     0
 91
        1
 92
        3
 72
     0
 73
     1
 93
        4
 10
19816.43298086217
 20
-19923.06650552868
 10
19816.43298086217
 20
-19508.25769682836
 10
19803.43298086217
 20
-19508.25769682836
 10
19803.43298086217
 20
-19923.06650552868
 97
        0
 75
     0
 76
     2
 52
0.0
 41
1.0
 77
     0
 78
     2
 53
0.0
 43
0.0
 44
0.0
 45
0.0
 46
70.0
 79
     2
 49
0.0
 49
-70.0
 53
0.0
 43
35.0
 44
35.0
 45
0.0
 46
70.0
 79
     2
 49
0.0
 49
-70.0
 98
        0
1001
ACAD
1010
0.0
1020
0.0
1030
0.0
  0
LWPOLYLINE
  5
23F
330
1F
100
AcDbEntity
  8
Ech.1_5
  6
Continuous
 62
   190
370
    15
390
5F
100
AcDbPolyline
 90
        5
 70
     0
 43
0.0
 10
19816.43298086217
 20
-19923.06650552868
 10
19816.43298086217
 20
-19508.25769682836
 10
19803.43298086217
 20
-19508.25769682836
 10
19803.43298086217
 20
-19923.06650552868
 10
19816.43298086217
 20
-19923.06650552868
  0
HATCH
  5
240
330
1F
100
AcDbEntity
  8
Ech.1_5
  6
Continuous
 62
    33
420
 12426362
440
 33554687
370
     5
390
5F
100
AcDbHatch
 10
0.0
 20
0.0
 30
0.0
210
0.0
220
0.0
230
1.0
  2
SOLID
 70
     1
 71
     0
 91
        1
 92
        3
 72
     0
 73
     1
 93
        4
 10
19743.43298086217
 20
-19878.10884374714
 10
19598.43298086217
 20
-19878.10884374714
 10
19598.43298086217
 20
-19923.10884374714
 10
19743.43298086217
 20
-19923.10884374714
 97
        0
 75
     0
 76
     1
 98
        0
  0
LINE
  5
241
330
1F
100
AcDbEntity
  8
Ech.1_5
  6
Continuous
 62
   190
370
    15
390
5F
100
AcDbLine
 10
19598.43298086217
 20
-19878.10884374714
 30
0.0
 11
19743.43298086217
 21
-19923.10884374714
 31
0.0
  0
LINE
  5
242
330
1F
100
AcDbEntity
  8
Ech.1_5
  6
Continuous
 62
   190
370
    15
390
5F
100
AcDbLine
 10
19598.43298086217
 20
-19923.10884374714
 30
0.0
 11
19743.43298086217
 21
-19878.10884374714
 31
0.0
  0
LWPOLYLINE
  5
243
330
1F
100
AcDbEntity
  8
Ech.1_5
  6
Continuous
 62
     5
370
    40
390
5F
100
AcDbPolyline
 90
        5
 70
     0
 43
0.0
 10
19743.43298086217
 20
-19878.10884374714
 10
19598.43298086217
 20
-19878.10884374714
 10
19598.43298086217
 20
-19923.10884374714
 10
19743.43298086217
 20
-19923.10884374714
 10
19743.43298086217
 20
-19878.10884374714
  0
HATCH
  5
244
330
1F
100
AcDbEntity
  8
Ech.1_5
  6
Continuous
 62
   254
420
 14407639
440
 33554687
370
     5
390
5F
100
AcDbHatch
 10
0.0
 20
0.0
 30
0.0
210
0.0
220
0.0
230
1.0
  2
SOLID
 70
     1
 71
     0
 91
        1
 92
        3
 72
     0
 73
     1
 93
        4
 10
19803.43298086217
 20
-20083.06701354652
 10
19803.43298086217
 20
-20477.82924685008
 10
19816.43298086217
 20
-20477.82924685008
 10
19816.43298086217
 20
-20083.06701354652
 97
        0
 75
     0
 76
     1
 98
        0
  0
HATCH
  5
245
330
1F
100
AcDbEntity
  8
Ech.1_5
  6
Continuous
 62
   190
440
 33554687
370
    15
390
23C
100
AcDbHatch
 10
0.0
 20
0.0
 30
0.0
210
0.0
220
0.0
230
1.0
  2
CwHatchPattern_84
 70
     0
 71
     0
 91
        1
 92
        3
 72
     0
 73
     1
 93
        4
 10
19803.43298086217
 20
-20083.06701354652
 10
19803.43298086217
 20
-20477.82924685008
 10
19816.43298086217
 20
-20477.82924685008
 10
19816.43298086217
 20
-20083.06701354652
 97
        0
 75
     0
 76
     2
 52
0.0
 41
1.0
 77
     0
 78
     2
 53
0.0
 43
0.0
 44
0.0
 45
0.0
 46
70.0
 79
     2
 49
0.0
 49
-70.0
 53
0.0
 43
35.0
 44
35.0
 45
0.0
 46
70.0
 79
     2
 49
0.0
 49
-70.0
 98
        0
1001
ACAD
1010
0.0
1020
0.0
1030
0.0
  0
LWPOLYLINE
  5
246
330
1F
100
AcDbEntity
  8
Ech.1_5
  6
Continuous
 62
   190
370
    15
390
5F
100
AcDbPolyline
 90
        5
 70
     0
 43
0.0
 10
19803.43298086217
 20
-20083.06701354652
 10
19803.43298086217
 20
-20477.82924685008
 10
19816.43298086217
 20
-20477.82924685008
 10
19816.43298086217
 20
-20083.06701354652
 10
19803.43298086217
 20
-20083.06701354652
  0
LINE
  5
247
330
1F
100
AcDbEntity
  8
Ech.1_5
  6
Continuous
 62
   190
370
    15
390
5F
100
AcDbLine
 10
19743.43298086217
 20
-19535.31359466949
 30
0.0
 11
19743.43298086217
 21
-19508.25747286258
 31
0.0
  0
LWPOLYLINE
  5
248
330
1F
100
AcDbEntity
  8
Ech.1_5
  6
Continuous
 62
   190
370
    15
390
5F
100
AcDbPolyline
 90
        6
 70
     0
 43
0.0
 10
19836.43298086217
 20
-19508.25752394543
 10
19653.79533158156
 20
-19508.25910269199
 10
19637.30982842567
 20
-19526.23645101962
 10
19651.41976844348
 20
-19490.28075109897
 10
19634.93341436196
 20
-19508.25910269199
 10
19507.43298086217
 20
-19508.25854740375
  0
LWPOLYLINE
  5
249
330
1F
100
AcDbEntity
  8
Ech.1_5
  6
Continuous
 62
   190
370
    15
390
5F
100
AcDbPolyline
 90
        6
 70
     0
 43
0.0
 10
19836.43298086217
 20
-20477.82940391753
 10
19667.90527159939
 20
-20477.82808040666
 10
19651.41976844348
 20
-20459.85073207903
 10
19665.52970846128
 20
-20495.80643199968
 10
19649.04335437978
 20
-20477.82808040666
 10
19507.43298086217
 20
-20477.8287088496
  0
LWPOLYLINE
  5
24A
330
1F
100
AcDbEntity
  8
Ech.1_5
 62
   190
370
    15
390
5F
100
AcDbPolyline
 90
        5
 70
     0
 43
0.0
 10
20022.64302658787
 20
-19469.48452273749
 10
20157.07180557382
 20
-19469.48452273749
 10
20157.07180557382
 20
-19526.20748154934
 10
20022.64302658787
 20
-19526.20748154934
 10
20022.64302658787
 20
-19469.48452273749
  0
HATCH
  5
24B
330
1F
100
AcDbEntity
  8
Ech.1_5
  6
Continuous
 62
   190
440
 33554687
370
    15
390
5F
100
AcDbHatch
 10
0.0
 20
0.0
 30
0.0
210
0.0
220
0.0
230
1.0
  2
SOLID
 70
     1
 71
     0
 91
        1
 92
        3
 72
     0
 73
     1
 93
        4
 10
20040.92307237318
 20
-19503.14133386645
 10
20090.92307237318
 20
-19503.14133386645
 10
20090.92307237318
 20
-19495.72619633253
 10
20040.92307237318
 20
-19495.72619633253
 97
        0
 75
     0
 76
     1
 98
        0
  0
LWPOLYLINE
  5
24C
330
1F
100
AcDbEntity
  8
Ech.1_5
 62
   190
370
    15
390
5F
100
AcDbPolyline
 90
        5
 70
     0
 43
0.0
 10
20040.92307237318
 20
-19503.14133386645
 10
20090.92307237318
 20
-19503.14133386645
 10
20090.92307237318
 20
-19495.72619633253
 10
20040.92307237318
 20
-19495.72619633253
 10
20040.92307237318
 20
-19503.14133386645
  0
LWPOLYLINE
  5
24D
330
1F
100
AcDbEntity
  8
Ech.1_5
 62
   190
370
    15
390
5F
100
AcDbPolyline
 90
        5
 70
     0
 43
0.0
 10
20090.92307237318
 20
-19503.14133386645
 10
20140.92307237318
 20
-19503.14133386645
 10
20140.92307237318
 20
-19495.72619633253
 10
20090.92307237318
 20
-19495.72619633253
 10
20090.92307237318
 20
-19503.14133386645
  0
HATCH
  5
24E
330
1F
100
AcDbEntity
  8
Ech.1_5
  6
Continuous
 62
   190
440
 33554687
370
    15
390
5F
100
AcDbHatch
 10
0.0
 20
0.0
 30
0.0
210
0.0
220
0.0
230
1.0
  2
SOLID
 70
     1
 71
     0
 91
        1
 92
        3
 72
     0
 73
     1
 93
       12
 10
19797.43298086217
 20
-19874.0665052782
 10
19803.42886930441
 20
-19874.0665052782
 10
19803.43298086217
 20
-19923.06650552868
 10
19755.43298086217
 20
-19923.06650552868
 10
19755.43298086217
 20
-19874.0665052782
 10
19761.43298086217
 20
-19874.0665052782
 10
19761.43298086217
 20
-19876.0665052782
 10
19757.43298086217
 20
-19876.0665052782
 10
19757.43298086217
 20
-19921.0665052782
 10
19801.43298086217
 20
-19921.0665052782
 10
19801.43298086217
 20
-19876.0665052782
 10
19797.43298086217
 20
-19876.0665052782
 97
        0
 75
     0
 76
     1
 98
        0
  0
LWPOLYLINE
  5
24F
330
1F
100
AcDbEntity
  8
Ech.1_5
  6
Continuous
 62
   190
370
    15
390
5F
100
AcDbPolyline
 90
       13
 70
     0
 43
0.0
 10
19797.43298086217
 20
-19874.0665052782
 10
19803.42886930441
 20
-19874.0665052782
 10
19803.43298086217
 20
-19923.06650552868
 10
19755.43298086217
 20
-19923.06650552868
 10
19755.43298086217
 20
-19874.0665052782
 10
19761.43298086217
 20
-19874.0665052782
 10
19761.43298086217
 20
-19876.0665052782
 10
19757.43298086217
 20
-19876.0665052782
 10
19757.43298086217
 20
-19921.0665052782
 10
19801.43298086217
 20
-19921.0665052782
 10
19801.43298086217
 20
-19876.0665052782
 10
19797.43298086217
 20
-19876.0665052782
 10
19797.43298086217
 20
-19874.0665052782
  0
HATCH
  5
250
330
1F
100
AcDbEntity
  8
Ech.1_5
  6
Continuous
 62
   190
440
 33554687
370
    15
390
5F
100
AcDbHatch
 10
0.0
 20
0.0
 30
0.0
210
0.0
220
0.0
230
1.0
  2
SOLID
 70
     1
 71
     0
 91
        1
 92
        3
 72
     0
 73
     1
 93
       12
 10
19797.43298086217
 20
-20113.067013797
 10
19803.42886930441
 20
-20113.067013797
 10
19803.43298086217
 20
-20083.06701354652
 10
19755.43298086217
 20
-20083.06701354652
 10
19755.43298086217
 20
-20113.067013797
 10
19761.43298086217
 20
-20113.067013797
 10
19761.43298086217
 20
-20111.067013797
 10
19757.43298086217
 20
-20111.067013797
 10
19757.43298086217
 20
-20085.067013797
 10
19801.43298086217
 20
-20085.067013797
 10
19801.43298086217
 20
-20111.067013797
 10
19797.43298086217
 20
-20111.067013797
 97
        0
 75
     0
 76
     1
 98
        0
  0
LWPOLYLINE
  5
251
330
1F
100
AcDbEntity
  8
Ech.1_5
  6
Continuous
 62
   190
370
    15
390
5F
100
AcDbPolyline
 90
       13
 70
     0
 43
0.0
 10
19797.43298086217
 20
-20113.067013797
 10
19803.42886930441
 20
-20113.067013797
 10
19803.43298086217
 20
-20083.06701354652
 10
19755.43298086217
 20
-20083.06701354652
 10
19755.43298086217
 20
-20113.067013797
 10
19761.43298086217
 20
-20113.067013797
 10
19761.43298086217
 20
-20111.067013797
 10
19757.43298086217
 20
-20111.067013797
 10
19757.43298086217
 20
-20085.067013797
 10
19801.43298086217
 20
-20085.067013797
 10
19801.43298086217
 20
-20111.067013797
 10
19797.43298086217
 20
-20111.067013797
 10
19797.43298086217
 20
-20113.067013797
  0
HATCH
  5
252
330
1F
100
AcDbEntity
  8
Ech.1_5
  6
Continuous
 62
    33
420
 12426362
440
 33554687
370
     5
390
5F
100
AcDbHatch
 10
0.0
 20
0.0
 30
0.0
210
0.0
220
0.0
230
1.0
  2
SOLID
 70
     1
 71
     0
 91
        1
 92
        3
 72
     0
 73
     1
 93
        4
 10
19743.43298086217
 20
-19968.10884374714
 10
19598.43298086217
 20
-19968.10884374714
 10
19598.43298086217
 20
-20013.10884374714
 10
19743.43298086217
 20
-20013.10884374714
 97
        0
 75
     0
 76
     1
 98
        0
  0
LINE
  5
253
330
1F
100
AcDbEntity
  8
Ech.1_5
  6
Continuous
 62
   190
370
    15
390
5F
100
AcDbLine
 10
19598.43298086217
 20
-19968.10884374714
 30
0.0
 11
19743.43298086217
 21
-20013.10884374714
 31
0.0
  0
LINE
  5
254
330
1F
100
AcDbEntity
  8
Ech.1_5
  6
Continuous
 62
   190
370
    15
390
5F
100
AcDbLine
 10
19598.43298086217
 20
-20013.10884374714
 30
0.0
 11
19743.43298086217
 21
-19968.10884374714
 31
0.0
  0
LWPOLYLINE
  5
255
330
1F
100
AcDbEntity
  8
Ech.1_5
  6
Continuous
 62
     5
370
    40
390
5F
100
AcDbPolyline
 90
        5
 70
     0
 43
0.0
 10
19743.43298086217
 20
-19968.10884374714
 10
19598.43298086217
 20
-19968.10884374714
 10
19598.43298086217
 20
-20013.10884374714
 10
19743.43298086217
 20
-20013.10884374714
 10
19743.43298086217
 20
-19968.10884374714
  0
HATCH
  5
256
330
1F
100
AcDbEntity
  8
Ech.1_5
  6
Continuous
 62
    33
420
 12426362
440
 33554687
370
     5
390
5F
100
AcDbHatch
 10
0.0
 20
0.0
 30
0.0
210
0.0
220
0.0
230
1.0
  2
SOLID
 70
     1
 71
     0
 91
        1
 92
        3
 72
     0
 73
     1
 93
        4
 10
19743.43298086217
 20
-19923.06650552868
 10
19670.93298086216
 20
-19923.06650552868
 10
19670.93298086216
 20
-19968.06650552868
 10
19743.43298086217
 20
-19968.06650552868
 97
        0
 75
     0
 76
     1
 98
        0
  0
LINE
  5
257
330
1F
100
AcDbEntity
  8
Ech.1_5
  6
Continuous
 62
   190
370
    15
390
5F
100
AcDbLine
 10
19670.93298086216
 20
-19923.06650552868
 30
0.0
 11
19743.43298086217
 21
-19968.06650552868
 31
0.0
  0
LINE
  5
258
330
1F
100
AcDbEntity
  8
Ech.1_5
  6
Continuous
 62
   190
370
    15
390
5F
100
AcDbLine
 10
19670.93298086216
 20
-19968.06650552868
 30
0.0
 11
19743.43298086217
 21
-19923.06650552868
 31
0.0
  0
LWPOLYLINE
  5
259
330
1F
100
AcDbEntity
  8
Ech.1_5
  6
Continuous
 62
     5
370
    40
390
5F
100
AcDbPolyline
 90
        5
 70
     0
 43
0.0
 10
19743.43298086217
 20
-19923.06650552868
 10
19670.93298086216
 20
-19923.06650552868
 10
19670.93298086216
 20
-19968.06650552868
 10
19743.43298086217
 20
-19968.06650552868
 10
19743.43298086217
 20
-19923.06650552868
  0
LWPOLYLINE
  5
25A
102
{ACAD_REACTORS
330
238
330
239
102
}
330
1F
100
AcDbEntity
  8
Ech.1_5
  6
Continuous
 62
     9
370
    15
390
5F
100
AcDbPolyline
 90
        6
 70
     0
 43
0.0
 10
20087.00742825305
 20
-19891.93113410629
 10
20087.0089040717
 20
-19995.51149329612
 10
20104.98625247908
 20
-20011.99699649284
 10
20069.03055246727
 20
-19997.88705596397
 10
20087.0089040717
 20
-20014.37341079185
 10
20087.00808178664
 20
-20113.74989700875
  0
HATCH
  5
25B
102
{ACAD_REACTORS
330
238
330
239
102
}
330
1F
100
AcDbEntity
  8
Ech.1_5
  6
Continuous
 62
     9
440
 33554687
370
    15
390
5F
100
AcDbHatch
 10
0.0
 20
0.0
 30
0.0
210
0.0
220
0.0
230
1.0
  2
AR-CONC
 70
     0
 71
     0
 91
        1
 92
        3
 72
     0
 73
     1
 93
        8
 10
20104.98625247908
 20
-20011.99699649284
 10
20087.0089040717
 20
-19995.51149329612
 10
20087.00808178664
 20
-19923.06650552868
 10
19773.43298086217
 20
-19923.06650552868
 10
19773.43298086217
 20
-20083.06701354652
 10
20087.00808178664
 20
-20083.06701354652
 10
20087.00808178664
 20
-20014.37265674699
 10
20069.03055246727
 20
-19997.88705596397
 97
        0
 75
     0
 76
     1
 52
0.0
 41
1.5
 77
     0
 78
    13
 53
50.0
 43
20104.98625247908
 44
-20011.99699649284
 45
273.277003494006
 46
-23.90862830835461
 79
     2
 49
28.575
 49
-314.325
 53
355.0
 43
20104.98625247908
 44
-20011.99699649284
 45
-52.86513213745401
 46
286.5852678585527
 79
     2
 49
22.86
 49
-251.460876255
 53
100.4514447
 43
20127.75926297908
 44
-20013.98937674284
 45
220.4118706355301
 46
262.6766278682926
 79
     2
 49
24.2850132
 49
-267.1353669
 53
46.1842
 43
20104.98625247908
 44
-19935.79699649283
 45
406.6185613381949
 46
-63.06349189909072
 79
     2
 49
42.8625
 49
-471.4875
 53
96.63555760999999
 43
20138.87110247908
 44
-19941.05224649284
 45
356.1062010772545
 46
371.1391868965823
 79
     2
 49
36.42753471
 49
-400.70341224
 53
351.18415117
 43
20104.98625247908
 44
-19935.79699649283
 45
356.1062010974659
 46
371.1391868782986
 79
     2
 49
34.289950605
 49
-377.18959788
 53
21.0
 43
20143.08625247908
 44
-19954.84699649283
 45
227.4215869036987
 46
-153.3977972806314
 79
     2
 49
28.575
 49
-314.325
 53
325.9999999999999
 43
20143.08625247908
 44
-19954.84699649283
 45
92.70304252147088
 46
276.2819491834788
 79
     2
 49
22.86
 49
-251.46
 53
71.45144499999999
 43
20162.03805137908
 44
-19967.63014634284
 45
320.1246289180742
 46
122.8841533288579
 79
     2
 49
24.2850132
 49
-267.1349064
 53
37.5
 43
20104.98625247908
 44
-20011.99699649284
 45
4.632904875887725
 46
126.8325583097297
 79
     6
 49
0.0
 49
-248.412
 49
0.0
 49
-255.27
 49
0.0
 49
-252.4125
 53
7.5
 43
20104.98625247908
 44
-20011.99699649284
 45
100.2294937654586
 46
150.2708622271793
 79
     6
 49
0.0
 49
-145.542
 49
0.0
 49
-242.697
 49
0.0
 49
-96.20250000000001
 53
327.5
 43
20020.02325247908
 44
-20011.99699649284
 45
203.3858927503071
 46
-8.593115989010165
 79
     6
 49
0.0
 49
-95.25
 49
0.0
 49
-297.18
 49
0.0
 49
-394.335
 53
317.5
 43
19981.92325247908
 44
-20011.99699649284
 45
222.1937720790271
 46
38.13973654999954
 79
     6
 49
0.0
 49
-123.825
 49
0.0
 49
-197.358
 49
0.0
 49
-280.035
 98
        0
1001
ACAD
1010
20104.98625247908
1020
-20011.99699649284
1030
0.0
  0
LWPOLYLINE
  5
25C
102
{ACAD_REACTORS
330
238
330
239
102
}
330
1F
100
AcDbEntity
  8
Ech.1_5
  6
Continuous
 62
     9
370
    15
390
5F
100
AcDbPolyline
 90
        9
 70
     0
 43
0.0
 10
20104.98625247908
 20
-20011.99699649284
 10
20087.0089040717
 20
-19995.51149329612
 10
20087.00808178664
 20
-19923.06650552868
 10
19773.43298086217
 20
-19923.06650552868
 10
19773.43298086217
 20
-20083.06701354652
 10
20087.00808178664
 20
-20083.06701354652
 10
20087.00808178664
 20
-20014.37265674699
 10
20069.03055246727
 20
-19997.88705596397
 10
20104.98625247908
 20
-20011.99699649284
  0
LWPOLYLINE
  5
25D
102
{ACAD_REACTORS
330
238
330
239
102
}
330
1F
100
AcDbEntity
  8
Ech.1_5
  6
Continuous
 62
   190
370
    15
390
5F
100
AcDbPolyline
 90
        3
 70
     0
 43
0.0
 10
19759.18298086217
 20
-19998.68016627635
 10
19874.90356767335
 20
-19865.47534363407
 10
19894.90356767335
 20
-19865.47534363407
  0
INSERT
  5
25E
102
{ACAD_REACTORS
330
238
330
239
102
}
330
1F
100
AcDbEntity
  8
Ech.1_5
 62
   190
370
    15
100
AcDbBlockReference
  2
cw-line-extremity4
 10
19759.18298086217
 20
-19998.68016627635
 30
0.0
 50
49.01779138665434
  0
TEXT
  5
261
102
{ACAD_REACTORS
330
238
330
239
102
}
330
1F
100
AcDbEntity
  8
Ech.1_5
  6
Continuous
 62
     7
390
5F
100
AcDbText
 10
19903.30343362139
 20
-19859.91401130937
 30
0.0
 40
12.92575197796608
  1
Etanchéité de jonction
 41
0.9712726717650645
  7
arial-
100
AcDbText
  0
TEXT
  5
262
102
{ACAD_REACTORS
330
238
330
239
102
}
330
1F
100
AcDbEntity
  8
Ech.1_5
  6
Continuous
 62
     7
390
5F
100
AcDbText
 10
19903.40529151925
 20
-19882.20813328322
 30
0.0
 40
12.91433462183776
  1
Laine de roche
 41
0.9710514969095599
  7
arial-
100
AcDbText
  0
TEXT
  5
263
102
{ACAD_REACTORS
330
238
330
239
102
}
330
1F
100
AcDbEntity
  8
Ech.1_5
  6
Continuous
 62
     7
390
5F
100
AcDbText
 10
20024.14438421216
 20
-19882.07865891433
 30
0.0
 40
11.84221957479273
  1
r
 41
0.9862266738510993
  7
symbol-
100
AcDbText
  0
TEXT
  5
264
102
{ACAD_REACTORS
330
238
330
239
102
}
330
1F
100
AcDbEntity
  8
Ech.1_5
  6
Continuous
 62
     7
390
5F
100
AcDbText
 10
20038.44971916094
 20
-19882.10666671354
 30
0.0
 40
12.02016950530164
  1
=
 41
0.9774618934313184
  7
symbol-
100
AcDbText
  0
TEXT
  5
265
102
{ACAD_REACTORS
330
238
330
239
102
}
330
1F
100
AcDbEntity
  8
Ech.1_5
  6
Continuous
 62
     7
390
5F
100
AcDbText
 10
20052.49853520271
 20
-19882.14905362706
 30
0.0
 40
12.65281000558068
  1
40kg/m
 41
0.9946494784030636
  7
arial-
100
AcDbText
  0
TEXT
  5
266
102
{ACAD_REACTORS
330
238
330
239
102
}
330
1F
100
AcDbEntity
  8
Ech.1_5
  6
Continuous
 62
     7
390
5F
100
AcDbText
 10
20110.59932336034
 20
-19876.03725069172
 30
0.0
 40
8.216271335651312
  1
3
 41
1.023301849469733
  7
arial-
100
AcDbText
  0
LWPOLYLINE
  5
267
102
{ACAD_REACTORS
330
268
330
239
102
}
330
1F
100
AcDbEntity
  8
Ech.1_5
  6
Continuous
 62
   190
370
    15
390
5F
100
AcDbPolyline
 90
        3
 70
     0
 43
0.0
 10
19838.16549785627
 20
-20003.00668299763
 10
19883.08032053865
 20
-20181.30151020356
 10
19894.90356767335
 20
-20181.30151020356
  0
INSERT
  5
269
102
{ACAD_REACTORS
330
268
330
239
102
}
330
1F
100
AcDbEntity
  8
Ech.1_5
 62
   190
370
    15
100
AcDbBlockReference
  2
cw-line-extremity4
 10
19838.16549785627
 20
-20003.00668299763
 30
0.0
 50
284.1393677549163
  0
LWPOLYLINE
  5
26B
330
1F
100
AcDbEntity
  8
Ech.1_5
  6
CADWORK_22
 62
     1
 48
0.6
370
    20
390
5F
100
AcDbPolyline
 90
        2
 70
   128
 43
0.0
 10
19744.93298086217
 20
-19508.25747286258
 10
19744.93298086217
 20
-19935.52442131914
  0
LWPOLYLINE
  5
26C
330
1F
100
AcDbEntity
  8
Ech.1_5
  6
CADWORK_22
 62
     1
 48
0.6
370
    20
390
5F
100
AcDbPolyline
 90
        2
 70
   128
 43
0.0
 10
19744.93298086217
 20
-20477.82955669451
 10
19744.93298086217
 20
-19935.52442131914
  0
HATCH
  5
26D
330
1F
100
AcDbEntity
  8
Ech.1_5
  6
Continuous
 62
   254
420
 13882323
440
 33554687
370
    20
390
5F
100
AcDbHatch
 10
0.0
 20
0.0
 30
0.0
210
0.0
220
0.0
230
1.0
  2
SOLID
 70
     1
 71
     0
 91
        1
 92
        3
 72
     0
 73
     1
 93
        4
 10
19583.43298086217
 20
-19508.25863028232
 10
19554.45940569955
 20
-19508.25863028232
 10
19554.45940569955
 20
-19870.602124448
 10
19583.43298086217
 20
-19870.602124448
 97
        0
 75
     0
 76
     1
 98
        0
  0
LWPOLYLINE
  5
26E
330
1F
100
AcDbEntity
  8
Ech.1_5
  6
Continuous
 62
     7
370
    20
390
5F
100
AcDbPolyline
 90
        5
 70
     0
 43
0.0
 10
19583.43298086217
 20
-19508.25863028232
 10
19554.45940569955
 20
-19508.25863028232
 10
19554.45940569955
 20
-19870.602124448
 10
19583.43298086217
 20
-19870.602124448
 10
19583.43298086217
 20
-19508.25863028232
  0
HATCH
  5
26F
330
1F
100
AcDbEntity
  8
Ech.1_5
  6
Continuous
 62
   254
420
 13882323
440
 33554687
370
    20
390
5F
100
AcDbHatch
 10
0.0
 20
0.0
 30
0.0
210
0.0
220
0.0
230
1.0
  2
SOLID
 70
     1
 71
     0
 91
        1
 92
        3
 72
     0
 73
     1
 93
        4
 10
19583.43298086216
 20
-20477.82829515011
 10
19583.43298086217
 20
-19990.56650511967
 10
19554.45940569955
 20
-19990.56650511967
 10
19554.45940569961
 20
-20477.82829515011
 97
        0
 75
     0
 76
     1
 98
        0
  0
LWPOLYLINE
  5
270
330
1F
100
AcDbEntity
  8
Ech.1_5
  6
Continuous
 62
     7
370
    20
390
5F
100
AcDbPolyline
 90
        5
 70
     0
 43
0.0
 10
19583.43298086216
 20
-20477.82829515011
 10
19583.43298086217
 20
-19990.56650511967
 10
19554.45940569955
 20
-19990.56650511967
 10
19554.45940569961
 20
-20477.82829515011
 10
19583.43298086216
 20
-20477.82829515011
  0
HATCH
  5
271
330
1F
100
AcDbEntity
  8
Ech.1_5
  6
Continuous
 62
   106
440
 33554687
370
     5
390
5F
100
AcDbHatch
 10
0.0
 20
0.0
 30
0.0
210
0.0
220
0.0
230
1.0
  2
SOLID
 70
     1
 71
     0
 91
        1
 92
        3
 72
     0
 73
     1
 93
        4
 10
19598.43298086217
 20
-19918.02416731023
 10
19598.43298086217
 20
-19508.25918557056
 10
19583.43298086217
 20
-19508.25918557056
 10
19583.43298086217
 20
-19918.02482439184
 97
        0
 75
     0
 76
     1
 98
        0
  0
HATCH
  5
272
330
1F
100
AcDbEntity
  8
Ech.1_5
  6
Continuous
 62
   190
440
 33554687
370
    15
390
5F
100
AcDbHatch
 10
0.0
 20
0.0
 30
0.0
210
0.0
220
0.0
230
1.0
  2
CwHatchPattern_74
 70
     0
 71
     0
 91
        1
 92
        3
 72
     0
 73
     1
 93
        4
 10
19598.43298086217
 20
-19918.02416731023
 10
19598.43298086217
 20
-19508.25918557056
 10
19583.43298086217
 20
-19508.25918557056
 10
19583.43298086217
 20
-19918.02482439184
 97
        0
 75
     0
 76
     2
 52
0.0
 41
3.0
 77
     0
 78
     3
 53
45.00000000000297
 43
0.0
 44
0.0
 45
-0.0000000000217213
 46
210.0
 79
     0
 53
45.00000000000297
 43
0.0
 44
54.0
 45
-0.0000000000217213
 46
210.0
 79
     0
 53
45.00000000000297
 43
0.0
 44
108.0
 45
-0.0000000000217213
 46
210.0
 79
     0
 98
        0
1001
ACAD
1010
0.0
1020
0.0
1030
0.0
  0
3DFACE
  5
273
330
1F
100
AcDbEntity
  8
Ech.1_5
  6
Continuous
 62
     7
370
    20
390
5F
100
AcDbFace
 10
19598.43298086217
 20
-19918.02416731023
 30
2500.0
 11
19598.43298086217
 21
-19508.25918557056
 31
2500.0
 12
19583.43298086217
 22
-19508.25918557056
 32
2500.0
 13
19583.43298086217
 23
-19918.02482439184
 33
2500.0
  0
HATCH
  5
274
330
1F
100
AcDbEntity
  8
Ech.1_5
  6
Continuous
 62
   254
420
 13882323
440
 33554687
370
    20
390
5F
100
AcDbHatch
 10
0.0
 20
0.0
 30
0.0
210
0.0
220
0.0
230
1.0
  2
SOLID
 70
     1
 71
     0
 91
        1
 92
        3
 72
     0
 73
     1
 93
        4
 10
19554.45940569955
 20
-19870.60201670586
 10
19554.45940569955
 20
-19508.25863028232
 10
19528.45940569955
 20
-19508.25863028232
 10
19528.45940569955
 20
-19889.32182869963
 97
        0
 75
     0
 76
     1
 98
        0
  0
LWPOLYLINE
  5
275
330
1F
100
AcDbEntity
  8
Ech.1_5
  6
Continuous
 62
     7
370
    20
390
5F
100
AcDbPolyline
 90
        5
 70
     0
 43
0.0
 10
19554.45940569955
 20
-19870.60201670586
 10
19554.45940569955
 20
-19508.25863028232
 10
19528.45940569955
 20
-19508.25863028232
 10
19528.45940569955
 20
-19889.32182869963
 10
19554.45940569955
 20
-19870.60201670586
  0
HATCH
  5
276
330
1F
100
AcDbEntity
  8
Ech.1_5
  6
Continuous
 62
   106
440
 33554687
370
     5
390
5F
100
AcDbHatch
 10
0.0
 20
0.0
 30
0.0
210
0.0
220
0.0
230
1.0
  2
SOLID
 70
     1
 71
     0
 91
        1
 92
        3
 72
     0
 73
     1
 93
        4
 10
19583.43298086217
 20
-19973.06657200428
 10
19583.43298086217
 20
-20477.82829515011
 10
19598.43298086217
 20
-20477.82829515011
 10
19598.43298086217
 20
-19973.06722908588
 97
        0
 75
     0
 76
     1
 98
        0
  0
HATCH
  5
277
330
1F
100
AcDbEntity
  8
Ech.1_5
  6
Continuous
 62
   190
440
 33554687
370
    15
390
5F
100
AcDbHatch
 10
0.0
 20
0.0
 30
0.0
210
0.0
220
0.0
230
1.0
  2
CwHatchPattern_74
 70
     0
 71
     0
 91
        1
 92
        3
 72
     0
 73
     1
 93
        4
 10
19583.43298086217
 20
-19973.06657200428
 10
19583.43298086217
 20
-20477.82829515011
 10
19598.43298086217
 20
-20477.82829515011
 10
19598.43298086217
 20
-19973.06722908588
 97
        0
 75
     0
 76
     2
 52
0.0
 41
3.0
 77
     0
 78
     3
 53
45.00000000000297
 43
0.0
 44
0.0
 45
-0.0000000000217213
 46
210.0
 79
     0
 53
45.00000000000297
 43
0.0
 44
54.0
 45
-0.0000000000217213
 46
210.0
 79
     0
 53
45.00000000000297
 43
0.0
 44
108.0
 45
-0.0000000000217213
 46
210.0
 79
     0
 98
        0
1001
ACAD
1010
0.0
1020
0.0
1030
0.0
  0
3DFACE
  5
278
330
1F
100
AcDbEntity
  8
Ech.1_5
  6
Continuous
 62
     7
370
    20
390
5F
100
AcDbFace
 10
19583.43298086217
 20
-19973.06657200428
 30
2500.0
 11
19583.43298086217
 21
-20477.82829515011
 31
2500.0
 12
19598.43298086217
 22
-20477.82829515011
 32
2500.0
 13
19598.43298086217
 23
-19973.06722908588
 33
2500.0
  0
HATCH
  5
279
330
1F
100
AcDbEntity
  8
Ech.1_5
  6
Continuous
 62
   254
420
 13882323
440
 33554687
370
    20
390
5F
100
AcDbHatch
 10
0.0
 20
0.0
 30
0.0
210
0.0
220
0.0
230
1.0
  2
SOLID
 70
     1
 71
     0
 91
        1
 92
        3
 72
     0
 73
     1
 93
        4
 10
19528.45940569955
 20
-19990.56650511967
 10
19528.45940569955
 20
-20477.82829515011
 10
19554.45940569955
 20
-20477.82829515011
 10
19554.45940569955
 20
-19990.56650511967
 97
        0
 75
     0
 76
     1
 98
        0
  0
LWPOLYLINE
  5
27A
330
1F
100
AcDbEntity
  8
Ech.1_5
  6
Continuous
 62
     7
370
    20
390
5F
100
AcDbPolyline
 90
        5
 70
     0
 43
0.0
 10
19528.45940569955
 20
-19990.56650511967
 10
19528.45940569955
 20
-20477.82829515011
 10
19554.45940569955
 20
-20477.82829515011
 10
19554.45940569955
 20
-19990.56650511967
 10
19528.45940569955
 20
-19990.56650511967
  0
HATCH
  5
27B
330
1F
100
AcDbEntity
  8
Ech.1_5
  6
Continuous
 62
   190
440
 33554687
370
    15
390
5F
100
AcDbHatch
 10
0.0
 20
0.0
 30
0.0
210
0.0
220
0.0
230
1.0
  2
CwHatchPattern_20
 70
     0
 71
     0
 91
        1
 92
        3
 72
     1
 73
     1
 93
        8
 10
19577.25901258202
 20
-19790.46688899679
 42
0.4895109521039084
 10
19567.43298086216
 20
-19775.82132102405
 42
0.4895109521039084
 10
19557.6069491423
 20
-19790.46688899679
 42
0.0
 10
19557.6069491423
 20
-19790.89631624033
 42
0.0
 10
19557.6069491423
 20
-19839.71756661535
 42
0.489510952103573
 10
19567.43298086216
 20
-19854.3631345881
 42
0.489510952103573
 10
19577.25901258202
 20
-19839.71756661535
 42
0.0
 10
19577.25901258202
 20
-19839.28813937182
 42
0.0
 97
        0
 75
     0
 76
     2
 52
0.0
 41
1.0
 77
     0
 78
     2
 53
45.00000000000297
 43
0.0
 44
0.0
 45
-7.071067811865841
 46
7.07106781186511
 79
     0
 53
135.0000000000089
 43
0.0
 44
0.0
 45
-7.071067811864377
 46
-7.071067811866573
 79
     0
 98
        0
1001
ACAD
1010
0.0
1020
0.0
1030
0.0
  0
LWPOLYLINE
  5
27C
330
1F
100
AcDbEntity
  8
Ech.1_5
  6
Continuous
 62
   190
370
    15
390
5F
100
AcDbPolyline
 90
        9
 70
   128
 43
0.0
 10
19577.25901258202
 20
-19790.46688899679
 42
0.4895109521040255
 10
19567.43298086216
 20
-19775.82132102405
 42
0.4895109521040255
 10
19557.6069491423
 20
-19790.46688899679
 10
19557.6069491423
 20
-19790.89631624033
 10
19557.6069491423
 20
-19839.71756661535
 42
0.4895109521032303
 10
19567.43298086216
 20
-19854.3631345881
 42
0.4895109521039157
 10
19577.25901258202
 20
-19839.71756661535
 10
19577.25901258202
 20
-19839.28813937182
 10
19577.25901258202
 20
-19790.46688899679
  0
LWPOLYLINE
  5
27D
330
1F
100
AcDbEntity
  8
Ech.1_5
  6
Continuous
 62
   177
370
    70
390
5F
100
AcDbPolyline
 90
        5
 70
     0
 43
0.0
 10
19580.43298086217
 20
-19859.32182869962
 10
19580.43298086217
 20
-19893.83129427256
 10
19392.60301240507
 20
-19913.06650552868
 10
19392.57594348327
 20
-19986.61890963979
 10
19401.12834426315
 20
-19978.06650511967
  0
HATCH
  5
27E
330
1F
100
AcDbEntity
  8
Ech.1_5
  6
Continuous
 62
    44
420
 11039488
440
 33554687
370
     5
390
5F
100
AcDbHatch
 10
0.0
 20
0.0
 30
0.0
210
0.0
220
0.0
230
1.0
  2
SOLID
 70
     1
 71
     0
 91
        1
 92
        3
 72
     0
 73
     1
 93
        4
 10
19402.5843449193
 20
-19968.06650511967
 10
19670.93298086216
 20
-19968.06650511967
 10
19670.93298086216
 20
-19923.06650552868
 10
19402.59961878802
 20
-19923.06650552868
 97
        0
 75
     0
 76
     1
 98
        0
  0
HATCH
  5
27F
330
1F
100
AcDbEntity
  8
Ech.1_5
  6
Continuous
 62
   190
440
 33554687
370
    15
390
5F
100
AcDbHatch
 10
0.0
 20
0.0
 30
0.0
210
0.0
220
0.0
230
1.0
  2
CwHatchPattern_23
 70
     0
 71
     0
 91
        1
 92
        3
 72
     0
 73
     1
 93
        4
 10
19402.5843449193
 20
-19968.06650511967
 10
19670.93298086216
 20
-19968.06650511967
 10
19670.93298086216
 20
-19923.06650552868
 10
19402.59961878802
 20
-19923.06650552868
 97
        0
 75
     0
 76
     2
 52
0.0
 41
1.0
 77
     0
 78
     1
 53
0.0
 43
0.0
 44
0.0
 45
0.0
 46
10.0
 79
     0
 98
        0
1001
ACAD
1010
0.0
1020
0.0
1030
0.0
  0
LWPOLYLINE
  5
280
330
1F
100
AcDbEntity
  8
Ech.1_5
  6
Continuous
 62
   190
370
    15
390
5F
100
AcDbPolyline
 90
        5
 70
     0
 43
0.0
 10
19402.5843449193
 20
-19968.06650511967
 10
19670.93298086216
 20
-19968.06650511967
 10
19670.93298086216
 20
-19923.06650552868
 10
19402.59961878802
 20
-19923.06650552868
 10
19402.5843449193
 20
-19968.06650511967
  0
HATCH
  5
281
102
{ACAD_REACTORS
330
282
102
}
330
1F
100
AcDbEntity
  8
Ech.1_5
  6
Continuous
 62
    33
420
 12426362
440
 33554687
370
     5
390
5F
100
AcDbHatch
 10
0.0
 20
0.0
 30
0.0
210
0.0
220
0.0
230
1.0
  2
SOLID
 70
     1
 71
     0
 91
        1
 92
        3
 72
     0
 73
     1
 93
        4
 10
19598.43298086217
 20
-19968.06650552868
 10
19598.43298086217
 20
-20013.06650552868
 10
19743.43298086217
 20
-20013.06650552868
 10
19743.43298086217
 20
-19968.06650552868
 97
        0
 75
     0
 76
     1
 98
        0
  0
LINE
  5
283
102
{ACAD_REACTORS
330
282
102
}
330
1F
100
AcDbEntity
  8
Ech.1_5
  6
Continuous
 62
   190
370
    15
390
5F
100
AcDbLine
 10
19598.43298086217
 20
-20013.06650552868
 30
0.0
 11
19743.43298086217
 21
-19968.06650552868
 31
0.0
  0
LINE
  5
284
102
{ACAD_REACTORS
330
282
102
}
330
1F
100
AcDbEntity
  8
Ech.1_5
  6
Continuous
 62
   190
370
    15
390
5F
100
AcDbLine
 10
19743.43298086217
 20
-20013.06650552868
 30
0.0
 11
19598.43298086217
 21
-19968.06650552868
 31
0.0
  0
LWPOLYLINE
  5
285
102
{ACAD_REACTORS
330
282
102
}
330
1F
100
AcDbEntity
  8
Ech.1_5
  6
Continuous
 62
     5
370
    40
390
5F
100
AcDbPolyline
 90
        5
 70
     0
 43
0.0
 10
19598.43298086217
 20
-19968.06650552868
 10
19598.43298086217
 20
-20013.06650552868
 10
19743.43298086217
 20
-20013.06650552868
 10
19743.43298086217
 20
-19968.06650552868
 10
19598.43298086217
 20
-19968.06650552868
  0
HATCH
  5
286
102
{ACAD_REACTORS
330
287
102
}
330
1F
100
AcDbEntity
  8
Ech.1_5
  6
Continuous
 62
    33
420
 12426362
440
 33554687
370
     5
390
5F
100
AcDbHatch
 10
0.0
 20
0.0
 30
0.0
210
0.0
220
0.0
230
1.0
  2
SOLID
 70
     1
 71
     0
 91
        1
 92
        3
 72
     0
 73
     1
 93
        4
 10
19598.43298086217
 20
-19878.02416731023
 10
19598.43298086217
 20
-19923.02416731023
 10
19743.43298086217
 20
-19923.02416731023
 10
19743.43298086217
 20
-19878.02416731023
 97
        0
 75
     0
 76
     1
 98
        0
  0
LINE
  5
288
102
{ACAD_REACTORS
330
287
102
}
330
1F
100
AcDbEntity
  8
Ech.1_5
  6
Continuous
 62
   190
370
    15
390
5F
100
AcDbLine
 10
19598.43298086217
 20
-19923.02416731023
 30
0.0
 11
19743.43298086217
 21
-19878.02416731023
 31
0.0
  0
LINE
  5
289
102
{ACAD_REACTORS
330
287
102
}
330
1F
100
AcDbEntity
  8
Ech.1_5
  6
Continuous
 62
   190
370
    15
390
5F
100
AcDbLine
 10
19743.43298086217
 20
-19923.02416731023
 30
0.0
 11
19598.43298086217
 21
-19878.02416731023
 31
0.0
  0
LWPOLYLINE
  5
28A
102
{ACAD_REACTORS
330
287
102
}
330
1F
100
AcDbEntity
  8
Ech.1_5
  6
Continuous
 62
     5
370
    40
390
5F
100
AcDbPolyline
 90
        5
 70
     0
 43
0.0
 10
19598.43298086217
 20
-19878.02416731023
 10
19598.43298086217
 20
-19923.02416731023
 10
19743.43298086217
 20
-19923.02416731023
 10
19743.43298086217
 20
-19878.02416731023
 10
19598.43298086217
 20
-19878.02416731023
  0
LWPOLYLINE
  5
28B
102
{ACAD_REACTORS
330
28C
102
}
330
1F
100
AcDbEntity
  8
Ech.1_5
  6
Continuous
 62
   190
370
    15
390
5F
100
AcDbPolyline
 90
       28
 70
     0
 43
0.0
 10
19484.20949136086
 20
-19896.62649600079
 10
19489.06294053086
 20
-19896.48159084078
 10
19493.92731744086
 20
-19896.32393409078
 10
19498.81354984086
 20
-19896.14077418078
 10
19503.73256547086
 20
-19895.91935954077
 10
19508.69529207086
 20
-19895.64693858078
 10
19513.71265738086
 20
-19895.31075972077
 10
19518.79558915086
 20
-19894.89807138079
 10
19523.95501512086
 20
-19894.39612199078
 10
19529.20146193086
 20
-19893.79191266078
 10
19534.50226323086
 20
-19893.04581311078
 10
19539.74359469086
 20
-19892.06815375078
 10
19544.80267740086
 20
-19890.76374383078
 10
19549.55673242086
 20
-19889.03739265078
 10
19553.88298083086
 20
-19886.79390946078
 10
19557.65864371086
 20
-19883.93810355079
 10
19560.77628010086
 20
-19880.39267703078
 10
19563.25297659086
 20
-19876.22560210078
 10
19565.16632510086
 20
-19871.57543472077
 10
19566.59431922086
 20
-19866.58119943078
 10
19567.61495258086
 20
-19861.38192078079
 10
19568.30621876086
 20
-19856.11662331078
 10
19568.74479334086
 20
-19850.91803128078
 10
19568.98861506086
 20
-19845.82930709079
 10
19569.08168695086
 20
-19840.82700010078
 10
19569.06768059086
 20
-19835.88607562078
 10
19568.99026759086
 20
-19830.98149893078
 10
19568.94619328086
 20
-19828.77034975078
  0
LINE
  5
28D
102
{ACAD_REACTORS
330
28C
102
}
330
1F
100
AcDbEntity
  8
Ech.1_5
  6
Continuous
 62
   190
370
    15
390
5F
100
AcDbLine
 10
19568.94619328086
 20
-19828.77034975078
 30
0.0
 11
19564.86431562086
 21
-19838.40478718077
 31
0.0
  0
LINE
  5
28E
102
{ACAD_REACTORS
330
28C
102
}
330
1F
100
AcDbEntity
  8
Ech.1_5
  6
Continuous
 62
   190
370
    15
390
5F
100
AcDbLine
 10
19568.94619328086
 20
-19828.77034975078
 30
0.0
 11
19573.02807095086
 21
-19838.40478718077
 31
0.0
  0
LINE
  5
28F
102
{ACAD_REACTORS
330
290
330
291
102
}
330
1F
100
AcDbEntity
  8
Ech.1_5
  6
Continuous
 62
   190
370
    15
390
5F
100
AcDbLine
 10
19511.6026977868
 20
-20017.23020102039
 30
0.0
 11
19518.23299025334
 21
-20013.25562782945
 31
0.0
  0
LINE
  5
292
102
{ACAD_REACTORS
330
290
330
291
102
}
330
1F
100
AcDbEntity
  8
Ech.1_5
  6
Continuous
 62
   190
370
    15
390
5F
100
AcDbLine
 10
19511.6026977868
 20
-20017.23020102039
 30
0.0
 11
19511.59561295302
 21
-20010.03590000714
 31
0.0
  0
LWPOLYLINE
  5
293
102
{ACAD_REACTORS
330
294
330
291
102
}
330
1F
100
AcDbEntity
  8
Ech.1_5
  6
Continuous
 62
   190
370
    15
390
5F
100
AcDbPolyline
 90
      156
 70
     0
 43
0.0
 10
19568.94619328086
 20
-20032.40735103075
 10
19570.04839248926
 20
-20027.81515517419
 10
19570.58331536655
 20
-20025.52559434161
 10
19571.09882617157
 20
-20023.24387802388
 10
19571.58845421354
 20
-20020.97262105928
 10
19572.0457288017
 20
-20018.71443828609
 10
19572.26021145975
 20
-20017.59106685823
 10
19572.4641792453
 20
-20016.47194454258
 10
19572.65682332203
 20
-20015.35739819393
 10
19572.83733485358
 20
-20014.24775466706
 10
19573.00490500361
 20
-20013.14334081675
 10
19573.15872493578
 20
-20012.04448349779
 10
19573.29798581372
 20
-20010.95150956495
 10
19573.42187880111
 20
-20009.86474587305
 10
19573.52959506161
 20
-20008.78451927684
 10
19573.62032575886
 20
-20007.71115663113
 10
19573.69326205651
 20
-20006.6449847907
 10
19573.74759511822
 20
-20005.58633061032
 10
19573.78251610766
 20
-20004.53552094479
 10
19573.79721618846
 20
-20003.49288264889
 10
19573.7908865243
 20
-20002.4587425774
 10
19573.76271827882
 20
-20001.43342758513
 10
19573.71190261567
 20
-20000.41726452683
 10
19573.63763069852
 20
-19999.41058025731
 10
19573.539093691
 20
-19998.41370163134
 10
19573.4154827568
 20
-19997.42695550372
 10
19573.26598905956
 20
-19996.45066872922
 10
19573.08980376292
 20
-19995.48516816264
 10
19572.88611803055
 20
-19994.53078065875
 10
19572.6541230261
 20
-19993.58783307236
 10
19572.39300991323
 20
-19992.65665225822
 10
19572.1019698556
 20
-19991.73756507115
 10
19571.78019401684
 20
-19990.83089836591
 10
19571.42687356063
 20
-19989.93697899729
 10
19571.04119965062
 20
-19989.05613382009
 10
19570.62236345045
 20
-19988.18868968908
 10
19570.16955612379
 20
-19987.33497345905
 10
19569.6819688343
 20
-19986.49531198479
 10
19569.15879274562
 20
-19985.67003212107
 10
19568.59921902141
 20
-19984.8594607227
 10
19568.30553028463
 20
-19984.45979284013
 10
19568.00243882533
 20
-19984.06392464444
 10
19567.68985108502
 20
-19983.67190111055
 10
19567.36782717554
 20
-19983.28385107532
 10
19567.03657058044
 20
-19982.89998161728
 10
19566.69629026638
 20
-19982.52050280729
 10
19565.98949434818
 20
-19981.77555741477
 10
19565.24911115447
 20
-19981.05069546454
 10
19564.47681241878
 20
-19980.34759752334
 10
19563.67426987465
 20
-19979.66794415793
 10
19562.8431552556
 20
-19979.01341593506
 10
19561.98514029516
 20
-19978.3856934215
 10
19561.10189672685
 20
-19977.78645718399
 10
19560.19509628422
 20
-19977.21738778929
 10
19559.26641070079
 20
-19976.68016580415
 10
19558.31751171008
 20
-19976.17647179533
 10
19557.83600460373
 20
-19975.93772295916
 10
19557.35007104563
 20
-19975.70798632959
 10
19556.85992000248
 20
-19975.48747197749
 10
19556.36576044097
 20
-19975.27638997368
 10
19555.86780132779
 20
-19975.07495038903
 10
19555.36625162962
 20
-19974.88336329436
 10
19554.86132031317
 20
-19974.70183876053
 10
19554.35321634512
 20
-19974.53058685837
 10
19553.84214869217
 20
-19974.36981765875
 10
19553.328326321
 20
-19974.21974123249
 10
19552.8119581983
 20
-19974.08056765045
 10
19552.29325329078
 20
-19973.95250698346
 10
19551.77242056511
 20
-19973.83576930236
 10
19551.24966898798
 20
-19973.73056467803
 10
19550.72520752611
 20
-19973.63710318127
 10
19550.19924514616
 20
-19973.55559488296
 10
19549.67199081484
 20
-19973.48624985392
 10
19549.14365349883
 20
-19973.42927816501
 10
19548.61444216482
 20
-19973.38488988706
 10
19548.08456577951
 20
-19973.35329509093
 10
19547.5542333097
 20
-19973.33470382807
 10
19547.02365416402
 20
-19973.32924873939
 10
19546.49303919684
 20
-19973.33680915813
 10
19545.96259955781
 20
-19973.35721268677
 10
19545.43254639658
 20
-19973.39028692776
 10
19544.90309086277
 20
-19973.43585948359
 10
19544.37444410605
 20
-19973.49375795672
 10
19543.84681727602
 20
-19973.56380994961
 10
19543.32042152236
 20
-19973.64584306475
 10
19542.7954679947
 20
-19973.73968490459
 10
19542.27216784266
 20
-19973.8451630716
 10
19541.75073221591
 20
-19973.96210516827
 10
19541.23137226407
 20
-19974.09033879704
 10
19540.71429913679
 20
-19974.22969156039
 10
19540.19972398372
 20
-19974.37999106081
 10
19539.68785795448
 20
-19974.54106490074
 10
19539.17891219873
 20
-19974.71274068265
 10
19538.67309786609
 20
-19974.89484600904
 10
19538.17062610623
 20
-19975.08720848234
 10
19537.67170806877
 20
-19975.28965570505
 10
19537.17655490334
 20
-19975.50201527962
 10
19536.68537775962
 20
-19975.72411480852
 10
19536.19838778721
 20
-19975.95578189423
 10
19535.71579613578
 20
-19976.19684413921
 10
19535.23781395495
 20
-19976.44712914593
 10
19534.76465239437
 20
-19976.70646451687
 10
19534.29652260368
 20
-19976.97467785448
 10
19533.83363573253
 20
-19977.25159676125
 10
19533.37620293055
 20
-19977.53704883963
 10
19532.92443534738
 20
-19977.8308616921
 10
19532.47854413267
 20
-19978.13286292113
 10
19532.03874043605
 20
-19978.44288012918
 10
19531.60523540717
 20
-19978.76074091873
 10
19531.17824019566
 20
-19979.08627289224
 10
19530.75796595118
 20
-19979.41930365218
 10
19530.34462382336
 20
-19979.75966080102
 10
19529.93842496183
 20
-19980.10717194124
 10
19529.53958051623
 20
-19980.46166467528
 10
19529.14830163623
 20
-19980.82296660565
 10
19528.76479947145
 20
-19981.19090533478
 10
19528.38928517154
 20
-19981.56530846517
 10
19528.02196988611
 20
-19981.94600359927
 10
19527.66306476485
 20
-19982.33281833955
 10
19527.31278095737
 20
-19982.72558028849
 10
19526.97132961331
 20
-19983.12411704856
 10
19526.63892188232
 20
-19983.5282562222
 10
19526.31576891404
 20
-19983.93782541191
 10
19526.00208185812
 20
-19984.35265222016
 10
19525.69807186419
 20
-19984.7725642494
 10
19525.40386921829
 20
-19985.19739101999
 10
19525.11924753487
 20
-19985.62697051161
 10
19524.84388212065
 20
-19986.06114303556
 10
19524.31962131445
 20
-19986.9426284259
 10
19523.82848922888
 20
-19987.84056968198
 10
19523.36788829316
 20
-19988.75368929473
 10
19522.93522093647
 20
-19989.6807097551
 10
19522.52788958804
 20
-19990.62035355403
 10
19522.14329667708
 20
-19991.57134318246
 10
19521.77884463278
 20
-19992.53240113134
 10
19521.43193588436
 20
-19993.50224989161
 10
19521.09997286102
 20
-19994.47961195423
 10
19520.78035799198
 20
-19995.46320981012
 10
19520.47049370642
 20
-19996.45176595024
 10
19519.86962660263
 20
-19998.43864304695
 10
19519.2765909833
 20
-20000.4300231719
 10
19518.67060628209
 20
-20002.41568625264
 10
19518.35626409879
 20
-20003.4031801288
 10
19518.03089193265
 20
-20004.38541221674
 10
19517.69189221286
 20
-20005.36110500741
 10
19517.33666736864
 20
-20006.32898099174
 10
19516.96261982919
 20
-20007.28776266069
 10
19516.56715202371
 20
-20008.2361725052
 10
19516.14773318382
 20
-20009.17296565264
 10
19515.70411191697
 20
-20010.09801082297
 10
19515.23882617971
 20
-20011.01253947702
 10
19514.75458403084
 20
-20011.91786617932
 10
19514.25409352918
 20
-20012.81530549441
 10
19513.7400627335
 20
-20013.70617198681
 10
19512.68221249535
 20
-20015.47344476174
 10
19511.6026977868
 20
-20017.23020102039
  0
LWPOLYLINE
  5
295
330
1F
100
AcDbEntity
  8
Ech.1_5
  6
CADWORK_22
 62
   140
420
  1483507
 48
0.6
370
    20
390
5F
100
AcDbPolyline
 90
        3
 70
   128
 43
0.0
 10
19581.93298086217
 20
-20477.8280682579
 10
19581.93298086217
 20
-19968.02385114177
 10
19670.93298086216
 20
-19968.02385114177
  0
LWPOLYLINE
  5
296
330
1F
100
AcDbEntity
  8
Ech.1_5
  6
Continuous
 62
   190
370
    15
390
5F
100
AcDbPolyline
 90
        3
 70
     0
 43
0.0
 10
19490.01687716864
 20
-19903.24741745173
 10
19476.14339971112
 20
-19884.99570313863
 10
19456.14339971112
 20
-19884.99570313863
  0
INSERT
  5
297
330
1F
100
AcDbEntity
  8
Ech.1_5
 62
   190
370
    15
100
AcDbBlockReference
  2
cw-line-extremity4
 10
19490.01687716864
 20
-19903.24741745173
 30
0.0
 50
127.2391608376512
  0
LWPOLYLINE
  5
298
330
1F
100
AcDbEntity
  8
Ech.1_5
  6
Continuous
 62
   190
370
    15
390
5F
100
AcDbPolyline
 90
        3
 70
     0
 43
0.0
 10
19536.9028230272
 20
-19948.51648975791
 10
19476.14339971112
 20
-19833.19077056271
 10
19456.14339971112
 20
-19833.19077056271
  0
INSERT
  5
299
330
1F
100
AcDbEntity
  8
Ech.1_5
 62
   190
370
    15
100
AcDbBlockReference
  2
cw-line-extremity4
 10
19536.9028230272
 20
-19948.51648975791
 30
0.0
 50
117.7825303559346
  0
LWPOLYLINE
  5
29A
330
1F
100
AcDbEntity
  8
Ech.1_5
  6
Continuous
 62
   190
370
    15
390
5F
100
AcDbPolyline
 90
        3
 70
     0
 43
0.0
 10
19567.46444267957
 20
-19794.26263902444
 10
19476.14339971112
 20
-19732.30573669085
 10
19456.14339971112
 20
-19732.30573669085
  0
INSERT
  5
29B
330
1F
100
AcDbEntity
  8
Ech.1_5
 62
   190
370
    15
100
AcDbBlockReference
  2
cw-line-extremity4
 10
19567.46444267957
 20
-19794.26263902444
 30
0.0
 50
145.8450090645763
  0
LWPOLYLINE
  5
29C
330
1F
100
AcDbEntity
  8
Ech.1_5
  6
CADWORK_22
 62
   140
420
  1483507
 48
0.6
370
    20
390
5F
100
AcDbPolyline
 90
        3
 70
   128
 43
0.0
 10
19743.43298086217
 20
-19923.06650552868
 10
19583.12625294992
 20
-19923.44498468758
 10
19583.12625294992
 20
-19508.25863028232
  0
LWPOLYLINE
  5
29D
330
1F
100
AcDbEntity
  8
Ech.1_5
  6
Continuous
 62
   190
370
    15
390
5F
100
AcDbPolyline
 90
        3
 70
     0
 43
0.0
 10
19589.38232640039
 20
-20366.32759107923
 10
19476.14339971112
 20
-20366.32759107923
 10
19456.14339971112
 20
-20366.32759107923
  0
INSERT
  5
29E
330
1F
100
AcDbEntity
  8
Ech.1_5
 62
   190
370
    15
100
AcDbBlockReference
  2
cw-line-extremity4
 10
19589.38232640039
 20
-20366.32759107923
 30
0.0
 50
180.0
  0
LWPOLYLINE
  5
29F
330
1F
100
AcDbEntity
  8
Ech.1_5
  6
Continuous
 62
   190
370
    15
390
5F
100
AcDbPolyline
 90
        3
 70
     0
 43
0.0
 10
19541.45940569955
 20
-19553.3856561568
 10
19475.93005181073
 20
-19553.3856561568
 10
19455.93005181073
 20
-19553.3856561568
  0
INSERT
  5
2A0
330
1F
100
AcDbEntity
  8
Ech.1_5
 62
   190
370
    15
100
AcDbBlockReference
  2
cw-line-extremity4
 10
19541.45940569955
 20
-19553.3856561568
 30
0.0
 50
180.0
  0
LWPOLYLINE
  5
2A1
330
1F
100
AcDbEntity
  8
Ech.1_5
  6
Continuous
 62
   190
370
    15
390
5F
100
AcDbPolyline
 90
        3
 70
     0
 43
0.0
 10
19565.41017676213
 20
-19601.49214318405
 10
19475.93005181073
 20
-19601.49214318405
 10
19455.93005181073
 20
-19601.49214318405
  0
INSERT
  5
2A2
330
1F
100
AcDbEntity
  8
Ech.1_5
 62
   190
370
    15
100
AcDbBlockReference
  2
cw-line-extremity4
 10
19565.41017676213
 20
-19601.49214318405
 30
0.0
 50
180.0
  0
LWPOLYLINE
  5
2A3
330
1F
100
AcDbEntity
  8
Ech.1_5
  6
Continuous
 62
   190
370
    15
390
5F
100
AcDbPolyline
 90
        3
 70
     0
 43
0.0
 10
19581.93298086217
 20
-20279.19589424588
 10
19475.93005181073
 20
-20279.19589424588
 10
19455.93005181073
 20
-20279.19589424588
  0
INSERT
  5
2A4
330
1F
100
AcDbEntity
  8
Ech.1_5
 62
   190
370
    15
100
AcDbBlockReference
  2
cw-line-extremity4
 10
19581.93298086217
 20
-20279.19589424588
 30
0.0
 50
180.0
  0
LWPOLYLINE
  5
2A5
330
1F
100
AcDbEntity
  8
Ech.1_5
 62
     3
370
    40
390
5F
100
AcDbPolyline
 90
        4
 70
     0
 43
0.0
 10
19580.43298086217
 20
-19847.6810690286
 10
19580.43298086217
 20
-19855.81244569496
 10
19576.65517046033
 20
-19859.32182869962
 10
19576.65517046032
 20
-19867.90130314096
  0
LWPOLYLINE
  5
2A6
102
{ACAD_REACTORS
330
2A7
102
}
330
1F
100
AcDbEntity
  8
Ech.1_5
  6
Continuous
 62
   190
370
    15
390
5F
100
AcDbPolyline
 90
        3
 70
     0
 43
0.0
 10
19707.18298086216
 20
-19968.06650552868
 10
19476.14339971112
 20
-20159.40882978852
 10
19456.14339971112
 20
-20159.40882978852
  0
LINE
  5
2A8
330
1F
100
AcDbEntity
  8
Ech.1_5
  6
Continuous
 62
   190
370
    15
390
5F
100
AcDbLine
 10
19707.13042060025
 20
-19945.60884374714
 30
2500.0
 11
19707.13042060025
 21
-19990.60884374714
 31
2500.0
  0
INSERT
  5
2A9
330
1F
100
AcDbEntity
  8
Ech.1_5
 62
   190
370
    15
100
AcDbBlockReference
  2
cw-line-extremity4
 10
19707.13042060025
 20
-19990.60884374714
 30
0.0
 50
90.0
  0
INSERT
  5
2AA
330
1F
100
AcDbEntity
  8
Ech.1_5
 62
   190
370
    15
100
AcDbBlockReference
  2
cw-line-extremity4
 10
19707.13042060025
 20
-19945.60884374714
 30
0.0
 50
270.0
  0
LWPOLYLINE
  5
2AB
330
1F
100
AcDbEntity
  8
Ech.1_5
  6
Continuous
 62
   190
370
    15
390
5F
100
AcDbPolyline
 90
        3
 70
     0
 43
0.0
 10
19778.43298086217
 20
-19647.54210894803
 10
19874.90356767335
 20
-19647.54210894803
 10
19894.90356767335
 20
-19647.54210894803
  0
INSERT
  5
2AC
330
1F
100
AcDbEntity
  8
Ech.1_5
 62
   190
370
    15
100
AcDbBlockReference
  2
cw-line-extremity4
 10
19778.43298086217
 20
-19647.54210894803
 30
0.0
  0
LWPOLYLINE
  5
2AD
330
1F
100
AcDbEntity
  8
Ech.1_5
  6
Continuous
 62
   190
370
    15
390
5F
100
AcDbPolyline
 90
        3
 70
     0
 43
0.0
 10
19809.93298086217
 20
-19590.49266669603
 10
19874.90356767335
 20
-19590.49266669603
 10
19894.90356767335
 20
-19590.49266669603
  0
INSERT
  5
2AE
330
1F
100
AcDbEntity
  8
Ech.1_5
 62
   190
370
    15
100
AcDbBlockReference
  2
cw-line-extremity4
 10
19809.93298086217
 20
-19590.49266669603
 30
0.0
  0
LWPOLYLINE
  5
2AF
330
1F
100
AcDbEntity
  8
Ech.1_5
  6
Continuous
 62
   190
370
    15
390
5F
100
AcDbPolyline
 90
        3
 70
     0
 43
0.0
 10
19744.93298086217
 20
-19739.39812873274
 10
19874.90356767335
 20
-19739.39812873274
 10
19894.90356767335
 20
-19739.39812873274
  0
INSERT
  5
2B0
330
1F
100
AcDbEntity
  8
Ech.1_5
 62
   190
370
    15
100
AcDbBlockReference
  2
cw-line-extremity4
 10
19744.93298086217
 20
-19739.39812873274
 30
0.0
  0
LWPOLYLINE
  5
2B1
330
1F
100
AcDbEntity
  8
Ech.1_5
  6
Continuous
 62
   190
370
    15
390
5F
100
AcDbPolyline
 90
        3
 70
     0
 43
0.0
 10
19671.68298086216
 20
-19813.19655734882
 10
19874.90356767335
 20
-19813.19655734882
 10
19894.90356767335
 20
-19813.19655734882
  0
INSERT
  5
2B2
330
1F
100
AcDbEntity
  8
Ech.1_5
 62
   190
370
    15
100
AcDbBlockReference
  2
cw-line-extremity4
 10
19671.68298086216
 20
-19813.19655734882
 30
0.0
  0
IMAGE
  5
2B4
330
1F
100
AcDbEntity
  8
Ech.1_5
  6
Continuous
390
5F
160
                 8
310
0800000000000000
100
AcDbRasterImage
 90
        0
 10
19933.27284225597
 20
-20701.02922568673
 30
0.0
 11
0.1487334262910545
 21
0.0
 31
0.0
 12
0.0
 22
0.1487334272781531
 32
0.0
 13
954.0
 23
334.0
340
2B3
 70
     7
280
     0
281
    50
282
    50
283
     0
360
2B5
 71
     1
 91
        2
 14
-0.5
 24
-0.5
 14
953.5
 24
333.5
290
     0
  0
INSERT
  5
2C7
102
{ACAD_REACTORS
330
2C8
102
}
330
1F
100
AcDbEntity
  8
Ech.1_5
100
AcDbBlockReference
  2
DIM304
 10
0.0
 20
0.0
 30
0.0
  0
INSERT
  5
2DA
102
{ACAD_REACTORS
330
2DB
102
}
330
1F
100
AcDbEntity
  8
Ech.1_5
100
AcDbBlockReference
  2
DIM305
 10
0.0
 20
0.0
 30
0.0
  0
INSERT
  5
2ED
102
{ACAD_REACTORS
330
2EE
102
}
330
1F
100
AcDbEntity
  8
Ech.1_5
100
AcDbBlockReference
  2
DIM306
 10
0.0
 20
0.0
 30
0.0
  0
INSERT
  5
300
102
{ACAD_REACTORS
330
301
102
}
330
1F
100
AcDbEntity
  8
Ech.1_5
100
AcDbBlockReference
  2
DIM307
 10
0.0
 20
0.0
 30
0.0
  0
TEXT
  5
302
102
{ACAD_REACTORS
330
2C8
102
}
330
1F
100
AcDbEntity
  8
Ech.1_5
  6
Continuous
 62
   190
390
5F
100
AcDbText
 10
19388.08855692118
 20
-19946.25202486462
 30
0.0
 40
12.5
  1
10
  7
arial-
100
AcDbText
  0
TEXT
  5
303
102
{ACAD_REACTORS
330
2DB
102
}
330
1F
100
AcDbEntity
  8
Ech.1_5
  6
Continuous
 62
   190
390
5F
100
AcDbText
 10
19421.38014289111
 20
-19927.56993017315
 30
0.0
 40
12.5
  1
10
 50
90.0
  7
arial-
100
AcDbText
  0
TEXT
  5
304
102
{ACAD_REACTORS
330
2EE
102
}
330
1F
100
AcDbEntity
  8
Ech.1_5
  6
Continuous
 62
   190
390
5F
100
AcDbText
 10
19459.9081791306
 20
-20003.27218107631
 30
0.0
 40
12.5
  1
X
  7
arial-
100
AcDbText
  0
TEXT
  5
305
102
{ACAD_REACTORS
330
301
102
}
330
1F
100
AcDbEntity
  8
Ech.1_5
  6
Continuous
 62
   190
390
5F
100
AcDbText
 10
19506.76485101679
 20
-19973.13500012094
 30
0.0
 40
12.5
  1
45 mini
 50
90.0
  7
arial-
100
AcDbText
  0
MTEXT
  5
306
102
{ACAD_REACTORS
330
219
330
21B
330
21C
102
}
330
1F
100
AcDbEntity
  8
Ech.1_5
  6
Continuous
 62
     4
420
    65535
390
5F
100
AcDbMText
 10
19790.98776457805
 20
-20571.03911810596
 30
0.0
 40
11.25
 41
174.242643641308
 46
0.0
 71
     2
 72
     1
  1
{\fArial|b0|i0;\W1.000000;\H11.250000;\c16711848;Vue en coupe verticale}
  7
arial-
 73
     1
 44
1.07999975538982
  0
MTEXT
  5
307
102
{ACAD_REACTORS
330
219
330
21B
330
21C
102
}
330
1F
100
AcDbEntity
  8
Ech.1_5
  6
Continuous
 62
     4
420
    65535
390
5F
100
AcDbMText
 10
20111.3078745989
 20
-20571.4969416133
 30
0.0
 40
12.5
 41
62.88904266245663
 46
0.0
 71
     2
 72
     1
  1
{\fArial|b0|i0;\W1.000000;\H12.500000;\c16711848;Ech 1/5 }
  7
arial-
 73
     1
 44
1.07999975538982
  0
MTEXT
  5
309
102
{ACAD_REACTORS
330
219
330
21B
330
21C
102
}
330
1F
100
AcDbEntity
  8
Ech.1_5
  6
Continuous
 62
   200
420
 11010303
390
5F
100
AcDbMText
 10
19688.39404230215
 20
-20592.99430264766
 30
0.0
 40
6.25
 41
762.8659533727914
 46
0.0
 71
     2
 72
     1
  3
{\fArial|b0|i1;\W1.000000;\H6.250000;\c16711848; Il est rappelé à l'utilisateur qui consulte le site et utilise les informations qu'il contient, qu'il doit les utiliser sous sa seule responsabilité en vérifiant leur pertinence, leur cohérence et leur
  1
 non obsolescence.}
  7
arial-i
 73
     1
 44
1.07999975538982
  0
MTEXT
  5
30A
102
{ACAD_REACTORS
330
219
330
21B
330
21C
102
}
330
1F
100
AcDbEntity
  8
Ech.1_5
  6
Continuous
 62
   200
420
 11010303
390
5F
100
AcDbMText
 10
19688.48779230215
 20
-20627.15883054116
 30
0.0
 40
8.125
 41
171.8542349804193
 46
0.0
 71
     2
 72
     1
  1
{\fArial|b0|i1;\W1.000000;\H8.125000;\c16711848;www.catalogue-bois-construction.fr}
  7
arial-i
 73
     1
 44
1.07999975538982
  0
MTEXT
  5
30B
330
1F
100
AcDbEntity
  8
Ech.1_5
  6
Continuous
 62
     4
420
    65535
390
5F
100
AcDbMText
 10
19688.46279230271
 20
-19421.29822979893
 30
0.0
 40
15.0
 41
550.6301296222955
 46
0.0
 71
     2
 72
     1
  1
{\fArial|b0|i0;\W1.000000;\H15.000000;\c16711848;Paroi continue - Liaison plancher béton - Déflecteur bois}
  7
arial-
 73
     1
 44
1.07999975538982
  0
MTEXT
  5
30C
102
{ACAD_REACTORS
330
238
330
239
102
}
330
1F
100
AcDbEntity
  8
Ech.1_5
  6
Continuous
 62
     4
420
    65535
390
5F
100
AcDbMText
 10
19901.15356767335
 20
-20161.42651053139
 30
0.0
 40
12.5
 41
188.3668687809259
 46
0.0
 71
     1
 72
     1
  1
{\fArial|b0|i0;\W1.000000;\H12.500000;\c16711848;Dalle béton REI selon réglementation}
  7
arial-
 73
     1
 44
1.07999975538982
  0
MTEXT
  5
30D
330
1F
100
AcDbEntity
  8
Ech.1_5
  6
Continuous
 62
     4
420
    65535
390
5F
100
AcDbMText
 10
19451.36839970888
 20
-19877.49570313863
 30
0.0
 40
12.5
 41
185.476545618847
 46
0.0
 71
     3
 72
     1
  1
{\fArial|b0|i0;\W1.000000;\H12.500000;\c16711848;Bavette acier (10/10e)}
  7
arial-
 73
     1
 44
1.07999975538982
 90
        3
 63
     9
421
 13158600
 45
1.5
441
 33554687
  0
MTEXT
  5
30E
330
1F
100
AcDbEntity
  8
Ech.1_5
  6
Continuous
 62
     4
420
    65535
390
5F
100
AcDbMText
 10
19450.63089971
 20
-19675.30573800215
 30
0.0
 40
12.5
 41
230.6961544025689
 46
0.0
 71
     3
 72
     1
  1
{\fArial|b0|i0;\W1.000000;\H12.500000;\c16711848;Système d'obturation de lame d'air en cas d'incendie selon les cas (voir tableau des caractéristiques techniques)}
  7
arial-
 73
     1
 44
1.07999975538982
  0
MTEXT
  5
30F
102
{ACAD_REACTORS
330
310
102
}
330
1F
100
AcDbEntity
  8
Ech.1_5
  6
Continuous
 62
     4
420
    65535
390
5F
100
AcDbMText
 10
19451.36839970888
 20
-20139.53383011635
 30
0.0
 40
12.5
 41
155.267983244732
 46
0.0
 71
     3
 72
     1
  1
{\fArial|b0|i0;\W1.000000;\H12.500000;\c16711848;Lisses Bois Massif}\P{\fArial|b0|i0;\W1.000000;\H12.500000;\c16711848;ép 70 mm mini}
  7
arial-
 73
     1
 44
1.07999975538982
 90
        3
 63
     9
421
 13158600
 45
1.5
441
 33554687
  0
MTEXT
  5
311
330
1F
100
AcDbEntity
  8
Ech.1_5
  6
Continuous
 62
     4
420
    65535
390
5F
100
AcDbMText
 10
19451.15505180849
 20
-20272.32458369789
 30
0.0
 40
12.5
 41
86.83253650553524
 46
0.0
 71
     3
 72
     1
  1
{\fArial|b0|i0;\W1.000000;\H12.500000;\c16711848;Pare-pluie}
  7
arial-
 73
     1
 44
1.07999975538982
  0
MTEXT
  5
312
330
1F
100
AcDbEntity
  8
Ech.1_5
  6
Continuous
 62
     4
420
    65535
390
5F
100
AcDbMText
 10
19451.89255180737
 20
-19583.29073629906
 30
0.0
 40
12.5
 41
140.8163559902459
 46
0.0
 71
     3
 72
     1
  1
{\fArial|b0|i0;\W1.000000;\H12.500000;\c16711848;Tasseau support}\P{\fArial|b0|i0;\W1.000000;\H12.500000;\c16711848;de bardage}
  7
arial-
 73
     1
 44
1.07999975538982
  0
MTEXT
  5
313
330
1F
100
AcDbEntity
  8
Ech.1_5
  6
Continuous
 62
     4
420
    65535
390
5F
100
AcDbMText
 10
19901.15356767335
 20
-19582.99266669603
 30
0.0
 40
12.5
 41
207.2006056774408
 46
0.0
 71
     1
 72
     1
  1
{\fArial|b0|i0;\W1.000000;\H12.500000;\c16711848;Parement mural intérieur}
  7
arial-
 73
     1
 44
1.07999975538982
  0
MTEXT
  5
314
330
1F
100
AcDbEntity
  8
Ech.1_5
  6
Continuous
 62
     4
420
    65535
390
5F
100
AcDbMText
 10
19901.15356767335
 20
-19627.73478184945
 30
0.0
 40
12.5
 41
194.9866500366479
 46
0.0
 71
     1
 72
     1
  1
{\fArial|b0|i0;\W1.000000;\H12.500000;\c16711848;Complément d'isolation par l' intérieur}
  7
arial-
 73
     1
 44
1.07999975538982
  0
MTEXT
  5
315
330
1F
100
AcDbEntity
  8
Ech.1_5
  6
Continuous
 62
     4
420
    65535
390
5F
100
AcDbMText
 10
19901.15356767335
 20
-19731.86015728458
 30
0.0
 40
12.5
 41
104.5474341381341
 46
0.0
 71
     1
 72
     1
  1
{\fArial|b0|i0;\W1.000000;\H12.500000;\c16711848;Pare-vapeur}
  7
arial-
 73
     1
 44
1.07999975538982
  0
MTEXT
  5
316
330
1F
100
AcDbEntity
  8
Ech.1_5
  6
Continuous
 62
     4
420
    65535
390
5F
100
AcDbMText
 10
19901.15356767335
 20
-19805.65858590067
 30
0.0
 40
12.5
 41
56.90368299372494
 46
0.0
 71
     1
 72
     1
  1
{\fArial|b0|i0;\W1.000000;\H12.500000;\c16711848;Isolant}
  7
arial-
 73
     1
 44
1.07999975538982
  0
MTEXT
  5
317
330
1F
100
AcDbEntity
  8
Ech.1_5
  6
Continuous
 62
     4
420
    65535
390
5F
100
AcDbMText
 10
19449.89339971112
 20
-20334.18363701508
 30
0.0
 40
12.5
 41
229.3769752152366
 46
0.0
 71
     3
 72
     1
  1
{\fArial|b0|i0;\W1.000000;\H12.500000;\c16711848;Ecran thermique panneau CTBX ignifugé 15mm mini B-s3,d0}
  7
arial-
 73
     1
 44
1.07999975538982
  0
MTEXT
  5
319
330
1F
100
AcDbEntity
  8
Ech.1_5
  6
Continuous
 62
     4
420
    65535
390
5F
100
AcDbMText
 10
19519.20892625288
 20
-20018.49555969487
 30
0.0
 40
12.5
 41
275.636044787243
 46
0.0
 71
     3
 72
     1
  1
{\fArial|b1|i1;\W1.000000;\H12.500000;\c16711848;X mm selon le type de bardage et d'écran thermique défini dans le tableau des caractéristiques techniques}
  7
arial-bi
 73
     1
 44
1.07999975538982
  0
MTEXT
  5
31A
330
1F
100
AcDbEntity
  8
Ech.1_5
  6
Continuous
 62
     4
420
    65535
390
5F
100
AcDbMText
 10
19449.68005181073
 20
-19545.8856561568
 30
0.0
 40
12.5
 41
238.1967165384995
 46
0.0
 71
     3
 72
     1
  1
{\fArial|b0|i0;\W1.000000;\H12.500000;\c16711848;Bardage ventilé BS3,d0 mini}
  7
arial-
 73
     1
 44
1.07999975538982
  0
MTEXT
  5
31B
330
1F
100
AcDbEntity
  8
Ech.1_5
  6
Continuous
 62
     4
420
    65535
390
5F
100
AcDbMText
 10
19461.8137132639
 20
-20571.22518531082
 30
0.0
 40
12.5
 41
105.0905694722678
 46
0.0
 71
     2
 72
     1
  1
{\fArial|b0|i0;\W1.000000;\H12.500000;\c16711848;FOBF03-07}
  7
arial-
 73
     1
 44
1.07999975538982
  0
MTEXT
  5
31C
330
1F
100
AcDbEntity
  8
Ech.1_5
  6
Continuous
 62
     4
420
    65535
390
5F
100
AcDbMText
 10
19449.89339971112
 20
-19813.31577089054
 30
0.0
 40
12.5
 41
244.4951939502462
 46
0.0
 71
     3
 72
     1
  1
{\fArial|b0|i0;\W1.000000;\H12.500000;\c16711848;Déflecteur de flamme à base de bois, ép mini 45 mm}
  7
arial-
 73
     1
 44
1.07999975538982
 90
        3
 63
     9
421
 13158600
 45
1.5
441
 33554687
  0
TEXT
  5
31E
330
1F
100
AcDbEntity
  8
Ech.1_5
  6
Continuous
 62
   190
390
5F
100
AcDbText
 10
19411.63270176631
 20
-19404.52172516652
 30
0.0
 40
13.5
  1
pour exigences globales feu façade
  7
arial-b
100
AcDbText
  0
TEXT
  5
31F
330
1F
100
AcDbEntity
  8
Ech.1_5
  6
Continuous
 62
   190
390
5F
100
AcDbText
 10
19726.91286305369
 20
-19404.52172516652
 30
0.0
 40
13.5
  1
- écran thermique CTBX ignifugé
  7
arial-b
100
AcDbText
  0
TEXT
  5
320
330
1F
100
AcDbEntity
  8
Ech.1_5
  6
Continuous
 62
   190
390
5F
100
AcDbText
 10
19570.55380487652
 20
-19372.13825737582
 30
0.0
 40
13.5
  1
FACADE OSSATURE BOIS
  7
arial-b
100
AcDbText
  0
TEXT
  5
321
330
1F
100
AcDbEntity
  8
Ech.1_5
  6
Continuous
 62
   190
390
5F
100
AcDbText
 10
20052.21736499891
 20
-19486.14019325054
 30
0.0
 40
8.0
  1
Echelle en mm
  7
arial-
100
AcDbText
  0
TEXT
  5
322
330
1F
100
AcDbEntity
  8
Ech.1_5
  6
Continuous
 62
   190
390
5F
100
AcDbText
 10
20038.23678024948
 20
-19514.35002878022
 30
0.0
 40
8.0
  1
0
  7
arial-
100
AcDbText
  0
TEXT
  5
323
330
1F
100
AcDbEntity
  8
Ech.1_5
  6
Continuous
 62
   190
390
5F
100
AcDbText
 10
20124.8338381422
 20
-19514.35002878022
 30
0.0
 40
8.0
  1
100
  7
arial-
100
AcDbText
  0
TEXT
  5
324
330
1F
100
AcDbEntity
  8
Ech.1_5
  6
Continuous
 62
   190
390
5F
100
AcDbText
 10
20086.09340657632
 20
-19514.35002878022
 30
0.0
 40
8.0
  1
50
  7
arial-
100
AcDbText
  0
MTEXT
  5
325
330
1F
100
AcDbEntity
  8
Ech.1_5
  6
Continuous
 62
   190
390
5F
100
AcDbMText
 10
19251.98219094108
 20
-20572.60414307865
 30
0.0
 40
12.5
 41
0.0
 46
0.0
 71
     1
 72
     1
  1
\A1;\fArial|b0|i0;\W1.000000;\H12.500000;10/02/2022
  7
arial-
 73
     1
 44
1.0
 90
        3
 63
     9
421
 13158600
 45
1.15
441
 33554687
  0
VIEWPORT
  5
215
330
20F
100
AcDbEntity
 67
     1
  8
0
  6
Continuous
390
5F
100
AcDbViewport
 10
98.8
 20
135.8
 30
0.0
 40
209.0608
 41
287.3528000000001
 68
     1
 69
     1
 12
128.5
 22
97.5
 13
0.0
 23
0.0
 14
10.0
 24
10.0
 15
10.0
 25
10.0
 16
0.0
 26
0.0
 36
1.0
 17
0.0
 27
0.0
 37
0.0
 42
50.0
 43
0.0
 44
0.0
 45
222.18
 50
0.0
 51
0.0
 72
   100
 90
   557152
  1

281
     0
 71
     1
 74
     0
110
0.0
120
0.0
130
0.0
111
1.0
121
0.0
131
0.0
112
0.0
122
1.0
132
0.0
 79
     0
146
0.0
170
     0
 61
     5
348
2F
292
     1
282
     1
141
0.0
142
0.0
 63
   256
361
216
  0
VIEWPORT
  5
217
330
20F
100
AcDbEntity
 67
     1
  8
0
  6
Continuous
 60
     1
390
5F
100
AcDbViewport
 10
98.8
 20
135.8
 30
0.0
 40
197.6
 41
271.6
 68
     2
 69
     2
 12
19688.03154230327
 22
-20027.88825737576
 13
0.0
 23
0.0
 14
10.0
 24
10.0
 15
10.0
 25
10.0
 16
0.0
 26
0.0
 36
1.0
 17
0.0
 27
0.0
 37
0.0
 42
50.0
 43
0.0
 44
0.0
 45
1358.0
 50
0.0
 51
0.0
 72
   100
 90
   557152
  1

281
     0
 71
     1
 74
     0
110
0.0
120
0.0
130
0.0
111
1.0
121
0.0
131
0.0
112
0.0
122
1.0
132
0.0
 79
     0
146
0.0
170
     0
 61
     5
348
2F
292
     1
282
     1
141
0.0
142
0.0
 63
   256
  0
ENDSEC
  0
SECTION
  2
OBJECTS
  0
DICTIONARY
  5
C
330
0
100
AcDbDictionary
281
     1
  3
ACAD_DETAILVIEWSTYLE
350
32D
  3
ACAD_GROUP
350
D
  3
ACAD_IMAGE_DICT
350
223
  3
ACAD_IMAGE_VARS
350
60
  3
ACAD_LAYOUT
350
1A
  3
ACAD_MATERIAL
350
43
  3
ACAD_MLEADERSTYLE
350
5B
  3
ACAD_MLINESTYLE
350
17
  3
ACAD_PLOTSETTINGS
350
19
  3
ACAD_PLOTSTYLENAME
350
E
  3
ACAD_SCALELIST
350
47
  3
ACAD_SECTIONVIEWSTYLE
350
32E
  3
ACAD_TABLESTYLE
350
59
  3
ACAD_VISUALSTYLE
350
2A
  3
ACAD_WIPEOUT_VARS
350
61
  3
ACDB_RECOMPOSE_DATA
350
32A
  3
AcDbVariableDictionary
350
326
  0
SUN
  5
5D
330
29
100
AcDbSun
 90
        1
290
     0
 63
     7
421
 16777215
 40
1.0
291
     1
 91
  2455826
 92
 54000000
292
     0
 70
     2
 71
   256
280
     1
  0
IMAGEDEF_REACTOR
  5
226
330
225
100
AcDbRasterImageDefReactor
 90
        2
330
225
  0
IMAGEDEF_REACTOR
  5
229
330
228
100
AcDbRasterImageDefReactor
 90
        2
330
228
  0
IMAGEDEF_REACTOR
  5
2B5
330
2B4
100
AcDbRasterImageDefReactor
 90
        2
330
2B4
  0
SUN
  5
216
330
215
100
AcDbSun
 90
        1
290
     0
 63
     7
421
 16777215
 40
1.0
291
     1
 91
  2455826
 92
 54000000
292
     0
 70
     2
 71
   256
280
     1
  0
DICTIONARY
  5
32D
102
{ACAD_REACTORS
330
C
102
}
330
C
100
AcDbDictionary
281
     1
  0
DICTIONARY
  5
D
102
{ACAD_REACTORS
330
C
102
}
330
C
100
AcDbDictionary
281
     1
  3
1013
350
310
  3
1105
350
21C
  3
1212
350
239
  3
1213
350
291
  3
266
350
219
  3
267
350
21B
  3
869
350
238
  3
870
350
268
  3
871
350
282
  3
872
350
287
  3
873
350
28C
  3
874
350
290
  3
875
350
294
  3
876
350
2A7
  3
DIM304
350
2C8
  3
DIM305
350
2DB
  3
DIM306
350
2EE
  3
DIM307
350
301
  0
DICTIONARY
  5
223
102
{ACAD_REACTORS
330
C
102
}
330
C
100
AcDbDictionary
281
     1
  3
CwRasterImage3642
350
224
  3
CwRasterImage3643
350
227
  3
CwRasterImage3644
350
2B3
  0
RASTERVARIABLES
  5
60
102
{ACAD_REACTORS
330
C
102
}
330
C
100
AcDbRasterVariables
 90
        0
 70
     0
 71
     1
 72
     1
  0
DICTIONARY
  5
1A
102
{ACAD_REACTORS
330
C
102
}
330
C
100
AcDbDictionary
281
     1
  3
CompleteLayout
350
1E
  3
Model
350
22
  3
PrintFrame_104
350
210
  0
DICTIONARY
  5
43
102
{ACAD_REACTORS
330
C
102
}
330
C
100
AcDbDictionary
281
     1
  3
ByBlock
350
45
  3
ByLayer
350
44
  3
Global
350
46
  0
DICTIONARY
  5
5B
102
{ACAD_REACTORS
330
C
102
}
330
C
100
AcDbDictionary
281
     1
  3
Standard
350
5C
  0
DICTIONARY
  5
17
102
{ACAD_REACTORS
330
C
102
}
330
C
100
AcDbDictionary
281
     1
  3
Standard
350
18
  0
DICTIONARY
  5
19
102
{ACAD_REACTORS
330
C
102
}
330
C
100
AcDbDictionary
281
     1
  3
PlotSettings_
350
213
  0
ACDBDICTIONARYWDFLT
  5
E
102
{ACAD_REACTORS
330
C
102
}
330
C
100
AcDbDictionary
281
     1
  3
flat
350
5F
  3
Normal
350
F
  3
round
350
23C
100
AcDbDictionaryWithDefault
340
F
  0
DICTIONARY
  5
47
102
{ACAD_REACTORS
330
C
102
}
330
C
100
AcDbDictionary
281
     1
  3
A0
350
48
  3
A1
350
49
  3
A2
350
4A
  3
A3
350
4B
  3
A4
350
4C
  3
A5
350
4D
  3
A6
350
4E
  3
A7
350
4F
  3
A8
350
50
  3
A9
350
51
  3
B0
350
52
  3
B1
350
53
  3
B2
350
54
  3
B3
350
55
  3
B4
350
56
  3
B5
350
57
  3
B6
350
58
  0
DICTIONARY
  5
32E
102
{ACAD_REACTORS
330
C
102
}
330
C
100
AcDbDictionary
281
     1
  0
DICTIONARY
  5
59
102
{ACAD_REACTORS
330
C
102
}
330
C
100
AcDbDictionary
281
     1
  3
Standard
350
5A
  0
DICTIONARY
  5
2A
102
{ACAD_REACTORS
330
C
102
}
330
C
100
AcDbDictionary
281
     1
  3
2dWireframe
350
2F
  3
Basic
350
32
  3
Brighten
350
36
  3
ColorChange
350
3A
  3
Conceptual
350
34
  3
Dim
350
35
  3
EdgeColorOff
350
3D
  3
Facepattern
350
39
  3
Flat
350
2B
  3
FlatWithEdges
350
2C
  3
Gouraud
350
2D
  3
GouraudWithEdges
350
2E
  3
Hidden
350
31
  3
JitterOff
350
3B
  3
Linepattern
350
38
  3
OverhangOff
350
3C
  3
Realistic
350
33
  3
Shaded
350
42
  3
Shaded with edges
350
41
  3
Shades of Gray
350
3E
  3
Sketchy
350
3F
  3
Thicken
350
37
  3
Wireframe
350
30
  3
X-Ray
350
40
  0
WIPEOUTVARIABLES
  5
61
102
{ACAD_REACTORS
330
C
102
}
330
C
100
AcDbWipeoutVariables
 70
     0
  0
XRECORD
  5
32A
102
{ACAD_REACTORS
330
C
102
}
330
C
100
AcDbXrecord
280
     1
 90
        1
330
5A
  0
DICTIONARY
  5
326
102
{ACAD_REACTORS
330
C
102
}
330
C
100
AcDbDictionary
281
     1
  3
CANNOSCALE
350
327
  3
CENTEREXE
350
330
  3
CENTERLTYPEFILE
350
331
  3
CMLEADERSTYLE
350
32C
  3
CTABLESTYLE
350
32B
  3
WIPEOUTFRAME
350
32F
  0
GROUP
  5
310
102
{ACAD_REACTORS
330
D
102
}
330
D
100
AcDbGroup
300

 70
     0
 71
     1
340
30F
  0
GROUP
  5
21C
102
{ACAD_REACTORS
330
D
102
}
330
D
100
AcDbGroup
300

 70
     0
 71
     1
340
21A
340
21D
340
21E
340
21F
340
220
340
221
340
222
340
225
340
306
340
307
340
309
340
30A
  0
GROUP
  5
239
102
{ACAD_REACTORS
330
D
102
}
330
D
100
AcDbGroup
300

 70
     0
 71
     1
340
237
340
23A
340
23B
340
25A
340
25B
340
25C
340
25D
340
25E
340
261
340
262
340
263
340
264
340
265
340
266
340
267
340
269
340
30C
  0
GROUP
  5
291
102
{ACAD_REACTORS
330
D
102
}
330
D
100
AcDbGroup
300

 70
     0
 71
     1
340
28F
340
292
340
293
  0
GROUP
  5
219
102
{ACAD_REACTORS
330
D
102
}
330
D
100
AcDbGroup
300

 70
     0
 71
     1
340
218
340
21A
340
21D
340
21E
340
21F
340
220
340
221
340
222
340
225
340
228
340
306
340
307
340
309
340
30A
  0
GROUP
  5
21B
102
{ACAD_REACTORS
330
D
102
}
330
D
100
AcDbGroup
300

 70
     0
 71
     1
340
21A
340
21D
340
21E
340
21F
340
220
340
221
340
222
340
306
340
307
340
309
340
30A
  0
GROUP
  5
238
102
{ACAD_REACTORS
330
D
102
}
330
D
100
AcDbGroup
300

 70
     0
 71
     1
340
237
340
23A
340
23B
340
25A
340
25B
340
25C
340
25D
340
25E
340
261
340
262
340
263
340
264
340
265
340
266
340
30C
  0
GROUP
  5
268
102
{ACAD_REACTORS
330
D
102
}
330
D
100
AcDbGroup
300

 70
     0
 71
     1
340
267
340
269
  0
GROUP
  5
282
102
{ACAD_REACTORS
330
D
102
}
330
D
100
AcDbGroup
300

 70
     0
 71
     1
340
281
340
283
340
284
340
285
  0
GROUP
  5
287
102
{ACAD_REACTORS
330
D
102
}
330
D
100
AcDbGroup
300

 70
     0
 71
     1
340
286
340
288
340
289
340
28A
  0
GROUP
  5
28C
102
{ACAD_REACTORS
330
D
102
}
330
D
100
AcDbGroup
300

 70
     0
 71
     1
340
28B
340
28D
340
28E
  0
GROUP
  5
290
102
{ACAD_REACTORS
330
D
102
}
330
D
100
AcDbGroup
300

 70
     0
 71
     1
340
28F
340
292
  0
GROUP
  5
294
102
{ACAD_REACTORS
330
D
102
}
330
D
100
AcDbGroup
300

 70
     0
 71
     1
340
293
  0
GROUP
  5
2A7
102
{ACAD_REACTORS
330
D
102
}
330
D
100
AcDbGroup
300

 70
     0
 71
     1
340
2A6
  0
GROUP
  5
2C8
102
{ACAD_REACTORS
330
D
102
}
330
D
100
AcDbGroup
300

 70
     0
 71
     1
340
2C7
340
302
  0
GROUP
  5
2DB
102
{ACAD_REACTORS
330
D
102
}
330
D
100
AcDbGroup
300

 70
     0
 71
     1
340
2DA
340
303
  0
GROUP
  5
2EE
102
{ACAD_REACTORS
330
D
102
}
330
D
100
AcDbGroup
300

 70
     0
 71
     1
340
2ED
340
304
  0
GROUP
  5
301
102
{ACAD_REACTORS
330
D
102
}
330
D
100
AcDbGroup
300

 70
     0
 71
     1
340
300
340
305
  0
IMAGEDEF
  5
224
102
{ACAD_REACTORS
330
223
330
226
102
}
330
223
100
AcDbRasterImageDef
 90
        0
  1
fcba.jpg
 10
247.0
 20
171.0
 11
0.3527336860670194
 21
0.3527336860670194
280
     1
281
     3
  0
IMAGEDEF
  5
227
102
{ACAD_REACTORS
330
223
330
229
102
}
330
223
100
AcDbRasterImageDef
 90
        0
  1
EXE_LOGO_FBF_soutien_Q_L.jpg
 10
200.0
 20
133.0
 11
0.3527336860670194
 21
0.3527336860670194
280
     1
281
     3
  0
IMAGEDEF
  5
2B3
102
{ACAD_REACTORS
330
223
330
2B5
102
}
330
223
100
AcDbRasterImageDef
 90
        0
  1
{3D18D2F7-F982-4527-A176-7E8FDB81B9D8}.TIFF
 10
954.0
 20
334.0
 11
0.2645502645502645
 21
0.2645502645502645
280
     1
281
     3
  0
LAYOUT
  5
1E
102
{ACAD_REACTORS
330
1A
102
}
330
1A
100
AcDbPlotSettings
  1

  2
none_device
  4

  6

 40
0.0
 41
0.0
 42
0.0
 43
0.0
 44
0.0
 45
0.0
 46
0.0
 47
0.0
 48
0.0
 49
0.0
140
0.0
141
0.0
142
1.0
143
1.0
 70
   688
 72
     1
 73
     0
 74
     5
  7

 75
    16
 76
     0
 77
     2
 78
   300
147
1.0
148
0.0
149
0.0
100
AcDbLayout
  1
CompleteLayout
 70
     1
 71
     1
 10
0.0
 20
0.0
 11
420.0
 21
297.0
 12
0.0
 22
0.0
 32
0.0
 14
1.000000000000000E+20
 24
1.000000000000000E+20
 34
1.000000000000000E+20
 15
-1.000000000000000E+20
 25
-1.000000000000000E+20
 35
-1.000000000000000E+20
146
0.0
 13
0.0
 23
0.0
 33
0.0
 16
1.0
 26
0.0
 36
0.0
 17
0.0
 27
1.0
 37
0.0
 76
     0
330
1B
  0
LAYOUT
  5
22
102
{ACAD_REACTORS
330
1A
102
}
330
1A
100
AcDbPlotSettings
  1

  2
none_device
  4
Letter_(8.50_x_11.00_Inches)
  6

 40
6.35
 41
6.35
 42
6.35000508
 43
6.35000508
 44
215.9
 45
279.4
 46
0.0
 47
0.0
 48
0.0
 49
0.0
140
0.0
141
0.0
142
1.0
143
1.0
 70
  1712
 72
     1
 73
     0
 74
     0
  7

 75
     0
 76
     0
 77
     2
 78
   300
147
1.0
148
0.0
149
0.0
100
AcDbLayout
  1
Model
 70
     1
 71
     0
 10
0.0
 20
0.0
 11
420.0
 21
297.0
 12
0.0
 22
0.0
 32
0.0
 14
19195.53154230327
 24
-20705.38825737588
 34
0.0
 15
20180.53154230327
 25
-19350.38825737588
 35
2500.0
146
0.0
 13
0.0
 23
0.0
 33
0.0
 16
1.0
 26
0.0
 36
0.0
 17
0.0
 27
1.0
 37
0.0
 76
     0
330
1F
331
29
  0
LAYOUT
  5
210
102
{ACAD_REACTORS
330
1A
102
}
330
1A
100
AcDbPlotSettings
  1
PlotSettings_
  2
Custom Device
  4
Custom_210.000000x297.000000_12.700000_12.700000_6.200000_6.200000
  6

 40
6.2
 41
12.7
 42
6.2
 43
12.7
 44
210.0
 45
297.0
 46
0.0000000000000142
 47
0.0
 48
0.0
 49
0.0
140
197.6
141
271.6
142
1.0
143
1.0
 70
   756
 72
     1
 73
     0
 74
     4
  7

 75
     0
 76
     0
 77
     2
 78
   300
147
1.0
148
0.0
149
0.0
100
AcDbLayout
  1
PrintFrame_104
 70
     0
 71
     2
 10
-20.0
 20
-7.5
 11
277.0
 21
202.5
 12
0.0
 22
0.0
 32
0.0
 14
-5.730400000000003
 24
-7.876400000000018
 34
0.0
 15
203.3304
 25
279.4764
 35
0.0
146
0.0
 13
0.0
 23
0.0
 33
0.0
 16
1.0
 26
0.0
 36
0.0
 17
0.0
 27
1.0
 37
0.0
 76
     0
330
20F
331
215
1001
PLOTTRANSPARENCY
1071
        1
1000
layout-user-created
1070
     1
1000
layout-line-weight-scale
1042
1.0
  0
MATERIAL
  5
45
102
{ACAD_REACTORS
330
43
102
}
330
43
100
AcDbMaterial
  1
ByBlock
 72
     1
 94
      127
  0
MATERIAL
  5
44
102
{ACAD_REACTORS
330
43
102
}
330
43
100
AcDbMaterial
  1
ByLayer
 72
     1
 94
      127
  0
MATERIAL
  5
46
102
{ACAD_REACTORS
330
43
102
}
330
43
100
AcDbMaterial
  1
Global
 72
     1
 94
      127
  0
MLEADERSTYLE
  5
5C
102
{ACAD_REACTORS
330
5B
102
}
330
5B
100
AcDbMLeaderStyle
179
     2
170
     2
171
     1
172
     0
 90
        2
 40
0.0
 41
0.0
173
     1
 91
-1056964608
340
14
 92
       -2
290
     1
 42
2.0
291
     1
 43
8.0
  3
Standard
341
0
 44
4.0
300

342
11
174
     1
178
     6
175
     1
176
     0
 93
-1056964608
 45
4.0
292
     0
297
     0
 46
4.0
343
0
 94
-1056964608
 47
1.0
 49
1.0
140
1.0
293
     1
141
0.0
294
     1
177
     0
142
1.0
295
     0
296
     0
143
3.75
271
     0
272
     9
273
     9
298
     0
  0
MLINESTYLE
  5
18
102
{ACAD_REACTORS
330
17
102
}
330
17
100
AcDbMlineStyle
  2
Standard
 70
     0
  3

 62
   256
 51
90.0
 52
90.0
 71
     2
 49
0.5
 62
   256
  6
BYLAYER
 49
-0.5
 62
   256
  6
BYLAYER
  0
PLOTSETTINGS
  5
213
102
{ACAD_REACTORS
330
19
102
}
330
19
100
AcDbPlotSettings
  1
PlotSettings_
  2
Custom Device
  4
Custom_210.000000x297.000000_12.700000_12.700000_6.200000_6.200000
  6

 40
6.2
 41
12.7
 42
6.2
 43
12.7
 44
210.0
 45
297.0
 46
0.0000000000000142
 47
0.0
 48
0.0
 49
0.0
140
197.6
141
271.6
142
1.0
143
1.0
 70
   756
 72
     1
 73
     0
 74
     4
  7

 75
     0
 76
     0
 77
     2
 78
   300
147
1.0
148
0.0
149
0.0
1001
PLOTTRANSPARENCY
1071
        1
1000
layout-user-created
1070
     1
1000
layout-line-weight-scale
1042
1.0
  0
ACDBPLACEHOLDER
  5
5F
102
{ACAD_REACTORS
330
E
102
}
330
E
  0
ACDBPLACEHOLDER
  5
F
102
{ACAD_REACTORS
330
E
102
}
330
E
  0
ACDBPLACEHOLDER
  5
23C
102
{ACAD_REACTORS
330
E
102
}
330
E
  0
SCALE
  5
48
102
{ACAD_REACTORS
330
47
102
}
330
47
100
AcDbScale
 70
     0
300
1:1
140
1.0
141
1.0
290
     1
  0
SCALE
  5
49
102
{ACAD_REACTORS
330
47
102
}
330
47
100
AcDbScale
 70
     0
300
1:2
140
1.0
141
2.0
290
     0
  0
SCALE
  5
4A
102
{ACAD_REACTORS
330
47
102
}
330
47
100
AcDbScale
 70
     0
300
1:4
140
1.0
141
4.0
290
     0
  0
SCALE
  5
4B
102
{ACAD_REACTORS
330
47
102
}
330
47
100
AcDbScale
 70
     0
300
1:5
140
1.0
141
5.0
290
     0
  0
SCALE
  5
4C
102
{ACAD_REACTORS
330
47
102
}
330
47
100
AcDbScale
 70
     0
300
1:8
140
1.0
141
8.0
290
     0
  0
SCALE
  5
4D
102
{ACAD_REACTORS
330
47
102
}
330
47
100
AcDbScale
 70
     0
300
1:10
140
1.0
141
10.0
290
     0
  0
SCALE
  5
4E
102
{ACAD_REACTORS
330
47
102
}
330
47
100
AcDbScale
 70
     0
300
1:16
140
1.0
141
16.0
290
     0
  0
SCALE
  5
4F
102
{ACAD_REACTORS
330
47
102
}
330
47
100
AcDbScale
 70
     0
300
1:20
140
1.0
141
20.0
290
     0
  0
SCALE
  5
50
102
{ACAD_REACTORS
330
47
102
}
330
47
100
AcDbScale
 70
     0
300
1:30
140
1.0
141
30.0
290
     0
  0
SCALE
  5
51
102
{ACAD_REACTORS
330
47
102
}
330
47
100
AcDbScale
 70
     0
300
1:40
140
1.0
141
40.0
290
     0
  0
SCALE
  5
52
102
{ACAD_REACTORS
330
47
102
}
330
47
100
AcDbScale
 70
     0
300
1:50
140
1.0
141
50.0
290
     0
  0
SCALE
  5
53
102
{ACAD_REACTORS
330
47
102
}
330
47
100
AcDbScale
 70
     0
300
1:100
140
1.0
141
100.0
290
     0
  0
SCALE
  5
54
102
{ACAD_REACTORS
330
47
102
}
330
47
100
AcDbScale
 70
     0
300
2:1
140
2.0
141
1.0
290
     0
  0
SCALE
  5
55
102
{ACAD_REACTORS
330
47
102
}
330
47
100
AcDbScale
 70
     0
300
4:1
140
4.0
141
1.0
290
     0
  0
SCALE
  5
56
102
{ACAD_REACTORS
330
47
102
}
330
47
100
AcDbScale
 70
     0
300
8:1
140
8.0
141
1.0
290
     0
  0
SCALE
  5
57
102
{ACAD_REACTORS
330
47
102
}
330
47
100
AcDbScale
 70
     0
300
10:1
140
10.0
141
1.0
290
     0
  0
SCALE
  5
58
102
{ACAD_REACTORS
330
47
102
}
330
47
100
AcDbScale
 70
     0
300
100:1
140
100.0
141
1.0
290
     0
  0
TABLESTYLE
  5
5A
102
{ACAD_REACTORS
330
59
102
}
102
{ACAD_XDICTIONARY
360
328
102
}
330
59
100
AcDbTableStyle
  3
Standard
 70
     0
 71
     0
 40
0.06
 41
0.06
280
     0
281
     0
  7
Standard
140
4.5
170
     2
 62
     0
 63
   257
283
     0
 90
        4
 91
        0
  1

274
    -2
284
     1
 64
     0
275
    -2
285
     1
 65
     0
276
    -2
286
     1
 66
     0
277
    -2
287
     1
 67
     0
278
    -2
288
     1
 68
     0
279
    -2
289
     1
 69
     0
  7
Standard
140
6.0
170
     5
 62
     0
 63
   257
283
     0
 90
        4
 91
        0
  1

274
    -2
284
     1
 64
     0
275
    -2
285
     1
 65
     0
276
    -2
286
     1
 66
     0
277
    -2
287
     1
 67
     0
278
    -2
288
     1
 68
     0
279
    -2
289
     1
 69
     0
  7
Standard
140
4.5
170
     5
 62
     0
 63
   257
283
     0
 90
        4
 91
        0
  1

274
    -2
284
     1
 64
     0
275
    -2
285
     1
 65
     0
276
    -2
286
     1
 66
     0
277
    -2
287
     1
 67
     0
278
    -2
288
     1
 68
     0
279
    -2
289
     1
 69
     0
  0
VISUALSTYLE
  5
2F
102
{ACAD_REACTORS
330
2A
102
}
330
2A
100
AcDbVisualStyle
  2
2dWireframe
 70
     4
177
     3
291
     0
 70
    58
 90
        0
176
     1
 90
        2
176
     1
 90
        0
176
     1
 90
        0
176
     1
 40
0.6
176
     1
 40
30.0
176
     1
 62
     7
420
 16777215
176
     1
 90
        1
176
     1
 90
        4
176
     1
 62
     7
176
     1
 62
   257
176
     1
 90
        1
176
     1
 90
        1
176
     1
 40
1.0
176
     1
 90
        0
176
     1
 62
   257
176
     1
 40
1.0
176
     1
 90
        1
176
     1
 90
        6
176
     1
 90
        2
176
     1
 62
     7
176
     1
 90
        5
176
     1
 90
        0
176
     1
 90
        0
176
     1
290
     0
176
     1
 90
        1
176
     1
 40
0.0
176
     1
 90
        0
176
     1
290
     1
176
     1
290
     1
176
     1
290
     0
176
     1
290
     0
176
     1
290
     0
176
     1
290
     0
176
     1
290
     0
176
     1
290
     0
176
     1
290
     0
176
     1
 90
       50
176
     1
 40
0.0
176
     1
 40
1.0
176
     1
 90
        0
176
     1
 62
    18
420
        0
176
     1
 90
       50
176
     1
 90
        3
176
     1
 62
     5
420
      255
176
     1
290
     0
176
     1
 90
       50
176
     1
 90
       50
176
     1
 90
       50
176
     1
290
     0
176
     1
 90
       50
176
     1
 62
   256
176
     0
 40
1.0
176
     0
 90
        2
176
     1
  1
strokes_ogs.tif
176
     1
290
     0
176
     1
 40
1.0
176
     1
 40
1.0
176
     1
  0
VISUALSTYLE
  5
32
102
{ACAD_REACTORS
330
2A
102
}
330
2A
100
AcDbVisualStyle
  2
Basic
 70
     7
177
     3
291
     1
 70
    58
 90
        1
176
     1
 90
        0
176
     1
 90
        1
176
     1
 90
        0
176
     1
 40
0.6
176
     1
 40
30.0
176
     1
 62
     7
420
 16777215
176
     1
 90
        0
176
     1
 90
        4
176
     1
 62
     7
176
     1
 62
   257
176
     1
 90
        1
176
     1
 90
        1
176
     1
 40
1.0
176
     1
 90
        8
176
     1
 62
     7
176
     1
 40
1.0
176
     1
 90
        1
176
     1
 90
        6
176
     1
 90
        2
176
     1
 62
     7
176
     1
 90
        5
176
     1
 90
        0
176
     1
 90
        0
176
     1
290
     0
176
     1
 90
        1
176
     1
 40
0.0
176
     1
 90
        0
176
     1
290
     0
176
     1
290
     1
176
     1
290
     1
176
     1
290
     0
176
     1
290
     0
176
     1
290
     0
176
     1
290
     0
176
     1
290
     0
176
     1
290
     0
176
     1
 90
       50
176
     1
 40
0.0
176
     1
 40
1.0
176
     1
 90
        0
176
     1
 62
    18
420
        0
176
     1
 90
       50
176
     1
 90
        3
176
     1
 62
     5
420
      255
176
     1
290
     0
176
     1
 90
       50
176
     1
 90
       50
176
     1
 90
       50
176
     1
290
     0
176
     1
 90
       50
176
     1
 62
   256
176
     0
 40
1.0
176
     0
 90
        2
176
     1
  1
strokes_ogs.tif
176
     1
290
     0
176
     1
 40
1.0
176
     1
 40
1.0
176
     1
  0
VISUALSTYLE
  5
36
102
{ACAD_REACTORS
330
2A
102
}
330
2A
100
AcDbVisualStyle
  2
Brighten
 70
    12
177
     3
291
     1
 70
    58
 90
        2
176
     1
 90
        2
176
     1
 90
        0
176
     1
 90
        0
176
     1
 40
0.6
176
     1
 40
30.0
176
     1
 62
     7
420
 16777215
176
     1
 90
        1
176
     1
 90
        4
176
     1
 62
     7
176
     1
 62
   257
176
     1
 90
        1
176
     1
 90
        1
176
     1
 40
1.0
176
     1
 90
        8
176
     1
 62
     7
176
     1
 40
1.0
176
     1
 90
        1
176
     1
 90
        6
176
     1
 90
        2
176
     1
 62
     7
176
     1
 90
        5
176
     1
 90
        0
176
     1
 90
        0
176
     1
290
     0
176
     1
 90
        1
176
     1
 40
50.0
176
     1
 90
        0
176
     1
290
     0
176
     1
290
     1
176
     1
290
     1
176
     1
290
     0
176
     1
290
     0
176
     1
290
     0
176
     1
290
     0
176
     1
290
     0
176
     1
290
     0
176
     1
 90
       50
176
     1
 40
0.0
176
     1
 40
1.0
176
     1
 90
        0
176
     1
 62
    18
420
        0
176
     1
 90
       50
176
     1
 90
        3
176
     1
 62
     5
420
      255
176
     1
290
     0
176
     1
 90
       50
176
     1
 90
       50
176
     1
 90
       50
176
     1
290
     0
176
     1
 90
       50
176
     1
 62
   256
176
     0
 40
1.0
176
     0
 90
        2
176
     1
  1
strokes_ogs.tif
176
     1
290
     0
176
     1
 40
1.0
176
     1
 40
1.0
176
     1
  0
VISUALSTYLE
  5
3A
102
{ACAD_REACTORS
330
2A
102
}
330
2A
100
AcDbVisualStyle
  2
ColorChange
 70
    16
177
     3
291
     1
 70
    58
 90
        2
176
     1
 90
        2
176
     1
 90
        3
176
     1
 90
        0
176
     1
 40
0.6
176
     1
 40
30.0
176
     1
 62
     8
420
  8421504
176
     1
 90
        1
176
     1
 90
        4
176
     1
 62
     7
176
     1
 62
   257
176
     1
 90
        1
176
     1
 90
        1
176
     1
 40
1.0
176
     1
 90
        8
176
     1
 62
     8
420
  8421504
176
     1
 40
1.0
176
     1
 90
        1
176
     1
 90
        6
176
     1
 90
        2
176
     1
 62
     7
176
     1
 90
        5
176
     1
 90
        0
176
     1
 90
        0
176
     1
290
     0
176
     1
 90
        1
176
     1
 40
0.0
176
     1
 90
        0
176
     1
290
     0
176
     1
290
     1
176
     1
290
     1
176
     1
290
     0
176
     1
290
     0
176
     1
290
     0
176
     1
290
     0
176
     1
290
     0
176
     1
290
     0
176
     1
 90
       50
176
     1
 40
0.0
176
     1
 40
1.0
176
     1
 90
        0
176
     1
 62
    18
420
        0
176
     1
 90
       50
176
     1
 90
        3
176
     1
 62
     5
420
      255
176
     1
290
     0
176
     1
 90
       50
176
     1
 90
       50
176
     1
 90
       50
176
     1
290
     0
176
     1
 90
       50
176
     1
 62
   256
176
     0
 40
1.0
176
     0
 90
        2
176
     1
  1
strokes_ogs.tif
176
     1
290
     0
176
     1
 40
1.0
176
     1
 40
1.0
176
     1
  0
VISUALSTYLE
  5
34
102
{ACAD_REACTORS
330
2A
102
}
330
2A
100
AcDbVisualStyle
  2
Conceptual
 70
     9
177
     3
291
     0
 70
    58
 90
        3
176
     1
 90
        2
176
     1
 90
        0
176
     1
 90
        0
176
     1
 40
0.6
176
     1
 40
30.0
176
     1
 62
     7
420
 16777215
176
     1
 90
        2
176
     1
 90
        2
176
     1
 62
     7
176
     1
 62
   257
176
     1
 90
        1
176
     1
 90
        1
176
     1
 40
179.0
176
     1
 90
        8
176
     1
 62
     7
176
     1
 40
1.0
176
     1
 90
        1
176
     1
 90
        6
176
     1
 90
        2
176
     1
 62
     7
176
     1
 90
        3
176
     1
 90
        0
176
     1
 90
        0
176
     1
290
     0
176
     1
 90
        1
176
     1
 40
0.0
176
     1
 90
        0
176
     1
290
     0
176
     1
290
     1
176
     1
290
     1
176
     1
290
     0
176
     1
290
     0
176
     1
290
     0
176
     1
290
     0
176
     1
290
     0
176
     1
290
     0
176
     1
 90
       50
176
     1
 40
0.0
176
     1
 40
1.0
176
     1
 90
        0
176
     1
 62
    18
420
        0
176
     1
 90
       50
176
     1
 90
        3
176
     1
 62
     5
420
      255
176
     1
290
     0
176
     1
 90
       50
176
     1
 90
       50
176
     1
 90
       50
176
     1
290
     0
176
     1
 90
       50
176
     1
 62
   256
176
     0
 40
1.0
176
     0
 90
        2
176
     1
  1
strokes_ogs.tif
176
     1
290
     0
176
     1
 40
1.0
176
     1
 40
1.0
176
     1
  0
VISUALSTYLE
  5
35
102
{ACAD_REACTORS
330
2A
102
}
330
2A
100
AcDbVisualStyle
  2
Dim
 70
    11
177
     3
291
     1
 70
    58
 90
        2
176
     1
 90
        2
176
     1
 90
        0
176
     1
 90
        0
176
     1
 40
0.6
176
     1
 40
30.0
176
     1
 62
     7
420
 16777215
176
     1
 90
        1
176
     1
 90
        4
176
     1
 62
     7
176
     1
 62
   257
176
     1
 90
        1
176
     1
 90
        1
176
     1
 40
1.0
176
     1
 90
        8
176
     1
 62
     7
176
     1
 40
1.0
176
     1
 90
        1
176
     1
 90
        6
176
     1
 90
        2
176
     1
 62
     7
176
     1
 90
        5
176
     1
 90
        0
176
     1
 90
        0
176
     1
290
     0
176
     1
 90
        1
176
     1
 40
-50.0
176
     1
 90
        0
176
     1
290
     0
176
     1
290
     1
176
     1
290
     1
176
     1
290
     0
176
     1
290
     0
176
     1
290
     0
176
     1
290
     0
176
     1
290
     0
176
     1
290
     0
176
     1
 90
       50
176
     1
 40
0.0
176
     1
 40
1.0
176
     1
 90
        0
176
     1
 62
    18
420
        0
176
     1
 90
       50
176
     1
 90
        3
176
     1
 62
     5
420
      255
176
     1
290
     0
176
     1
 90
       50
176
     1
 90
       50
176
     1
 90
       50
176
     1
290
     0
176
     1
 90
       50
176
     1
 62
   256
176
     0
 40
1.0
176
     0
 90
        2
176
     1
  1
strokes_ogs.tif
176
     1
290
     0
176
     1
 40
1.0
176
     1
 40
1.0
176
     1
  0
VISUALSTYLE
  5
3D
102
{ACAD_REACTORS
330
2A
102
}
330
2A
100
AcDbVisualStyle
  2
EdgeColorOff
 70
    22
177
     3
291
     1
 70
    58
 90
        2
176
     0
 90
        2
176
     0
 90
        0
176
     0
 90
        0
176
     0
 40
0.6
176
     0
 40
30.0
176
     0
 62
     7
420
 16777215
176
     0
 90
        1
176
     0
 90
        4
176
     0
 62
     7
176
     0
 62
   257
176
     0
 90
        1
176
     0
 90
        1
176
     0
 40
1.0
176
     0
 90
        8
176
     2
 62
     7
176
     0
 40
1.0
176
     0
 90
        1
176
     0
 90
        6
176
     0
 90
        2
176
     0
 62
     7
176
     0
 90
        5
176
     0
 90
        0
176
     0
 90
        0
176
     0
290
     0
176
     0
 90
        1
176
     0
 40
0.0
176
     0
 90
        0
176
     0
290
     0
176
     0
290
     1
176
     0
290
     1
176
     0
290
     0
176
     0
290
     0
176
     0
290
     0
176
     0
290
     0
176
     0
290
     0
176
     0
290
     0
176
     0
 90
       50
176
     0
 40
0.0
176
     0
 40
1.0
176
     0
 90
        0
176
     0
 62
    18
420
        0
176
     0
 90
       50
176
     0
 90
        3
176
     0
 62
     5
420
      255
176
     0
290
     0
176
     0
 90
       50
176
     0
 90
       50
176
     0
 90
       50
176
     0
290
     0
176
     0
 90
       50
176
     0
 62
   256
176
     0
 40
1.0
176
     0
 90
        2
176
     0
  1
strokes_ogs.tif
176
     0
290
     0
176
     0
 40
1.0
176
     0
 40
1.0
176
     0
  0
VISUALSTYLE
  5
39
102
{ACAD_REACTORS
330
2A
102
}
330
2A
100
AcDbVisualStyle
  2
Facepattern
 70
    15
177
     3
291
     1
 70
    58
 90
        2
176
     1
 90
        2
176
     1
 90
        0
176
     1
 90
        0
176
     1
 40
0.6
176
     1
 40
30.0
176
     1
 62
     7
420
 16777215
176
     1
 90
        1
176
     1
 90
        4
176
     1
 62
     7
176
     1
 62
   257
176
     1
 90
        1
176
     1
 90
        1
176
     1
 40
1.0
176
     1
 90
        8
176
     1
 62
     7
176
     1
 40
1.0
176
     1
 90
        1
176
     1
 90
        6
176
     1
 90
        2
176
     1
 62
     7
176
     1
 90
        5
176
     1
 90
        0
176
     1
 90
        0
176
     1
290
     0
176
     1
 90
        1
176
     1
 40
0.0
176
     1
 90
        0
176
     1
290
     0
176
     1
290
     1
176
     1
290
     1
176
     1
290
     0
176
     1
290
     0
176
     1
290
     0
176
     1
290
     0
176
     1
290
     0
176
     1
290
     0
176
     1
 90
       50
176
     1
 40
0.0
176
     1
 40
1.0
176
     1
 90
        0
176
     1
 62
    18
420
        0
176
     1
 90
       50
176
     1
 90
        3
176
     1
 62
     5
420
      255
176
     1
290
     0
176
     1
 90
       50
176
     1
 90
       50
176
     1
 90
       50
176
     1
290
     0
176
     1
 90
       50
176
     1
 62
   256
176
     0
 40
1.0
176
     0
 90
        2
176
     1
  1
strokes_ogs.tif
176
     1
290
     0
176
     1
 40
1.0
176
     1
 40
1.0
176
     1
  0
VISUALSTYLE
  5
2B
102
{ACAD_REACTORS
330
2A
102
}
330
2A
100
AcDbVisualStyle
  2
Flat
 70
     0
177
     3
291
     1
 70
    58
 90
        2
176
     1
 90
        1
176
     1
 90
        1
176
     1
 90
        2
176
     1
 40
0.6
176
     1
 40
30.0
176
     1
 62
     7
420
 16777215
176
     1
 90
        0
176
     1
 90
        0
176
     1
 62
     7
176
     1
 62
   257
176
     1
 90
        1
176
     1
 90
        1
176
     1
 40
1.0
176
     1
 90
        8
176
     1
 62
     7
176
     1
 40
1.0
176
     1
 90
        1
176
     1
 90
        6
176
     1
 90
        2
176
     1
 62
     7
176
     1
 90
        5
176
     1
 90
        0
176
     1
 90
        0
176
     1
290
     0
176
     1
 90
       13
176
     1
 40
0.0
176
     1
 90
        0
176
     1
290
     0
176
     1
290
     1
176
     1
290
     1
176
     1
290
     0
176
     1
290
     0
176
     1
290
     0
176
     1
290
     0
176
     1
290
     0
176
     1
290
     0
176
     1
 90
       50
176
     1
 40
0.0
176
     1
 40
1.0
176
     1
 90
        0
176
     1
 62
    18
420
        0
176
     1
 90
       50
176
     1
 90
        3
176
     1
 62
     5
420
      255
176
     1
290
     0
176
     1
 90
       50
176
     1
 90
       50
176
     1
 90
       50
176
     1
290
     0
176
     1
 90
       50
176
     1
 62
   256
176
     0
 40
1.0
176
     0
 90
        2
176
     1
  1
strokes_ogs.tif
176
     1
290
     0
176
     1
 40
1.0
176
     1
 40
1.0
176
     1
  0
VISUALSTYLE
  5
2C
102
{ACAD_REACTORS
330
2A
102
}
330
2A
100
AcDbVisualStyle
  2
FlatWithEdges
 70
     1
177
     3
291
     1
 70
    58
 90
        2
176
     1
 90
        1
176
     1
 90
        1
176
     1
 90
        2
176
     1
 40
0.6
176
     1
 40
30.0
176
     1
 62
     7
420
 16777215
176
     1
 90
        1
176
     1
 90
        0
176
     1
 62
     7
176
     1
 62
   257
176
     1
 90
        1
176
     1
 90
        1
176
     1
 40
1.0
176
     1
 90
        0
176
     1
 62
   257
176
     1
 40
1.0
176
     1
 90
        1
176
     1
 90
        6
176
     1
 90
        2
176
     1
 62
     7
176
     1
 90
        5
176
     1
 90
        0
176
     1
 90
        0
176
     1
290
     0
176
     1
 90
       13
176
     1
 40
0.0
176
     1
 90
        0
176
     1
290
     0
176
     1
290
     1
176
     1
290
     1
176
     1
290
     0
176
     1
290
     0
176
     1
290
     0
176
     1
290
     0
176
     1
290
     0
176
     1
290
     0
176
     1
 90
       50
176
     1
 40
0.0
176
     1
 40
1.0
176
     1
 90
        0
176
     1
 62
    18
420
        0
176
     1
 90
       50
176
     1
 90
        3
176
     1
 62
     5
420
      255
176
     1
290
     0
176
     1
 90
       50
176
     1
 90
       50
176
     1
 90
       50
176
     1
290
     0
176
     1
 90
       50
176
     1
 62
   256
176
     0
 40
1.0
176
     0
 90
        2
176
     1
  1
strokes_ogs.tif
176
     1
290
     0
176
     1
 40
1.0
176
     1
 40
1.0
176
     1
  0
VISUALSTYLE
  5
2D
102
{ACAD_REACTORS
330
2A
102
}
330
2A
100
AcDbVisualStyle
  2
Gouraud
 70
     2
177
     3
291
     1
 70
    58
 90
        2
176
     1
 90
        2
176
     1
 90
        1
176
     1
 90
        2
176
     1
 40
0.6
176
     1
 40
30.0
176
     1
 62
     7
420
 16777215
176
     1
 90
        0
176
     1
 90
        0
176
     1
 62
     7
176
     1
 62
   257
176
     1
 90
        1
176
     1
 90
        1
176
     1
 40
1.0
176
     1
 90
        0
176
     1
 62
     7
176
     1
 40
1.0
176
     1
 90
        1
176
     1
 90
        6
176
     1
 90
        2
176
     1
 62
     7
176
     1
 90
        5
176
     1
 90
        0
176
     1
 90
        0
176
     1
290
     0
176
     1
 90
       13
176
     1
 40
0.0
176
     1
 90
        0
176
     1
290
     0
176
     1
290
     1
176
     1
290
     1
176
     1
290
     0
176
     1
290
     0
176
     1
290
     0
176
     1
290
     0
176
     1
290
     0
176
     1
290
     0
176
     1
 90
       50
176
     1
 40
0.0
176
     1
 40
1.0
176
     1
 90
        0
176
     1
 62
    18
420
        0
176
     1
 90
       50
176
     1
 90
        3
176
     1
 62
     5
420
      255
176
     1
290
     0
176
     1
 90
       50
176
     1
 90
       50
176
     1
 90
       50
176
     1
290
     0
176
     1
 90
       50
176
     1
 62
   256
176
     0
 40
1.0
176
     0
 90
        2
176
     1
  1
strokes_ogs.tif
176
     1
290
     0
176
     1
 40
1.0
176
     1
 40
1.0
176
     1
  0
VISUALSTYLE
  5
2E
102
{ACAD_REACTORS
330
2A
102
}
330
2A
100
AcDbVisualStyle
  2
GouraudWithEdges
 70
     3
177
     3
291
     1
 70
    58
 90
        2
176
     1
 90
        2
176
     1
 90
        1
176
     1
 90
        2
176
     1
 40
0.6
176
     1
 40
30.0
176
     1
 62
     7
420
 16777215
176
     1
 90
        1
176
     1
 90
        0
176
     1
 62
     7
176
     1
 62
   257
176
     1
 90
        1
176
     1
 90
        1
176
     1
 40
1.0
176
     1
 90
        0
176
     1
 62
   257
176
     1
 40
1.0
176
     1
 90
        1
176
     1
 90
        6
176
     1
 90
        2
176
     1
 62
     7
176
     1
 90
        5
176
     1
 90
        0
176
     1
 90
        0
176
     1
290
     0
176
     1
 90
       13
176
     1
 40
0.0
176
     1
 90
        0
176
     1
290
     0
176
     1
290
     1
176
     1
290
     1
176
     1
290
     0
176
     1
290
     0
176
     1
290
     0
176
     1
290
     0
176
     1
290
     0
176
     1
290
     0
176
     1
 90
       50
176
     1
 40
0.0
176
     1
 40
1.0
176
     1
 90
        0
176
     1
 62
    18
420
        0
176
     1
 90
       50
176
     1
 90
        3
176
     1
 62
     5
420
      255
176
     1
290
     0
176
     1
 90
       50
176
     1
 90
       50
176
     1
 90
       50
176
     1
290
     0
176
     1
 90
       50
176
     1
 62
   256
176
     0
 40
1.0
176
     0
 90
        2
176
     1
  1
strokes_ogs.tif
176
     1
290
     0
176
     1
 40
1.0
176
     1
 40
1.0
176
     1
  0
VISUALSTYLE
  5
31
102
{ACAD_REACTORS
330
2A
102
}
330
2A
100
AcDbVisualStyle
  2
Hidden
 70
     6
177
     3
291
     0
 70
    58
 90
        1
176
     1
 90
        2
176
     1
 90
        2
176
     1
 90
        0
176
     1
 40
0.6
176
     1
 40
30.0
176
     1
 62
     7
420
 16777215
176
     1
 90
        2
176
     1
 90
        2
176
     1
 62
     7
176
     1
 62
   257
176
     1
 90
        2
176
     1
 90
        1
176
     1
 40
40.0
176
     1
 90
        0
176
     1
 62
   257
176
     1
 40
1.0
176
     1
 90
        1
176
     1
 90
        6
176
     1
 90
        2
176
     1
 62
     7
176
     1
 90
        3
176
     1
 90
        0
176
     1
 90
        0
176
     1
290
     0
176
     1
 90
        1
176
     1
 40
0.0
176
     1
 90
        0
176
     1
290
     0
176
     1
290
     1
176
     1
290
     1
176
     1
290
     0
176
     1
290
     0
176
     1
290
     0
176
     1
290
     0
176
     1
290
     0
176
     1
290
     0
176
     1
 90
       50
176
     1
 40
0.0
176
     1
 40
1.0
176
     1
 90
        0
176
     1
 62
    18
420
        0
176
     1
 90
       50
176
     1
 90
        3
176
     1
 62
     5
420
      255
176
     1
290
     0
176
     1
 90
       50
176
     1
 90
       50
176
     1
 90
       50
176
     1
290
     0
176
     1
 90
       50
176
     1
 62
   256
176
     0
 40
1.0
176
     0
 90
        2
176
     1
  1
strokes_ogs.tif
176
     1
290
     0
176
     1
 40
1.0
176
     1
 40
1.0
176
     1
  0
VISUALSTYLE
  5
3B
102
{ACAD_REACTORS
330
2A
102
}
330
2A
100
AcDbVisualStyle
  2
JitterOff
 70
    20
177
     3
291
     1
 70
    58
 90
        2
176
     0
 90
        2
176
     0
 90
        0
176
     0
 90
        0
176
     0
 40
0.6
176
     0
 40
30.0
176
     0
 62
     7
420
 16777215
176
     0
 90
        1
176
     0
 90
        4
176
     0
 62
     7
176
     0
 62
   257
176
     0
 90
        1
176
     0
 90
        1
176
     0
 40
1.0
176
     0
 90
       10
176
     2
 62
     7
176
     0
 40
1.0
176
     0
 90
        1
176
     0
 90
        6
176
     0
 90
        2
176
     0
 62
     7
176
     0
 90
        5
176
     0
 90
        0
176
     0
 90
        0
176
     0
290
     0
176
     0
 90
        1
176
     0
 40
0.0
176
     0
 90
        0
176
     0
290
     0
176
     0
290
     1
176
     0
290
     1
176
     0
290
     0
176
     0
290
     0
176
     0
290
     0
176
     0
290
     0
176
     0
290
     0
176
     0
290
     0
176
     0
 90
       50
176
     0
 40
0.0
176
     0
 40
1.0
176
     0
 90
        0
176
     0
 62
    18
420
        0
176
     0
 90
       50
176
     0
 90
        3
176
     0
 62
     5
420
      255
176
     0
290
     0
176
     0
 90
       50
176
     0
 90
       50
176
     0
 90
       50
176
     0
290
     0
176
     0
 90
       50
176
     0
 62
   256
176
     0
 40
1.0
176
     0
 90
        2
176
     0
  1
strokes_ogs.tif
176
     0
290
     0
176
     0
 40
1.0
176
     0
 40
1.0
176
     0
  0
VISUALSTYLE
  5
38
102
{ACAD_REACTORS
330
2A
102
}
330
2A
100
AcDbVisualStyle
  2
Linepattern
 70
    14
177
     3
291
     1
 70
    58
 90
        2
176
     1
 90
        2
176
     1
 90
        0
176
     1
 90
        0
176
     1
 40
0.6
176
     1
 40
30.0
176
     1
 62
     7
420
 16777215
176
     1
 90
        1
176
     1
 90
        4
176
     1
 62
     7
176
     1
 62
   257
176
     1
 90
        7
176
     1
 90
        7
176
     1
 40
1.0
176
     1
 90
        8
176
     1
 62
     7
176
     1
 40
1.0
176
     1
 90
        1
176
     1
 90
        6
176
     1
 90
        2
176
     1
 62
     7
176
     1
 90
        5
176
     1
 90
        0
176
     1
 90
        0
176
     1
290
     0
176
     1
 90
        1
176
     1
 40
0.0
176
     1
 90
        0
176
     1
290
     0
176
     1
290
     1
176
     1
290
     1
176
     1
290
     0
176
     1
290
     0
176
     1
290
     0
176
     1
290
     0
176
     1
290
     0
176
     1
290
     0
176
     1
 90
       50
176
     1
 40
0.0
176
     1
 40
1.0
176
     1
 90
        0
176
     1
 62
    18
420
        0
176
     1
 90
       50
176
     1
 90
        3
176
     1
 62
     5
420
      255
176
     1
290
     0
176
     1
 90
       50
176
     1
 90
       50
176
     1
 90
       50
176
     1
290
     0
176
     1
 90
       50
176
     1
 62
   256
176
     0
 40
1.0
176
     0
 90
        2
176
     1
  1
strokes_ogs.tif
176
     1
290
     0
176
     1
 40
1.0
176
     1
 40
1.0
176
     1
  0
VISUALSTYLE
  5
3C
102
{ACAD_REACTORS
330
2A
102
}
330
2A
100
AcDbVisualStyle
  2
OverhangOff
 70
    21
177
     3
291
     1
 70
    58
 90
        2
176
     0
 90
        2
176
     0
 90
        0
176
     0
 90
        0
176
     0
 40
0.6
176
     0
 40
30.0
176
     0
 62
     7
420
 16777215
176
     0
 90
        1
176
     0
 90
        4
176
     0
 62
     7
176
     0
 62
   257
176
     0
 90
        1
176
     0
 90
        1
176
     0
 40
1.0
176
     0
 90
        9
176
     2
 62
     7
176
     0
 40
1.0
176
     0
 90
        1
176
     0
 90
        6
176
     0
 90
        2
176
     0
 62
     7
176
     0
 90
        5
176
     0
 90
        0
176
     0
 90
        0
176
     0
290
     0
176
     0
 90
        1
176
     0
 40
0.0
176
     0
 90
        0
176
     0
290
     0
176
     0
290
     1
176
     0
290
     1
176
     0
290
     0
176
     0
290
     0
176
     0
290
     0
176
     0
290
     0
176
     0
290
     0
176
     0
290
     0
176
     0
 90
       50
176
     0
 40
0.0
176
     0
 40
1.0
176
     0
 90
        0
176
     0
 62
    18
420
        0
176
     0
 90
       50
176
     0
 90
        3
176
     0
 62
     5
420
      255
176
     0
290
     0
176
     0
 90
       50
176
     0
 90
       50
176
     0
 90
       50
176
     0
290
     0
176
     0
 90
       50
176
     0
 62
   256
176
     0
 40
1.0
176
     0
 90
        2
176
     0
  1
strokes_ogs.tif
176
     0
290
     0
176
     0
 40
1.0
176
     0
 40
1.0
176
     0
  0
VISUALSTYLE
  5
33
102
{ACAD_REACTORS
330
2A
102
}
330
2A
100
AcDbVisualStyle
  2
Realistic
 70
     8
177
     3
291
     0
 70
    58
 90
        2
176
     1
 90
        3
176
     1
 90
        0
176
     1
 90
        2
176
     1
 40
0.6
176
     1
 40
30.0
176
     1
 62
     7
420
 16777215
176
     1
 90
        0
176
     1
 90
        0
176
     1
 62
     7
176
     1
 62
   257
176
     1
 90
        1
176
     1
 90
        1
176
     1
 40
1.0
176
     1
 90
        8
176
     1
 62
   257
176
     1
 40
1.0
176
     1
 90
        1
176
     1
 90
        6
176
     1
 90
        2
176
     1
 62
     7
176
     1
 90
        3
176
     1
 90
        0
176
     1
 90
        0
176
     1
290
     0
176
     1
 90
       13
176
     1
 40
0.0
176
     1
 90
        0
176
     1
290
     0
176
     1
290
     1
176
     1
290
     1
176
     1
290
     0
176
     1
290
     0
176
     1
290
     0
176
     1
290
     0
176
     1
290
     0
176
     1
290
     0
176
     1
 90
       50
176
     1
 40
0.0
176
     1
 40
1.0
176
     1
 90
        0
176
     1
 62
    18
420
        0
176
     1
 90
       50
176
     1
 90
        3
176
     1
 62
     5
420
      255
176
     1
290
     0
176
     1
 90
       50
176
     1
 90
       50
176
     1
 90
       50
176
     1
290
     0
176
     1
 90
       50
176
     1
 62
   256
176
     0
 40
1.0
176
     0
 90
        2
176
     1
  1
strokes_ogs.tif
176
     1
290
     0
176
     1
 40
1.0
176
     1
 40
1.0
176
     1
  0
VISUALSTYLE
  5
42
102
{ACAD_REACTORS
330
2A
102
}
330
2A
100
AcDbVisualStyle
  2
Shaded
 70
    27
177
     3
291
     0
 70
    58
 90
        2
176
     1
 90
        2
176
     1
 90
        1
176
     1
 90
        2
176
     1
 40
0.6
176
     1
 40
30.0
176
     1
 62
     7
420
 16777215
176
     1
 90
        0
176
     1
 90
        4
176
     1
 62
     7
176
     1
 62
   257
176
     1
 90
        1
176
     1
 90
        1
176
     1
 40
1.0
176
     1
 90
        8
176
     1
 62
   257
176
     1
 40
1.0
176
     1
 90
        1
176
     1
 90
        6
176
     1
 90
        2
176
     1
 62
     8
420
  7895160
176
     1
 90
        3
176
     1
 90
        0
176
     1
 90
        0
176
     1
290
     0
176
     1
 90
        5
176
     1
 40
0.0
176
     1
 90
        0
176
     1
290
     0
176
     1
290
     1
176
     1
290
     1
176
     1
290
     0
176
     1
290
     0
176
     1
290
     0
176
     1
290
     0
176
     1
290
     0
176
     1
290
     0
176
     1
 90
       50
176
     1
 40
0.0
176
     1
 40
1.0
176
     1
 90
        0
176
     1
 62
    18
420
        0
176
     1
 90
       50
176
     1
 90
        3
176
     1
 62
     5
420
      255
176
     1
290
     0
176
     1
 90
       50
176
     1
 90
       50
176
     1
 90
       50
176
     1
290
     0
176
     1
 90
       50
176
     1
 62
   256
176
     0
 40
1.0
176
     0
 90
        2
176
     1
  1
strokes_ogs.tif
176
     1
290
     0
176
     1
 40
1.0
176
     1
 40
1.0
176
     1
  0
VISUALSTYLE
  5
41
102
{ACAD_REACTORS
330
2A
102
}
330
2A
100
AcDbVisualStyle
  2
Shaded with edges
 70
    26
177
     3
291
     0
 70
    58
 90
        2
176
     1
 90
        2
176
     1
 90
        1
176
     1
 90
        2
176
     1
 40
0.6
176
     1
 40
30.0
176
     1
 62
     7
420
 16777215
176
     1
 90
        1
176
     1
 90
       10
176
     1
 62
     7
176
     1
 62
   257
176
     1
 90
        2
176
     1
 90
        1
176
     1
 40
1.0
176
     1
 90
        8
176
     1
 62
   257
176
     1
 40
1.0
176
     1
 90
        1
176
     1
 90
        6
176
     1
 90
        2
176
     1
 62
     7
176
     1
 90
        3
176
     1
 90
        0
176
     1
 90
        0
176
     1
290
     0
176
     1
 90
        5
176
     1
 40
0.0
176
     1
 90
        0
176
     1
290
     0
176
     1
290
     1
176
     1
290
     1
176
     1
290
     0
176
     1
290
     0
176
     1
290
     0
176
     1
290
     0
176
     1
290
     0
176
     1
290
     0
176
     1
 90
       50
176
     1
 40
0.0
176
     1
 40
1.0
176
     1
 90
        0
176
     1
 62
    18
420
        0
176
     1
 90
       50
176
     1
 90
        3
176
     1
 62
     5
420
      255
176
     1
290
     0
176
     1
 90
       50
176
     1
 90
       50
176
     1
 90
       50
176
     1
290
     0
176
     1
 90
       50
176
     1
 62
   256
176
     0
 40
1.0
176
     0
 90
        2
176
     1
  1
strokes_ogs.tif
176
     1
290
     0
176
     1
 40
1.0
176
     1
 40
1.0
176
     1
  0
VISUALSTYLE
  5
3E
102
{ACAD_REACTORS
330
2A
102
}
330
2A
100
AcDbVisualStyle
  2
Shades of Gray
 70
    23
177
     3
291
     0
 70
    58
 90
        2
176
     1
 90
        2
176
     1
 90
        3
176
     1
 90
        0
176
     1
 40
0.6
176
     1
 40
30.0
176
     1
 62
     7
420
 16777215
176
     1
 90
        2
176
     1
 90
        2
176
     1
 62
     7
176
     1
 62
     7
176
     1
 90
        1
176
     1
 90
        1
176
     1
 40
40.0
176
     1
 90
        8
176
     1
 62
     7
176
     1
 40
1.0
176
     1
 90
        1
176
     1
 90
        6
176
     1
 90
        2
176
     1
 62
     7
176
     1
 90
        3
176
     1
 90
        0
176
     1
 90
        0
176
     1
290
     0
176
     1
 90
        1
176
     1
 40
0.0
176
     1
 90
        0
176
     1
290
     0
176
     1
290
     1
176
     1
290
     1
176
     1
290
     0
176
     1
290
     0
176
     1
290
     0
176
     1
290
     0
176
     1
290
     0
176
     1
290
     0
176
     1
 90
       50
176
     1
 40
0.0
176
     1
 40
1.0
176
     1
 90
        0
176
     1
 62
    18
420
        0
176
     1
 90
       50
176
     1
 90
        3
176
     1
 62
     5
420
      255
176
     1
290
     0
176
     1
 90
       50
176
     1
 90
       50
176
     1
 90
       50
176
     1
290
     0
176
     1
 90
       50
176
     1
 62
   256
176
     0
 40
1.0
176
     0
 90
        2
176
     1
  1
strokes_ogs.tif
176
     1
290
     0
176
     1
 40
1.0
176
     1
 40
1.0
176
     1
  0
VISUALSTYLE
  5
3F
102
{ACAD_REACTORS
330
2A
102
}
330
2A
100
AcDbVisualStyle
  2
Sketchy
 70
    24
177
     3
291
     0
 70
    58
 90
        1
176
     1
 90
        2
176
     1
 90
        2
176
     1
 90
        0
176
     1
 40
0.6
176
     1
 40
30.0
176
     1
 62
     7
420
 16777215
176
     1
 90
        2
176
     1
 90
        2
176
     1
 62
     7
176
     1
 62
     7
176
     1
 90
        1
176
     1
 90
        1
176
     1
 40
40.0
176
     1
 90
       11
176
     1
 62
     7
176
     1
 40
1.0
176
     1
 90
        1
176
     1
 90
        6
176
     1
 90
        2
176
     1
 62
     7
176
     1
 90
        6
176
     1
 90
        0
176
     1
 90
        0
176
     1
290
     0
176
     1
 90
        1
176
     1
 40
0.0
176
     1
 90
        0
176
     1
290
     0
176
     1
290
     1
176
     1
290
     1
176
     1
290
     0
176
     1
290
     0
176
     1
290
     0
176
     1
290
     0
176
     1
290
     0
176
     1
290
     0
176
     1
 90
       50
176
     1
 40
0.0
176
     1
 40
1.0
176
     1
 90
        0
176
     1
 62
    18
420
        0
176
     1
 90
       50
176
     1
 90
        3
176
     1
 62
     5
420
      255
176
     1
290
     0
176
     1
 90
       50
176
     1
 90
       50
176
     1
 90
       50
176
     1
290
     0
176
     1
 90
       50
176
     1
 62
   256
176
     0
 40
1.0
176
     0
 90
        2
176
     1
  1
strokes_ogs.tif
176
     1
290
     0
176
     1
 40
1.0
176
     1
 40
1.0
176
     1
  0
VISUALSTYLE
  5
37
102
{ACAD_REACTORS
330
2A
102
}
330
2A
100
AcDbVisualStyle
  2
Thicken
 70
    13
177
     3
291
     1
 70
    58
 90
        2
176
     1
 90
        2
176
     1
 90
        0
176
     1
 90
        0
176
     1
 40
0.6
176
     1
 40
30.0
176
     1
 62
     7
420
 16777215
176
     1
 90
        1
176
     1
 90
        4
176
     1
 62
     7
176
     1
 62
   257
176
     1
 90
        1
176
     1
 90
        1
176
     1
 40
1.0
176
     1
 90
       12
176
     1
 62
     7
176
     1
 40
1.0
176
     1
 90
        1
176
     1
 90
        6
176
     1
 90
        2
176
     1
 62
     7
176
     1
 90
        5
176
     1
 90
        0
176
     1
 90
        0
176
     1
290
     0
176
     1
 90
        1
176
     1
 40
0.0
176
     1
 90
        0
176
     1
290
     0
176
     1
290
     1
176
     1
290
     1
176
     1
290
     0
176
     1
290
     0
176
     1
290
     0
176
     1
290
     0
176
     1
290
     0
176
     1
290
     0
176
     1
 90
       50
176
     1
 40
0.0
176
     1
 40
1.0
176
     1
 90
        0
176
     1
 62
    18
420
        0
176
     1
 90
       50
176
     1
 90
        3
176
     1
 62
     5
420
      255
176
     1
290
     0
176
     1
 90
       50
176
     1
 90
       50
176
     1
 90
       50
176
     1
290
     0
176
     1
 90
       50
176
     1
 62
   256
176
     0
 40
1.0
176
     0
 90
        2
176
     1
  1
strokes_ogs.tif
176
     1
290
     0
176
     1
 40
1.0
176
     1
 40
1.0
176
     1
  0
VISUALSTYLE
  5
30
102
{ACAD_REACTORS
330
2A
102
}
330
2A
100
AcDbVisualStyle
  2
Wireframe
 70
     5
177
     3
291
     0
 70
    58
 90
        0
176
     1
 90
        2
176
     1
 90
        0
176
     1
 90
        0
176
     1
 40
0.6
176
     1
 40
30.0
176
     1
 62
     7
420
 16777215
176
     1
 90
        1
176
     1
 90
        4
176
     1
 62
     7
176
     1
 62
   257
176
     1
 90
        1
176
     1
 90
        1
176
     1
 40
1.0
176
     1
 90
        0
176
     1
 62
   257
176
     1
 40
1.0
176
     1
 90
        1
176
     1
 90
        6
176
     1
 90
        2
176
     1
 62
     7
176
     1
 90
        3
176
     1
 90
        0
176
     1
 90
        0
176
     1
290
     0
176
     1
 90
        1
176
     1
 40
0.0
176
     1
 90
        0
176
     1
290
     0
176
     1
290
     1
176
     1
290
     1
176
     1
290
     0
176
     1
290
     0
176
     1
290
     0
176
     1
290
     0
176
     1
290
     0
176
     1
290
     0
176
     1
 90
       50
176
     1
 40
0.0
176
     1
 40
1.0
176
     1
 90
        0
176
     1
 62
    18
420
        0
176
     1
 90
       50
176
     1
 90
        3
176
     1
 62
     5
420
      255
176
     1
290
     0
176
     1
 90
       50
176
     1
 90
       50
176
     1
 90
       50
176
     1
290
     0
176
     1
 90
       50
176
     1
 62
   256
176
     0
 40
1.0
176
     0
 90
        2
176
     1
  1
strokes_ogs.tif
176
     1
290
     0
176
     1
 40
1.0
176
     1
 40
1.0
176
     1
  0
VISUALSTYLE
  5
40
102
{ACAD_REACTORS
330
2A
102
}
330
2A
100
AcDbVisualStyle
  2
X-Ray
 70
    25
177
     3
291
     0
 70
    58
 90
        2
176
     1
 90
        2
176
     1
 90
        1
176
     1
 90
        1
176
     1
 40
0.5
176
     1
 40
30.0
176
     1
 62
     7
420
 16777215
176
     1
 90
        1
176
     1
 90
        0
176
     1
 62
     7
176
     1
 62
   257
176
     1
 90
        1
176
     1
 90
        1
176
     1
 40
1.0
176
     1
 90
        8
176
     1
 62
     7
176
     1
 40
1.0
176
     1
 90
        1
176
     1
 90
        6
176
     1
 90
        2
176
     1
 62
     7
176
     1
 90
        3
176
     1
 90
        0
176
     1
 90
        0
176
     1
290
     0
176
     1
 90
       13
176
     1
 40
0.0
176
     1
 90
        0
176
     1
290
     0
176
     1
290
     1
176
     1
290
     1
176
     1
290
     0
176
     1
290
     0
176
     1
290
     0
176
     1
290
     0
176
     1
290
     0
176
     1
290
     0
176
     1
 90
       50
176
     1
 40
0.0
176
     1
 40
1.0
176
     1
 90
        0
176
     1
 62
    18
420
        0
176
     1
 90
       50
176
     1
 90
        3
176
     1
 62
     5
420
      255
176
     1
290
     0
176
     1
 90
       50
176
     1
 90
       50
176
     1
 90
       50
176
     1
290
     0
176
     1
 90
       50
176
     1
 62
   256
176
     0
 40
1.0
176
     0
 90
        2
176
     1
  1
strokes_ogs.tif
176
     1
290
     0
176
     1
 40
1.0
176
     1
 40
1.0
176
     1
  0
DICTIONARYVAR
  5
327
102
{ACAD_REACTORS
330
326
102
}
330
326
100
DictionaryVariables
280
     0
  1
1:1
  0
DICTIONARYVAR
  5
330
102
{ACAD_REACTORS
330
326
102
}
330
326
100
DictionaryVariables
280
     0
  1
3.500000
  0
DICTIONARYVAR
  5
331
102
{ACAD_REACTORS
330
326
102
}
330
326
100
DictionaryVariables
280
     0
  1
acadiso.lin
  0
DICTIONARYVAR
  5
32C
102
{ACAD_REACTORS
330
326
102
}
330
326
100
DictionaryVariables
280
     0
  1
Standard
  0
DICTIONARYVAR
  5
32B
102
{ACAD_REACTORS
330
326
102
}
330
326
100
DictionaryVariables
280
     0
  1
Standard
  0
DICTIONARYVAR
  5
32F
102
{ACAD_REACTORS
330
326
102
}
330
326
100
DictionaryVariables
280
     0
  1
0
  0
DICTIONARY
  5
328
330
5A
100
AcDbDictionary
280
     1
281
     1
  3
ACAD_ROUNDTRIP_2008_TABLESTYLE_CELLSTYLEMAP
360
329
  0
CELLSTYLEMAP
  5
329
102
{ACAD_REACTORS
330
328
102
}
330
328
100
AcDbCellStyleMap
 90
        3
300
CELLSTYLE
  1
TABLEFORMAT_BEGIN
 90
        5
170
     1
 91
        0
 92
    32768
 62
   257
 93
        1
300
CONTENTFORMAT
  1
CONTENTFORMAT_BEGIN
 90
        0
 91
        0
 92
        4
 93
        0
300

 40
0.0
140
1.0
 94
        5
 62
     0
340
11
144
6.0
309
CONTENTFORMAT_END
171
     1
301
MARGIN
  1
CELLMARGIN_BEGIN
 40
1.5
 40
1.5
 40
1.5
 40
1.5
 40
1.5
 40
1.5
309
CELLMARGIN_END
 94
        6
 95
        1
302
GRIDFORMAT
  1
GRIDFORMAT_BEGIN
 90
        0
 91
        1
 62
     0
 92
       -2
340
14
 93
        0
 40
0.045
309
GRIDFORMAT_END
 95
        2
302
GRIDFORMAT
  1
GRIDFORMAT_BEGIN
 90
        0
 91
        1
 62
     0
 92
       -2
340
14
 93
        0
 40
0.045
309
GRIDFORMAT_END
 95
        4
302
GRIDFORMAT
  1
GRIDFORMAT_BEGIN
 90
        0
 91
        1
 62
     0
 92
       -2
340
14
 93
        0
 40
0.045
309
GRIDFORMAT_END
 95
        8
302
GRIDFORMAT
  1
GRIDFORMAT_BEGIN
 90
        0
 91
        1
 62
     0
 92
       -2
340
14
 93
        0
 40
0.045
309
GRIDFORMAT_END
 95
       16
302
GRIDFORMAT
  1
GRIDFORMAT_BEGIN
 90
        0
 91
        1
 62
     0
 92
       -2
340
14
 93
        0
 40
0.045
309
GRIDFORMAT_END
 95
       32
302
GRIDFORMAT
  1
GRIDFORMAT_BEGIN
 90
        0
 91
        1
 62
     0
 92
       -2
340
14
 93
        0
 40
0.045
309
GRIDFORMAT_END
309
TABLEFORMAT_END
  1
CELLSTYLE_BEGIN
 90
        1
 91
        1
300
_TITLE
309
CELLSTYLE_END
300
CELLSTYLE
  1
TABLEFORMAT_BEGIN
 90
        5
170
     1
 91
        0
 92
        0
 62
   257
 93
        1
300
CONTENTFORMAT
  1
CONTENTFORMAT_BEGIN
 90
        0
 91
        0
 92
        4
 93
        0
300

 40
0.0
140
1.0
 94
        5
 62
     0
340
11
144
4.5
309
CONTENTFORMAT_END
171
     1
301
MARGIN
  1
CELLMARGIN_BEGIN
 40
1.5
 40
1.5
 40
1.5
 40
1.5
 40
1.5
 40
1.5
309
CELLMARGIN_END
 94
        6
 95
        1
302
GRIDFORMAT
  1
GRIDFORMAT_BEGIN
 90
        0
 91
        1
 62
     0
 92
       -2
340
14
 93
        0
 40
0.045
309
GRIDFORMAT_END
 95
        2
302
GRIDFORMAT
  1
GRIDFORMAT_BEGIN
 90
        0
 91
        1
 62
     0
 92
       -2
340
14
 93
        0
 40
0.045
309
GRIDFORMAT_END
 95
        4
302
GRIDFORMAT
  1
GRIDFORMAT_BEGIN
 90
        0
 91
        1
 62
     0
 92
       -2
340
14
 93
        0
 40
0.045
309
GRIDFORMAT_END
 95
        8
302
GRIDFORMAT
  1
GRIDFORMAT_BEGIN
 90
        0
 91
        1
 62
     0
 92
       -2
340
14
 93
        0
 40
0.045
309
GRIDFORMAT_END
 95
       16
302
GRIDFORMAT
  1
GRIDFORMAT_BEGIN
 90
        0
 91
        1
 62
     0
 92
       -2
340
14
 93
        0
 40
0.045
309
GRIDFORMAT_END
 95
       32
302
GRIDFORMAT
  1
GRIDFORMAT_BEGIN
 90
        0
 91
        1
 62
     0
 92
       -2
340
14
 93
        0
 40
0.045
309
GRIDFORMAT_END
309
TABLEFORMAT_END
  1
CELLSTYLE_BEGIN
 90
        2
 91
        1
300
_HEADER
309
CELLSTYLE_END
300
CELLSTYLE
  1
TABLEFORMAT_BEGIN
 90
        5
170
     1
 91
        0
 92
        0
 62
   257
 93
        1
300
CONTENTFORMAT
  1
CONTENTFORMAT_BEGIN
 90
        0
 91
        0
 92
        4
 93
        0
300

 40
0.0
140
1.0
 94
        2
 62
     0
340
11
144
4.5
309
CONTENTFORMAT_END
171
     1
301
MARGIN
  1
CELLMARGIN_BEGIN
 40
1.5
 40
1.5
 40
1.5
 40
1.5
 40
1.5
 40
1.5
309
CELLMARGIN_END
 94
        6
 95
        1
302
GRIDFORMAT
  1
GRIDFORMAT_BEGIN
 90
        0
 91
        1
 62
     0
 92
       -2
340
14
 93
        0
 40
0.045
309
GRIDFORMAT_END
 95
        2
302
GRIDFORMAT
  1
GRIDFORMAT_BEGIN
 90
        0
 91
        1
 62
     0
 92
       -2
340
14
 93
        0
 40
0.045
309
GRIDFORMAT_END
 95
        4
302
GRIDFORMAT
  1
GRIDFORMAT_BEGIN
 90
        0
 91
        1
 62
     0
 92
       -2
340
14
 93
        0
 40
0.045
309
GRIDFORMAT_END
 95
        8
302
GRIDFORMAT
  1
GRIDFORMAT_BEGIN
 90
        0
 91
        1
 62
     0
 92
       -2
340
14
 93
        0
 40
0.045
309
GRIDFORMAT_END
 95
       16
302
GRIDFORMAT
  1
GRIDFORMAT_BEGIN
 90
        0
 91
        1
 62
     0
 92
       -2
340
14
 93
        0
 40
0.045
309
GRIDFORMAT_END
 95
       32
302
GRIDFORMAT
  1
GRIDFORMAT_BEGIN
 90
        0
 91
        1
 62
     0
 92
       -2
340
14
 93
        0
 40
0.045
309
GRIDFORMAT_END
309
TABLEFORMAT_END
  1
CELLSTYLE_BEGIN
 90
        3
 91
        2
300
_DATA
309
CELLSTYLE_END
  0
ENDSEC
  0
EOF
