  0
SECTION
  2
HEADER
  9
$ACADVER
  1
AC1027
  9
$ACADMAINTVER
 70
   105
  9
$DWGCODEPAGE
  3
ANSI_1252
  9
$REQUIREDVERSIONS
160
                 0
  9
$INSBASE
 10
0.0
 20
0.0
 30
0.0
  9
$EXTMIN
 10
1421.567125741473
 20
-3171.046099581818
 30
0.0
  9
$EXTMAX
 10
1815.567125741476
 20
-2629.046099581818
 30
0.0
  9
$LIMMIN
 10
0.0
 20
0.0
  9
$LIMMAX
 10
12.0
 20
9.0
  9
$ORTHOMODE
 70
     0
  9
$REGENMODE
 70
     1
  9
$FILLMODE
 70
     1
  9
$QTEXTMODE
 70
     0
  9
$MIRRTEXT
 70
     1
  9
$LTSCALE
 40
2.0
  9
$ATTMODE
 70
     1
  9
$TEXTSIZE
 40
0.2
  9
$TRACEWID
 40
0.05
  9
$TEXTSTYLE
  7
Standard
  9
$CLAYER
  8
0
  9
$CELTYPE
  6
ByLayer
  9
$CECOLOR
 62
   256
  9
$CELTSCALE
 40
1.0
  9
$DISPSILH
 70
     0
  9
$DIMSCALE
 40
1.0
  9
$DIMASZ
 40
0.18
  9
$DIMEXO
 40
0.0625
  9
$DIMDLI
 40
0.38
  9
$DIMRND
 40
0.0
  9
$DIMDLE
 40
0.0
  9
$DIMEXE
 40
0.18
  9
$DIMTP
 40
0.0
  9
$DIMTM
 40
0.0
  9
$DIMTXT
 40
0.18
  9
$DIMCEN
 40
0.09
  9
$DIMTSZ
 40
0.0
  9
$DIMTOL
 70
     0
  9
$DIMLIM
 70
     0
  9
$DIMTIH
 70
     1
  9
$DIMTOH
 70
     1
  9
$DIMSE1
 70
     0
  9
$DIMSE2
 70
     0
  9
$DIMTAD
 70
     0
  9
$DIMZIN
 70
     0
  9
$DIMBLK
  1

  9
$DIMASO
 70
     1
  9
$DIMSHO
 70
     1
  9
$DIMPOST
  1

  9
$DIMAPOST
  1

  9
$DIMALT
 70
     0
  9
$DIMALTD
 70
     2
  9
$DIMALTF
 40
25.4
  9
$DIMLFAC
 40
1.0
  9
$DIMTOFL
 70
     1
  9
$DIMTVP
 40
0.0
  9
$DIMTIX
 70
     0
  9
$DIMSOXD
 70
     1
  9
$DIMSAH
 70
     0
  9
$DIMBLK1
  1

  9
$DIMBLK2
  1

  9
$DIMSTYLE
  2
Standard
  9
$DIMCLRD
 70
     0
  9
$DIMCLRE
 70
     0
  9
$DIMCLRT
 70
     0
  9
$DIMTFAC
 40
1.0
  9
$DIMGAP
 40
0.09
  9
$DIMJUST
 70
     0
  9
$DIMSD1
 70
     0
  9
$DIMSD2
 70
     0
  9
$DIMTOLJ
 70
     1
  9
$DIMTZIN
 70
     0
  9
$DIMALTZ
 70
     0
  9
$DIMALTTZ
 70
     0
  9
$DIMUPT
 70
     0
  9
$DIMDEC
 70
     4
  9
$DIMTDEC
 70
     4
  9
$DIMALTU
 70
     2
  9
$DIMALTTD
 70
     2
  9
$DIMTXSTY
  7
Standard
  9
$DIMAUNIT
 70
     0
  9
$DIMADEC
 70
     0
  9
$DIMALTRND
 40
0.0
  9
$DIMAZIN
 70
     0
  9
$DIMDSEP
 70
    46
  9
$DIMATFIT
 70
     3
  9
$DIMFRAC
 70
     0
  9
$DIMLDRBLK
  1

  9
$DIMLUNIT
 70
     2
  9
$DIMLWD
 70
    -2
  9
$DIMLWE
 70
    -2
  9
$DIMTMOVE
 70
     2
  9
$DIMFXL
 40
1.0
  9
$DIMFXLON
 70
     0
  9
$DIMJOGANG
 40
0.7853981633974483
  9
$DIMTFILL
 70
     0
  9
$DIMTFILLCLR
 70
     0
  9
$DIMARCSYM
 70
     0
  9
$DIMLTYPE
  6

  9
$DIMLTEX1
  6

  9
$DIMLTEX2
  6

  9
$DIMTXTDIRECTION
 70
     0
  9
$LUNITS
 70
     2
  9
$LUPREC
 70
     4
  9
$SKETCHINC
 40
0.1
  9
$FILLETRAD
 40
0.5
  9
$AUNITS
 70
     0
  9
$AUPREC
 70
     0
  9
$MENU
  1
.
  9
$ELEVATION
 40
0.0
  9
$PELEVATION
 40
0.0
  9
$THICKNESS
 40
0.0
  9
$LIMCHECK
 70
     0
  9
$CHAMFERA
 40
0.0
  9
$CHAMFERB
 40
0.0
  9
$CHAMFERC
 40
0.0
  9
$CHAMFERD
 40
0.0
  9
$SKPOLY
 70
     0
  9
$TDCREATE
 40
2459196.850167952
  9
$TDUCREATE
 40
2459196.808501285
  9
$TDUPDATE
 40
2459196.850170579
  9
$TDUUPDATE
 40
2459196.808503912
  9
$TDINDWG
 40
0.0000000116
  9
$TDUSRTIMER
 40
0.0000000116
  9
$USRTIMER
 70
     1
  9
$ANGBASE
 50
0.0
  9
$ANGDIR
 70
     0
  9
$PDMODE
 70
     0
  9
$PDSIZE
 40
0.0
  9
$PLINEWID
 40
0.0
  9
$SPLFRAME
 70
     0
  9
$SPLINETYPE
 70
     6
  9
$SPLINESEGS
 70
     8
  9
$HANDSEED
  5
412
  9
$SURFTAB1
 70
     6
  9
$SURFTAB2
 70
     6
  9
$SURFTYPE
 70
     6
  9
$SURFU
 70
     6
  9
$SURFV
 70
     6
  9
$UCSBASE
  2

  9
$UCSNAME
  2

  9
$UCSORG
 10
0.0
 20
0.0
 30
0.0
  9
$UCSXDIR
 10
1.0
 20
0.0
 30
0.0
  9
$UCSYDIR
 10
0.0
 20
1.0
 30
0.0
  9
$UCSORTHOREF
  2

  9
$UCSORTHOVIEW
 70
     0
  9
$UCSORGTOP
 10
0.0
 20
0.0
 30
0.0
  9
$UCSORGBOTTOM
 10
0.0
 20
0.0
 30
0.0
  9
$UCSORGLEFT
 10
0.0
 20
0.0
 30
0.0
  9
$UCSORGRIGHT
 10
0.0
 20
0.0
 30
0.0
  9
$UCSORGFRONT
 10
0.0
 20
0.0
 30
0.0
  9
$UCSORGBACK
 10
0.0
 20
0.0
 30
0.0
  9
$PUCSBASE
  2

  9
$PUCSNAME
  2

  9
$PUCSORG
 10
0.0
 20
0.0
 30
0.0
  9
$PUCSXDIR
 10
1.0
 20
0.0
 30
0.0
  9
$PUCSYDIR
 10
0.0
 20
1.0
 30
0.0
  9
$PUCSORTHOREF
  2

  9
$PUCSORTHOVIEW
 70
     0
  9
$PUCSORGTOP
 10
0.0
 20
0.0
 30
0.0
  9
$PUCSORGBOTTOM
 10
0.0
 20
0.0
 30
0.0
  9
$PUCSORGLEFT
 10
0.0
 20
0.0
 30
0.0
  9
$PUCSORGRIGHT
 10
0.0
 20
0.0
 30
0.0
  9
$PUCSORGFRONT
 10
0.0
 20
0.0
 30
0.0
  9
$PUCSORGBACK
 10
0.0
 20
0.0
 30
0.0
  9
$USERI1
 70
     0
  9
$USERI2
 70
     0
  9
$USERI3
 70
     0
  9
$USERI4
 70
     0
  9
$USERI5
 70
     0
  9
$USERR1
 40
0.0
  9
$USERR2
 40
0.0
  9
$USERR3
 40
0.0
  9
$USERR4
 40
0.0
  9
$USERR5
 40
0.0
  9
$WORLDVIEW
 70
     1
  9
$SHADEDGE
 70
     3
  9
$SHADEDIF
 70
    70
  9
$TILEMODE
 70
     1
  9
$MAXACTVP
 70
    64
  9
$PINSBASE
 10
0.0
 20
0.0
 30
0.0
  9
$PLIMCHECK
 70
     0
  9
$PEXTMIN
 10
0.0
 20
0.0
 30
0.0
  9
$PEXTMAX
 10
197.5999999999998
 20
271.6
 30
0.0
  9
$PLIMMIN
 10
-20.0
 20
-7.5
  9
$PLIMMAX
 10
277.0
 20
202.5
  9
$UNITMODE
 70
     0
  9
$VISRETAIN
 70
     1
  9
$PLINEGEN
 70
     0
  9
$PSLTSCALE
 70
     0
  9
$TREEDEPTH
 70
  3020
  9
$CMLSTYLE
  2
Standard
  9
$CMLJUST
 70
     0
  9
$CMLSCALE
 40
1.0
  9
$PROXYGRAPHICS
 70
     1
  9
$MEASUREMENT
 70
     1
  9
$CELWEIGHT
370
    -1
  9
$ENDCAPS
280
     0
  9
$JOINSTYLE
280
     0
  9
$LWDISPLAY
290
     0
  9
$INSUNITS
 70
     4
  9
$HYPERLINKBASE
  1

  9
$STYLESHEET
  1

  9
$XEDIT
290
     1
  9
$CEPSNTYPE
380
     0
  9
$PSTYLEMODE
290
     0
  9
$FINGERPRINTGUID
  2
{DFB42C66-C113-4067-A498-DF40403DB304}
  9
$VERSIONGUID
  2
{FAEB1C32-E019-11D5-929B-00C0DF256EC4}
  9
$EXTNAMES
290
     1
  9
$PSVPSCALE
 40
0.0
  9
$OLESTARTUP
290
     0
  9
$SORTENTS
280
   127
  9
$INDEXCTL
280
     0
  9
$HIDETEXT
280
     1
  9
$XCLIPFRAME
280
     2
  9
$HALOGAP
280
     0
  9
$OBSCOLOR
 70
   257
  9
$OBSLTYPE
280
     0
  9
$INTERSECTIONDISPLAY
280
     0
  9
$INTERSECTIONCOLOR
 70
   257
  9
$DIMASSOC
280
     2
  9
$PROJECTNAME
  1

  9
$CAMERADISPLAY
290
     0
  9
$LENSLENGTH
 40
50.0
  9
$CAMERAHEIGHT
 40
0.0
  9
$STEPSPERSEC
 40
2.0
  9
$STEPSIZE
 40
6.0
  9
$3DDWFPREC
 40
2.0
  9
$PSOLWIDTH
 40
0.25
  9
$PSOLHEIGHT
 40
4.0
  9
$LOFTANG1
 40
1.570796326794897
  9
$LOFTANG2
 40
1.570796326794897
  9
$LOFTMAG1
 40
0.0
  9
$LOFTMAG2
 40
0.0
  9
$LOFTPARAM
 70
     7
  9
$LOFTNORMALS
280
     1
  9
$LATITUDE
 40
37.795
  9
$LONGITUDE
 40
-122.394
  9
$NORTHDIRECTION
 40
0.0
  9
$TIMEZONE
 70
 -8000
  9
$LIGHTGLYPHDISPLAY
280
     1
  9
$TILEMODELIGHTSYNCH
280
     1
  9
$CMATERIAL
347
44
  9
$SOLIDHIST
280
     0
  9
$SHOWHIST
280
     1
  9
$DWFFRAME
280
     2
  9
$DGNFRAME
280
     2
  9
$REALWORLDSCALE
290
     1
  9
$INTERFERECOLOR
 62
   256
  9
$CSHADOW
280
     0
  9
$SHADOWPLANELOCATION
 40
0.0
  0
ENDSEC
  0
SECTION
  2
CLASSES
  0
CLASS
  1
ACDBDICTIONARYWDFLT
  2
AcDbDictionaryWithDefault
  3
ObjectDBX Classes
 90
        0
 91
        3
280
     0
281
     0
  0
CLASS
  1
VISUALSTYLE
  2
AcDbVisualStyle
  3
ObjectDBX Classes
 90
     4095
 91
        3
280
     0
281
     0
  0
CLASS
  1
MATERIAL
  2
AcDbMaterial
  3
ObjectDBX Classes
 90
     1153
 91
        3
280
     0
281
     0
  0
CLASS
  1
SCALE
  2
AcDbScale
  3
ObjectDBX Classes
 90
     1153
 91
        3
280
     0
281
     0
  0
CLASS
  1
TABLESTYLE
  2
AcDbTableStyle
  3
ObjectDBX Classes
 90
     4095
 91
        3
280
     0
281
     0
  0
CLASS
  1
MLEADERSTYLE
  2
AcDbMLeaderStyle
  3
ACDB_MLEADERSTYLE_CLASS
 90
     4095
 91
        3
280
     0
281
     0
  0
CLASS
  1
SUN
  2
AcDbSun
  3
SCENEOE
 90
     1153
 91
        3
280
     0
281
     0
  0
CLASS
  1
RASTERVARIABLES
  2
AcDbRasterVariables
  3
ISM
 90
        0
 91
        3
280
     0
281
     0
  0
CLASS
  1
PLOTSETTINGS
  2
AcDbPlotSettings
  3
ObjectDBX Classes
 90
        0
 91
        3
280
     0
281
     0
  0
CLASS
  1
IMAGEDEF
  2
AcDbRasterImageDef
  3
ISM
 90
        0
 91
        3
280
     0
281
     0
  0
CLASS
  1
IMAGE
  2
AcDbRasterImage
  3
ISM
 90
      127
 91
        4
280
     0
281
     1
  0
CLASS
  1
IMAGEDEF_REACTOR
  2
AcDbRasterImageDefReactor
  3
ISM
 90
        1
 91
        3
280
     0
281
     0
  0
CLASS
  1
WIPEOUT
  2
AcDbWipeout
  3
WipeOut|AutoCAD Express Tool|expresstools@autodesk.com
 90
      127
 91
        3
280
     0
281
     1
  0
CLASS
  1
DICTIONARYVAR
  2
AcDbDictionaryVar
  3
ObjectDBX Classes
 90
        0
 91
        3
280
     0
281
     0
  0
CLASS
  1
CELLSTYLEMAP
  2
AcDbCellStyleMap
  3
ObjectDBX Classes
 90
     1152
 91
        3
280
     0
281
     0
  0
ENDSEC
  0
SECTION
  2
TABLES
  0
TABLE
  2
VPORT
  5
8
330
0
100
AcDbSymbolTable
 70
     1
  0
VPORT
  5
29
330
8
100
AcDbSymbolTableRecord
100
AcDbViewportTableRecord
  2
*Active
 70
     0
 10
0.0
 20
0.0
 11
1.0
 21
1.0
 12
10.42990654205607
 22
4.5
 13
0.0
 23
0.0
 14
0.5
 24
0.5
 15
0.5
 25
0.5
 16
0.0
 26
0.0
 36
1.0
 17
0.0
 27
0.0
 37
0.0
 40
9.0
 41
1.972972972850329
 42
50.0
 43
0.0
 44
0.0
 50
0.0
 51
0.0
 71
     0
 72
   100
 73
     1
 74
     3
 75
     0
 76
     0
 77
     0
 78
     0
281
     0
 65
     1
110
0.0
120
0.0
130
0.0
111
1.0
121
0.0
131
0.0
112
0.0
122
1.0
132
0.0
 79
     0
146
0.0
348
2F
 60
     3
 61
     5
292
     1
282
     1
141
0.0
142
0.0
 63
   250
361
6D
  0
ENDTAB
  0
TABLE
  2
LTYPE
  5
5
330
0
100
AcDbSymbolTable
 70
     2
  0
LTYPE
  5
14
330
5
100
AcDbSymbolTableRecord
100
AcDbLinetypeTableRecord
  2
ByBlock
 70
     0
  3

 72
    65
 73
     0
 40
0.0
  0
LTYPE
  5
15
330
5
100
AcDbSymbolTableRecord
100
AcDbLinetypeTableRecord
  2
ByLayer
 70
     0
  3

 72
    65
 73
     0
 40
0.0
  0
LTYPE
  5
16
330
5
100
AcDbSymbolTableRecord
100
AcDbLinetypeTableRecord
  2
Continuous
 70
     0
  3
Solid line
 72
    65
 73
     0
 40
0.0
  0
LTYPE
  5
182
330
5
100
AcDbSymbolTableRecord
100
AcDbLinetypeTableRecord
  2
CADWORK_3
 70
     0
  3

 72
    65
 73
     2
 40
4.0
 49
2.0
 74
     0
 49
-2.0
 74
     0
  0
ENDTAB
  0
TABLE
  2
LAYER
  5
2
330
0
100
AcDbSymbolTable
 70
    18
  0
LAYER
  5
10
330
2
100
AcDbSymbolTableRecord
100
AcDbLayerTableRecord
  2
0
 70
     0
 62
     7
  6
Continuous
370
    -3
390
F
347
46
348
0
  0
LAYER
  5
70
330
2
100
AcDbSymbolTableRecord
100
AcDbLayerTableRecord
  2
Standard
 70
     0
 62
     7
  6
Continuous
370
    -3
390
F
347
46
348
0
  0
LAYER
  5
71
330
2
100
AcDbSymbolTableRecord
100
AcDbLayerTableRecord
  2
Ech.1_1
 70
     0
 62
     7
  6
Continuous
370
    -3
390
F
347
46
348
0
  0
LAYER
  5
72
330
2
100
AcDbSymbolTableRecord
100
AcDbLayerTableRecord
  2
Ech.1_2
 70
     0
 62
     7
  6
Continuous
370
    -3
390
F
347
46
348
0
  0
LAYER
  5
73
330
2
100
AcDbSymbolTableRecord
100
AcDbLayerTableRecord
  2
Ech.1_5
 70
     0
 62
     7
  6
Continuous
370
    -3
390
F
347
46
348
0
  0
LAYER
  5
74
330
2
100
AcDbSymbolTableRecord
100
AcDbLayerTableRecord
  2
Ech.1_10
 70
     0
 62
     7
  6
Continuous
370
    -3
390
F
347
46
348
0
  0
LAYER
  5
75
330
2
100
AcDbSymbolTableRecord
100
AcDbLayerTableRecord
  2
Ech.1_20
 70
     0
 62
     7
  6
Continuous
370
    -3
390
F
347
46
348
0
  0
LAYER
  5
76
330
2
100
AcDbSymbolTableRecord
100
AcDbLayerTableRecord
  2
Ech.1_25
 70
     0
 62
     7
  6
Continuous
370
    -3
390
F
347
46
348
0
  0
LAYER
  5
77
330
2
100
AcDbSymbolTableRecord
100
AcDbLayerTableRecord
  2
Ech.1_33
 70
     0
 62
     7
  6
Continuous
370
    -3
390
F
347
46
348
0
  0
LAYER
  5
78
330
2
100
AcDbSymbolTableRecord
100
AcDbLayerTableRecord
  2
Ech.1_50
 70
     0
 62
     7
  6
Continuous
370
    -3
390
F
347
46
348
0
  0
LAYER
  5
79
330
2
100
AcDbSymbolTableRecord
100
AcDbLayerTableRecord
  2
Ech.1_75
 70
     0
 62
     7
  6
Continuous
370
    -3
390
F
347
46
348
0
  0
LAYER
  5
7A
330
2
100
AcDbSymbolTableRecord
100
AcDbLayerTableRecord
  2
Ech.1_100
 70
     0
 62
     7
  6
Continuous
370
    -3
390
F
347
46
348
0
  0
LAYER
  5
7B
330
2
100
AcDbSymbolTableRecord
100
AcDbLayerTableRecord
  2
Ech.1_200
 70
     0
 62
     7
  6
Continuous
370
    -3
390
F
347
46
348
0
  0
LAYER
  5
7C
330
2
100
AcDbSymbolTableRecord
100
AcDbLayerTableRecord
  2
Ech.1_500
 70
     0
 62
     7
  6
Continuous
370
    -3
390
F
347
46
348
0
  0
LAYER
  5
7D
330
2
100
AcDbSymbolTableRecord
100
AcDbLayerTableRecord
  2
Ech.1_1000
 70
     0
 62
     7
  6
Continuous
370
    -3
390
F
347
46
348
0
  0
LAYER
  5
7E
330
2
100
AcDbSymbolTableRecord
100
AcDbLayerTableRecord
  2
Cadres traceur
 70
     0
 62
     7
  6
Continuous
370
    -3
390
F
347
46
348
0
  0
LAYER
  5
7F
330
2
100
AcDbSymbolTableRecord
100
AcDbLayerTableRecord
  2
Cadres laser
 70
     0
 62
     7
  6
Continuous
370
    -3
390
F
347
46
348
0
  0
LAYER
  5
80
330
2
100
AcDbSymbolTableRecord
100
AcDbLayerTableRecord
  2
Légende d_aide
 70
     0
 62
     7
  6
Continuous
370
    -3
390
F
347
46
348
0
  0
ENDTAB
  0
TABLE
  2
STYLE
  5
3
330
0
100
AcDbSymbolTable
 70
     9
  0
STYLE
  5
11
330
3
100
AcDbSymbolTableRecord
100
AcDbTextStyleTableRecord
  2
Standard
 70
     0
 40
0.0
 41
1.0
 50
0.0
 71
     0
 42
0.2
  3
txt
  4

  0
STYLE
  5
81
330
3
100
AcDbSymbolTableRecord
100
AcDbTextStyleTableRecord
  2
CwStyleShx
 70
     0
 40
1.0
 41
1.0
 50
0.0
 71
     0
 42
0.2
  3

  4

  0
STYLE
  5
82
330
3
100
AcDbSymbolTableRecord
100
AcDbTextStyleTableRecord
  2
CwStyleShx16
 70
     0
 40
1.0
 41
1.0
 50
0.0
 71
     0
 42
0.2
  3

  4

  0
STYLE
  5
83
330
3
100
AcDbSymbolTableRecord
100
AcDbTextStyleTableRecord
  2
MONOTXT
 70
     0
 40
0.0
 41
1.0
 50
0.0
 71
     0
 42
0.2
  3
MONOTXT
  4

  0
STYLE
  5
84
330
3
100
AcDbSymbolTableRecord
100
AcDbTextStyleTableRecord
  2
SYMAP
 70
     0
 40
1.0
 41
1.0
 50
0.0
 71
     0
 42
0.2
  3
SYMAP
  4

  0
STYLE
  5
85
330
3
100
AcDbSymbolTableRecord
100
AcDbTextStyleTableRecord
  2
CwStyleTtf
 70
     0
 40
1.0
 41
1.0
 50
0.0
 71
     0
 42
0.2
  3
arial.ttf
  4

  0
STYLE
  5
3E9
330
3
100
AcDbSymbolTableRecord
100
AcDbTextStyleTableRecord
  2
arial-
 70
     0
 40
1.0
 41
1.0
 50
0.0
 71
     0
 42
0.2
  3
arial.ttf
  4

1001
ACAD
1000
Arial
1071
        0
  0
STYLE
  5
3EC
330
3
100
AcDbSymbolTableRecord
100
AcDbTextStyleTableRecord
  2
arial-b
 70
     0
 40
1.0
 41
1.0
 50
0.0
 71
     0
 42
0.2
  3
arialbd.ttf
  4

1001
ACAD
1000
Arial
1071
 33554432
  0
STYLE
  5
3EE
330
3
100
AcDbSymbolTableRecord
100
AcDbTextStyleTableRecord
  2
tahoma-b
 70
     0
 40
1.0
 41
1.0
 50
0.0
 71
     0
 42
0.2
  3
tahomabd.ttf
  4

1001
ACAD
1000
Tahoma
1071
 33554432
  0
ENDTAB
  0
TABLE
  2
VIEW
  5
6
330
0
100
AcDbSymbolTable
 70
     0
  0
ENDTAB
  0
TABLE
  2
UCS
  5
7
330
0
100
AcDbSymbolTable
 70
     0
  0
ENDTAB
  0
TABLE
  2
APPID
  5
9
330
0
100
AcDbSymbolTable
 70
     3
  0
APPID
  5
12
330
9
100
AcDbSymbolTableRecord
100
AcDbRegAppTableRecord
  2
ACAD
 70
     0
  0
APPID
  5
6E
330
9
100
AcDbSymbolTableRecord
100
AcDbRegAppTableRecord
  2
Cadwork
 70
     0
  0
APPID
  5
232
330
9
100
AcDbSymbolTableRecord
100
AcDbRegAppTableRecord
  2
PLOTTRANSPARENCY
 70
     0
  0
ENDTAB
  0
TABLE
  2
DIMSTYLE
  5
A
330
0
100
AcDbSymbolTable
 70
     1
100
AcDbDimStyleTable
  0
DIMSTYLE
105
27
330
A
100
AcDbSymbolTableRecord
100
AcDbDimStyleTableRecord
  2
Standard
 70
     0
178
     0
340
11
  0
ENDTAB
  0
TABLE
  2
BLOCK_RECORD
  5
1
330
0
100
AcDbSymbolTable
 70
    69
  0
BLOCK_RECORD
  5
1F
330
1
100
AcDbSymbolTableRecord
100
AcDbBlockTableRecord
  2
*Model_Space
340
22
 70
     0
280
     1
281
     0
  0
BLOCK_RECORD
  5
22D
330
1
100
AcDbSymbolTableRecord
100
AcDbBlockTableRecord
  2
*Paper_Space
340
22E
 70
     0
280
     1
281
     0
  0
BLOCK_RECORD
  5
86
330
1
100
AcDbSymbolTableRecord
100
AcDbBlockTableRecord
  2
CDWK_PTTYP1
340
0
 70
     0
280
     1
281
     1
  0
BLOCK_RECORD
  5
8D
330
1
100
AcDbSymbolTableRecord
100
AcDbBlockTableRecord
  2
CDWK_PTTYP2
340
0
 70
     0
280
     1
281
     1
  0
BLOCK_RECORD
  5
92
330
1
100
AcDbSymbolTableRecord
100
AcDbBlockTableRecord
  2
CDWK_PTTYP4
340
0
 70
     0
280
     1
281
     1
  0
BLOCK_RECORD
  5
96
330
1
100
AcDbSymbolTableRecord
100
AcDbBlockTableRecord
  2
CDWK_PTTYP5
340
0
 70
     0
280
     1
281
     1
  0
BLOCK_RECORD
  5
9F
330
1
100
AcDbSymbolTableRecord
100
AcDbBlockTableRecord
  2
CDWK_PTTYP6
340
0
 70
     0
280
     1
281
     1
  0
BLOCK_RECORD
  5
A7
330
1
100
AcDbSymbolTableRecord
100
AcDbBlockTableRecord
  2
CDWK_PTTYP7
340
0
 70
     0
280
     1
281
     1
  0
BLOCK_RECORD
  5
B0
330
1
100
AcDbSymbolTableRecord
100
AcDbBlockTableRecord
  2
CDWK_PTTYP8
340
0
 70
     0
280
     1
281
     1
  0
BLOCK_RECORD
  5
B4
330
1
100
AcDbSymbolTableRecord
100
AcDbBlockTableRecord
  2
CDWK_PTTYP9
340
0
 70
     0
280
     1
281
     1
  0
BLOCK_RECORD
  5
B9
330
1
100
AcDbSymbolTableRecord
100
AcDbBlockTableRecord
  2
CDWK_PTTYP10
340
0
 70
     0
280
     1
281
     1
  0
BLOCK_RECORD
  5
BD
330
1
100
AcDbSymbolTableRecord
100
AcDbBlockTableRecord
  2
CDWK_PTTYP11
340
0
 70
     0
280
     1
281
     1
  0
BLOCK_RECORD
  5
C2
330
1
100
AcDbSymbolTableRecord
100
AcDbBlockTableRecord
  2
CDWK_PTTYP12
340
0
 70
     0
280
     1
281
     1
  0
BLOCK_RECORD
  5
C7
330
1
100
AcDbSymbolTableRecord
100
AcDbBlockTableRecord
  2
CDWK_PTTYP13
340
0
 70
     0
280
     1
281
     1
  0
BLOCK_RECORD
  5
CD
330
1
100
AcDbSymbolTableRecord
100
AcDbBlockTableRecord
  2
CDWK_PTTYP16
340
0
 70
     0
280
     1
281
     1
  0
BLOCK_RECORD
  5
D4
330
1
100
AcDbSymbolTableRecord
100
AcDbBlockTableRecord
  2
CDWK_PTTYP17
340
0
 70
     0
280
     1
281
     1
  0
BLOCK_RECORD
  5
D9
330
1
100
AcDbSymbolTableRecord
100
AcDbBlockTableRecord
  2
CDWK_PTTYP18
340
0
 70
     0
280
     1
281
     1
  0
BLOCK_RECORD
  5
DE
330
1
100
AcDbSymbolTableRecord
100
AcDbBlockTableRecord
  2
CDWK_PTTYP19
340
0
 70
     0
280
     1
281
     1
  0
BLOCK_RECORD
  5
E4
330
1
100
AcDbSymbolTableRecord
100
AcDbBlockTableRecord
  2
CDWK_PTTYP20
340
0
 70
     0
280
     1
281
     1
  0
BLOCK_RECORD
  5
E9
330
1
100
AcDbSymbolTableRecord
100
AcDbBlockTableRecord
  2
CDWK_PTTYP21
340
0
 70
     0
280
     1
281
     1
  0
BLOCK_RECORD
  5
EE
330
1
100
AcDbSymbolTableRecord
100
AcDbBlockTableRecord
  2
CDWK_PTTYP25
340
0
 70
     0
280
     1
281
     1
  0
BLOCK_RECORD
  5
F5
330
1
100
AcDbSymbolTableRecord
100
AcDbBlockTableRecord
  2
CDWK_PTTYP26
340
0
 70
     0
280
     1
281
     1
  0
BLOCK_RECORD
  5
FC
330
1
100
AcDbSymbolTableRecord
100
AcDbBlockTableRecord
  2
CDWK_PTTYP27
340
0
 70
     0
280
     1
281
     1
  0
BLOCK_RECORD
  5
104
330
1
100
AcDbSymbolTableRecord
100
AcDbBlockTableRecord
  2
CDWK_PTTYP28
340
0
 70
     0
280
     1
281
     1
  0
BLOCK_RECORD
  5
10B
330
1
100
AcDbSymbolTableRecord
100
AcDbBlockTableRecord
  2
CDWK_PTTYP29
340
0
 70
     0
280
     1
281
     1
  0
BLOCK_RECORD
  5
111
330
1
100
AcDbSymbolTableRecord
100
AcDbBlockTableRecord
  2
CDWK_PTTYP30
340
0
 70
     0
280
     1
281
     1
  0
BLOCK_RECORD
  5
118
330
1
100
AcDbSymbolTableRecord
100
AcDbBlockTableRecord
  2
CDWK_PTTYP31
340
0
 70
     0
280
     1
281
     1
  0
BLOCK_RECORD
  5
120
330
1
100
AcDbSymbolTableRecord
100
AcDbBlockTableRecord
  2
CDWK_PTTYP32
340
0
 70
     0
280
     1
281
     1
  0
BLOCK_RECORD
  5
129
330
1
100
AcDbSymbolTableRecord
100
AcDbBlockTableRecord
  2
CDWK_PTTYP33
340
0
 70
     0
280
     1
281
     1
  0
BLOCK_RECORD
  5
12F
330
1
100
AcDbSymbolTableRecord
100
AcDbBlockTableRecord
  2
CDWK_PTTYP34
340
0
 70
     0
280
     1
281
     1
  0
BLOCK_RECORD
  5
135
330
1
100
AcDbSymbolTableRecord
100
AcDbBlockTableRecord
  2
CDWK_PTTYP35
340
0
 70
     0
280
     1
281
     1
  0
BLOCK_RECORD
  5
13B
330
1
100
AcDbSymbolTableRecord
100
AcDbBlockTableRecord
  2
CDWK_PTTYP36
340
0
 70
     0
280
     1
281
     1
  0
BLOCK_RECORD
  5
143
330
1
100
AcDbSymbolTableRecord
100
AcDbBlockTableRecord
  2
CDWK_PTTYP37
340
0
 70
     0
280
     1
281
     1
  0
BLOCK_RECORD
  5
148
330
1
100
AcDbSymbolTableRecord
100
AcDbBlockTableRecord
  2
CDWK_PTTYP38
340
0
 70
     0
280
     1
281
     1
  0
BLOCK_RECORD
  5
14E
330
1
100
AcDbSymbolTableRecord
100
AcDbBlockTableRecord
  2
CDWK_PTTYP41
340
0
 70
     0
280
     1
281
     1
  0
BLOCK_RECORD
  5
158
330
1
100
AcDbSymbolTableRecord
100
AcDbBlockTableRecord
  2
CDWK_PTTYP42
340
0
 70
     0
280
     1
281
     1
  0
BLOCK_RECORD
  5
161
330
1
100
AcDbSymbolTableRecord
100
AcDbBlockTableRecord
  2
CDWK_PTTYP43
340
0
 70
     0
280
     1
281
     1
  0
BLOCK_RECORD
  5
167
330
1
100
AcDbSymbolTableRecord
100
AcDbBlockTableRecord
  2
CDWK_PTTYP44
340
0
 70
     0
280
     1
281
     1
  0
BLOCK_RECORD
  5
170
330
1
100
AcDbSymbolTableRecord
100
AcDbBlockTableRecord
  2
CDWK_PTTYP45
340
0
 70
     0
280
     1
281
     1
  0
BLOCK_RECORD
  5
175
330
1
100
AcDbSymbolTableRecord
100
AcDbBlockTableRecord
  2
CDWK_PTTYP46
340
0
 70
     0
280
     1
281
     1
  0
BLOCK_RECORD
  5
17A
330
1
100
AcDbSymbolTableRecord
100
AcDbBlockTableRecord
  2
CDWK_PTTYP47
340
0
 70
     0
280
     1
281
     1
  0
BLOCK_RECORD
  5
183
330
1
100
AcDbSymbolTableRecord
100
AcDbBlockTableRecord
  2
CDWK_PTTYP48
340
0
 70
     0
280
     1
281
     1
  0
BLOCK_RECORD
  5
188
330
1
100
AcDbSymbolTableRecord
100
AcDbBlockTableRecord
  2
CDWK_PTTYP49
340
0
 70
     0
280
     1
281
     1
  0
BLOCK_RECORD
  5
18F
330
1
100
AcDbSymbolTableRecord
100
AcDbBlockTableRecord
  2
CDWK_PTTYP50
340
0
 70
     0
280
     1
281
     1
  0
BLOCK_RECORD
  5
199
330
1
100
AcDbSymbolTableRecord
100
AcDbBlockTableRecord
  2
CDWK_PTTYP51
340
0
 70
     0
280
     1
281
     1
  0
BLOCK_RECORD
  5
19E
330
1
100
AcDbSymbolTableRecord
100
AcDbBlockTableRecord
  2
CDWK_PTTYP52
340
0
 70
     0
280
     1
281
     1
  0
BLOCK_RECORD
  5
1A4
330
1
100
AcDbSymbolTableRecord
100
AcDbBlockTableRecord
  2
cw-dimension-symbol1
340
0
 70
     0
280
     1
281
     0
  0
BLOCK_RECORD
  5
1AB
330
1
100
AcDbSymbolTableRecord
100
AcDbBlockTableRecord
  2
cw-dimension-symbol2
340
0
 70
     0
280
     1
281
     0
  0
BLOCK_RECORD
  5
1B0
330
1
100
AcDbSymbolTableRecord
100
AcDbBlockTableRecord
  2
cw-dimension-symbol3
340
0
 70
     0
280
     1
281
     0
  0
BLOCK_RECORD
  5
1B5
330
1
100
AcDbSymbolTableRecord
100
AcDbBlockTableRecord
  2
cw-dimension-symbol5
340
0
 70
     0
280
     1
281
     0
  0
BLOCK_RECORD
  5
1BC
330
1
100
AcDbSymbolTableRecord
100
AcDbBlockTableRecord
  2
cw-dimension-symbol6
340
0
 70
     0
280
     1
281
     0
  0
BLOCK_RECORD
  5
1C2
330
1
100
AcDbSymbolTableRecord
100
AcDbBlockTableRecord
  2
cw-dimension-symbol11
340
0
 70
     0
280
     1
281
     0
  0
BLOCK_RECORD
  5
1C8
330
1
100
AcDbSymbolTableRecord
100
AcDbBlockTableRecord
  2
cw-dimension-symbol13
340
0
 70
     0
280
     1
281
     0
  0
BLOCK_RECORD
  5
1CE
330
1
100
AcDbSymbolTableRecord
100
AcDbBlockTableRecord
  2
cw-dimension-symbol15
340
0
 70
     0
280
     1
281
     0
  0
BLOCK_RECORD
  5
1D5
330
1
100
AcDbSymbolTableRecord
100
AcDbBlockTableRecord
  2
cw-dimension-symbol16
340
0
 70
     0
280
     1
281
     0
  0
BLOCK_RECORD
  5
1DC
330
1
100
AcDbSymbolTableRecord
100
AcDbBlockTableRecord
  2
cw-dimension-symbol17
340
0
 70
     0
280
     1
281
     0
  0
BLOCK_RECORD
  5
1E3
330
1
100
AcDbSymbolTableRecord
100
AcDbBlockTableRecord
  2
cw-dimension-symbol18
340
0
 70
     0
280
     1
281
     0
  0
BLOCK_RECORD
  5
1EA
330
1
100
AcDbSymbolTableRecord
100
AcDbBlockTableRecord
  2
cw-dimension-symbol19
340
0
 70
     0
280
     1
281
     0
  0
BLOCK_RECORD
  5
1ED
330
1
100
AcDbSymbolTableRecord
100
AcDbBlockTableRecord
  2
cw-dimension-symbol20
340
0
 70
     0
280
     1
281
     0
  0
BLOCK_RECORD
  5
1F4
330
1
100
AcDbSymbolTableRecord
100
AcDbBlockTableRecord
  2
cw-dimension-symbol21
340
0
 70
     0
280
     1
281
     0
  0
BLOCK_RECORD
  5
1FB
330
1
100
AcDbSymbolTableRecord
100
AcDbBlockTableRecord
  2
cw-line-extremity0
340
0
 70
     0
280
     1
281
     0
  0
BLOCK_RECORD
  5
1FF
330
1
100
AcDbSymbolTableRecord
100
AcDbBlockTableRecord
  2
cw-line-extremity2
340
0
 70
     0
280
     1
281
     0
  0
BLOCK_RECORD
  5
204
330
1
100
AcDbSymbolTableRecord
100
AcDbBlockTableRecord
  2
cw-line-extremity3
340
0
 70
     0
280
     1
281
     0
  0
BLOCK_RECORD
  5
209
330
1
100
AcDbSymbolTableRecord
100
AcDbBlockTableRecord
  2
cw-line-extremity301
340
0
 70
     0
280
     1
281
     0
  0
BLOCK_RECORD
  5
20B
330
1
100
AcDbSymbolTableRecord
100
AcDbBlockTableRecord
  2
cw-line-extremity4
340
0
102
{BLKREFS
331
269
331
26B
331
26D
331
27E
331
280
331
282
331
284
102
}
 70
     0
280
     1
281
     0
  0
BLOCK_RECORD
  5
20D
330
1
100
AcDbSymbolTableRecord
100
AcDbBlockTableRecord
  2
cw-line-extremity5
340
0
 70
     0
280
     1
281
     0
  0
BLOCK_RECORD
  5
20F
330
1
100
AcDbSymbolTableRecord
100
AcDbBlockTableRecord
  2
cw-line-extremity6
340
0
 70
     0
280
     1
281
     0
  0
BLOCK_RECORD
  5
211
330
1
100
AcDbSymbolTableRecord
100
AcDbBlockTableRecord
  2
cw-line-extremity9
340
0
 70
     0
280
     1
281
     0
  0
BLOCK_RECORD
  5
213
330
1
100
AcDbSymbolTableRecord
100
AcDbBlockTableRecord
  2
cw-line-extremity10
340
0
 70
     0
280
     1
281
     0
  0
BLOCK_RECORD
  5
215
330
1
100
AcDbSymbolTableRecord
100
AcDbBlockTableRecord
  2
cw-line-extremity1
340
0
 70
     0
280
     1
281
     0
  0
BLOCK_RECORD
  5
1B
330
1
100
AcDbSymbolTableRecord
100
AcDbBlockTableRecord
  2
*Paper_Space69
340
1E
 70
     0
280
     1
281
     0
  0
ENDTAB
  0
ENDSEC
  0
SECTION
  2
BLOCKS
  0
BLOCK
  5
20
330
1F
100
AcDbEntity
  8
0
100
AcDbBlockBegin
  2
*Model_Space
 70
     0
 10
0.0
 20
0.0
 30
0.0
  3
*Model_Space
  1

  0
ENDBLK
  5
21
330
1F
100
AcDbEntity
  8
0
100
AcDbBlockEnd
  0
BLOCK
  5
22F
330
22D
100
AcDbEntity
 67
     1
  8
0
100
AcDbBlockBegin
  2
*Paper_Space
 70
     0
 10
0.0
 20
0.0
 30
0.0
  3
*Paper_Space
  1

  0
ENDBLK
  5
230
330
22D
100
AcDbEntity
 67
     1
  8
0
100
AcDbBlockEnd
  0
BLOCK
  5
8B
330
86
100
AcDbEntity
  8
0
100
AcDbBlockBegin
  2
CDWK_PTTYP1
 70
     0
 10
0.0
 20
0.0
 30
0.0
  3
CDWK_PTTYP1
  1

  0
LINE
  5
87
330
86
100
AcDbEntity
  8
0
 62
     0
370
    -2
100
AcDbLine
 10
-0.5
 20
0.5
 30
0.0
 11
0.5
 21
0.5
 31
0.0
  0
LINE
  5
88
330
86
100
AcDbEntity
  8
0
 62
     0
370
    -2
100
AcDbLine
 10
0.5
 20
0.5
 30
0.0
 11
0.5
 21
-0.5
 31
0.0
  0
LINE
  5
89
330
86
100
AcDbEntity
  8
0
 62
     0
370
    -2
100
AcDbLine
 10
0.5
 20
-0.5
 30
0.0
 11
-0.5
 21
-0.5
 31
0.0
  0
LINE
  5
8A
330
86
100
AcDbEntity
  8
0
 62
     0
370
    -2
100
AcDbLine
 10
-0.5
 20
-0.5
 30
0.0
 11
-0.5
 21
0.5
 31
0.0
  0
ENDBLK
  5
8C
330
86
100
AcDbEntity
  8
0
100
AcDbBlockEnd
  0
BLOCK
  5
90
330
8D
100
AcDbEntity
  8
0
100
AcDbBlockBegin
  2
CDWK_PTTYP2
 70
     0
 10
0.0
 20
0.0
 30
0.0
  3
CDWK_PTTYP2
  1

  0
LINE
  5
8E
330
8D
100
AcDbEntity
  8
0
 62
     0
370
    -2
100
AcDbLine
 10
0.0
 20
0.5
 30
0.0
 11
0.0
 21
-0.5
 31
0.0
  0
LINE
  5
8F
330
8D
100
AcDbEntity
  8
0
 62
     0
370
    -2
100
AcDbLine
 10
0.5
 20
0.0
 30
0.0
 11
-0.5
 21
0.0
 31
0.0
  0
ENDBLK
  5
91
330
8D
100
AcDbEntity
  8
0
100
AcDbBlockEnd
  0
BLOCK
  5
94
330
92
100
AcDbEntity
  8
0
100
AcDbBlockBegin
  2
CDWK_PTTYP4
 70
     0
 10
0.0
 20
0.0
 30
0.0
  3
CDWK_PTTYP4
  1

  0
HATCH
  5
93
330
92
100
AcDbEntity
  8
0
 62
     0
370
    -2
100
AcDbHatch
 10
0.0
 20
0.0
 30
0.0
210
0.0
220
0.0
230
1.0
  2
SOLID
 70
     1
 71
     1
 91
        1
 92
        1
 93
        1
 72
     2
 10
0.0
 20
0.0
 40
0.5
 50
0.0
 51
360.0
 73
     1
 97
        0
 75
     0
 76
     1
 98
        0
  0
ENDBLK
  5
95
330
92
100
AcDbEntity
  8
0
100
AcDbBlockEnd
  0
BLOCK
  5
9D
330
96
100
AcDbEntity
  8
0
100
AcDbBlockBegin
  2
CDWK_PTTYP5
 70
     0
 10
0.0
 20
0.0
 30
0.0
  3
CDWK_PTTYP5
  1

  0
LINE
  5
97
330
96
100
AcDbEntity
  8
0
 62
     0
370
    -2
100
AcDbLine
 10
-0.5
 20
0.5
 30
0.0
 11
0.5
 21
0.5
 31
0.0
  0
LINE
  5
98
330
96
100
AcDbEntity
  8
0
 62
     0
370
    -2
100
AcDbLine
 10
0.5
 20
0.5
 30
0.0
 11
0.5
 21
-0.5
 31
0.0
  0
LINE
  5
99
330
96
100
AcDbEntity
  8
0
 62
     0
370
    -2
100
AcDbLine
 10
0.5
 20
-0.5
 30
0.0
 11
-0.5
 21
-0.5
 31
0.0
  0
LINE
  5
9A
330
96
100
AcDbEntity
  8
0
 62
     0
370
    -2
100
AcDbLine
 10
-0.5
 20
-0.5
 30
0.0
 11
-0.5
 21
0.5
 31
0.0
  0
HATCH
  5
9B
330
96
100
AcDbEntity
  8
0
 62
     0
370
    -2
100
AcDbHatch
 10
0.0
 20
0.0
 30
0.0
210
0.0
220
0.0
230
1.0
  2
SOLID
 70
     1
 71
     1
 91
        1
 92
        3
 72
     0
 73
     1
 93
        4
 10
-0.5
 20
0.0
 10
0.0
 20
0.0
 10
0.0
 20
-0.5
 10
-0.5
 20
-0.5
 97
        0
 75
     0
 76
     1
 98
        0
  0
HATCH
  5
9C
330
96
100
AcDbEntity
  8
0
 62
     0
370
    -2
100
AcDbHatch
 10
0.0
 20
0.0
 30
0.0
210
0.0
220
0.0
230
1.0
  2
SOLID
 70
     1
 71
     1
 91
        1
 92
        3
 72
     0
 73
     1
 93
        4
 10
0.0
 20
0.0
 10
0.5
 20
0.0
 10
0.5
 20
0.5
 10
0.0
 20
0.5
 97
        0
 75
     0
 76
     1
 98
        0
  0
ENDBLK
  5
9E
330
96
100
AcDbEntity
  8
0
100
AcDbBlockEnd
  0
BLOCK
  5
A5
330
9F
100
AcDbEntity
  8
0
100
AcDbBlockBegin
  2
CDWK_PTTYP6
 70
     0
 10
0.0
 20
0.0
 30
0.0
  3
CDWK_PTTYP6
  1

  0
LINE
  5
A0
330
9F
100
AcDbEntity
  8
0
 62
     0
370
    -2
100
AcDbLine
 10
-0.5
 20
0.5
 30
0.0
 11
0.5
 21
0.5
 31
0.0
  0
LINE
  5
A1
330
9F
100
AcDbEntity
  8
0
 62
     0
370
    -2
100
AcDbLine
 10
0.5
 20
0.5
 30
0.0
 11
0.5
 21
-0.5
 31
0.0
  0
LINE
  5
A2
330
9F
100
AcDbEntity
  8
0
 62
     0
370
    -2
100
AcDbLine
 10
0.5
 20
-0.5
 30
0.0
 11
-0.5
 21
-0.5
 31
0.0
  0
LINE
  5
A3
330
9F
100
AcDbEntity
  8
0
 62
     0
370
    -2
100
AcDbLine
 10
-0.5
 20
-0.5
 30
0.0
 11
-0.5
 21
0.5
 31
0.0
  0
HATCH
  5
A4
330
9F
100
AcDbEntity
  8
0
 62
     0
370
    -2
100
AcDbHatch
 10
0.0
 20
0.0
 30
0.0
210
0.0
220
0.0
230
1.0
  2
SOLID
 70
     1
 71
     1
 91
        1
 92
        3
 72
     0
 73
     1
 93
        3
 10
-0.5
 20
-0.5
 10
-0.5
 20
0.5
 10
0.5
 20
0.5
 97
        0
 75
     0
 76
     1
 98
        0
  0
ENDBLK
  5
A6
330
9F
100
AcDbEntity
  8
0
100
AcDbBlockEnd
  0
BLOCK
  5
AE
330
A7
100
AcDbEntity
  8
0
100
AcDbBlockBegin
  2
CDWK_PTTYP7
 70
     0
 10
0.0
 20
0.0
 30
0.0
  3
CDWK_PTTYP7
  1

  0
LINE
  5
A8
330
A7
100
AcDbEntity
  8
0
 62
     0
370
    -2
100
AcDbLine
 10
-0.5
 20
0.5
 30
0.0
 11
0.5
 21
0.5
 31
0.0
  0
LINE
  5
A9
330
A7
100
AcDbEntity
  8
0
 62
     0
370
    -2
100
AcDbLine
 10
0.5
 20
0.5
 30
0.0
 11
0.5
 21
-0.5
 31
0.0
  0
LINE
  5
AA
330
A7
100
AcDbEntity
  8
0
 62
     0
370
    -2
100
AcDbLine
 10
0.5
 20
-0.5
 30
0.0
 11
-0.5
 21
-0.5
 31
0.0
  0
LINE
  5
AB
330
A7
100
AcDbEntity
  8
0
 62
     0
370
    -2
100
AcDbLine
 10
-0.5
 20
-0.5
 30
0.0
 11
-0.5
 21
0.5
 31
0.0
  0
LINE
  5
AC
330
A7
100
AcDbEntity
  8
0
 62
     0
370
    -2
100
AcDbLine
 10
0.0
 20
0.5
 30
0.0
 11
0.0
 21
-0.5
 31
0.0
  0
LINE
  5
AD
330
A7
100
AcDbEntity
  8
0
 62
     0
370
    -2
100
AcDbLine
 10
0.5
 20
0.0
 30
0.0
 11
-0.5
 21
0.0
 31
0.0
  0
ENDBLK
  5
AF
330
A7
100
AcDbEntity
  8
0
100
AcDbBlockEnd
  0
BLOCK
  5
B2
330
B0
100
AcDbEntity
  8
0
100
AcDbBlockBegin
  2
CDWK_PTTYP8
 70
     0
 10
0.0
 20
0.0
 30
0.0
  3
CDWK_PTTYP8
  1

  0
HATCH
  5
B1
330
B0
100
AcDbEntity
  8
0
 62
     0
370
    -2
100
AcDbHatch
 10
0.0
 20
0.0
 30
0.0
210
0.0
220
0.0
230
1.0
  2
SOLID
 70
     1
 71
     1
 91
        1
 92
        3
 72
     0
 73
     1
 93
        4
 10
0.5
 20
0.5
 10
0.5
 20
-0.5
 10
-0.5
 20
-0.5
 10
-0.5
 20
0.5
 97
        0
 75
     0
 76
     1
 98
        0
  0
ENDBLK
  5
B3
330
B0
100
AcDbEntity
  8
0
100
AcDbBlockEnd
  0
BLOCK
  5
B7
330
B4
100
AcDbEntity
  8
0
100
AcDbBlockBegin
  2
CDWK_PTTYP9
 70
     0
 10
0.0
 20
0.0
 30
0.0
  3
CDWK_PTTYP9
  1

  0
CIRCLE
  5
B5
330
B4
100
AcDbEntity
  8
0
 62
     0
370
    -2
100
AcDbCircle
 10
0.0
 20
0.0
 30
0.0
 40
0.1666666666666667
  0
CIRCLE
  5
B6
330
B4
100
AcDbEntity
  8
0
 62
     0
370
    -2
100
AcDbCircle
 10
0.0
 20
0.0
 30
0.0
 40
0.5
  0
ENDBLK
  5
B8
330
B4
100
AcDbEntity
  8
0
100
AcDbBlockEnd
  0
BLOCK
  5
BB
330
B9
100
AcDbEntity
  8
0
100
AcDbBlockBegin
  2
CDWK_PTTYP10
 70
     0
 10
0.0
 20
0.0
 30
0.0
  3
CDWK_PTTYP10
  1

  0
CIRCLE
  5
BA
330
B9
100
AcDbEntity
  8
0
 62
     0
370
    -2
100
AcDbCircle
 10
0.0
 20
0.0
 30
0.0
 40
0.5
  0
ENDBLK
  5
BC
330
B9
100
AcDbEntity
  8
0
100
AcDbBlockEnd
  0
BLOCK
  5
C0
330
BD
100
AcDbEntity
  8
0
100
AcDbBlockBegin
  2
CDWK_PTTYP11
 70
     0
 10
0.0
 20
0.0
 30
0.0
  3
CDWK_PTTYP11
  1

  0
CIRCLE
  5
BE
330
BD
100
AcDbEntity
  8
0
 62
     0
370
    -2
100
AcDbCircle
 10
0.0
 20
0.0
 30
0.0
 40
0.25
  0
CIRCLE
  5
BF
330
BD
100
AcDbEntity
  8
0
 62
     0
370
    -2
100
AcDbCircle
 10
0.0
 20
0.0
 30
0.0
 40
0.5
  0
ENDBLK
  5
C1
330
BD
100
AcDbEntity
  8
0
100
AcDbBlockEnd
  0
BLOCK
  5
C5
330
C2
100
AcDbEntity
  8
0
100
AcDbBlockBegin
  2
CDWK_PTTYP12
 70
     0
 10
0.0
 20
0.0
 30
0.0
  3
CDWK_PTTYP12
  1

  0
CIRCLE
  5
C3
330
C2
100
AcDbEntity
  8
0
 62
     0
370
    -2
100
AcDbCircle
 10
0.25
 20
0.0
 30
0.0
 40
0.25
  0
CIRCLE
  5
C4
330
C2
100
AcDbEntity
  8
0
 62
     0
370
    -2
100
AcDbCircle
 10
0.0
 20
0.0
 30
0.0
 40
0.5
  0
ENDBLK
  5
C6
330
C2
100
AcDbEntity
  8
0
100
AcDbBlockEnd
  0
BLOCK
  5
CB
330
C7
100
AcDbEntity
  8
0
100
AcDbBlockBegin
  2
CDWK_PTTYP13
 70
     0
 10
0.0
 20
0.0
 30
0.0
  3
CDWK_PTTYP13
  1

  0
CIRCLE
  5
C8
330
C7
100
AcDbEntity
  8
0
 62
     0
370
    -2
100
AcDbCircle
 10
-0.25
 20
0.0
 30
0.0
 40
0.25
  0
CIRCLE
  5
C9
330
C7
100
AcDbEntity
  8
0
 62
     0
370
    -2
100
AcDbCircle
 10
0.25
 20
0.0
 30
0.0
 40
0.25
  0
CIRCLE
  5
CA
330
C7
100
AcDbEntity
  8
0
 62
     0
370
    -2
100
AcDbCircle
 10
0.0
 20
0.0
 30
0.0
 40
0.5
  0
ENDBLK
  5
CC
330
C7
100
AcDbEntity
  8
0
100
AcDbBlockEnd
  0
BLOCK
  5
D2
330
CD
100
AcDbEntity
  8
0
100
AcDbBlockBegin
  2
CDWK_PTTYP16
 70
     0
 10
0.0
 20
0.0
 30
0.0
  3
CDWK_PTTYP16
  1

  0
LINE
  5
CE
330
CD
100
AcDbEntity
  8
0
 62
     0
370
    -2
100
AcDbLine
 10
-0.5
 20
-0.289
 30
0.0
 11
0.5
 21
-0.289
 31
0.0
  0
LINE
  5
CF
330
CD
100
AcDbEntity
  8
0
 62
     0
370
    -2
100
AcDbLine
 10
0.5
 20
-0.289
 30
0.0
 11
0.0
 21
0.577
 31
0.0
  0
LINE
  5
D0
330
CD
100
AcDbEntity
  8
0
 62
     0
370
    -2
100
AcDbLine
 10
0.0
 20
0.577
 30
0.0
 11
-0.5
 21
-0.289
 31
0.0
  0
CIRCLE
  5
D1
330
CD
100
AcDbEntity
  8
0
 62
     0
370
    -2
100
AcDbCircle
 10
0.0
 20
0.0
 30
0.0
 40
0.289
  0
ENDBLK
  5
D3
330
CD
100
AcDbEntity
  8
0
100
AcDbBlockEnd
  0
BLOCK
  5
D7
330
D4
100
AcDbEntity
  8
0
100
AcDbBlockBegin
  2
CDWK_PTTYP17
 70
     0
 10
0.0
 20
0.0
 30
0.0
  3
CDWK_PTTYP17
  1

  0
CIRCLE
  5
D5
330
D4
100
AcDbEntity
  8
0
 62
     0
370
    -2
100
AcDbCircle
 10
0.0
 20
0.0
 30
0.0
 40
0.5
  0
HATCH
  5
D6
330
D4
100
AcDbEntity
  8
0
 62
     0
370
    -2
100
AcDbHatch
 10
0.0
 20
0.0
 30
0.0
210
0.0
220
0.0
230
1.0
  2
SOLID
 70
     1
 71
     1
 91
        1
 92
        1
 93
        1
 72
     2
 10
0.0
 20
0.0
 40
0.25
 50
0.0
 51
360.0
 73
     1
 97
        0
 75
     0
 76
     1
 98
        0
  0
ENDBLK
  5
D8
330
D4
100
AcDbEntity
  8
0
100
AcDbBlockEnd
  0
BLOCK
  5
DC
330
D9
100
AcDbEntity
  8
0
100
AcDbBlockBegin
  2
CDWK_PTTYP18
 70
     0
 10
0.0
 20
0.0
 30
0.0
  3
CDWK_PTTYP18
  1

  0
CIRCLE
  5
DA
330
D9
100
AcDbEntity
  8
0
 62
     0
370
    -2
100
AcDbCircle
 10
0.0
 20
0.0
 30
0.0
 40
0.5
  0
CIRCLE
  5
DB
330
D9
100
AcDbEntity
  8
0
 62
     0
370
    -2
100
AcDbCircle
 10
0.0
 20
0.0
 30
0.0
 40
0.208
  0
ENDBLK
  5
DD
330
D9
100
AcDbEntity
  8
0
100
AcDbBlockEnd
  0
BLOCK
  5
E2
330
DE
100
AcDbEntity
  8
0
100
AcDbBlockBegin
  2
CDWK_PTTYP19
 70
     0
 10
0.0
 20
0.0
 30
0.0
  3
CDWK_PTTYP19
  1

  0
CIRCLE
  5
DF
330
DE
100
AcDbEntity
  8
0
 62
     0
370
    -2
100
AcDbCircle
 10
0.0
 20
0.0
 30
0.0
 40
0.25
  0
CIRCLE
  5
E0
330
DE
100
AcDbEntity
  8
0
 62
     0
370
    -2
100
AcDbCircle
 10
0.0
 20
0.0
 30
0.0
 40
0.35
  0
LINE
  5
E1
330
DE
100
AcDbEntity
  8
0
 62
     0
370
    -2
100
AcDbLine
 10
-0.25
 20
0.0
 30
0.0
 11
0.25
 21
0.0
 31
0.0
  0
ENDBLK
  5
E3
330
DE
100
AcDbEntity
  8
0
100
AcDbBlockEnd
  0
BLOCK
  5
E7
330
E4
100
AcDbEntity
  8
0
100
AcDbBlockBegin
  2
CDWK_PTTYP20
 70
     0
 10
0.0
 20
0.0
 30
0.0
  3
CDWK_PTTYP20
  1

  0
CIRCLE
  5
E5
330
E4
100
AcDbEntity
  8
0
 62
     0
370
    -2
100
AcDbCircle
 10
0.0
 20
0.0
 30
0.0
 40
0.3333333333333333
  0
CIRCLE
  5
E6
330
E4
100
AcDbEntity
  8
0
 62
     0
370
    -2
100
AcDbCircle
 10
0.0
 20
0.0
 30
0.0
 40
0.5
  0
ENDBLK
  5
E8
330
E4
100
AcDbEntity
  8
0
100
AcDbBlockEnd
  0
BLOCK
  5
EC
330
E9
100
AcDbEntity
  8
0
100
AcDbBlockBegin
  2
CDWK_PTTYP21
 70
     0
 10
0.0
 20
0.0
 30
0.0
  3
CDWK_PTTYP21
  1

  0
CIRCLE
  5
EA
330
E9
100
AcDbEntity
  8
0
 62
     0
370
    -2
100
AcDbCircle
 10
0.0
 20
0.0
 30
0.0
 40
0.5
  0
LINE
  5
EB
330
E9
100
AcDbEntity
  8
0
 62
     0
370
    -2
100
AcDbLine
 10
-0.5
 20
0.0
 30
0.0
 11
0.5
 21
0.0
 31
0.0
  0
ENDBLK
  5
ED
330
E9
100
AcDbEntity
  8
0
100
AcDbBlockEnd
  0
BLOCK
  5
F3
330
EE
100
AcDbEntity
  8
0
100
AcDbBlockBegin
  2
CDWK_PTTYP25
 70
     0
 10
0.0
 20
0.0
 30
0.0
  3
CDWK_PTTYP25
  1

  0
LINE
  5
EF
330
EE
100
AcDbEntity
  8
0
 62
     0
370
    -2
100
AcDbLine
 10
0.0
 20
0.5
 30
0.0
 11
-0.4330127018922193
 21
-0.25
 31
0.0
  0
LINE
  5
F0
330
EE
100
AcDbEntity
  8
0
 62
     0
370
    -2
100
AcDbLine
 10
-0.4330127018922193
 20
-0.25
 30
0.0
 11
0.4330127018922193
 21
-0.25
 31
0.0
  0
LINE
  5
F1
330
EE
100
AcDbEntity
  8
0
 62
     0
370
    -2
100
AcDbLine
 10
0.4330127018922193
 20
-0.25
 30
0.0
 11
0.0
 21
0.5
 31
0.0
  0
CIRCLE
  5
F2
330
EE
100
AcDbEntity
  8
0
 62
     0
370
    -2
100
AcDbCircle
 10
0.0
 20
0.0
 30
0.0
 40
0.5
  0
ENDBLK
  5
F4
330
EE
100
AcDbEntity
  8
0
100
AcDbBlockEnd
  0
BLOCK
  5
FA
330
F5
100
AcDbEntity
  8
0
100
AcDbBlockBegin
  2
CDWK_PTTYP26
 70
     0
 10
0.0
 20
0.0
 30
0.0
  3
CDWK_PTTYP26
  1

  0
LINE
  5
F6
330
F5
100
AcDbEntity
  8
0
 62
     0
370
    -2
100
AcDbLine
 10
-0.5
 20
-0.289
 30
0.0
 11
0.5
 21
-0.289
 31
0.0
  0
LINE
  5
F7
330
F5
100
AcDbEntity
  8
0
 62
     0
370
    -2
100
AcDbLine
 10
0.5
 20
-0.289
 30
0.0
 11
0.0
 21
0.577
 31
0.0
  0
LINE
  5
F8
330
F5
100
AcDbEntity
  8
0
 62
     0
370
    -2
100
AcDbLine
 10
0.0
 20
0.577
 30
0.0
 11
-0.5
 21
-0.289
 31
0.0
  0
CIRCLE
  5
F9
330
F5
100
AcDbEntity
  8
0
 62
     0
370
    -2
100
AcDbCircle
 10
0.0
 20
0.0
 30
0.0
 40
0.125
  0
ENDBLK
  5
FB
330
F5
100
AcDbEntity
  8
0
100
AcDbBlockEnd
  0
BLOCK
  5
102
330
FC
100
AcDbEntity
  8
0
100
AcDbBlockBegin
  2
CDWK_PTTYP27
 70
     0
 10
0.0
 20
0.0
 30
0.0
  3
CDWK_PTTYP27
  1

  0
LINE
  5
FD
330
FC
100
AcDbEntity
  8
0
 62
     0
370
    -2
100
AcDbLine
 10
0.0
 20
0.5
 30
0.0
 11
-0.4330127018922193
 21
-0.25
 31
0.0
  0
LINE
  5
FE
330
FC
100
AcDbEntity
  8
0
 62
     0
370
    -2
100
AcDbLine
 10
-0.4330127018922193
 20
-0.25
 30
0.0
 11
0.4330127018922193
 21
-0.25
 31
0.0
  0
LINE
  5
FF
330
FC
100
AcDbEntity
  8
0
 62
     0
370
    -2
100
AcDbLine
 10
0.4330127018922193
 20
-0.25
 30
0.0
 11
0.0
 21
0.5
 31
0.0
  0
CIRCLE
  5
100
330
FC
100
AcDbEntity
  8
0
 62
     0
370
    -2
100
AcDbCircle
 10
0.0
 20
0.0
 30
0.0
 40
0.125
  0
CIRCLE
  5
101
330
FC
100
AcDbEntity
  8
0
 62
     0
370
    -2
100
AcDbCircle
 10
0.0
 20
0.0
 30
0.0
 40
0.5
  0
ENDBLK
  5
103
330
FC
100
AcDbEntity
  8
0
100
AcDbBlockEnd
  0
BLOCK
  5
109
330
104
100
AcDbEntity
  8
0
100
AcDbBlockBegin
  2
CDWK_PTTYP28
 70
     0
 10
0.0
 20
0.0
 30
0.0
  3
CDWK_PTTYP28
  1

  0
LINE
  5
105
330
104
100
AcDbEntity
  8
0
 62
     0
370
    -2
100
AcDbLine
 10
-0.5
 20
0.5
 30
0.0
 11
0.5
 21
0.5
 31
0.0
  0
LINE
  5
106
330
104
100
AcDbEntity
  8
0
 62
     0
370
    -2
100
AcDbLine
 10
0.5
 20
0.5
 30
0.0
 11
-0.5
 21
-0.5
 31
0.0
  0
LINE
  5
107
330
104
100
AcDbEntity
  8
0
 62
     0
370
    -2
100
AcDbLine
 10
0.5
 20
-0.5
 30
0.0
 11
-0.5
 21
-0.5
 31
0.0
  0
LINE
  5
108
330
104
100
AcDbEntity
  8
0
 62
     0
370
    -2
100
AcDbLine
 10
-0.5
 20
0.5
 30
0.0
 11
0.5
 21
-0.5
 31
0.0
  0
ENDBLK
  5
10A
330
104
100
AcDbEntity
  8
0
100
AcDbBlockEnd
  0
BLOCK
  5
10F
330
10B
100
AcDbEntity
  8
0
100
AcDbBlockBegin
  2
CDWK_PTTYP29
 70
     0
 10
0.0
 20
0.0
 30
0.0
  3
CDWK_PTTYP29
  1

  0
CIRCLE
  5
10C
330
10B
100
AcDbEntity
  8
0
 62
     0
370
    -2
100
AcDbCircle
 10
0.0
 20
0.0
 30
0.0
 40
0.2
  0
CIRCLE
  5
10D
330
10B
100
AcDbEntity
  8
0
 62
     0
370
    -2
100
AcDbCircle
 10
0.0
 20
0.0
 30
0.0
 40
0.35
  0
CIRCLE
  5
10E
330
10B
100
AcDbEntity
  8
0
 62
     0
370
    -2
100
AcDbCircle
 10
0.0
 20
0.0
 30
0.0
 40
0.5
  0
ENDBLK
  5
110
330
10B
100
AcDbEntity
  8
0
100
AcDbBlockEnd
  0
BLOCK
  5
116
330
111
100
AcDbEntity
  8
0
100
AcDbBlockBegin
  2
CDWK_PTTYP30
 70
     0
 10
0.0
 20
0.0
 30
0.0
  3
CDWK_PTTYP30
  1

  0
LINE
  5
112
330
111
100
AcDbEntity
  8
0
 62
     0
370
    -2
100
AcDbLine
 10
-0.5
 20
0.5
 30
0.0
 11
-0.1
 21
0.1
 31
0.0
  0
LINE
  5
113
330
111
100
AcDbEntity
  8
0
 62
     0
370
    -2
100
AcDbLine
 10
0.5
 20
0.5
 30
0.0
 11
0.1
 21
0.1
 31
0.0
  0
LINE
  5
114
330
111
100
AcDbEntity
  8
0
 62
     0
370
    -2
100
AcDbLine
 10
0.5
 20
-0.5
 30
0.0
 11
0.1
 21
-0.1
 31
0.0
  0
LINE
  5
115
330
111
100
AcDbEntity
  8
0
 62
     0
370
    -2
100
AcDbLine
 10
-0.5
 20
-0.5
 30
0.0
 11
-0.1
 21
-0.1
 31
0.0
  0
ENDBLK
  5
117
330
111
100
AcDbEntity
  8
0
100
AcDbBlockEnd
  0
BLOCK
  5
11E
330
118
100
AcDbEntity
  8
0
100
AcDbBlockBegin
  2
CDWK_PTTYP31
 70
     0
 10
0.0
 20
0.0
 30
0.0
  3
CDWK_PTTYP31
  1

  0
LINE
  5
119
330
118
100
AcDbEntity
  8
0
 62
     0
370
    -2
100
AcDbLine
 10
-0.5
 20
0.0
 30
0.0
 11
-0.1
 21
0.0
 31
0.0
  0
LINE
  5
11A
330
118
100
AcDbEntity
  8
0
 62
     0
370
    -2
100
AcDbLine
 10
0.1
 20
0.0
 30
0.0
 11
0.5
 21
0.0
 31
0.0
  0
LINE
  5
11B
330
118
100
AcDbEntity
  8
0
 62
     0
370
    -2
100
AcDbLine
 10
0.0
 20
0.5
 30
0.0
 11
0.0
 21
0.1
 31
0.0
  0
LINE
  5
11C
330
118
100
AcDbEntity
  8
0
 62
     0
370
    -2
100
AcDbLine
 10
0.0
 20
-0.1
 30
0.0
 11
0.0
 21
-0.5
 31
0.0
  0
CIRCLE
  5
11D
330
118
100
AcDbEntity
  8
0
 62
     0
370
    -2
100
AcDbCircle
 10
0.0
 20
0.0
 30
0.0
 40
0.1
  0
ENDBLK
  5
11F
330
118
100
AcDbEntity
  8
0
100
AcDbBlockEnd
  0
BLOCK
  5
127
330
120
100
AcDbEntity
  8
0
100
AcDbBlockBegin
  2
CDWK_PTTYP32
 70
     0
 10
0.0
 20
0.0
 30
0.0
  3
CDWK_PTTYP32
  1

  0
CIRCLE
  5
121
330
120
100
AcDbEntity
  8
0
 62
     0
370
    -2
100
AcDbCircle
 10
0.0
 20
0.0
 30
0.0
 40
0.2
  0
CIRCLE
  5
122
330
120
100
AcDbEntity
  8
0
 62
     0
370
    -2
100
AcDbCircle
 10
0.0
 20
0.0
 30
0.0
 40
0.5
  0
LINE
  5
123
330
120
100
AcDbEntity
  8
0
 62
     0
370
    -2
100
AcDbLine
 10
0.1414213562373095
 20
0.1414213562373095
 30
0.0
 11
0.3535533905932738
 21
0.3535533905932738
 31
0.0
  0
LINE
  5
124
330
120
100
AcDbEntity
  8
0
 62
     0
370
    -2
100
AcDbLine
 10
-0.1414213562373095
 20
0.1414213562373095
 30
0.0
 11
-0.3535533905932738
 21
0.3535533905932738
 31
0.0
  0
LINE
  5
125
330
120
100
AcDbEntity
  8
0
 62
     0
370
    -2
100
AcDbLine
 10
0.1414213562373095
 20
-0.1414213562373095
 30
0.0
 11
0.3535533905932738
 21
-0.3535533905932738
 31
0.0
  0
LINE
  5
126
330
120
100
AcDbEntity
  8
0
 62
     0
370
    -2
100
AcDbLine
 10
-0.1414213562373095
 20
-0.1414213562373095
 30
0.0
 11
-0.3535533905932738
 21
-0.3535533905932738
 31
0.0
  0
ENDBLK
  5
128
330
120
100
AcDbEntity
  8
0
100
AcDbBlockEnd
  0
BLOCK
  5
12D
330
129
100
AcDbEntity
  8
0
100
AcDbBlockBegin
  2
CDWK_PTTYP33
 70
     0
 10
0.0
 20
0.0
 30
0.0
  3
CDWK_PTTYP33
  1

  0
LINE
  5
12A
330
129
100
AcDbEntity
  8
0
 62
     0
370
    -2
100
AcDbLine
 10
0.0
 20
-0.5
 30
0.0
 11
0.0
 21
0.5
 31
0.0
  0
LINE
  5
12B
330
129
100
AcDbEntity
  8
0
 62
     0
370
    -2
100
AcDbLine
 10
0.5
 20
0.0
 30
0.0
 11
-0.5
 21
0.0
 31
0.0
  0
CIRCLE
  5
12C
330
129
100
AcDbEntity
  8
0
 62
     0
370
    -2
100
AcDbCircle
 10
0.0
 20
0.0
 30
0.0
 40
0.5
  0
ENDBLK
  5
12E
330
129
100
AcDbEntity
  8
0
100
AcDbBlockEnd
  0
BLOCK
  5
133
330
12F
100
AcDbEntity
  8
0
100
AcDbBlockBegin
  2
CDWK_PTTYP34
 70
     0
 10
0.0
 20
0.0
 30
0.0
  3
CDWK_PTTYP34
  1

  0
CIRCLE
  5
130
330
12F
100
AcDbEntity
  8
0
 62
     0
370
    -2
100
AcDbCircle
 10
0.0
 20
0.0
 30
0.0
 40
0.5
  0
LINE
  5
131
330
12F
100
AcDbEntity
  8
0
 62
     0
370
    -2
100
AcDbLine
 10
-0.4
 20
-0.3
 30
0.0
 11
0.3
 21
0.4
 31
0.0
  0
LINE
  5
132
330
12F
100
AcDbEntity
  8
0
 62
     0
370
    -2
100
AcDbLine
 10
-0.3
 20
-0.4
 30
0.0
 11
0.4
 21
0.3
 31
0.0
  0
ENDBLK
  5
134
330
12F
100
AcDbEntity
  8
0
100
AcDbBlockEnd
  0
BLOCK
  5
139
330
135
100
AcDbEntity
  8
0
100
AcDbBlockBegin
  2
CDWK_PTTYP35
 70
     0
 10
0.0
 20
0.0
 30
0.0
  3
CDWK_PTTYP35
  1

  0
LINE
  5
136
330
135
100
AcDbEntity
  8
0
 62
     0
370
    -2
100
AcDbLine
 10
0.0
 20
0.2
 30
0.0
 11
0.0
 21
0.5
 31
0.0
  0
LINE
  5
137
330
135
100
AcDbEntity
  8
0
 62
     0
370
    -2
100
AcDbLine
 10
0.0
 20
-0.2
 30
0.0
 11
0.0
 21
-0.5
 31
0.0
  0
CIRCLE
  5
138
330
135
100
AcDbEntity
  8
0
 62
     0
370
    -2
100
AcDbCircle
 10
0.0
 20
0.0
 30
0.0
 40
0.2
  0
ENDBLK
  5
13A
330
135
100
AcDbEntity
  8
0
100
AcDbBlockEnd
  0
BLOCK
  5
141
330
13B
100
AcDbEntity
  8
0
100
AcDbBlockBegin
  2
CDWK_PTTYP36
 70
     0
 10
0.0
 20
0.0
 30
0.0
  3
CDWK_PTTYP36
  1

  0
LINE
  5
13C
330
13B
100
AcDbEntity
  8
0
 62
     0
370
    -2
100
AcDbLine
 10
-0.5
 20
0.2
 30
0.0
 11
0.5
 21
0.2
 31
0.0
  0
LINE
  5
13D
330
13B
100
AcDbEntity
  8
0
 62
     0
370
    -2
100
AcDbLine
 10
0.5
 20
0.2
 30
0.0
 11
0.5
 21
-0.2
 31
0.0
  0
LINE
  5
13E
330
13B
100
AcDbEntity
  8
0
 62
     0
370
    -2
100
AcDbLine
 10
0.5
 20
-0.2
 30
0.0
 11
-0.5
 21
-0.2
 31
0.0
  0
LINE
  5
13F
330
13B
100
AcDbEntity
  8
0
 62
     0
370
    -2
100
AcDbLine
 10
-0.5
 20
-0.2
 30
0.0
 11
-0.5
 21
0.2
 31
0.0
  0
HATCH
  5
140
330
13B
100
AcDbEntity
  8
0
 62
     0
370
    -2
100
AcDbHatch
 10
0.0
 20
0.0
 30
0.0
210
0.0
220
0.0
230
1.0
  2
SOLID
 70
     1
 71
     1
 91
        1
 92
        3
 72
     0
 73
     1
 93
        3
 10
-0.5
 20
-0.2
 10
0.5
 20
-0.2
 10
0.5
 20
0.2
 97
        0
 75
     0
 76
     1
 98
        0
  0
ENDBLK
  5
142
330
13B
100
AcDbEntity
  8
0
100
AcDbBlockEnd
  0
BLOCK
  5
146
330
143
100
AcDbEntity
  8
0
100
AcDbBlockBegin
  2
CDWK_PTTYP37
 70
     0
 10
0.0
 20
0.0
 30
0.0
  3
CDWK_PTTYP37
  1

  0
HATCH
  5
144
330
143
100
AcDbEntity
  8
0
 62
     0
370
    -2
100
AcDbHatch
 10
0.0
 20
0.0
 30
0.0
210
0.0
220
0.0
230
1.0
  2
SOLID
 70
     1
 71
     1
 91
        1
 92
        3
 72
     0
 73
     1
 93
      202
 10
-0.3535533905932738
 20
-0.3535533905932738
 10
-0.3485533905932738
 20
-0.3535533905932737
 10
-0.3435533905932738
 20
-0.3584836591895546
 10
-0.3385533905932738
 20
-0.3632782236961988
 10
-0.3335533905932738
 20
-0.367942389128785
 10
-0.3285533905932738
 20
-0.372481054046687
 10
-0.3235533905932738
 20
-0.3768987523588579
 10
-0.3185533905932738
 20
-0.3811996897107819
 10
-0.3135533905932738
 20
-0.3853877752881235
 10
-0.3085533905932737
 20
-0.3894666497242888
 10
-0.3035533905932737
 20
-0.3934397096803965
 10
-0.2985533905932737
 20
-0.3973101295704999
 10
-0.2935533905932737
 20
-0.4010808808273714
 10
-0.2885533905932737
 20
-0.4047547490409382
 10
-0.2835533905932737
 20
-0.4083343492496384
 10
-0.2785533905932737
 20
-0.4118221396222626
 10
-0.2735533905932737
 20
-0.4152204337324827
 10
-0.2685533905932737
 20
-0.4185314115988474
 10
-0.2635533905932737
 20
-0.4217571296384408
 10
-0.2585533905932737
 20
-0.4248995296617653
 10
-0.2535533905932737
 20
-0.4279604470190231
 10
-0.2485533905932737
 20
-0.4309416179932669
 10
-0.2435533905932737
 20
-0.4338446865234004
 10
-0.2385533905932737
 20
-0.4366712103293738
 10
-0.2335533905932737
 20
-0.439422666502825
 10
-0.2285533905932737
 20
-0.4421004566186126
 10
-0.2235533905932737
 20
-0.4447059114159811
 10
-0.2185533905932737
 20
-0.4472402950923041
 10
-0.2135533905932737
 20
-0.4497048092473372
 10
-0.2085533905932737
 20
-0.4521005965115692
 10
-0.2035533905932737
 20
-0.4544287438884664
 10
-0.1985533905932736
 20
-0.456690285837111
 10
-0.1935533905932736
 20
-0.45888620711884
 10
-0.1885533905932736
 20
-0.4610174454289638
 10
-0.1835533905932736
 20
-0.4630848938324164
 10
-0.1785533905932736
 20
-0.4650894030202291
 10
-0.1735533905932736
 20
-0.4670317834019928
 10
-0.1685533905932736
 20
-0.46891280704794
 10
-0.1635533905932736
 20
-0.4707332094929264
 10
-0.1585533905932736
 20
-0.4724936914133818
 10
-0.1535533905932736
 20
-0.4741949201872336
 10
-0.1485533905932736
 20
-0.4758375313458466
 10
-0.1435533905932736
 20
-0.4774221299261716
 10
-0.1385533905932736
 20
-0.4789492917305286
 10
-0.1335533905932736
 20
-0.4804195645007682
 10
-0.1285533905932736
 20
-0.4818334690129366
 10
-0.1235533905932736
 20
-0.4831915000980183
 10
-0.1185533905932736
 20
-0.4844941275938295
 10
-0.1135533905932736
 20
-0.4857417972326848
 10
-0.1085533905932736
 20
-0.4869349314690531
 10
-0.1035533905932736
 20
-0.4880739302510473
 10
-0.0985533905932736
 20
-0.489159171739258
 10
-0.0935533905932736
 20
-0.4901910129761353
 10
-0.0885533905932736
 20
-0.4911697905088447
 10
-0.0835533905932735
 20
-0.4920958209682695
 10
-0.0785533905932735
 20
-0.4929694016065986
 10
-0.0735533905932735
 20
-0.4937908107957261
 10
-0.0685533905932735
 20
-0.494560308488493
 10
-0.0635533905932735
 20
-0.4952781366446192
 10
-0.0585533905932735
 20
-0.4959445196230107
 10
-0.0535533905932735
 20
-0.4965596645419678
 10
-0.0485533905932735
 20
-0.4971237616086806
 10
-0.0435533905932735
 20
-0.4976369844192622
 10
-0.0385533905932735
 20
-0.4980994902304456
 10
-0.0335533905932735
 20
-0.4985114202039533
 10
-0.0285533905932735
 20
-0.4988728996244386
 10
-0.0235533905932735
 20
-0.4991840380917923
 10
-0.0185533905932735
 20
-0.49944492968851
 10
-0.0135533905932735
 20
-0.4996556531227215
 10
-0.0085533905932735
 20
-0.4998162718473921
 10
-0.0035533905932735
 20
-0.4999268341561182
 10
0.0014466094067265
 20
-0.499987373255857
 10
0.0064466094067265
 20
-0.4999979073168451
 10
0.0114466094067265
 20
-0.4999584394998819
 10
0.0164466094067265
 20
-0.4998689579610739
 10
0.0214466094067265
 20
-0.4997294358340547
 10
0.0264466094067265
 20
-0.4995398311896213
 10
0.0314466094067265
 20
-0.4993000869726422
 10
0.0364466094067265
 20
-0.4990101309160174
 10
0.0414466094067265
 20
-0.4986698754313855
 10
0.0464466094067265
 20
-0.498279217476192
 10
0.0514466094067265
 20
-0.4978380383966446
 10
0.0564466094067265
 20
-0.497346203745994
 10
0.0614466094067265
 20
-0.4968035630774849
 10
0.0664466094067264
 20
-0.4962099497112257
 10
0.0714466094067265
 20
-0.4955651804741228
 10
0.0764466094067265
 20
-0.4948690554119167
 10
0.0814466094067265
 20
-0.4941213574722463
 10
0.0864466094067265
 20
-0.4933218521575424
 10
0.0914466094067265
 20
-0.4924702871464235
 10
0.0964466094067265
 20
-0.4915663918821278
 10
0.1014466094067265
 20
-0.4906098771263643
 10
0.1064466094067265
 20
-0.4896004344768079
 10
0.1114466094067265
 20
-0.4885377358462822
 10
0.1164466094067265
 20
-0.4874214329014929
 10
0.1214466094067265
 20
-0.4862511564589613
 10
0.1264466094067265
 20
-0.4850265158355881
 10
0.1314466094067265
 20
-0.4837470981510305
 10
0.1364466094067265
 20
-0.482412467578809
 10
0.1414466094067265
 20
-0.4810221645427664
 10
0.1464466094067265
 20
-0.4795757048551781
 10
0.1514466094067265
 20
-0.4780725787924608
 10
0.1564466094067265
 20
-0.4765122501040308
 10
0.1614466094067265
 20
-0.4748941549494363
 10
0.1664466094067265
 20
-0.4732177007584056
 10
0.1714466094067265
 20
-0.4714822650079264
 10
0.1764466094067265
 20
-0.4696871939098801
 10
0.1814466094067266
 20
-0.4678318010021017
 10
0.1864466094067266
 20
-0.4659153656350076
 10
0.1914466094067266
 20
-0.4639371313451162
 10
0.1964466094067266
 20
-0.4618963041058764
 10
0.2014466094067266
 20
-0.4597920504451997
 10
0.2064466094067266
 20
-0.4576234954179405
 10
0.2114466094067266
 20
-0.4553897204202862
 10
0.2164466094067266
 20
-0.4530897608315588
 10
0.2214466094067266
 20
-0.45072260346729
 10
0.2264466094067266
 20
-0.4482871838255748
 10
0.2314466094067266
 20
-0.4457823831065977
 10
0.2364466094067266
 20
-0.4432070249828292
 10
0.2414466094067266
 20
-0.4405598720946596
 10
0.2464466094067266
 20
-0.4378396222431172
 10
0.2514466094067266
 20
-0.4350449042477435
 10
0.2564466094067266
 20
-0.4321742734336012
 10
0.2614466094067266
 20
-0.4292262067066663
 10
0.2664466094067266
 20
-0.4261990971714118
 10
0.2714466094067266
 20
-0.4230912482380831
 10
0.2764466094067266
 20
-0.4199008671598476
 10
0.2814466094067266
 20
-0.4166260579314797
 10
0.2864466094067266
 20
-0.4132648134712868
 10
0.2914466094067266
 20
-0.4098150069963156
 10
0.2964466094067266
 20
-0.4062743824871597
 10
0.3014466094067266
 20
-0.4026405441224911
 10
0.3064466094067266
 20
-0.3989109445442534
 10
0.3114466094067266
 20
-0.3950828717916294
 10
0.3164466094067266
 20
-0.391153434714632
 10
0.3214466094067266
 20
-0.3871195466454601
 10
0.3264466094067267
 20
-0.3829779070663467
 10
0.3314466094067267
 20
-0.3787249809648844
 10
0.3364466094067267
 20
-0.3743569755097196
 10
0.3414466094067267
 20
-0.3698698136084067
 10
0.3464466094067267
 20
-0.3652591038217257
 10
0.3514466094067267
 20
-0.3605201060004601
 10
0.3564466094067267
 20
-0.3556476918757041
 10
0.3614466094067267
 20
-0.3506362996645505
 10
0.3664466094067267
 20
-0.34547988153926
 10
0.3714466094067267
 20
-0.3401718425359658
 10
0.3764466094067267
 20
-0.334704969129899
 10
0.3814466094067267
 20
-0.3290713452523318
 10
0.3864466094067267
 20
-0.3232622529342269
 10
0.3914466094067267
 20
-0.3172680539828188
 10
0.3964466094067267
 20
-0.3110780480586465
 10
0.4014466094067267
 20
-0.304680301118911
 10
0.4064466094067267
 20
-0.2980614362775617
 10
0.4114466094067267
 20
-0.291206376478565
 10
0.4164466094067267
 20
-0.2840980246459106
 10
0.4214466094067267
 20
-0.276716861635935
 10
0.4264466094067267
 20
-0.2690404345439063
 10
0.4314466094067267
 20
-0.2610426963649944
 10
0.4364466094067267
 20
-0.2526931404518915
 10
0.4414466094067268
 20
-0.2439556458403291
 10
0.4464466094067268
 20
-0.2347869056044327
 10
0.4514466094067268
 20
-0.2251342376211081
 10
0.4564466094067268
 20
-0.2149324518428296
 10
0.4614466094067268
 20
-0.2040992228331676
 10
0.4664466094067268
 20
-0.1925279893081412
 10
0.4714466094067268
 20
-0.1800765408735088
 10
0.4764466094067268
 20
-0.1665475742210051
 10
0.4814466094067268
 20
-0.1516529867323223
 10
0.4864466094067268
 20
-0.1349413290684758
 10
0.4914466094067268
 20
-0.1156274024472547
 10
0.4964466094067268
 20
-0.0920881648347501
 10
0.5
 20
0.0
 10
0.495
 20
0.0
 10
0.49
 20
0.0705336798983295
 10
0.485
 20
0.0994987437106621
 10
0.48
 20
0.1215524578114322
 10
0.475
 20
0.14
 10
0.47
 20
0.15612494995996
 10
0.465
 20
0.1705872210923199
 10
0.46
 20
0.1837797594948911
 10
0.455
 20
0.1959591794226544
 10
0.45
 20
0.2073041244162789
 10
0.445
 20
0.2179449471770338
 10
0.4399999999999999
 20
0.2279802623035601
 10
0.4349999999999999
 20
0.2374868417407584
 10
0.4299999999999999
 20
0.2465258607124211
 10
0.4249999999999999
 20
0.2551470164434615
 10
0.4199999999999999
 20
0.2633913438213186
 10
0.4149999999999999
 20
0.2712931993250108
 10
0.4099999999999999
 20
0.2788816953476869
 10
0.4049999999999999
 20
0.2861817604250838
 10
0.3999999999999999
 20
0.2932149382279151
 10
0.3949999999999999
 20
0.3000000000000002
 10
0.3899999999999999
 20
0.3065534211193868
 10
0.3849999999999999
 20
0.3128897569432404
 10
0.3799999999999999
 20
0.3190219428189855
 10
0.3749999999999999
 20
0.3249615361854385
 10
0.3699999999999999
 20
0.330718913883074
 10
0.3649999999999999
 20
0.3363034344160049
 10
0.3599999999999999
 20
0.3417235724968357
 10
0.3549999999999999
 20
0.3469870314579496
 10
0.3535533905932738
 20
0.3535533905932738
 97
        0
 75
     0
 76
     1
 98
        0
  0
CIRCLE
  5
145
330
143
100
AcDbEntity
  8
0
 62
     0
370
    -2
100
AcDbCircle
 10
0.0
 20
0.0
 30
0.0
 40
0.5
  0
ENDBLK
  5
147
330
143
100
AcDbEntity
  8
0
100
AcDbBlockEnd
  0
BLOCK
  5
14C
330
148
100
AcDbEntity
  8
0
100
AcDbBlockBegin
  2
CDWK_PTTYP38
 70
     0
 10
0.0
 20
0.0
 30
0.0
  3
CDWK_PTTYP38
  1

  0
HATCH
  5
149
330
148
100
AcDbEntity
  8
0
 62
     0
370
    -2
100
AcDbHatch
 10
0.0
 20
0.0
 30
0.0
210
0.0
220
0.0
230
1.0
  2
SOLID
 70
     1
 71
     1
 91
        1
 92
        3
 72
     0
 73
     1
 93
      102
 10
0.0
 20
0.0
 10
0.0
 20
0.5
 10
0.005
 20
0.5
 10
0.01
 20
0.4999749993749688
 10
0.015
 20
0.4998999899979995
 10
0.02
 20
0.4997749493522059
 10
0.025
 20
0.4995998398718718
 10
0.03
 20
0.4993746088859545
 10
0.035
 20
0.4990991885387112
 10
0.04
 20
0.4987734956871706
 10
0.045
 20
0.4983974317750845
 10
0.05
 20
0.4979708826829135
 10
0.055
 20
0.49749371855331
 10
0.06
 20
0.4969657935914704
 10
0.065
 20
0.4963869458396343
 10
0.07
 20
0.4957569969249047
 10
0.075
 20
0.4950757517794626
 10
0.08
 20
0.4943429983321297
 10
0.085
 20
0.4935585071701227
 10
0.09
 20
0.4927220311697053
 10
0.095
 20
0.4918333050943175
 10
0.1
 20
0.4908920451586071
 10
0.105
 20
0.4898979485566356
 10
0.11
 20
0.4888506929523574
 10
0.115
 20
0.4877499359302879
 10
0.12
 20
0.4865953144040744
 10
0.125
 20
0.4853864439804639
 10
0.13
 20
0.4841229182759271
 10
0.135
 20
0.4828043081829325
 10
0.14
 20
0.4814301610825811
 10
0.145
 20
0.48
 10
0.15
 20
0.478513322698543
 10
0.1550000000000001
 20
0.4769696007084728
 10
0.1600000000000001
 20
0.4753682782853731
 10
0.1650000000000001
 20
0.4737087712930804
 10
0.1700000000000001
 20
0.4719904660054056
 10
0.1750000000000001
 20
0.4702127178203498
 10
0.1800000000000001
 20
0.4683748498798799
 10
0.1850000000000001
 20
0.466476151587624
 10
0.1900000000000001
 20
0.4645158770160606
 10
0.1950000000000001
 20
0.4624932431938871
 10
0.2000000000000001
 20
0.460407428263272
 10
0.2050000000000001
 20
0.4582575694955839
 10
0.2100000000000001
 20
0.4560427611529427
 10
0.2150000000000001
 20
0.4537620521815371
 10
0.2200000000000001
 20
0.4514144437210665
 10
0.2250000000000001
 20
0.4489988864128729
 10
0.2300000000000001
 20
0.4465142774872937
 10
0.2350000000000001
 20
0.4439594576084622
 10
0.2400000000000001
 20
0.4413332074521472
 10
0.2450000000000001
 20
0.4386342439892261
 10
0.2500000000000001
 20
0.4358612164439502
 10
0.2550000000000001
 20
0.4330127018922192
 10
0.2600000000000001
 20
0.4300872004605577
 10
0.2650000000000001
 20
0.4270831300812524
 10
0.2700000000000001
 20
0.423998820753077
 10
0.2750000000000001
 20
0.4208325082500162
 10
0.2800000000000001
 20
0.4175823272122516
 10
0.2850000000000001
 20
0.4142463035441595
 10
0.2900000000000001
 20
0.4108223460329293
 10
0.2950000000000002
 20
0.4073082370883259
 10
0.3000000000000002
 20
0.403701622488689
 10
0.3050000000000002
 20
0.3999999999999999
 10
0.3100000000000002
 20
0.3962007067131506
 10
0.3150000000000002
 20
0.3923009049186605
 10
0.3200000000000002
 20
0.3882975663070783
 10
0.3250000000000002
 20
0.3841874542459708
 10
0.3300000000000002
 20
0.3799671038392664
 10
0.3350000000000002
 20
0.3756327994198588
 10
0.3400000000000002
 20
0.3711805490593491
 10
0.3450000000000002
 20
0.366606055596467
 10
0.3500000000000002
 20
0.3619046835839512
 10
0.3550000000000002
 20
0.3570714214271423
 10
0.3600000000000002
 20
0.3521008378291649
 10
0.3650000000000002
 20
0.3469870314579492
 10
0.3700000000000002
 20
0.3417235724968353
 10
0.3750000000000002
 20
0.3363034344160045
 10
0.3800000000000002
 20
0.3307189138830736
 10
0.3850000000000002
 20
0.3249615361854382
 10
0.3900000000000002
 20
0.3190219428189851
 10
0.3950000000000002
 20
0.31288975694324
 10
0.4000000000000002
 20
0.3065534211193863
 10
0.4050000000000002
 20
0.2999999999999997
 10
0.4100000000000003
 20
0.2932149382279147
 10
0.4150000000000003
 20
0.2861817604250834
 10
0.4200000000000003
 20
0.2788816953476864
 10
0.4250000000000003
 20
0.2712931993250103
 10
0.4300000000000003
 20
0.263391343821318
 10
0.4350000000000003
 20
0.255147016443461
 10
0.4400000000000003
 20
0.2465258607124206
 10
0.4450000000000003
 20
0.2374868417407578
 10
0.4500000000000003
 20
0.2279802623035594
 10
0.4550000000000003
 20
0.2179449471770331
 10
0.4600000000000003
 20
0.2073041244162782
 10
0.4650000000000003
 20
0.1959591794226536
 10
0.4700000000000003
 20
0.1837797594948903
 10
0.4750000000000003
 20
0.170587221092319
 10
0.4800000000000003
 20
0.156124949959959
 10
0.4850000000000003
 20
0.1399999999999989
 10
0.4900000000000003
 20
0.1215524578114309
 10
0.4950000000000003
 20
0.0994987437106604
 10
0.5
 20
0.0
 97
        0
 75
     0
 76
     1
 98
        0
  0
HATCH
  5
14A
330
148
100
AcDbEntity
  8
0
 62
     0
370
    -2
100
AcDbHatch
 10
0.0
 20
0.0
 30
0.0
210
0.0
220
0.0
230
1.0
  2
SOLID
 70
     1
 71
     1
 91
        1
 92
        3
 72
     0
 73
     1
 93
      102
 10
0.0
 20
0.0
 10
-0.5
 20
0.0
 10
-0.495
 20
0.0
 10
-0.49
 20
-0.0705336798983295
 10
-0.485
 20
-0.0994987437106621
 10
-0.48
 20
-0.1215524578114322
 10
-0.475
 20
-0.14
 10
-0.47
 20
-0.15612494995996
 10
-0.465
 20
-0.1705872210923199
 10
-0.46
 20
-0.1837797594948911
 10
-0.455
 20
-0.1959591794226544
 10
-0.45
 20
-0.2073041244162789
 10
-0.445
 20
-0.2179449471770338
 10
-0.4399999999999999
 20
-0.2279802623035601
 10
-0.4349999999999999
 20
-0.2374868417407584
 10
-0.4299999999999999
 20
-0.2465258607124211
 10
-0.4249999999999999
 20
-0.2551470164434615
 10
-0.4199999999999999
 20
-0.2633913438213186
 10
-0.4149999999999999
 20
-0.2712931993250108
 10
-0.4099999999999999
 20
-0.2788816953476869
 10
-0.4049999999999999
 20
-0.2861817604250838
 10
-0.3999999999999999
 20
-0.2932149382279151
 10
-0.3949999999999999
 20
-0.3000000000000002
 10
-0.3899999999999999
 20
-0.3065534211193868
 10
-0.3849999999999999
 20
-0.3128897569432404
 10
-0.3799999999999999
 20
-0.3190219428189855
 10
-0.3749999999999999
 20
-0.3249615361854385
 10
-0.3699999999999999
 20
-0.330718913883074
 10
-0.3649999999999999
 20
-0.3363034344160049
 10
-0.3599999999999999
 20
-0.3417235724968357
 10
-0.3549999999999999
 20
-0.3469870314579496
 10
-0.3499999999999999
 20
-0.3521008378291652
 10
-0.3449999999999999
 20
-0.3570714214271427
 10
-0.3399999999999999
 20
-0.3619046835839516
 10
-0.3349999999999999
 20
-0.3666060555964674
 10
-0.3299999999999998
 20
-0.3711805490593494
 10
-0.3249999999999998
 20
-0.3756327994198591
 10
-0.3199999999999998
 20
-0.3799671038392667
 10
-0.3149999999999998
 20
-0.3841874542459711
 10
-0.3099999999999998
 20
-0.3882975663070786
 10
-0.3049999999999998
 20
-0.3923009049186608
 10
-0.2999999999999998
 20
-0.3962007067131507
 10
-0.2949999999999998
 20
-0.4000000000000001
 10
-0.2899999999999998
 20
-0.4037016224886891
 10
-0.2849999999999998
 20
-0.4073082370883261
 10
-0.2799999999999998
 20
-0.4108223460329296
 10
-0.2749999999999998
 20
-0.4142463035441597
 10
-0.2699999999999998
 20
-0.4175823272122518
 10
-0.2649999999999998
 20
-0.4208325082500164
 10
-0.2599999999999998
 20
-0.4239988207530773
 10
-0.2549999999999998
 20
-0.4270831300812526
 10
-0.2499999999999998
 20
-0.4300872004605579
 10
-0.2449999999999998
 20
-0.4330127018922195
 10
-0.2399999999999998
 20
-0.4358612164439503
 10
-0.2349999999999998
 20
-0.4386342439892263
 10
-0.2299999999999998
 20
-0.4413332074521473
 10
-0.2249999999999998
 20
-0.4439594576084624
 10
-0.2199999999999998
 20
-0.4465142774872939
 10
-0.2149999999999997
 20
-0.4489988864128731
 10
-0.2099999999999997
 20
-0.4514144437210667
 10
-0.2049999999999997
 20
-0.4537620521815372
 10
-0.1999999999999997
 20
-0.4560427611529429
 10
-0.1949999999999997
 20
-0.4582575694955841
 10
-0.1899999999999997
 20
-0.4604074282632722
 10
-0.1849999999999997
 20
-0.4624932431938872
 10
-0.1799999999999997
 20
-0.4645158770160608
 10
-0.1749999999999997
 20
-0.4664761515876241
 10
-0.1699999999999997
 20
-0.46837484987988
 10
-0.1649999999999997
 20
-0.47021271782035
 10
-0.1599999999999997
 20
-0.4719904660054058
 10
-0.1549999999999997
 20
-0.4737087712930805
 10
-0.1499999999999997
 20
-0.4753682782853733
 10
-0.1449999999999997
 20
-0.4769696007084729
 10
-0.1399999999999997
 20
-0.4785133226985431
 10
-0.1349999999999997
 20
-0.4800000000000001
 10
-0.1299999999999997
 20
-0.4814301610825812
 10
-0.1249999999999997
 20
-0.4828043081829325
 10
-0.1199999999999997
 20
-0.4841229182759272
 10
-0.1149999999999997
 20
-0.485386443980464
 10
-0.1099999999999997
 20
-0.4865953144040744
 10
-0.1049999999999996
 20
-0.487749935930288
 10
-0.0999999999999996
 20
-0.4888506929523574
 10
-0.0949999999999996
 20
-0.4898979485566357
 10
-0.0899999999999996
 20
-0.4908920451586072
 10
-0.0849999999999996
 20
-0.4918333050943176
 10
-0.0799999999999996
 20
-0.4927220311697053
 10
-0.0749999999999996
 20
-0.4935585071701227
 10
-0.0699999999999996
 20
-0.4943429983321298
 10
-0.0649999999999996
 20
-0.4950757517794626
 10
-0.0599999999999996
 20
-0.4957569969249048
 10
-0.0549999999999996
 20
-0.4963869458396343
 10
-0.0499999999999996
 20
-0.4969657935914705
 10
-0.0449999999999996
 20
-0.49749371855331
 10
-0.0399999999999996
 20
-0.4979708826829135
 10
-0.0349999999999996
 20
-0.4983974317750846
 10
-0.0299999999999996
 20
-0.4987734956871706
 10
-0.0249999999999996
 20
-0.4990991885387112
 10
-0.0199999999999996
 20
-0.4993746088859545
 10
-0.0149999999999996
 20
-0.4995998398718719
 10
-0.0099999999999996
 20
-0.499774949352206
 10
-0.0049999999999996
 20
-0.4998999899979995
 10
0.0
 20
-0.5
 97
        0
 75
     0
 76
     1
 98
        0
  0
CIRCLE
  5
14B
330
148
100
AcDbEntity
  8
0
 62
     0
370
    -2
100
AcDbCircle
 10
0.0
 20
0.0
 30
0.0
 40
0.5
  0
ENDBLK
  5
14D
330
148
100
AcDbEntity
  8
0
100
AcDbBlockEnd
  0
BLOCK
  5
156
330
14E
100
AcDbEntity
  8
0
100
AcDbBlockBegin
  2
CDWK_PTTYP41
 70
     0
 10
0.0
 20
0.0
 30
0.0
  3
CDWK_PTTYP41
  1

  0
LINE
  5
14F
330
14E
100
AcDbEntity
  8
0
 62
     0
370
    -2
100
AcDbLine
 10
-0.5
 20
0.5
 30
0.0
 11
0.5
 21
0.5
 31
0.0
  0
LINE
  5
150
330
14E
100
AcDbEntity
  8
0
 62
     0
370
    -2
100
AcDbLine
 10
0.5
 20
0.5
 30
0.0
 11
0.5
 21
-0.5
 31
0.0
  0
LINE
  5
151
330
14E
100
AcDbEntity
  8
0
 62
     0
370
    -2
100
AcDbLine
 10
0.5
 20
-0.5
 30
0.0
 11
-0.5
 21
-0.5
 31
0.0
  0
LINE
  5
152
330
14E
100
AcDbEntity
  8
0
 62
     0
370
    -2
100
AcDbLine
 10
-0.5
 20
-0.5
 30
0.0
 11
-0.5
 21
0.5
 31
0.0
  0
LINE
  5
153
330
14E
100
AcDbEntity
  8
0
 62
     0
370
    -2
100
AcDbLine
 10
-0.375
 20
0.25
 30
0.0
 11
0.375
 21
0.25
 31
0.0
  0
LINE
  5
154
330
14E
100
AcDbEntity
  8
0
 62
     0
370
    -2
100
AcDbLine
 10
-0.375
 20
0.0
 30
0.0
 11
0.375
 21
0.0
 31
0.0
  0
LINE
  5
155
330
14E
100
AcDbEntity
  8
0
 62
     0
370
    -2
100
AcDbLine
 10
-0.375
 20
-0.25
 30
0.0
 11
0.375
 21
-0.25
 31
0.0
  0
ENDBLK
  5
157
330
14E
100
AcDbEntity
  8
0
100
AcDbBlockEnd
  0
BLOCK
  5
15F
330
158
100
AcDbEntity
  8
0
100
AcDbBlockBegin
  2
CDWK_PTTYP42
 70
     0
 10
0.0
 20
0.0
 30
0.0
  3
CDWK_PTTYP42
  1

  0
LINE
  5
159
330
158
100
AcDbEntity
  8
0
 62
     0
370
    -2
100
AcDbLine
 10
-0.5
 20
0.5
 30
0.0
 11
0.5
 21
0.5
 31
0.0
  0
LINE
  5
15A
330
158
100
AcDbEntity
  8
0
 62
     0
370
    -2
100
AcDbLine
 10
0.5
 20
0.5
 30
0.0
 11
0.5
 21
-0.5
 31
0.0
  0
LINE
  5
15B
330
158
100
AcDbEntity
  8
0
 62
     0
370
    -2
100
AcDbLine
 10
0.5
 20
-0.5
 30
0.0
 11
-0.5
 21
-0.5
 31
0.0
  0
LINE
  5
15C
330
158
100
AcDbEntity
  8
0
 62
     0
370
    -2
100
AcDbLine
 10
-0.5
 20
-0.5
 30
0.0
 11
-0.5
 21
0.5
 31
0.0
  0
LINE
  5
15D
330
158
100
AcDbEntity
  8
0
 62
     0
370
    -2
100
AcDbLine
 10
-0.375
 20
0.125
 30
0.0
 11
0.375
 21
0.125
 31
0.0
  0
LINE
  5
15E
330
158
100
AcDbEntity
  8
0
 62
     0
370
    -2
100
AcDbLine
 10
-0.375
 20
-0.125
 30
0.0
 11
0.375
 21
-0.125
 31
0.0
  0
ENDBLK
  5
160
330
158
100
AcDbEntity
  8
0
100
AcDbBlockEnd
  0
BLOCK
  5
165
330
161
100
AcDbEntity
  8
0
100
AcDbBlockBegin
  2
CDWK_PTTYP43
 70
     0
 10
0.0
 20
0.0
 30
0.0
  3
CDWK_PTTYP43
  1

  0
CIRCLE
  5
162
330
161
100
AcDbEntity
  8
0
 62
     0
370
    -2
100
AcDbCircle
 10
0.0
 20
0.0
 30
0.0
 40
0.5
  0
LINE
  5
163
330
161
100
AcDbEntity
  8
0
 62
     0
370
    -2
100
AcDbLine
 10
-0.375
 20
0.166
 30
0.0
 11
0.375
 21
0.166
 31
0.0
  0
LINE
  5
164
330
161
100
AcDbEntity
  8
0
 62
     0
370
    -2
100
AcDbLine
 10
-0.375
 20
-0.166
 30
0.0
 11
0.375
 21
-0.166
 31
0.0
  0
ENDBLK
  5
166
330
161
100
AcDbEntity
  8
0
100
AcDbBlockEnd
  0
BLOCK
  5
16E
330
167
100
AcDbEntity
  8
0
100
AcDbBlockBegin
  2
CDWK_PTTYP44
 70
     0
 10
0.0
 20
0.0
 30
0.0
  3
CDWK_PTTYP44
  1

  0
CIRCLE
  5
168
330
167
100
AcDbEntity
  8
0
 62
     0
370
    -2
100
AcDbCircle
 10
0.0
 20
0.0
 30
0.0
 40
0.5
  0
LINE
  5
169
330
167
100
AcDbEntity
  8
0
 62
     0
370
    -2
100
AcDbLine
 10
-0.375
 20
0.333
 30
0.0
 11
0.375
 21
0.333
 31
0.0
  0
LINE
  5
16A
330
167
100
AcDbEntity
  8
0
 62
     0
370
    -2
100
AcDbLine
 10
-0.375
 20
0.166
 30
0.0
 11
0.375
 21
0.166
 31
0.0
  0
LINE
  5
16B
330
167
100
AcDbEntity
  8
0
 62
     0
370
    -2
100
AcDbLine
 10
-0.375
 20
0.0
 30
0.0
 11
0.375
 21
0.0
 31
0.0
  0
LINE
  5
16C
330
167
100
AcDbEntity
  8
0
 62
     0
370
    -2
100
AcDbLine
 10
-0.375
 20
-0.166
 30
0.0
 11
0.375
 21
-0.166
 31
0.0
  0
LINE
  5
16D
330
167
100
AcDbEntity
  8
0
 62
     0
370
    -2
100
AcDbLine
 10
-0.375
 20
-0.333
 30
0.0
 11
0.375
 21
-0.333
 31
0.0
  0
ENDBLK
  5
16F
330
167
100
AcDbEntity
  8
0
100
AcDbBlockEnd
  0
BLOCK
  5
173
330
170
100
AcDbEntity
  8
0
100
AcDbBlockBegin
  2
CDWK_PTTYP45
 70
     0
 10
0.0
 20
0.0
 30
0.0
  3
CDWK_PTTYP45
  1

  0
ELLIPSE
  5
171
330
170
100
AcDbEntity
  8
0
 62
     0
370
    -2
100
AcDbEllipse
 10
0.0
 20
0.0
 30
0.0
 11
0.5
 21
0.0
 31
0.0
210
0.0
220
0.0
230
1.0
 40
0.82
 41
0.0
 42
6.283185307179586
  0
CIRCLE
  5
172
330
170
100
AcDbEntity
  8
0
 62
     0
370
    -2
100
AcDbCircle
 10
-0.235
 20
0.0
 30
0.0
 40
0.26
  0
ENDBLK
  5
174
330
170
100
AcDbEntity
  8
0
100
AcDbBlockEnd
  0
BLOCK
  5
178
330
175
100
AcDbEntity
  8
0
100
AcDbBlockBegin
  2
CDWK_PTTYP46
 70
     0
 10
0.0
 20
0.0
 30
0.0
  3
CDWK_PTTYP46
  1

  0
ELLIPSE
  5
176
330
175
100
AcDbEntity
  8
0
 62
     0
370
    -2
100
AcDbEllipse
 10
0.0
 20
0.0
 30
0.0
 11
0.5
 21
0.0
 31
0.0
210
0.0
220
0.0
230
1.0
 40
0.82
 41
0.0
 42
6.283185307179586
  0
CIRCLE
  5
177
330
175
100
AcDbEntity
  8
0
 62
     0
370
    -2
100
AcDbCircle
 10
0.0
 20
0.15
 30
0.0
 40
0.26
  0
ENDBLK
  5
179
330
175
100
AcDbEntity
  8
0
100
AcDbBlockEnd
  0
BLOCK
  5
180
330
17A
100
AcDbEntity
  8
0
100
AcDbBlockBegin
  2
CDWK_PTTYP47
 70
     0
 10
0.0
 20
0.0
 30
0.0
  3
CDWK_PTTYP47
  1

  0
LINE
  5
17B
330
17A
100
AcDbEntity
  8
0
 62
     0
370
    -2
100
AcDbLine
 10
-0.5
 20
0.166
 30
0.0
 11
0.5
 21
0.166
 31
0.0
  0
LINE
  5
17C
330
17A
100
AcDbEntity
  8
0
 62
     0
370
    -2
100
AcDbLine
 10
0.5
 20
0.166
 30
0.0
 11
0.5
 21
-0.166
 31
0.0
  0
LINE
  5
17D
330
17A
100
AcDbEntity
  8
0
 62
     0
370
    -2
100
AcDbLine
 10
0.5
 20
-0.166
 30
0.0
 11
-0.5
 21
-0.166
 31
0.0
  0
LINE
  5
17E
330
17A
100
AcDbEntity
  8
0
 62
     0
370
    -2
100
AcDbLine
 10
-0.5
 20
-0.166
 30
0.0
 11
-0.5
 21
0.166
 31
0.0
  0
CIRCLE
  5
17F
330
17A
100
AcDbEntity
  8
0
 62
     0
370
    -2
100
AcDbCircle
 10
0.0
 20
-0.313
 30
0.0
 40
0.4
  0
ENDBLK
  5
181
330
17A
100
AcDbEntity
  8
0
100
AcDbBlockEnd
  0
BLOCK
  5
186
330
183
100
AcDbEntity
  8
0
100
AcDbBlockBegin
  2
CDWK_PTTYP48
 70
     0
 10
0.0
 20
0.0
 30
0.0
  3
CDWK_PTTYP48
  1

  0
CIRCLE
  5
184
330
183
100
AcDbEntity
  8
0
  6
CADWORK_3
 62
     0
 48
0.1
370
    -2
100
AcDbCircle
 10
0.0
 20
0.0
 30
0.0
 40
0.5
  0
CIRCLE
  5
185
330
183
100
AcDbEntity
  8
0
 62
     0
370
    -2
100
AcDbCircle
 10
0.0
 20
0.0
 30
0.0
 40
0.25
  0
ENDBLK
  5
187
330
183
100
AcDbEntity
  8
0
100
AcDbBlockEnd
  0
BLOCK
  5
18D
330
188
100
AcDbEntity
  8
0
100
AcDbBlockBegin
  2
CDWK_PTTYP49
 70
     0
 10
0.0
 20
0.0
 30
0.0
  3
CDWK_PTTYP49
  1

  0
LINE
  5
189
330
188
100
AcDbEntity
  8
0
 62
     0
370
    -2
100
AcDbLine
 10
-0.5
 20
0.166
 30
0.0
 11
0.5
 21
0.166
 31
0.0
  0
LINE
  5
18A
330
188
100
AcDbEntity
  8
0
 62
     0
370
    -2
100
AcDbLine
 10
0.5
 20
0.166
 30
0.0
 11
0.5
 21
-0.166
 31
0.0
  0
LINE
  5
18B
330
188
100
AcDbEntity
  8
0
 62
     0
370
    -2
100
AcDbLine
 10
0.5
 20
-0.166
 30
0.0
 11
-0.5
 21
-0.166
 31
0.0
  0
LINE
  5
18C
330
188
100
AcDbEntity
  8
0
 62
     0
370
    -2
100
AcDbLine
 10
-0.5
 20
-0.166
 30
0.0
 11
-0.5
 21
0.166
 31
0.0
  0
ENDBLK
  5
18E
330
188
100
AcDbEntity
  8
0
100
AcDbBlockEnd
  0
BLOCK
  5
197
330
18F
100
AcDbEntity
  8
0
100
AcDbBlockBegin
  2
CDWK_PTTYP50
 70
     0
 10
0.0
 20
0.0
 30
0.0
  3
CDWK_PTTYP50
  1

  0
LINE
  5
190
330
18F
100
AcDbEntity
  8
0
 62
     0
370
    -2
100
AcDbLine
 10
-0.5
 20
0.166
 30
0.0
 11
0.5
 21
0.166
 31
0.0
  0
LINE
  5
191
330
18F
100
AcDbEntity
  8
0
 62
     0
370
    -2
100
AcDbLine
 10
0.5
 20
0.166
 30
0.0
 11
0.5
 21
-0.166
 31
0.0
  0
LINE
  5
192
330
18F
100
AcDbEntity
  8
0
 62
     0
370
    -2
100
AcDbLine
 10
0.5
 20
-0.166
 30
0.0
 11
-0.5
 21
-0.166
 31
0.0
  0
LINE
  5
193
330
18F
100
AcDbEntity
  8
0
 62
     0
370
    -2
100
AcDbLine
 10
-0.5
 20
-0.166
 30
0.0
 11
-0.5
 21
0.166
 31
0.0
  0
LINE
  5
194
330
18F
100
AcDbEntity
  8
0
 62
     0
370
    -2
100
AcDbLine
 10
-0.25
 20
-0.166
 30
0.0
 11
-0.25
 21
0.166
 31
0.0
  0
LINE
  5
195
330
18F
100
AcDbEntity
  8
0
 62
     0
370
    -2
100
AcDbLine
 10
0.0
 20
-0.166
 30
0.0
 11
0.0
 21
0.166
 31
0.0
  0
LINE
  5
196
330
18F
100
AcDbEntity
  8
0
 62
     0
370
    -2
100
AcDbLine
 10
0.25
 20
-0.166
 30
0.0
 11
0.25
 21
0.166
 31
0.0
  0
ENDBLK
  5
198
330
18F
100
AcDbEntity
  8
0
100
AcDbBlockEnd
  0
BLOCK
  5
19C
330
199
100
AcDbEntity
  8
0
100
AcDbBlockBegin
  2
CDWK_PTTYP51
 70
     0
 10
0.0
 20
0.0
 30
0.0
  3
CDWK_PTTYP51
  1

  0
SPLINE
  5
19A
330
199
100
AcDbEntity
  8
0
 62
     0
370
    -2
100
AcDbSpline
210
0.0
220
0.0
230
1.0
 70
  1064
 71
     3
 72
    12
 73
     8
 74
     6
 42
0.000000001
 43
0.0000000001
 44
0.0000000001
 40
0.0
 40
0.0
 40
0.0
 40
0.0
 40
0.1690118339052032
 40
0.5175774661755118
 40
0.8011704844252565
 40
0.9154070810132151
 40
0.975822310881188
 40
0.975822310881188
 40
0.975822310881188
 40
0.975822310881188
 10
-0.5
 20
-0.077
 30
0.0
 10
-0.443824324006723
 20
-0.0900581618560981
 30
0.0
 10
-0.2717933876546281
 20
-0.1300471387828842
 30
0.0
 10
-0.0276699186086479
 20
-0.0006977790990417
 30
0.0
 10
0.2303349729129116
 20
0.0817803270207037
 30
0.0
 10
0.3686157174766292
 20
0.0066250198607167
 30
0.0
 10
0.4216533294581816
 20
-0.0168719667726145
 30
0.0
 10
0.44
 20
-0.025
 30
0.0
 11
-0.5
 21
-0.077
 31
0.0
 11
-0.333
 21
-0.103
 31
0.0
 11
0.0
 21
0.0
 31
0.0
 11
0.28
 21
0.045
 31
0.0
 11
0.385
 21
0.0
 31
0.0
 11
0.44
 21
-0.025
 31
0.0
  0
HATCH
  5
19B
330
199
100
AcDbEntity
  8
0
 62
     0
370
    -2
100
AcDbHatch
 10
0.0
 20
0.0
 30
0.0
210
0.0
220
0.0
230
1.0
  2
SOLID
 70
     1
 71
     1
 91
        1
 92
        3
 72
     0
 73
     1
 93
        3
 10
0.365
 20
-0.05
 10
0.5
 20
-0.042
 10
0.395
 20
0.045
 97
        0
 75
     0
 76
     1
 98
        0
  0
ENDBLK
  5
19D
330
199
100
AcDbEntity
  8
0
100
AcDbBlockEnd
  0
BLOCK
  5
1A2
330
19E
100
AcDbEntity
  8
0
100
AcDbBlockBegin
  2
CDWK_PTTYP52
 70
     0
 10
0.0
 20
0.0
 30
0.0
  3
CDWK_PTTYP52
  1

  0
LINE
  5
19F
330
19E
100
AcDbEntity
  8
0
 62
     0
370
    -2
100
AcDbLine
 10
-0.5
 20
-0.289
 30
0.0
 11
0.5
 21
-0.289
 31
0.0
  0
LINE
  5
1A0
330
19E
100
AcDbEntity
  8
0
 62
     0
370
    -2
100
AcDbLine
 10
0.5
 20
-0.289
 30
0.0
 11
0.0
 21
0.577
 31
0.0
  0
LINE
  5
1A1
330
19E
100
AcDbEntity
  8
0
 62
     0
370
    -2
100
AcDbLine
 10
0.0
 20
0.577
 30
0.0
 11
-0.5
 21
-0.289
 31
0.0
  0
ENDBLK
  5
1A3
330
19E
100
AcDbEntity
  8
0
100
AcDbBlockEnd
  0
BLOCK
  5
1A9
330
1A4
100
AcDbEntity
  8
0
100
AcDbBlockBegin
  2
cw-dimension-symbol1
 70
     0
 10
0.0
 20
0.0
 30
0.0
  3
cw-dimension-symbol1
  1

  0
LINE
  5
1A5
330
1A4
100
AcDbEntity
  8
0
 62
     0
370
    -2
100
AcDbLine
 10
0.0
 20
0.0
 30
0.0
 11
-1.0
 21
0.25
 31
0.0
  0
LINE
  5
1A6
330
1A4
100
AcDbEntity
  8
0
 62
     0
370
    -2
100
AcDbLine
 10
0.0
 20
0.0
 30
0.0
 11
-1.0
 21
-0.25
 31
0.0
  0
LINE
  5
1A7
330
1A4
100
AcDbEntity
  8
0
 62
     0
370
    -2
100
AcDbLine
 10
-1.0
 20
0.25
 30
0.0
 11
-1.0
 21
-0.25
 31
0.0
  0
LINE
  5
1A8
330
1A4
100
AcDbEntity
  8
0
 62
     0
370
    -2
100
AcDbLine
 10
0.0
 20
0.0
 30
0.0
 11
-1.0
 21
0.0
 31
0.0
  0
ENDBLK
  5
1AA
330
1A4
100
AcDbEntity
  8
0
100
AcDbBlockEnd
  0
BLOCK
  5
1AE
330
1AB
100
AcDbEntity
  8
0
100
AcDbBlockBegin
  2
cw-dimension-symbol2
 70
     0
 10
0.0
 20
0.0
 30
0.0
  3
cw-dimension-symbol2
  1

  0
LINE
  5
1AC
330
1AB
100
AcDbEntity
  8
0
 62
     0
370
    -2
100
AcDbLine
 10
-1.0
 20
0.0
 30
0.0
 11
1.0
 21
0.0
 31
0.0
  0
LINE
  5
1AD
330
1AB
100
AcDbEntity
  8
0
 62
     0
370
    -2
100
AcDbLine
 10
-0.5
 20
-0.5
 30
0.0
 11
0.5
 21
0.5
 31
0.0
  0
ENDBLK
  5
1AF
330
1AB
100
AcDbEntity
  8
0
100
AcDbBlockEnd
  0
BLOCK
  5
1B3
330
1B0
100
AcDbEntity
  8
0
100
AcDbBlockBegin
  2
cw-dimension-symbol3
 70
     0
 10
0.0
 20
0.0
 30
0.0
  3
cw-dimension-symbol3
  1

  0
LINE
  5
1B1
330
1B0
100
AcDbEntity
  8
0
 62
     0
370
    -2
100
AcDbLine
 10
-1.0
 20
0.0
 30
0.0
 11
1.0
 21
0.0
 31
0.0
  0
CIRCLE
  5
1B2
330
1B0
100
AcDbEntity
  8
0
 62
     0
370
    -2
100
AcDbCircle
 10
0.0
 20
0.0
 30
0.0
 40
0.25
  0
ENDBLK
  5
1B4
330
1B0
100
AcDbEntity
  8
0
100
AcDbBlockEnd
  0
BLOCK
  5
1BA
330
1B5
100
AcDbEntity
  8
0
100
AcDbBlockBegin
  2
cw-dimension-symbol5
 70
     0
 10
0.0
 20
0.0
 30
0.0
  3
cw-dimension-symbol5
  1

  0
HATCH
  5
1B6
330
1B5
100
AcDbEntity
  8
0
 62
     0
370
    -2
100
AcDbHatch
 10
0.0
 20
0.0
 30
0.0
210
0.0
220
0.0
230
1.0
  2
SOLID
 70
     1
 71
     1
 91
        1
 92
        3
 72
     0
 73
     1
 93
        3
 10
0.0
 20
0.0
 10
-1.0
 20
0.25
 10
-1.0
 20
-0.25
 97
        0
 75
     0
 76
     1
 98
        0
  0
LINE
  5
1B7
330
1B5
100
AcDbEntity
  8
0
 62
     0
370
    -2
100
AcDbLine
 10
0.0
 20
0.0
 30
0.0
 11
-1.0
 21
0.25
 31
0.0
  0
LINE
  5
1B8
330
1B5
100
AcDbEntity
  8
0
 62
     0
370
    -2
100
AcDbLine
 10
-1.0
 20
0.25
 30
0.0
 11
-1.0
 21
-0.25
 31
0.0
  0
LINE
  5
1B9
330
1B5
100
AcDbEntity
  8
0
 62
     0
370
    -2
100
AcDbLine
 10
-1.0
 20
-0.25
 30
0.0
 11
0.0
 21
0.0
 31
0.0
  0
ENDBLK
  5
1BB
330
1B5
100
AcDbEntity
  8
0
100
AcDbBlockEnd
  0
BLOCK
  5
1C0
330
1BC
100
AcDbEntity
  8
0
100
AcDbBlockBegin
  2
cw-dimension-symbol6
 70
     0
 10
0.0
 20
0.0
 30
0.0
  3
cw-dimension-symbol6
  1

  0
LINE
  5
1BD
330
1BC
100
AcDbEntity
  8
0
 62
     0
370
    -2
100
AcDbLine
 10
0.0
 20
0.0
 30
0.0
 11
-1.0
 21
0.25
 31
0.0
  0
LINE
  5
1BE
330
1BC
100
AcDbEntity
  8
0
 62
     0
370
    -2
100
AcDbLine
 10
0.0
 20
0.0
 30
0.0
 11
-1.0
 21
-0.25
 31
0.0
  0
LINE
  5
1BF
330
1BC
100
AcDbEntity
  8
0
 62
     0
370
    -2
100
AcDbLine
 10
0.0
 20
0.0
 30
0.0
 11
-1.0
 21
0.0
 31
0.0
  0
ENDBLK
  5
1C1
330
1BC
100
AcDbEntity
  8
0
100
AcDbBlockEnd
  0
BLOCK
  5
1C6
330
1C2
100
AcDbEntity
  8
0
100
AcDbBlockBegin
  2
cw-dimension-symbol11
 70
     0
 10
0.0
 20
0.0
 30
0.0
  3
cw-dimension-symbol11
  1

  0
LINE
  5
1C3
330
1C2
100
AcDbEntity
  8
0
 62
     0
370
    -2
100
AcDbLine
 10
-1.0
 20
1.0
 30
0.0
 11
1.0
 21
1.0
 31
0.0
  0
LINE
  5
1C4
330
1C2
100
AcDbEntity
  8
0
 62
     0
370
    -2
100
AcDbLine
 10
0.0
 20
0.0
 30
0.0
 11
-1.0
 21
1.0
 31
0.0
  0
LINE
  5
1C5
330
1C2
100
AcDbEntity
  8
0
 62
     0
370
    -2
100
AcDbLine
 10
0.0
 20
0.0
 30
0.0
 11
1.0
 21
1.0
 31
0.0
  0
ENDBLK
  5
1C7
330
1C2
100
AcDbEntity
  8
0
100
AcDbBlockEnd
  0
BLOCK
  5
1CC
330
1C8
100
AcDbEntity
  8
0
100
AcDbBlockBegin
  2
cw-dimension-symbol13
 70
     0
 10
0.0
 20
0.0
 30
0.0
  3
cw-dimension-symbol13
  1

  0
LINE
  5
1C9
330
1C8
100
AcDbEntity
  8
0
 62
     0
370
    -2
100
AcDbLine
 10
-1.0
 20
-1.0
 30
0.0
 11
1.0
 21
-1.0
 31
0.0
  0
LINE
  5
1CA
330
1C8
100
AcDbEntity
  8
0
 62
     0
370
    -2
100
AcDbLine
 10
0.0
 20
0.0
 30
0.0
 11
-1.0
 21
-1.0
 31
0.0
  0
LINE
  5
1CB
330
1C8
100
AcDbEntity
  8
0
 62
     0
370
    -2
100
AcDbLine
 10
0.0
 20
0.0
 30
0.0
 11
1.0
 21
-1.0
 31
0.0
  0
ENDBLK
  5
1CD
330
1C8
100
AcDbEntity
  8
0
100
AcDbBlockEnd
  0
BLOCK
  5
1D3
330
1CE
100
AcDbEntity
  8
0
100
AcDbBlockBegin
  2
cw-dimension-symbol15
 70
     0
 10
0.0
 20
0.0
 30
0.0
  3
cw-dimension-symbol15
  1

  0
HATCH
  5
1CF
330
1CE
100
AcDbEntity
  8
0
 62
     0
370
    -2
100
AcDbHatch
 10
0.0
 20
0.0
 30
0.0
210
0.0
220
0.0
230
1.0
  2
SOLID
 70
     1
 71
     1
 91
        1
 92
        3
 72
     0
 73
     1
 93
        3
 10
0.0
 20
0.0
 10
-1.0
 20
1.0
 10
1.0
 20
1.0
 97
        0
 75
     0
 76
     1
 98
        0
  0
LINE
  5
1D0
330
1CE
100
AcDbEntity
  8
0
 62
     0
370
    -2
100
AcDbLine
 10
0.0
 20
0.0
 30
0.0
 11
-1.0
 21
1.0
 31
0.0
  0
LINE
  5
1D1
330
1CE
100
AcDbEntity
  8
0
 62
     0
370
    -2
100
AcDbLine
 10
-1.0
 20
1.0
 30
0.0
 11
1.0
 21
1.0
 31
0.0
  0
LINE
  5
1D2
330
1CE
100
AcDbEntity
  8
0
 62
     0
370
    -2
100
AcDbLine
 10
1.0
 20
1.0
 30
0.0
 11
0.0
 21
0.0
 31
0.0
  0
ENDBLK
  5
1D4
330
1CE
100
AcDbEntity
  8
0
100
AcDbBlockEnd
  0
BLOCK
  5
1DA
330
1D5
100
AcDbEntity
  8
0
100
AcDbBlockBegin
  2
cw-dimension-symbol16
 70
     0
 10
0.0
 20
0.0
 30
0.0
  3
cw-dimension-symbol16
  1

  0
HATCH
  5
1D6
330
1D5
100
AcDbEntity
  8
0
 62
     0
370
    -2
100
AcDbHatch
 10
0.0
 20
0.0
 30
0.0
210
0.0
220
0.0
230
1.0
  2
SOLID
 70
     1
 71
     1
 91
        1
 92
        3
 72
     0
 73
     1
 93
        3
 10
0.0
 20
0.0
 10
-1.0
 20
-1.0
 10
1.0
 20
-1.0
 97
        0
 75
     0
 76
     1
 98
        0
  0
LINE
  5
1D7
330
1D5
100
AcDbEntity
  8
0
 62
     0
370
    -2
100
AcDbLine
 10
0.0
 20
0.0
 30
0.0
 11
-1.0
 21
-1.0
 31
0.0
  0
LINE
  5
1D8
330
1D5
100
AcDbEntity
  8
0
 62
     0
370
    -2
100
AcDbLine
 10
-1.0
 20
-1.0
 30
0.0
 11
1.0
 21
-1.0
 31
0.0
  0
LINE
  5
1D9
330
1D5
100
AcDbEntity
  8
0
 62
     0
370
    -2
100
AcDbLine
 10
1.0
 20
-1.0
 30
0.0
 11
0.0
 21
0.0
 31
0.0
  0
ENDBLK
  5
1DB
330
1D5
100
AcDbEntity
  8
0
100
AcDbBlockEnd
  0
BLOCK
  5
1E1
330
1DC
100
AcDbEntity
  8
0
100
AcDbBlockBegin
  2
cw-dimension-symbol17
 70
     0
 10
0.0
 20
0.0
 30
0.0
  3
cw-dimension-symbol17
  1

  0
LINE
  5
1DD
330
1DC
100
AcDbEntity
  8
0
 62
     0
370
    -2
100
AcDbLine
 10
0.0
 20
0.0
 30
0.0
 11
1.0
 21
1.0
 31
0.0
  0
LINE
  5
1DE
330
1DC
100
AcDbEntity
  8
0
 62
     0
370
    -2
100
AcDbLine
 10
1.0
 20
1.0
 30
0.0
 11
-1.0
 21
1.0
 31
0.0
  0
LINE
  5
1DF
330
1DC
100
AcDbEntity
  8
0
 62
     0
370
    -2
100
AcDbLine
 10
-1.0
 20
1.0
 30
0.0
 11
0.0
 21
0.0
 31
0.0
  0
HATCH
  5
1E0
330
1DC
100
AcDbEntity
  8
0
 62
     0
370
    -2
100
AcDbHatch
 10
0.0
 20
0.0
 30
0.0
210
0.0
220
0.0
230
1.0
  2
SOLID
 70
     1
 71
     1
 91
        1
 92
        3
 72
     0
 73
     1
 93
        3
 10
0.0
 20
0.0
 10
-1.0
 20
1.0
 10
0.0
 20
1.0
 97
        0
 75
     0
 76
     1
 98
        0
  0
ENDBLK
  5
1E2
330
1DC
100
AcDbEntity
  8
0
100
AcDbBlockEnd
  0
BLOCK
  5
1E8
330
1E3
100
AcDbEntity
  8
0
100
AcDbBlockBegin
  2
cw-dimension-symbol18
 70
     0
 10
0.0
 20
0.0
 30
0.0
  3
cw-dimension-symbol18
  1

  0
LINE
  5
1E4
330
1E3
100
AcDbEntity
  8
0
 62
     0
370
    -2
100
AcDbLine
 10
0.0
 20
0.0
 30
0.0
 11
1.0
 21
-1.0
 31
0.0
  0
LINE
  5
1E5
330
1E3
100
AcDbEntity
  8
0
 62
     0
370
    -2
100
AcDbLine
 10
1.0
 20
-1.0
 30
0.0
 11
-1.0
 21
-1.0
 31
0.0
  0
LINE
  5
1E6
330
1E3
100
AcDbEntity
  8
0
 62
     0
370
    -2
100
AcDbLine
 10
-1.0
 20
-1.0
 30
0.0
 11
0.0
 21
0.0
 31
0.0
  0
HATCH
  5
1E7
330
1E3
100
AcDbEntity
  8
0
 62
     0
370
    -2
100
AcDbHatch
 10
0.0
 20
0.0
 30
0.0
210
0.0
220
0.0
230
1.0
  2
SOLID
 70
     1
 71
     1
 91
        1
 92
        3
 72
     0
 73
     1
 93
        3
 10
0.0
 20
0.0
 10
-1.0
 20
-1.0
 10
0.0
 20
-1.0
 97
        0
 75
     0
 76
     1
 98
        0
  0
ENDBLK
  5
1E9
330
1E3
100
AcDbEntity
  8
0
100
AcDbBlockEnd
  0
BLOCK
  5
1EB
330
1EA
100
AcDbEntity
  8
0
100
AcDbBlockBegin
  2
cw-dimension-symbol19
 70
     0
 10
0.0
 20
0.0
 30
0.0
  3
cw-dimension-symbol19
  1

  0
ENDBLK
  5
1EC
330
1EA
100
AcDbEntity
  8
0
100
AcDbBlockEnd
  0
BLOCK
  5
1F2
330
1ED
100
AcDbEntity
  8
0
100
AcDbBlockBegin
  2
cw-dimension-symbol20
 70
     0
 10
0.0
 20
0.0
 30
0.0
  3
cw-dimension-symbol20
  1

  0
LINE
  5
1EE
330
1ED
100
AcDbEntity
  8
0
 62
     0
370
    -2
100
AcDbLine
 10
0.0
 20
0.0
 30
0.0
 11
0.0
 21
2.0
 31
0.0
  0
LINE
  5
1EF
330
1ED
100
AcDbEntity
  8
0
 62
     0
370
    -2
100
AcDbLine
 10
0.0
 20
0.0
 30
0.0
 11
-1.0
 21
0.33
 31
0.0
  0
LINE
  5
1F0
330
1ED
100
AcDbEntity
  8
0
 62
     0
370
    -2
100
AcDbLine
 10
0.0
 20
0.0
 30
0.0
 11
1.0
 21
0.33
 31
0.0
  0
LINE
  5
1F1
330
1ED
100
AcDbEntity
  8
0
 62
     0
370
    -2
100
AcDbLine
 10
0.0
 20
2.0
 30
0.0
 11
4.15
 21
2.0
 31
0.0
  0
ENDBLK
  5
1F3
330
1ED
100
AcDbEntity
  8
0
100
AcDbBlockEnd
  0
BLOCK
  5
1F9
330
1F4
100
AcDbEntity
  8
0
100
AcDbBlockBegin
  2
cw-dimension-symbol21
 70
     0
 10
0.0
 20
0.0
 30
0.0
  3
cw-dimension-symbol21
  1

  0
LINE
  5
1F5
330
1F4
100
AcDbEntity
  8
0
 62
     0
370
    -2
100
AcDbLine
 10
0.0
 20
0.0
 30
0.0
 11
0.0
 21
-2.0
 31
0.0
  0
LINE
  5
1F6
330
1F4
100
AcDbEntity
  8
0
 62
     0
370
    -2
100
AcDbLine
 10
0.0
 20
0.0
 30
0.0
 11
-1.0
 21
-0.33
 31
0.0
  0
LINE
  5
1F7
330
1F4
100
AcDbEntity
  8
0
 62
     0
370
    -2
100
AcDbLine
 10
0.0
 20
0.0
 30
0.0
 11
1.0
 21
-0.33
 31
0.0
  0
LINE
  5
1F8
330
1F4
100
AcDbEntity
  8
0
 62
     0
370
    -2
100
AcDbLine
 10
0.0
 20
-2.0
 30
0.0
 11
4.15
 21
-2.0
 31
0.0
  0
ENDBLK
  5
1FA
330
1F4
100
AcDbEntity
  8
0
100
AcDbBlockEnd
  0
BLOCK
  5
22B
330
1FB
100
AcDbEntity
  8
0
100
AcDbBlockBegin
  2
cw-line-extremity0
 70
     0
 10
0.0
 20
0.0
 30
0.0
  3
cw-line-extremity0
  1

  0
LINE
  5
1FC
330
1FB
100
AcDbEntity
  8
0
 62
     0
370
    -2
100
AcDbLine
 10
0.0
 20
0.0
 30
0.0
 11
4.0
 21
1.0
 31
0.0
  0
LINE
  5
1FD
330
1FB
100
AcDbEntity
  8
0
 62
     0
370
    -2
100
AcDbLine
 10
0.0
 20
0.0
 30
0.0
 11
4.0
 21
-1.0
 31
0.0
  0
LINE
  5
1FE
330
1FB
100
AcDbEntity
  8
0
 62
     0
370
    -2
100
AcDbLine
 10
4.0
 20
1.0
 30
0.0
 11
4.0
 21
-1.0
 31
0.0
  0
ENDBLK
  5
22C
330
1FB
100
AcDbEntity
  8
0
100
AcDbBlockEnd
  0
BLOCK
  5
229
330
1FF
100
AcDbEntity
  8
0
100
AcDbBlockBegin
  2
cw-line-extremity2
 70
     0
 10
0.0
 20
0.0
 30
0.0
  3
cw-line-extremity2
  1

  0
HATCH
  5
200
330
1FF
100
AcDbEntity
  8
0
 62
     0
370
     0
100
AcDbHatch
 10
0.0
 20
0.0
 30
0.0
210
0.0
220
0.0
230
1.0
  2
SOLID
 70
     1
 71
     1
 91
        1
 92
        3
 72
     0
 73
     1
 93
        3
 10
0.0
 20
0.0
 10
4.0
 20
1.0
 10
4.0
 20
-1.0
 97
        0
 75
     0
 76
     1
 98
        0
  0
LINE
  5
201
330
1FF
100
AcDbEntity
  8
0
 62
     0
370
    -2
100
AcDbLine
 10
0.0
 20
0.0
 30
0.0
 11
4.0
 21
1.0
 31
0.0
  0
LINE
  5
202
330
1FF
100
AcDbEntity
  8
0
 62
     0
370
    -2
100
AcDbLine
 10
4.0
 20
1.0
 30
0.0
 11
4.0
 21
-1.0
 31
0.0
  0
LINE
  5
203
330
1FF
100
AcDbEntity
  8
0
 62
     0
370
    -2
100
AcDbLine
 10
4.0
 20
-1.0
 30
0.0
 11
0.0
 21
0.0
 31
0.0
  0
ENDBLK
  5
22A
330
1FF
100
AcDbEntity
  8
0
100
AcDbBlockEnd
  0
BLOCK
  5
227
330
204
100
AcDbEntity
  8
0
100
AcDbBlockBegin
  2
cw-line-extremity3
 70
     0
 10
0.0
 20
0.0
 30
0.0
  3
cw-line-extremity3
  1

  0
HATCH
  5
205
330
204
100
AcDbEntity
  8
0
 62
     0
370
     0
100
AcDbHatch
 10
0.0
 20
0.0
 30
0.0
210
0.0
220
0.0
230
1.0
  2
SOLID
 70
     1
 71
     1
 91
        1
 92
        3
 72
     0
 73
     1
 93
        3
 10
0.0
 20
0.0
 10
4.0
 20
1.0
 10
4.0
 20
-1.0
 97
        0
 75
     0
 76
     1
 98
        0
  0
LINE
  5
206
330
204
100
AcDbEntity
  8
0
 62
     0
370
    -2
100
AcDbLine
 10
0.0
 20
0.0
 30
0.0
 11
4.0
 21
1.0
 31
0.0
  0
LINE
  5
207
330
204
100
AcDbEntity
  8
0
 62
     0
370
    -2
100
AcDbLine
 10
4.0
 20
1.0
 30
0.0
 11
4.0
 21
-1.0
 31
0.0
  0
LINE
  5
208
330
204
100
AcDbEntity
  8
0
 62
     0
370
    -2
100
AcDbLine
 10
4.0
 20
-1.0
 30
0.0
 11
0.0
 21
0.0
 31
0.0
  0
ENDBLK
  5
228
330
204
100
AcDbEntity
  8
0
100
AcDbBlockEnd
  0
BLOCK
  5
225
330
209
100
AcDbEntity
  8
0
100
AcDbBlockBegin
  2
cw-line-extremity301
 70
     0
 10
0.0
 20
0.0
 30
0.0
  3
cw-line-extremity301
  1

  0
LINE
  5
20A
330
209
100
AcDbEntity
  8
0
 62
     0
370
    -2
100
AcDbLine
 10
0.0
 20
2.66666
 30
0.0
 11
0.0
 21
-2.66666
 31
0.0
  0
ENDBLK
  5
226
330
209
100
AcDbEntity
  8
0
100
AcDbBlockEnd
  0
BLOCK
  5
223
330
20B
100
AcDbEntity
  8
0
100
AcDbBlockBegin
  2
cw-line-extremity4
 70
     0
 10
0.0
 20
0.0
 30
0.0
  3
cw-line-extremity4
  1

  0
HATCH
  5
20C
330
20B
100
AcDbEntity
  8
0
 62
     0
370
     5
100
AcDbHatch
 10
0.0
 20
0.0
 30
0.0
210
0.0
220
0.0
230
1.0
  2
SOLID
 70
     1
 71
     1
 91
        1
 92
        1
 93
        1
 72
     2
 10
0.0
 20
0.0
 40
1.0
 50
0.0
 51
360.0
 73
     1
 97
        0
 75
     0
 76
     1
 98
        0
  0
ENDBLK
  5
224
330
20B
100
AcDbEntity
  8
0
100
AcDbBlockEnd
  0
BLOCK
  5
221
330
20D
100
AcDbEntity
  8
0
100
AcDbBlockBegin
  2
cw-line-extremity5
 70
     0
 10
0.0
 20
0.0
 30
0.0
  3
cw-line-extremity5
  1

  0
LINE
  5
20E
330
20D
100
AcDbEntity
  8
0
 62
     0
370
    -2
100
AcDbLine
 10
0.0
 20
0.0
 30
0.0
 11
-1.0
 21
0.0
 31
0.0
  0
ENDBLK
  5
222
330
20D
100
AcDbEntity
  8
0
100
AcDbBlockEnd
  0
BLOCK
  5
21F
330
20F
100
AcDbEntity
  8
0
100
AcDbBlockBegin
  2
cw-line-extremity6
 70
     0
 10
0.0
 20
0.0
 30
0.0
  3
cw-line-extremity6
  1

  0
LINE
  5
210
330
20F
100
AcDbEntity
  8
0
 62
     0
370
    18
100
AcDbLine
 10
0.0
 20
1.0
 30
0.0
 11
0.0
 21
-1.0
 31
0.0
  0
ENDBLK
  5
220
330
20F
100
AcDbEntity
  8
0
100
AcDbBlockEnd
  0
BLOCK
  5
21D
330
211
100
AcDbEntity
  8
0
100
AcDbBlockBegin
  2
cw-line-extremity9
 70
     0
 10
0.0
 20
0.0
 30
0.0
  3
cw-line-extremity9
  1

  0
LINE
  5
212
330
211
100
AcDbEntity
  8
0
 62
     0
370
    18
100
AcDbLine
 10
-1.0
 20
-1.0
 30
0.0
 11
1.0
 21
1.0
 31
0.0
  0
ENDBLK
  5
21E
330
211
100
AcDbEntity
  8
0
100
AcDbBlockEnd
  0
BLOCK
  5
21B
330
213
100
AcDbEntity
  8
0
100
AcDbBlockBegin
  2
cw-line-extremity10
 70
     0
 10
0.0
 20
0.0
 30
0.0
  3
cw-line-extremity10
  1

  0
CIRCLE
  5
214
330
213
100
AcDbEntity
  8
0
 62
     0
370
    -2
100
AcDbCircle
 10
0.0
 20
0.0
 30
0.0
 40
1.0
  0
ENDBLK
  5
21C
330
213
100
AcDbEntity
  8
0
100
AcDbBlockEnd
  0
BLOCK
  5
219
330
215
100
AcDbEntity
  8
0
100
AcDbBlockBegin
  2
cw-line-extremity1
 70
     0
 10
0.0
 20
0.0
 30
0.0
  3
cw-line-extremity1
  1

  0
LINE
  5
216
330
215
100
AcDbEntity
  8
0
 62
     0
370
    -2
100
AcDbLine
 10
0.0
 20
0.0
 30
0.0
 11
0.0
 21
1.0
 31
0.0
  0
LINE
  5
217
330
215
100
AcDbEntity
  8
0
 62
     0
370
    -2
100
AcDbLine
 10
0.0
 20
1.0
 30
0.0
 11
0.5
 21
1.5
 31
0.0
  0
LINE
  5
218
330
215
100
AcDbEntity
  8
0
 62
     0
370
    -2
100
AcDbLine
 10
0.5
 20
1.5
 30
0.0
 11
1.5
 21
1.5
 31
0.0
  0
ENDBLK
  5
21A
330
215
100
AcDbEntity
  8
0
100
AcDbBlockEnd
  0
BLOCK
  5
1C
330
1B
100
AcDbEntity
  8
0
100
AcDbBlockBegin
  2
*Paper_Space69
 70
     0
 10
0.0
 20
0.0
 30
0.0
  3
*Paper_Space69
  1

  0
ENDBLK
  5
1D
330
1B
100
AcDbEntity
  8
0
100
AcDbBlockEnd
  0
ENDSEC
  0
SECTION
  2
ENTITIES
  0
HATCH
  5
236
330
1F
100
AcDbEntity
  8
Ech.1_5
 62
   254
420
 15326711
440
 33554687
370
     5
100
AcDbHatch
 10
0.0
 20
0.0
 30
0.0
210
0.0
220
0.0
230
1.0
  2
SOLID
 70
     1
 71
     1
 91
        1
 92
        3
 72
     0
 73
     1
 93
       12
 10
1628.701164129533
 20
-3039.153855899967
 10
1599.901504499833
 20
-3039.15373926299
 10
1599.901504499629
 20
-2717.997925804514
 10
1628.701504499773
 20
-2717.997889092104
 10
1635.295705762137
 20
-2710.806949729152
 10
1629.651729755015
 20
-2725.189229733875
 10
1636.246271387614
 20
-2717.997889092104
 10
1675.501504499833
 20
-2717.998049110249
 10
1675.501504499833
 20
-3039.153204080056
 10
1636.245931017374
 20
-3039.153855899967
 10
1629.651729755016
 20
-3046.344795262919
 10
1635.295705762138
 20
-3031.962515258196
 97
        0
 75
     0
 76
     1
 98
        0
  0
LWPOLYLINE
  5
237
330
1F
100
AcDbEntity
  8
Ech.1_5
 62
   190
370
    20
100
AcDbPolyline
 90
       13
 70
     0
 43
0.0
 10
1628.701164129533
 20
-3039.153855899967
 10
1599.901504499833
 20
-3039.15373926299
 10
1599.901504499629
 20
-2717.997925804514
 10
1628.701504499773
 20
-2717.997889092104
 10
1635.295705762137
 20
-2710.806949729152
 10
1629.651729755015
 20
-2725.189229733875
 10
1636.246271387614
 20
-2717.997889092104
 10
1675.501504499833
 20
-2717.998049110249
 10
1675.501504499833
 20
-3039.153204080056
 10
1636.245931017374
 20
-3039.153855899967
 10
1629.651729755016
 20
-3046.344795262919
 10
1635.295705762138
 20
-3031.962515258196
 10
1628.701164129533
 20
-3039.153855899967
  0
LINE
  5
238
330
1F
100
AcDbEntity
  8
Ech.1_5
 62
   190
370
    20
100
AcDbLine
 10
1675.501504499833
 20
-2717.998597005462
 30
0.0
 11
1675.501504499833
 21
-3039.153204080056
 31
0.0
  0
LWPOLYLINE
  5
239
330
1F
100
AcDbEntity
  8
Ech.1_5
 62
   190
370
    20
100
AcDbPolyline
 90
        6
 70
     0
 43
0.0
 10
1564.278670013147
 20
-2717.999016212007
 10
1628.701504499773
 20
-2717.99788909211
 10
1635.295705762137
 20
-2710.806949729152
 10
1629.651729755015
 20
-2725.189229733875
 10
1636.246271387631
 20
-2717.997889092104
 10
1681.501504499833
 20
-2717.99870520709
  0
LWPOLYLINE
  5
23A
330
1F
100
AcDbEntity
  8
Ech.1_5
 62
   190
370
    20
100
AcDbPolyline
 90
        6
 70
     0
 43
0.0
 10
1564.291544487745
 20
-3039.154581741051
 10
1628.701504499773
 20
-3039.153454621155
 10
1635.295705762138
 20
-3031.962515258196
 10
1629.651729755016
 20
-3046.344795262919
 10
1636.246271387632
 20
-3039.153454621149
 10
1681.501504499833
 20
-3039.154270736135
  0
LWPOLYLINE
  5
23B
330
1F
100
AcDbEntity
  8
Ech.1_5
 62
   190
370
    20
100
AcDbPolyline
 90
        5
 70
     0
 43
0.0
 10
1421.567125741473
 20
-3116.080870755796
 10
1815.567125741472
 20
-3116.080870755796
 10
1815.567125741472
 20
-3171.046099581818
 10
1421.567125741473
 20
-3171.046099581818
 10
1421.567125741473
 20
-3116.080870755796
  0
LWPOLYLINE
  5
23C
330
1F
100
AcDbEntity
  8
Ech.1_5
 62
   190
370
    20
100
AcDbPolyline
 90
        5
 70
     0
 43
0.0
 10
1815.567125741472
 20
-2667.252884784125
 10
1421.567125741473
 20
-2667.252884784125
 10
1421.567125741473
 20
-2629.046099581866
 10
1815.567125741472
 20
-2629.046099581866
 10
1815.567125741472
 20
-2667.252884784125
  0
LWPOLYLINE
  5
23D
330
1F
100
AcDbEntity
  8
Ech.1_5
 62
   190
370
    20
100
AcDbPolyline
 90
        5
 70
     0
 43
0.0
 10
1815.567125741472
 20
-3124.880870755795
 10
1421.567125741473
 20
-3124.880870755795
 10
1421.567125741473
 20
-3116.080870755796
 10
1815.567125741472
 20
-3116.080870755796
 10
1815.567125741472
 20
-3124.880870755795
  0
LWPOLYLINE
  5
23E
330
1F
100
AcDbEntity
  8
Ech.1_5
 62
   190
370
    20
100
AcDbPolyline
 90
        5
 70
     0
 43
0.0
 10
1815.567125741472
 20
-3147.629328847932
 10
1421.567125741473
 20
-3147.629328847932
 10
1421.567125741473
 20
-3138.138517523636
 10
1815.567125741472
 20
-3138.138517523636
 10
1815.567125741472
 20
-3147.629328847932
  0
LINE
  5
23F
330
1F
100
AcDbEntity
  8
Ech.1_5
 62
   190
370
    20
100
AcDbLine
 10
1496.848950526656
 20
-3116.080870755796
 30
0.0
 11
1496.848950526656
 21
-3124.880870755795
 31
0.0
  0
LINE
  5
240
330
1F
100
AcDbEntity
  8
Ech.1_5
 62
   190
370
    20
100
AcDbLine
 10
1759.648191578874
 20
-3116.080870755796
 30
0.0
 11
1759.648191578874
 21
-3124.880870755795
 31
0.0
  0
LINE
  5
241
330
1F
100
AcDbEntity
  8
Ech.1_5
 62
   190
370
    20
100
AcDbLine
 10
1559.311037724797
 20
-3116.080870755796
 30
0.0
 11
1559.311037724797
 21
-3124.880870755795
 31
0.0
  0
IMAGE
  5
244
330
1F
100
AcDbEntity
  8
Ech.1_5
160
                 8
310
0800000000000000
100
AcDbRasterImage
 90
        0
 10
1497.992825237826
 20
-3169.031880589399
 30
0.0
 11
0.1133603238866397
 21
0.0
 31
0.0
 12
0.0
 22
0.1111111111111111
 32
0.0
 13
247.0
 23
171.0
340
243
 70
     3
280
     0
281
    50
282
    50
283
     0
360
245
 71
     1
 91
        2
 14
-0.5
 24
-0.5
 14
246.5
 24
170.5
290
     0
  0
IMAGE
  5
247
330
1F
100
AcDbEntity
  8
Ech.1_5
160
                 8
310
0800000000000000
100
AcDbRasterImage
 90
        0
 10
1602.423893734617
 20
-3170.053725510912
 30
0.0
 11
0.16
 21
0.0
 31
0.0
 12
0.0
 22
0.1578947368421053
 32
0.0
 13
200.0
 23
133.0
340
246
 70
     3
280
     0
281
    50
282
    50
283
     0
360
248
 71
     1
 91
        2
 14
-0.5
 24
-0.5
 14
199.5
 24
132.5
290
     0
  0
IMAGE
  5
24A
330
1F
100
AcDbEntity
  8
Ech.1_5
160
                 8
310
0800000000000000
100
AcDbRasterImage
 90
        0
 10
1699.773760286275
 20
-3170.535716676892
 30
0.0
 11
0.03770739064856712
 21
0.0
 31
0.0
 12
0.0
 22
0.03793103448275862
 32
0.0
 13
1326.0
 23
580.0
340
249
 70
     3
280
     0
281
    50
282
    50
283
     0
360
24B
 71
     1
 91
        2
 14
-0.5
 24
-0.5
 14
1325.5
 24
579.5
290
     0
  0
LINE
  5
24C
330
1F
100
AcDbEntity
  8
Ech.1_5
 62
   190
370
    20
100
AcDbLine
 10
1815.567125741476
 20
-2641.046099581822
 30
0.0
 11
1421.567125741477
 21
-2641.046099581822
 31
0.0
  0
LWPOLYLINE
  5
24D
330
1F
100
AcDbEntity
  8
Ech.1_5
 62
   190
370
    20
100
AcDbPolyline
 90
        5
 70
     0
 43
0.0
 10
1815.567125741472
 20
-3171.046099581818
 10
1815.567125741472
 20
-2629.046099581818
 10
1421.567125741473
 20
-2629.046099581818
 10
1421.567125741473
 20
-3171.046099581818
 10
1815.567125741472
 20
-3171.046099581818
  0
CIRCLE
  5
24E
330
1F
100
AcDbEntity
  8
Ech.1_5
 62
   154
420
    21156
370
    50
100
AcDbCircle
 10
1765.568143720011
 20
-2711.550037222367
 30
0.0
 40
29.99694606438788
  0
LWPOLYLINE
  5
24F
330
1F
100
AcDbEntity
  8
Ech.1_5
 62
   154
420
    21156
370
    20
100
AcDbPolyline
 90
      194
 70
     0
 43
0.0
 10
1765.236432626139
 20
-2702.820512267923
 10
1765.607133047683
 20
-2703.890590856562
 10
1765.970283083679
 20
-2704.962088644321
 10
1766.146667211612
 20
-2705.498813237596
 10
1766.318332348577
 20
-2706.036424830321
 10
1766.484334696381
 20
-2706.575100822387
 10
1766.643730456831
 20
-2707.115018613682
 10
1766.795575831732
 20
-2707.656355604098
 10
1766.938927022891
 20
-2708.199289193524
 10
1767.072840232114
 20
-2708.74399678185
 10
1767.196371661209
 20
-2709.290655768968
 10
1767.308577511981
 20
-2709.839443554766
 10
1767.408513986237
 20
-2710.390537539134
 10
1767.495237285783
 20
-2710.944115121962
 10
1767.567803612426
 20
-2711.500353703142
 10
1767.625269167973
 20
-2712.059430682561
 10
1767.648044219649
 20
-2712.340089009077
 10
1767.666690154229
 20
-2712.621523460112
 10
1767.681088996938
 20
-2712.903756210652
 10
1767.691122773002
 20
-2713.186809435684
 10
1767.696673507646
 20
-2713.470705310192
 10
1767.697623226096
 20
-2713.755466009165
 10
1767.693881378896
 20
-2714.041107808878
 10
1767.685703291969
 20
-2714.327572593802
 10
1767.658011116143
 20
-2714.902534024602
 10
1767.618515140307
 20
-2715.479471163736
 10
1767.571188407598
 20
-2716.057503883686
 10
1767.468934844128
 20
-2717.213335555947
 10
1767.421954099644
 20
-2717.789374253216
 10
1767.383034770849
 20
-2718.362988021218
 10
1767.35614990088
 20
-2718.93329673243
 10
1767.348461963937
 20
-2719.216936651891
 10
1767.345272532879
 20
-2719.499420259333
 10
1767.347078238097
 20
-2719.780637538819
 10
1767.354375709985
 20
-2720.060478474406
 10
1767.367661578934
 20
-2720.338833050155
 10
1767.387432475337
 20
-2720.615591250128
 10
1767.414185029587
 20
-2720.89064305838
 10
1767.448415872076
 20
-2721.163878458976
 10
1767.490621633196
 20
-2721.435187435974
 10
1767.541298943341
 20
-2721.704459973434
 10
1767.600944432902
 20
-2721.971586055414
 10
1767.670054732272
 20
-2722.236455665977
 10
1767.749126471843
 20
-2722.498958789181
 10
1767.838656282008
 20
-2722.758985409086
 10
1767.93914079316
 20
-2723.016425509753
 10
1768.051073858418
 20
-2723.271168798427
 10
1768.174668611902
 20
-2723.523077002824
 10
1768.309620472309
 20
-2723.771960249465
 10
1768.455569040309
 20
-2724.017623101437
 10
1768.612153916572
 20
-2724.259870121824
 10
1768.779014701766
 20
-2724.498505873711
 10
1768.95579099656
 20
-2724.733334920186
 10
1769.142122401622
 20
-2724.964161824333
 10
1769.337648517623
 20
-2725.190791149238
 10
1769.54200894523
 20
-2725.413027457985
 10
1769.754843285112
 20
-2725.630675313661
 10
1769.97579113794
 20
-2725.843539279354
 10
1770.204492104379
 20
-2726.051423918144
 10
1770.440585785101
 20
-2726.25413379312
 10
1770.683711780774
 20
-2726.451473467368
 10
1770.933509692066
 20
-2726.643247503972
 10
1771.189619119647
 20
-2726.829260466018
 10
1771.451679664186
 20
-2727.009316916592
 10
1771.71933092635
 20
-2727.183221418779
 10
1771.99221250681
 20
-2727.350778535665
 10
1772.269964006234
 20
-2727.511792830335
 10
1772.552225025291
 20
-2727.666068865875
 10
1772.83863516465
 20
-2727.813411205371
 10
1773.128834024979
 20
-2727.953624411908
 10
1773.422461206947
 20
-2728.086513048571
 10
1773.719156311224
 20
-2728.211881678446
 10
1774.018558938477
 20
-2728.329534864618
 10
1774.320308689377
 20
-2728.439277170175
 10
1774.624045164592
 20
-2728.540913158199
 10
1774.929407964791
 20
-2728.634247391778
 10
1775.236036690642
 20
-2728.719084433998
 10
1775.543570942815
 20
-2728.795228847942
 10
1775.851650321977
 20
-2728.862485196697
 10
1776.1599144288
 20
-2728.920658043348
 10
1776.46800286395
 20
-2728.969551950983
 10
1776.775555228097
 20
-2729.008971482684
 10
1777.082211121909
 20
-2729.038721201538
 10
1777.387610146057
 20
-2729.058605670631
 10
1777.691391901208
 20
-2729.068429453048
 10
1777.993195988031
 20
-2729.067997111876
 10
1778.292662007195
 20
-2729.057113210198
 10
1778.589429559369
 20
-2729.035582311101
 10
1778.883138245223
 20
-2729.003208977671
 10
1779.173427665423
 20
-2728.959797772992
 10
1779.459937420641
 20
-2728.905153260152
 10
1779.742307111544
 20
-2728.839080002234
 10
1780.020176338802
 20
-2728.761382562325
 10
1780.293184703082
 20
-2728.67186550351
 10
1780.560971805055
 20
-2728.570333388875
 10
1780.823177245388
 20
-2728.456590781504
 10
1781.079451690996
 20
-2728.330464139466
 10
1781.32960862987
 20
-2728.192102068413
 10
1781.573585491843
 20
-2728.041898397576
 10
1781.811322815243
 20
-2727.880253106455
 10
1782.042761138396
 20
-2727.707566174548
 10
1782.267840999631
 20
-2727.524237581357
 10
1782.486502937273
 20
-2727.33066730638
 10
1782.698687489651
 20
-2727.127255329117
 10
1782.904335195091
 20
-2726.914401629066
 10
1783.103386591921
 20
-2726.69250618573
 10
1783.295782218468
 20
-2726.461968978604
 10
1783.481462613059
 20
-2726.223189987191
 10
1783.660368314022
 20
-2725.976569190989
 10
1783.832439859683
 20
-2725.722506569498
 10
1783.997617788369
 20
-2725.461402102217
 10
1784.155842638408
 20
-2725.193655768646
 10
1784.307054948127
 20
-2724.919667548284
 10
1784.451195255854
 20
-2724.639837420631
 10
1784.588204099915
 20
-2724.354565365187
 10
1784.718022018637
 20
-2724.06425136145
 10
1784.840589550348
 20
-2723.769295388921
 10
1784.955847233375
 20
-2723.470097427099
 10
1785.063735606046
 20
-2723.167057455483
 10
1785.164195206686
 20
-2722.860575453572
 10
1785.257166573624
 20
-2722.551051400868
 10
1785.342590245187
 20
-2722.238885276869
 10
1785.420406759701
 20
-2721.924477061074
 10
1785.490556655494
 20
-2721.608226732982
 10
1785.552980470894
 20
-2721.290534272094
 10
1785.607618744227
 20
-2720.97179965791
 10
1785.654412013821
 20
-2720.652422869928
 10
1785.693300818002
 20
-2720.332803887647
 10
1785.724225695099
 20
-2720.013342690568
 10
1785.747127183437
 20
-2719.694439258191
 10
1785.761945821345
 20
-2719.376493570013
 10
1785.768622147149
 20
-2719.059905605536
 10
1785.767096699178
 20
-2718.745075344258
 10
1785.757310015757
 20
-2718.43240276568
 10
1785.739202635213
 20
-2718.1222878493
 10
1785.712715095875
 20
-2717.815130574618
 10
1785.67778793607
 20
-2717.511330921133
 10
1785.634361694124
 20
-2717.211288868346
 10
1785.582376908365
 20
-2716.915404395756
 10
1785.52177411712
 20
-2716.624077482862
 10
1785.452493858716
 20
-2716.337708109163
 10
1785.374476671481
 20
-2716.056696254159
 10
1785.287663093741
 20
-2715.78144189735
 10
1785.191993663823
 20
-2715.512345018235
 10
1785.087408920056
 20
-2715.249805596314
 10
1784.973849400765
 20
-2714.994223611086
 10
1784.85125564428
 20
-2714.745999042051
 10
1784.719578171084
 20
-2714.505513043231
 10
1784.578943319115
 20
-2714.272815192321
 10
1784.429627721559
 20
-2714.047671623332
 10
1784.271912849928
 20
-2713.829839345619
 10
1784.106080175729
 20
-2713.619075368539
 10
1783.932411170473
 20
-2713.415136701446
 10
1783.75118730567
 20
-2713.217780353696
 10
1783.562690052829
 20
-2713.026763334646
 10
1783.367200883459
 20
-2712.84184265365
 10
1783.165001269071
 20
-2712.662775320064
 10
1782.956372681173
 20
-2712.489318343245
 10
1782.741596591277
 20
-2712.321228732548
 10
1782.52095447089
 20
-2712.158263497328
 10
1782.294727791524
 20
-2712.000179646942
 10
1782.063198024687
 20
-2711.846734190745
 10
1781.826646641889
 20
-2711.697684138094
 10
1781.58535511464
 20
-2711.552786498342
 10
1781.33960491445
 20
-2711.411798280848
 10
1781.089677512828
 20
-2711.274476494965
 10
1780.835854381284
 20
-2711.14057815005
 10
1780.578416991327
 20
-2711.009860255458
 10
1780.317646814467
 20
-2710.882079820545
 10
1779.787233986078
 20
-2710.634359367181
 10
1779.246867668193
 20
-2710.395472864803
 10
1778.698799632888
 20
-2710.163476388256
 10
1778.145281652243
 20
-2709.936426012386
 10
1777.030902943237
 20
-2709.489387862061
 10
1776.47454575903
 20
-2709.265512237298
 10
1775.921745717791
 20
-2709.038807012595
 10
1775.374754591596
 20
-2708.807328262799
 10
1774.835617689178
 20
-2708.569309399965
 10
1774.304724173385
 20
-2708.324406346725
 10
1773.781666697998
 20
-2708.07295916989
 10
1773.266032839838
 20
-2707.81531229702
 10
1772.757410175726
 20
-2707.55181015567
 10
1772.255386282483
 20
-2707.282797173399
 10
1771.759548736928
 20
-2707.008617777764
 10
1771.269485115884
 20
-2706.729616396322
 10
1770.78478299617
 20
-2706.446137456632
 10
1770.305029954608
 20
-2706.158525386251
 10
1769.829813568018
 20
-2705.867124612737
 10
1769.35872141322
 20
-2705.572279563647
 10
1768.891341067037
 20
-2705.274334666539
 10
1767.966066107792
 20
-2704.670523038497
 10
1767.05068930485
 20
-2704.058445149073
 10
1766.141911272778
 20
-2703.440856418729
 10
1765.236432626139
 20
-2702.820512267923
  0
LWPOLYLINE
  5
250
330
1F
100
AcDbEntity
  8
Ech.1_5
 62
   154
420
    21156
370
    20
100
AcDbPolyline
 90
       95
 70
     0
 43
0.0
 10
1782.791995795416
 20
-2714.505257430176
 10
1782.773219732996
 20
-2715.040051873368
 10
1782.754244972585
 20
-2715.584242186806
 10
1782.74462098751
 20
-2715.86279700432
 10
1782.73487281619
 20
-2716.147224240738
 10
1782.724975621376
 20
-2716.438698379841
 10
1782.71490456582
 20
-2716.73839390541
 10
1782.704634812272
 20
-2717.047485301225
 10
1782.694141523483
 20
-2717.367147051068
 10
1782.683399862206
 20
-2717.698553638719
 10
1782.672384991189
 20
-2718.04287954796
 10
1782.661072073185
 20
-2718.40129926257
 10
1782.649436270945
 20
-2718.774987266332
 10
1782.643489526596
 20
-2718.967923902825
 10
1782.637452747219
 20
-2719.165118043024
 10
1782.625202627717
 20
-2719.572122632416
 10
1782.613381804213
 20
-2719.992118829683
 10
1782.602907326767
 20
-2720.419672766999
 10
1782.594696536816
 20
-2720.849348532187
 10
1782.589666775799
 20
-2721.27571021307
 10
1782.588735385156
 20
-2721.693321897471
 10
1782.590093247924
 20
-2721.897147768436
 10
1782.592819706325
 20
-2722.096747673214
 10
1782.597029428038
 20
-2722.291442122782
 10
1782.602837080744
 20
-2722.480551628119
 10
1782.610357332122
 20
-2722.663396700204
 10
1782.619704849852
 20
-2722.839297850012
 10
1782.630994301615
 20
-2723.007575588524
 10
1782.644340355089
 20
-2723.167550426715
 10
1782.659857677956
 20
-2723.318542875565
 10
1782.677660937893
 20
-2723.45987344605
 10
1782.697864802582
 20
-2723.59086264915
 10
1782.720583939702
 20
-2723.71083099584
 10
1782.745933016934
 20
-2723.819098997102
 10
1782.774026701957
 20
-2723.91498716391
 10
1782.80497966245
 20
-2723.997816007243
 10
1782.838906566094
 20
-2724.06690603808
 10
1782.875922080569
 20
-2724.121577767398
 10
1782.916140873554
 20
-2724.161151706176
 10
1782.937487333138
 20
-2724.175064663792
 10
1782.959677612729
 20
-2724.184948365389
 10
1782.982726045788
 20
-2724.19071787484
 10
1783.006646965774
 20
-2724.192288256017
 10
1783.031454014249
 20
-2724.189576797934
 10
1783.057136652329
 20
-2724.182578553729
 10
1783.083654417158
 20
-2724.171384811799
 10
1783.110964988902
 20
-2724.156092832581
 10
1783.167795273786
 20
-2724.113603204029
 10
1783.227288948287
 20
-2724.05588775157
 10
1783.289107453715
 20
-2723.983724558702
 10
1783.352912231377
 20
-2723.897891708922
 10
1783.418364722581
 20
-2723.799167285727
 10
1783.485126368634
 20
-2723.688329372615
 10
1783.552858610846
 20
-2723.566156053083
 10
1783.621222890524
 20
-2723.43342541063
 10
1783.689880648976
 20
-2723.290915528751
 10
1783.758493327511
 20
-2723.139404490946
 10
1783.826722367435
 20
-2722.979670380711
 10
1783.894229210057
 20
-2722.812491281543
 10
1783.960675296686
 20
-2722.638645276942
 10
1784.025722068629
 20
-2722.458910450402
 10
1784.089030967194
 20
-2722.274064885423
 10
1784.150263433689
 20
-2722.084886665501
 10
1784.265144835702
 20
-2721.696644594822
 10
1784.367657805131
 20
-2721.300408906342
 10
1784.413429730897
 20
-2721.101238664172
 10
1784.455093872442
 20
-2720.902404268044
 10
1784.492311671073
 20
-2720.704683801456
 10
1784.524744568098
 20
-2720.508855347905
 10
1784.552054630816
 20
-2720.315695857567
 10
1784.574038240164
 20
-2720.125739113036
 10
1784.590792239921
 20
-2719.938974925167
 10
1784.602454251392
 20
-2719.755319279311
 10
1784.609161895883
 20
-2719.574688160819
 10
1784.6110527947
 20
-2719.396997555042
 10
1784.608264569145
 20
-2719.22216344733
 10
1784.600934840526
 20
-2719.050101823036
 10
1784.589201230147
 20
-2718.880728667511
 10
1784.573201359311
 20
-2718.713959966103
 10
1784.553072849326
 20
-2718.549711704165
 10
1784.528953321496
 20
-2718.387899867049
 10
1784.500980397125
 20
-2718.228440440105
 10
1784.46929169752
 20
-2718.071249408684
 10
1784.434024843983
 20
-2717.916242758136
 10
1784.395317457823
 20
-2717.763336473814
 10
1784.308131572845
 20
-2717.463488945248
 10
1784.208835013026
 20
-2717.171034705794
 10
1784.098528748807
 20
-2716.88530163826
 10
1783.978313750627
 20
-2716.605617625455
 10
1783.849290988927
 20
-2716.331310550185
 10
1783.712561434146
 20
-2716.061708295259
 10
1783.569226056725
 20
-2715.796138743485
 10
1783.420385827104
 20
-2715.533929777672
 10
1783.11059469302
 20
-2715.016905135156
 10
1782.791995795416
 20
-2714.505257430176
  0
LWPOLYLINE
  5
251
330
1F
100
AcDbEntity
  8
Ech.1_5
 62
   154
420
    21156
370
    20
100
AcDbPolyline
 90
      171
 70
     0
 43
0.0
 10
1752.853070019979
 20
-2708.84688876977
 10
1753.186442888316
 20
-2710.005774872523
 10
1753.346268567499
 20
-2710.586488493688
 10
1753.4978613407
 20
-2711.168726798601
 10
1753.638476905923
 20
-2711.752998015176
 10
1753.765370961174
 20
-2712.339810371329
 10
1753.822814828187
 20
-2712.634328297971
 10
1753.87579920446
 20
-2712.929672094977
 10
1753.923981052242
 20
-2713.225905290834
 10
1753.967017333785
 20
-2713.523091414032
 10
1754.00456501134
 20
-2713.821293993063
 10
1754.036281047156
 20
-2714.120576556413
 10
1754.061822403486
 20
-2714.421002632575
 10
1754.080846042579
 20
-2714.722635750035
 10
1754.093008926686
 20
-2715.025539437285
 10
1754.097968018058
 20
-2715.329777222813
 10
1754.095380278946
 20
-2715.635412635109
 10
1754.0849026716
 20
-2715.942509202662
 10
1754.066495414419
 20
-2716.251064566839
 10
1754.041805059978
 20
-2716.560709986626
 10
1753.982492863938
 20
-2717.181289453777
 10
1753.92480447441
 20
-2717.800283921251
 10
1753.902143878108
 20
-2718.107948091438
 10
1753.886578838659
 20
-2718.413729585303
 10
1753.88033922447
 20
-2718.71713292738
 10
1753.88565490395
 20
-2719.017662642198
 10
1753.904755745507
 20
-2719.31482325429
 10
1753.920172435941
 20
-2719.461985310731
 10
1753.939871617549
 20
-2719.608119288189
 10
1753.964132023879
 20
-2719.753163252234
 10
1753.993232388484
 20
-2719.89705526843
 10
1754.027451444915
 20
-2720.039733402343
 10
1754.067067926722
 20
-2720.181135719541
 10
1754.112360567457
 20
-2720.321200285591
 10
1754.163608100669
 20
-2720.459865166057
 10
1754.221089259912
 20
-2720.597068426509
 10
1754.285063325846
 20
-2720.732745756837
 10
1754.355518057449
 20
-2720.866799687491
 10
1754.432241764569
 20
-2720.999108391301
 10
1754.515018150057
 20
-2721.129549478469
 10
1754.603630916758
 20
-2721.258000559195
 10
1754.697863767522
 20
-2721.384339243683
 10
1754.797500405197
 20
-2721.508443142132
 10
1754.90232453263
 20
-2721.630189864746
 10
1755.01211985267
 20
-2721.749457021725
 10
1755.126670068165
 20
-2721.866122223273
 10
1755.245758881963
 20
-2721.980063079589
 10
1755.369169996912
 20
-2722.091157200877
 10
1755.496687115859
 20
-2722.199282197337
 10
1755.628093941655
 20
-2722.304315679171
 10
1755.763174177145
 20
-2722.40613525658
 10
1755.901711525179
 20
-2722.504618539769
 10
1756.043489688604
 20
-2722.599643138936
 10
1756.18829237027
 20
-2722.691086664285
 10
1756.335903273022
 20
-2722.778826726016
 10
1756.486106099711
 20
-2722.862740934331
 10
1756.638684553183
 20
-2722.942706899432
 10
1756.793422336288
 20
-2723.018602231522
 10
1756.950103151872
 20
-2723.090304540802
 10
1757.108510702785
 20
-2723.157691437472
 10
1757.268428691874
 20
-2723.220640531735
 10
1757.429640821987
 20
-2723.279029433793
 10
1757.591930795973
 20
-2723.332735753848
 10
1757.755082316678
 20
-2723.3816371021
 10
1757.918879086953
 20
-2723.425611088752
 10
1758.083104809645
 20
-2723.464535324005
 10
1758.247543187602
 20
-2723.498287418063
 10
1758.41197792367
 20
-2723.526744981124
 10
1758.576192720701
 20
-2723.549785623392
 10
1758.73997128154
 20
-2723.567286955068
 10
1758.903097309037
 20
-2723.579126586355
 10
1759.065354506038
 20
-2723.585182127452
 10
1759.226526575394
 20
-2723.585331188563
 10
1759.38639721995
 20
-2723.579451379889
 10
1759.544750142557
 20
-2723.567420311632
 10
1759.70136904606
 20
-2723.549115593994
 10
1759.85603763331
 20
-2723.524414837175
 10
1760.008539607154
 20
-2723.493195651377
 10
1760.158658670439
 20
-2723.455335646805
 10
1760.306178526015
 20
-2723.410712433656
 10
1760.450882876728
 20
-2723.359203622135
 10
1760.592555425428
 20
-2723.300686822442
 10
1760.730980298474
 20
-2723.235040549861
 10
1760.865996045624
 20
-2723.162259627078
 10
1760.997548669128
 20
-2723.08256851185
 10
1761.125596765233
 20
-2722.996218576369
 10
1761.250098930187
 20
-2722.903461192829
 10
1761.371013760235
 20
-2722.80454773342
 10
1761.488299851626
 20
-2722.699729570337
 10
1761.601915800605
 20
-2722.58925807577
 10
1761.711820203421
 20
-2722.473384621912
 10
1761.817971656319
 20
-2722.352360580955
 10
1761.920328755546
 20
-2722.226437325091
 10
1762.01885009735
 20
-2722.095866226513
 10
1762.113494277977
 20
-2721.960898657415
 10
1762.204219893675
 20
-2721.821785989985
 10
1762.29098554069
 20
-2721.67877959642
 10
1762.37374981527
 20
-2721.532130848909
 10
1762.45247131366
 20
-2721.382091119645
 10
1762.527108632108
 20
-2721.228911780821
 10
1762.597620366862
 20
-2721.072844204628
 10
1762.663965114166
 20
-2720.914139763261
 10
1762.72610147027
 20
-2720.753049828909
 10
1762.783988031419
 20
-2720.589825773766
 10
1762.837583393862
 20
-2720.424718970025
 10
1762.886846153842
 20
-2720.257980789877
 10
1762.93173490761
 20
-2720.089862605515
 10
1762.972208251411
 20
-2719.92061578913
 10
1763.008224781493
 20
-2719.750491712916
 10
1763.039743094101
 20
-2719.579741749063
 10
1763.066721785483
 20
-2719.408617269766
 10
1763.089119451886
 20
-2719.237369647217
 10
1763.106894689557
 20
-2719.066250253607
 10
1763.120006094743
 20
-2718.895510461128
 10
1763.128412263691
 20
-2718.725401641973
 10
1763.132071792647
 20
-2718.556175168335
 10
1763.130943277858
 20
-2718.388082412405
 10
1763.124985315572
 20
-2718.221374746376
 10
1763.114156502035
 20
-2718.056303542441
 10
1763.098415433494
 20
-2717.89312017279
 10
1763.077720706197
 20
-2717.732076009619
 10
1763.05203091639
 20
-2717.573422425115
 10
1763.02130466032
 20
-2717.417410791476
 10
1762.985500534232
 20
-2717.264292480891
 10
1762.944577134376
 20
-2717.114318865551
 10
1762.898493056999
 20
-2716.967741317653
 10
1762.847206898345
 20
-2716.824811209385
 10
1762.790677254663
 20
-2716.685779912941
 10
1762.728862722199
 20
-2716.550898800513
 10
1762.661721897201
 20
-2716.420419244294
 10
1762.589221089207
 20
-2716.294578501378
 10
1762.511450619173
 20
-2716.173386891624
 10
1762.428600869993
 20
-2716.056671624497
 10
1762.340865078707
 20
-2715.944254686457
 10
1762.248436482357
 20
-2715.835958063957
 10
1762.151508317985
 20
-2715.731603743457
 10
1762.050273822632
 20
-2715.631013711411
 10
1761.944926233341
 20
-2715.534009954279
 10
1761.835658787152
 20
-2715.440414458515
 10
1761.722664721108
 20
-2715.350049210576
 10
1761.606137272251
 20
-2715.26273619692
 10
1761.486269677621
 20
-2715.178297404003
 10
1761.363255174261
 20
-2715.096554818283
 10
1761.108558389516
 20
-2714.940446214256
 10
1760.843592814351
 20
-2714.792986276496
 10
1760.569904345098
 20
-2714.652750896655
 10
1760.28903887809
 20
-2714.518315966388
 10
1760.002542309662
 20
-2714.388257377349
 10
1759.418839453878
 20
-2714.135572789575
 10
1758.831162948412
 20
-2713.883304266563
 10
1758.539699317884
 20
-2713.753765758479
 10
1758.251879963935
 20
-2713.620058941549
 10
1757.9692507829
 20
-2713.480759707429
 10
1757.693286452706
 20
-2713.334510921418
 10
1757.424442378243
 20
-2713.180913971188
 10
1757.162412383307
 20
-2713.02028643377
 10
1756.906871987921
 20
-2712.85296309903
 10
1756.657496712107
 20
-2712.679278756835
 10
1756.413962075888
 20
-2712.49956819705
 10
1756.175943599286
 20
-2712.314166209543
 10
1755.943116802324
 20
-2712.123407584178
 10
1755.715157205025
 20
-2711.927627110822
 10
1755.49174032741
 20
-2711.727159579341
 10
1755.272541689502
 20
-2711.522339779601
 10
1755.057236811324
 20
-2711.313502501467
 10
1754.845501212899
 20
-2711.100982534807
 10
1754.637010414249
 20
-2710.885114669487
 10
1754.431439935396
 20
-2710.666233695372
 10
1754.027762017171
 20
-2710.220771580221
 10
1753.631871618408
 20
-2709.767274508285
 10
1752.853070019979
 20
-2708.84688876977
  0
LWPOLYLINE
  5
252
330
1F
100
AcDbEntity
  8
Ech.1_5
 62
   154
420
    21156
370
    20
100
AcDbPolyline
 90
       70
 70
     0
 43
0.0
 10
1761.630851040996
 20
-2716.300269894508
 10
1761.587683646939
 20
-2716.571577323233
 10
1761.544528936461
 20
-2716.847416981651
 10
1761.501399593143
 20
-2717.132321099456
 10
1761.458308300565
 20
-2717.430821906338
 10
1761.436780886921
 20
-2717.586587389962
 10
1761.415267742306
 20
-2717.747451631993
 10
1761.393770452164
 20
-2717.913981161138
 10
1761.372290601946
 20
-2718.086742506111
 10
1761.350829777096
 20
-2718.266302195624
 10
1761.329389563065
 20
-2718.453226758388
 10
1761.307971545297
 20
-2718.648082723113
 10
1761.286626892457
 20
-2718.851196722271
 10
1761.265826620763
 20
-2719.060864058694
 10
1761.24625305809
 20
-2719.27435765551
 10
1761.213521796436
 20
-2719.701884236425
 10
1761.201731965768
 20
-2719.91044752357
 10
1761.193904580748
 20
-2720.111897677206
 10
1761.190723575534
 20
-2720.303499848859
 10
1761.19287288428
 20
-2720.482519190052
 10
1761.196160135813
 20
-2720.566455659076
 10
1761.201036441146
 20
-2720.646220852309
 10
1761.207587292046
 20
-2720.721472913688
 10
1761.215898180286
 20
-2720.791869987155
 10
1761.226054597633
 20
-2720.857070216649
 10
1761.238142035859
 20
-2720.916731746113
 10
1761.252245986731
 20
-2720.970512719487
 10
1761.26845194202
 20
-2721.018071280709
 10
1761.286845393495
 20
-2721.059065573722
 10
1761.307511832927
 20
-2721.093153742467
 10
1761.330536752084
 20
-2721.119993930883
 10
1761.356005642736
 20
-2721.139244282911
 10
1761.384003996653
 20
-2721.150562942491
 10
1761.414609861425
 20
-2721.153625258543
 10
1761.447751816154
 20
-2721.148452031416
 10
1761.483220139526
 20
-2721.135383701247
 10
1761.520799903887
 20
-2721.114772741059
 10
1761.560276181581
 20
-2721.08697162388
 10
1761.601434044953
 20
-2721.052332822735
 10
1761.644058566349
 20
-2721.011208810651
 10
1761.687934818115
 20
-2720.963952060653
 10
1761.732847872594
 20
-2720.910915045767
 10
1761.778582802133
 20
-2720.852450239019
 10
1761.824924679077
 20
-2720.788910113435
 10
1761.871658575771
 20
-2720.720647142041
 10
1761.91856956456
 20
-2720.648013797863
 10
1762.012063107803
 20
-2720.491045883256
 10
1762.10368588757
 20
-2720.320826153823
 10
1762.191718482622
 20
-2720.140174393773
 10
1762.27444147172
 20
-2719.951910387309
 10
1762.350135433626
 20
-2719.75885391864
 10
1762.417080947103
 20
-2719.563824771975
 10
1762.473558590911
 20
-2719.369642731519
 10
1762.517854603758
 20
-2719.179120282593
 10
1762.549003990792
 20
-2718.99410432492
 10
1762.567531682949
 20
-2718.8145203969
 10
1762.5741388855
 20
-2718.640066719108
 10
1762.569526803716
 20
-2718.470441512119
 10
1762.554396642869
 20
-2718.305342996508
 10
1762.529449608228
 20
-2718.14446939285
 10
1762.495386905065
 20
-2717.987518921719
 10
1762.45290973865
 20
-2717.834189803689
 10
1762.402719314256
 20
-2717.684180259337
 10
1762.345516837151
 20
-2717.537188509236
 10
1762.282003512608
 20
-2717.392912773962
 10
1762.212880545898
 20
-2717.25105127409
 10
1762.138849142292
 20
-2717.111302230194
 10
1761.978865845472
 20
-2716.83693439263
 10
1761.807663264318
 20
-2716.567395025868
 10
1761.630851040996
 20
-2716.300269894508
  0
LWPOLYLINE
  5
253
330
1F
100
AcDbEntity
  8
Ech.1_5
 62
   154
420
    21156
370
    20
100
AcDbPolyline
 90
      170
 70
     0
 43
0.0
 10
1771.604449797748
 20
-2693.776202609074
 10
1771.886078154837
 20
-2694.30394334277
 10
1772.162885988404
 20
-2694.832701153319
 10
1772.430052774927
 20
-2695.363493117574
 10
1772.558514361946
 20
-2695.629969743857
 10
1772.682757990883
 20
-2695.897336312387
 10
1772.802181096297
 20
-2696.16571995777
 10
1772.916181112749
 20
-2696.435247814613
 10
1773.024155474798
 20
-2696.706047017522
 10
1773.125501617003
 20
-2696.978244701103
 10
1773.219616973925
 20
-2697.251967999965
 10
1773.305898980124
 20
-2697.527344048711
 10
1773.383745070158
 20
-2697.804499981952
 10
1773.452552678588
 20
-2698.083562934291
 10
1773.511719239973
 20
-2698.364660040336
 10
1773.560642188873
 20
-2698.647918434694
 10
1773.598718959848
 20
-2698.933465251971
 10
1773.625346987457
 20
-2699.221427626774
 10
1773.639923708236
 20
-2699.511932693264
 10
1773.642368488442
 20
-2699.804990159942
 10
1773.634591603908
 20
-2700.100161813161
 10
1773.618977967825
 20
-2700.396902653629
 10
1773.573780093773
 20
-2700.992911899113
 10
1773.525854171815
 20
-2701.588657902017
 10
1773.506830475848
 20
-2701.885069689259
 10
1773.494279507478
 20
-2702.179780667965
 10
1773.490586179894
 20
-2702.472245838837
 10
1773.498135406287
 20
-2702.761920202579
 10
1773.51931209985
 20
-2703.048258759894
 10
1773.535756032191
 20
-2703.19000679886
 10
1773.556501173772
 20
-2703.330716511483
 10
1773.58184563874
 20
-2703.47031977285
 10
1773.612087541244
 20
-2703.608748458051
 10
1773.647524995434
 20
-2703.745934442172
 10
1773.688456115458
 20
-2703.8818096003
 10
1773.735179015466
 20
-2704.016305807524
 10
1773.787991809604
 20
-2704.149354938932
 10
1773.847155117882
 20
-2704.280885987779
 10
1773.912619627223
 20
-2704.410804125577
 10
1773.984183138339
 20
-2704.539002772865
 10
1774.061642375184
 20
-2704.665375267426
 10
1774.144794061715
 20
-2704.789814947037
 10
1774.233434921887
 20
-2704.912215149478
 10
1774.327361679656
 20
-2705.032469212528
 10
1774.42637105898
 20
-2705.150470473968
 10
1774.530259783812
 20
-2705.266112271576
 10
1774.63882457811
 20
-2705.379287943133
 10
1774.751862165828
 20
-2705.489890826417
 10
1774.869169270924
 20
-2705.597814259208
 10
1774.990542617354
 20
-2705.702951579286
 10
1775.115778929072
 20
-2705.80519612443
 10
1775.244674930036
 20
-2705.90444123242
 10
1775.377027344201
 20
-2706.000580241035
 10
1775.512632895523
 20
-2706.093506488055
 10
1775.651288307957
 20
-2706.183113311259
 10
1775.792790305461
 20
-2706.269294048428
 10
1775.936935611991
 20
-2706.351942037339
 10
1776.0835209515
 20
-2706.430950615773
 10
1776.232343047947
 20
-2706.50621312151
 10
1776.383198625287
 20
-2706.577622892328
 10
1776.535884407475
 20
-2706.645073266007
 10
1776.690197118469
 20
-2706.708457580329
 10
1776.845933482223
 20
-2706.76766917307
 10
1777.002890222694
 20
-2706.822601382011
 10
1777.160864063837
 20
-2706.873147544932
 10
1777.319651729609
 20
-2706.919200999612
 10
1777.479049943966
 20
-2706.96065508383
 10
1777.638855430864
 20
-2706.997403135367
 10
1777.798864914258
 20
-2707.029338492001
 10
1777.958875118104
 20
-2707.056354491512
 10
1778.118682766359
 20
-2707.078344471679
 10
1778.278084582979
 20
-2707.095201770283
 10
1778.436877291919
 20
-2707.106819725102
 10
1778.594857617135
 20
-2707.113091673916
 10
1778.751822282584
 20
-2707.113910954506
 10
1778.907568012221
 20
-2707.109170904649
 10
1779.061891530002
 20
-2707.098764862126
 10
1779.214589559884
 20
-2707.082586164717
 10
1779.365458825821
 20
-2707.0605281502
 10
1779.514296051771
 20
-2707.032484156355
 10
1779.660897961689
 20
-2706.998347520963
 10
1779.805061279532
 20
-2706.958011581802
 10
1779.946582729254
 20
-2706.911369676651
 10
1780.085259034813
 20
-2706.85831514329
 10
1780.220886920163
 20
-2706.7987413195
 10
1780.353275323082
 20
-2706.732564664922
 10
1780.48233880187
 20
-2706.659901588386
 10
1780.608046009188
 20
-2706.580970904219
 10
1780.730366036206
 20
-2706.495992256887
 10
1780.849267974091
 20
-2706.405185290856
 10
1780.964720914012
 20
-2706.308769650592
 10
1781.07669394714
 20
-2706.206964980561
 10
1781.185156164641
 20
-2706.099990925227
 10
1781.290076657685
 20
-2705.988067129055
 10
1781.391424517441
 20
-2705.871413236513
 10
1781.489168835079
 20
-2705.750248892066
 10
1781.583278701765
 20
-2705.624793740178
 10
1781.673723208671
 20
-2705.495267425316
 10
1781.760471446963
 20
-2705.361889591945
 10
1781.843492507812
 20
-2705.224879884531
 10
1781.922755482385
 20
-2705.084457947539
 10
1781.998229461853
 20
-2704.940843425435
 10
1782.069883537383
 20
-2704.794255962683
 10
1782.137686800145
 20
-2704.644915203751
 10
1782.201608341307
 20
-2704.493040793104
 10
1782.261617252038
 20
-2704.338852375206
 10
1782.317682623506
 20
-2704.182569594523
 10
1782.369773546883
 20
-2704.024412095523
 10
1782.417859113334
 20
-2703.864599522668
 10
1782.46190841403
 20
-2703.703351520426
 10
1782.50189054014
 20
-2703.540887733262
 10
1782.537774582832
 20
-2703.377427805641
 10
1782.569529633275
 20
-2703.213191382028
 10
1782.597124782638
 20
-2703.048398106891
 10
1782.620529122089
 20
-2702.883267624693
 10
1782.639711742798
 20
-2702.718019579901
 10
1782.654641735933
 20
-2702.55287361698
 10
1782.665288192664
 20
-2702.388049380396
 10
1782.671620204159
 20
-2702.223766514615
 10
1782.673606861586
 20
-2702.060244664101
 10
1782.671217256116
 20
-2701.897703473321
 10
1782.664420478916
 20
-2701.736362586739
 10
1782.653185621155
 20
-2701.576441648822
 10
1782.637481774003
 20
-2701.418160304035
 10
1782.617278028627
 20
-2701.261738196843
 10
1782.592543476198
 20
-2701.107394971713
 10
1782.563247207884
 20
-2700.955350273111
 10
1782.529358314853
 20
-2700.805823745499
 10
1782.490845888275
 20
-2700.659035033346
 10
1782.447679019318
 20
-2700.515203781115
 10
1782.399826799151
 20
-2700.374549633276
 10
1782.347258318944
 20
-2700.23729223429
 10
1782.289942669863
 20
-2700.103651228624
 10
1782.22784894308
 20
-2699.973846260743
 10
1782.160948226076
 20
-2699.848093147677
 10
1782.089287137132
 20
-2699.726462894825
 10
1782.013009227383
 20
-2699.608840662819
 10
1781.932264408372
 20
-2699.495099417773
 10
1781.847202591647
 20
-2699.385112125801
 10
1781.757973688751
 20
-2699.278751753018
 10
1781.664727611229
 20
-2699.175891265537
 10
1781.567614270629
 20
-2699.076403629477
 10
1781.466783578492
 20
-2698.980161810947
 10
1781.362385446366
 20
-2698.887038776065
 10
1781.254569785796
 20
-2698.796907490944
 10
1781.143486508326
 20
-2698.709640921699
 10
1781.029285525502
 20
-2698.625112034444
 10
1780.792130089972
 20
-2698.463759170365
 10
1780.544302771566
 20
-2698.311832627621
 10
1780.287002862648
 20
-2698.16831613513
 10
1780.021429655576
 20
-2698.032193421805
 10
1779.748782442714
 20
-2697.902448216566
 10
1779.470260516422
 20
-2697.778064248326
 10
1779.187063169061
 20
-2697.658025246003
 10
1778.900389692993
 20
-2697.541314938511
 10
1777.742920348873
 20
-2697.087435235186
 10
1777.456855614688
 20
-2696.972124335595
 10
1777.174364321003
 20
-2696.854166591515
 10
1776.895611020073
 20
-2696.733409900814
 10
1776.620426375151
 20
-2696.609981010618
 10
1776.348640450236
 20
-2696.484007168523
 10
1776.080083309328
 20
-2696.355615622123
 10
1775.551975635531
 20
-2696.092088406788
 10
1775.034743865757
 20
-2695.820417345373
 10
1774.527028512003
 20
-2695.541620418638
 10
1774.027470086268
 20
-2695.256715607343
 10
1773.534709100546
 20
-2694.96672089225
 10
1773.047386066837
 20
-2694.672654254116
 10
1772.564141497135
 20
-2694.375533673701
 10
1771.604449797748
 20
-2693.776202609074
  0
LWPOLYLINE
  5
254
330
1F
100
AcDbEntity
  8
Ech.1_5
 62
   154
420
    21156
370
    20
100
AcDbPolyline
 90
      167
 70
     0
 43
0.0
 10
1752.040344791472
 20
-2697.184787414999
 10
1752.36070885755
 20
-2697.677524530758
 10
1752.674788100108
 20
-2698.171738377945
 10
1752.827506905217
 20
-2698.419860554395
 10
1752.976297695625
 20
-2698.66890568799
 10
1753.120374868394
 20
-2698.919058370155
 10
1753.258952820582
 20
-2699.170503192322
 10
1753.39124594925
 20
-2699.423424745916
 10
1753.516468651458
 20
-2699.678007622369
 10
1753.633835324266
 20
-2699.934436413107
 10
1753.742560364733
 20
-2700.19289570956
 10
1753.841858169921
 20
-2700.453570103156
 10
1753.930943136887
 20
-2700.716644185325
 10
1754.009029662694
 20
-2700.982302547493
 10
1754.0753321444
 20
-2701.250729781092
 10
1754.129064979066
 20
-2701.522110477548
 10
1754.169442563752
 20
-2701.79662922829
 10
1754.195685074242
 20
-2702.074469249657
 10
1754.207955699955
 20
-2702.355589360973
 10
1754.208397547712
 20
-2702.639477245689
 10
1754.199403389456
 20
-2702.925561177605
 10
1754.183365997136
 20
-2703.213269430523
 10
1754.162678142697
 20
-2703.502030278241
 10
1754.116922135251
 20
-2704.080422853287
 10
1754.096639526137
 20
-2704.368911128216
 10
1754.081277542691
 20
-2704.656165093149
 10
1754.073228956859
 20
-2704.941613021888
 10
1754.074886540588
 20
-2705.224683188234
 10
1754.088643065825
 20
-2705.504803865987
 10
1754.100806172742
 20
-2705.643579482203
 10
1754.116891304516
 20
-2705.781403328947
 10
1754.137197557641
 20
-2705.918203940442
 10
1754.162024028608
 20
-2706.053909850915
 10
1754.191669813913
 20
-2706.188449594591
 10
1754.226434010048
 20
-2706.321751705694
 10
1754.266615713506
 20
-2706.453744718449
 10
1754.312514020781
 20
-2706.584357167083
 10
1754.364427190345
 20
-2706.713517545052
 10
1754.422509598565
 20
-2706.841147346486
 10
1754.486609789286
 20
-2706.967153187897
 10
1754.556537181083
 20
-2707.0914397825
 10
1754.632101192533
 20
-2707.213911843508
 10
1754.713111242211
 20
-2707.334474084134
 10
1754.799376748692
 20
-2707.453031217594
 10
1754.890707130551
 20
-2707.569487957099
 10
1754.986911806366
 20
-2707.683749015865
 10
1755.087800194711
 20
-2707.795719107103
 10
1755.193181714161
 20
-2707.90530294403
 10
1755.302865783293
 20
-2708.012405239858
 10
1755.416661820683
 20
-2708.116930707802
 10
1755.534379244904
 20
-2708.218784061074
 10
1755.655827474534
 20
-2708.317870012889
 10
1755.780815928148
 20
-2708.414093276459
 10
1755.909154024321
 20
-2708.507358565
 10
1756.04065118163
 20
-2708.597570591726
 10
1756.175116818649
 20
-2708.684634069849
 10
1756.312360353955
 20
-2708.768453712583
 10
1756.452191206123
 20
-2708.848934233142
 10
1756.594418793728
 20
-2708.92598034474
 10
1756.738852535346
 20
-2708.999496760591
 10
1756.885301849553
 20
-2709.069388193908
 10
1757.033576154925
 20
-2709.135559357906
 10
1757.183484870036
 20
-2709.197914965797
 10
1757.334837413464
 20
-2709.256359730797
 10
1757.487443203782
 20
-2709.310798366118
 10
1757.641111659567
 20
-2709.361135584973
 10
1757.795652199395
 20
-2709.407276100578
 10
1757.950874241841
 20
-2709.449124626145
 10
1758.10658720548
 20
-2709.48658587489
 10
1758.262600508889
 20
-2709.519564560024
 10
1758.418723570643
 20
-2709.547965394762
 10
1758.574765809317
 20
-2709.571693092319
 10
1758.730536643487
 20
-2709.590652365905
 10
1758.885845491729
 20
-2709.604747928739
 10
1759.040501772619
 20
-2709.61388449403
 10
1759.194314904732
 20
-2709.617966774996
 10
1759.347094306642
 20
-2709.616899484847
 10
1759.498649396927
 20
-2709.610587336799
 10
1759.648789594163
 20
-2709.598935044064
 10
1759.797324316923
 20
-2709.581847319858
 10
1759.944062983785
 20
-2709.559228877393
 10
1760.088815013323
 20
-2709.530984429884
 10
1760.231389824113
 20
-2709.497018690543
 10
1760.371596834731
 20
-2709.457236372586
 10
1760.509245463752
 20
-2709.411542189225
 10
1760.644145129753
 20
-2709.359840853675
 10
1760.776105251309
 20
-2709.302037079148
 10
1760.904948046377
 20
-2709.238058264783
 10
1761.03059829447
 20
-2709.168013592204
 10
1761.153030056887
 20
-2709.092099591222
 10
1761.272217707917
 20
-2709.010513346398
 10
1761.388135621848
 20
-2708.923451942292
 10
1761.500758172969
 20
-2708.831112463467
 10
1761.610059735568
 20
-2708.733691994482
 10
1761.716014683935
 20
-2708.6313876199
 10
1761.818597392357
 20
-2708.52439642428
 10
1761.917782235123
 20
-2708.412915492185
 10
1762.013543586522
 20
-2708.297141908175
 10
1762.105855820842
 20
-2708.17727275681
 10
1762.194693312373
 20
-2708.053505122653
 10
1762.280030435403
 20
-2707.926036090264
 10
1762.361841564219
 20
-2707.795062744205
 10
1762.440101073111
 20
-2707.660782169035
 10
1762.514783336369
 20
-2707.523391449316
 10
1762.585862728278
 20
-2707.38308766961
 10
1762.65331362313
 20
-2707.240067914478
 10
1762.717110395212
 20
-2707.094529268479
 10
1762.777227418812
 20
-2706.946668816175
 10
1762.833639068221
 20
-2706.796683642129
 10
1762.886319717725
 20
-2706.6447708309
 10
1762.935243741615
 20
-2706.491127467049
 10
1762.980385514177
 20
-2706.335950635137
 10
1763.021719409701
 20
-2706.179437419726
 10
1763.09286106679
 20
-2705.86319017665
 10
1763.148463707189
 20
-2705.543962414308
 10
1763.188322325209
 20
-2705.223330809188
 10
1763.202283561547
 20
-2705.062981276989
 10
1763.212231915157
 20
-2704.902872037779
 10
1763.218141760325
 20
-2704.743200176118
 10
1763.219987471341
 20
-2704.584162776569
 10
1763.217743422495
 20
-2704.425956923691
 10
1763.211383988073
 20
-2704.268779702046
 10
1763.200883542365
 20
-2704.112828196195
 10
1763.186216459659
 20
-2703.958299490698
 10
1763.167357114244
 20
-2703.805390670118
 10
1763.14427988041
 20
-2703.654298819014
 10
1763.116959132443
 20
-2703.505221021948
 10
1763.085369244632
 20
-2703.358354363481
 10
1763.049484591267
 20
-2703.213895928175
 10
1763.009279546637
 20
-2703.072042800589
 10
1762.964728485028
 20
-2702.932992065286
 10
1762.915805780731
 20
-2702.796940806824
 10
1762.862485808034
 20
-2702.664086109769
 10
1762.804742941225
 20
-2702.534625058677
 10
1762.742551554593
 20
-2702.408754738112
 10
1762.675908689213
 20
-2702.286628976735
 10
1762.604913827117
 20
-2702.168206111192
 10
1762.529695376494
 20
-2702.053389277235
 10
1762.450381747258
 20
-2701.942081607321
 10
1762.367101349322
 20
-2701.83418623391
 10
1762.279982592601
 20
-2701.72960628946
 10
1762.189153887008
 20
-2701.628244906429
 10
1762.094743642458
 20
-2701.530005217276
 10
1761.996880268864
 20
-2701.434790354459
 10
1761.895692176141
 20
-2701.342503450436
 10
1761.791307774201
 20
-2701.253047637668
 10
1761.57346368233
 20
-2701.082241815725
 10
1761.344375272562
 20
-2700.921597948296
 10
1761.105069824209
 20
-2700.770341095052
 10
1760.856574616582
 20
-2700.627696315657
 10
1760.599916928992
 20
-2700.492888669783
 10
1760.336124040751
 20
-2700.365143217095
 10
1760.06622323117
 20
-2700.243685017261
 10
1759.79124177956
 20
-2700.12773912995
 10
1759.512206965233
 20
-2700.016530614831
 10
1758.946086365671
 20
-2699.805225939835
 10
1758.376079666975
 20
-2699.603571469616
 10
1757.810371012827
 20
-2699.405391173524
 10
1757.254076753386
 20
-2699.206623040128
 10
1756.706852899983
 20
-2699.006967782286
 10
1756.167792412016
 20
-2698.806514112443
 10
1755.63598824888
 20
-2698.605350743042
 10
1755.110533369971
 20
-2698.40356638653
 10
1754.590520734685
 20
-2698.20124975535
 10
1754.075043302419
 20
-2697.998489561948
 10
1753.05406588453
 20
-2697.591993338252
 10
1752.040344791472
 20
-2697.184787414999
  0
LWPOLYLINE
  5
255
330
1F
100
AcDbEntity
  8
Ech.1_5
 62
   154
420
    21156
370
    20
100
AcDbPolyline
 90
       70
 70
     0
 43
0.0
 10
1761.738703854027
 20
-2702.336730151866
 10
1761.695536459969
 20
-2702.60803758059
 10
1761.652381749491
 20
-2702.883877239009
 10
1761.609252406173
 20
-2703.168781356812
 10
1761.566161113594
 20
-2703.467282163695
 10
1761.544633699951
 20
-2703.623047647319
 10
1761.523120555335
 20
-2703.783911889349
 10
1761.501623265193
 20
-2703.950441418494
 10
1761.480143414974
 20
-2704.123202763467
 10
1761.458682590125
 20
-2704.30276245298
 10
1761.437242376093
 20
-2704.489687015743
 10
1761.415824358326
 20
-2704.684542980469
 10
1761.394479705485
 20
-2704.887656979626
 10
1761.373679433792
 20
-2705.097324316049
 10
1761.354105871119
 20
-2705.310817912865
 10
1761.321374609465
 20
-2705.738344493779
 10
1761.309584778796
 20
-2705.946907780924
 10
1761.301757393777
 20
-2706.148357934561
 10
1761.298576388562
 20
-2706.339960106213
 10
1761.300725697309
 20
-2706.518979447405
 10
1761.304012948842
 20
-2706.602915916431
 10
1761.308889254174
 20
-2706.682681109663
 10
1761.315440105075
 20
-2706.757933171042
 10
1761.323750993315
 20
-2706.828330244508
 10
1761.333907410662
 20
-2706.893530474003
 10
1761.345994848887
 20
-2706.953192003467
 10
1761.36009879976
 20
-2707.00697297684
 10
1761.376304755048
 20
-2707.054531538062
 10
1761.394698206524
 20
-2707.095525831076
 10
1761.415364645955
 20
-2707.12961399982
 10
1761.438389565112
 20
-2707.156454188236
 10
1761.463858455765
 20
-2707.175704540264
 10
1761.491856809681
 20
-2707.187023199844
 10
1761.522462674453
 20
-2707.190085515896
 10
1761.555604629182
 20
-2707.18491228877
 10
1761.591072952555
 20
-2707.1718439586
 10
1761.628652716915
 20
-2707.151232998412
 10
1761.668128994609
 20
-2707.123431881234
 10
1761.709286857982
 20
-2707.088793080089
 10
1761.751911379378
 20
-2707.047669068005
 10
1761.795787631143
 20
-2707.000412318007
 10
1761.840700685623
 20
-2706.947375303121
 10
1761.886435615162
 20
-2706.888910496373
 10
1761.932777492106
 20
-2706.825370370789
 10
1761.979511388799
 20
-2706.757107399395
 10
1762.026422377588
 20
-2706.684474055216
 10
1762.119915920832
 20
-2706.527506140611
 10
1762.211538700599
 20
-2706.357286411178
 10
1762.29957129565
 20
-2706.176634651127
 10
1762.382294284749
 20
-2705.988370644664
 10
1762.457988246656
 20
-2705.795314175995
 10
1762.524933760132
 20
-2705.60028502933
 10
1762.58141140394
 20
-2705.406102988874
 10
1762.625707416787
 20
-2705.215580539948
 10
1762.656856803821
 20
-2705.030564582275
 10
1762.675384495978
 20
-2704.850980654256
 10
1762.68199169853
 20
-2704.676526976465
 10
1762.677379616746
 20
-2704.506901769476
 10
1762.662249455898
 20
-2704.341803253865
 10
1762.637302421257
 20
-2704.180929650207
 10
1762.603239718094
 20
-2704.023979179075
 10
1762.56076255168
 20
-2703.870650061046
 10
1762.510572127286
 20
-2703.720640516694
 10
1762.453369650181
 20
-2703.573648766594
 10
1762.389856325639
 20
-2703.42937303132
 10
1762.320733358929
 20
-2703.287511531448
 10
1762.246701955322
 20
-2703.147762487552
 10
1762.086718658503
 20
-2702.873394649988
 10
1761.915516077348
 20
-2702.603855283226
 10
1761.738703854027
 20
-2702.336730151866
  0
LWPOLYLINE
  5
256
330
1F
100
AcDbEntity
  8
Ech.1_5
 62
   154
420
    21156
370
    20
100
AcDbPolyline
 90
       70
 70
     0
 43
0.0
 10
1780.171114266912
 20
-2699.372069725619
 10
1780.127946872854
 20
-2699.643377154345
 10
1780.084792162376
 20
-2699.919216812763
 10
1780.041662819058
 20
-2700.204120930567
 10
1779.998571526479
 20
-2700.502621737449
 10
1779.977044112836
 20
-2700.658387221075
 10
1779.955530968221
 20
-2700.819251463105
 10
1779.934033678079
 20
-2700.985780992251
 10
1779.91255382786
 20
-2701.158542337224
 10
1779.891093003011
 20
-2701.338102026737
 10
1779.869652788979
 20
-2701.525026589501
 10
1779.848234771212
 20
-2701.719882554227
 10
1779.826890118371
 20
-2701.922996553385
 10
1779.806089846678
 20
-2702.132663889808
 10
1779.786516284005
 20
-2702.346157486625
 10
1779.753785022351
 20
-2702.773684067539
 10
1779.741995191683
 20
-2702.982247354685
 10
1779.734167806663
 20
-2703.183697508322
 10
1779.730986801448
 20
-2703.375299679974
 10
1779.733136110194
 20
-2703.554319021167
 10
1779.736423361727
 20
-2703.638255490192
 10
1779.74129966706
 20
-2703.718020683424
 10
1779.747850517961
 20
-2703.793272744803
 10
1779.756161406201
 20
-2703.86366981827
 10
1779.766317823548
 20
-2703.928870047765
 10
1779.778405261773
 20
-2703.988531577228
 10
1779.792509212646
 20
-2704.042312550602
 10
1779.808715167935
 20
-2704.089871111824
 10
1779.82710861941
 20
-2704.130865404838
 10
1779.847775058842
 20
-2704.164953573582
 10
1779.870799977999
 20
-2704.191793761998
 10
1779.896268868651
 20
-2704.211044114026
 10
1779.924267222568
 20
-2704.222362773606
 10
1779.95487308734
 20
-2704.225425089659
 10
1779.98801504207
 20
-2704.220251862532
 10
1780.023483365442
 20
-2704.207183532362
 10
1780.061063129802
 20
-2704.186572572174
 10
1780.100539407496
 20
-2704.158771454994
 10
1780.141697270869
 20
-2704.12413265385
 10
1780.184321792265
 20
-2704.083008641766
 10
1780.228198044031
 20
-2704.035751891768
 10
1780.273111098511
 20
-2703.982714876882
 10
1780.318846028049
 20
-2703.924250070133
 10
1780.365187904993
 20
-2703.860709944549
 10
1780.411921801687
 20
-2703.792446973155
 10
1780.458832790476
 20
-2703.719813628977
 10
1780.55232633372
 20
-2703.562845714371
 10
1780.643949113487
 20
-2703.392625984937
 10
1780.731981708538
 20
-2703.211974224886
 10
1780.814704697637
 20
-2703.023710218422
 10
1780.890398659544
 20
-2702.830653749754
 10
1780.95734417302
 20
-2702.635624603088
 10
1781.013821816829
 20
-2702.441442562632
 10
1781.058117829675
 20
-2702.250920113706
 10
1781.089267216709
 20
-2702.065904156033
 10
1781.107794908866
 20
-2701.886320228014
 10
1781.114402111417
 20
-2701.711866550221
 10
1781.109790029634
 20
-2701.542241343232
 10
1781.094659868786
 20
-2701.377142827622
 10
1781.069712834145
 20
-2701.216269223963
 10
1781.035650130981
 20
-2701.059318752832
 10
1780.993172964567
 20
-2700.905989634802
 10
1780.942982540172
 20
-2700.75598009045
 10
1780.885780063067
 20
-2700.608988340349
 10
1780.822266738525
 20
-2700.464712605075
 10
1780.753143771815
 20
-2700.322851105203
 10
1780.679112368208
 20
-2700.183102061306
 10
1780.519129071389
 20
-2699.908734223742
 10
1780.347926490234
 20
-2699.639194856979
 10
1780.171114266912
 20
-2699.372069725619
  0
HATCH
  5
257
330
1F
100
AcDbEntity
  8
Ech.1_5
 62
    33
420
 12426362
440
 33554687
370
     5
100
AcDbHatch
 10
0.0
 20
0.0
 30
0.0
210
0.0
220
0.0
230
1.0
  2
SOLID
 70
     1
 71
     1
 91
        2
 92
        3
 72
     0
 73
     1
 93
        5
 10
1721.038912125174
 20
-2871.702974444614
 10
1721.038912125174
 20
-2901.44719975439
 10
1769.038912125174
 20
-2901.447199754389
 10
1769.037420025466
 20
-2871.70337575816
 10
1745.037818527595
 20
-2857.847199372924
 97
        0
 92
        1
 93
        2
 72
     2
 10
1745.038328445043
 20
-2881.976799167263
 40
3.800000190734181
 50
269.9999999999997
 51
450.0000000000106
 73
     0
 72
     2
 10
1745.038328445044
 20
-2881.976799167263
 40
3.800000190734181
 50
90.00000000002159
 51
269.9999999999887
 73
     0
 97
        0
 75
     0
 76
     1
 98
        0
  0
LWPOLYLINE
  5
258
330
1F
100
AcDbEntity
  8
Ech.1_5
 62
     7
370
    20
100
AcDbPolyline
 90
        6
 70
   128
 43
0.0
 10
1721.038912125174
 20
-2871.702974444614
 10
1721.038912125174
 20
-2901.44719975439
 10
1769.038912125174
 20
-2901.447199754389
 10
1769.037420025466
 20
-2871.70337575816
 10
1745.037818527595
 20
-2857.847199372924
 10
1721.038912125174
 20
-2871.702974444614
  0
LWPOLYLINE
  5
259
330
1F
100
AcDbEntity
  8
Ech.1_5
 62
     7
370
    20
100
AcDbPolyline
 90
        3
 70
   128
 43
0.0
 10
1745.038328445043
 20
-2878.176798976529
 42
-1.000000000000096
 10
1745.038328445042
 20
-2885.776799357998
 42
-0.9999999999997128
 10
1745.038328445043
 20
-2878.176798976529
  0
CIRCLE
  5
25A
330
1F
100
AcDbEntity
  8
Ech.1_5
 62
   190
370
    20
100
AcDbCircle
 10
1745.038328445043
 20
-2881.976799167263
 30
0.0
 40
3.800000190734863
  0
LINE
  5
25B
330
1F
100
AcDbEntity
  8
Ech.1_5
 62
   190
370
    20
100
AcDbLine
 10
1599.901504499833
 20
-2717.998597005462
 30
0.0
 11
1599.901504499833
 21
-3039.153204080056
 31
0.0
  0
LWPOLYLINE
  5
25C
330
1F
100
AcDbEntity
  8
Ech.1_5
 62
     7
370
    20
100
AcDbPolyline
 90
        3
 70
     0
 43
0.0
 10
1599.901504499731
 20
-2877.776798976529
 10
1589.101504499731
 20
-2877.776798976529
 10
1589.101504499731
 20
-2717.998597005462
  0
HATCH
  5
25D
330
1F
100
AcDbEntity
  8
Ech.1_5
 62
    17
420
  8405056
440
 33554687
370
    20
100
AcDbHatch
 10
0.0
 20
0.0
 30
0.0
210
0.0
220
0.0
230
1.0
  2
SOLID
 70
     1
 71
     1
 91
        1
 92
        3
 72
     0
 73
     1
 93
        4
 10
1578.301504499731
 20
-2877.776798976529
 10
1578.278670013147
 20
-2717.998597005462
 10
1570.278670013147
 20
-2717.998597005462
 10
1570.278670013147
 20
-2877.776798976529
 97
        0
 75
     0
 76
     1
 98
        0
  0
LWPOLYLINE
  5
25E
330
1F
100
AcDbEntity
  8
Ech.1_5
 62
     7
370
    20
100
AcDbPolyline
 90
        5
 70
     0
 43
0.0
 10
1578.301504499731
 20
-2877.776798976529
 10
1578.278670013147
 20
-2717.998597005462
 10
1570.278670013147
 20
-2717.998597005462
 10
1570.278670013147
 20
-2877.776798976529
 10
1578.301504499731
 20
-2877.776798976529
  0
LWPOLYLINE
  5
25F
330
1F
100
AcDbEntity
  8
Ech.1_5
 62
     7
370
    20
100
AcDbPolyline
 90
        4
 70
     0
 43
0.0
 10
1570.278670013147
 20
-2717.998597005462
 10
1570.278670013147
 20
-2877.776798976529
 10
1578.301504499731
 20
-2877.776798976529
 10
1578.278670013147
 20
-2717.998597005462
  0
HATCH
  5
260
330
1F
100
AcDbEntity
  8
Ech.1_5
 62
    35
420
  9529928
440
 33554687
370
    20
100
AcDbHatch
 10
0.0
 20
0.0
 30
0.0
210
0.0
220
0.0
230
1.0
  2
SOLID
 70
     1
 71
     1
 91
        1
 92
        3
 72
     0
 73
     1
 93
        4
 10
1599.901504499731
 20
-2877.776798976529
 10
1599.901504499732
 20
-2717.998597005462
 10
1589.101504499704
 20
-2717.998597005462
 10
1589.101504499731
 20
-2877.776798976529
 97
        0
 75
     0
 76
     1
 98
        0
  0
LWPOLYLINE
  5
261
330
1F
100
AcDbEntity
  8
Ech.1_5
 62
   190
370
    20
100
AcDbPolyline
 90
        5
 70
     0
 43
0.0
 10
1599.901504499731
 20
-2877.776798976529
 10
1599.901504499732
 20
-2717.998597005462
 10
1589.101504499704
 20
-2717.998597005462
 10
1589.101504499731
 20
-2877.776798976529
 10
1599.901504499731
 20
-2877.776798976529
  0
HATCH
  5
262
330
1F
100
AcDbEntity
  8
Ech.1_5
 62
    35
420
  9529928
440
 33554687
370
    20
100
AcDbHatch
 10
0.0
 20
0.0
 30
0.0
210
0.0
220
0.0
230
1.0
  2
SOLID
 70
     1
 71
     1
 91
        1
 92
        3
 72
     0
 73
     1
 93
        4
 10
1599.914378974329
 20
-2886.576799357993
 10
1589.114378974329
 20
-2886.576799357993
 10
1589.114378974305
 20
-3039.1545914301
 10
1599.91437897433
 20
-3039.1545914301
 97
        0
 75
     0
 76
     1
 98
        0
  0
LWPOLYLINE
  5
263
330
1F
100
AcDbEntity
  8
Ech.1_5
 62
   190
370
    20
100
AcDbPolyline
 90
        5
 70
     0
 43
0.0
 10
1599.914378974329
 20
-2886.576799357993
 10
1589.114378974329
 20
-2886.576799357993
 10
1589.114378974305
 20
-3039.1545914301
 10
1599.91437897433
 20
-3039.1545914301
 10
1599.914378974329
 20
-2886.576799357993
  0
LWPOLYLINE
  5
264
330
1F
100
AcDbEntity
  8
Ech.1_5
 62
     7
370
    20
100
AcDbPolyline
 90
        3
 70
     0
 43
0.0
 10
1599.914378974329
 20
-2886.576799357993
 10
1589.114378974329
 20
-2886.576799357993
 10
1589.114378974329
 20
-3039.1545914301
  0
HATCH
  5
265
330
1F
100
AcDbEntity
  8
Ech.1_5
 62
    17
420
  8405056
440
 33554687
370
    20
100
AcDbHatch
 10
0.0
 20
0.0
 30
0.0
210
0.0
220
0.0
230
1.0
  2
SOLID
 70
     1
 71
     1
 91
        1
 92
        3
 72
     0
 73
     1
 93
        4
 10
1578.314378974329
 20
-2886.576799357993
 10
1570.291544487745
 20
-2886.576799357993
 10
1570.291544487745
 20
-3039.154581741051
 10
1578.294316712995
 20
-3039.154581741051
 97
        0
 75
     0
 76
     1
 98
        0
  0
LWPOLYLINE
  5
266
330
1F
100
AcDbEntity
  8
Ech.1_5
 62
     7
370
    20
100
AcDbPolyline
 90
        5
 70
     0
 43
0.0
 10
1578.314378974329
 20
-2886.576799357993
 10
1570.291544487745
 20
-2886.576799357993
 10
1570.291544487745
 20
-3039.154581741051
 10
1578.294316712995
 20
-3039.154581741051
 10
1578.314378974329
 20
-2886.576799357993
  0
LWPOLYLINE
  5
267
330
1F
100
AcDbEntity
  8
Ech.1_5
 62
     7
370
    20
100
AcDbPolyline
 90
        4
 70
     0
 43
0.0
 10
1570.291544487745
 20
-3039.154581741051
 10
1570.291544487745
 20
-2886.576799357993
 10
1578.314378974329
 20
-2886.576799357993
 10
1578.294316712995
 20
-3039.154581741051
  0
LWPOLYLINE
  5
268
330
1F
100
AcDbEntity
  8
Ech.1_5
 62
   190
370
    20
100
AcDbPolyline
 90
        3
 70
     0
 43
0.0
 10
1637.73718192591
 20
-2775.748743545918
 10
1558.887378306549
 20
-2775.748743545918
 10
1550.887378306549
 20
-2775.748743545918
  0
INSERT
  5
269
330
1F
100
AcDbEntity
  8
Ech.1_5
 62
   190
370
    20
100
AcDbBlockReference
  2
cw-line-extremity4
 10
1637.73718192591
 20
-2775.748743545918
 30
0.0
 50
180.0
  0
LWPOLYLINE
  5
26A
330
1F
100
AcDbEntity
  8
Ech.1_5
 62
   190
370
    20
100
AcDbPolyline
 90
        3
 70
     0
 43
0.0
 10
1574.28471670919
 20
-2807.102408062206
 10
1558.887378306549
 20
-2807.102408062206
 10
1550.887378306549
 20
-2807.102408062206
  0
INSERT
  5
26B
330
1F
100
AcDbEntity
  8
Ech.1_5
 62
   190
370
    20
100
AcDbBlockReference
  2
cw-line-extremity4
 10
1574.28471670919
 20
-2807.102408062206
 30
0.0
 50
180.0
  0
LWPOLYLINE
  5
26C
330
1F
100
AcDbEntity
  8
Ech.1_5
 62
   190
370
    20
100
AcDbPolyline
 90
        3
 70
     0
 43
0.0
 10
1594.904365224536
 20
-2751.581621735545
 10
1558.887378306549
 20
-2751.581621735545
 10
1550.887378306549
 20
-2751.581621735545
  0
INSERT
  5
26D
330
1F
100
AcDbEntity
  8
Ech.1_5
 62
   190
370
    20
100
AcDbBlockReference
  2
cw-line-extremity4
 10
1594.904365224536
 20
-2751.581621735545
 30
0.0
 50
180.0
  0
HATCH
  5
26E
330
1F
100
AcDbEntity
  8
Ech.1_5
 62
    33
420
 12426362
440
 33554687
370
    20
100
AcDbHatch
 10
0.0
 20
0.0
 30
0.0
210
0.0
220
0.0
230
1.0
  2
SOLID
 70
     1
 71
     1
 91
        1
 92
        3
 72
     0
 73
     1
 93
        4
 10
1578.312423684022
 20
-2901.44719975439
 10
1599.915124948353
 20
-2901.44719975439
 10
1599.912937753195
 20
-2857.84719937292
 10
1578.312423684022
 20
-2857.84719937292
 97
        0
 75
     0
 76
     1
 98
        0
  0
LWPOLYLINE
  5
26F
330
1F
100
AcDbEntity
  8
Ech.1_5
 62
     7
370
    20
100
AcDbPolyline
 90
        5
 70
     0
 43
0.0
 10
1578.312423684022
 20
-2901.44719975439
 10
1599.915124948353
 20
-2901.44719975439
 10
1599.912937753195
 20
-2857.84719937292
 10
1578.312423684022
 20
-2857.84719937292
 10
1578.312423684022
 20
-2901.44719975439
  0
LWPOLYLINE
  5
270
330
1F
100
AcDbEntity
  8
Ech.1_5
 62
   202
420
  8519880
370
    50
100
AcDbPolyline
 90
        4
 70
     0
 43
0.0
 10
1599.901504499713
 20
-2915.171592751015
 10
1599.901504499713
 20
-2909.175939383015
 10
1597.629259315713
 20
-2907.602046527016
 10
1597.629259315713
 20
-2900.210674523016
  0
LWPOLYLINE
  5
271
330
1F
100
AcDbEntity
  8
Ech.1_5
 62
   202
420
  8519880
370
    50
100
AcDbPolyline
 90
        4
 70
     0
 43
0.0
 10
1599.901504499712
 20
-2848.496522451141
 10
1599.901504499712
 20
-2853.692175819141
 10
1597.629259315711
 20
-2855.26606867514
 10
1597.629259315711
 20
-2860.657440675141
  0
LWPOLYLINE
  5
272
330
1F
100
AcDbEntity
  8
Ech.1_5
 62
   202
420
  8519880
370
    50
100
AcDbPolyline
 90
        4
 70
     0
 43
0.0
 10
1583.832972631713
 20
-2886.206782911498
 10
1594.868983667712
 20
-2886.206782911498
 42
-0.351643470000283
 10
1599.059747055713
 20
-2890.172906275496
 10
1599.059747055713
 20
-2907.772887183497
  0
LWPOLYLINE
  5
273
330
1F
100
AcDbEntity
  8
Ech.1_5
 62
   202
420
  8519880
370
    50
100
AcDbPolyline
 90
        4
 70
     0
 43
0.0
 10
1583.970482907711
 20
-2878.046479546219
 10
1595.023688499713
 20
-2878.046479546219
 42
0.351643470000531
 10
1599.214451887714
 20
-2874.080356182217
 10
1599.214451887714
 20
-2854.743099674217
  0
LINE
  5
274
330
1F
100
AcDbEntity
  8
Ech.1_5
 62
     7
370
    20
100
AcDbLine
 10
1578.312423683902
 20
-2871.702974444614
 30
0.0
 11
1599.901504499713
 21
-2871.702974444614
 31
0.0
  0
LWPOLYLINE
  5
275
330
1F
100
AcDbEntity
  8
Ech.1_5
 62
     7
370
    20
100
AcDbPolyline
 90
        7
 70
     0
 43
0.0
 10
1589.901504499653
 20
-2857.84719937292
 10
1599.912937753195
 20
-2857.84719937292
 10
1599.915124948353
 20
-2901.44719975439
 10
1589.901504499653
 20
-2901.44719975439
 10
1589.901504499653
 20
-2857.84719937292
 10
1589.889885890776
 20
-2857.84719937292
 10
1599.901504499833
 20
-2857.84719937292
  0
LWPOLYLINE
  5
276
330
1F
100
AcDbEntity
  8
Ech.1_5
 62
     1
370
    20
100
AcDbPolyline
 90
        3
 70
     0
 43
0.0
 10
1659.538050073954
 20
-2878.57679897653
 10
1637.820539513948
 20
-2878.57679897653
 10
1637.454008299207
 20
-2878.176798976524
  0
WIPEOUT
  5
277
330
1F
100
AcDbEntity
  8
Ech.1_5
160
               200
310
C8000000040000000C0000000E000000120000000C00000016000000000000C20C00000014000000010000009C000000070000000600000023FD12EA8D399840513C65855A7CA6C0000000000000000083EA525D8DEC9940513C65855A7CA6C00000000000000000F63C99F626EE99401E093252277DA6C000000000000000
310
00A98211F126EE9940846FD8EBC08AA6C00000000000000000E9A124578DEC9940513CA5B88D8BA6C000000000000000002FFD12EA8D399840443CA5B88D8BA6C00000000000000000
100
AcDbWipeout
 90
        0
 10
1550.388588234616
 20
-2885.776799357999
 30
0.0
 11
109.1494618393378
 21
0.0
 31
0.0
 12
0.0
 22
109.1494618393378
 32
0.0
 13
1.0
 23
1.0
340
0
 70
     4
280
     1
281
    50
282
    50
283
     0
360
0
 71
     2
 91
        7
 14
-0.5000000000000036
 24
0.4303707022151251
 14
0.4963353116696876
 24
0.4303707022151251
 14
0.4999999999999964
 24
0.4340354019145956
 14
0.4999998067238511
 24
0.496335300300526
 14
0.496335095655219
 24
0.4999999999999964
 14
-0.4999999999999787
 24
0.4999999999999432
 14
-0.5000000000000036
 24
0.4303707022151251
290
     0
  0
LWPOLYLINE
  5
278
330
1F
100
AcDbEntity
  8
Ech.1_5
 62
   190
370
    20
100
AcDbPolyline
 90
        7
 70
     0
 43
0.0
 10
1550.388588234616
 20
-2878.176798976529
 10
1659.138051314892
 20
-2878.176798976529
 10
1659.538050073954
 20
-2878.57679897653
 10
1659.538028977966
 20
-2885.376799357999
 10
1659.138027737029
 20
-2885.776799357999
 10
1550.388588234619
 20
-2885.776799357993
 10
1550.388588234616
 20
-2878.176798976529
  0
LINE
  5
279
330
1F
100
AcDbEntity
  8
Ech.1_5
 62
   190
370
    20
100
AcDbLine
 10
1659.138051314892
 20
-2878.176798976529
 30
0.0
 11
1659.138027737029
 21
-2885.776799357999
 31
0.0
  0
LINE
  5
27A
330
1F
100
AcDbEntity
  8
Ech.1_5
 62
   190
370
    20
100
AcDbLine
 10
1549.988588234616
 20
-2885.376799357999
 30
0.0
 11
1659.538028977966
 21
-2885.376799357993
 31
0.0
  0
LINE
  5
27B
330
1F
100
AcDbEntity
  8
Ech.1_5
 62
   190
370
    20
100
AcDbLine
 10
1549.988609330597
 20
-2878.57679897653
 30
0.0
 11
1659.538050073954
 21
-2878.57679897653
 31
0.0
  0
LWPOLYLINE
  5
27C
330
1F
100
AcDbEntity
  8
Ech.1_5
 62
   190
370
    20
100
AcDbPolyline
 90
        4
 70
     0
 43
0.0
 10
1550.388588234616
 20
-2878.176798976529
 10
1549.988609330597
 20
-2878.57679897653
 10
1549.988588234616
 20
-2885.376799357999
 10
1550.388588234619
 20
-2885.776799357993
  0
LWPOLYLINE
  5
27D
330
1F
100
AcDbEntity
  8
Ech.1_5
 62
   190
370
    20
100
AcDbPolyline
 90
        3
 70
     0
 43
0.0
 10
1595.098656338473
 20
-2895.769759716643
 10
1558.887378306549
 20
-2965.307986801897
 10
1550.887378306549
 20
-2965.307986801897
  0
INSERT
  5
27E
330
1F
100
AcDbEntity
  8
Ech.1_5
 62
   190
370
    20
100
AcDbBlockReference
  2
cw-line-extremity4
 10
1595.098656338473
 20
-2895.769759716643
 30
0.0
 50
242.4922418677786
  0
LWPOLYLINE
  5
27F
330
1F
100
AcDbEntity
  8
Ech.1_5
 62
   190
370
    20
100
AcDbPolyline
 90
        3
 70
     0
 43
0.0
 10
1580.683382102957
 20
-2881.549036752423
 10
1558.887378306549
 20
-2903.485852289218
 10
1550.887378306549
 20
-2903.485852289218
  0
INSERT
  5
280
330
1F
100
AcDbEntity
  8
Ech.1_5
 62
   190
370
    20
100
AcDbBlockReference
  2
cw-line-extremity4
 10
1580.683382102957
 20
-2881.549036752423
 30
0.0
 50
225.1844813728582
  0
LWPOLYLINE
  5
281
330
1F
100
AcDbEntity
  8
Ech.1_5
 62
   190
370
    20
100
AcDbPolyline
 90
        3
 70
     0
 43
0.0
 10
1574.290087256439
 20
-2877.376798976529
 10
1558.887378306549
 20
-2865.59839914148
 10
1550.887378306549
 20
-2865.59839914148
  0
INSERT
  5
282
330
1F
100
AcDbEntity
  8
Ech.1_5
 62
   190
370
    20
100
AcDbBlockReference
  2
cw-line-extremity4
 10
1574.290087256439
 20
-2877.376798976529
 30
0.0
 50
142.594977389913
  0
LWPOLYLINE
  5
283
330
1F
100
AcDbEntity
  8
Ech.1_5
 62
   190
370
    20
100
AcDbPolyline
 90
        3
 70
     0
 43
0.0
 10
1599.214451887714
 20
-2872.383263003219
 10
1558.887378306428
 20
-2842.829194162515
 10
1550.887378306428
 20
-2842.829194162515
  0
INSERT
  5
284
330
1F
100
AcDbEntity
  8
Ech.1_5
 62
   190
370
    20
100
AcDbBlockReference
  2
cw-line-extremity4
 10
1599.214451887714
 20
-2872.383263003219
 30
0.0
 50
143.7638300944146
  0
HATCH
  5
285
330
1F
100
AcDbEntity
  8
Ech.1_5
 62
    35
420
  9529928
440
 33554687
370
    20
100
AcDbHatch
 10
0.0
 20
0.0
 30
0.0
210
0.0
220
0.0
230
1.0
  2
SOLID
 70
     1
 71
     1
 91
        1
 92
        3
 72
     0
 73
     1
 93
        4
 10
1578.300035358709
 20
-3011.663059876088
 10
1578.300035358709
 20
-2995.663059685235
 10
1589.100035358709
 20
-2995.663059685235
 10
1589.100035358709
 20
-3011.663059685235
 97
        0
 75
     0
 76
     1
 98
        0
  0
LWPOLYLINE
  5
286
330
1F
100
AcDbEntity
  8
Ech.1_5
 62
   190
370
    20
100
AcDbPolyline
 90
        5
 70
     0
 43
0.0
 10
1578.300035358709
 20
-3011.663059876088
 10
1578.300035358709
 20
-2995.663059685235
 10
1589.100035358709
 20
-2995.663059685235
 10
1589.100035358709
 20
-3011.663059685235
 10
1578.300035358709
 20
-3011.663059876088
  0
LWPOLYLINE
  5
287
330
1F
100
AcDbEntity
  8
Ech.1_5
 62
   190
370
    20
100
AcDbPolyline
 90
        4
 70
     0
 43
0.0
 10
1589.100035358709
 20
-3011.663059685235
 10
1578.300035358709
 20
-2995.663059685235
 10
1589.100035358709
 20
-2995.663059685235
 10
1578.300035358709
 20
-3011.663014551614
  0
LWPOLYLINE
  5
288
330
1F
100
AcDbEntity
  8
Ech.1_5
 62
     5
370
    40
100
AcDbPolyline
 90
        5
 70
     0
 43
0.0
 10
1578.300035358709
 20
-3011.663014551614
 10
1578.300035358709
 20
-2995.663059685235
 10
1589.100035358709
 20
-2995.663059685235
 10
1589.100035358709
 20
-3011.663059685235
 10
1578.300035358709
 20
-3011.663014551614
  0
LINE
  5
289
330
1F
100
AcDbEntity
  8
Ech.1_5
 62
   190
370
     9
100
AcDbLine
 10
1570.054978472414
 20
-3004.67055968523
 30
0.0
 11
1569.932756472053
 21
-3004.67055968523
 31
0.0
  0
LINE
  5
28A
330
1F
100
AcDbEntity
  8
Ech.1_5
 62
   190
370
     9
100
AcDbLine
 10
1569.932756472053
 20
-3004.67055968523
 30
0.0
 11
1569.932756472053
 21
-3002.655559685239
 31
0.0
  0
LINE
  5
28B
330
1F
100
AcDbEntity
  8
Ech.1_5
 62
   190
370
     9
100
AcDbLine
 10
1570.054978472413
 20
-3002.655559685239
 30
0.0
 11
1569.932756472053
 21
-3002.655559685239
 31
0.0
  0
HATCH
  5
28C
330
1F
100
AcDbEntity
  8
Ech.1_5
 62
   252
440
 33554687
370
     5
100
AcDbHatch
 10
0.0
 20
0.0
 30
0.0
210
0.0
220
0.0
230
1.0
  2
SOLID
 70
     1
 71
     1
 91
        1
 92
        3
 72
     0
 73
     1
 93
        4
 10
1585.977200472892
 20
-3003.211115285214
 10
1586.310534072459
 20
-3003.211115285214
 10
1586.310534072459
 20
-3004.115004085232
 10
1585.977200472892
 20
-3004.115004085232
 97
        0
 75
     0
 76
     1
 98
        0
  0
LWPOLYLINE
  5
28D
330
1F
100
AcDbEntity
  8
Ech.1_5
 62
     7
370
     9
100
AcDbPolyline
 90
        5
 70
     0
 43
0.0
 10
1585.977200472892
 20
-3003.211115285214
 10
1586.310534072459
 20
-3003.211115285214
 10
1586.310534072459
 20
-3004.115004085232
 10
1585.977200472892
 20
-3004.115004085232
 10
1585.977200472892
 20
-3003.211115285214
  0
LINE
  5
28E
330
1F
100
AcDbEntity
  8
Ech.1_5
 62
   190
370
     9
100
AcDbLine
 10
1587.190167671861
 20
-3004.115004085232
 30
0.0
 11
1570.277200872125
 21
-3004.115004085232
 31
0.0
  0
LINE
  5
28F
330
1F
100
AcDbEntity
  8
Ech.1_5
 62
   190
370
     9
100
AcDbLine
 10
1587.190167671861
 20
-3003.211115285214
 30
0.0
 11
1570.277200872125
 21
-3003.211115285214
 31
0.0
  0
ARC
  5
290
330
1F
100
AcDbEntity
  8
Ech.1_5
 62
   190
370
     9
100
AcDbCircle
 10
1574.958037828379
 20
-3003.663059685223
 30
0.0
 40
5.125281356326383
100
AcDbArc
 50
168.6632793502951
 51
191.3367206496999
  0
LINE
  5
291
330
1F
100
AcDbEntity
  8
Ech.1_5
 62
   190
370
     9
100
AcDbLine
 10
1570.054978472414
 20
-3004.67055968523
 30
0.0
 11
1570.054978472413
 21
-3004.33722648525
 31
0.0
  0
ARC
  5
292
330
1F
100
AcDbEntity
  8
Ech.1_5
 62
   190
370
     9
100
AcDbCircle
 10
1570.277200868373
 20
-3004.337226481192
 30
0.0
 40
0.2222223959597047
100
AcDbArc
 50
89.9999990326464
 51
180.0000010462028
  0
LINE
  5
293
330
1F
100
AcDbEntity
  8
Ech.1_5
 62
   190
370
     9
100
AcDbLine
 10
1570.054978472413
 20
-3004.33722648525
 30
0.0
 11
1570.054978472413
 21
-3002.988892885223
 31
0.0
  0
ARC
  5
294
330
1F
100
AcDbEntity
  8
Ech.1_5
 62
   190
370
     9
100
AcDbCircle
 10
1570.277200868329
 20
-3002.988892889298
 30
0.0
 40
0.2222223959154555
100
AcDbArc
 50
179.9999989492246
 51
270.0000009787852
  0
LINE
  5
295
330
1F
100
AcDbEntity
  8
Ech.1_5
 62
   190
370
     9
100
AcDbLine
 10
1570.054978472413
 20
-3002.655559685239
 30
0.0
 11
1570.054978472413
 21
-3002.988892885223
 31
0.0
  0
LINE
  5
296
330
1F
100
AcDbEntity
  8
Ech.1_5
 62
   190
370
     9
100
AcDbLine
 10
1574.310534072459
 20
-3004.115004085232
 30
0.0
 11
1574.310534072459
 21
-3003.211115285214
 31
0.0
  0
LINE
  5
297
330
1F
100
AcDbEntity
  8
Ech.1_5
 62
   190
370
     9
100
AcDbLine
 10
1574.643867272676
 20
-3004.115004085232
 30
0.0
 11
1574.643867272676
 21
-3003.211115285214
 31
0.0
  0
LINE
  5
298
330
1F
100
AcDbEntity
  8
Ech.1_5
 62
   190
370
     9
100
AcDbLine
 10
1573.310534072459
 20
-3004.115004085232
 30
0.0
 11
1573.310534072459
 21
-3003.211115285214
 31
0.0
  0
LINE
  5
299
330
1F
100
AcDbEntity
  8
Ech.1_5
 62
   190
370
     9
100
AcDbLine
 10
1573.643867272676
 20
-3004.115004085232
 30
0.0
 11
1573.643867272676
 21
-3003.211115285214
 31
0.0
  0
LINE
  5
29A
330
1F
100
AcDbEntity
  8
Ech.1_5
 62
   190
370
     9
100
AcDbLine
 10
1573.977200472892
 20
-3004.115004085232
 30
0.0
 11
1573.977200472892
 21
-3003.211115285214
 31
0.0
  0
LINE
  5
29B
330
1F
100
AcDbEntity
  8
Ech.1_5
 62
   190
370
     9
100
AcDbLine
 10
1572.310534072459
 20
-3004.115004085232
 30
0.0
 11
1572.310534072459
 21
-3003.211115285214
 31
0.0
  0
LINE
  5
29C
330
1F
100
AcDbEntity
  8
Ech.1_5
 62
   190
370
     9
100
AcDbLine
 10
1572.643867272676
 20
-3004.115004085232
 30
0.0
 11
1572.643867272676
 21
-3003.211115285214
 31
0.0
  0
LINE
  5
29D
330
1F
100
AcDbEntity
  8
Ech.1_5
 62
   190
370
     9
100
AcDbLine
 10
1572.977200472893
 20
-3004.115004085232
 30
0.0
 11
1572.977200472893
 21
-3003.211115285214
 31
0.0
  0
LINE
  5
29E
330
1F
100
AcDbEntity
  8
Ech.1_5
 62
   190
370
     9
100
AcDbLine
 10
1571.977200472892
 20
-3004.115004085232
 30
0.0
 11
1571.977200472892
 21
-3003.211115285214
 31
0.0
  0
LINE
  5
29F
330
1F
100
AcDbEntity
  8
Ech.1_5
 62
   190
370
     9
100
AcDbLine
 10
1571.643867272676
 20
-3004.115004085232
 30
0.0
 11
1571.643867272676
 21
-3003.211115285214
 31
0.0
  0
LINE
  5
2A0
330
1F
100
AcDbEntity
  8
Ech.1_5
 62
   190
370
     9
100
AcDbLine
 10
1571.310534072459
 20
-3004.115004085232
 30
0.0
 11
1571.310534072459
 21
-3003.211115285214
 31
0.0
  0
LINE
  5
2A1
330
1F
100
AcDbEntity
  8
Ech.1_5
 62
   190
370
     9
100
AcDbLine
 10
1570.977200472892
 20
-3004.115004085232
 30
0.0
 11
1570.977200472892
 21
-3003.211115285217
 31
0.0
  0
LINE
  5
2A2
330
1F
100
AcDbEntity
  8
Ech.1_5
 62
   190
370
     9
100
AcDbLine
 10
1584.977200472892
 20
-3004.115004085232
 30
0.0
 11
1584.977200472892
 21
-3003.211115285214
 31
0.0
  0
LINE
  5
2A3
330
1F
100
AcDbEntity
  8
Ech.1_5
 62
   190
370
     9
100
AcDbLine
 10
1584.643867272676
 20
-3004.115004085232
 30
0.0
 11
1584.643867272676
 21
-3003.211115285214
 31
0.0
  0
LINE
  5
2A4
330
1F
100
AcDbEntity
  8
Ech.1_5
 62
   190
370
     9
100
AcDbLine
 10
1585.310534072459
 20
-3004.115004085232
 30
0.0
 11
1585.310534072459
 21
-3003.211115285214
 31
0.0
  0
LINE
  5
2A5
330
1F
100
AcDbEntity
  8
Ech.1_5
 62
   190
370
     9
100
AcDbLine
 10
1583.643867272676
 20
-3004.115004085232
 30
0.0
 11
1583.643867272676
 21
-3003.211115285214
 31
0.0
  0
LINE
  5
2A6
330
1F
100
AcDbEntity
  8
Ech.1_5
 62
   190
370
     9
100
AcDbLine
 10
1583.977200472892
 20
-3004.115004085232
 30
0.0
 11
1583.977200472892
 21
-3003.211115285214
 31
0.0
  0
LINE
  5
2A7
330
1F
100
AcDbEntity
  8
Ech.1_5
 62
   190
370
     9
100
AcDbLine
 10
1584.310534072459
 20
-3004.115004085232
 30
0.0
 11
1584.310534072459
 21
-3003.211115285214
 31
0.0
  0
LINE
  5
2A8
330
1F
100
AcDbEntity
  8
Ech.1_5
 62
   190
370
     9
100
AcDbLine
 10
1582.643867272676
 20
-3004.115004085232
 30
0.0
 11
1582.643867272676
 21
-3003.211115285214
 31
0.0
  0
LINE
  5
2A9
330
1F
100
AcDbEntity
  8
Ech.1_5
 62
   190
370
     9
100
AcDbLine
 10
1582.977200472892
 20
-3004.115004085232
 30
0.0
 11
1582.977200472892
 21
-3003.211115285214
 31
0.0
  0
LINE
  5
2AA
330
1F
100
AcDbEntity
  8
Ech.1_5
 62
   190
370
     9
100
AcDbLine
 10
1583.310534072459
 20
-3004.115004085232
 30
0.0
 11
1583.310534072459
 21
-3003.211115285214
 31
0.0
  0
LINE
  5
2AB
330
1F
100
AcDbEntity
  8
Ech.1_5
 62
   190
370
     9
100
AcDbLine
 10
1581.643867272676
 20
-3004.115004085232
 30
0.0
 11
1581.643867272676
 21
-3003.211115285214
 31
0.0
  0
LINE
  5
2AC
330
1F
100
AcDbEntity
  8
Ech.1_5
 62
   190
370
     9
100
AcDbLine
 10
1581.977200472892
 20
-3004.115004085232
 30
0.0
 11
1581.977200472892
 21
-3003.211115285214
 31
0.0
  0
LINE
  5
2AD
330
1F
100
AcDbEntity
  8
Ech.1_5
 62
   190
370
     9
100
AcDbLine
 10
1582.310534072459
 20
-3004.115004085232
 30
0.0
 11
1582.310534072459
 21
-3003.211115285214
 31
0.0
  0
LINE
  5
2AE
330
1F
100
AcDbEntity
  8
Ech.1_5
 62
   190
370
     9
100
AcDbLine
 10
1581.310534072459
 20
-3004.115004085232
 30
0.0
 11
1581.310534072459
 21
-3003.211115285214
 31
0.0
  0
LINE
  5
2AF
330
1F
100
AcDbEntity
  8
Ech.1_5
 62
   190
370
     9
100
AcDbLine
 10
1575.977200472892
 20
-3004.115004085232
 30
0.0
 11
1575.977200472892
 21
-3003.211115285214
 31
0.0
  0
LINE
  5
2B0
330
1F
100
AcDbEntity
  8
Ech.1_5
 62
   190
370
     9
100
AcDbLine
 10
1576.310534072459
 20
-3004.115004085232
 30
0.0
 11
1576.310534072459
 21
-3003.211115285214
 31
0.0
  0
LINE
  5
2B1
330
1F
100
AcDbEntity
  8
Ech.1_5
 62
   190
370
     9
100
AcDbLine
 10
1576.643867272676
 20
-3004.115004085232
 30
0.0
 11
1576.643867272676
 21
-3003.211115285214
 31
0.0
  0
LINE
  5
2B2
330
1F
100
AcDbEntity
  8
Ech.1_5
 62
   190
370
     9
100
AcDbLine
 10
1576.977200472892
 20
-3004.115004085232
 30
0.0
 11
1576.977200472892
 21
-3003.211115285214
 31
0.0
  0
LINE
  5
2B3
330
1F
100
AcDbEntity
  8
Ech.1_5
 62
   190
370
     9
100
AcDbLine
 10
1577.977200472892
 20
-3004.115004085232
 30
0.0
 11
1577.977200472892
 21
-3003.211115285214
 31
0.0
  0
LINE
  5
2B4
330
1F
100
AcDbEntity
  8
Ech.1_5
 62
   190
370
     9
100
AcDbLine
 10
1577.643867272676
 20
-3004.115004085232
 30
0.0
 11
1577.643867272676
 21
-3003.211115285214
 31
0.0
  0
LINE
  5
2B5
330
1F
100
AcDbEntity
  8
Ech.1_5
 62
   190
370
     9
100
AcDbLine
 10
1577.310534072459
 20
-3004.115004085232
 30
0.0
 11
1577.310534072459
 21
-3003.211115285214
 31
0.0
  0
LINE
  5
2B6
330
1F
100
AcDbEntity
  8
Ech.1_5
 62
   190
370
     9
100
AcDbLine
 10
1578.977200472892
 20
-3004.115004085232
 30
0.0
 11
1578.977200472892
 21
-3003.211115285214
 31
0.0
  0
LINE
  5
2B7
330
1F
100
AcDbEntity
  8
Ech.1_5
 62
   190
370
     9
100
AcDbLine
 10
1578.643867272676
 20
-3004.115004085232
 30
0.0
 11
1578.643867272676
 21
-3003.211115285214
 31
0.0
  0
LINE
  5
2B8
330
1F
100
AcDbEntity
  8
Ech.1_5
 62
   190
370
     9
100
AcDbLine
 10
1578.310534072459
 20
-3004.115004085232
 30
0.0
 11
1578.310534072459
 21
-3003.211115285214
 31
0.0
  0
LINE
  5
2B9
330
1F
100
AcDbEntity
  8
Ech.1_5
 62
   190
370
     9
100
AcDbLine
 10
1579.977200472892
 20
-3004.115004085232
 30
0.0
 11
1579.977200472892
 21
-3003.211115285214
 31
0.0
  0
LINE
  5
2BA
330
1F
100
AcDbEntity
  8
Ech.1_5
 62
   190
370
     9
100
AcDbLine
 10
1579.643867272676
 20
-3004.115004085232
 30
0.0
 11
1579.643867272676
 21
-3003.211115285214
 31
0.0
  0
LINE
  5
2BB
330
1F
100
AcDbEntity
  8
Ech.1_5
 62
   190
370
     9
100
AcDbLine
 10
1579.310534072459
 20
-3004.115004085232
 30
0.0
 11
1579.310534072459
 21
-3003.211115285214
 31
0.0
  0
LINE
  5
2BC
330
1F
100
AcDbEntity
  8
Ech.1_5
 62
   190
370
     9
100
AcDbLine
 10
1580.977200472892
 20
-3004.115004085232
 30
0.0
 11
1580.977200472892
 21
-3003.211115285214
 31
0.0
  0
LINE
  5
2BD
330
1F
100
AcDbEntity
  8
Ech.1_5
 62
   190
370
     9
100
AcDbLine
 10
1580.643867272676
 20
-3004.115004085232
 30
0.0
 11
1580.643867272676
 21
-3003.211115285214
 31
0.0
  0
LINE
  5
2BE
330
1F
100
AcDbEntity
  8
Ech.1_5
 62
   190
370
     9
100
AcDbLine
 10
1580.310534072459
 20
-3004.115004085232
 30
0.0
 11
1580.310534072459
 21
-3003.211115285214
 31
0.0
  0
LINE
  5
2BF
330
1F
100
AcDbEntity
  8
Ech.1_5
 62
   190
370
     9
100
AcDbLine
 10
1575.310534072459
 20
-3004.115004085232
 30
0.0
 11
1575.310534072459
 21
-3003.211115285214
 31
0.0
  0
LINE
  5
2C0
330
1F
100
AcDbEntity
  8
Ech.1_5
 62
   190
370
     9
100
AcDbLine
 10
1575.643867272676
 20
-3004.115004085232
 30
0.0
 11
1575.643867272676
 21
-3003.211115285214
 31
0.0
  0
LINE
  5
2C1
330
1F
100
AcDbEntity
  8
Ech.1_5
 62
   190
370
     9
100
AcDbLine
 10
1575.977200472892
 20
-3004.115004085232
 30
0.0
 11
1575.977200472892
 21
-3003.211115285214
 31
0.0
  0
LINE
  5
2C2
330
1F
100
AcDbEntity
  8
Ech.1_5
 62
   190
370
     9
100
AcDbLine
 10
1574.977200472892
 20
-3004.115004085232
 30
0.0
 11
1574.977200472892
 21
-3003.211115285214
 31
0.0
  0
LINE
  5
2C3
330
1F
100
AcDbEntity
  8
Ech.1_5
 62
   190
370
     9
100
AcDbLine
 10
1588.254978472414
 20
-3003.663059685235
 30
0.0
 11
1587.190167671861
 21
-3004.115004085232
 31
0.0
  0
ARC
  5
2C4
330
1F
100
AcDbEntity
  8
Ech.1_5
 62
   190
370
     9
100
AcDbCircle
 10
1587.753908068099
 20
-3003.663059685236
 30
0.0
 40
0.7225351986654779
100
AcDbArc
 50
141.2812399141615
 51
218.7187600858385
  0
LINE
  5
2C5
330
1F
100
AcDbEntity
  8
Ech.1_5
 62
   190
370
     9
100
AcDbLine
 10
1588.254978472414
 20
-3003.663059685235
 30
0.0
 11
1587.190167671861
 21
-3003.211115285214
 31
0.0
  0
HATCH
  5
2C6
330
1F
100
AcDbEntity
  8
Ech.1_5
 62
   252
440
 33554687
370
     5
100
AcDbHatch
 10
0.0
 20
0.0
 30
0.0
210
0.0
220
0.0
230
1.0
  2
SOLID
 70
     1
 71
     1
 91
        1
 92
        3
 72
     0
 73
     1
 93
        4
 10
1570.977200472892
 20
-3003.211115285217
 10
1571.310534072459
 20
-3003.211115285214
 10
1571.310534072459
 20
-3004.115004085232
 10
1570.977200472892
 20
-3004.115004085232
 97
        0
 75
     0
 76
     1
 98
        0
  0
LWPOLYLINE
  5
2C7
330
1F
100
AcDbEntity
  8
Ech.1_5
 62
     7
370
     9
100
AcDbPolyline
 90
        5
 70
     0
 43
0.0
 10
1570.977200472892
 20
-3003.211115285217
 10
1571.310534072459
 20
-3003.211115285214
 10
1571.310534072459
 20
-3004.115004085232
 10
1570.977200472892
 20
-3004.115004085232
 10
1570.977200472892
 20
-3003.211115285217
  0
HATCH
  5
2C8
330
1F
100
AcDbEntity
  8
Ech.1_5
 62
   252
440
 33554687
370
     5
100
AcDbHatch
 10
0.0
 20
0.0
 30
0.0
210
0.0
220
0.0
230
1.0
  2
SOLID
 70
     1
 71
     1
 91
        1
 92
        3
 72
     0
 73
     1
 93
        4
 10
1571.310534072459
 20
-3003.211115285214
 10
1571.643867672027
 20
-3003.211115285214
 10
1571.643867672027
 20
-3004.115004085232
 10
1571.310534072459
 20
-3004.115004085232
 97
        0
 75
     0
 76
     1
 98
        0
  0
LWPOLYLINE
  5
2C9
330
1F
100
AcDbEntity
  8
Ech.1_5
 62
     7
370
     9
100
AcDbPolyline
 90
        5
 70
     0
 43
0.0
 10
1571.310534072459
 20
-3003.211115285214
 10
1571.643867672027
 20
-3003.211115285214
 10
1571.643867672027
 20
-3004.115004085232
 10
1571.310534072459
 20
-3004.115004085232
 10
1571.310534072459
 20
-3003.211115285214
  0
HATCH
  5
2CA
330
1F
100
AcDbEntity
  8
Ech.1_5
 62
   252
440
 33554687
370
     5
100
AcDbHatch
 10
0.0
 20
0.0
 30
0.0
210
0.0
220
0.0
230
1.0
  2
SOLID
 70
     1
 71
     1
 91
        1
 92
        3
 72
     0
 73
     1
 93
        4
 10
1571.643867672027
 20
-3003.211115285214
 10
1571.977201271594
 20
-3003.211115285214
 10
1571.977201271594
 20
-3004.115004085232
 10
1571.643867672027
 20
-3004.115004085232
 97
        0
 75
     0
 76
     1
 98
        0
  0
LWPOLYLINE
  5
2CB
330
1F
100
AcDbEntity
  8
Ech.1_5
 62
     7
370
     9
100
AcDbPolyline
 90
        5
 70
     0
 43
0.0
 10
1571.643867672027
 20
-3003.211115285214
 10
1571.977201271594
 20
-3003.211115285214
 10
1571.977201271594
 20
-3004.115004085232
 10
1571.643867672027
 20
-3004.115004085232
 10
1571.643867672027
 20
-3003.211115285214
  0
HATCH
  5
2CC
330
1F
100
AcDbEntity
  8
Ech.1_5
 62
   252
440
 33554687
370
     5
100
AcDbHatch
 10
0.0
 20
0.0
 30
0.0
210
0.0
220
0.0
230
1.0
  2
SOLID
 70
     1
 71
     1
 91
        1
 92
        3
 72
     0
 73
     1
 93
        4
 10
1571.977201271594
 20
-3003.211115285214
 10
1572.310534871162
 20
-3003.211115285214
 10
1572.310534871162
 20
-3004.115004085232
 10
1571.977201271594
 20
-3004.115004085232
 97
        0
 75
     0
 76
     1
 98
        0
  0
LWPOLYLINE
  5
2CD
330
1F
100
AcDbEntity
  8
Ech.1_5
 62
     7
370
     9
100
AcDbPolyline
 90
        5
 70
     0
 43
0.0
 10
1571.977201271594
 20
-3003.211115285214
 10
1572.310534871162
 20
-3003.211115285214
 10
1572.310534871162
 20
-3004.115004085232
 10
1571.977201271594
 20
-3004.115004085232
 10
1571.977201271594
 20
-3003.211115285214
  0
HATCH
  5
2CE
330
1F
100
AcDbEntity
  8
Ech.1_5
 62
   252
440
 33554687
370
     5
100
AcDbHatch
 10
0.0
 20
0.0
 30
0.0
210
0.0
220
0.0
230
1.0
  2
SOLID
 70
     1
 71
     1
 91
        1
 92
        3
 72
     0
 73
     1
 93
        4
 10
1572.310534072459
 20
-3003.211115285214
 10
1572.643867672027
 20
-3003.211115285214
 10
1572.643867672027
 20
-3004.115004085232
 10
1572.310534072459
 20
-3004.115004085232
 97
        0
 75
     0
 76
     1
 98
        0
  0
LWPOLYLINE
  5
2CF
330
1F
100
AcDbEntity
  8
Ech.1_5
 62
     7
370
     9
100
AcDbPolyline
 90
        5
 70
     0
 43
0.0
 10
1572.310534072459
 20
-3003.211115285214
 10
1572.643867672027
 20
-3003.211115285214
 10
1572.643867672027
 20
-3004.115004085232
 10
1572.310534072459
 20
-3004.115004085232
 10
1572.310534072459
 20
-3003.211115285214
  0
HATCH
  5
2D0
330
1F
100
AcDbEntity
  8
Ech.1_5
 62
   252
440
 33554687
370
     5
100
AcDbHatch
 10
0.0
 20
0.0
 30
0.0
210
0.0
220
0.0
230
1.0
  2
SOLID
 70
     1
 71
     1
 91
        1
 92
        3
 72
     0
 73
     1
 93
        4
 10
1572.643867272676
 20
-3003.211115285214
 10
1572.977200872244
 20
-3003.211115285214
 10
1572.977200872244
 20
-3004.115004085235
 10
1572.643867272676
 20
-3004.115004085232
 97
        0
 75
     0
 76
     1
 98
        0
  0
LWPOLYLINE
  5
2D1
330
1F
100
AcDbEntity
  8
Ech.1_5
 62
     7
370
     9
100
AcDbPolyline
 90
        5
 70
     0
 43
0.0
 10
1572.643867272676
 20
-3003.211115285214
 10
1572.977200872244
 20
-3003.211115285214
 10
1572.977200872244
 20
-3004.115004085235
 10
1572.643867272676
 20
-3004.115004085232
 10
1572.643867272676
 20
-3003.211115285214
  0
HATCH
  5
2D2
330
1F
100
AcDbEntity
  8
Ech.1_5
 62
   252
440
 33554687
370
     5
100
AcDbHatch
 10
0.0
 20
0.0
 30
0.0
210
0.0
220
0.0
230
1.0
  2
SOLID
 70
     1
 71
     1
 91
        1
 92
        3
 72
     0
 73
     1
 93
        4
 10
1572.977200872244
 20
-3003.211115285214
 10
1573.310534471811
 20
-3003.211115285214
 10
1573.310534471811
 20
-3004.115004085232
 10
1572.977200872244
 20
-3004.115004085235
 97
        0
 75
     0
 76
     1
 98
        0
  0
LWPOLYLINE
  5
2D3
330
1F
100
AcDbEntity
  8
Ech.1_5
 62
     7
370
     9
100
AcDbPolyline
 90
        5
 70
     0
 43
0.0
 10
1572.977200872244
 20
-3003.211115285214
 10
1573.310534471811
 20
-3003.211115285214
 10
1573.310534471811
 20
-3004.115004085232
 10
1572.977200872244
 20
-3004.115004085235
 10
1572.977200872244
 20
-3003.211115285214
  0
HATCH
  5
2D4
330
1F
100
AcDbEntity
  8
Ech.1_5
 62
   252
440
 33554687
370
     5
100
AcDbHatch
 10
0.0
 20
0.0
 30
0.0
210
0.0
220
0.0
230
1.0
  2
SOLID
 70
     1
 71
     1
 91
        1
 92
        3
 72
     0
 73
     1
 93
        4
 10
1573.310534072459
 20
-3003.211115285214
 10
1573.643867672027
 20
-3003.211115285214
 10
1573.643867672027
 20
-3004.115004085232
 10
1573.310534072459
 20
-3004.115004085232
 97
        0
 75
     0
 76
     1
 98
        0
  0
LWPOLYLINE
  5
2D5
330
1F
100
AcDbEntity
  8
Ech.1_5
 62
     7
370
     9
100
AcDbPolyline
 90
        5
 70
     0
 43
0.0
 10
1573.310534072459
 20
-3003.211115285214
 10
1573.643867672027
 20
-3003.211115285214
 10
1573.643867672027
 20
-3004.115004085232
 10
1573.310534072459
 20
-3004.115004085232
 10
1573.310534072459
 20
-3003.211115285214
  0
HATCH
  5
2D6
330
1F
100
AcDbEntity
  8
Ech.1_5
 62
   252
440
 33554687
370
     5
100
AcDbHatch
 10
0.0
 20
0.0
 30
0.0
210
0.0
220
0.0
230
1.0
  2
SOLID
 70
     1
 71
     1
 91
        1
 92
        3
 72
     0
 73
     1
 93
        4
 10
1573.643867672027
 20
-3003.211115285214
 10
1573.977201271594
 20
-3003.211115285214
 10
1573.977201271594
 20
-3004.115004085232
 10
1573.643867672027
 20
-3004.115004085232
 97
        0
 75
     0
 76
     1
 98
        0
  0
LWPOLYLINE
  5
2D7
330
1F
100
AcDbEntity
  8
Ech.1_5
 62
     7
370
     9
100
AcDbPolyline
 90
        5
 70
     0
 43
0.0
 10
1573.643867672027
 20
-3003.211115285214
 10
1573.977201271594
 20
-3003.211115285214
 10
1573.977201271594
 20
-3004.115004085232
 10
1573.643867672027
 20
-3004.115004085232
 10
1573.643867672027
 20
-3003.211115285214
  0
HATCH
  5
2D8
330
1F
100
AcDbEntity
  8
Ech.1_5
 62
   252
440
 33554687
370
     5
100
AcDbHatch
 10
0.0
 20
0.0
 30
0.0
210
0.0
220
0.0
230
1.0
  2
SOLID
 70
     1
 71
     1
 91
        1
 92
        3
 72
     0
 73
     1
 93
        4
 10
1573.977200472892
 20
-3003.211115285214
 10
1574.310534072459
 20
-3003.211115285214
 10
1574.310534072459
 20
-3004.115004085232
 10
1573.977200472892
 20
-3004.115004085232
 97
        0
 75
     0
 76
     1
 98
        0
  0
LWPOLYLINE
  5
2D9
330
1F
100
AcDbEntity
  8
Ech.1_5
 62
     7
370
     9
100
AcDbPolyline
 90
        5
 70
     0
 43
0.0
 10
1573.977200472892
 20
-3003.211115285214
 10
1574.310534072459
 20
-3003.211115285214
 10
1574.310534072459
 20
-3004.115004085232
 10
1573.977200472892
 20
-3004.115004085232
 10
1573.977200472892
 20
-3003.211115285214
  0
HATCH
  5
2DA
330
1F
100
AcDbEntity
  8
Ech.1_5
 62
   252
440
 33554687
370
     5
100
AcDbHatch
 10
0.0
 20
0.0
 30
0.0
210
0.0
220
0.0
230
1.0
  2
SOLID
 70
     1
 71
     1
 91
        1
 92
        3
 72
     0
 73
     1
 93
        4
 10
1574.310534072459
 20
-3003.211115285214
 10
1574.643867672027
 20
-3003.211115285214
 10
1574.643867672027
 20
-3004.115004085232
 10
1574.310534072459
 20
-3004.115004085232
 97
        0
 75
     0
 76
     1
 98
        0
  0
LWPOLYLINE
  5
2DB
330
1F
100
AcDbEntity
  8
Ech.1_5
 62
     7
370
     9
100
AcDbPolyline
 90
        5
 70
     0
 43
0.0
 10
1574.310534072459
 20
-3003.211115285214
 10
1574.643867672027
 20
-3003.211115285214
 10
1574.643867672027
 20
-3004.115004085232
 10
1574.310534072459
 20
-3004.115004085232
 10
1574.310534072459
 20
-3003.211115285214
  0
HATCH
  5
2DC
330
1F
100
AcDbEntity
  8
Ech.1_5
 62
   252
440
 33554687
370
     5
100
AcDbHatch
 10
0.0
 20
0.0
 30
0.0
210
0.0
220
0.0
230
1.0
  2
SOLID
 70
     1
 71
     1
 91
        1
 92
        3
 72
     0
 73
     1
 93
        4
 10
1574.643867672027
 20
-3003.211115285214
 10
1574.977201271594
 20
-3003.211115285214
 10
1574.977201271595
 20
-3004.115004085232
 10
1574.643867672027
 20
-3004.115004085232
 97
        0
 75
     0
 76
     1
 98
        0
  0
LWPOLYLINE
  5
2DD
330
1F
100
AcDbEntity
  8
Ech.1_5
 62
     7
370
     9
100
AcDbPolyline
 90
        5
 70
     0
 43
0.0
 10
1574.643867672027
 20
-3003.211115285214
 10
1574.977201271594
 20
-3003.211115285214
 10
1574.977201271595
 20
-3004.115004085232
 10
1574.643867672027
 20
-3004.115004085232
 10
1574.643867672027
 20
-3003.211115285214
  0
HATCH
  5
2DE
330
1F
100
AcDbEntity
  8
Ech.1_5
 62
   252
440
 33554687
370
     5
100
AcDbHatch
 10
0.0
 20
0.0
 30
0.0
210
0.0
220
0.0
230
1.0
  2
SOLID
 70
     1
 71
     1
 91
        1
 92
        3
 72
     0
 73
     1
 93
        4
 10
1574.977201271594
 20
-3003.211115285214
 10
1575.310534871162
 20
-3003.211115285214
 10
1575.310534871162
 20
-3004.115004085232
 10
1574.977201271595
 20
-3004.115004085232
 97
        0
 75
     0
 76
     1
 98
        0
  0
LWPOLYLINE
  5
2DF
330
1F
100
AcDbEntity
  8
Ech.1_5
 62
     7
370
     9
100
AcDbPolyline
 90
        5
 70
     0
 43
0.0
 10
1574.977201271594
 20
-3003.211115285214
 10
1575.310534871162
 20
-3003.211115285214
 10
1575.310534871162
 20
-3004.115004085232
 10
1574.977201271595
 20
-3004.115004085232
 10
1574.977201271594
 20
-3003.211115285214
  0
HATCH
  5
2E0
330
1F
100
AcDbEntity
  8
Ech.1_5
 62
   252
440
 33554687
370
     5
100
AcDbHatch
 10
0.0
 20
0.0
 30
0.0
210
0.0
220
0.0
230
1.0
  2
SOLID
 70
     1
 71
     1
 91
        1
 92
        3
 72
     0
 73
     1
 93
        4
 10
1575.310534871162
 20
-3003.211115285214
 10
1575.643868470729
 20
-3003.211115285214
 10
1575.643868470729
 20
-3004.115004085232
 10
1575.310534871162
 20
-3004.115004085232
 97
        0
 75
     0
 76
     1
 98
        0
  0
LWPOLYLINE
  5
2E1
330
1F
100
AcDbEntity
  8
Ech.1_5
 62
     7
370
     9
100
AcDbPolyline
 90
        5
 70
     0
 43
0.0
 10
1575.310534871162
 20
-3003.211115285214
 10
1575.643868470729
 20
-3003.211115285214
 10
1575.643868470729
 20
-3004.115004085232
 10
1575.310534871162
 20
-3004.115004085232
 10
1575.310534871162
 20
-3003.211115285214
  0
HATCH
  5
2E2
330
1F
100
AcDbEntity
  8
Ech.1_5
 62
   252
440
 33554687
370
     5
100
AcDbHatch
 10
0.0
 20
0.0
 30
0.0
210
0.0
220
0.0
230
1.0
  2
SOLID
 70
     1
 71
     1
 91
        1
 92
        3
 72
     0
 73
     1
 93
        4
 10
1575.643867672027
 20
-3003.211115285214
 10
1575.977201271594
 20
-3003.211115285214
 10
1575.977201271594
 20
-3004.115004085232
 10
1575.643867672027
 20
-3004.115004085232
 97
        0
 75
     0
 76
     1
 98
        0
  0
LWPOLYLINE
  5
2E3
330
1F
100
AcDbEntity
  8
Ech.1_5
 62
     7
370
     9
100
AcDbPolyline
 90
        5
 70
     0
 43
0.0
 10
1575.643867672027
 20
-3003.211115285214
 10
1575.977201271594
 20
-3003.211115285214
 10
1575.977201271594
 20
-3004.115004085232
 10
1575.643867672027
 20
-3004.115004085232
 10
1575.643867672027
 20
-3003.211115285214
  0
HATCH
  5
2E4
330
1F
100
AcDbEntity
  8
Ech.1_5
 62
   252
440
 33554687
370
     5
100
AcDbHatch
 10
0.0
 20
0.0
 30
0.0
210
0.0
220
0.0
230
1.0
  2
SOLID
 70
     1
 71
     1
 91
        1
 92
        3
 72
     0
 73
     1
 93
        4
 10
1575.977200872243
 20
-3003.211115285214
 10
1576.310534471811
 20
-3003.211115285214
 10
1576.310534471811
 20
-3004.115004085232
 10
1575.977200872243
 20
-3004.115004085232
 97
        0
 75
     0
 76
     1
 98
        0
  0
LWPOLYLINE
  5
2E5
330
1F
100
AcDbEntity
  8
Ech.1_5
 62
     7
370
     9
100
AcDbPolyline
 90
        5
 70
     0
 43
0.0
 10
1575.977200872243
 20
-3003.211115285214
 10
1576.310534471811
 20
-3003.211115285214
 10
1576.310534471811
 20
-3004.115004085232
 10
1575.977200872243
 20
-3004.115004085232
 10
1575.977200872243
 20
-3003.211115285214
  0
HATCH
  5
2E6
330
1F
100
AcDbEntity
  8
Ech.1_5
 62
   252
440
 33554687
370
     5
100
AcDbHatch
 10
0.0
 20
0.0
 30
0.0
210
0.0
220
0.0
230
1.0
  2
SOLID
 70
     1
 71
     1
 91
        1
 92
        3
 72
     0
 73
     1
 93
        4
 10
1576.310534471811
 20
-3003.211115285214
 10
1576.643868071378
 20
-3003.211115285214
 10
1576.643868071378
 20
-3004.115004085232
 10
1576.310534471811
 20
-3004.115004085232
 97
        0
 75
     0
 76
     1
 98
        0
  0
LWPOLYLINE
  5
2E7
330
1F
100
AcDbEntity
  8
Ech.1_5
 62
     7
370
     9
100
AcDbPolyline
 90
        5
 70
     0
 43
0.0
 10
1576.310534471811
 20
-3003.211115285214
 10
1576.643868071378
 20
-3003.211115285214
 10
1576.643868071378
 20
-3004.115004085232
 10
1576.310534471811
 20
-3004.115004085232
 10
1576.310534471811
 20
-3003.211115285214
  0
HATCH
  5
2E8
330
1F
100
AcDbEntity
  8
Ech.1_5
 62
   252
440
 33554687
370
     5
100
AcDbHatch
 10
0.0
 20
0.0
 30
0.0
210
0.0
220
0.0
230
1.0
  2
SOLID
 70
     1
 71
     1
 91
        1
 92
        3
 72
     0
 73
     1
 93
        4
 10
1576.643867672027
 20
-3003.211115285214
 10
1576.977201271594
 20
-3003.211115285214
 10
1576.977201271594
 20
-3004.115004085232
 10
1576.643867672027
 20
-3004.115004085232
 97
        0
 75
     0
 76
     1
 98
        0
  0
LWPOLYLINE
  5
2E9
330
1F
100
AcDbEntity
  8
Ech.1_5
 62
     7
370
     9
100
AcDbPolyline
 90
        5
 70
     0
 43
0.0
 10
1576.643867672027
 20
-3003.211115285214
 10
1576.977201271594
 20
-3003.211115285214
 10
1576.977201271594
 20
-3004.115004085232
 10
1576.643867672027
 20
-3004.115004085232
 10
1576.643867672027
 20
-3003.211115285214
  0
HATCH
  5
2EA
330
1F
100
AcDbEntity
  8
Ech.1_5
 62
   252
440
 33554687
370
     5
100
AcDbHatch
 10
0.0
 20
0.0
 30
0.0
210
0.0
220
0.0
230
1.0
  2
SOLID
 70
     1
 71
     1
 91
        1
 92
        3
 72
     0
 73
     1
 93
        4
 10
1576.977201271594
 20
-3003.211115285214
 10
1577.310534871162
 20
-3003.211115285214
 10
1577.310534871162
 20
-3004.115004085232
 10
1576.977201271594
 20
-3004.115004085232
 97
        0
 75
     0
 76
     1
 98
        0
  0
LWPOLYLINE
  5
2EB
330
1F
100
AcDbEntity
  8
Ech.1_5
 62
     7
370
     9
100
AcDbPolyline
 90
        5
 70
     0
 43
0.0
 10
1576.977201271594
 20
-3003.211115285214
 10
1577.310534871162
 20
-3003.211115285214
 10
1577.310534871162
 20
-3004.115004085232
 10
1576.977201271594
 20
-3004.115004085232
 10
1576.977201271594
 20
-3003.211115285214
  0
HATCH
  5
2EC
330
1F
100
AcDbEntity
  8
Ech.1_5
 62
   252
440
 33554687
370
     5
100
AcDbHatch
 10
0.0
 20
0.0
 30
0.0
210
0.0
220
0.0
230
1.0
  2
SOLID
 70
     1
 71
     1
 91
        1
 92
        3
 72
     0
 73
     1
 93
        4
 10
1577.310534072459
 20
-3003.211115285214
 10
1577.643867672027
 20
-3003.211115285214
 10
1577.643867672027
 20
-3004.115004085232
 10
1577.310534072459
 20
-3004.115004085232
 97
        0
 75
     0
 76
     1
 98
        0
  0
LWPOLYLINE
  5
2ED
330
1F
100
AcDbEntity
  8
Ech.1_5
 62
     7
370
     9
100
AcDbPolyline
 90
        5
 70
     0
 43
0.0
 10
1577.310534072459
 20
-3003.211115285214
 10
1577.643867672027
 20
-3003.211115285214
 10
1577.643867672027
 20
-3004.115004085232
 10
1577.310534072459
 20
-3004.115004085232
 10
1577.310534072459
 20
-3003.211115285214
  0
HATCH
  5
2EE
330
1F
100
AcDbEntity
  8
Ech.1_5
 62
   252
440
 33554687
370
     5
100
AcDbHatch
 10
0.0
 20
0.0
 30
0.0
210
0.0
220
0.0
230
1.0
  2
SOLID
 70
     1
 71
     1
 91
        1
 92
        3
 72
     0
 73
     1
 93
        4
 10
1577.643867672027
 20
-3003.211115285214
 10
1577.977201271594
 20
-3003.211115285214
 10
1577.977201271594
 20
-3004.115004085232
 10
1577.643867672027
 20
-3004.115004085232
 97
        0
 75
     0
 76
     1
 98
        0
  0
LWPOLYLINE
  5
2EF
330
1F
100
AcDbEntity
  8
Ech.1_5
 62
     7
370
     9
100
AcDbPolyline
 90
        5
 70
     0
 43
0.0
 10
1577.643867672027
 20
-3003.211115285214
 10
1577.977201271594
 20
-3003.211115285214
 10
1577.977201271594
 20
-3004.115004085232
 10
1577.643867672027
 20
-3004.115004085232
 10
1577.643867672027
 20
-3003.211115285214
  0
HATCH
  5
2F0
330
1F
100
AcDbEntity
  8
Ech.1_5
 62
   252
440
 33554687
370
     5
100
AcDbHatch
 10
0.0
 20
0.0
 30
0.0
210
0.0
220
0.0
230
1.0
  2
SOLID
 70
     1
 71
     1
 91
        1
 92
        3
 72
     0
 73
     1
 93
        4
 10
1577.977201271594
 20
-3003.211115285214
 10
1578.310534871162
 20
-3003.211115285214
 10
1578.310534871162
 20
-3004.115004085232
 10
1577.977201271594
 20
-3004.115004085232
 97
        0
 75
     0
 76
     1
 98
        0
  0
LWPOLYLINE
  5
2F1
330
1F
100
AcDbEntity
  8
Ech.1_5
 62
     7
370
     9
100
AcDbPolyline
 90
        5
 70
     0
 43
0.0
 10
1577.977201271594
 20
-3003.211115285214
 10
1578.310534871162
 20
-3003.211115285214
 10
1578.310534871162
 20
-3004.115004085232
 10
1577.977201271594
 20
-3004.115004085232
 10
1577.977201271594
 20
-3003.211115285214
  0
HATCH
  5
2F2
330
1F
100
AcDbEntity
  8
Ech.1_5
 62
   252
440
 33554687
370
     5
100
AcDbHatch
 10
0.0
 20
0.0
 30
0.0
210
0.0
220
0.0
230
1.0
  2
SOLID
 70
     1
 71
     1
 91
        1
 92
        3
 72
     0
 73
     1
 93
        4
 10
1578.310534871162
 20
-3003.211115285214
 10
1578.64386847073
 20
-3003.211115285214
 10
1578.643868470729
 20
-3004.115004085232
 10
1578.310534871162
 20
-3004.115004085232
 97
        0
 75
     0
 76
     1
 98
        0
  0
LWPOLYLINE
  5
2F3
330
1F
100
AcDbEntity
  8
Ech.1_5
 62
     7
370
     9
100
AcDbPolyline
 90
        5
 70
     0
 43
0.0
 10
1578.310534871162
 20
-3003.211115285214
 10
1578.64386847073
 20
-3003.211115285214
 10
1578.643868470729
 20
-3004.115004085232
 10
1578.310534871162
 20
-3004.115004085232
 10
1578.310534871162
 20
-3003.211115285214
  0
HATCH
  5
2F4
330
1F
100
AcDbEntity
  8
Ech.1_5
 62
   252
440
 33554687
370
     5
100
AcDbHatch
 10
0.0
 20
0.0
 30
0.0
210
0.0
220
0.0
230
1.0
  2
SOLID
 70
     1
 71
     1
 91
        1
 92
        3
 72
     0
 73
     1
 93
        4
 10
1578.64386847073
 20
-3003.211115285214
 10
1578.977202070296
 20
-3003.211115285214
 10
1578.977202070296
 20
-3004.115004085232
 10
1578.643868470729
 20
-3004.115004085232
 97
        0
 75
     0
 76
     1
 98
        0
  0
LWPOLYLINE
  5
2F5
330
1F
100
AcDbEntity
  8
Ech.1_5
 62
     7
370
     9
100
AcDbPolyline
 90
        5
 70
     0
 43
0.0
 10
1578.64386847073
 20
-3003.211115285214
 10
1578.977202070296
 20
-3003.211115285214
 10
1578.977202070296
 20
-3004.115004085232
 10
1578.643868470729
 20
-3004.115004085232
 10
1578.64386847073
 20
-3003.211115285214
  0
HATCH
  5
2F6
330
1F
100
AcDbEntity
  8
Ech.1_5
 62
   252
440
 33554687
370
     5
100
AcDbHatch
 10
0.0
 20
0.0
 30
0.0
210
0.0
220
0.0
230
1.0
  2
SOLID
 70
     1
 71
     1
 91
        1
 92
        3
 72
     0
 73
     1
 93
        4
 10
1578.977201271594
 20
-3003.211115285214
 10
1579.310534871162
 20
-3003.211115285214
 10
1579.310534871162
 20
-3004.115004085232
 10
1578.977201271594
 20
-3004.115004085232
 97
        0
 75
     0
 76
     1
 98
        0
  0
LWPOLYLINE
  5
2F7
330
1F
100
AcDbEntity
  8
Ech.1_5
 62
     7
370
     9
100
AcDbPolyline
 90
        5
 70
     0
 43
0.0
 10
1578.977201271594
 20
-3003.211115285214
 10
1579.310534871162
 20
-3003.211115285214
 10
1579.310534871162
 20
-3004.115004085232
 10
1578.977201271594
 20
-3004.115004085232
 10
1578.977201271594
 20
-3003.211115285214
  0
HATCH
  5
2F8
330
1F
100
AcDbEntity
  8
Ech.1_5
 62
   252
440
 33554687
370
     5
100
AcDbHatch
 10
0.0
 20
0.0
 30
0.0
210
0.0
220
0.0
230
1.0
  2
SOLID
 70
     1
 71
     1
 91
        1
 92
        3
 72
     0
 73
     1
 93
        4
 10
1579.310534471811
 20
-3003.211115285214
 10
1579.643868071378
 20
-3003.211115285214
 10
1579.643868071378
 20
-3004.115004085232
 10
1579.310534471811
 20
-3004.115004085232
 97
        0
 75
     0
 76
     1
 98
        0
  0
LWPOLYLINE
  5
2F9
330
1F
100
AcDbEntity
  8
Ech.1_5
 62
     7
370
     9
100
AcDbPolyline
 90
        5
 70
     0
 43
0.0
 10
1579.310534471811
 20
-3003.211115285214
 10
1579.643868071378
 20
-3003.211115285214
 10
1579.643868071378
 20
-3004.115004085232
 10
1579.310534471811
 20
-3004.115004085232
 10
1579.310534471811
 20
-3003.211115285214
  0
HATCH
  5
2FA
330
1F
100
AcDbEntity
  8
Ech.1_5
 62
   252
440
 33554687
370
     5
100
AcDbHatch
 10
0.0
 20
0.0
 30
0.0
210
0.0
220
0.0
230
1.0
  2
SOLID
 70
     1
 71
     1
 91
        1
 92
        3
 72
     0
 73
     1
 93
        4
 10
1579.643868071378
 20
-3003.211115285214
 10
1579.977201670945
 20
-3003.211115285214
 10
1579.977201670945
 20
-3004.115004085232
 10
1579.643868071378
 20
-3004.115004085232
 97
        0
 75
     0
 76
     1
 98
        0
  0
LWPOLYLINE
  5
2FB
330
1F
100
AcDbEntity
  8
Ech.1_5
 62
     7
370
     9
100
AcDbPolyline
 90
        5
 70
     0
 43
0.0
 10
1579.643868071378
 20
-3003.211115285214
 10
1579.977201670945
 20
-3003.211115285214
 10
1579.977201670945
 20
-3004.115004085232
 10
1579.643868071378
 20
-3004.115004085232
 10
1579.643868071378
 20
-3003.211115285214
  0
HATCH
  5
2FC
330
1F
100
AcDbEntity
  8
Ech.1_5
 62
   252
440
 33554687
370
     5
100
AcDbHatch
 10
0.0
 20
0.0
 30
0.0
210
0.0
220
0.0
230
1.0
  2
SOLID
 70
     1
 71
     1
 91
        1
 92
        3
 72
     0
 73
     1
 93
        4
 10
1579.977201271594
 20
-3003.211115285214
 10
1580.310534871162
 20
-3003.211115285214
 10
1580.310534871162
 20
-3004.115004085232
 10
1579.977201271594
 20
-3004.115004085232
 97
        0
 75
     0
 76
     1
 98
        0
  0
LWPOLYLINE
  5
2FD
330
1F
100
AcDbEntity
  8
Ech.1_5
 62
     7
370
     9
100
AcDbPolyline
 90
        5
 70
     0
 43
0.0
 10
1579.977201271594
 20
-3003.211115285214
 10
1580.310534871162
 20
-3003.211115285214
 10
1580.310534871162
 20
-3004.115004085232
 10
1579.977201271594
 20
-3004.115004085232
 10
1579.977201271594
 20
-3003.211115285214
  0
HATCH
  5
2FE
330
1F
100
AcDbEntity
  8
Ech.1_5
 62
   252
440
 33554687
370
     5
100
AcDbHatch
 10
0.0
 20
0.0
 30
0.0
210
0.0
220
0.0
230
1.0
  2
SOLID
 70
     1
 71
     1
 91
        1
 92
        3
 72
     0
 73
     1
 93
        4
 10
1580.310534871162
 20
-3003.211115285214
 10
1580.643868470729
 20
-3003.211115285214
 10
1580.643868470729
 20
-3004.115004085232
 10
1580.310534871162
 20
-3004.115004085232
 97
        0
 75
     0
 76
     1
 98
        0
  0
LWPOLYLINE
  5
2FF
330
1F
100
AcDbEntity
  8
Ech.1_5
 62
     7
370
     9
100
AcDbPolyline
 90
        5
 70
     0
 43
0.0
 10
1580.310534871162
 20
-3003.211115285214
 10
1580.643868470729
 20
-3003.211115285214
 10
1580.643868470729
 20
-3004.115004085232
 10
1580.310534871162
 20
-3004.115004085232
 10
1580.310534871162
 20
-3003.211115285214
  0
HATCH
  5
300
330
1F
100
AcDbEntity
  8
Ech.1_5
 62
   252
440
 33554687
370
     5
100
AcDbHatch
 10
0.0
 20
0.0
 30
0.0
210
0.0
220
0.0
230
1.0
  2
SOLID
 70
     1
 71
     1
 91
        1
 92
        3
 72
     0
 73
     1
 93
        4
 10
1580.643867672027
 20
-3003.211115285214
 10
1580.977201271594
 20
-3003.211115285214
 10
1580.977201271594
 20
-3004.115004085232
 10
1580.643867672027
 20
-3004.115004085232
 97
        0
 75
     0
 76
     1
 98
        0
  0
LWPOLYLINE
  5
301
330
1F
100
AcDbEntity
  8
Ech.1_5
 62
     7
370
     9
100
AcDbPolyline
 90
        5
 70
     0
 43
0.0
 10
1580.643867672027
 20
-3003.211115285214
 10
1580.977201271594
 20
-3003.211115285214
 10
1580.977201271594
 20
-3004.115004085232
 10
1580.643867672027
 20
-3004.115004085232
 10
1580.643867672027
 20
-3003.211115285214
  0
HATCH
  5
302
330
1F
100
AcDbEntity
  8
Ech.1_5
 62
   252
440
 33554687
370
     5
100
AcDbHatch
 10
0.0
 20
0.0
 30
0.0
210
0.0
220
0.0
230
1.0
  2
SOLID
 70
     1
 71
     1
 91
        1
 92
        3
 72
     0
 73
     1
 93
        4
 10
1580.977200472892
 20
-3003.211115285214
 10
1581.310534072459
 20
-3003.211115285214
 10
1581.310534072459
 20
-3004.115004085232
 10
1580.977200472892
 20
-3004.115004085232
 97
        0
 75
     0
 76
     1
 98
        0
  0
LWPOLYLINE
  5
303
330
1F
100
AcDbEntity
  8
Ech.1_5
 62
     7
370
     9
100
AcDbPolyline
 90
        5
 70
     0
 43
0.0
 10
1580.977200472892
 20
-3003.211115285214
 10
1581.310534072459
 20
-3003.211115285214
 10
1581.310534072459
 20
-3004.115004085232
 10
1580.977200472892
 20
-3004.115004085232
 10
1580.977200472892
 20
-3003.211115285214
  0
HATCH
  5
304
330
1F
100
AcDbEntity
  8
Ech.1_5
 62
   252
440
 33554687
370
     5
100
AcDbHatch
 10
0.0
 20
0.0
 30
0.0
210
0.0
220
0.0
230
1.0
  2
SOLID
 70
     1
 71
     1
 91
        1
 92
        3
 72
     0
 73
     1
 93
        4
 10
1581.310534072459
 20
-3003.211115285214
 10
1581.643867672027
 20
-3003.211115285214
 10
1581.643867672027
 20
-3004.115004085232
 10
1581.310534072459
 20
-3004.115004085232
 97
        0
 75
     0
 76
     1
 98
        0
  0
LWPOLYLINE
  5
305
330
1F
100
AcDbEntity
  8
Ech.1_5
 62
     7
370
     9
100
AcDbPolyline
 90
        5
 70
     0
 43
0.0
 10
1581.310534072459
 20
-3003.211115285214
 10
1581.643867672027
 20
-3003.211115285214
 10
1581.643867672027
 20
-3004.115004085232
 10
1581.310534072459
 20
-3004.115004085232
 10
1581.310534072459
 20
-3003.211115285214
  0
HATCH
  5
306
330
1F
100
AcDbEntity
  8
Ech.1_5
 62
   252
440
 33554687
370
     5
100
AcDbHatch
 10
0.0
 20
0.0
 30
0.0
210
0.0
220
0.0
230
1.0
  2
SOLID
 70
     1
 71
     1
 91
        1
 92
        3
 72
     0
 73
     1
 93
        4
 10
1581.643867672027
 20
-3003.211115285214
 10
1581.977201271594
 20
-3003.211115285214
 10
1581.977201271594
 20
-3004.115004085232
 10
1581.643867672027
 20
-3004.115004085232
 97
        0
 75
     0
 76
     1
 98
        0
  0
LWPOLYLINE
  5
307
330
1F
100
AcDbEntity
  8
Ech.1_5
 62
     7
370
     9
100
AcDbPolyline
 90
        5
 70
     0
 43
0.0
 10
1581.643867672027
 20
-3003.211115285214
 10
1581.977201271594
 20
-3003.211115285214
 10
1581.977201271594
 20
-3004.115004085232
 10
1581.643867672027
 20
-3004.115004085232
 10
1581.643867672027
 20
-3003.211115285214
  0
HATCH
  5
308
330
1F
100
AcDbEntity
  8
Ech.1_5
 62
   252
440
 33554687
370
     5
100
AcDbHatch
 10
0.0
 20
0.0
 30
0.0
210
0.0
220
0.0
230
1.0
  2
SOLID
 70
     1
 71
     1
 91
        1
 92
        3
 72
     0
 73
     1
 93
        4
 10
1581.977201271594
 20
-3003.211115285214
 10
1582.310534871162
 20
-3003.211115285214
 10
1582.310534871162
 20
-3004.115004085232
 10
1581.977201271594
 20
-3004.115004085232
 97
        0
 75
     0
 76
     1
 98
        0
  0
LWPOLYLINE
  5
309
330
1F
100
AcDbEntity
  8
Ech.1_5
 62
     7
370
     9
100
AcDbPolyline
 90
        5
 70
     0
 43
0.0
 10
1581.977201271594
 20
-3003.211115285214
 10
1582.310534871162
 20
-3003.211115285214
 10
1582.310534871162
 20
-3004.115004085232
 10
1581.977201271594
 20
-3004.115004085232
 10
1581.977201271594
 20
-3003.211115285214
  0
HATCH
  5
30A
330
1F
100
AcDbEntity
  8
Ech.1_5
 62
   252
440
 33554687
370
     5
100
AcDbHatch
 10
0.0
 20
0.0
 30
0.0
210
0.0
220
0.0
230
1.0
  2
SOLID
 70
     1
 71
     1
 91
        1
 92
        3
 72
     0
 73
     1
 93
        4
 10
1582.310534072459
 20
-3003.211115285214
 10
1582.643867672027
 20
-3003.211115285214
 10
1582.643867672027
 20
-3004.115004085232
 10
1582.310534072459
 20
-3004.115004085232
 97
        0
 75
     0
 76
     1
 98
        0
  0
LWPOLYLINE
  5
30B
330
1F
100
AcDbEntity
  8
Ech.1_5
 62
     7
370
     9
100
AcDbPolyline
 90
        5
 70
     0
 43
0.0
 10
1582.310534072459
 20
-3003.211115285214
 10
1582.643867672027
 20
-3003.211115285214
 10
1582.643867672027
 20
-3004.115004085232
 10
1582.310534072459
 20
-3004.115004085232
 10
1582.310534072459
 20
-3003.211115285214
  0
HATCH
  5
30C
330
1F
100
AcDbEntity
  8
Ech.1_5
 62
   252
440
 33554687
370
     5
100
AcDbHatch
 10
0.0
 20
0.0
 30
0.0
210
0.0
220
0.0
230
1.0
  2
SOLID
 70
     1
 71
     1
 91
        1
 92
        3
 72
     0
 73
     1
 93
        4
 10
1582.643867272676
 20
-3003.211115285214
 10
1582.977200872243
 20
-3003.211115285214
 10
1582.977200872243
 20
-3004.115004085232
 10
1582.643867272676
 20
-3004.115004085232
 97
        0
 75
     0
 76
     1
 98
        0
  0
LWPOLYLINE
  5
30D
330
1F
100
AcDbEntity
  8
Ech.1_5
 62
     7
370
     9
100
AcDbPolyline
 90
        5
 70
     0
 43
0.0
 10
1582.643867272676
 20
-3003.211115285214
 10
1582.977200872243
 20
-3003.211115285214
 10
1582.977200872243
 20
-3004.115004085232
 10
1582.643867272676
 20
-3004.115004085232
 10
1582.643867272676
 20
-3003.211115285214
  0
HATCH
  5
30E
330
1F
100
AcDbEntity
  8
Ech.1_5
 62
   252
440
 33554687
370
     5
100
AcDbHatch
 10
0.0
 20
0.0
 30
0.0
210
0.0
220
0.0
230
1.0
  2
SOLID
 70
     1
 71
     1
 91
        1
 92
        3
 72
     0
 73
     1
 93
        4
 10
1582.977200872243
 20
-3003.211115285214
 10
1583.310534471811
 20
-3003.211115285214
 10
1583.310534471811
 20
-3004.115004085232
 10
1582.977200872243
 20
-3004.115004085232
 97
        0
 75
     0
 76
     1
 98
        0
  0
LWPOLYLINE
  5
30F
330
1F
100
AcDbEntity
  8
Ech.1_5
 62
     7
370
     9
100
AcDbPolyline
 90
        5
 70
     0
 43
0.0
 10
1582.977200872243
 20
-3003.211115285214
 10
1583.310534471811
 20
-3003.211115285214
 10
1583.310534471811
 20
-3004.115004085232
 10
1582.977200872243
 20
-3004.115004085232
 10
1582.977200872243
 20
-3003.211115285214
  0
HATCH
  5
310
330
1F
100
AcDbEntity
  8
Ech.1_5
 62
   252
440
 33554687
370
     5
100
AcDbHatch
 10
0.0
 20
0.0
 30
0.0
210
0.0
220
0.0
230
1.0
  2
SOLID
 70
     1
 71
     1
 91
        1
 92
        3
 72
     0
 73
     1
 93
        4
 10
1583.310534072459
 20
-3003.211115285214
 10
1583.643867672027
 20
-3003.211115285214
 10
1583.643867672027
 20
-3004.115004085232
 10
1583.310534072459
 20
-3004.115004085232
 97
        0
 75
     0
 76
     1
 98
        0
  0
LWPOLYLINE
  5
311
330
1F
100
AcDbEntity
  8
Ech.1_5
 62
     7
370
     9
100
AcDbPolyline
 90
        5
 70
     0
 43
0.0
 10
1583.310534072459
 20
-3003.211115285214
 10
1583.643867672027
 20
-3003.211115285214
 10
1583.643867672027
 20
-3004.115004085232
 10
1583.310534072459
 20
-3004.115004085232
 10
1583.310534072459
 20
-3003.211115285214
  0
HATCH
  5
312
330
1F
100
AcDbEntity
  8
Ech.1_5
 62
   252
440
 33554687
370
     5
100
AcDbHatch
 10
0.0
 20
0.0
 30
0.0
210
0.0
220
0.0
230
1.0
  2
SOLID
 70
     1
 71
     1
 91
        1
 92
        3
 72
     0
 73
     1
 93
        4
 10
1583.643867672027
 20
-3003.211115285214
 10
1583.977201271594
 20
-3003.211115285214
 10
1583.977201271594
 20
-3004.115004085232
 10
1583.643867672027
 20
-3004.115004085232
 97
        0
 75
     0
 76
     1
 98
        0
  0
LWPOLYLINE
  5
313
330
1F
100
AcDbEntity
  8
Ech.1_5
 62
     7
370
     9
100
AcDbPolyline
 90
        5
 70
     0
 43
0.0
 10
1583.643867672027
 20
-3003.211115285214
 10
1583.977201271594
 20
-3003.211115285214
 10
1583.977201271594
 20
-3004.115004085232
 10
1583.643867672027
 20
-3004.115004085232
 10
1583.643867672027
 20
-3003.211115285214
  0
HATCH
  5
314
330
1F
100
AcDbEntity
  8
Ech.1_5
 62
   252
440
 33554687
370
     5
100
AcDbHatch
 10
0.0
 20
0.0
 30
0.0
210
0.0
220
0.0
230
1.0
  2
SOLID
 70
     1
 71
     1
 91
        1
 92
        3
 72
     0
 73
     1
 93
        4
 10
1583.977200472892
 20
-3003.211115285214
 10
1584.310534072459
 20
-3003.211115285214
 10
1584.310534072459
 20
-3004.115004085232
 10
1583.977200472892
 20
-3004.115004085232
 97
        0
 75
     0
 76
     1
 98
        0
  0
LWPOLYLINE
  5
315
330
1F
100
AcDbEntity
  8
Ech.1_5
 62
     7
370
     9
100
AcDbPolyline
 90
        5
 70
     0
 43
0.0
 10
1583.977200472892
 20
-3003.211115285214
 10
1584.310534072459
 20
-3003.211115285214
 10
1584.310534072459
 20
-3004.115004085232
 10
1583.977200472892
 20
-3004.115004085232
 10
1583.977200472892
 20
-3003.211115285214
  0
HATCH
  5
316
330
1F
100
AcDbEntity
  8
Ech.1_5
 62
   252
440
 33554687
370
     5
100
AcDbHatch
 10
0.0
 20
0.0
 30
0.0
210
0.0
220
0.0
230
1.0
  2
SOLID
 70
     1
 71
     1
 91
        1
 92
        3
 72
     0
 73
     1
 93
        4
 10
1584.310534072459
 20
-3003.211115285214
 10
1584.643867672027
 20
-3003.211115285214
 10
1584.643867672027
 20
-3004.115004085232
 10
1584.310534072459
 20
-3004.115004085232
 97
        0
 75
     0
 76
     1
 98
        0
  0
LWPOLYLINE
  5
317
330
1F
100
AcDbEntity
  8
Ech.1_5
 62
     7
370
     9
100
AcDbPolyline
 90
        5
 70
     0
 43
0.0
 10
1584.310534072459
 20
-3003.211115285214
 10
1584.643867672027
 20
-3003.211115285214
 10
1584.643867672027
 20
-3004.115004085232
 10
1584.310534072459
 20
-3004.115004085232
 10
1584.310534072459
 20
-3003.211115285214
  0
HATCH
  5
318
330
1F
100
AcDbEntity
  8
Ech.1_5
 62
   252
440
 33554687
370
     5
100
AcDbHatch
 10
0.0
 20
0.0
 30
0.0
210
0.0
220
0.0
230
1.0
  2
SOLID
 70
     1
 71
     1
 91
        1
 92
        3
 72
     0
 73
     1
 93
        4
 10
1584.643867672027
 20
-3003.211115285214
 10
1584.977201271594
 20
-3003.211115285214
 10
1584.977201271594
 20
-3004.115004085232
 10
1584.643867672027
 20
-3004.115004085232
 97
        0
 75
     0
 76
     1
 98
        0
  0
LWPOLYLINE
  5
319
330
1F
100
AcDbEntity
  8
Ech.1_5
 62
     7
370
     9
100
AcDbPolyline
 90
        5
 70
     0
 43
0.0
 10
1584.643867672027
 20
-3003.211115285214
 10
1584.977201271594
 20
-3003.211115285214
 10
1584.977201271594
 20
-3004.115004085232
 10
1584.643867672027
 20
-3004.115004085232
 10
1584.643867672027
 20
-3003.211115285214
  0
HATCH
  5
31A
330
1F
100
AcDbEntity
  8
Ech.1_5
 62
   252
440
 33554687
370
     5
100
AcDbHatch
 10
0.0
 20
0.0
 30
0.0
210
0.0
220
0.0
230
1.0
  2
SOLID
 70
     1
 71
     1
 91
        1
 92
        3
 72
     0
 73
     1
 93
        4
 10
1584.977201271594
 20
-3003.211115285214
 10
1585.310534871162
 20
-3003.211115285214
 10
1585.310534871162
 20
-3004.115004085232
 10
1584.977201271594
 20
-3004.115004085232
 97
        0
 75
     0
 76
     1
 98
        0
  0
LWPOLYLINE
  5
31B
330
1F
100
AcDbEntity
  8
Ech.1_5
 62
     7
370
     9
100
AcDbPolyline
 90
        5
 70
     0
 43
0.0
 10
1584.977201271594
 20
-3003.211115285214
 10
1585.310534871162
 20
-3003.211115285214
 10
1585.310534871162
 20
-3004.115004085232
 10
1584.977201271594
 20
-3004.115004085232
 10
1584.977201271594
 20
-3003.211115285214
  0
HATCH
  5
31C
330
1F
100
AcDbEntity
  8
Ech.1_5
 62
   252
440
 33554687
370
     5
100
AcDbHatch
 10
0.0
 20
0.0
 30
0.0
210
0.0
220
0.0
230
1.0
  2
SOLID
 70
     1
 71
     1
 91
        1
 92
        3
 72
     1
 73
     1
 93
        4
 10
1587.190167671861
 20
-3004.115004085232
 42
0.0
 10
1586.643866873324
 20
-3004.115004085232
 42
0.0
 10
1586.643866873324
 20
-3003.211115285214
 42
0.0
 10
1587.190167671861
 20
-3003.211115285214
 42
0.3513591548521035
 97
        0
 75
     0
 76
     1
 98
        0
  0
LWPOLYLINE
  5
31D
330
1F
100
AcDbEntity
  8
Ech.1_5
 62
     7
370
     9
100
AcDbPolyline
 90
        5
 70
     0
 43
0.0
 10
1587.190167671861
 20
-3004.115004085232
 10
1586.643866873324
 20
-3004.115004085232
 10
1586.643866873324
 20
-3003.211115285214
 10
1587.190167671861
 20
-3003.211115285214
 42
0.3513591548518972
 10
1587.190167671861
 20
-3004.115004085232
  0
HATCH
  5
31E
330
1F
100
AcDbEntity
  8
Ech.1_5
 62
   252
440
 33554687
370
     5
100
AcDbHatch
 10
0.0
 20
0.0
 30
0.0
210
0.0
220
0.0
230
1.0
  2
SOLID
 70
     1
 71
     1
 91
        1
 92
        3
 72
     1
 73
     1
 93
        3
 10
1588.254978472414
 20
-3003.663059685235
 42
0.0
 10
1587.190167671861
 20
-3004.115004085232
 42
-0.3513591548519267
 10
1587.190167671861
 20
-3003.211115285214
 42
0.0
 97
        0
 75
     0
 76
     1
 98
        0
  0
LWPOLYLINE
  5
31F
330
1F
100
AcDbEntity
  8
Ech.1_5
 62
     7
370
     9
100
AcDbPolyline
 90
        4
 70
     0
 43
0.0
 10
1588.254978472414
 20
-3003.663059685235
 10
1587.190167671861
 20
-3004.115004085232
 42
-0.3513591548518956
 10
1587.190167671861
 20
-3003.211115285214
 10
1588.254978472414
 20
-3003.663059685235
  0
HATCH
  5
320
330
1F
100
AcDbEntity
  8
Ech.1_5
 62
   252
440
 33554687
370
     5
100
AcDbHatch
 10
0.0
 20
0.0
 30
0.0
210
0.0
220
0.0
230
1.0
  2
SOLID
 70
     1
 71
     1
 91
        1
 92
        3
 72
     1
 73
     1
 93
        6
 10
1570.977200472892
 20
-3003.211115285217
 42
0.0
 10
1570.277200872125
 20
-3003.211115285214
 42
-0.4142135727478138
 10
1570.054978472413
 20
-3002.988892885223
 42
0.0
 10
1570.054978472413
 20
-3004.33722648525
 42
-0.4142135726649113
 10
1570.277200872125
 20
-3004.115004085232
 42
0.0
 10
1570.977200472892
 20
-3004.115004085232
 42
0.0
 97
        0
 75
     0
 76
     1
 98
        0
  0
LWPOLYLINE
  5
321
330
1F
100
AcDbEntity
  8
Ech.1_5
 62
     7
370
     9
100
AcDbPolyline
 90
        7
 70
     0
 43
0.0
 10
1570.977200472892
 20
-3003.211115285217
 10
1570.277200872125
 20
-3003.211115285214
 42
-0.4142135727497837
 10
1570.054978472413
 20
-3002.988892885223
 10
1570.054978472413
 20
-3004.33722648525
 42
-0.414213572666436
 10
1570.277200872125
 20
-3004.115004085232
 10
1570.977200472892
 20
-3004.115004085232
 10
1570.977200472892
 20
-3003.211115285217
  0
HATCH
  5
322
330
1F
100
AcDbEntity
  8
Ech.1_5
 62
   252
440
 33554687
370
     5
100
AcDbHatch
 10
0.0
 20
0.0
 30
0.0
210
0.0
220
0.0
230
1.0
  2
SOLID
 70
     1
 71
     1
 91
        1
 92
        1
 93
        2
 72
     1
 10
1569.932756472053
 20
-3002.655559674669
 11
1569.932756472053
 21
-3004.670559695777
 72
     2
 10
1574.958037828383
 20
-3003.663059685223
 40
5.125281356329573
 50
168.6632793503046
 51
191.3367206496955
 73
     0
 97
        0
 75
     0
 76
     1
 98
        0
  0
LWPOLYLINE
  5
323
330
1F
100
AcDbEntity
  8
Ech.1_5
 62
     7
370
     9
100
AcDbPolyline
 90
        3
 70
     0
 43
0.0
 10
1569.932756472053
 20
-3002.655559674669
 10
1569.932756472053
 20
-3004.670559695777
 42
-0.0992555820868614
 10
1569.932756472053
 20
-3002.655559674669
  0
HATCH
  5
324
330
1F
100
AcDbEntity
  8
Ech.1_5
 62
   252
440
 33554687
370
     5
100
AcDbHatch
 10
0.0
 20
0.0
 30
0.0
210
0.0
220
0.0
230
1.0
  2
SOLID
 70
     1
 71
     1
 91
        1
 92
        3
 72
     0
 73
     1
 93
        6
 10
1570.054978472413
 20
-3002.655559685239
 10
1570.054978472413
 20
-3002.988892885223
 10
1570.054978472413
 20
-3004.33722648525
 10
1570.054978472414
 20
-3004.67055968523
 10
1569.932756472053
 20
-3004.670559695777
 10
1569.932756472053
 20
-3002.655559674669
 97
        0
 75
     0
 76
     1
 98
        0
  0
LWPOLYLINE
  5
325
330
1F
100
AcDbEntity
  8
Ech.1_5
 62
     7
370
     9
100
AcDbPolyline
 90
        7
 70
     0
 43
0.0
 10
1570.054978472413
 20
-3002.655559685239
 10
1570.054978472413
 20
-3002.988892885223
 10
1570.054978472413
 20
-3004.33722648525
 10
1570.054978472414
 20
-3004.67055968523
 10
1569.932756472053
 20
-3004.670559695777
 10
1569.932756472053
 20
-3002.655559674669
 10
1570.054978472413
 20
-3002.655559685239
  0
HATCH
  5
326
330
1F
100
AcDbEntity
  8
Ech.1_5
 62
   252
440
 33554687
370
     5
100
AcDbHatch
 10
0.0
 20
0.0
 30
0.0
210
0.0
220
0.0
230
1.0
  2
SOLID
 70
     1
 71
     1
 91
        1
 92
        3
 72
     0
 73
     1
 93
        4
 10
1585.310534871162
 20
-3003.211115285214
 10
1585.643868470729
 20
-3003.211115285214
 10
1585.643868470729
 20
-3004.115004085232
 10
1585.310534871162
 20
-3004.115004085232
 97
        0
 75
     0
 76
     1
 98
        0
  0
LWPOLYLINE
  5
327
330
1F
100
AcDbEntity
  8
Ech.1_5
 62
     7
370
     9
100
AcDbPolyline
 90
        5
 70
     0
 43
0.0
 10
1585.310534871162
 20
-3003.211115285214
 10
1585.643868470729
 20
-3003.211115285214
 10
1585.643868470729
 20
-3004.115004085232
 10
1585.310534871162
 20
-3004.115004085232
 10
1585.310534871162
 20
-3003.211115285214
  0
LINE
  5
328
330
1F
100
AcDbEntity
  8
Ech.1_5
 62
   190
370
     9
100
AcDbLine
 10
1585.977200472892
 20
-3004.115004085232
 30
0.0
 11
1585.977200472892
 21
-3003.211115285214
 31
0.0
  0
LINE
  5
329
330
1F
100
AcDbEntity
  8
Ech.1_5
 62
   190
370
     9
100
AcDbLine
 10
1586.310534072459
 20
-3004.115004085232
 30
0.0
 11
1586.310534072459
 21
-3003.211115285214
 31
0.0
  0
LINE
  5
32A
330
1F
100
AcDbEntity
  8
Ech.1_5
 62
   190
370
     9
100
AcDbLine
 10
1586.643866873324
 20
-3004.115004085232
 30
0.0
 11
1586.643866873324
 21
-3003.211115285214
 31
0.0
  0
LINE
  5
32B
330
1F
100
AcDbEntity
  8
Ech.1_5
 62
   190
370
     9
100
AcDbLine
 10
1585.643867672027
 20
-3004.115004085232
 30
0.0
 11
1585.643867672027
 21
-3003.211115285214
 31
0.0
  0
HATCH
  5
32C
330
1F
100
AcDbEntity
  8
Ech.1_5
 62
   252
440
 33554687
370
     5
100
AcDbHatch
 10
0.0
 20
0.0
 30
0.0
210
0.0
220
0.0
230
1.0
  2
SOLID
 70
     1
 71
     1
 91
        1
 92
        3
 72
     0
 73
     1
 93
        4
 10
1585.643866873324
 20
-3003.211115285214
 10
1585.977200472892
 20
-3003.211115285214
 10
1585.977200472892
 20
-3004.115004085232
 10
1585.643866873324
 20
-3004.115004085232
 97
        0
 75
     0
 76
     1
 98
        0
  0
LWPOLYLINE
  5
32D
330
1F
100
AcDbEntity
  8
Ech.1_5
 62
     7
370
     9
100
AcDbPolyline
 90
        5
 70
     0
 43
0.0
 10
1585.643866873324
 20
-3003.211115285214
 10
1585.977200472892
 20
-3003.211115285214
 10
1585.977200472892
 20
-3004.115004085232
 10
1585.643866873324
 20
-3004.115004085232
 10
1585.643866873324
 20
-3003.211115285214
  0
HATCH
  5
32E
330
1F
100
AcDbEntity
  8
Ech.1_5
 62
   252
440
 33554687
370
     5
100
AcDbHatch
 10
0.0
 20
0.0
 30
0.0
210
0.0
220
0.0
230
1.0
  2
SOLID
 70
     1
 71
     1
 91
        1
 92
        3
 72
     0
 73
     1
 93
        4
 10
1586.310533273757
 20
-3003.211115285214
 10
1586.643866873324
 20
-3003.211115285214
 10
1586.643866873324
 20
-3004.115004085232
 10
1586.310533273757
 20
-3004.115004085232
 97
        0
 75
     0
 76
     1
 98
        0
  0
LWPOLYLINE
  5
32F
330
1F
100
AcDbEntity
  8
Ech.1_5
 62
     7
370
     9
100
AcDbPolyline
 90
        5
 70
     0
 43
0.0
 10
1586.310533273757
 20
-3003.211115285214
 10
1586.643866873324
 20
-3003.211115285214
 10
1586.643866873324
 20
-3004.115004085232
 10
1586.310533273757
 20
-3004.115004085232
 10
1586.310533273757
 20
-3003.211115285214
  0
HATCH
  5
330
330
1F
100
AcDbEntity
  8
Ech.1_5
 62
    35
420
  9529928
440
 33554687
370
    20
100
AcDbHatch
 10
0.0
 20
0.0
 30
0.0
210
0.0
220
0.0
230
1.0
  2
SOLID
 70
     1
 71
     1
 91
        1
 92
        3
 72
     0
 73
     1
 93
        4
 10
1578.300035358709
 20
-2771.663059876088
 10
1578.300035358709
 20
-2755.663059685235
 10
1589.100035358709
 20
-2755.663059685235
 10
1589.100035358709
 20
-2771.663059685235
 97
        0
 75
     0
 76
     1
 98
        0
  0
LWPOLYLINE
  5
331
330
1F
100
AcDbEntity
  8
Ech.1_5
 62
   190
370
    20
100
AcDbPolyline
 90
        5
 70
     0
 43
0.0
 10
1578.300035358709
 20
-2771.663059876088
 10
1578.300035358709
 20
-2755.663059685235
 10
1589.100035358709
 20
-2755.663059685235
 10
1589.100035358709
 20
-2771.663059685235
 10
1578.300035358709
 20
-2771.663059876088
  0
LWPOLYLINE
  5
332
330
1F
100
AcDbEntity
  8
Ech.1_5
 62
   190
370
    20
100
AcDbPolyline
 90
        4
 70
     0
 43
0.0
 10
1589.100035358709
 20
-2771.663059685235
 10
1578.300035358709
 20
-2755.663059685235
 10
1589.100035358709
 20
-2755.663059685235
 10
1578.300035358709
 20
-2771.663014551614
  0
LWPOLYLINE
  5
333
330
1F
100
AcDbEntity
  8
Ech.1_5
 62
     5
370
    40
100
AcDbPolyline
 90
        5
 70
     0
 43
0.0
 10
1578.300035358709
 20
-2771.663014551614
 10
1578.300035358709
 20
-2755.663059685235
 10
1589.100035358709
 20
-2755.663059685235
 10
1589.100035358709
 20
-2771.663059685235
 10
1578.300035358709
 20
-2771.663014551614
  0
LINE
  5
334
330
1F
100
AcDbEntity
  8
Ech.1_5
 62
   190
370
     9
100
AcDbLine
 10
1570.054978472414
 20
-2764.67055968523
 30
0.0
 11
1569.932756472053
 21
-2764.67055968523
 31
0.0
  0
LINE
  5
335
330
1F
100
AcDbEntity
  8
Ech.1_5
 62
   190
370
     9
100
AcDbLine
 10
1569.932756472053
 20
-2764.67055968523
 30
0.0
 11
1569.932756472053
 21
-2762.655559685239
 31
0.0
  0
LINE
  5
336
330
1F
100
AcDbEntity
  8
Ech.1_5
 62
   190
370
     9
100
AcDbLine
 10
1570.054978472413
 20
-2762.655559685239
 30
0.0
 11
1569.932756472053
 21
-2762.655559685239
 31
0.0
  0
HATCH
  5
337
330
1F
100
AcDbEntity
  8
Ech.1_5
 62
   252
440
 33554687
370
     5
100
AcDbHatch
 10
0.0
 20
0.0
 30
0.0
210
0.0
220
0.0
230
1.0
  2
SOLID
 70
     1
 71
     1
 91
        1
 92
        3
 72
     0
 73
     1
 93
        4
 10
1585.977200472892
 20
-2763.211115285214
 10
1586.310534072459
 20
-2763.211115285214
 10
1586.310534072459
 20
-2764.115004085232
 10
1585.977200472892
 20
-2764.115004085232
 97
        0
 75
     0
 76
     1
 98
        0
  0
LWPOLYLINE
  5
338
330
1F
100
AcDbEntity
  8
Ech.1_5
 62
     7
370
     9
100
AcDbPolyline
 90
        5
 70
     0
 43
0.0
 10
1585.977200472892
 20
-2763.211115285214
 10
1586.310534072459
 20
-2763.211115285214
 10
1586.310534072459
 20
-2764.115004085232
 10
1585.977200472892
 20
-2764.115004085232
 10
1585.977200472892
 20
-2763.211115285214
  0
LINE
  5
339
330
1F
100
AcDbEntity
  8
Ech.1_5
 62
   190
370
     9
100
AcDbLine
 10
1587.190167671861
 20
-2764.115004085232
 30
0.0
 11
1570.277200872125
 21
-2764.115004085232
 31
0.0
  0
LINE
  5
33A
330
1F
100
AcDbEntity
  8
Ech.1_5
 62
   190
370
     9
100
AcDbLine
 10
1587.190167671861
 20
-2763.211115285214
 30
0.0
 11
1570.277200872125
 21
-2763.211115285214
 31
0.0
  0
ARC
  5
33B
330
1F
100
AcDbEntity
  8
Ech.1_5
 62
   190
370
     9
100
AcDbCircle
 10
1574.958037828379
 20
-2763.663059685223
 30
0.0
 40
5.125281356326383
100
AcDbArc
 50
168.6632793502951
 51
191.3367206496999
  0
LINE
  5
33C
330
1F
100
AcDbEntity
  8
Ech.1_5
 62
   190
370
     9
100
AcDbLine
 10
1570.054978472414
 20
-2764.67055968523
 30
0.0
 11
1570.054978472413
 21
-2764.33722648525
 31
0.0
  0
ARC
  5
33D
330
1F
100
AcDbEntity
  8
Ech.1_5
 62
   190
370
     9
100
AcDbCircle
 10
1570.277200868373
 20
-2764.337226481192
 30
0.0
 40
0.2222223959597047
100
AcDbArc
 50
89.9999990326464
 51
180.0000010462028
  0
LINE
  5
33E
330
1F
100
AcDbEntity
  8
Ech.1_5
 62
   190
370
     9
100
AcDbLine
 10
1570.054978472413
 20
-2764.33722648525
 30
0.0
 11
1570.054978472413
 21
-2762.988892885223
 31
0.0
  0
ARC
  5
33F
330
1F
100
AcDbEntity
  8
Ech.1_5
 62
   190
370
     9
100
AcDbCircle
 10
1570.277200868329
 20
-2762.988892889298
 30
0.0
 40
0.2222223959154555
100
AcDbArc
 50
179.9999989492246
 51
270.0000009787852
  0
LINE
  5
340
330
1F
100
AcDbEntity
  8
Ech.1_5
 62
   190
370
     9
100
AcDbLine
 10
1570.054978472413
 20
-2762.655559685239
 30
0.0
 11
1570.054978472413
 21
-2762.988892885223
 31
0.0
  0
LINE
  5
341
330
1F
100
AcDbEntity
  8
Ech.1_5
 62
   190
370
     9
100
AcDbLine
 10
1574.310534072459
 20
-2764.115004085232
 30
0.0
 11
1574.310534072459
 21
-2763.211115285214
 31
0.0
  0
LINE
  5
342
330
1F
100
AcDbEntity
  8
Ech.1_5
 62
   190
370
     9
100
AcDbLine
 10
1574.643867272676
 20
-2764.115004085232
 30
0.0
 11
1574.643867272676
 21
-2763.211115285214
 31
0.0
  0
LINE
  5
343
330
1F
100
AcDbEntity
  8
Ech.1_5
 62
   190
370
     9
100
AcDbLine
 10
1573.310534072459
 20
-2764.115004085232
 30
0.0
 11
1573.310534072459
 21
-2763.211115285214
 31
0.0
  0
LINE
  5
344
330
1F
100
AcDbEntity
  8
Ech.1_5
 62
   190
370
     9
100
AcDbLine
 10
1573.643867272676
 20
-2764.115004085232
 30
0.0
 11
1573.643867272676
 21
-2763.211115285214
 31
0.0
  0
LINE
  5
345
330
1F
100
AcDbEntity
  8
Ech.1_5
 62
   190
370
     9
100
AcDbLine
 10
1573.977200472892
 20
-2764.115004085232
 30
0.0
 11
1573.977200472892
 21
-2763.211115285214
 31
0.0
  0
LINE
  5
346
330
1F
100
AcDbEntity
  8
Ech.1_5
 62
   190
370
     9
100
AcDbLine
 10
1572.310534072459
 20
-2764.115004085232
 30
0.0
 11
1572.310534072459
 21
-2763.211115285214
 31
0.0
  0
LINE
  5
347
330
1F
100
AcDbEntity
  8
Ech.1_5
 62
   190
370
     9
100
AcDbLine
 10
1572.643867272676
 20
-2764.115004085232
 30
0.0
 11
1572.643867272676
 21
-2763.211115285214
 31
0.0
  0
LINE
  5
348
330
1F
100
AcDbEntity
  8
Ech.1_5
 62
   190
370
     9
100
AcDbLine
 10
1572.977200472893
 20
-2764.115004085232
 30
0.0
 11
1572.977200472893
 21
-2763.211115285214
 31
0.0
  0
LINE
  5
349
330
1F
100
AcDbEntity
  8
Ech.1_5
 62
   190
370
     9
100
AcDbLine
 10
1571.977200472892
 20
-2764.115004085232
 30
0.0
 11
1571.977200472892
 21
-2763.211115285214
 31
0.0
  0
LINE
  5
34A
330
1F
100
AcDbEntity
  8
Ech.1_5
 62
   190
370
     9
100
AcDbLine
 10
1571.643867272676
 20
-2764.115004085232
 30
0.0
 11
1571.643867272676
 21
-2763.211115285214
 31
0.0
  0
LINE
  5
34B
330
1F
100
AcDbEntity
  8
Ech.1_5
 62
   190
370
     9
100
AcDbLine
 10
1571.310534072459
 20
-2764.115004085232
 30
0.0
 11
1571.310534072459
 21
-2763.211115285214
 31
0.0
  0
LINE
  5
34C
330
1F
100
AcDbEntity
  8
Ech.1_5
 62
   190
370
     9
100
AcDbLine
 10
1570.977200472892
 20
-2764.115004085232
 30
0.0
 11
1570.977200472892
 21
-2763.211115285217
 31
0.0
  0
LINE
  5
34D
330
1F
100
AcDbEntity
  8
Ech.1_5
 62
   190
370
     9
100
AcDbLine
 10
1584.977200472892
 20
-2764.115004085232
 30
0.0
 11
1584.977200472892
 21
-2763.211115285214
 31
0.0
  0
LINE
  5
34E
330
1F
100
AcDbEntity
  8
Ech.1_5
 62
   190
370
     9
100
AcDbLine
 10
1584.643867272676
 20
-2764.115004085232
 30
0.0
 11
1584.643867272676
 21
-2763.211115285214
 31
0.0
  0
LINE
  5
34F
330
1F
100
AcDbEntity
  8
Ech.1_5
 62
   190
370
     9
100
AcDbLine
 10
1585.310534072459
 20
-2764.115004085232
 30
0.0
 11
1585.310534072459
 21
-2763.211115285214
 31
0.0
  0
LINE
  5
350
330
1F
100
AcDbEntity
  8
Ech.1_5
 62
   190
370
     9
100
AcDbLine
 10
1583.643867272676
 20
-2764.115004085232
 30
0.0
 11
1583.643867272676
 21
-2763.211115285214
 31
0.0
  0
LINE
  5
351
330
1F
100
AcDbEntity
  8
Ech.1_5
 62
   190
370
     9
100
AcDbLine
 10
1583.977200472892
 20
-2764.115004085232
 30
0.0
 11
1583.977200472892
 21
-2763.211115285214
 31
0.0
  0
LINE
  5
352
330
1F
100
AcDbEntity
  8
Ech.1_5
 62
   190
370
     9
100
AcDbLine
 10
1584.310534072459
 20
-2764.115004085232
 30
0.0
 11
1584.310534072459
 21
-2763.211115285214
 31
0.0
  0
LINE
  5
353
330
1F
100
AcDbEntity
  8
Ech.1_5
 62
   190
370
     9
100
AcDbLine
 10
1582.643867272676
 20
-2764.115004085232
 30
0.0
 11
1582.643867272676
 21
-2763.211115285214
 31
0.0
  0
LINE
  5
354
330
1F
100
AcDbEntity
  8
Ech.1_5
 62
   190
370
     9
100
AcDbLine
 10
1582.977200472892
 20
-2764.115004085232
 30
0.0
 11
1582.977200472892
 21
-2763.211115285214
 31
0.0
  0
LINE
  5
355
330
1F
100
AcDbEntity
  8
Ech.1_5
 62
   190
370
     9
100
AcDbLine
 10
1583.310534072459
 20
-2764.115004085232
 30
0.0
 11
1583.310534072459
 21
-2763.211115285214
 31
0.0
  0
LINE
  5
356
330
1F
100
AcDbEntity
  8
Ech.1_5
 62
   190
370
     9
100
AcDbLine
 10
1581.643867272676
 20
-2764.115004085232
 30
0.0
 11
1581.643867272676
 21
-2763.211115285214
 31
0.0
  0
LINE
  5
357
330
1F
100
AcDbEntity
  8
Ech.1_5
 62
   190
370
     9
100
AcDbLine
 10
1581.977200472892
 20
-2764.115004085232
 30
0.0
 11
1581.977200472892
 21
-2763.211115285214
 31
0.0
  0
LINE
  5
358
330
1F
100
AcDbEntity
  8
Ech.1_5
 62
   190
370
     9
100
AcDbLine
 10
1582.310534072459
 20
-2764.115004085232
 30
0.0
 11
1582.310534072459
 21
-2763.211115285214
 31
0.0
  0
LINE
  5
359
330
1F
100
AcDbEntity
  8
Ech.1_5
 62
   190
370
     9
100
AcDbLine
 10
1581.310534072459
 20
-2764.115004085232
 30
0.0
 11
1581.310534072459
 21
-2763.211115285214
 31
0.0
  0
LINE
  5
35A
330
1F
100
AcDbEntity
  8
Ech.1_5
 62
   190
370
     9
100
AcDbLine
 10
1575.977200472892
 20
-2764.115004085232
 30
0.0
 11
1575.977200472892
 21
-2763.211115285214
 31
0.0
  0
LINE
  5
35B
330
1F
100
AcDbEntity
  8
Ech.1_5
 62
   190
370
     9
100
AcDbLine
 10
1576.310534072459
 20
-2764.115004085232
 30
0.0
 11
1576.310534072459
 21
-2763.211115285214
 31
0.0
  0
LINE
  5
35C
330
1F
100
AcDbEntity
  8
Ech.1_5
 62
   190
370
     9
100
AcDbLine
 10
1576.643867272676
 20
-2764.115004085232
 30
0.0
 11
1576.643867272676
 21
-2763.211115285214
 31
0.0
  0
LINE
  5
35D
330
1F
100
AcDbEntity
  8
Ech.1_5
 62
   190
370
     9
100
AcDbLine
 10
1576.977200472892
 20
-2764.115004085232
 30
0.0
 11
1576.977200472892
 21
-2763.211115285214
 31
0.0
  0
LINE
  5
35E
330
1F
100
AcDbEntity
  8
Ech.1_5
 62
   190
370
     9
100
AcDbLine
 10
1577.977200472892
 20
-2764.115004085232
 30
0.0
 11
1577.977200472892
 21
-2763.211115285214
 31
0.0
  0
LINE
  5
35F
330
1F
100
AcDbEntity
  8
Ech.1_5
 62
   190
370
     9
100
AcDbLine
 10
1577.643867272676
 20
-2764.115004085232
 30
0.0
 11
1577.643867272676
 21
-2763.211115285214
 31
0.0
  0
LINE
  5
360
330
1F
100
AcDbEntity
  8
Ech.1_5
 62
   190
370
     9
100
AcDbLine
 10
1577.310534072459
 20
-2764.115004085232
 30
0.0
 11
1577.310534072459
 21
-2763.211115285214
 31
0.0
  0
LINE
  5
361
330
1F
100
AcDbEntity
  8
Ech.1_5
 62
   190
370
     9
100
AcDbLine
 10
1578.977200472892
 20
-2764.115004085232
 30
0.0
 11
1578.977200472892
 21
-2763.211115285214
 31
0.0
  0
LINE
  5
362
330
1F
100
AcDbEntity
  8
Ech.1_5
 62
   190
370
     9
100
AcDbLine
 10
1578.643867272676
 20
-2764.115004085232
 30
0.0
 11
1578.643867272676
 21
-2763.211115285214
 31
0.0
  0
LINE
  5
363
330
1F
100
AcDbEntity
  8
Ech.1_5
 62
   190
370
     9
100
AcDbLine
 10
1578.310534072459
 20
-2764.115004085232
 30
0.0
 11
1578.310534072459
 21
-2763.211115285214
 31
0.0
  0
LINE
  5
364
330
1F
100
AcDbEntity
  8
Ech.1_5
 62
   190
370
     9
100
AcDbLine
 10
1579.977200472892
 20
-2764.115004085232
 30
0.0
 11
1579.977200472892
 21
-2763.211115285214
 31
0.0
  0
LINE
  5
365
330
1F
100
AcDbEntity
  8
Ech.1_5
 62
   190
370
     9
100
AcDbLine
 10
1579.643867272676
 20
-2764.115004085232
 30
0.0
 11
1579.643867272676
 21
-2763.211115285214
 31
0.0
  0
LINE
  5
366
330
1F
100
AcDbEntity
  8
Ech.1_5
 62
   190
370
     9
100
AcDbLine
 10
1579.310534072459
 20
-2764.115004085232
 30
0.0
 11
1579.310534072459
 21
-2763.211115285214
 31
0.0
  0
LINE
  5
367
330
1F
100
AcDbEntity
  8
Ech.1_5
 62
   190
370
     9
100
AcDbLine
 10
1580.977200472892
 20
-2764.115004085232
 30
0.0
 11
1580.977200472892
 21
-2763.211115285214
 31
0.0
  0
LINE
  5
368
330
1F
100
AcDbEntity
  8
Ech.1_5
 62
   190
370
     9
100
AcDbLine
 10
1580.643867272676
 20
-2764.115004085232
 30
0.0
 11
1580.643867272676
 21
-2763.211115285214
 31
0.0
  0
LINE
  5
369
330
1F
100
AcDbEntity
  8
Ech.1_5
 62
   190
370
     9
100
AcDbLine
 10
1580.310534072459
 20
-2764.115004085232
 30
0.0
 11
1580.310534072459
 21
-2763.211115285214
 31
0.0
  0
LINE
  5
36A
330
1F
100
AcDbEntity
  8
Ech.1_5
 62
   190
370
     9
100
AcDbLine
 10
1575.310534072459
 20
-2764.115004085232
 30
0.0
 11
1575.310534072459
 21
-2763.211115285214
 31
0.0
  0
LINE
  5
36B
330
1F
100
AcDbEntity
  8
Ech.1_5
 62
   190
370
     9
100
AcDbLine
 10
1575.643867272676
 20
-2764.115004085232
 30
0.0
 11
1575.643867272676
 21
-2763.211115285214
 31
0.0
  0
LINE
  5
36C
330
1F
100
AcDbEntity
  8
Ech.1_5
 62
   190
370
     9
100
AcDbLine
 10
1575.977200472892
 20
-2764.115004085232
 30
0.0
 11
1575.977200472892
 21
-2763.211115285214
 31
0.0
  0
LINE
  5
36D
330
1F
100
AcDbEntity
  8
Ech.1_5
 62
   190
370
     9
100
AcDbLine
 10
1574.977200472892
 20
-2764.115004085232
 30
0.0
 11
1574.977200472892
 21
-2763.211115285214
 31
0.0
  0
LINE
  5
36E
330
1F
100
AcDbEntity
  8
Ech.1_5
 62
   190
370
     9
100
AcDbLine
 10
1588.254978472414
 20
-2763.663059685235
 30
0.0
 11
1587.190167671861
 21
-2764.115004085232
 31
0.0
  0
ARC
  5
36F
330
1F
100
AcDbEntity
  8
Ech.1_5
 62
   190
370
     9
100
AcDbCircle
 10
1587.753908068099
 20
-2763.663059685236
 30
0.0
 40
0.7225351986654779
100
AcDbArc
 50
141.2812399141615
 51
218.7187600858385
  0
LINE
  5
370
330
1F
100
AcDbEntity
  8
Ech.1_5
 62
   190
370
     9
100
AcDbLine
 10
1588.254978472414
 20
-2763.663059685235
 30
0.0
 11
1587.190167671861
 21
-2763.211115285214
 31
0.0
  0
HATCH
  5
371
330
1F
100
AcDbEntity
  8
Ech.1_5
 62
   252
440
 33554687
370
     5
100
AcDbHatch
 10
0.0
 20
0.0
 30
0.0
210
0.0
220
0.0
230
1.0
  2
SOLID
 70
     1
 71
     1
 91
        1
 92
        3
 72
     0
 73
     1
 93
        4
 10
1570.977200472892
 20
-2763.211115285217
 10
1571.310534072459
 20
-2763.211115285214
 10
1571.310534072459
 20
-2764.115004085232
 10
1570.977200472892
 20
-2764.115004085232
 97
        0
 75
     0
 76
     1
 98
        0
  0
LWPOLYLINE
  5
372
330
1F
100
AcDbEntity
  8
Ech.1_5
 62
     7
370
     9
100
AcDbPolyline
 90
        5
 70
     0
 43
0.0
 10
1570.977200472892
 20
-2763.211115285217
 10
1571.310534072459
 20
-2763.211115285214
 10
1571.310534072459
 20
-2764.115004085232
 10
1570.977200472892
 20
-2764.115004085232
 10
1570.977200472892
 20
-2763.211115285217
  0
HATCH
  5
373
330
1F
100
AcDbEntity
  8
Ech.1_5
 62
   252
440
 33554687
370
     5
100
AcDbHatch
 10
0.0
 20
0.0
 30
0.0
210
0.0
220
0.0
230
1.0
  2
SOLID
 70
     1
 71
     1
 91
        1
 92
        3
 72
     0
 73
     1
 93
        4
 10
1571.310534072459
 20
-2763.211115285214
 10
1571.643867672027
 20
-2763.211115285214
 10
1571.643867672027
 20
-2764.115004085232
 10
1571.310534072459
 20
-2764.115004085232
 97
        0
 75
     0
 76
     1
 98
        0
  0
LWPOLYLINE
  5
374
330
1F
100
AcDbEntity
  8
Ech.1_5
 62
     7
370
     9
100
AcDbPolyline
 90
        5
 70
     0
 43
0.0
 10
1571.310534072459
 20
-2763.211115285214
 10
1571.643867672027
 20
-2763.211115285214
 10
1571.643867672027
 20
-2764.115004085232
 10
1571.310534072459
 20
-2764.115004085232
 10
1571.310534072459
 20
-2763.211115285214
  0
HATCH
  5
375
330
1F
100
AcDbEntity
  8
Ech.1_5
 62
   252
440
 33554687
370
     5
100
AcDbHatch
 10
0.0
 20
0.0
 30
0.0
210
0.0
220
0.0
230
1.0
  2
SOLID
 70
     1
 71
     1
 91
        1
 92
        3
 72
     0
 73
     1
 93
        4
 10
1571.643867672027
 20
-2763.211115285214
 10
1571.977201271594
 20
-2763.211115285214
 10
1571.977201271594
 20
-2764.115004085232
 10
1571.643867672027
 20
-2764.115004085232
 97
        0
 75
     0
 76
     1
 98
        0
  0
LWPOLYLINE
  5
376
330
1F
100
AcDbEntity
  8
Ech.1_5
 62
     7
370
     9
100
AcDbPolyline
 90
        5
 70
     0
 43
0.0
 10
1571.643867672027
 20
-2763.211115285214
 10
1571.977201271594
 20
-2763.211115285214
 10
1571.977201271594
 20
-2764.115004085232
 10
1571.643867672027
 20
-2764.115004085232
 10
1571.643867672027
 20
-2763.211115285214
  0
HATCH
  5
377
330
1F
100
AcDbEntity
  8
Ech.1_5
 62
   252
440
 33554687
370
     5
100
AcDbHatch
 10
0.0
 20
0.0
 30
0.0
210
0.0
220
0.0
230
1.0
  2
SOLID
 70
     1
 71
     1
 91
        1
 92
        3
 72
     0
 73
     1
 93
        4
 10
1571.977201271594
 20
-2763.211115285214
 10
1572.310534871162
 20
-2763.211115285214
 10
1572.310534871162
 20
-2764.115004085232
 10
1571.977201271594
 20
-2764.115004085232
 97
        0
 75
     0
 76
     1
 98
        0
  0
LWPOLYLINE
  5
378
330
1F
100
AcDbEntity
  8
Ech.1_5
 62
     7
370
     9
100
AcDbPolyline
 90
        5
 70
     0
 43
0.0
 10
1571.977201271594
 20
-2763.211115285214
 10
1572.310534871162
 20
-2763.211115285214
 10
1572.310534871162
 20
-2764.115004085232
 10
1571.977201271594
 20
-2764.115004085232
 10
1571.977201271594
 20
-2763.211115285214
  0
HATCH
  5
379
330
1F
100
AcDbEntity
  8
Ech.1_5
 62
   252
440
 33554687
370
     5
100
AcDbHatch
 10
0.0
 20
0.0
 30
0.0
210
0.0
220
0.0
230
1.0
  2
SOLID
 70
     1
 71
     1
 91
        1
 92
        3
 72
     0
 73
     1
 93
        4
 10
1572.310534072459
 20
-2763.211115285214
 10
1572.643867672027
 20
-2763.211115285214
 10
1572.643867672027
 20
-2764.115004085232
 10
1572.310534072459
 20
-2764.115004085232
 97
        0
 75
     0
 76
     1
 98
        0
  0
LWPOLYLINE
  5
37A
330
1F
100
AcDbEntity
  8
Ech.1_5
 62
     7
370
     9
100
AcDbPolyline
 90
        5
 70
     0
 43
0.0
 10
1572.310534072459
 20
-2763.211115285214
 10
1572.643867672027
 20
-2763.211115285214
 10
1572.643867672027
 20
-2764.115004085232
 10
1572.310534072459
 20
-2764.115004085232
 10
1572.310534072459
 20
-2763.211115285214
  0
HATCH
  5
37B
330
1F
100
AcDbEntity
  8
Ech.1_5
 62
   252
440
 33554687
370
     5
100
AcDbHatch
 10
0.0
 20
0.0
 30
0.0
210
0.0
220
0.0
230
1.0
  2
SOLID
 70
     1
 71
     1
 91
        1
 92
        3
 72
     0
 73
     1
 93
        4
 10
1572.643867272676
 20
-2763.211115285214
 10
1572.977200872244
 20
-2763.211115285214
 10
1572.977200872244
 20
-2764.115004085235
 10
1572.643867272676
 20
-2764.115004085232
 97
        0
 75
     0
 76
     1
 98
        0
  0
LWPOLYLINE
  5
37C
330
1F
100
AcDbEntity
  8
Ech.1_5
 62
     7
370
     9
100
AcDbPolyline
 90
        5
 70
     0
 43
0.0
 10
1572.643867272676
 20
-2763.211115285214
 10
1572.977200872244
 20
-2763.211115285214
 10
1572.977200872244
 20
-2764.115004085235
 10
1572.643867272676
 20
-2764.115004085232
 10
1572.643867272676
 20
-2763.211115285214
  0
HATCH
  5
37D
330
1F
100
AcDbEntity
  8
Ech.1_5
 62
   252
440
 33554687
370
     5
100
AcDbHatch
 10
0.0
 20
0.0
 30
0.0
210
0.0
220
0.0
230
1.0
  2
SOLID
 70
     1
 71
     1
 91
        1
 92
        3
 72
     0
 73
     1
 93
        4
 10
1572.977200872244
 20
-2763.211115285214
 10
1573.310534471811
 20
-2763.211115285214
 10
1573.310534471811
 20
-2764.115004085232
 10
1572.977200872244
 20
-2764.115004085235
 97
        0
 75
     0
 76
     1
 98
        0
  0
LWPOLYLINE
  5
37E
330
1F
100
AcDbEntity
  8
Ech.1_5
 62
     7
370
     9
100
AcDbPolyline
 90
        5
 70
     0
 43
0.0
 10
1572.977200872244
 20
-2763.211115285214
 10
1573.310534471811
 20
-2763.211115285214
 10
1573.310534471811
 20
-2764.115004085232
 10
1572.977200872244
 20
-2764.115004085235
 10
1572.977200872244
 20
-2763.211115285214
  0
HATCH
  5
37F
330
1F
100
AcDbEntity
  8
Ech.1_5
 62
   252
440
 33554687
370
     5
100
AcDbHatch
 10
0.0
 20
0.0
 30
0.0
210
0.0
220
0.0
230
1.0
  2
SOLID
 70
     1
 71
     1
 91
        1
 92
        3
 72
     0
 73
     1
 93
        4
 10
1573.310534072459
 20
-2763.211115285214
 10
1573.643867672027
 20
-2763.211115285214
 10
1573.643867672027
 20
-2764.115004085232
 10
1573.310534072459
 20
-2764.115004085232
 97
        0
 75
     0
 76
     1
 98
        0
  0
LWPOLYLINE
  5
380
330
1F
100
AcDbEntity
  8
Ech.1_5
 62
     7
370
     9
100
AcDbPolyline
 90
        5
 70
     0
 43
0.0
 10
1573.310534072459
 20
-2763.211115285214
 10
1573.643867672027
 20
-2763.211115285214
 10
1573.643867672027
 20
-2764.115004085232
 10
1573.310534072459
 20
-2764.115004085232
 10
1573.310534072459
 20
-2763.211115285214
  0
HATCH
  5
381
330
1F
100
AcDbEntity
  8
Ech.1_5
 62
   252
440
 33554687
370
     5
100
AcDbHatch
 10
0.0
 20
0.0
 30
0.0
210
0.0
220
0.0
230
1.0
  2
SOLID
 70
     1
 71
     1
 91
        1
 92
        3
 72
     0
 73
     1
 93
        4
 10
1573.643867672027
 20
-2763.211115285214
 10
1573.977201271594
 20
-2763.211115285214
 10
1573.977201271594
 20
-2764.115004085232
 10
1573.643867672027
 20
-2764.115004085232
 97
        0
 75
     0
 76
     1
 98
        0
  0
LWPOLYLINE
  5
382
330
1F
100
AcDbEntity
  8
Ech.1_5
 62
     7
370
     9
100
AcDbPolyline
 90
        5
 70
     0
 43
0.0
 10
1573.643867672027
 20
-2763.211115285214
 10
1573.977201271594
 20
-2763.211115285214
 10
1573.977201271594
 20
-2764.115004085232
 10
1573.643867672027
 20
-2764.115004085232
 10
1573.643867672027
 20
-2763.211115285214
  0
HATCH
  5
383
330
1F
100
AcDbEntity
  8
Ech.1_5
 62
   252
440
 33554687
370
     5
100
AcDbHatch
 10
0.0
 20
0.0
 30
0.0
210
0.0
220
0.0
230
1.0
  2
SOLID
 70
     1
 71
     1
 91
        1
 92
        3
 72
     0
 73
     1
 93
        4
 10
1573.977200472892
 20
-2763.211115285214
 10
1574.310534072459
 20
-2763.211115285214
 10
1574.310534072459
 20
-2764.115004085232
 10
1573.977200472892
 20
-2764.115004085232
 97
        0
 75
     0
 76
     1
 98
        0
  0
LWPOLYLINE
  5
384
330
1F
100
AcDbEntity
  8
Ech.1_5
 62
     7
370
     9
100
AcDbPolyline
 90
        5
 70
     0
 43
0.0
 10
1573.977200472892
 20
-2763.211115285214
 10
1574.310534072459
 20
-2763.211115285214
 10
1574.310534072459
 20
-2764.115004085232
 10
1573.977200472892
 20
-2764.115004085232
 10
1573.977200472892
 20
-2763.211115285214
  0
HATCH
  5
385
330
1F
100
AcDbEntity
  8
Ech.1_5
 62
   252
440
 33554687
370
     5
100
AcDbHatch
 10
0.0
 20
0.0
 30
0.0
210
0.0
220
0.0
230
1.0
  2
SOLID
 70
     1
 71
     1
 91
        1
 92
        3
 72
     0
 73
     1
 93
        4
 10
1574.310534072459
 20
-2763.211115285214
 10
1574.643867672027
 20
-2763.211115285214
 10
1574.643867672027
 20
-2764.115004085232
 10
1574.310534072459
 20
-2764.115004085232
 97
        0
 75
     0
 76
     1
 98
        0
  0
LWPOLYLINE
  5
386
330
1F
100
AcDbEntity
  8
Ech.1_5
 62
     7
370
     9
100
AcDbPolyline
 90
        5
 70
     0
 43
0.0
 10
1574.310534072459
 20
-2763.211115285214
 10
1574.643867672027
 20
-2763.211115285214
 10
1574.643867672027
 20
-2764.115004085232
 10
1574.310534072459
 20
-2764.115004085232
 10
1574.310534072459
 20
-2763.211115285214
  0
HATCH
  5
387
330
1F
100
AcDbEntity
  8
Ech.1_5
 62
   252
440
 33554687
370
     5
100
AcDbHatch
 10
0.0
 20
0.0
 30
0.0
210
0.0
220
0.0
230
1.0
  2
SOLID
 70
     1
 71
     1
 91
        1
 92
        3
 72
     0
 73
     1
 93
        4
 10
1574.643867672027
 20
-2763.211115285214
 10
1574.977201271594
 20
-2763.211115285214
 10
1574.977201271595
 20
-2764.115004085232
 10
1574.643867672027
 20
-2764.115004085232
 97
        0
 75
     0
 76
     1
 98
        0
  0
LWPOLYLINE
  5
388
330
1F
100
AcDbEntity
  8
Ech.1_5
 62
     7
370
     9
100
AcDbPolyline
 90
        5
 70
     0
 43
0.0
 10
1574.643867672027
 20
-2763.211115285214
 10
1574.977201271594
 20
-2763.211115285214
 10
1574.977201271595
 20
-2764.115004085232
 10
1574.643867672027
 20
-2764.115004085232
 10
1574.643867672027
 20
-2763.211115285214
  0
HATCH
  5
389
330
1F
100
AcDbEntity
  8
Ech.1_5
 62
   252
440
 33554687
370
     5
100
AcDbHatch
 10
0.0
 20
0.0
 30
0.0
210
0.0
220
0.0
230
1.0
  2
SOLID
 70
     1
 71
     1
 91
        1
 92
        3
 72
     0
 73
     1
 93
        4
 10
1574.977201271594
 20
-2763.211115285214
 10
1575.310534871162
 20
-2763.211115285214
 10
1575.310534871162
 20
-2764.115004085232
 10
1574.977201271595
 20
-2764.115004085232
 97
        0
 75
     0
 76
     1
 98
        0
  0
LWPOLYLINE
  5
38A
330
1F
100
AcDbEntity
  8
Ech.1_5
 62
     7
370
     9
100
AcDbPolyline
 90
        5
 70
     0
 43
0.0
 10
1574.977201271594
 20
-2763.211115285214
 10
1575.310534871162
 20
-2763.211115285214
 10
1575.310534871162
 20
-2764.115004085232
 10
1574.977201271595
 20
-2764.115004085232
 10
1574.977201271594
 20
-2763.211115285214
  0
HATCH
  5
38B
330
1F
100
AcDbEntity
  8
Ech.1_5
 62
   252
440
 33554687
370
     5
100
AcDbHatch
 10
0.0
 20
0.0
 30
0.0
210
0.0
220
0.0
230
1.0
  2
SOLID
 70
     1
 71
     1
 91
        1
 92
        3
 72
     0
 73
     1
 93
        4
 10
1575.310534871162
 20
-2763.211115285214
 10
1575.643868470729
 20
-2763.211115285214
 10
1575.643868470729
 20
-2764.115004085232
 10
1575.310534871162
 20
-2764.115004085232
 97
        0
 75
     0
 76
     1
 98
        0
  0
LWPOLYLINE
  5
38C
330
1F
100
AcDbEntity
  8
Ech.1_5
 62
     7
370
     9
100
AcDbPolyline
 90
        5
 70
     0
 43
0.0
 10
1575.310534871162
 20
-2763.211115285214
 10
1575.643868470729
 20
-2763.211115285214
 10
1575.643868470729
 20
-2764.115004085232
 10
1575.310534871162
 20
-2764.115004085232
 10
1575.310534871162
 20
-2763.211115285214
  0
HATCH
  5
38D
330
1F
100
AcDbEntity
  8
Ech.1_5
 62
   252
440
 33554687
370
     5
100
AcDbHatch
 10
0.0
 20
0.0
 30
0.0
210
0.0
220
0.0
230
1.0
  2
SOLID
 70
     1
 71
     1
 91
        1
 92
        3
 72
     0
 73
     1
 93
        4
 10
1575.643867672027
 20
-2763.211115285214
 10
1575.977201271594
 20
-2763.211115285214
 10
1575.977201271594
 20
-2764.115004085232
 10
1575.643867672027
 20
-2764.115004085232
 97
        0
 75
     0
 76
     1
 98
        0
  0
LWPOLYLINE
  5
38E
330
1F
100
AcDbEntity
  8
Ech.1_5
 62
     7
370
     9
100
AcDbPolyline
 90
        5
 70
     0
 43
0.0
 10
1575.643867672027
 20
-2763.211115285214
 10
1575.977201271594
 20
-2763.211115285214
 10
1575.977201271594
 20
-2764.115004085232
 10
1575.643867672027
 20
-2764.115004085232
 10
1575.643867672027
 20
-2763.211115285214
  0
HATCH
  5
38F
330
1F
100
AcDbEntity
  8
Ech.1_5
 62
   252
440
 33554687
370
     5
100
AcDbHatch
 10
0.0
 20
0.0
 30
0.0
210
0.0
220
0.0
230
1.0
  2
SOLID
 70
     1
 71
     1
 91
        1
 92
        3
 72
     0
 73
     1
 93
        4
 10
1575.977200872243
 20
-2763.211115285214
 10
1576.310534471811
 20
-2763.211115285214
 10
1576.310534471811
 20
-2764.115004085232
 10
1575.977200872243
 20
-2764.115004085232
 97
        0
 75
     0
 76
     1
 98
        0
  0
LWPOLYLINE
  5
390
330
1F
100
AcDbEntity
  8
Ech.1_5
 62
     7
370
     9
100
AcDbPolyline
 90
        5
 70
     0
 43
0.0
 10
1575.977200872243
 20
-2763.211115285214
 10
1576.310534471811
 20
-2763.211115285214
 10
1576.310534471811
 20
-2764.115004085232
 10
1575.977200872243
 20
-2764.115004085232
 10
1575.977200872243
 20
-2763.211115285214
  0
HATCH
  5
391
330
1F
100
AcDbEntity
  8
Ech.1_5
 62
   252
440
 33554687
370
     5
100
AcDbHatch
 10
0.0
 20
0.0
 30
0.0
210
0.0
220
0.0
230
1.0
  2
SOLID
 70
     1
 71
     1
 91
        1
 92
        3
 72
     0
 73
     1
 93
        4
 10
1576.310534471811
 20
-2763.211115285214
 10
1576.643868071378
 20
-2763.211115285214
 10
1576.643868071378
 20
-2764.115004085232
 10
1576.310534471811
 20
-2764.115004085232
 97
        0
 75
     0
 76
     1
 98
        0
  0
LWPOLYLINE
  5
392
330
1F
100
AcDbEntity
  8
Ech.1_5
 62
     7
370
     9
100
AcDbPolyline
 90
        5
 70
     0
 43
0.0
 10
1576.310534471811
 20
-2763.211115285214
 10
1576.643868071378
 20
-2763.211115285214
 10
1576.643868071378
 20
-2764.115004085232
 10
1576.310534471811
 20
-2764.115004085232
 10
1576.310534471811
 20
-2763.211115285214
  0
HATCH
  5
393
330
1F
100
AcDbEntity
  8
Ech.1_5
 62
   252
440
 33554687
370
     5
100
AcDbHatch
 10
0.0
 20
0.0
 30
0.0
210
0.0
220
0.0
230
1.0
  2
SOLID
 70
     1
 71
     1
 91
        1
 92
        3
 72
     0
 73
     1
 93
        4
 10
1576.643867672027
 20
-2763.211115285214
 10
1576.977201271594
 20
-2763.211115285214
 10
1576.977201271594
 20
-2764.115004085232
 10
1576.643867672027
 20
-2764.115004085232
 97
        0
 75
     0
 76
     1
 98
        0
  0
LWPOLYLINE
  5
394
330
1F
100
AcDbEntity
  8
Ech.1_5
 62
     7
370
     9
100
AcDbPolyline
 90
        5
 70
     0
 43
0.0
 10
1576.643867672027
 20
-2763.211115285214
 10
1576.977201271594
 20
-2763.211115285214
 10
1576.977201271594
 20
-2764.115004085232
 10
1576.643867672027
 20
-2764.115004085232
 10
1576.643867672027
 20
-2763.211115285214
  0
HATCH
  5
395
330
1F
100
AcDbEntity
  8
Ech.1_5
 62
   252
440
 33554687
370
     5
100
AcDbHatch
 10
0.0
 20
0.0
 30
0.0
210
0.0
220
0.0
230
1.0
  2
SOLID
 70
     1
 71
     1
 91
        1
 92
        3
 72
     0
 73
     1
 93
        4
 10
1576.977201271594
 20
-2763.211115285214
 10
1577.310534871162
 20
-2763.211115285214
 10
1577.310534871162
 20
-2764.115004085232
 10
1576.977201271594
 20
-2764.115004085232
 97
        0
 75
     0
 76
     1
 98
        0
  0
LWPOLYLINE
  5
396
330
1F
100
AcDbEntity
  8
Ech.1_5
 62
     7
370
     9
100
AcDbPolyline
 90
        5
 70
     0
 43
0.0
 10
1576.977201271594
 20
-2763.211115285214
 10
1577.310534871162
 20
-2763.211115285214
 10
1577.310534871162
 20
-2764.115004085232
 10
1576.977201271594
 20
-2764.115004085232
 10
1576.977201271594
 20
-2763.211115285214
  0
HATCH
  5
397
330
1F
100
AcDbEntity
  8
Ech.1_5
 62
   252
440
 33554687
370
     5
100
AcDbHatch
 10
0.0
 20
0.0
 30
0.0
210
0.0
220
0.0
230
1.0
  2
SOLID
 70
     1
 71
     1
 91
        1
 92
        3
 72
     0
 73
     1
 93
        4
 10
1577.310534072459
 20
-2763.211115285214
 10
1577.643867672027
 20
-2763.211115285214
 10
1577.643867672027
 20
-2764.115004085232
 10
1577.310534072459
 20
-2764.115004085232
 97
        0
 75
     0
 76
     1
 98
        0
  0
LWPOLYLINE
  5
398
330
1F
100
AcDbEntity
  8
Ech.1_5
 62
     7
370
     9
100
AcDbPolyline
 90
        5
 70
     0
 43
0.0
 10
1577.310534072459
 20
-2763.211115285214
 10
1577.643867672027
 20
-2763.211115285214
 10
1577.643867672027
 20
-2764.115004085232
 10
1577.310534072459
 20
-2764.115004085232
 10
1577.310534072459
 20
-2763.211115285214
  0
HATCH
  5
399
330
1F
100
AcDbEntity
  8
Ech.1_5
 62
   252
440
 33554687
370
     5
100
AcDbHatch
 10
0.0
 20
0.0
 30
0.0
210
0.0
220
0.0
230
1.0
  2
SOLID
 70
     1
 71
     1
 91
        1
 92
        3
 72
     0
 73
     1
 93
        4
 10
1577.643867672027
 20
-2763.211115285214
 10
1577.977201271594
 20
-2763.211115285214
 10
1577.977201271594
 20
-2764.115004085232
 10
1577.643867672027
 20
-2764.115004085232
 97
        0
 75
     0
 76
     1
 98
        0
  0
LWPOLYLINE
  5
39A
330
1F
100
AcDbEntity
  8
Ech.1_5
 62
     7
370
     9
100
AcDbPolyline
 90
        5
 70
     0
 43
0.0
 10
1577.643867672027
 20
-2763.211115285214
 10
1577.977201271594
 20
-2763.211115285214
 10
1577.977201271594
 20
-2764.115004085232
 10
1577.643867672027
 20
-2764.115004085232
 10
1577.643867672027
 20
-2763.211115285214
  0
HATCH
  5
39B
330
1F
100
AcDbEntity
  8
Ech.1_5
 62
   252
440
 33554687
370
     5
100
AcDbHatch
 10
0.0
 20
0.0
 30
0.0
210
0.0
220
0.0
230
1.0
  2
SOLID
 70
     1
 71
     1
 91
        1
 92
        3
 72
     0
 73
     1
 93
        4
 10
1577.977201271594
 20
-2763.211115285214
 10
1578.310534871162
 20
-2763.211115285214
 10
1578.310534871162
 20
-2764.115004085232
 10
1577.977201271594
 20
-2764.115004085232
 97
        0
 75
     0
 76
     1
 98
        0
  0
LWPOLYLINE
  5
39C
330
1F
100
AcDbEntity
  8
Ech.1_5
 62
     7
370
     9
100
AcDbPolyline
 90
        5
 70
     0
 43
0.0
 10
1577.977201271594
 20
-2763.211115285214
 10
1578.310534871162
 20
-2763.211115285214
 10
1578.310534871162
 20
-2764.115004085232
 10
1577.977201271594
 20
-2764.115004085232
 10
1577.977201271594
 20
-2763.211115285214
  0
HATCH
  5
39D
330
1F
100
AcDbEntity
  8
Ech.1_5
 62
   252
440
 33554687
370
     5
100
AcDbHatch
 10
0.0
 20
0.0
 30
0.0
210
0.0
220
0.0
230
1.0
  2
SOLID
 70
     1
 71
     1
 91
        1
 92
        3
 72
     0
 73
     1
 93
        4
 10
1578.310534871162
 20
-2763.211115285214
 10
1578.64386847073
 20
-2763.211115285214
 10
1578.643868470729
 20
-2764.115004085232
 10
1578.310534871162
 20
-2764.115004085232
 97
        0
 75
     0
 76
     1
 98
        0
  0
LWPOLYLINE
  5
39E
330
1F
100
AcDbEntity
  8
Ech.1_5
 62
     7
370
     9
100
AcDbPolyline
 90
        5
 70
     0
 43
0.0
 10
1578.310534871162
 20
-2763.211115285214
 10
1578.64386847073
 20
-2763.211115285214
 10
1578.643868470729
 20
-2764.115004085232
 10
1578.310534871162
 20
-2764.115004085232
 10
1578.310534871162
 20
-2763.211115285214
  0
HATCH
  5
39F
330
1F
100
AcDbEntity
  8
Ech.1_5
 62
   252
440
 33554687
370
     5
100
AcDbHatch
 10
0.0
 20
0.0
 30
0.0
210
0.0
220
0.0
230
1.0
  2
SOLID
 70
     1
 71
     1
 91
        1
 92
        3
 72
     0
 73
     1
 93
        4
 10
1578.64386847073
 20
-2763.211115285214
 10
1578.977202070296
 20
-2763.211115285214
 10
1578.977202070296
 20
-2764.115004085232
 10
1578.643868470729
 20
-2764.115004085232
 97
        0
 75
     0
 76
     1
 98
        0
  0
LWPOLYLINE
  5
3A0
330
1F
100
AcDbEntity
  8
Ech.1_5
 62
     7
370
     9
100
AcDbPolyline
 90
        5
 70
     0
 43
0.0
 10
1578.64386847073
 20
-2763.211115285214
 10
1578.977202070296
 20
-2763.211115285214
 10
1578.977202070296
 20
-2764.115004085232
 10
1578.643868470729
 20
-2764.115004085232
 10
1578.64386847073
 20
-2763.211115285214
  0
HATCH
  5
3A1
330
1F
100
AcDbEntity
  8
Ech.1_5
 62
   252
440
 33554687
370
     5
100
AcDbHatch
 10
0.0
 20
0.0
 30
0.0
210
0.0
220
0.0
230
1.0
  2
SOLID
 70
     1
 71
     1
 91
        1
 92
        3
 72
     0
 73
     1
 93
        4
 10
1578.977201271594
 20
-2763.211115285214
 10
1579.310534871162
 20
-2763.211115285214
 10
1579.310534871162
 20
-2764.115004085232
 10
1578.977201271594
 20
-2764.115004085232
 97
        0
 75
     0
 76
     1
 98
        0
  0
LWPOLYLINE
  5
3A2
330
1F
100
AcDbEntity
  8
Ech.1_5
 62
     7
370
     9
100
AcDbPolyline
 90
        5
 70
     0
 43
0.0
 10
1578.977201271594
 20
-2763.211115285214
 10
1579.310534871162
 20
-2763.211115285214
 10
1579.310534871162
 20
-2764.115004085232
 10
1578.977201271594
 20
-2764.115004085232
 10
1578.977201271594
 20
-2763.211115285214
  0
HATCH
  5
3A3
330
1F
100
AcDbEntity
  8
Ech.1_5
 62
   252
440
 33554687
370
     5
100
AcDbHatch
 10
0.0
 20
0.0
 30
0.0
210
0.0
220
0.0
230
1.0
  2
SOLID
 70
     1
 71
     1
 91
        1
 92
        3
 72
     0
 73
     1
 93
        4
 10
1579.310534471811
 20
-2763.211115285214
 10
1579.643868071378
 20
-2763.211115285214
 10
1579.643868071378
 20
-2764.115004085232
 10
1579.310534471811
 20
-2764.115004085232
 97
        0
 75
     0
 76
     1
 98
        0
  0
LWPOLYLINE
  5
3A4
330
1F
100
AcDbEntity
  8
Ech.1_5
 62
     7
370
     9
100
AcDbPolyline
 90
        5
 70
     0
 43
0.0
 10
1579.310534471811
 20
-2763.211115285214
 10
1579.643868071378
 20
-2763.211115285214
 10
1579.643868071378
 20
-2764.115004085232
 10
1579.310534471811
 20
-2764.115004085232
 10
1579.310534471811
 20
-2763.211115285214
  0
HATCH
  5
3A5
330
1F
100
AcDbEntity
  8
Ech.1_5
 62
   252
440
 33554687
370
     5
100
AcDbHatch
 10
0.0
 20
0.0
 30
0.0
210
0.0
220
0.0
230
1.0
  2
SOLID
 70
     1
 71
     1
 91
        1
 92
        3
 72
     0
 73
     1
 93
        4
 10
1579.643868071378
 20
-2763.211115285214
 10
1579.977201670945
 20
-2763.211115285214
 10
1579.977201670945
 20
-2764.115004085232
 10
1579.643868071378
 20
-2764.115004085232
 97
        0
 75
     0
 76
     1
 98
        0
  0
LWPOLYLINE
  5
3A6
330
1F
100
AcDbEntity
  8
Ech.1_5
 62
     7
370
     9
100
AcDbPolyline
 90
        5
 70
     0
 43
0.0
 10
1579.643868071378
 20
-2763.211115285214
 10
1579.977201670945
 20
-2763.211115285214
 10
1579.977201670945
 20
-2764.115004085232
 10
1579.643868071378
 20
-2764.115004085232
 10
1579.643868071378
 20
-2763.211115285214
  0
HATCH
  5
3A7
330
1F
100
AcDbEntity
  8
Ech.1_5
 62
   252
440
 33554687
370
     5
100
AcDbHatch
 10
0.0
 20
0.0
 30
0.0
210
0.0
220
0.0
230
1.0
  2
SOLID
 70
     1
 71
     1
 91
        1
 92
        3
 72
     0
 73
     1
 93
        4
 10
1579.977201271594
 20
-2763.211115285214
 10
1580.310534871162
 20
-2763.211115285214
 10
1580.310534871162
 20
-2764.115004085232
 10
1579.977201271594
 20
-2764.115004085232
 97
        0
 75
     0
 76
     1
 98
        0
  0
LWPOLYLINE
  5
3A8
330
1F
100
AcDbEntity
  8
Ech.1_5
 62
     7
370
     9
100
AcDbPolyline
 90
        5
 70
     0
 43
0.0
 10
1579.977201271594
 20
-2763.211115285214
 10
1580.310534871162
 20
-2763.211115285214
 10
1580.310534871162
 20
-2764.115004085232
 10
1579.977201271594
 20
-2764.115004085232
 10
1579.977201271594
 20
-2763.211115285214
  0
HATCH
  5
3A9
330
1F
100
AcDbEntity
  8
Ech.1_5
 62
   252
440
 33554687
370
     5
100
AcDbHatch
 10
0.0
 20
0.0
 30
0.0
210
0.0
220
0.0
230
1.0
  2
SOLID
 70
     1
 71
     1
 91
        1
 92
        3
 72
     0
 73
     1
 93
        4
 10
1580.310534871162
 20
-2763.211115285214
 10
1580.643868470729
 20
-2763.211115285214
 10
1580.643868470729
 20
-2764.115004085232
 10
1580.310534871162
 20
-2764.115004085232
 97
        0
 75
     0
 76
     1
 98
        0
  0
LWPOLYLINE
  5
3AA
330
1F
100
AcDbEntity
  8
Ech.1_5
 62
     7
370
     9
100
AcDbPolyline
 90
        5
 70
     0
 43
0.0
 10
1580.310534871162
 20
-2763.211115285214
 10
1580.643868470729
 20
-2763.211115285214
 10
1580.643868470729
 20
-2764.115004085232
 10
1580.310534871162
 20
-2764.115004085232
 10
1580.310534871162
 20
-2763.211115285214
  0
HATCH
  5
3AB
330
1F
100
AcDbEntity
  8
Ech.1_5
 62
   252
440
 33554687
370
     5
100
AcDbHatch
 10
0.0
 20
0.0
 30
0.0
210
0.0
220
0.0
230
1.0
  2
SOLID
 70
     1
 71
     1
 91
        1
 92
        3
 72
     0
 73
     1
 93
        4
 10
1580.643867672027
 20
-2763.211115285214
 10
1580.977201271594
 20
-2763.211115285214
 10
1580.977201271594
 20
-2764.115004085232
 10
1580.643867672027
 20
-2764.115004085232
 97
        0
 75
     0
 76
     1
 98
        0
  0
LWPOLYLINE
  5
3AC
330
1F
100
AcDbEntity
  8
Ech.1_5
 62
     7
370
     9
100
AcDbPolyline
 90
        5
 70
     0
 43
0.0
 10
1580.643867672027
 20
-2763.211115285214
 10
1580.977201271594
 20
-2763.211115285214
 10
1580.977201271594
 20
-2764.115004085232
 10
1580.643867672027
 20
-2764.115004085232
 10
1580.643867672027
 20
-2763.211115285214
  0
HATCH
  5
3AD
330
1F
100
AcDbEntity
  8
Ech.1_5
 62
   252
440
 33554687
370
     5
100
AcDbHatch
 10
0.0
 20
0.0
 30
0.0
210
0.0
220
0.0
230
1.0
  2
SOLID
 70
     1
 71
     1
 91
        1
 92
        3
 72
     0
 73
     1
 93
        4
 10
1580.977200472892
 20
-2763.211115285214
 10
1581.310534072459
 20
-2763.211115285214
 10
1581.310534072459
 20
-2764.115004085232
 10
1580.977200472892
 20
-2764.115004085232
 97
        0
 75
     0
 76
     1
 98
        0
  0
LWPOLYLINE
  5
3AE
330
1F
100
AcDbEntity
  8
Ech.1_5
 62
     7
370
     9
100
AcDbPolyline
 90
        5
 70
     0
 43
0.0
 10
1580.977200472892
 20
-2763.211115285214
 10
1581.310534072459
 20
-2763.211115285214
 10
1581.310534072459
 20
-2764.115004085232
 10
1580.977200472892
 20
-2764.115004085232
 10
1580.977200472892
 20
-2763.211115285214
  0
HATCH
  5
3AF
330
1F
100
AcDbEntity
  8
Ech.1_5
 62
   252
440
 33554687
370
     5
100
AcDbHatch
 10
0.0
 20
0.0
 30
0.0
210
0.0
220
0.0
230
1.0
  2
SOLID
 70
     1
 71
     1
 91
        1
 92
        3
 72
     0
 73
     1
 93
        4
 10
1581.310534072459
 20
-2763.211115285214
 10
1581.643867672027
 20
-2763.211115285214
 10
1581.643867672027
 20
-2764.115004085232
 10
1581.310534072459
 20
-2764.115004085232
 97
        0
 75
     0
 76
     1
 98
        0
  0
LWPOLYLINE
  5
3B0
330
1F
100
AcDbEntity
  8
Ech.1_5
 62
     7
370
     9
100
AcDbPolyline
 90
        5
 70
     0
 43
0.0
 10
1581.310534072459
 20
-2763.211115285214
 10
1581.643867672027
 20
-2763.211115285214
 10
1581.643867672027
 20
-2764.115004085232
 10
1581.310534072459
 20
-2764.115004085232
 10
1581.310534072459
 20
-2763.211115285214
  0
HATCH
  5
3B1
330
1F
100
AcDbEntity
  8
Ech.1_5
 62
   252
440
 33554687
370
     5
100
AcDbHatch
 10
0.0
 20
0.0
 30
0.0
210
0.0
220
0.0
230
1.0
  2
SOLID
 70
     1
 71
     1
 91
        1
 92
        3
 72
     0
 73
     1
 93
        4
 10
1581.643867672027
 20
-2763.211115285214
 10
1581.977201271594
 20
-2763.211115285214
 10
1581.977201271594
 20
-2764.115004085232
 10
1581.643867672027
 20
-2764.115004085232
 97
        0
 75
     0
 76
     1
 98
        0
  0
LWPOLYLINE
  5
3B2
330
1F
100
AcDbEntity
  8
Ech.1_5
 62
     7
370
     9
100
AcDbPolyline
 90
        5
 70
     0
 43
0.0
 10
1581.643867672027
 20
-2763.211115285214
 10
1581.977201271594
 20
-2763.211115285214
 10
1581.977201271594
 20
-2764.115004085232
 10
1581.643867672027
 20
-2764.115004085232
 10
1581.643867672027
 20
-2763.211115285214
  0
HATCH
  5
3B3
330
1F
100
AcDbEntity
  8
Ech.1_5
 62
   252
440
 33554687
370
     5
100
AcDbHatch
 10
0.0
 20
0.0
 30
0.0
210
0.0
220
0.0
230
1.0
  2
SOLID
 70
     1
 71
     1
 91
        1
 92
        3
 72
     0
 73
     1
 93
        4
 10
1581.977201271594
 20
-2763.211115285214
 10
1582.310534871162
 20
-2763.211115285214
 10
1582.310534871162
 20
-2764.115004085232
 10
1581.977201271594
 20
-2764.115004085232
 97
        0
 75
     0
 76
     1
 98
        0
  0
LWPOLYLINE
  5
3B4
330
1F
100
AcDbEntity
  8
Ech.1_5
 62
     7
370
     9
100
AcDbPolyline
 90
        5
 70
     0
 43
0.0
 10
1581.977201271594
 20
-2763.211115285214
 10
1582.310534871162
 20
-2763.211115285214
 10
1582.310534871162
 20
-2764.115004085232
 10
1581.977201271594
 20
-2764.115004085232
 10
1581.977201271594
 20
-2763.211115285214
  0
HATCH
  5
3B5
330
1F
100
AcDbEntity
  8
Ech.1_5
 62
   252
440
 33554687
370
     5
100
AcDbHatch
 10
0.0
 20
0.0
 30
0.0
210
0.0
220
0.0
230
1.0
  2
SOLID
 70
     1
 71
     1
 91
        1
 92
        3
 72
     0
 73
     1
 93
        4
 10
1582.310534072459
 20
-2763.211115285214
 10
1582.643867672027
 20
-2763.211115285214
 10
1582.643867672027
 20
-2764.115004085232
 10
1582.310534072459
 20
-2764.115004085232
 97
        0
 75
     0
 76
     1
 98
        0
  0
LWPOLYLINE
  5
3B6
330
1F
100
AcDbEntity
  8
Ech.1_5
 62
     7
370
     9
100
AcDbPolyline
 90
        5
 70
     0
 43
0.0
 10
1582.310534072459
 20
-2763.211115285214
 10
1582.643867672027
 20
-2763.211115285214
 10
1582.643867672027
 20
-2764.115004085232
 10
1582.310534072459
 20
-2764.115004085232
 10
1582.310534072459
 20
-2763.211115285214
  0
HATCH
  5
3B7
330
1F
100
AcDbEntity
  8
Ech.1_5
 62
   252
440
 33554687
370
     5
100
AcDbHatch
 10
0.0
 20
0.0
 30
0.0
210
0.0
220
0.0
230
1.0
  2
SOLID
 70
     1
 71
     1
 91
        1
 92
        3
 72
     0
 73
     1
 93
        4
 10
1582.643867272676
 20
-2763.211115285214
 10
1582.977200872243
 20
-2763.211115285214
 10
1582.977200872243
 20
-2764.115004085232
 10
1582.643867272676
 20
-2764.115004085232
 97
        0
 75
     0
 76
     1
 98
        0
  0
LWPOLYLINE
  5
3B8
330
1F
100
AcDbEntity
  8
Ech.1_5
 62
     7
370
     9
100
AcDbPolyline
 90
        5
 70
     0
 43
0.0
 10
1582.643867272676
 20
-2763.211115285214
 10
1582.977200872243
 20
-2763.211115285214
 10
1582.977200872243
 20
-2764.115004085232
 10
1582.643867272676
 20
-2764.115004085232
 10
1582.643867272676
 20
-2763.211115285214
  0
HATCH
  5
3B9
330
1F
100
AcDbEntity
  8
Ech.1_5
 62
   252
440
 33554687
370
     5
100
AcDbHatch
 10
0.0
 20
0.0
 30
0.0
210
0.0
220
0.0
230
1.0
  2
SOLID
 70
     1
 71
     1
 91
        1
 92
        3
 72
     0
 73
     1
 93
        4
 10
1582.977200872243
 20
-2763.211115285214
 10
1583.310534471811
 20
-2763.211115285214
 10
1583.310534471811
 20
-2764.115004085232
 10
1582.977200872243
 20
-2764.115004085232
 97
        0
 75
     0
 76
     1
 98
        0
  0
LWPOLYLINE
  5
3BA
330
1F
100
AcDbEntity
  8
Ech.1_5
 62
     7
370
     9
100
AcDbPolyline
 90
        5
 70
     0
 43
0.0
 10
1582.977200872243
 20
-2763.211115285214
 10
1583.310534471811
 20
-2763.211115285214
 10
1583.310534471811
 20
-2764.115004085232
 10
1582.977200872243
 20
-2764.115004085232
 10
1582.977200872243
 20
-2763.211115285214
  0
HATCH
  5
3BB
330
1F
100
AcDbEntity
  8
Ech.1_5
 62
   252
440
 33554687
370
     5
100
AcDbHatch
 10
0.0
 20
0.0
 30
0.0
210
0.0
220
0.0
230
1.0
  2
SOLID
 70
     1
 71
     1
 91
        1
 92
        3
 72
     0
 73
     1
 93
        4
 10
1583.310534072459
 20
-2763.211115285214
 10
1583.643867672027
 20
-2763.211115285214
 10
1583.643867672027
 20
-2764.115004085232
 10
1583.310534072459
 20
-2764.115004085232
 97
        0
 75
     0
 76
     1
 98
        0
  0
LWPOLYLINE
  5
3BC
330
1F
100
AcDbEntity
  8
Ech.1_5
 62
     7
370
     9
100
AcDbPolyline
 90
        5
 70
     0
 43
0.0
 10
1583.310534072459
 20
-2763.211115285214
 10
1583.643867672027
 20
-2763.211115285214
 10
1583.643867672027
 20
-2764.115004085232
 10
1583.310534072459
 20
-2764.115004085232
 10
1583.310534072459
 20
-2763.211115285214
  0
HATCH
  5
3BD
330
1F
100
AcDbEntity
  8
Ech.1_5
 62
   252
440
 33554687
370
     5
100
AcDbHatch
 10
0.0
 20
0.0
 30
0.0
210
0.0
220
0.0
230
1.0
  2
SOLID
 70
     1
 71
     1
 91
        1
 92
        3
 72
     0
 73
     1
 93
        4
 10
1583.643867672027
 20
-2763.211115285214
 10
1583.977201271594
 20
-2763.211115285214
 10
1583.977201271594
 20
-2764.115004085232
 10
1583.643867672027
 20
-2764.115004085232
 97
        0
 75
     0
 76
     1
 98
        0
  0
LWPOLYLINE
  5
3BE
330
1F
100
AcDbEntity
  8
Ech.1_5
 62
     7
370
     9
100
AcDbPolyline
 90
        5
 70
     0
 43
0.0
 10
1583.643867672027
 20
-2763.211115285214
 10
1583.977201271594
 20
-2763.211115285214
 10
1583.977201271594
 20
-2764.115004085232
 10
1583.643867672027
 20
-2764.115004085232
 10
1583.643867672027
 20
-2763.211115285214
  0
HATCH
  5
3BF
330
1F
100
AcDbEntity
  8
Ech.1_5
 62
   252
440
 33554687
370
     5
100
AcDbHatch
 10
0.0
 20
0.0
 30
0.0
210
0.0
220
0.0
230
1.0
  2
SOLID
 70
     1
 71
     1
 91
        1
 92
        3
 72
     0
 73
     1
 93
        4
 10
1583.977200472892
 20
-2763.211115285214
 10
1584.310534072459
 20
-2763.211115285214
 10
1584.310534072459
 20
-2764.115004085232
 10
1583.977200472892
 20
-2764.115004085232
 97
        0
 75
     0
 76
     1
 98
        0
  0
LWPOLYLINE
  5
3C0
330
1F
100
AcDbEntity
  8
Ech.1_5
 62
     7
370
     9
100
AcDbPolyline
 90
        5
 70
     0
 43
0.0
 10
1583.977200472892
 20
-2763.211115285214
 10
1584.310534072459
 20
-2763.211115285214
 10
1584.310534072459
 20
-2764.115004085232
 10
1583.977200472892
 20
-2764.115004085232
 10
1583.977200472892
 20
-2763.211115285214
  0
HATCH
  5
3C1
330
1F
100
AcDbEntity
  8
Ech.1_5
 62
   252
440
 33554687
370
     5
100
AcDbHatch
 10
0.0
 20
0.0
 30
0.0
210
0.0
220
0.0
230
1.0
  2
SOLID
 70
     1
 71
     1
 91
        1
 92
        3
 72
     0
 73
     1
 93
        4
 10
1584.310534072459
 20
-2763.211115285214
 10
1584.643867672027
 20
-2763.211115285214
 10
1584.643867672027
 20
-2764.115004085232
 10
1584.310534072459
 20
-2764.115004085232
 97
        0
 75
     0
 76
     1
 98
        0
  0
LWPOLYLINE
  5
3C2
330
1F
100
AcDbEntity
  8
Ech.1_5
 62
     7
370
     9
100
AcDbPolyline
 90
        5
 70
     0
 43
0.0
 10
1584.310534072459
 20
-2763.211115285214
 10
1584.643867672027
 20
-2763.211115285214
 10
1584.643867672027
 20
-2764.115004085232
 10
1584.310534072459
 20
-2764.115004085232
 10
1584.310534072459
 20
-2763.211115285214
  0
HATCH
  5
3C3
330
1F
100
AcDbEntity
  8
Ech.1_5
 62
   252
440
 33554687
370
     5
100
AcDbHatch
 10
0.0
 20
0.0
 30
0.0
210
0.0
220
0.0
230
1.0
  2
SOLID
 70
     1
 71
     1
 91
        1
 92
        3
 72
     0
 73
     1
 93
        4
 10
1584.643867672027
 20
-2763.211115285214
 10
1584.977201271594
 20
-2763.211115285214
 10
1584.977201271594
 20
-2764.115004085232
 10
1584.643867672027
 20
-2764.115004085232
 97
        0
 75
     0
 76
     1
 98
        0
  0
LWPOLYLINE
  5
3C4
330
1F
100
AcDbEntity
  8
Ech.1_5
 62
     7
370
     9
100
AcDbPolyline
 90
        5
 70
     0
 43
0.0
 10
1584.643867672027
 20
-2763.211115285214
 10
1584.977201271594
 20
-2763.211115285214
 10
1584.977201271594
 20
-2764.115004085232
 10
1584.643867672027
 20
-2764.115004085232
 10
1584.643867672027
 20
-2763.211115285214
  0
HATCH
  5
3C5
330
1F
100
AcDbEntity
  8
Ech.1_5
 62
   252
440
 33554687
370
     5
100
AcDbHatch
 10
0.0
 20
0.0
 30
0.0
210
0.0
220
0.0
230
1.0
  2
SOLID
 70
     1
 71
     1
 91
        1
 92
        3
 72
     0
 73
     1
 93
        4
 10
1584.977201271594
 20
-2763.211115285214
 10
1585.310534871162
 20
-2763.211115285214
 10
1585.310534871162
 20
-2764.115004085232
 10
1584.977201271594
 20
-2764.115004085232
 97
        0
 75
     0
 76
     1
 98
        0
  0
LWPOLYLINE
  5
3C6
330
1F
100
AcDbEntity
  8
Ech.1_5
 62
     7
370
     9
100
AcDbPolyline
 90
        5
 70
     0
 43
0.0
 10
1584.977201271594
 20
-2763.211115285214
 10
1585.310534871162
 20
-2763.211115285214
 10
1585.310534871162
 20
-2764.115004085232
 10
1584.977201271594
 20
-2764.115004085232
 10
1584.977201271594
 20
-2763.211115285214
  0
HATCH
  5
3C7
330
1F
100
AcDbEntity
  8
Ech.1_5
 62
   252
440
 33554687
370
     5
100
AcDbHatch
 10
0.0
 20
0.0
 30
0.0
210
0.0
220
0.0
230
1.0
  2
SOLID
 70
     1
 71
     1
 91
        1
 92
        3
 72
     1
 73
     1
 93
        4
 10
1587.190167671861
 20
-2764.115004085232
 42
0.0
 10
1586.643866873324
 20
-2764.115004085232
 42
0.0
 10
1586.643866873324
 20
-2763.211115285214
 42
0.0
 10
1587.190167671861
 20
-2763.211115285214
 42
0.3513591548521035
 97
        0
 75
     0
 76
     1
 98
        0
  0
LWPOLYLINE
  5
3C8
330
1F
100
AcDbEntity
  8
Ech.1_5
 62
     7
370
     9
100
AcDbPolyline
 90
        5
 70
     0
 43
0.0
 10
1587.190167671861
 20
-2764.115004085232
 10
1586.643866873324
 20
-2764.115004085232
 10
1586.643866873324
 20
-2763.211115285214
 10
1587.190167671861
 20
-2763.211115285214
 42
0.3513591548518972
 10
1587.190167671861
 20
-2764.115004085232
  0
HATCH
  5
3C9
330
1F
100
AcDbEntity
  8
Ech.1_5
 62
   252
440
 33554687
370
     5
100
AcDbHatch
 10
0.0
 20
0.0
 30
0.0
210
0.0
220
0.0
230
1.0
  2
SOLID
 70
     1
 71
     1
 91
        1
 92
        3
 72
     1
 73
     1
 93
        3
 10
1588.254978472414
 20
-2763.663059685235
 42
0.0
 10
1587.190167671861
 20
-2764.115004085232
 42
-0.3513591548519267
 10
1587.190167671861
 20
-2763.211115285214
 42
0.0
 97
        0
 75
     0
 76
     1
 98
        0
  0
LWPOLYLINE
  5
3CA
330
1F
100
AcDbEntity
  8
Ech.1_5
 62
     7
370
     9
100
AcDbPolyline
 90
        4
 70
     0
 43
0.0
 10
1588.254978472414
 20
-2763.663059685235
 10
1587.190167671861
 20
-2764.115004085232
 42
-0.3513591548518956
 10
1587.190167671861
 20
-2763.211115285214
 10
1588.254978472414
 20
-2763.663059685235
  0
HATCH
  5
3CB
330
1F
100
AcDbEntity
  8
Ech.1_5
 62
   252
440
 33554687
370
     5
100
AcDbHatch
 10
0.0
 20
0.0
 30
0.0
210
0.0
220
0.0
230
1.0
  2
SOLID
 70
     1
 71
     1
 91
        1
 92
        3
 72
     1
 73
     1
 93
        6
 10
1570.977200472892
 20
-2763.211115285217
 42
0.0
 10
1570.277200872125
 20
-2763.211115285214
 42
-0.4142135727478138
 10
1570.054978472413
 20
-2762.988892885223
 42
0.0
 10
1570.054978472413
 20
-2764.33722648525
 42
-0.4142135726649113
 10
1570.277200872125
 20
-2764.115004085232
 42
0.0
 10
1570.977200472892
 20
-2764.115004085232
 42
0.0
 97
        0
 75
     0
 76
     1
 98
        0
  0
LWPOLYLINE
  5
3CC
330
1F
100
AcDbEntity
  8
Ech.1_5
 62
     7
370
     9
100
AcDbPolyline
 90
        7
 70
     0
 43
0.0
 10
1570.977200472892
 20
-2763.211115285217
 10
1570.277200872125
 20
-2763.211115285214
 42
-0.4142135727497837
 10
1570.054978472413
 20
-2762.988892885223
 10
1570.054978472413
 20
-2764.33722648525
 42
-0.414213572666436
 10
1570.277200872125
 20
-2764.115004085232
 10
1570.977200472892
 20
-2764.115004085232
 10
1570.977200472892
 20
-2763.211115285217
  0
HATCH
  5
3CD
330
1F
100
AcDbEntity
  8
Ech.1_5
 62
   252
440
 33554687
370
     5
100
AcDbHatch
 10
0.0
 20
0.0
 30
0.0
210
0.0
220
0.0
230
1.0
  2
SOLID
 70
     1
 71
     1
 91
        1
 92
        1
 93
        2
 72
     1
 10
1569.932756472053
 20
-2762.655559674669
 11
1569.932756472053
 21
-2764.670559695777
 72
     2
 10
1574.958037828383
 20
-2763.663059685223
 40
5.125281356329573
 50
168.6632793503046
 51
191.3367206496955
 73
     0
 97
        0
 75
     0
 76
     1
 98
        0
  0
LWPOLYLINE
  5
3CE
330
1F
100
AcDbEntity
  8
Ech.1_5
 62
     7
370
     9
100
AcDbPolyline
 90
        3
 70
     0
 43
0.0
 10
1569.932756472053
 20
-2762.655559674669
 10
1569.932756472053
 20
-2764.670559695777
 42
-0.0992555820868614
 10
1569.932756472053
 20
-2762.655559674669
  0
HATCH
  5
3CF
330
1F
100
AcDbEntity
  8
Ech.1_5
 62
   252
440
 33554687
370
     5
100
AcDbHatch
 10
0.0
 20
0.0
 30
0.0
210
0.0
220
0.0
230
1.0
  2
SOLID
 70
     1
 71
     1
 91
        1
 92
        3
 72
     0
 73
     1
 93
        6
 10
1570.054978472413
 20
-2762.655559685239
 10
1570.054978472413
 20
-2762.988892885223
 10
1570.054978472413
 20
-2764.33722648525
 10
1570.054978472414
 20
-2764.67055968523
 10
1569.932756472053
 20
-2764.670559695777
 10
1569.932756472053
 20
-2762.655559674669
 97
        0
 75
     0
 76
     1
 98
        0
  0
LWPOLYLINE
  5
3D0
330
1F
100
AcDbEntity
  8
Ech.1_5
 62
     7
370
     9
100
AcDbPolyline
 90
        7
 70
     0
 43
0.0
 10
1570.054978472413
 20
-2762.655559685239
 10
1570.054978472413
 20
-2762.988892885223
 10
1570.054978472413
 20
-2764.33722648525
 10
1570.054978472414
 20
-2764.67055968523
 10
1569.932756472053
 20
-2764.670559695777
 10
1569.932756472053
 20
-2762.655559674669
 10
1570.054978472413
 20
-2762.655559685239
  0
HATCH
  5
3D1
330
1F
100
AcDbEntity
  8
Ech.1_5
 62
   252
440
 33554687
370
     5
100
AcDbHatch
 10
0.0
 20
0.0
 30
0.0
210
0.0
220
0.0
230
1.0
  2
SOLID
 70
     1
 71
     1
 91
        1
 92
        3
 72
     0
 73
     1
 93
        4
 10
1585.310534871162
 20
-2763.211115285214
 10
1585.643868470729
 20
-2763.211115285214
 10
1585.643868470729
 20
-2764.115004085232
 10
1585.310534871162
 20
-2764.115004085232
 97
        0
 75
     0
 76
     1
 98
        0
  0
LWPOLYLINE
  5
3D2
330
1F
100
AcDbEntity
  8
Ech.1_5
 62
     7
370
     9
100
AcDbPolyline
 90
        5
 70
     0
 43
0.0
 10
1585.310534871162
 20
-2763.211115285214
 10
1585.643868470729
 20
-2763.211115285214
 10
1585.643868470729
 20
-2764.115004085232
 10
1585.310534871162
 20
-2764.115004085232
 10
1585.310534871162
 20
-2763.211115285214
  0
LINE
  5
3D3
330
1F
100
AcDbEntity
  8
Ech.1_5
 62
   190
370
     9
100
AcDbLine
 10
1585.977200472892
 20
-2764.115004085232
 30
0.0
 11
1585.977200472892
 21
-2763.211115285214
 31
0.0
  0
LINE
  5
3D4
330
1F
100
AcDbEntity
  8
Ech.1_5
 62
   190
370
     9
100
AcDbLine
 10
1586.310534072459
 20
-2764.115004085232
 30
0.0
 11
1586.310534072459
 21
-2763.211115285214
 31
0.0
  0
LINE
  5
3D5
330
1F
100
AcDbEntity
  8
Ech.1_5
 62
   190
370
     9
100
AcDbLine
 10
1586.643866873324
 20
-2764.115004085232
 30
0.0
 11
1586.643866873324
 21
-2763.211115285214
 31
0.0
  0
LINE
  5
3D6
330
1F
100
AcDbEntity
  8
Ech.1_5
 62
   190
370
     9
100
AcDbLine
 10
1585.643867672027
 20
-2764.115004085232
 30
0.0
 11
1585.643867672027
 21
-2763.211115285214
 31
0.0
  0
HATCH
  5
3D7
330
1F
100
AcDbEntity
  8
Ech.1_5
 62
   252
440
 33554687
370
     5
100
AcDbHatch
 10
0.0
 20
0.0
 30
0.0
210
0.0
220
0.0
230
1.0
  2
SOLID
 70
     1
 71
     1
 91
        1
 92
        3
 72
     0
 73
     1
 93
        4
 10
1585.643866873324
 20
-2763.211115285214
 10
1585.977200472892
 20
-2763.211115285214
 10
1585.977200472892
 20
-2764.115004085232
 10
1585.643866873324
 20
-2764.115004085232
 97
        0
 75
     0
 76
     1
 98
        0
  0
LWPOLYLINE
  5
3D8
330
1F
100
AcDbEntity
  8
Ech.1_5
 62
     7
370
     9
100
AcDbPolyline
 90
        5
 70
     0
 43
0.0
 10
1585.643866873324
 20
-2763.211115285214
 10
1585.977200472892
 20
-2763.211115285214
 10
1585.977200472892
 20
-2764.115004085232
 10
1585.643866873324
 20
-2764.115004085232
 10
1585.643866873324
 20
-2763.211115285214
  0
HATCH
  5
3D9
330
1F
100
AcDbEntity
  8
Ech.1_5
 62
   252
440
 33554687
370
     5
100
AcDbHatch
 10
0.0
 20
0.0
 30
0.0
210
0.0
220
0.0
230
1.0
  2
SOLID
 70
     1
 71
     1
 91
        1
 92
        3
 72
     0
 73
     1
 93
        4
 10
1586.310533273757
 20
-2763.211115285214
 10
1586.643866873324
 20
-2763.211115285214
 10
1586.643866873324
 20
-2764.115004085232
 10
1586.310533273757
 20
-2764.115004085232
 97
        0
 75
     0
 76
     1
 98
        0
  0
LWPOLYLINE
  5
3DA
330
1F
100
AcDbEntity
  8
Ech.1_5
 62
     7
370
     9
100
AcDbPolyline
 90
        5
 70
     0
 43
0.0
 10
1586.310533273757
 20
-2763.211115285214
 10
1586.643866873324
 20
-2763.211115285214
 10
1586.643866873324
 20
-2764.115004085232
 10
1586.310533273757
 20
-2764.115004085232
 10
1586.310533273757
 20
-2763.211115285214
  0
MTEXT
  5
3DB
330
1F
100
AcDbEntity
  8
Ech.1_5
 62
     4
420
    65535
100
AcDbMText
 10
1659.479614651836
 20
-3117.556443873847
 30
0.0
 40
5.0
 41
195.3371538540766
 46
0.0
 71
     2
 72
     1
  1
{\fArial|b0|i0;\W1.000000;\H5.000000;\c16711848;Vue en coupe verticale}
 73
     1
 44
1.07999975538982
  0
MTEXT
  5
3DC
330
1F
100
AcDbEntity
  8
Ech.1_5
 62
     4
420
    65535
100
AcDbMText
 10
1787.607658660173
 20
-3117.489573276787
 30
0.0
 40
5.0
 41
50.91893416259836
 46
0.0
 71
     2
 72
     1
  1
{\fArial|b0|i0;\W1.000000;\H5.000000;\c16711848;Ech 1/5 }
 73
     1
 44
1.07999975538982
  0
MTEXT
  5
3DD
330
1F
100
AcDbEntity
  8
Ech.1_5
 62
     4
420
    65535
100
AcDbMText
 10
1528.079994125726
 20
-3117.380870755795
 30
0.0
 40
5.0
 41
57.46208719814172
 46
0.0
 71
     2
 72
     1
  1
{\fArial|b0|i0;\W1.000000;\H5.000000;\c16711848;BMBVT40-05}
 73
     1
 44
1.07999975538982
  0
MTEXT
  5
3DE
330
1F
100
AcDbEntity
  8
Ech.1_5
 62
   200
420
 11010303
100
AcDbMText
 10
1618.567125741473
 20
-3125.963517690529
 30
0.0
 40
2.25
 41
391.7499999999995
 46
0.0
 71
     2
 72
     1
  3
{\fArial|b0|i1;\W1.000000;\H2.250000;\c16711848; Il est rappelé à l'utilisateur qui consulte le site et utilise les informations qu'il contient, qu'il doit les utiliser sous sa seule responsabilité en vérifiant leur pertinence, leur cohérence et leur
  1
 non obsolescence.}
 73
     1
 44
1.07999975538982
  0
MTEXT
  5
3DF
330
1F
100
AcDbEntity
  8
Ech.1_5
 62
   200
420
 11010303
100
AcDbMText
 10
1618.567125741473
 20
-3139.504328847932
 30
0.0
 40
2.75
 41
391.2499999999995
 46
0.0
 71
     2
 72
     1
  1
{\fArial|b0|i1;\W1.000000;\H2.750000;\c16711848;www.catalogue-bois-construction.fr}
 73
     1
 44
1.07999975538982
  0
MTEXT
  5
3E0
330
1F
100
AcDbEntity
  8
Ech.1_5
 62
     4
420
    65535
100
AcDbMText
 10
1618.567125741473
 20
-2657.285088551038
 30
0.0
 40
5.75
 41
388.2499999999995
 46
0.0
 71
     2
 72
     1
  1
{\fArial|b0|i0;\W1.000000;\H5.750000;\c16711848;Traversée de paroi - Elément pesant en façade fixé de façon ponctuelle - Compatible niveau étanchéité Ee2}
 73
     1
 44
1.07999975538982
  0
MTEXT
  5
3E1
330
1F
100
AcDbEntity
  8
Ech.1_5
 62
     4
420
    65535
100
AcDbMText
 10
1745.038912125174
 20
-2909.230780957449
 30
0.0
 40
5.5
 41
98.94719608671062
 46
0.0
 71
     2
 72
     1
  1
{\fArial|b0|i0;\W1.000000;\H5.500000;\c16711848;Vue de face de la cale réalisée en panneau contreplaqué ou plastique dur}
 73
     1
 44
1.07999975538982
  0
MTEXT
  5
3E2
330
1F
100
AcDbEntity
  8
Ech.1_5
 62
     4
420
    65535
100
AcDbMText
 10
1548.137378306549
 20
-2748.831621735545
 30
0.0
 40
5.5
 41
118.0242785737341
 46
0.0
 71
     3
 72
     1
  1
{\fArial|b0|i0;\W1.000000;\H5.500000;\c16711848;Double-tasseautage bois support de bardage}
 73
     1
 44
1.07999975538982
  0
MTEXT
  5
3E3
330
1F
100
AcDbEntity
  8
Ech.1_5
 62
     4
420
    65535
100
AcDbMText
 10
1548.137378306549
 20
-2772.998743545918
 30
0.0
 40
5.5
 41
73.49250351114324
 46
0.0
 71
     3
 72
     1
  1
{\fArial|b0|i0;\W1.000000;\H5.500000;\c16711848;Paroi support}
 73
     1
 44
1.07999975538982
  0
MTEXT
  5
3E4
330
1F
100
AcDbEntity
  8
Ech.1_5
 62
     4
420
    65535
100
AcDbMText
 10
1550.887378306549
 20
-2962.557986801897
 30
0.0
 40
5.5
 41
67.28181038761977
 46
0.0
 71
     3
 72
     1
  1
{\fArial|b0|i0;\W1.000000;\H5.500000;\c16711848;Cale bisautée}
 73
     1
 44
1.07999975538982
  0
MTEXT
  5
3E5
330
1F
100
AcDbEntity
  8
Ech.1_5
 62
     4
420
    65535
100
AcDbMText
 10
1550.887378306549
 20
-2895.785852420348
 30
0.0
 40
5.5
 41
104.1883816170084
 46
0.0
 71
     3
 72
     1
  1
{\fArial|b0|i0;\W1.000000;\H5.500000;\c16711848;Ancrage dans la paroi support}\P{\fArial|b0|i0;\W1.000000;\H5.500000;\c16711848;Ø<16 mm}
 73
     1
 44
1.07999975538982
  0
MTEXT
  5
3E6
330
1F
100
AcDbEntity
  8
Ech.1_5
 62
     4
420
    65535
100
AcDbMText
 10
1550.887378306549
 20
-2862.84839914148
 30
0.0
 40
5.5
 41
104.1883816170084
 46
0.0
 71
     3
 72
     1
  1
{\fArial|b0|i0;\W1.000000;\H5.500000;\c16711848;jeu < 2mm}
 73
     1
 44
1.07999975538982
  0
MTEXT
  5
3E7
330
1F
100
AcDbEntity
  8
Ech.1_5
 62
     4
420
    65535
100
AcDbMText
 10
1550.887378306428
 20
-2830.179194424775
 30
0.0
 40
5.5
 41
122.9995030632126
 46
0.0
 71
     3
 72
     1
  1
{\fArial|b0|i0;\W1.000000;\H5.500000;\c16711848;Manchon ou manchette élastique en caoutchouc EPDM - diamètre fonction de l'ancrage}
 73
     1
 44
1.07999975538982
  0
MTEXT
  5
3E8
330
1F
100
AcDbEntity
  8
Ech.1_5
 62
     4
420
    65535
100
AcDbMText
 10
1548.137378306549
 20
-2794.452408324467
 30
0.0
 40
5.5
 41
110.8085444356036
 46
0.0
 71
     3
 72
     1
  1
{\fArial|b0|i0;\W1.000000;\H5.500000;\c16711848;Bardage bois en lames à recouvrement à mi-bois en pose verticale - épaisseur 18 mm mini}
 73
     1
 44
1.07999975538982
  0
TEXT
  5
3EA
330
1F
100
AcDbEntity
  8
Ech.1_5
 62
   190
100
AcDbText
 10
1442.29597802239
 20
-3122.353230495679
 30
0.0
 40
5.0
  1
20/11/2020
  7
arial-
100
AcDbText
  0
TEXT
  5
3EB
330
1F
100
AcDbEntity
  8
Ech.1_5
 62
   190
100
AcDbText
 10
1492.26301807546
 20
-2651.299486698099
 30
0.0
 40
6.6
  1
Epaisseur mini selon NF DTU 41.2 - hors exigences feu façade
  7
arial-
100
AcDbText
  0
TEXT
  5
3ED
330
1F
100
AcDbEntity
  8
Ech.1_5
 62
   190
100
AcDbText
 10
1495.969860116475
 20
-2638.346099581842
 30
0.0
 40
6.6
  1
BARDAGES EN LAMES : lames à mi-bois - pose verticale
  7
arial-b
100
AcDbText
  0
TEXT
  5
3EF
330
1F
100
AcDbEntity
  8
Ech.1_5
 62
   154
420
    21156
100
AcDbText
 10
1757.010368777104
 20
-2692.29851031495
 30
0.0
 40
6.0
  1
m
 50
8.975659904392682
 41
0.8000000000000002
  7
tahoma-b
100
AcDbText
  0
TEXT
  5
3F0
330
1F
100
AcDbEntity
  8
Ech.1_5
 62
   154
420
    21156
100
AcDbText
 10
1750.158890359573
 20
-2694.545707057019
 30
0.0
 40
6.0
  1
C
 50
20.66888961044281
 41
0.8000000000000002
  7
tahoma-b
100
AcDbText
  0
TEXT
  5
3F1
330
1F
100
AcDbEntity
  8
Ech.1_5
 62
   154
420
    21156
100
AcDbText
 10
1753.711279424679
 20
-2693.20557492068
 30
0.0
 40
6.0
  1
o
 50
15.37326472327183
 41
0.7999999999999999
  7
tahoma-b
100
AcDbText
  0
TEXT
  5
3F2
330
1F
100
AcDbEntity
  8
Ech.1_5
 62
   154
420
    21156
100
AcDbText
 10
1762.242311262769
 20
-2691.472130241534
 30
0.0
 40
6.0
  1
p
 50
2.547444553701101
 41
0.8000000000000002
  7
tahoma-b
100
AcDbText
  0
TEXT
  5
3F3
330
1F
100
AcDbEntity
  8
Ech.1_5
 62
   154
420
    21156
100
AcDbText
 10
1765.702101155197
 20
-2691.318202060453
 30
0.0
 40
6.0
  1
a
 50
357.5885357786794
 41
0.8000000000000002
  7
tahoma-b
100
AcDbText
  0
TEXT
  5
3F4
330
1F
100
AcDbEntity
  8
Ech.1_5
 62
   154
420
    21156
100
AcDbText
 10
1768.995594246753
 20
-2691.456900472672
 30
0.0
 40
6.0
  1
t
 50
353.6091644148265
 41
0.8000000000000002
  7
tahoma-b
100
AcDbText
  0
TEXT
  5
3F5
330
1F
100
AcDbEntity
  8
Ech.1_5
 62
   154
420
    21156
100
AcDbText
 10
1771.110799892558
 20
-2691.693816224457
 30
0.0
 40
6.0
  1
i
 50
350.9766571715659
 41
0.7999999999999999
  7
tahoma-b
100
AcDbText
  0
TEXT
  5
3F6
330
1F
100
AcDbEntity
  8
Ech.1_5
 62
   154
420
    21156
100
AcDbText
 10
1772.553506383317
 20
-2691.92292104001
 30
0.0
 40
6.0
  1
b
 50
347.3646125172257
 41
0.8000000000000002
  7
tahoma-b
100
AcDbText
  0
TEXT
  5
3F7
330
1F
100
AcDbEntity
  8
Ech.1_5
 62
   154
420
    21156
100
AcDbText
 10
1775.932846146467
 20
-2692.680484733609
 30
0.0
 40
5.999999999999999
  1
l
 50
343.752567862822
 41
0.8
  7
tahoma-b
100
AcDbText
  0
TEXT
  5
3F8
330
1F
100
AcDbEntity
  8
Ech.1_5
 62
   154
420
    21156
100
AcDbText
 10
1777.335290306377
 20
-2693.089191735404
 30
0.0
 40
6.0
  1
e
 50
340.2629653356121
 41
0.8000000000000002
  7
tahoma-b
100
AcDbText
  0
TEXT
  5
3F9
330
1F
100
AcDbEntity
  8
Ech.1_5
 62
   154
420
    21156
100
AcDbText
 10
1744.093360776285
 20
-2744.546983286751
 30
0.0
 40
6.0
  1
s
 50
329.3124952401241
 41
0.8000000000000002
  7
tahoma-b
100
AcDbText
  0
TEXT
  5
3FA
330
1F
100
AcDbEntity
  8
Ech.1_5
 62
   154
420
    21156
100
AcDbText
 10
1746.892305455856
 20
-2746.208049531026
 30
0.0
 40
6.0
  1
u
 50
334.6276163794103
 41
0.8000000000000002
  7
tahoma-b
100
AcDbText
  0
TEXT
  5
3FB
330
1F
100
AcDbEntity
  8
Ech.1_5
 62
   154
420
    21156
100
AcDbText
 10
1750.54885990269
 20
-2747.942149907273
 30
0.0
 40
6.0
  1
r
 50
339.5478999136871
 41
0.8000000000000002
  7
tahoma-b
100
AcDbText
  0
TEXT
  5
3FC
330
1F
100
AcDbEntity
  8
Ech.1_5
 62
   154
420
    21156
100
AcDbText
 10
1754.617781526459
 20
-2749.36609624345
 30
0.0
 40
6.0
  1
p
 50
346.7359685598498
 41
0.8000000000000002
  7
tahoma-b
100
AcDbText
  0
TEXT
  5
3FD
330
1F
100
AcDbEntity
  8
Ech.1_5
 62
   154
420
    21156
100
AcDbText
 10
1758.475588108921
 20
-2750.275486308978
 30
0.0
 40
6.000000000000002
  1
a
 50
352.3548109071144
 41
0.8
  7
tahoma-b
100
AcDbText
  0
TEXT
  5
3FE
330
1F
100
AcDbEntity
  8
Ech.1_5
 62
   154
420
    21156
100
AcDbText
 10
1762.197305590529
 20
-2750.775057328937
 30
0.0
 40
6.0
  1
r
 50
357.0624896305037
 41
0.8000000000000002
  7
tahoma-b
100
AcDbText
  0
TEXT
  5
3FF
330
1F
100
AcDbEntity
  8
Ech.1_5
 62
   154
420
    21156
100
AcDbText
 10
1764.906248066423
 20
-2750.914064534111
 30
0.0
 40
6.0
  1
o
 50
1.861284750937963
 41
0.8000000000000002
  7
tahoma-b
100
AcDbText
  0
TEXT
  5
400
330
1F
100
AcDbEntity
  8
Ech.1_5
 62
   154
420
    21156
100
AcDbText
 10
1768.784367847821
 20
-2750.788037355091
 30
0.0
 40
6.000000000000001
  1
i
 50
6.083009645691082
 41
0.8
  7
tahoma-b
100
AcDbText
  0
TEXT
  5
401
330
1F
100
AcDbEntity
  8
Ech.1_5
 62
   154
420
    21156
100
AcDbText
 10
1772.275083529966
 20
-2750.344130979555
 30
0.0
 40
6.0
  1
b
 50
12.6940080661183
 41
0.8000000000000002
  7
tahoma-b
100
AcDbText
  0
TEXT
  5
402
330
1F
100
AcDbEntity
  8
Ech.1_5
 62
   154
420
    21156
100
AcDbText
 10
1776.141746371115
 20
-2749.473165772533
 30
0.0
 40
6.0
  1
o
 50
18.40396681045428
 41
0.8000000000000002
  7
tahoma-b
100
AcDbText
  0
TEXT
  5
403
330
1F
100
AcDbEntity
  8
Ech.1_5
 62
   154
420
    21156
100
AcDbText
 10
1779.823458946856
 20
-2748.248139895928
 30
0.0
 40
6.0
  1
i
 50
22.62569170521608
 41
0.7999999999999999
  7
tahoma-b
100
AcDbText
  0
TEXT
  5
404
330
1F
100
AcDbEntity
  8
Ech.1_5
 62
   154
420
    21156
100
AcDbText
 10
1781.595515980439
 20
-2747.509571291673
 30
0.0
 40
5.999999999999999
  1
s
 50
26.39183478797532
 41
0.8000000000000003
  7
tahoma-b
100
AcDbText
  0
TEXT
  5
405
330
1F
100
AcDbEntity
  8
Ech.1_5
 62
   154
420
    21156
100
AcDbText
 10
1755.863796109537
 20
-2735.688020073468
 30
0.0
 40
9.999999999999998
  1
E
 50
345.2222144971
 41
0.8
  7
tahoma-b
100
AcDbText
  0
TEXT
  5
406
330
1F
100
AcDbEntity
  8
Ech.1_5
 62
   154
420
    21156
100
AcDbText
 10
1762.103257104501
 20
-2737.33396902895
 30
0.0
 40
10.0
  1
e
 50
359.2406769519218
 41
0.8
  7
tahoma-b
100
AcDbText
  0
TEXT
  5
407
330
1F
100
AcDbEntity
  8
Ech.1_5
 62
   154
420
    21156
100
AcDbText
 10
1768.348480552407
 20
-2737.416739868109
 30
0.0
 40
10.0
  1
2
 50
13.48894999981019
 41
0.8
  7
tahoma-b
100
AcDbText
  0
VIEWPORT
  5
233
330
22D
100
AcDbEntity
 67
     1
  8
0
100
AcDbViewport
 10
98.79999999999991
 20
135.8
 30
0.0
 40
209.0607999999998
 41
287.3528000000001
 68
     1
 69
     1
 12
128.5
 22
97.5
 13
0.0
 23
0.0
 14
10.0
 24
10.0
 15
10.0
 25
10.0
 16
0.0
 26
0.0
 36
1.0
 17
0.0
 27
0.0
 37
0.0
 42
50.0
 43
0.0
 44
0.0
 45
222.18
 50
0.0
 51
0.0
 72
   100
 90
   557152
  1

281
     0
 71
     1
 74
     0
110
0.0
120
0.0
130
0.0
111
1.0
121
0.0
131
0.0
112
0.0
122
1.0
132
0.0
 79
     0
146
0.0
170
     0
 61
     5
348
2F
292
     1
282
     1
141
0.0
142
0.0
 63
   256
361
234
  0
VIEWPORT
  5
235
330
22D
100
AcDbEntity
 67
     1
  8
0
 60
     1
100
AcDbViewport
 10
98.79999999999991
 20
135.8
 30
0.0
 40
197.5999999999998
 41
271.6
 68
     2
 69
     2
 12
1618.567125741473
 22
-2900.046099581818
 13
0.0
 23
0.0
 14
10.0
 24
10.0
 15
10.0
 25
10.0
 16
0.0
 26
0.0
 36
1.0
 17
0.0
 27
0.0
 37
0.0
 42
50.0
 43
0.0
 44
0.0
 45
543.2
 50
0.0
 51
0.0
 72
   100
 90
   557152
  1

281
     0
 71
     1
 74
     0
110
0.0
120
0.0
130
0.0
111
1.0
121
0.0
131
0.0
112
0.0
122
1.0
132
0.0
 79
     0
146
0.0
170
     0
 61
     5
348
2F
292
     1
282
     1
141
0.0
142
0.0
 63
   256
  0
ENDSEC
  0
SECTION
  2
OBJECTS
  0
DICTIONARY
  5
C
330
0
100
AcDbDictionary
281
     1
  3
ACAD_DETAILVIEWSTYLE
350
40F
  3
ACAD_GROUP
350
D
  3
ACAD_IMAGE_DICT
350
242
  3
ACAD_IMAGE_VARS
350
6F
  3
ACAD_LAYOUT
350
1A
  3
ACAD_MATERIAL
350
43
  3
ACAD_MLEADERSTYLE
350
6B
  3
ACAD_MLINESTYLE
350
17
  3
ACAD_PLOTSETTINGS
350
19
  3
ACAD_PLOTSTYLENAME
350
E
  3
ACAD_SCALELIST
350
47
  3
ACAD_SECTIONVIEWSTYLE
350
410
  3
ACAD_TABLESTYLE
350
69
  3
ACAD_VISUALSTYLE
350
2A
  3
ACDB_RECOMPOSE_DATA
350
40C
  3
AcDbVariableDictionary
350
408
  0
SUN
  5
6D
330
29
100
AcDbSun
 90
        1
290
     0
 63
     7
421
 16777215
 40
1.0
291
     1
 91
  2455826
 92
 54000000
292
     0
 70
     2
 71
   256
280
     1
  0
IMAGEDEF_REACTOR
  5
245
330
244
100
AcDbRasterImageDefReactor
 90
        2
330
244
  0
IMAGEDEF_REACTOR
  5
248
330
247
100
AcDbRasterImageDefReactor
 90
        2
330
247
  0
IMAGEDEF_REACTOR
  5
24B
330
24A
100
AcDbRasterImageDefReactor
 90
        2
330
24A
  0
SUN
  5
234
330
233
100
AcDbSun
 90
        1
290
     0
 63
     7
421
 16777215
 40
1.0
291
     1
 91
  2455826
 92
 54000000
292
     0
 70
     2
 71
   256
280
     1
  0
DICTIONARY
  5
40F
102
{ACAD_REACTORS
330
C
102
}
330
C
100
AcDbDictionary
281
     1
  0
DICTIONARY
  5
D
102
{ACAD_REACTORS
330
C
102
}
330
C
100
AcDbDictionary
281
     1
  0
DICTIONARY
  5
242
102
{ACAD_REACTORS
330
C
102
}
330
C
100
AcDbDictionary
281
     1
  3
C:\Users\MAIFFR~1\AppData\Local\Temp\EXE_LOGO_FBF_soutien_Q_L.jpg1
350
246
  3
C:\Users\MAIFFR~1\AppData\Local\Temp\fcba.jpg0
350
243
  3
C:\Users\MAIFFR~1\AppData\Local\Temp\logo_codifab_baseline_soutien.jpg2
350
249
  0
RASTERVARIABLES
  5
6F
102
{ACAD_REACTORS
330
C
102
}
330
C
100
AcDbRasterVariables
 90
        0
 70
     0
 71
     1
 72
     1
  0
DICTIONARY
  5
1A
102
{ACAD_REACTORS
330
C
102
}
330
C
100
AcDbDictionary
281
     1
  3
CompleteLayout
350
1E
  3
Model
350
22
  3
PrintFrame_45
350
22E
  0
DICTIONARY
  5
43
102
{ACAD_REACTORS
330
C
102
}
330
C
100
AcDbDictionary
281
     1
  3
ByBlock
350
45
  3
ByLayer
350
44
  3
Global
350
46
  0
DICTIONARY
  5
6B
102
{ACAD_REACTORS
330
C
102
}
330
C
100
AcDbDictionary
281
     1
  3
Standard
350
6C
  0
DICTIONARY
  5
17
102
{ACAD_REACTORS
330
C
102
}
330
C
100
AcDbDictionary
281
     1
  3
Standard
350
18
  0
DICTIONARY
  5
19
102
{ACAD_REACTORS
330
C
102
}
330
C
100
AcDbDictionary
281
     1
  3
PlotSettings_
350
231
  0
ACDBDICTIONARYWDFLT
  5
E
102
{ACAD_REACTORS
330
C
102
}
330
C
100
AcDbDictionary
281
     1
  3
Normal
350
F
100
AcDbDictionaryWithDefault
340
F
  0
DICTIONARY
  5
47
102
{ACAD_REACTORS
330
C
102
}
330
C
100
AcDbDictionary
281
     1
  3
A0
350
48
  3
A1
350
49
  3
A2
350
4A
  3
A3
350
4B
  3
A4
350
4C
  3
A5
350
4D
  3
A6
350
4E
  3
A7
350
4F
  3
A8
350
50
  3
A9
350
51
  3
B0
350
52
  3
B1
350
53
  3
B2
350
54
  3
B3
350
55
  3
B4
350
56
  3
B5
350
57
  3
B6
350
58
  3
B7
350
59
  3
B8
350
5A
  3
B9
350
5B
  3
C0
350
5C
  3
C1
350
5D
  3
C2
350
5E
  3
C3
350
5F
  3
C4
350
60
  3
C5
350
61
  3
C6
350
62
  3
C7
350
63
  3
C8
350
64
  3
C9
350
65
  3
D0
350
66
  3
D1
350
67
  3
D2
350
68
  0
DICTIONARY
  5
410
102
{ACAD_REACTORS
330
C
102
}
330
C
100
AcDbDictionary
281
     1
  0
DICTIONARY
  5
69
102
{ACAD_REACTORS
330
C
102
}
330
C
100
AcDbDictionary
281
     1
  3
Standard
350
6A
  0
DICTIONARY
  5
2A
102
{ACAD_REACTORS
330
C
102
}
330
C
100
AcDbDictionary
281
     1
  3
2dWireframe
350
2F
  3
Basic
350
32
  3
Brighten
350
36
  3
ColorChange
350
3A
  3
Conceptual
350
34
  3
Dim
350
35
  3
EdgeColorOff
350
3D
  3
Facepattern
350
39
  3
Flat
350
2B
  3
FlatWithEdges
350
2C
  3
Gouraud
350
2D
  3
GouraudWithEdges
350
2E
  3
Hidden
350
31
  3
JitterOff
350
3B
  3
Linepattern
350
38
  3
OverhangOff
350
3C
  3
Realistic
350
33
  3
Shaded
350
42
  3
Shaded with edges
350
41
  3
Shades of Gray
350
3E
  3
Sketchy
350
3F
  3
Thicken
350
37
  3
Wireframe
350
30
  3
X-Ray
350
40
  0
XRECORD
  5
40C
102
{ACAD_REACTORS
330
C
102
}
330
C
100
AcDbXrecord
280
     1
 90
        1
330
6A
  0
DICTIONARY
  5
408
102
{ACAD_REACTORS
330
C
102
}
330
C
100
AcDbDictionary
281
     1
  3
CANNOSCALE
350
409
  3
CMLEADERSTYLE
350
40E
  3
CTABLESTYLE
350
40D
  3
WIPEOUTFRAME
350
411
  0
IMAGEDEF
  5
246
102
{ACAD_REACTORS
330
242
330
248
102
}
330
242
100
AcDbRasterImageDef
 90
        0
  1
EXE_LOGO_FBF_soutien_Q_L.jpg
 10
200.0
 20
133.0
 11
0.3527336860670194
 21
0.3527336860670194
280
     1
281
     3
  0
IMAGEDEF
  5
243
102
{ACAD_REACTORS
330
242
330
245
102
}
330
242
100
AcDbRasterImageDef
 90
        0
  1
fcba.jpg
 10
247.0
 20
171.0
 11
0.3527336860670194
 21
0.3527336860670194
280
     1
281
     3
  0
IMAGEDEF
  5
249
102
{ACAD_REACTORS
330
242
330
24B
102
}
330
242
100
AcDbRasterImageDef
 90
        0
  1
logo_codifab_baseline_soutien.jpg
 10
1326.0
 20
580.0
 11
0.08466683600033867
 21
0.08466683600033867
280
     1
281
     3
  0
LAYOUT
  5
1E
102
{ACAD_REACTORS
330
1A
102
}
330
1A
100
AcDbPlotSettings
  1

  2
none_device
  4

  6

 40
0.0
 41
0.0
 42
0.0
 43
0.0
 44
0.0
 45
0.0
 46
0.0
 47
0.0
 48
0.0
 49
0.0
140
0.0
141
0.0
142
1.0
143
1.0
 70
   688
 72
     0
 73
     0
 74
     5
  7

 75
    16
 76
     0
 77
     2
 78
   300
147
1.0
148
0.0
149
0.0
100
AcDbLayout
  1
CompleteLayout
 70
     1
 71
     1
 10
0.0
 20
0.0
 11
12.0
 21
9.0
 12
0.0
 22
0.0
 32
0.0
 14
1.000000000000000E+20
 24
1.000000000000000E+20
 34
1.000000000000000E+20
 15
-1.000000000000000E+20
 25
-1.000000000000000E+20
 35
-1.000000000000000E+20
146
0.0
 13
0.0
 23
0.0
 33
0.0
 16
1.0
 26
0.0
 36
0.0
 17
0.0
 27
1.0
 37
0.0
 76
     0
330
1B
  0
LAYOUT
  5
22
102
{ACAD_REACTORS
330
1A
102
}
330
1A
100
AcDbPlotSettings
  1

  2
none_device
  4
Letter_(8.50_x_11.00_Inches)
  6

 40
6.35
 41
6.35
 42
6.35000508
 43
6.35000508
 44
215.9
 45
279.4
 46
0.0
 47
0.0
 48
0.0
 49
0.0
140
0.0
141
0.0
142
1.0
143
1.0
 70
  1712
 72
     0
 73
     0
 74
     0
  7

 75
     0
 76
     0
 77
     2
 78
   300
147
1.0
148
0.0
149
0.0
100
AcDbLayout
  1
Model
 70
     1
 71
     0
 10
0.0
 20
0.0
 11
12.0
 21
9.0
 12
0.0
 22
0.0
 32
0.0
 14
1421.567125741473
 24
-3171.046099581818
 34
0.0
 15
1815.567125741476
 25
-2629.046099581818
 35
0.0
146
0.0
 13
0.0
 23
0.0
 33
0.0
 16
1.0
 26
0.0
 36
0.0
 17
0.0
 27
1.0
 37
0.0
 76
     0
330
1F
331
29
  0
LAYOUT
  5
22E
102
{ACAD_REACTORS
330
1A
102
}
330
1A
100
AcDbPlotSettings
  1
PlotSettings_
  2
Custom Device
  4
Custom_210.000000x297.000000_12.700000_12.700000_6.200000_6.200000
  6

 40
6.2
 41
12.7
 42
6.2
 43
12.7
 44
209.9999999999998
 45
297.0
 46
0.0
 47
0.0
 48
0.0
 49
0.0
140
0.0
141
0.0
142
1.0
143
1.0
 70
   752
 72
     1
 73
     0
 74
     5
  7

 75
    16
 76
     0
 77
     2
 78
   300
147
1.0
148
0.0
149
0.0
100
AcDbLayout
  1
PrintFrame_45
 70
     0
 71
     2
 10
-20.0
 20
-7.5
 11
277.0
 21
202.5
 12
0.0
 22
0.0
 32
0.0
 14
0.0
 24
0.0
 34
0.0
 15
197.5999999999998
 25
271.6
 35
0.0
146
0.0
 13
0.0
 23
0.0
 33
0.0
 16
1.0
 26
0.0
 36
0.0
 17
0.0
 27
1.0
 37
0.0
 76
     0
330
22D
331
233
1001
PLOTTRANSPARENCY
1071
        1
1000
layout-user-created
1070
     1
1000
layout-line-weight-scale
1042
1.0
  0
MATERIAL
  5
45
102
{ACAD_REACTORS
330
43
102
}
330
43
100
AcDbMaterial
  1
ByBlock
 72
     1
 94
      127
  0
MATERIAL
  5
44
102
{ACAD_REACTORS
330
43
102
}
330
43
100
AcDbMaterial
  1
ByLayer
 72
     1
 94
      127
  0
MATERIAL
  5
46
102
{ACAD_REACTORS
330
43
102
}
330
43
100
AcDbMaterial
  1
Global
 72
     1
 94
      127
  0
MLEADERSTYLE
  5
6C
102
{ACAD_REACTORS
330
6B
102
}
330
6B
100
AcDbMLeaderStyle
179
     2
170
     2
171
     1
172
     0
 90
        2
 40
0.0
 41
0.0
173
     1
 91
-1056964608
340
14
 92
       -2
290
     1
 42
0.09
291
     1
 43
0.36
  3
Standard
341
0
 44
0.18
300

342
11
174
     1
178
     6
175
     1
176
     0
 93
-1056964608
 45
0.18
292
     0
297
     0
 46
0.18
343
0
 94
-1056964608
 47
1.0
 49
1.0
140
1.0
293
     1
141
0.0
294
     1
177
     0
142
1.0
295
     0
296
     0
143
0.125
271
     0
272
     9
273
     9
298
     0
  0
MLINESTYLE
  5
18
102
{ACAD_REACTORS
330
17
102
}
330
17
100
AcDbMlineStyle
  2
Standard
 70
     0
  3

 62
   256
 51
90.0
 52
90.0
 71
     2
 49
0.5
 62
   256
  6
BYLAYER
 49
-0.5
 62
   256
  6
BYLAYER
  0
PLOTSETTINGS
  5
231
102
{ACAD_REACTORS
330
19
102
}
330
19
100
AcDbPlotSettings
  1
PlotSettings_
  2
Custom Device
  4
Custom_210.000000x297.000000_12.700000_12.700000_6.200000_6.200000
  6

 40
6.2
 41
12.7
 42
6.2
 43
12.7
 44
209.9999999999998
 45
297.0
 46
0.0
 47
0.0
 48
0.0
 49
0.0
140
0.0
141
0.0
142
1.0
143
1.0
 70
   752
 72
     1
 73
     0
 74
     5
  7

 75
    16
 76
     0
 77
     2
 78
   300
147
1.0
148
0.0
149
0.0
1001
PLOTTRANSPARENCY
1071
        1
1000
layout-user-created
1070
     1
1000
layout-line-weight-scale
1042
1.0
  0
ACDBPLACEHOLDER
  5
F
102
{ACAD_REACTORS
330
E
102
}
330
E
  0
SCALE
  5
48
102
{ACAD_REACTORS
330
47
102
}
330
47
100
AcDbScale
 70
     0
300
1:1
140
1.0
141
1.0
290
     1
  0
SCALE
  5
49
102
{ACAD_REACTORS
330
47
102
}
330
47
100
AcDbScale
 70
     0
300
1:2
140
1.0
141
2.0
290
     0
  0
SCALE
  5
4A
102
{ACAD_REACTORS
330
47
102
}
330
47
100
AcDbScale
 70
     0
300
1:4
140
1.0
141
4.0
290
     0
  0
SCALE
  5
4B
102
{ACAD_REACTORS
330
47
102
}
330
47
100
AcDbScale
 70
     0
300
1:5
140
1.0
141
5.0
290
     0
  0
SCALE
  5
4C
102
{ACAD_REACTORS
330
47
102
}
330
47
100
AcDbScale
 70
     0
300
1:8
140
1.0
141
8.0
290
     0
  0
SCALE
  5
4D
102
{ACAD_REACTORS
330
47
102
}
330
47
100
AcDbScale
 70
     0
300
1:10
140
1.0
141
10.0
290
     0
  0
SCALE
  5
4E
102
{ACAD_REACTORS
330
47
102
}
330
47
100
AcDbScale
 70
     0
300
1:16
140
1.0
141
16.0
290
     0
  0
SCALE
  5
4F
102
{ACAD_REACTORS
330
47
102
}
330
47
100
AcDbScale
 70
     0
300
1:20
140
1.0
141
20.0
290
     0
  0
SCALE
  5
50
102
{ACAD_REACTORS
330
47
102
}
330
47
100
AcDbScale
 70
     0
300
1:30
140
1.0
141
30.0
290
     0
  0
SCALE
  5
51
102
{ACAD_REACTORS
330
47
102
}
330
47
100
AcDbScale
 70
     0
300
1:40
140
1.0
141
40.0
290
     0
  0
SCALE
  5
52
102
{ACAD_REACTORS
330
47
102
}
330
47
100
AcDbScale
 70
     0
300
1:50
140
1.0
141
50.0
290
     0
  0
SCALE
  5
53
102
{ACAD_REACTORS
330
47
102
}
330
47
100
AcDbScale
 70
     0
300
1:100
140
1.0
141
100.0
290
     0
  0
SCALE
  5
54
102
{ACAD_REACTORS
330
47
102
}
330
47
100
AcDbScale
 70
     0
300
2:1
140
2.0
141
1.0
290
     0
  0
SCALE
  5
55
102
{ACAD_REACTORS
330
47
102
}
330
47
100
AcDbScale
 70
     0
300
4:1
140
4.0
141
1.0
290
     0
  0
SCALE
  5
56
102
{ACAD_REACTORS
330
47
102
}
330
47
100
AcDbScale
 70
     0
300
8:1
140
8.0
141
1.0
290
     0
  0
SCALE
  5
57
102
{ACAD_REACTORS
330
47
102
}
330
47
100
AcDbScale
 70
     0
300
10:1
140
10.0
141
1.0
290
     0
  0
SCALE
  5
58
102
{ACAD_REACTORS
330
47
102
}
330
47
100
AcDbScale
 70
     0
300
100:1
140
100.0
141
1.0
290
     0
  0
SCALE
  5
59
102
{ACAD_REACTORS
330
47
102
}
330
47
100
AcDbScale
 70
     0
300
1/128" = 1'-0"
140
0.0078125
141
12.0
290
     0
  0
SCALE
  5
5A
102
{ACAD_REACTORS
330
47
102
}
330
47
100
AcDbScale
 70
     0
300
1/64" = 1'-0"
140
0.015625
141
12.0
290
     0
  0
SCALE
  5
5B
102
{ACAD_REACTORS
330
47
102
}
330
47
100
AcDbScale
 70
     0
300
1/32" = 1'-0"
140
0.03125
141
12.0
290
     0
  0
SCALE
  5
5C
102
{ACAD_REACTORS
330
47
102
}
330
47
100
AcDbScale
 70
     0
300
1/16" = 1'-0"
140
0.0625
141
12.0
290
     0
  0
SCALE
  5
5D
102
{ACAD_REACTORS
330
47
102
}
330
47
100
AcDbScale
 70
     0
300
3/32" = 1'-0"
140
0.09375
141
12.0
290
     0
  0
SCALE
  5
5E
102
{ACAD_REACTORS
330
47
102
}
330
47
100
AcDbScale
 70
     0
300
1/8" = 1'-0"
140
0.125
141
12.0
290
     0
  0
SCALE
  5
5F
102
{ACAD_REACTORS
330
47
102
}
330
47
100
AcDbScale
 70
     0
300
3/16" = 1'-0"
140
0.1875
141
12.0
290
     0
  0
SCALE
  5
60
102
{ACAD_REACTORS
330
47
102
}
330
47
100
AcDbScale
 70
     0
300
1/4" = 1'-0"
140
0.25
141
12.0
290
     0
  0
SCALE
  5
61
102
{ACAD_REACTORS
330
47
102
}
330
47
100
AcDbScale
 70
     0
300
3/8" = 1'-0"
140
0.375
141
12.0
290
     0
  0
SCALE
  5
62
102
{ACAD_REACTORS
330
47
102
}
330
47
100
AcDbScale
 70
     0
300
1/2" = 1'-0"
140
0.5
141
12.0
290
     0
  0
SCALE
  5
63
102
{ACAD_REACTORS
330
47
102
}
330
47
100
AcDbScale
 70
     0
300
3/4" = 1'-0"
140
0.75
141
12.0
290
     0
  0
SCALE
  5
64
102
{ACAD_REACTORS
330
47
102
}
330
47
100
AcDbScale
 70
     0
300
1" = 1'-0"
140
1.0
141
12.0
290
     0
  0
SCALE
  5
65
102
{ACAD_REACTORS
330
47
102
}
330
47
100
AcDbScale
 70
     0
300
1-1/2" = 1'-0"
140
1.5
141
12.0
290
     0
  0
SCALE
  5
66
102
{ACAD_REACTORS
330
47
102
}
330
47
100
AcDbScale
 70
     0
300
3" = 1'-0"
140
3.0
141
12.0
290
     0
  0
SCALE
  5
67
102
{ACAD_REACTORS
330
47
102
}
330
47
100
AcDbScale
 70
     0
300
6" = 1'-0"
140
6.0
141
12.0
290
     0
  0
SCALE
  5
68
102
{ACAD_REACTORS
330
47
102
}
330
47
100
AcDbScale
 70
     0
300
1'-0" = 1'-0"
140
12.0
141
12.0
290
     0
  0
TABLESTYLE
  5
6A
102
{ACAD_REACTORS
330
69
102
}
102
{ACAD_XDICTIONARY
360
40A
102
}
330
69
100
AcDbTableStyle
  3
Standard
 70
     0
 71
     0
 40
0.06
 41
0.06
280
     0
281
     0
  7
Standard
140
0.18
170
     2
 62
     0
 63
   257
283
     0
 90
        4
 91
        0
  1

274
    -2
284
     1
 64
     0
275
    -2
285
     1
 65
     0
276
    -2
286
     1
 66
     0
277
    -2
287
     1
 67
     0
278
    -2
288
     1
 68
     0
279
    -2
289
     1
 69
     0
  7
Standard
140
0.25
170
     5
 62
     0
 63
   257
283
     0
 90
        4
 91
        0
  1

274
    -2
284
     1
 64
     0
275
    -2
285
     1
 65
     0
276
    -2
286
     1
 66
     0
277
    -2
287
     1
 67
     0
278
    -2
288
     1
 68
     0
279
    -2
289
     1
 69
     0
  7
Standard
140
0.18
170
     5
 62
     0
 63
   257
283
     0
 90
        4
 91
        0
  1

274
    -2
284
     1
 64
     0
275
    -2
285
     1
 65
     0
276
    -2
286
     1
 66
     0
277
    -2
287
     1
 67
     0
278
    -2
288
     1
 68
     0
279
    -2
289
     1
 69
     0
  0
VISUALSTYLE
  5
2F
102
{ACAD_REACTORS
330
2A
102
}
330
2A
100
AcDbVisualStyle
  2
2dWireframe
 70
     4
177
     3
291
     0
 70
    58
 90
        0
176
     1
 90
        2
176
     1
 90
        0
176
     1
 90
        0
176
     1
 40
0.6
176
     1
 40
30.0
176
     1
 62
     7
420
 16777215
176
     1
 90
        1
176
     1
 90
        4
176
     1
 62
     7
176
     1
 62
   257
176
     1
 90
        1
176
     1
 90
        1
176
     1
 40
1.0
176
     1
 90
        0
176
     1
 62
   257
176
     1
 40
1.0
176
     1
 90
        1
176
     1
 90
        6
176
     1
 90
        2
176
     1
 62
     7
176
     1
 90
        5
176
     1
 90
        0
176
     1
 90
        0
176
     1
290
     0
176
     1
 90
        1
176
     1
 40
0.0
176
     1
 90
        0
176
     1
290
     1
176
     1
290
     1
176
     1
290
     0
176
     1
290
     0
176
     1
290
     0
176
     1
290
     0
176
     1
290
     0
176
     1
290
     0
176
     1
290
     0
176
     1
 90
       50
176
     1
 40
0.0
176
     1
 40
1.0
176
     1
 90
        0
176
     1
 62
    18
420
        0
176
     1
 90
       50
176
     1
 90
        3
176
     1
 62
     5
420
      255
176
     1
290
     0
176
     1
 90
       50
176
     1
 90
       50
176
     1
 90
       50
176
     1
290
     0
176
     1
 90
       50
176
     1
 62
   256
176
     0
 40
1.0
176
     0
 90
        2
176
     1
  1
strokes_ogs.tif
176
     1
290
     0
176
     1
 40
1.0
176
     1
 40
1.0
176
     1
  0
VISUALSTYLE
  5
32
102
{ACAD_REACTORS
330
2A
102
}
330
2A
100
AcDbVisualStyle
  2
Basic
 70
     7
177
     3
291
     1
 70
    58
 90
        1
176
     1
 90
        0
176
     1
 90
        1
176
     1
 90
        0
176
     1
 40
0.6
176
     1
 40
30.0
176
     1
 62
     7
420
 16777215
176
     1
 90
        0
176
     1
 90
        4
176
     1
 62
     7
176
     1
 62
   257
176
     1
 90
        1
176
     1
 90
        1
176
     1
 40
1.0
176
     1
 90
        8
176
     1
 62
     7
176
     1
 40
1.0
176
     1
 90
        1
176
     1
 90
        6
176
     1
 90
        2
176
     1
 62
     7
176
     1
 90
        5
176
     1
 90
        0
176
     1
 90
        0
176
     1
290
     0
176
     1
 90
        1
176
     1
 40
0.0
176
     1
 90
        0
176
     1
290
     0
176
     1
290
     1
176
     1
290
     1
176
     1
290
     0
176
     1
290
     0
176
     1
290
     0
176
     1
290
     0
176
     1
290
     0
176
     1
290
     0
176
     1
 90
       50
176
     1
 40
0.0
176
     1
 40
1.0
176
     1
 90
        0
176
     1
 62
    18
420
        0
176
     1
 90
       50
176
     1
 90
        3
176
     1
 62
     5
420
      255
176
     1
290
     0
176
     1
 90
       50
176
     1
 90
       50
176
     1
 90
       50
176
     1
290
     0
176
     1
 90
       50
176
     1
 62
   256
176
     0
 40
1.0
176
     0
 90
        2
176
     1
  1
strokes_ogs.tif
176
     1
290
     0
176
     1
 40
1.0
176
     1
 40
1.0
176
     1
  0
VISUALSTYLE
  5
36
102
{ACAD_REACTORS
330
2A
102
}
330
2A
100
AcDbVisualStyle
  2
Brighten
 70
    12
177
     3
291
     1
 70
    58
 90
        2
176
     1
 90
        2
176
     1
 90
        0
176
     1
 90
        0
176
     1
 40
0.6
176
     1
 40
30.0
176
     1
 62
     7
420
 16777215
176
     1
 90
        1
176
     1
 90
        4
176
     1
 62
     7
176
     1
 62
   257
176
     1
 90
        1
176
     1
 90
        1
176
     1
 40
1.0
176
     1
 90
        8
176
     1
 62
     7
176
     1
 40
1.0
176
     1
 90
        1
176
     1
 90
        6
176
     1
 90
        2
176
     1
 62
     7
176
     1
 90
        5
176
     1
 90
        0
176
     1
 90
        0
176
     1
290
     0
176
     1
 90
        1
176
     1
 40
50.0
176
     1
 90
        0
176
     1
290
     0
176
     1
290
     1
176
     1
290
     1
176
     1
290
     0
176
     1
290
     0
176
     1
290
     0
176
     1
290
     0
176
     1
290
     0
176
     1
290
     0
176
     1
 90
       50
176
     1
 40
0.0
176
     1
 40
1.0
176
     1
 90
        0
176
     1
 62
    18
420
        0
176
     1
 90
       50
176
     1
 90
        3
176
     1
 62
     5
420
      255
176
     1
290
     0
176
     1
 90
       50
176
     1
 90
       50
176
     1
 90
       50
176
     1
290
     0
176
     1
 90
       50
176
     1
 62
   256
176
     0
 40
1.0
176
     0
 90
        2
176
     1
  1
strokes_ogs.tif
176
     1
290
     0
176
     1
 40
1.0
176
     1
 40
1.0
176
     1
  0
VISUALSTYLE
  5
3A
102
{ACAD_REACTORS
330
2A
102
}
330
2A
100
AcDbVisualStyle
  2
ColorChange
 70
    16
177
     3
291
     1
 70
    58
 90
        2
176
     1
 90
        2
176
     1
 90
        3
176
     1
 90
        0
176
     1
 40
0.6
176
     1
 40
30.0
176
     1
 62
     8
420
  8421504
176
     1
 90
        1
176
     1
 90
        4
176
     1
 62
     7
176
     1
 62
   257
176
     1
 90
        1
176
     1
 90
        1
176
     1
 40
1.0
176
     1
 90
        8
176
     1
 62
     8
420
  8421504
176
     1
 40
1.0
176
     1
 90
        1
176
     1
 90
        6
176
     1
 90
        2
176
     1
 62
     7
176
     1
 90
        5
176
     1
 90
        0
176
     1
 90
        0
176
     1
290
     0
176
     1
 90
        1
176
     1
 40
0.0
176
     1
 90
        0
176
     1
290
     0
176
     1
290
     1
176
     1
290
     1
176
     1
290
     0
176
     1
290
     0
176
     1
290
     0
176
     1
290
     0
176
     1
290
     0
176
     1
290
     0
176
     1
 90
       50
176
     1
 40
0.0
176
     1
 40
1.0
176
     1
 90
        0
176
     1
 62
    18
420
        0
176
     1
 90
       50
176
     1
 90
        3
176
     1
 62
     5
420
      255
176
     1
290
     0
176
     1
 90
       50
176
     1
 90
       50
176
     1
 90
       50
176
     1
290
     0
176
     1
 90
       50
176
     1
 62
   256
176
     0
 40
1.0
176
     0
 90
        2
176
     1
  1
strokes_ogs.tif
176
     1
290
     0
176
     1
 40
1.0
176
     1
 40
1.0
176
     1
  0
VISUALSTYLE
  5
34
102
{ACAD_REACTORS
330
2A
102
}
330
2A
100
AcDbVisualStyle
  2
Conceptual
 70
     9
177
     3
291
     0
 70
    58
 90
        3
176
     1
 90
        2
176
     1
 90
        0
176
     1
 90
        0
176
     1
 40
0.6
176
     1
 40
30.0
176
     1
 62
     7
420
 16777215
176
     1
 90
        2
176
     1
 90
        2
176
     1
 62
     7
176
     1
 62
   257
176
     1
 90
        1
176
     1
 90
        1
176
     1
 40
179.0
176
     1
 90
        8
176
     1
 62
     7
176
     1
 40
1.0
176
     1
 90
        1
176
     1
 90
        6
176
     1
 90
        2
176
     1
 62
     7
176
     1
 90
        3
176
     1
 90
        0
176
     1
 90
        0
176
     1
290
     0
176
     1
 90
        1
176
     1
 40
0.0
176
     1
 90
        0
176
     1
290
     0
176
     1
290
     1
176
     1
290
     1
176
     1
290
     0
176
     1
290
     0
176
     1
290
     0
176
     1
290
     0
176
     1
290
     0
176
     1
290
     0
176
     1
 90
       50
176
     1
 40
0.0
176
     1
 40
1.0
176
     1
 90
        0
176
     1
 62
    18
420
        0
176
     1
 90
       50
176
     1
 90
        3
176
     1
 62
     5
420
      255
176
     1
290
     0
176
     1
 90
       50
176
     1
 90
       50
176
     1
 90
       50
176
     1
290
     0
176
     1
 90
       50
176
     1
 62
   256
176
     0
 40
1.0
176
     0
 90
        2
176
     1
  1
strokes_ogs.tif
176
     1
290
     0
176
     1
 40
1.0
176
     1
 40
1.0
176
     1
  0
VISUALSTYLE
  5
35
102
{ACAD_REACTORS
330
2A
102
}
330
2A
100
AcDbVisualStyle
  2
Dim
 70
    11
177
     3
291
     1
 70
    58
 90
        2
176
     1
 90
        2
176
     1
 90
        0
176
     1
 90
        0
176
     1
 40
0.6
176
     1
 40
30.0
176
     1
 62
     7
420
 16777215
176
     1
 90
        1
176
     1
 90
        4
176
     1
 62
     7
176
     1
 62
   257
176
     1
 90
        1
176
     1
 90
        1
176
     1
 40
1.0
176
     1
 90
        8
176
     1
 62
     7
176
     1
 40
1.0
176
     1
 90
        1
176
     1
 90
        6
176
     1
 90
        2
176
     1
 62
     7
176
     1
 90
        5
176
     1
 90
        0
176
     1
 90
        0
176
     1
290
     0
176
     1
 90
        1
176
     1
 40
-50.0
176
     1
 90
        0
176
     1
290
     0
176
     1
290
     1
176
     1
290
     1
176
     1
290
     0
176
     1
290
     0
176
     1
290
     0
176
     1
290
     0
176
     1
290
     0
176
     1
290
     0
176
     1
 90
       50
176
     1
 40
0.0
176
     1
 40
1.0
176
     1
 90
        0
176
     1
 62
    18
420
        0
176
     1
 90
       50
176
     1
 90
        3
176
     1
 62
     5
420
      255
176
     1
290
     0
176
     1
 90
       50
176
     1
 90
       50
176
     1
 90
       50
176
     1
290
     0
176
     1
 90
       50
176
     1
 62
   256
176
     0
 40
1.0
176
     0
 90
        2
176
     1
  1
strokes_ogs.tif
176
     1
290
     0
176
     1
 40
1.0
176
     1
 40
1.0
176
     1
  0
VISUALSTYLE
  5
3D
102
{ACAD_REACTORS
330
2A
102
}
330
2A
100
AcDbVisualStyle
  2
EdgeColorOff
 70
    22
177
     3
291
     1
 70
    58
 90
        2
176
     0
 90
        2
176
     0
 90
        0
176
     0
 90
        0
176
     0
 40
0.6
176
     0
 40
30.0
176
     0
 62
     7
420
 16777215
176
     0
 90
        1
176
     0
 90
        4
176
     0
 62
     7
176
     0
 62
   257
176
     0
 90
        1
176
     0
 90
        1
176
     0
 40
1.0
176
     0
 90
        8
176
     2
 62
     7
176
     0
 40
1.0
176
     0
 90
        1
176
     0
 90
        6
176
     0
 90
        2
176
     0
 62
     7
176
     0
 90
        5
176
     0
 90
        0
176
     0
 90
        0
176
     0
290
     0
176
     0
 90
        1
176
     0
 40
0.0
176
     0
 90
        0
176
     0
290
     0
176
     0
290
     1
176
     0
290
     1
176
     0
290
     0
176
     0
290
     0
176
     0
290
     0
176
     0
290
     0
176
     0
290
     0
176
     0
290
     0
176
     0
 90
       50
176
     0
 40
0.0
176
     0
 40
1.0
176
     0
 90
        0
176
     0
 62
    18
420
        0
176
     0
 90
       50
176
     0
 90
        3
176
     0
 62
     5
420
      255
176
     0
290
     0
176
     0
 90
       50
176
     0
 90
       50
176
     0
 90
       50
176
     0
290
     0
176
     0
 90
       50
176
     0
 62
   256
176
     0
 40
1.0
176
     0
 90
        2
176
     0
  1
strokes_ogs.tif
176
     0
290
     0
176
     0
 40
1.0
176
     0
 40
1.0
176
     0
  0
VISUALSTYLE
  5
39
102
{ACAD_REACTORS
330
2A
102
}
330
2A
100
AcDbVisualStyle
  2
Facepattern
 70
    15
177
     3
291
     1
 70
    58
 90
        2
176
     1
 90
        2
176
     1
 90
        0
176
     1
 90
        0
176
     1
 40
0.6
176
     1
 40
30.0
176
     1
 62
     7
420
 16777215
176
     1
 90
        1
176
     1
 90
        4
176
     1
 62
     7
176
     1
 62
   257
176
     1
 90
        1
176
     1
 90
        1
176
     1
 40
1.0
176
     1
 90
        8
176
     1
 62
     7
176
     1
 40
1.0
176
     1
 90
        1
176
     1
 90
        6
176
     1
 90
        2
176
     1
 62
     7
176
     1
 90
        5
176
     1
 90
        0
176
     1
 90
        0
176
     1
290
     0
176
     1
 90
        1
176
     1
 40
0.0
176
     1
 90
        0
176
     1
290
     0
176
     1
290
     1
176
     1
290
     1
176
     1
290
     0
176
     1
290
     0
176
     1
290
     0
176
     1
290
     0
176
     1
290
     0
176
     1
290
     0
176
     1
 90
       50
176
     1
 40
0.0
176
     1
 40
1.0
176
     1
 90
        0
176
     1
 62
    18
420
        0
176
     1
 90
       50
176
     1
 90
        3
176
     1
 62
     5
420
      255
176
     1
290
     0
176
     1
 90
       50
176
     1
 90
       50
176
     1
 90
       50
176
     1
290
     0
176
     1
 90
       50
176
     1
 62
   256
176
     0
 40
1.0
176
     0
 90
        2
176
     1
  1
strokes_ogs.tif
176
     1
290
     0
176
     1
 40
1.0
176
     1
 40
1.0
176
     1
  0
VISUALSTYLE
  5
2B
102
{ACAD_REACTORS
330
2A
102
}
330
2A
100
AcDbVisualStyle
  2
Flat
 70
     0
177
     3
291
     1
 70
    58
 90
        2
176
     1
 90
        1
176
     1
 90
        1
176
     1
 90
        2
176
     1
 40
0.6
176
     1
 40
30.0
176
     1
 62
     7
420
 16777215
176
     1
 90
        0
176
     1
 90
        0
176
     1
 62
     7
176
     1
 62
   257
176
     1
 90
        1
176
     1
 90
        1
176
     1
 40
1.0
176
     1
 90
        8
176
     1
 62
     7
176
     1
 40
1.0
176
     1
 90
        1
176
     1
 90
        6
176
     1
 90
        2
176
     1
 62
     7
176
     1
 90
        5
176
     1
 90
        0
176
     1
 90
        0
176
     1
290
     0
176
     1
 90
       13
176
     1
 40
0.0
176
     1
 90
        0
176
     1
290
     0
176
     1
290
     1
176
     1
290
     1
176
     1
290
     0
176
     1
290
     0
176
     1
290
     0
176
     1
290
     0
176
     1
290
     0
176
     1
290
     0
176
     1
 90
       50
176
     1
 40
0.0
176
     1
 40
1.0
176
     1
 90
        0
176
     1
 62
    18
420
        0
176
     1
 90
       50
176
     1
 90
        3
176
     1
 62
     5
420
      255
176
     1
290
     0
176
     1
 90
       50
176
     1
 90
       50
176
     1
 90
       50
176
     1
290
     0
176
     1
 90
       50
176
     1
 62
   256
176
     0
 40
1.0
176
     0
 90
        2
176
     1
  1
strokes_ogs.tif
176
     1
290
     0
176
     1
 40
1.0
176
     1
 40
1.0
176
     1
  0
VISUALSTYLE
  5
2C
102
{ACAD_REACTORS
330
2A
102
}
330
2A
100
AcDbVisualStyle
  2
FlatWithEdges
 70
     1
177
     3
291
     1
 70
    58
 90
        2
176
     1
 90
        1
176
     1
 90
        1
176
     1
 90
        2
176
     1
 40
0.6
176
     1
 40
30.0
176
     1
 62
     7
420
 16777215
176
     1
 90
        1
176
     1
 90
        0
176
     1
 62
     7
176
     1
 62
   257
176
     1
 90
        1
176
     1
 90
        1
176
     1
 40
1.0
176
     1
 90
        0
176
     1
 62
   257
176
     1
 40
1.0
176
     1
 90
        1
176
     1
 90
        6
176
     1
 90
        2
176
     1
 62
     7
176
     1
 90
        5
176
     1
 90
        0
176
     1
 90
        0
176
     1
290
     0
176
     1
 90
       13
176
     1
 40
0.0
176
     1
 90
        0
176
     1
290
     0
176
     1
290
     1
176
     1
290
     1
176
     1
290
     0
176
     1
290
     0
176
     1
290
     0
176
     1
290
     0
176
     1
290
     0
176
     1
290
     0
176
     1
 90
       50
176
     1
 40
0.0
176
     1
 40
1.0
176
     1
 90
        0
176
     1
 62
    18
420
        0
176
     1
 90
       50
176
     1
 90
        3
176
     1
 62
     5
420
      255
176
     1
290
     0
176
     1
 90
       50
176
     1
 90
       50
176
     1
 90
       50
176
     1
290
     0
176
     1
 90
       50
176
     1
 62
   256
176
     0
 40
1.0
176
     0
 90
        2
176
     1
  1
strokes_ogs.tif
176
     1
290
     0
176
     1
 40
1.0
176
     1
 40
1.0
176
     1
  0
VISUALSTYLE
  5
2D
102
{ACAD_REACTORS
330
2A
102
}
330
2A
100
AcDbVisualStyle
  2
Gouraud
 70
     2
177
     3
291
     1
 70
    58
 90
        2
176
     1
 90
        2
176
     1
 90
        1
176
     1
 90
        2
176
     1
 40
0.6
176
     1
 40
30.0
176
     1
 62
     7
420
 16777215
176
     1
 90
        0
176
     1
 90
        0
176
     1
 62
     7
176
     1
 62
   257
176
     1
 90
        1
176
     1
 90
        1
176
     1
 40
1.0
176
     1
 90
        0
176
     1
 62
     7
176
     1
 40
1.0
176
     1
 90
        1
176
     1
 90
        6
176
     1
 90
        2
176
     1
 62
     7
176
     1
 90
        5
176
     1
 90
        0
176
     1
 90
        0
176
     1
290
     0
176
     1
 90
       13
176
     1
 40
0.0
176
     1
 90
        0
176
     1
290
     0
176
     1
290
     1
176
     1
290
     1
176
     1
290
     0
176
     1
290
     0
176
     1
290
     0
176
     1
290
     0
176
     1
290
     0
176
     1
290
     0
176
     1
 90
       50
176
     1
 40
0.0
176
     1
 40
1.0
176
     1
 90
        0
176
     1
 62
    18
420
        0
176
     1
 90
       50
176
     1
 90
        3
176
     1
 62
     5
420
      255
176
     1
290
     0
176
     1
 90
       50
176
     1
 90
       50
176
     1
 90
       50
176
     1
290
     0
176
     1
 90
       50
176
     1
 62
   256
176
     0
 40
1.0
176
     0
 90
        2
176
     1
  1
strokes_ogs.tif
176
     1
290
     0
176
     1
 40
1.0
176
     1
 40
1.0
176
     1
  0
VISUALSTYLE
  5
2E
102
{ACAD_REACTORS
330
2A
102
}
330
2A
100
AcDbVisualStyle
  2
GouraudWithEdges
 70
     3
177
     3
291
     1
 70
    58
 90
        2
176
     1
 90
        2
176
     1
 90
        1
176
     1
 90
        2
176
     1
 40
0.6
176
     1
 40
30.0
176
     1
 62
     7
420
 16777215
176
     1
 90
        1
176
     1
 90
        0
176
     1
 62
     7
176
     1
 62
   257
176
     1
 90
        1
176
     1
 90
        1
176
     1
 40
1.0
176
     1
 90
        0
176
     1
 62
   257
176
     1
 40
1.0
176
     1
 90
        1
176
     1
 90
        6
176
     1
 90
        2
176
     1
 62
     7
176
     1
 90
        5
176
     1
 90
        0
176
     1
 90
        0
176
     1
290
     0
176
     1
 90
       13
176
     1
 40
0.0
176
     1
 90
        0
176
     1
290
     0
176
     1
290
     1
176
     1
290
     1
176
     1
290
     0
176
     1
290
     0
176
     1
290
     0
176
     1
290
     0
176
     1
290
     0
176
     1
290
     0
176
     1
 90
       50
176
     1
 40
0.0
176
     1
 40
1.0
176
     1
 90
        0
176
     1
 62
    18
420
        0
176
     1
 90
       50
176
     1
 90
        3
176
     1
 62
     5
420
      255
176
     1
290
     0
176
     1
 90
       50
176
     1
 90
       50
176
     1
 90
       50
176
     1
290
     0
176
     1
 90
       50
176
     1
 62
   256
176
     0
 40
1.0
176
     0
 90
        2
176
     1
  1
strokes_ogs.tif
176
     1
290
     0
176
     1
 40
1.0
176
     1
 40
1.0
176
     1
  0
VISUALSTYLE
  5
31
102
{ACAD_REACTORS
330
2A
102
}
330
2A
100
AcDbVisualStyle
  2
Hidden
 70
     6
177
     3
291
     0
 70
    58
 90
        1
176
     1
 90
        2
176
     1
 90
        2
176
     1
 90
        0
176
     1
 40
0.6
176
     1
 40
30.0
176
     1
 62
     7
420
 16777215
176
     1
 90
        2
176
     1
 90
        2
176
     1
 62
     7
176
     1
 62
   257
176
     1
 90
        2
176
     1
 90
        1
176
     1
 40
40.0
176
     1
 90
        0
176
     1
 62
   257
176
     1
 40
1.0
176
     1
 90
        1
176
     1
 90
        6
176
     1
 90
        2
176
     1
 62
     7
176
     1
 90
        3
176
     1
 90
        0
176
     1
 90
        0
176
     1
290
     0
176
     1
 90
        1
176
     1
 40
0.0
176
     1
 90
        0
176
     1
290
     0
176
     1
290
     1
176
     1
290
     1
176
     1
290
     0
176
     1
290
     0
176
     1
290
     0
176
     1
290
     0
176
     1
290
     0
176
     1
290
     0
176
     1
 90
       50
176
     1
 40
0.0
176
     1
 40
1.0
176
     1
 90
        0
176
     1
 62
    18
420
        0
176
     1
 90
       50
176
     1
 90
        3
176
     1
 62
     5
420
      255
176
     1
290
     0
176
     1
 90
       50
176
     1
 90
       50
176
     1
 90
       50
176
     1
290
     0
176
     1
 90
       50
176
     1
 62
   256
176
     0
 40
1.0
176
     0
 90
        2
176
     1
  1
strokes_ogs.tif
176
     1
290
     0
176
     1
 40
1.0
176
     1
 40
1.0
176
     1
  0
VISUALSTYLE
  5
3B
102
{ACAD_REACTORS
330
2A
102
}
330
2A
100
AcDbVisualStyle
  2
JitterOff
 70
    20
177
     3
291
     1
 70
    58
 90
        2
176
     0
 90
        2
176
     0
 90
        0
176
     0
 90
        0
176
     0
 40
0.6
176
     0
 40
30.0
176
     0
 62
     7
420
 16777215
176
     0
 90
        1
176
     0
 90
        4
176
     0
 62
     7
176
     0
 62
   257
176
     0
 90
        1
176
     0
 90
        1
176
     0
 40
1.0
176
     0
 90
       10
176
     2
 62
     7
176
     0
 40
1.0
176
     0
 90
        1
176
     0
 90
        6
176
     0
 90
        2
176
     0
 62
     7
176
     0
 90
        5
176
     0
 90
        0
176
     0
 90
        0
176
     0
290
     0
176
     0
 90
        1
176
     0
 40
0.0
176
     0
 90
        0
176
     0
290
     0
176
     0
290
     1
176
     0
290
     1
176
     0
290
     0
176
     0
290
     0
176
     0
290
     0
176
     0
290
     0
176
     0
290
     0
176
     0
290
     0
176
     0
 90
       50
176
     0
 40
0.0
176
     0
 40
1.0
176
     0
 90
        0
176
     0
 62
    18
420
        0
176
     0
 90
       50
176
     0
 90
        3
176
     0
 62
     5
420
      255
176
     0
290
     0
176
     0
 90
       50
176
     0
 90
       50
176
     0
 90
       50
176
     0
290
     0
176
     0
 90
       50
176
     0
 62
   256
176
     0
 40
1.0
176
     0
 90
        2
176
     0
  1
strokes_ogs.tif
176
     0
290
     0
176
     0
 40
1.0
176
     0
 40
1.0
176
     0
  0
VISUALSTYLE
  5
38
102
{ACAD_REACTORS
330
2A
102
}
330
2A
100
AcDbVisualStyle
  2
Linepattern
 70
    14
177
     3
291
     1
 70
    58
 90
        2
176
     1
 90
        2
176
     1
 90
        0
176
     1
 90
        0
176
     1
 40
0.6
176
     1
 40
30.0
176
     1
 62
     7
420
 16777215
176
     1
 90
        1
176
     1
 90
        4
176
     1
 62
     7
176
     1
 62
   257
176
     1
 90
        7
176
     1
 90
        7
176
     1
 40
1.0
176
     1
 90
        8
176
     1
 62
     7
176
     1
 40
1.0
176
     1
 90
        1
176
     1
 90
        6
176
     1
 90
        2
176
     1
 62
     7
176
     1
 90
        5
176
     1
 90
        0
176
     1
 90
        0
176
     1
290
     0
176
     1
 90
        1
176
     1
 40
0.0
176
     1
 90
        0
176
     1
290
     0
176
     1
290
     1
176
     1
290
     1
176
     1
290
     0
176
     1
290
     0
176
     1
290
     0
176
     1
290
     0
176
     1
290
     0
176
     1
290
     0
176
     1
 90
       50
176
     1
 40
0.0
176
     1
 40
1.0
176
     1
 90
        0
176
     1
 62
    18
420
        0
176
     1
 90
       50
176
     1
 90
        3
176
     1
 62
     5
420
      255
176
     1
290
     0
176
     1
 90
       50
176
     1
 90
       50
176
     1
 90
       50
176
     1
290
     0
176
     1
 90
       50
176
     1
 62
   256
176
     0
 40
1.0
176
     0
 90
        2
176
     1
  1
strokes_ogs.tif
176
     1
290
     0
176
     1
 40
1.0
176
     1
 40
1.0
176
     1
  0
VISUALSTYLE
  5
3C
102
{ACAD_REACTORS
330
2A
102
}
330
2A
100
AcDbVisualStyle
  2
OverhangOff
 70
    21
177
     3
291
     1
 70
    58
 90
        2
176
     0
 90
        2
176
     0
 90
        0
176
     0
 90
        0
176
     0
 40
0.6
176
     0
 40
30.0
176
     0
 62
     7
420
 16777215
176
     0
 90
        1
176
     0
 90
        4
176
     0
 62
     7
176
     0
 62
   257
176
     0
 90
        1
176
     0
 90
        1
176
     0
 40
1.0
176
     0
 90
        9
176
     2
 62
     7
176
     0
 40
1.0
176
     0
 90
        1
176
     0
 90
        6
176
     0
 90
        2
176
     0
 62
     7
176
     0
 90
        5
176
     0
 90
        0
176
     0
 90
        0
176
     0
290
     0
176
     0
 90
        1
176
     0
 40
0.0
176
     0
 90
        0
176
     0
290
     0
176
     0
290
     1
176
     0
290
     1
176
     0
290
     0
176
     0
290
     0
176
     0
290
     0
176
     0
290
     0
176
     0
290
     0
176
     0
290
     0
176
     0
 90
       50
176
     0
 40
0.0
176
     0
 40
1.0
176
     0
 90
        0
176
     0
 62
    18
420
        0
176
     0
 90
       50
176
     0
 90
        3
176
     0
 62
     5
420
      255
176
     0
290
     0
176
     0
 90
       50
176
     0
 90
       50
176
     0
 90
       50
176
     0
290
     0
176
     0
 90
       50
176
     0
 62
   256
176
     0
 40
1.0
176
     0
 90
        2
176
     0
  1
strokes_ogs.tif
176
     0
290
     0
176
     0
 40
1.0
176
     0
 40
1.0
176
     0
  0
VISUALSTYLE
  5
33
102
{ACAD_REACTORS
330
2A
102
}
330
2A
100
AcDbVisualStyle
  2
Realistic
 70
     8
177
     3
291
     0
 70
    58
 90
        2
176
     1
 90
        3
176
     1
 90
        0
176
     1
 90
        2
176
     1
 40
0.6
176
     1
 40
30.0
176
     1
 62
     7
420
 16777215
176
     1
 90
        0
176
     1
 90
        0
176
     1
 62
     7
176
     1
 62
   257
176
     1
 90
        1
176
     1
 90
        1
176
     1
 40
1.0
176
     1
 90
        8
176
     1
 62
   257
176
     1
 40
1.0
176
     1
 90
        1
176
     1
 90
        6
176
     1
 90
        2
176
     1
 62
     7
176
     1
 90
        3
176
     1
 90
        0
176
     1
 90
        0
176
     1
290
     0
176
     1
 90
       13
176
     1
 40
0.0
176
     1
 90
        0
176
     1
290
     0
176
     1
290
     1
176
     1
290
     1
176
     1
290
     0
176
     1
290
     0
176
     1
290
     0
176
     1
290
     0
176
     1
290
     0
176
     1
290
     0
176
     1
 90
       50
176
     1
 40
0.0
176
     1
 40
1.0
176
     1
 90
        0
176
     1
 62
    18
420
        0
176
     1
 90
       50
176
     1
 90
        3
176
     1
 62
     5
420
      255
176
     1
290
     0
176
     1
 90
       50
176
     1
 90
       50
176
     1
 90
       50
176
     1
290
     0
176
     1
 90
       50
176
     1
 62
   256
176
     0
 40
1.0
176
     0
 90
        2
176
     1
  1
strokes_ogs.tif
176
     1
290
     0
176
     1
 40
1.0
176
     1
 40
1.0
176
     1
  0
VISUALSTYLE
  5
42
102
{ACAD_REACTORS
330
2A
102
}
330
2A
100
AcDbVisualStyle
  2
Shaded
 70
    27
177
     3
291
     0
 70
    58
 90
        2
176
     1
 90
        2
176
     1
 90
        1
176
     1
 90
        2
176
     1
 40
0.6
176
     1
 40
30.0
176
     1
 62
     7
420
 16777215
176
     1
 90
        0
176
     1
 90
        4
176
     1
 62
     7
176
     1
 62
   257
176
     1
 90
        1
176
     1
 90
        1
176
     1
 40
1.0
176
     1
 90
        8
176
     1
 62
   257
176
     1
 40
1.0
176
     1
 90
        1
176
     1
 90
        6
176
     1
 90
        2
176
     1
 62
     8
420
  7895160
176
     1
 90
        3
176
     1
 90
        0
176
     1
 90
        0
176
     1
290
     0
176
     1
 90
        5
176
     1
 40
0.0
176
     1
 90
        0
176
     1
290
     0
176
     1
290
     1
176
     1
290
     1
176
     1
290
     0
176
     1
290
     0
176
     1
290
     0
176
     1
290
     0
176
     1
290
     0
176
     1
290
     0
176
     1
 90
       50
176
     1
 40
0.0
176
     1
 40
1.0
176
     1
 90
        0
176
     1
 62
    18
420
        0
176
     1
 90
       50
176
     1
 90
        3
176
     1
 62
     5
420
      255
176
     1
290
     0
176
     1
 90
       50
176
     1
 90
       50
176
     1
 90
       50
176
     1
290
     0
176
     1
 90
       50
176
     1
 62
   256
176
     0
 40
1.0
176
     0
 90
        2
176
     1
  1
strokes_ogs.tif
176
     1
290
     0
176
     1
 40
1.0
176
     1
 40
1.0
176
     1
  0
VISUALSTYLE
  5
41
102
{ACAD_REACTORS
330
2A
102
}
330
2A
100
AcDbVisualStyle
  2
Shaded with edges
 70
    26
177
     3
291
     0
 70
    58
 90
        2
176
     1
 90
        2
176
     1
 90
        1
176
     1
 90
        2
176
     1
 40
0.6
176
     1
 40
30.0
176
     1
 62
     7
420
 16777215
176
     1
 90
        1
176
     1
 90
       10
176
     1
 62
     7
176
     1
 62
   257
176
     1
 90
        2
176
     1
 90
        1
176
     1
 40
1.0
176
     1
 90
        8
176
     1
 62
   257
176
     1
 40
1.0
176
     1
 90
        1
176
     1
 90
        6
176
     1
 90
        2
176
     1
 62
     7
176
     1
 90
        3
176
     1
 90
        0
176
     1
 90
        0
176
     1
290
     0
176
     1
 90
        5
176
     1
 40
0.0
176
     1
 90
        0
176
     1
290
     0
176
     1
290
     1
176
     1
290
     1
176
     1
290
     0
176
     1
290
     0
176
     1
290
     0
176
     1
290
     0
176
     1
290
     0
176
     1
290
     0
176
     1
 90
       50
176
     1
 40
0.0
176
     1
 40
1.0
176
     1
 90
        0
176
     1
 62
    18
420
        0
176
     1
 90
       50
176
     1
 90
        3
176
     1
 62
     5
420
      255
176
     1
290
     0
176
     1
 90
       50
176
     1
 90
       50
176
     1
 90
       50
176
     1
290
     0
176
     1
 90
       50
176
     1
 62
   256
176
     0
 40
1.0
176
     0
 90
        2
176
     1
  1
strokes_ogs.tif
176
     1
290
     0
176
     1
 40
1.0
176
     1
 40
1.0
176
     1
  0
VISUALSTYLE
  5
3E
102
{ACAD_REACTORS
330
2A
102
}
330
2A
100
AcDbVisualStyle
  2
Shades of Gray
 70
    23
177
     3
291
     0
 70
    58
 90
        2
176
     1
 90
        2
176
     1
 90
        3
176
     1
 90
        0
176
     1
 40
0.6
176
     1
 40
30.0
176
     1
 62
     7
420
 16777215
176
     1
 90
        2
176
     1
 90
        2
176
     1
 62
     7
176
     1
 62
     7
176
     1
 90
        1
176
     1
 90
        1
176
     1
 40
40.0
176
     1
 90
        8
176
     1
 62
     7
176
     1
 40
1.0
176
     1
 90
        1
176
     1
 90
        6
176
     1
 90
        2
176
     1
 62
     7
176
     1
 90
        3
176
     1
 90
        0
176
     1
 90
        0
176
     1
290
     0
176
     1
 90
        1
176
     1
 40
0.0
176
     1
 90
        0
176
     1
290
     0
176
     1
290
     1
176
     1
290
     1
176
     1
290
     0
176
     1
290
     0
176
     1
290
     0
176
     1
290
     0
176
     1
290
     0
176
     1
290
     0
176
     1
 90
       50
176
     1
 40
0.0
176
     1
 40
1.0
176
     1
 90
        0
176
     1
 62
    18
420
        0
176
     1
 90
       50
176
     1
 90
        3
176
     1
 62
     5
420
      255
176
     1
290
     0
176
     1
 90
       50
176
     1
 90
       50
176
     1
 90
       50
176
     1
290
     0
176
     1
 90
       50
176
     1
 62
   256
176
     0
 40
1.0
176
     0
 90
        2
176
     1
  1
strokes_ogs.tif
176
     1
290
     0
176
     1
 40
1.0
176
     1
 40
1.0
176
     1
  0
VISUALSTYLE
  5
3F
102
{ACAD_REACTORS
330
2A
102
}
330
2A
100
AcDbVisualStyle
  2
Sketchy
 70
    24
177
     3
291
     0
 70
    58
 90
        1
176
     1
 90
        2
176
     1
 90
        2
176
     1
 90
        0
176
     1
 40
0.6
176
     1
 40
30.0
176
     1
 62
     7
420
 16777215
176
     1
 90
        2
176
     1
 90
        2
176
     1
 62
     7
176
     1
 62
     7
176
     1
 90
        1
176
     1
 90
        1
176
     1
 40
40.0
176
     1
 90
       11
176
     1
 62
     7
176
     1
 40
1.0
176
     1
 90
        1
176
     1
 90
        6
176
     1
 90
        2
176
     1
 62
     7
176
     1
 90
        6
176
     1
 90
        0
176
     1
 90
        0
176
     1
290
     0
176
     1
 90
        1
176
     1
 40
0.0
176
     1
 90
        0
176
     1
290
     0
176
     1
290
     1
176
     1
290
     1
176
     1
290
     0
176
     1
290
     0
176
     1
290
     0
176
     1
290
     0
176
     1
290
     0
176
     1
290
     0
176
     1
 90
       50
176
     1
 40
0.0
176
     1
 40
1.0
176
     1
 90
        0
176
     1
 62
    18
420
        0
176
     1
 90
       50
176
     1
 90
        3
176
     1
 62
     5
420
      255
176
     1
290
     0
176
     1
 90
       50
176
     1
 90
       50
176
     1
 90
       50
176
     1
290
     0
176
     1
 90
       50
176
     1
 62
   256
176
     0
 40
1.0
176
     0
 90
        2
176
     1
  1
strokes_ogs.tif
176
     1
290
     0
176
     1
 40
1.0
176
     1
 40
1.0
176
     1
  0
VISUALSTYLE
  5
37
102
{ACAD_REACTORS
330
2A
102
}
330
2A
100
AcDbVisualStyle
  2
Thicken
 70
    13
177
     3
291
     1
 70
    58
 90
        2
176
     1
 90
        2
176
     1
 90
        0
176
     1
 90
        0
176
     1
 40
0.6
176
     1
 40
30.0
176
     1
 62
     7
420
 16777215
176
     1
 90
        1
176
     1
 90
        4
176
     1
 62
     7
176
     1
 62
   257
176
     1
 90
        1
176
     1
 90
        1
176
     1
 40
1.0
176
     1
 90
       12
176
     1
 62
     7
176
     1
 40
1.0
176
     1
 90
        1
176
     1
 90
        6
176
     1
 90
        2
176
     1
 62
     7
176
     1
 90
        5
176
     1
 90
        0
176
     1
 90
        0
176
     1
290
     0
176
     1
 90
        1
176
     1
 40
0.0
176
     1
 90
        0
176
     1
290
     0
176
     1
290
     1
176
     1
290
     1
176
     1
290
     0
176
     1
290
     0
176
     1
290
     0
176
     1
290
     0
176
     1
290
     0
176
     1
290
     0
176
     1
 90
       50
176
     1
 40
0.0
176
     1
 40
1.0
176
     1
 90
        0
176
     1
 62
    18
420
        0
176
     1
 90
       50
176
     1
 90
        3
176
     1
 62
     5
420
      255
176
     1
290
     0
176
     1
 90
       50
176
     1
 90
       50
176
     1
 90
       50
176
     1
290
     0
176
     1
 90
       50
176
     1
 62
   256
176
     0
 40
1.0
176
     0
 90
        2
176
     1
  1
strokes_ogs.tif
176
     1
290
     0
176
     1
 40
1.0
176
     1
 40
1.0
176
     1
  0
VISUALSTYLE
  5
30
102
{ACAD_REACTORS
330
2A
102
}
330
2A
100
AcDbVisualStyle
  2
Wireframe
 70
     5
177
     3
291
     0
 70
    58
 90
        0
176
     1
 90
        2
176
     1
 90
        0
176
     1
 90
        0
176
     1
 40
0.6
176
     1
 40
30.0
176
     1
 62
     7
420
 16777215
176
     1
 90
        1
176
     1
 90
        4
176
     1
 62
     7
176
     1
 62
   257
176
     1
 90
        1
176
     1
 90
        1
176
     1
 40
1.0
176
     1
 90
        0
176
     1
 62
   257
176
     1
 40
1.0
176
     1
 90
        1
176
     1
 90
        6
176
     1
 90
        2
176
     1
 62
     7
176
     1
 90
        3
176
     1
 90
        0
176
     1
 90
        0
176
     1
290
     0
176
     1
 90
        1
176
     1
 40
0.0
176
     1
 90
        0
176
     1
290
     0
176
     1
290
     1
176
     1
290
     1
176
     1
290
     0
176
     1
290
     0
176
     1
290
     0
176
     1
290
     0
176
     1
290
     0
176
     1
290
     0
176
     1
 90
       50
176
     1
 40
0.0
176
     1
 40
1.0
176
     1
 90
        0
176
     1
 62
    18
420
        0
176
     1
 90
       50
176
     1
 90
        3
176
     1
 62
     5
420
      255
176
     1
290
     0
176
     1
 90
       50
176
     1
 90
       50
176
     1
 90
       50
176
     1
290
     0
176
     1
 90
       50
176
     1
 62
   256
176
     0
 40
1.0
176
     0
 90
        2
176
     1
  1
strokes_ogs.tif
176
     1
290
     0
176
     1
 40
1.0
176
     1
 40
1.0
176
     1
  0
VISUALSTYLE
  5
40
102
{ACAD_REACTORS
330
2A
102
}
330
2A
100
AcDbVisualStyle
  2
X-Ray
 70
    25
177
     3
291
     0
 70
    58
 90
        2
176
     1
 90
        2
176
     1
 90
        1
176
     1
 90
        1
176
     1
 40
0.5
176
     1
 40
30.0
176
     1
 62
     7
420
 16777215
176
     1
 90
        1
176
     1
 90
        0
176
     1
 62
     7
176
     1
 62
   257
176
     1
 90
        1
176
     1
 90
        1
176
     1
 40
1.0
176
     1
 90
        8
176
     1
 62
     7
176
     1
 40
1.0
176
     1
 90
        1
176
     1
 90
        6
176
     1
 90
        2
176
     1
 62
     7
176
     1
 90
        3
176
     1
 90
        0
176
     1
 90
        0
176
     1
290
     0
176
     1
 90
       13
176
     1
 40
0.0
176
     1
 90
        0
176
     1
290
     0
176
     1
290
     1
176
     1
290
     1
176
     1
290
     0
176
     1
290
     0
176
     1
290
     0
176
     1
290
     0
176
     1
290
     0
176
     1
290
     0
176
     1
 90
       50
176
     1
 40
0.0
176
     1
 40
1.0
176
     1
 90
        0
176
     1
 62
    18
420
        0
176
     1
 90
       50
176
     1
 90
        3
176
     1
 62
     5
420
      255
176
     1
290
     0
176
     1
 90
       50
176
     1
 90
       50
176
     1
 90
       50
176
     1
290
     0
176
     1
 90
       50
176
     1
 62
   256
176
     0
 40
1.0
176
     0
 90
        2
176
     1
  1
strokes_ogs.tif
176
     1
290
     0
176
     1
 40
1.0
176
     1
 40
1.0
176
     1
  0
DICTIONARYVAR
  5
409
102
{ACAD_REACTORS
330
408
102
}
330
408
100
DictionaryVariables
280
     0
  1
1:1
  0
DICTIONARYVAR
  5
40E
102
{ACAD_REACTORS
330
408
102
}
330
408
100
DictionaryVariables
280
     0
  1
Standard
  0
DICTIONARYVAR
  5
40D
102
{ACAD_REACTORS
330
408
102
}
330
408
100
DictionaryVariables
280
     0
  1
Standard
  0
DICTIONARYVAR
  5
411
102
{ACAD_REACTORS
330
408
102
}
330
408
100
DictionaryVariables
280
     0
  1
0
  0
DICTIONARY
  5
40A
330
6A
100
AcDbDictionary
280
     1
281
     1
  3
ACAD_ROUNDTRIP_2008_TABLESTYLE_CELLSTYLEMAP
360
40B
  0
CELLSTYLEMAP
  5
40B
102
{ACAD_REACTORS
330
40A
102
}
330
40A
100
AcDbCellStyleMap
 90
        3
300
CELLSTYLE
  1
TABLEFORMAT_BEGIN
 90
        5
170
     1
 91
        0
 92
    32768
 62
   257
 93
        1
300
CONTENTFORMAT
  1
CONTENTFORMAT_BEGIN
 90
        0
 91
        0
 92
        4
 93
        0
300

 40
0.0
140
1.0
 94
        5
 62
     0
340
11
144
0.25
309
CONTENTFORMAT_END
171
     1
301
MARGIN
  1
CELLMARGIN_BEGIN
 40
0.06
 40
0.06
 40
0.06
 40
0.06
 40
0.06
 40
0.06
309
CELLMARGIN_END
 94
        6
 95
        1
302
GRIDFORMAT
  1
GRIDFORMAT_BEGIN
 90
        0
 91
        1
 62
     0
 92
       -2
340
14
 93
        0
 40
0.045
309
GRIDFORMAT_END
 95
        2
302
GRIDFORMAT
  1
GRIDFORMAT_BEGIN
 90
        0
 91
        1
 62
     0
 92
       -2
340
14
 93
        0
 40
0.045
309
GRIDFORMAT_END
 95
        4
302
GRIDFORMAT
  1
GRIDFORMAT_BEGIN
 90
        0
 91
        1
 62
     0
 92
       -2
340
14
 93
        0
 40
0.045
309
GRIDFORMAT_END
 95
        8
302
GRIDFORMAT
  1
GRIDFORMAT_BEGIN
 90
        0
 91
        1
 62
     0
 92
       -2
340
14
 93
        0
 40
0.045
309
GRIDFORMAT_END
 95
       16
302
GRIDFORMAT
  1
GRIDFORMAT_BEGIN
 90
        0
 91
        1
 62
     0
 92
       -2
340
14
 93
        0
 40
0.045
309
GRIDFORMAT_END
 95
       32
302
GRIDFORMAT
  1
GRIDFORMAT_BEGIN
 90
        0
 91
        1
 62
     0
 92
       -2
340
14
 93
        0
 40
0.045
309
GRIDFORMAT_END
309
TABLEFORMAT_END
  1
CELLSTYLE_BEGIN
 90
        1
 91
        1
300
_TITLE
309
CELLSTYLE_END
300
CELLSTYLE
  1
TABLEFORMAT_BEGIN
 90
        5
170
     1
 91
        0
 92
        0
 62
   257
 93
        1
300
CONTENTFORMAT
  1
CONTENTFORMAT_BEGIN
 90
        0
 91
        0
 92
        4
 93
        0
300

 40
0.0
140
1.0
 94
        5
 62
     0
340
11
144
0.18
309
CONTENTFORMAT_END
171
     1
301
MARGIN
  1
CELLMARGIN_BEGIN
 40
0.06
 40
0.06
 40
0.06
 40
0.06
 40
0.06
 40
0.06
309
CELLMARGIN_END
 94
        6
 95
        1
302
GRIDFORMAT
  1
GRIDFORMAT_BEGIN
 90
        0
 91
        1
 62
     0
 92
       -2
340
14
 93
        0
 40
0.045
309
GRIDFORMAT_END
 95
        2
302
GRIDFORMAT
  1
GRIDFORMAT_BEGIN
 90
        0
 91
        1
 62
     0
 92
       -2
340
14
 93
        0
 40
0.045
309
GRIDFORMAT_END
 95
        4
302
GRIDFORMAT
  1
GRIDFORMAT_BEGIN
 90
        0
 91
        1
 62
     0
 92
       -2
340
14
 93
        0
 40
0.045
309
GRIDFORMAT_END
 95
        8
302
GRIDFORMAT
  1
GRIDFORMAT_BEGIN
 90
        0
 91
        1
 62
     0
 92
       -2
340
14
 93
        0
 40
0.045
309
GRIDFORMAT_END
 95
       16
302
GRIDFORMAT
  1
GRIDFORMAT_BEGIN
 90
        0
 91
        1
 62
     0
 92
       -2
340
14
 93
        0
 40
0.045
309
GRIDFORMAT_END
 95
       32
302
GRIDFORMAT
  1
GRIDFORMAT_BEGIN
 90
        0
 91
        1
 62
     0
 92
       -2
340
14
 93
        0
 40
0.045
309
GRIDFORMAT_END
309
TABLEFORMAT_END
  1
CELLSTYLE_BEGIN
 90
        2
 91
        1
300
_HEADER
309
CELLSTYLE_END
300
CELLSTYLE
  1
TABLEFORMAT_BEGIN
 90
        5
170
     1
 91
        0
 92
        0
 62
   257
 93
        1
300
CONTENTFORMAT
  1
CONTENTFORMAT_BEGIN
 90
        0
 91
        0
 92
        4
 93
        0
300

 40
0.0
140
1.0
 94
        2
 62
     0
340
11
144
0.18
309
CONTENTFORMAT_END
171
     1
301
MARGIN
  1
CELLMARGIN_BEGIN
 40
0.06
 40
0.06
 40
0.06
 40
0.06
 40
0.06
 40
0.06
309
CELLMARGIN_END
 94
        6
 95
        1
302
GRIDFORMAT
  1
GRIDFORMAT_BEGIN
 90
        0
 91
        1
 62
     0
 92
       -2
340
14
 93
        0
 40
0.045
309
GRIDFORMAT_END
 95
        2
302
GRIDFORMAT
  1
GRIDFORMAT_BEGIN
 90
        0
 91
        1
 62
     0
 92
       -2
340
14
 93
        0
 40
0.045
309
GRIDFORMAT_END
 95
        4
302
GRIDFORMAT
  1
GRIDFORMAT_BEGIN
 90
        0
 91
        1
 62
     0
 92
       -2
340
14
 93
        0
 40
0.045
309
GRIDFORMAT_END
 95
        8
302
GRIDFORMAT
  1
GRIDFORMAT_BEGIN
 90
        0
 91
        1
 62
     0
 92
       -2
340
14
 93
        0
 40
0.045
309
GRIDFORMAT_END
 95
       16
302
GRIDFORMAT
  1
GRIDFORMAT_BEGIN
 90
        0
 91
        1
 62
     0
 92
       -2
340
14
 93
        0
 40
0.045
309
GRIDFORMAT_END
 95
       32
302
GRIDFORMAT
  1
GRIDFORMAT_BEGIN
 90
        0
 91
        1
 62
     0
 92
       -2
340
14
 93
        0
 40
0.045
309
GRIDFORMAT_END
309
TABLEFORMAT_END
  1
CELLSTYLE_BEGIN
 90
        3
 91
        2
300
_DATA
309
CELLSTYLE_END
  0
ENDSEC
  0
EOF
