  0
SECTION
  2
HEADER
  9
$ACADVER
  1
AC1027
  9
$ACADMAINTVER
 70
   105
  9
$DWGCODEPAGE
  3
ANSI_1252
  9
$REQUIREDVERSIONS
160
                 0
  9
$INSBASE
 10
0.0
 20
0.0
 30
0.0
  9
$EXTMIN
 10
932.6366187272117
 20
-3171.046099581818
 30
0.0
  9
$EXTMAX
 10
1326.636618727215
 20
-2629.046099581818
 30
0.0
  9
$LIMMIN
 10
0.0
 20
0.0
  9
$LIMMAX
 10
12.0
 20
9.0
  9
$ORTHOMODE
 70
     0
  9
$REGENMODE
 70
     1
  9
$FILLMODE
 70
     1
  9
$QTEXTMODE
 70
     0
  9
$MIRRTEXT
 70
     1
  9
$LTSCALE
 40
2.0
  9
$ATTMODE
 70
     1
  9
$TEXTSIZE
 40
0.2
  9
$TRACEWID
 40
0.05
  9
$TEXTSTYLE
  7
Standard
  9
$CLAYER
  8
0
  9
$CELTYPE
  6
ByLayer
  9
$CECOLOR
 62
   256
  9
$CELTSCALE
 40
1.0
  9
$DISPSILH
 70
     0
  9
$DIMSCALE
 40
1.0
  9
$DIMASZ
 40
0.18
  9
$DIMEXO
 40
0.0625
  9
$DIMDLI
 40
0.38
  9
$DIMRND
 40
0.0
  9
$DIMDLE
 40
0.0
  9
$DIMEXE
 40
0.18
  9
$DIMTP
 40
0.0
  9
$DIMTM
 40
0.0
  9
$DIMTXT
 40
0.18
  9
$DIMCEN
 40
0.09
  9
$DIMTSZ
 40
0.0
  9
$DIMTOL
 70
     0
  9
$DIMLIM
 70
     0
  9
$DIMTIH
 70
     1
  9
$DIMTOH
 70
     1
  9
$DIMSE1
 70
     0
  9
$DIMSE2
 70
     0
  9
$DIMTAD
 70
     0
  9
$DIMZIN
 70
     0
  9
$DIMBLK
  1

  9
$DIMASO
 70
     1
  9
$DIMSHO
 70
     1
  9
$DIMPOST
  1

  9
$DIMAPOST
  1

  9
$DIMALT
 70
     0
  9
$DIMALTD
 70
     2
  9
$DIMALTF
 40
25.4
  9
$DIMLFAC
 40
1.0
  9
$DIMTOFL
 70
     1
  9
$DIMTVP
 40
0.0
  9
$DIMTIX
 70
     0
  9
$DIMSOXD
 70
     1
  9
$DIMSAH
 70
     0
  9
$DIMBLK1
  1

  9
$DIMBLK2
  1

  9
$DIMSTYLE
  2
Standard
  9
$DIMCLRD
 70
     0
  9
$DIMCLRE
 70
     0
  9
$DIMCLRT
 70
     0
  9
$DIMTFAC
 40
1.0
  9
$DIMGAP
 40
0.09
  9
$DIMJUST
 70
     0
  9
$DIMSD1
 70
     0
  9
$DIMSD2
 70
     0
  9
$DIMTOLJ
 70
     1
  9
$DIMTZIN
 70
     0
  9
$DIMALTZ
 70
     0
  9
$DIMALTTZ
 70
     0
  9
$DIMUPT
 70
     0
  9
$DIMDEC
 70
     4
  9
$DIMTDEC
 70
     4
  9
$DIMALTU
 70
     2
  9
$DIMALTTD
 70
     2
  9
$DIMTXSTY
  7
Standard
  9
$DIMAUNIT
 70
     0
  9
$DIMADEC
 70
     0
  9
$DIMALTRND
 40
0.0
  9
$DIMAZIN
 70
     0
  9
$DIMDSEP
 70
    46
  9
$DIMATFIT
 70
     3
  9
$DIMFRAC
 70
     0
  9
$DIMLDRBLK
  1

  9
$DIMLUNIT
 70
     2
  9
$DIMLWD
 70
    -2
  9
$DIMLWE
 70
    -2
  9
$DIMTMOVE
 70
     2
  9
$DIMFXL
 40
1.0
  9
$DIMFXLON
 70
     0
  9
$DIMJOGANG
 40
0.7853981633974483
  9
$DIMTFILL
 70
     0
  9
$DIMTFILLCLR
 70
     0
  9
$DIMARCSYM
 70
     0
  9
$DIMLTYPE
  6

  9
$DIMLTEX1
  6

  9
$DIMLTEX2
  6

  9
$DIMTXTDIRECTION
 70
     0
  9
$LUNITS
 70
     2
  9
$LUPREC
 70
     4
  9
$SKETCHINC
 40
0.1
  9
$FILLETRAD
 40
0.5
  9
$AUNITS
 70
     0
  9
$AUPREC
 70
     0
  9
$MENU
  1
.
  9
$ELEVATION
 40
0.0
  9
$PELEVATION
 40
0.0
  9
$THICKNESS
 40
0.0
  9
$LIMCHECK
 70
     0
  9
$CHAMFERA
 40
0.0
  9
$CHAMFERB
 40
0.0
  9
$CHAMFERC
 40
0.0
  9
$CHAMFERD
 40
0.0
  9
$SKPOLY
 70
     0
  9
$TDCREATE
 40
2459196.850157894
  9
$TDUCREATE
 40
2459196.808491227
  9
$TDUPDATE
 40
2459196.85016044
  9
$TDUUPDATE
 40
2459196.808493773
  9
$TDINDWG
 40
0.0000000116
  9
$TDUSRTIMER
 40
0.0000000116
  9
$USRTIMER
 70
     1
  9
$ANGBASE
 50
0.0
  9
$ANGDIR
 70
     0
  9
$PDMODE
 70
     0
  9
$PDSIZE
 40
0.0
  9
$PLINEWID
 40
0.0
  9
$SPLFRAME
 70
     0
  9
$SPLINETYPE
 70
     6
  9
$SPLINESEGS
 70
     8
  9
$HANDSEED
  5
40E
  9
$SURFTAB1
 70
     6
  9
$SURFTAB2
 70
     6
  9
$SURFTYPE
 70
     6
  9
$SURFU
 70
     6
  9
$SURFV
 70
     6
  9
$UCSBASE
  2

  9
$UCSNAME
  2

  9
$UCSORG
 10
0.0
 20
0.0
 30
0.0
  9
$UCSXDIR
 10
1.0
 20
0.0
 30
0.0
  9
$UCSYDIR
 10
0.0
 20
1.0
 30
0.0
  9
$UCSORTHOREF
  2

  9
$UCSORTHOVIEW
 70
     0
  9
$UCSORGTOP
 10
0.0
 20
0.0
 30
0.0
  9
$UCSORGBOTTOM
 10
0.0
 20
0.0
 30
0.0
  9
$UCSORGLEFT
 10
0.0
 20
0.0
 30
0.0
  9
$UCSORGRIGHT
 10
0.0
 20
0.0
 30
0.0
  9
$UCSORGFRONT
 10
0.0
 20
0.0
 30
0.0
  9
$UCSORGBACK
 10
0.0
 20
0.0
 30
0.0
  9
$PUCSBASE
  2

  9
$PUCSNAME
  2

  9
$PUCSORG
 10
0.0
 20
0.0
 30
0.0
  9
$PUCSXDIR
 10
1.0
 20
0.0
 30
0.0
  9
$PUCSYDIR
 10
0.0
 20
1.0
 30
0.0
  9
$PUCSORTHOREF
  2

  9
$PUCSORTHOVIEW
 70
     0
  9
$PUCSORGTOP
 10
0.0
 20
0.0
 30
0.0
  9
$PUCSORGBOTTOM
 10
0.0
 20
0.0
 30
0.0
  9
$PUCSORGLEFT
 10
0.0
 20
0.0
 30
0.0
  9
$PUCSORGRIGHT
 10
0.0
 20
0.0
 30
0.0
  9
$PUCSORGFRONT
 10
0.0
 20
0.0
 30
0.0
  9
$PUCSORGBACK
 10
0.0
 20
0.0
 30
0.0
  9
$USERI1
 70
     0
  9
$USERI2
 70
     0
  9
$USERI3
 70
     0
  9
$USERI4
 70
     0
  9
$USERI5
 70
     0
  9
$USERR1
 40
0.0
  9
$USERR2
 40
0.0
  9
$USERR3
 40
0.0
  9
$USERR4
 40
0.0
  9
$USERR5
 40
0.0
  9
$WORLDVIEW
 70
     1
  9
$SHADEDGE
 70
     3
  9
$SHADEDIF
 70
    70
  9
$TILEMODE
 70
     1
  9
$MAXACTVP
 70
    64
  9
$PINSBASE
 10
0.0
 20
0.0
 30
0.0
  9
$PLIMCHECK
 70
     0
  9
$PEXTMIN
 10
0.0
 20
0.0
 30
0.0
  9
$PEXTMAX
 10
197.6
 20
271.6
 30
0.0
  9
$PLIMMIN
 10
-20.0
 20
-7.5
  9
$PLIMMAX
 10
277.0
 20
202.5
  9
$UNITMODE
 70
     0
  9
$VISRETAIN
 70
     1
  9
$PLINEGEN
 70
     0
  9
$PSLTSCALE
 70
     0
  9
$TREEDEPTH
 70
  3020
  9
$CMLSTYLE
  2
Standard
  9
$CMLJUST
 70
     0
  9
$CMLSCALE
 40
1.0
  9
$PROXYGRAPHICS
 70
     1
  9
$MEASUREMENT
 70
     1
  9
$CELWEIGHT
370
    -1
  9
$ENDCAPS
280
     0
  9
$JOINSTYLE
280
     0
  9
$LWDISPLAY
290
     0
  9
$INSUNITS
 70
     4
  9
$HYPERLINKBASE
  1

  9
$STYLESHEET
  1

  9
$XEDIT
290
     1
  9
$CEPSNTYPE
380
     0
  9
$PSTYLEMODE
290
     0
  9
$FINGERPRINTGUID
  2
{718B7B3F-C81E-4EF7-B309-FAD2D707957F}
  9
$VERSIONGUID
  2
{FAEB1C32-E019-11D5-929B-00C0DF256EC4}
  9
$EXTNAMES
290
     1
  9
$PSVPSCALE
 40
0.0
  9
$OLESTARTUP
290
     0
  9
$SORTENTS
280
   127
  9
$INDEXCTL
280
     0
  9
$HIDETEXT
280
     1
  9
$XCLIPFRAME
280
     2
  9
$HALOGAP
280
     0
  9
$OBSCOLOR
 70
   257
  9
$OBSLTYPE
280
     0
  9
$INTERSECTIONDISPLAY
280
     0
  9
$INTERSECTIONCOLOR
 70
   257
  9
$DIMASSOC
280
     2
  9
$PROJECTNAME
  1

  9
$CAMERADISPLAY
290
     0
  9
$LENSLENGTH
 40
50.0
  9
$CAMERAHEIGHT
 40
0.0
  9
$STEPSPERSEC
 40
2.0
  9
$STEPSIZE
 40
6.0
  9
$3DDWFPREC
 40
2.0
  9
$PSOLWIDTH
 40
0.25
  9
$PSOLHEIGHT
 40
4.0
  9
$LOFTANG1
 40
1.570796326794897
  9
$LOFTANG2
 40
1.570796326794897
  9
$LOFTMAG1
 40
0.0
  9
$LOFTMAG2
 40
0.0
  9
$LOFTPARAM
 70
     7
  9
$LOFTNORMALS
280
     1
  9
$LATITUDE
 40
37.795
  9
$LONGITUDE
 40
-122.394
  9
$NORTHDIRECTION
 40
0.0
  9
$TIMEZONE
 70
 -8000
  9
$LIGHTGLYPHDISPLAY
280
     1
  9
$TILEMODELIGHTSYNCH
280
     1
  9
$CMATERIAL
347
44
  9
$SOLIDHIST
280
     0
  9
$SHOWHIST
280
     1
  9
$DWFFRAME
280
     2
  9
$DGNFRAME
280
     2
  9
$REALWORLDSCALE
290
     1
  9
$INTERFERECOLOR
 62
   256
  9
$CSHADOW
280
     0
  9
$SHADOWPLANELOCATION
 40
0.0
  0
ENDSEC
  0
SECTION
  2
CLASSES
  0
CLASS
  1
ACDBDICTIONARYWDFLT
  2
AcDbDictionaryWithDefault
  3
ObjectDBX Classes
 90
        0
 91
        3
280
     0
281
     0
  0
CLASS
  1
VISUALSTYLE
  2
AcDbVisualStyle
  3
ObjectDBX Classes
 90
     4095
 91
        3
280
     0
281
     0
  0
CLASS
  1
MATERIAL
  2
AcDbMaterial
  3
ObjectDBX Classes
 90
     1153
 91
        3
280
     0
281
     0
  0
CLASS
  1
SCALE
  2
AcDbScale
  3
ObjectDBX Classes
 90
     1153
 91
        3
280
     0
281
     0
  0
CLASS
  1
TABLESTYLE
  2
AcDbTableStyle
  3
ObjectDBX Classes
 90
     4095
 91
        3
280
     0
281
     0
  0
CLASS
  1
MLEADERSTYLE
  2
AcDbMLeaderStyle
  3
ACDB_MLEADERSTYLE_CLASS
 90
     4095
 91
        3
280
     0
281
     0
  0
CLASS
  1
SUN
  2
AcDbSun
  3
SCENEOE
 90
     1153
 91
        3
280
     0
281
     0
  0
CLASS
  1
RASTERVARIABLES
  2
AcDbRasterVariables
  3
ISM
 90
        0
 91
        3
280
     0
281
     0
  0
CLASS
  1
PLOTSETTINGS
  2
AcDbPlotSettings
  3
ObjectDBX Classes
 90
        0
 91
        3
280
     0
281
     0
  0
CLASS
  1
IMAGEDEF
  2
AcDbRasterImageDef
  3
ISM
 90
        0
 91
        3
280
     0
281
     0
  0
CLASS
  1
IMAGE
  2
AcDbRasterImage
  3
ISM
 90
      127
 91
        4
280
     0
281
     1
  0
CLASS
  1
IMAGEDEF_REACTOR
  2
AcDbRasterImageDefReactor
  3
ISM
 90
        1
 91
        3
280
     0
281
     0
  0
CLASS
  1
DICTIONARYVAR
  2
AcDbDictionaryVar
  3
ObjectDBX Classes
 90
        0
 91
        3
280
     0
281
     0
  0
CLASS
  1
CELLSTYLEMAP
  2
AcDbCellStyleMap
  3
ObjectDBX Classes
 90
     1152
 91
        3
280
     0
281
     0
  0
ENDSEC
  0
SECTION
  2
TABLES
  0
TABLE
  2
VPORT
  5
8
330
0
100
AcDbSymbolTable
 70
     1
  0
VPORT
  5
29
330
8
100
AcDbSymbolTableRecord
100
AcDbViewportTableRecord
  2
*Active
 70
     0
 10
0.0
 20
0.0
 11
1.0
 21
1.0
 12
10.42990654205607
 22
4.5
 13
0.0
 23
0.0
 14
0.5
 24
0.5
 15
0.5
 25
0.5
 16
0.0
 26
0.0
 36
1.0
 17
0.0
 27
0.0
 37
0.0
 40
9.0
 41
1.972972972850329
 42
50.0
 43
0.0
 44
0.0
 50
0.0
 51
0.0
 71
     0
 72
   100
 73
     1
 74
     3
 75
     0
 76
     0
 77
     0
 78
     0
281
     0
 65
     1
110
0.0
120
0.0
130
0.0
111
1.0
121
0.0
131
0.0
112
0.0
122
1.0
132
0.0
 79
     0
146
0.0
348
2F
 60
     3
 61
     5
292
     1
282
     1
141
0.0
142
0.0
 63
   250
361
6D
  0
ENDTAB
  0
TABLE
  2
LTYPE
  5
5
330
0
100
AcDbSymbolTable
 70
     2
  0
LTYPE
  5
14
330
5
100
AcDbSymbolTableRecord
100
AcDbLinetypeTableRecord
  2
ByBlock
 70
     0
  3

 72
    65
 73
     0
 40
0.0
  0
LTYPE
  5
15
330
5
100
AcDbSymbolTableRecord
100
AcDbLinetypeTableRecord
  2
ByLayer
 70
     0
  3

 72
    65
 73
     0
 40
0.0
  0
LTYPE
  5
16
330
5
100
AcDbSymbolTableRecord
100
AcDbLinetypeTableRecord
  2
Continuous
 70
     0
  3
Solid line
 72
    65
 73
     0
 40
0.0
  0
LTYPE
  5
182
330
5
100
AcDbSymbolTableRecord
100
AcDbLinetypeTableRecord
  2
CADWORK_3
 70
     0
  3

 72
    65
 73
     2
 40
4.0
 49
2.0
 74
     0
 49
-2.0
 74
     0
  0
ENDTAB
  0
TABLE
  2
LAYER
  5
2
330
0
100
AcDbSymbolTable
 70
    18
  0
LAYER
  5
10
330
2
100
AcDbSymbolTableRecord
100
AcDbLayerTableRecord
  2
0
 70
     0
 62
     7
  6
Continuous
370
    -3
390
F
347
46
348
0
  0
LAYER
  5
70
330
2
100
AcDbSymbolTableRecord
100
AcDbLayerTableRecord
  2
Standard
 70
     0
 62
     7
  6
Continuous
370
    -3
390
F
347
46
348
0
  0
LAYER
  5
71
330
2
100
AcDbSymbolTableRecord
100
AcDbLayerTableRecord
  2
Ech.1_1
 70
     0
 62
     7
  6
Continuous
370
    -3
390
F
347
46
348
0
  0
LAYER
  5
72
330
2
100
AcDbSymbolTableRecord
100
AcDbLayerTableRecord
  2
Ech.1_2
 70
     0
 62
     7
  6
Continuous
370
    -3
390
F
347
46
348
0
  0
LAYER
  5
73
330
2
100
AcDbSymbolTableRecord
100
AcDbLayerTableRecord
  2
Ech.1_5
 70
     0
 62
     7
  6
Continuous
370
    -3
390
F
347
46
348
0
  0
LAYER
  5
74
330
2
100
AcDbSymbolTableRecord
100
AcDbLayerTableRecord
  2
Ech.1_10
 70
     0
 62
     7
  6
Continuous
370
    -3
390
F
347
46
348
0
  0
LAYER
  5
75
330
2
100
AcDbSymbolTableRecord
100
AcDbLayerTableRecord
  2
Ech.1_20
 70
     0
 62
     7
  6
Continuous
370
    -3
390
F
347
46
348
0
  0
LAYER
  5
76
330
2
100
AcDbSymbolTableRecord
100
AcDbLayerTableRecord
  2
Ech.1_25
 70
     0
 62
     7
  6
Continuous
370
    -3
390
F
347
46
348
0
  0
LAYER
  5
77
330
2
100
AcDbSymbolTableRecord
100
AcDbLayerTableRecord
  2
Ech.1_33
 70
     0
 62
     7
  6
Continuous
370
    -3
390
F
347
46
348
0
  0
LAYER
  5
78
330
2
100
AcDbSymbolTableRecord
100
AcDbLayerTableRecord
  2
Ech.1_50
 70
     0
 62
     7
  6
Continuous
370
    -3
390
F
347
46
348
0
  0
LAYER
  5
79
330
2
100
AcDbSymbolTableRecord
100
AcDbLayerTableRecord
  2
Ech.1_75
 70
     0
 62
     7
  6
Continuous
370
    -3
390
F
347
46
348
0
  0
LAYER
  5
7A
330
2
100
AcDbSymbolTableRecord
100
AcDbLayerTableRecord
  2
Ech.1_100
 70
     0
 62
     7
  6
Continuous
370
    -3
390
F
347
46
348
0
  0
LAYER
  5
7B
330
2
100
AcDbSymbolTableRecord
100
AcDbLayerTableRecord
  2
Ech.1_200
 70
     0
 62
     7
  6
Continuous
370
    -3
390
F
347
46
348
0
  0
LAYER
  5
7C
330
2
100
AcDbSymbolTableRecord
100
AcDbLayerTableRecord
  2
Ech.1_500
 70
     0
 62
     7
  6
Continuous
370
    -3
390
F
347
46
348
0
  0
LAYER
  5
7D
330
2
100
AcDbSymbolTableRecord
100
AcDbLayerTableRecord
  2
Ech.1_1000
 70
     0
 62
     7
  6
Continuous
370
    -3
390
F
347
46
348
0
  0
LAYER
  5
7E
330
2
100
AcDbSymbolTableRecord
100
AcDbLayerTableRecord
  2
Cadres traceur
 70
     0
 62
     7
  6
Continuous
370
    -3
390
F
347
46
348
0
  0
LAYER
  5
7F
330
2
100
AcDbSymbolTableRecord
100
AcDbLayerTableRecord
  2
Cadres laser
 70
     0
 62
     7
  6
Continuous
370
    -3
390
F
347
46
348
0
  0
LAYER
  5
80
330
2
100
AcDbSymbolTableRecord
100
AcDbLayerTableRecord
  2
Légende d_aide
 70
     0
 62
     7
  6
Continuous
370
    -3
390
F
347
46
348
0
  0
ENDTAB
  0
TABLE
  2
STYLE
  5
3
330
0
100
AcDbSymbolTable
 70
     9
  0
STYLE
  5
11
330
3
100
AcDbSymbolTableRecord
100
AcDbTextStyleTableRecord
  2
Standard
 70
     0
 40
0.0
 41
1.0
 50
0.0
 71
     0
 42
0.2
  3
txt
  4

  0
STYLE
  5
81
330
3
100
AcDbSymbolTableRecord
100
AcDbTextStyleTableRecord
  2
CwStyleShx
 70
     0
 40
1.0
 41
1.0
 50
0.0
 71
     0
 42
0.2
  3

  4

  0
STYLE
  5
82
330
3
100
AcDbSymbolTableRecord
100
AcDbTextStyleTableRecord
  2
CwStyleShx16
 70
     0
 40
1.0
 41
1.0
 50
0.0
 71
     0
 42
0.2
  3

  4

  0
STYLE
  5
83
330
3
100
AcDbSymbolTableRecord
100
AcDbTextStyleTableRecord
  2
MONOTXT
 70
     0
 40
0.0
 41
1.0
 50
0.0
 71
     0
 42
0.2
  3
MONOTXT
  4

  0
STYLE
  5
84
330
3
100
AcDbSymbolTableRecord
100
AcDbTextStyleTableRecord
  2
SYMAP
 70
     0
 40
1.0
 41
1.0
 50
0.0
 71
     0
 42
0.2
  3
SYMAP
  4

  0
STYLE
  5
85
330
3
100
AcDbSymbolTableRecord
100
AcDbTextStyleTableRecord
  2
CwStyleTtf
 70
     0
 40
1.0
 41
1.0
 50
0.0
 71
     0
 42
0.2
  3
arial.ttf
  4

  0
STYLE
  5
3E4
330
3
100
AcDbSymbolTableRecord
100
AcDbTextStyleTableRecord
  2
arial-
 70
     0
 40
1.0
 41
1.0
 50
0.0
 71
     0
 42
0.2
  3
arial.ttf
  4

1001
ACAD
1000
Arial
1071
        0
  0
STYLE
  5
3E8
330
3
100
AcDbSymbolTableRecord
100
AcDbTextStyleTableRecord
  2
arial-b
 70
     0
 40
1.0
 41
1.0
 50
0.0
 71
     0
 42
0.2
  3
arialbd.ttf
  4

1001
ACAD
1000
Arial
1071
 33554432
  0
STYLE
  5
3EA
330
3
100
AcDbSymbolTableRecord
100
AcDbTextStyleTableRecord
  2
tahoma-b
 70
     0
 40
1.0
 41
1.0
 50
0.0
 71
     0
 42
0.2
  3
tahomabd.ttf
  4

1001
ACAD
1000
Tahoma
1071
 33554432
  0
ENDTAB
  0
TABLE
  2
VIEW
  5
6
330
0
100
AcDbSymbolTable
 70
     0
  0
ENDTAB
  0
TABLE
  2
UCS
  5
7
330
0
100
AcDbSymbolTable
 70
     0
  0
ENDTAB
  0
TABLE
  2
APPID
  5
9
330
0
100
AcDbSymbolTable
 70
     3
  0
APPID
  5
12
330
9
100
AcDbSymbolTableRecord
100
AcDbRegAppTableRecord
  2
ACAD
 70
     0
  0
APPID
  5
6E
330
9
100
AcDbSymbolTableRecord
100
AcDbRegAppTableRecord
  2
Cadwork
 70
     0
  0
APPID
  5
232
330
9
100
AcDbSymbolTableRecord
100
AcDbRegAppTableRecord
  2
PLOTTRANSPARENCY
 70
     0
  0
ENDTAB
  0
TABLE
  2
DIMSTYLE
  5
A
330
0
100
AcDbSymbolTable
 70
     1
100
AcDbDimStyleTable
  0
DIMSTYLE
105
27
330
A
100
AcDbSymbolTableRecord
100
AcDbDimStyleTableRecord
  2
Standard
 70
     0
178
     0
340
11
  0
ENDTAB
  0
TABLE
  2
BLOCK_RECORD
  5
1
330
0
100
AcDbSymbolTable
 70
    69
  0
BLOCK_RECORD
  5
1F
330
1
100
AcDbSymbolTableRecord
100
AcDbBlockTableRecord
  2
*Model_Space
340
22
 70
     0
280
     1
281
     0
  0
BLOCK_RECORD
  5
22D
330
1
100
AcDbSymbolTableRecord
100
AcDbBlockTableRecord
  2
*Paper_Space
340
22E
 70
     0
280
     1
281
     0
  0
BLOCK_RECORD
  5
86
330
1
100
AcDbSymbolTableRecord
100
AcDbBlockTableRecord
  2
CDWK_PTTYP1
340
0
 70
     0
280
     1
281
     1
  0
BLOCK_RECORD
  5
8D
330
1
100
AcDbSymbolTableRecord
100
AcDbBlockTableRecord
  2
CDWK_PTTYP2
340
0
 70
     0
280
     1
281
     1
  0
BLOCK_RECORD
  5
92
330
1
100
AcDbSymbolTableRecord
100
AcDbBlockTableRecord
  2
CDWK_PTTYP4
340
0
 70
     0
280
     1
281
     1
  0
BLOCK_RECORD
  5
96
330
1
100
AcDbSymbolTableRecord
100
AcDbBlockTableRecord
  2
CDWK_PTTYP5
340
0
 70
     0
280
     1
281
     1
  0
BLOCK_RECORD
  5
9F
330
1
100
AcDbSymbolTableRecord
100
AcDbBlockTableRecord
  2
CDWK_PTTYP6
340
0
 70
     0
280
     1
281
     1
  0
BLOCK_RECORD
  5
A7
330
1
100
AcDbSymbolTableRecord
100
AcDbBlockTableRecord
  2
CDWK_PTTYP7
340
0
 70
     0
280
     1
281
     1
  0
BLOCK_RECORD
  5
B0
330
1
100
AcDbSymbolTableRecord
100
AcDbBlockTableRecord
  2
CDWK_PTTYP8
340
0
 70
     0
280
     1
281
     1
  0
BLOCK_RECORD
  5
B4
330
1
100
AcDbSymbolTableRecord
100
AcDbBlockTableRecord
  2
CDWK_PTTYP9
340
0
 70
     0
280
     1
281
     1
  0
BLOCK_RECORD
  5
B9
330
1
100
AcDbSymbolTableRecord
100
AcDbBlockTableRecord
  2
CDWK_PTTYP10
340
0
 70
     0
280
     1
281
     1
  0
BLOCK_RECORD
  5
BD
330
1
100
AcDbSymbolTableRecord
100
AcDbBlockTableRecord
  2
CDWK_PTTYP11
340
0
 70
     0
280
     1
281
     1
  0
BLOCK_RECORD
  5
C2
330
1
100
AcDbSymbolTableRecord
100
AcDbBlockTableRecord
  2
CDWK_PTTYP12
340
0
 70
     0
280
     1
281
     1
  0
BLOCK_RECORD
  5
C7
330
1
100
AcDbSymbolTableRecord
100
AcDbBlockTableRecord
  2
CDWK_PTTYP13
340
0
 70
     0
280
     1
281
     1
  0
BLOCK_RECORD
  5
CD
330
1
100
AcDbSymbolTableRecord
100
AcDbBlockTableRecord
  2
CDWK_PTTYP16
340
0
 70
     0
280
     1
281
     1
  0
BLOCK_RECORD
  5
D4
330
1
100
AcDbSymbolTableRecord
100
AcDbBlockTableRecord
  2
CDWK_PTTYP17
340
0
 70
     0
280
     1
281
     1
  0
BLOCK_RECORD
  5
D9
330
1
100
AcDbSymbolTableRecord
100
AcDbBlockTableRecord
  2
CDWK_PTTYP18
340
0
 70
     0
280
     1
281
     1
  0
BLOCK_RECORD
  5
DE
330
1
100
AcDbSymbolTableRecord
100
AcDbBlockTableRecord
  2
CDWK_PTTYP19
340
0
 70
     0
280
     1
281
     1
  0
BLOCK_RECORD
  5
E4
330
1
100
AcDbSymbolTableRecord
100
AcDbBlockTableRecord
  2
CDWK_PTTYP20
340
0
 70
     0
280
     1
281
     1
  0
BLOCK_RECORD
  5
E9
330
1
100
AcDbSymbolTableRecord
100
AcDbBlockTableRecord
  2
CDWK_PTTYP21
340
0
 70
     0
280
     1
281
     1
  0
BLOCK_RECORD
  5
EE
330
1
100
AcDbSymbolTableRecord
100
AcDbBlockTableRecord
  2
CDWK_PTTYP25
340
0
 70
     0
280
     1
281
     1
  0
BLOCK_RECORD
  5
F5
330
1
100
AcDbSymbolTableRecord
100
AcDbBlockTableRecord
  2
CDWK_PTTYP26
340
0
 70
     0
280
     1
281
     1
  0
BLOCK_RECORD
  5
FC
330
1
100
AcDbSymbolTableRecord
100
AcDbBlockTableRecord
  2
CDWK_PTTYP27
340
0
 70
     0
280
     1
281
     1
  0
BLOCK_RECORD
  5
104
330
1
100
AcDbSymbolTableRecord
100
AcDbBlockTableRecord
  2
CDWK_PTTYP28
340
0
 70
     0
280
     1
281
     1
  0
BLOCK_RECORD
  5
10B
330
1
100
AcDbSymbolTableRecord
100
AcDbBlockTableRecord
  2
CDWK_PTTYP29
340
0
 70
     0
280
     1
281
     1
  0
BLOCK_RECORD
  5
111
330
1
100
AcDbSymbolTableRecord
100
AcDbBlockTableRecord
  2
CDWK_PTTYP30
340
0
 70
     0
280
     1
281
     1
  0
BLOCK_RECORD
  5
118
330
1
100
AcDbSymbolTableRecord
100
AcDbBlockTableRecord
  2
CDWK_PTTYP31
340
0
 70
     0
280
     1
281
     1
  0
BLOCK_RECORD
  5
120
330
1
100
AcDbSymbolTableRecord
100
AcDbBlockTableRecord
  2
CDWK_PTTYP32
340
0
 70
     0
280
     1
281
     1
  0
BLOCK_RECORD
  5
129
330
1
100
AcDbSymbolTableRecord
100
AcDbBlockTableRecord
  2
CDWK_PTTYP33
340
0
 70
     0
280
     1
281
     1
  0
BLOCK_RECORD
  5
12F
330
1
100
AcDbSymbolTableRecord
100
AcDbBlockTableRecord
  2
CDWK_PTTYP34
340
0
 70
     0
280
     1
281
     1
  0
BLOCK_RECORD
  5
135
330
1
100
AcDbSymbolTableRecord
100
AcDbBlockTableRecord
  2
CDWK_PTTYP35
340
0
 70
     0
280
     1
281
     1
  0
BLOCK_RECORD
  5
13B
330
1
100
AcDbSymbolTableRecord
100
AcDbBlockTableRecord
  2
CDWK_PTTYP36
340
0
 70
     0
280
     1
281
     1
  0
BLOCK_RECORD
  5
143
330
1
100
AcDbSymbolTableRecord
100
AcDbBlockTableRecord
  2
CDWK_PTTYP37
340
0
 70
     0
280
     1
281
     1
  0
BLOCK_RECORD
  5
148
330
1
100
AcDbSymbolTableRecord
100
AcDbBlockTableRecord
  2
CDWK_PTTYP38
340
0
 70
     0
280
     1
281
     1
  0
BLOCK_RECORD
  5
14E
330
1
100
AcDbSymbolTableRecord
100
AcDbBlockTableRecord
  2
CDWK_PTTYP41
340
0
 70
     0
280
     1
281
     1
  0
BLOCK_RECORD
  5
158
330
1
100
AcDbSymbolTableRecord
100
AcDbBlockTableRecord
  2
CDWK_PTTYP42
340
0
 70
     0
280
     1
281
     1
  0
BLOCK_RECORD
  5
161
330
1
100
AcDbSymbolTableRecord
100
AcDbBlockTableRecord
  2
CDWK_PTTYP43
340
0
 70
     0
280
     1
281
     1
  0
BLOCK_RECORD
  5
167
330
1
100
AcDbSymbolTableRecord
100
AcDbBlockTableRecord
  2
CDWK_PTTYP44
340
0
 70
     0
280
     1
281
     1
  0
BLOCK_RECORD
  5
170
330
1
100
AcDbSymbolTableRecord
100
AcDbBlockTableRecord
  2
CDWK_PTTYP45
340
0
 70
     0
280
     1
281
     1
  0
BLOCK_RECORD
  5
175
330
1
100
AcDbSymbolTableRecord
100
AcDbBlockTableRecord
  2
CDWK_PTTYP46
340
0
 70
     0
280
     1
281
     1
  0
BLOCK_RECORD
  5
17A
330
1
100
AcDbSymbolTableRecord
100
AcDbBlockTableRecord
  2
CDWK_PTTYP47
340
0
 70
     0
280
     1
281
     1
  0
BLOCK_RECORD
  5
183
330
1
100
AcDbSymbolTableRecord
100
AcDbBlockTableRecord
  2
CDWK_PTTYP48
340
0
 70
     0
280
     1
281
     1
  0
BLOCK_RECORD
  5
188
330
1
100
AcDbSymbolTableRecord
100
AcDbBlockTableRecord
  2
CDWK_PTTYP49
340
0
 70
     0
280
     1
281
     1
  0
BLOCK_RECORD
  5
18F
330
1
100
AcDbSymbolTableRecord
100
AcDbBlockTableRecord
  2
CDWK_PTTYP50
340
0
 70
     0
280
     1
281
     1
  0
BLOCK_RECORD
  5
199
330
1
100
AcDbSymbolTableRecord
100
AcDbBlockTableRecord
  2
CDWK_PTTYP51
340
0
 70
     0
280
     1
281
     1
  0
BLOCK_RECORD
  5
19E
330
1
100
AcDbSymbolTableRecord
100
AcDbBlockTableRecord
  2
CDWK_PTTYP52
340
0
 70
     0
280
     1
281
     1
  0
BLOCK_RECORD
  5
1A4
330
1
100
AcDbSymbolTableRecord
100
AcDbBlockTableRecord
  2
cw-dimension-symbol1
340
0
 70
     0
280
     1
281
     0
  0
BLOCK_RECORD
  5
1AB
330
1
100
AcDbSymbolTableRecord
100
AcDbBlockTableRecord
  2
cw-dimension-symbol2
340
0
 70
     0
280
     1
281
     0
  0
BLOCK_RECORD
  5
1B0
330
1
100
AcDbSymbolTableRecord
100
AcDbBlockTableRecord
  2
cw-dimension-symbol3
340
0
 70
     0
280
     1
281
     0
  0
BLOCK_RECORD
  5
1B5
330
1
100
AcDbSymbolTableRecord
100
AcDbBlockTableRecord
  2
cw-dimension-symbol5
340
0
 70
     0
280
     1
281
     0
  0
BLOCK_RECORD
  5
1BC
330
1
100
AcDbSymbolTableRecord
100
AcDbBlockTableRecord
  2
cw-dimension-symbol6
340
0
 70
     0
280
     1
281
     0
  0
BLOCK_RECORD
  5
1C2
330
1
100
AcDbSymbolTableRecord
100
AcDbBlockTableRecord
  2
cw-dimension-symbol11
340
0
 70
     0
280
     1
281
     0
  0
BLOCK_RECORD
  5
1C8
330
1
100
AcDbSymbolTableRecord
100
AcDbBlockTableRecord
  2
cw-dimension-symbol13
340
0
 70
     0
280
     1
281
     0
  0
BLOCK_RECORD
  5
1CE
330
1
100
AcDbSymbolTableRecord
100
AcDbBlockTableRecord
  2
cw-dimension-symbol15
340
0
 70
     0
280
     1
281
     0
  0
BLOCK_RECORD
  5
1D5
330
1
100
AcDbSymbolTableRecord
100
AcDbBlockTableRecord
  2
cw-dimension-symbol16
340
0
 70
     0
280
     1
281
     0
  0
BLOCK_RECORD
  5
1DC
330
1
100
AcDbSymbolTableRecord
100
AcDbBlockTableRecord
  2
cw-dimension-symbol17
340
0
 70
     0
280
     1
281
     0
  0
BLOCK_RECORD
  5
1E3
330
1
100
AcDbSymbolTableRecord
100
AcDbBlockTableRecord
  2
cw-dimension-symbol18
340
0
 70
     0
280
     1
281
     0
  0
BLOCK_RECORD
  5
1EA
330
1
100
AcDbSymbolTableRecord
100
AcDbBlockTableRecord
  2
cw-dimension-symbol19
340
0
 70
     0
280
     1
281
     0
  0
BLOCK_RECORD
  5
1ED
330
1
100
AcDbSymbolTableRecord
100
AcDbBlockTableRecord
  2
cw-dimension-symbol20
340
0
 70
     0
280
     1
281
     0
  0
BLOCK_RECORD
  5
1F4
330
1
100
AcDbSymbolTableRecord
100
AcDbBlockTableRecord
  2
cw-dimension-symbol21
340
0
 70
     0
280
     1
281
     0
  0
BLOCK_RECORD
  5
1FB
330
1
100
AcDbSymbolTableRecord
100
AcDbBlockTableRecord
  2
cw-line-extremity0
340
0
 70
     0
280
     1
281
     0
  0
BLOCK_RECORD
  5
1FF
330
1
100
AcDbSymbolTableRecord
100
AcDbBlockTableRecord
  2
cw-line-extremity2
340
0
 70
     0
280
     1
281
     0
  0
BLOCK_RECORD
  5
204
330
1
100
AcDbSymbolTableRecord
100
AcDbBlockTableRecord
  2
cw-line-extremity3
340
0
 70
     0
280
     1
281
     0
  0
BLOCK_RECORD
  5
209
330
1
100
AcDbSymbolTableRecord
100
AcDbBlockTableRecord
  2
cw-line-extremity301
340
0
 70
     0
280
     1
281
     0
  0
BLOCK_RECORD
  5
20B
330
1
100
AcDbSymbolTableRecord
100
AcDbBlockTableRecord
  2
cw-line-extremity4
340
0
102
{BLKREFS
331
23C
331
273
331
275
331
277
331
279
102
}
 70
     0
280
     1
281
     0
  0
BLOCK_RECORD
  5
20D
330
1
100
AcDbSymbolTableRecord
100
AcDbBlockTableRecord
  2
cw-line-extremity5
340
0
 70
     0
280
     1
281
     0
  0
BLOCK_RECORD
  5
20F
330
1
100
AcDbSymbolTableRecord
100
AcDbBlockTableRecord
  2
cw-line-extremity6
340
0
 70
     0
280
     1
281
     0
  0
BLOCK_RECORD
  5
211
330
1
100
AcDbSymbolTableRecord
100
AcDbBlockTableRecord
  2
cw-line-extremity9
340
0
 70
     0
280
     1
281
     0
  0
BLOCK_RECORD
  5
213
330
1
100
AcDbSymbolTableRecord
100
AcDbBlockTableRecord
  2
cw-line-extremity10
340
0
 70
     0
280
     1
281
     0
  0
BLOCK_RECORD
  5
215
330
1
100
AcDbSymbolTableRecord
100
AcDbBlockTableRecord
  2
cw-line-extremity1
340
0
 70
     0
280
     1
281
     0
  0
BLOCK_RECORD
  5
1B
330
1
100
AcDbSymbolTableRecord
100
AcDbBlockTableRecord
  2
*Paper_Space69
340
1E
 70
     0
280
     1
281
     0
  0
ENDTAB
  0
ENDSEC
  0
SECTION
  2
BLOCKS
  0
BLOCK
  5
20
330
1F
100
AcDbEntity
  8
0
100
AcDbBlockBegin
  2
*Model_Space
 70
     0
 10
0.0
 20
0.0
 30
0.0
  3
*Model_Space
  1

  0
ENDBLK
  5
21
330
1F
100
AcDbEntity
  8
0
100
AcDbBlockEnd
  0
BLOCK
  5
22F
330
22D
100
AcDbEntity
 67
     1
  8
0
100
AcDbBlockBegin
  2
*Paper_Space
 70
     0
 10
0.0
 20
0.0
 30
0.0
  3
*Paper_Space
  1

  0
ENDBLK
  5
230
330
22D
100
AcDbEntity
 67
     1
  8
0
100
AcDbBlockEnd
  0
BLOCK
  5
8B
330
86
100
AcDbEntity
  8
0
100
AcDbBlockBegin
  2
CDWK_PTTYP1
 70
     0
 10
0.0
 20
0.0
 30
0.0
  3
CDWK_PTTYP1
  1

  0
LINE
  5
87
330
86
100
AcDbEntity
  8
0
 62
     0
370
    -2
100
AcDbLine
 10
-0.5
 20
0.5
 30
0.0
 11
0.5
 21
0.5
 31
0.0
  0
LINE
  5
88
330
86
100
AcDbEntity
  8
0
 62
     0
370
    -2
100
AcDbLine
 10
0.5
 20
0.5
 30
0.0
 11
0.5
 21
-0.5
 31
0.0
  0
LINE
  5
89
330
86
100
AcDbEntity
  8
0
 62
     0
370
    -2
100
AcDbLine
 10
0.5
 20
-0.5
 30
0.0
 11
-0.5
 21
-0.5
 31
0.0
  0
LINE
  5
8A
330
86
100
AcDbEntity
  8
0
 62
     0
370
    -2
100
AcDbLine
 10
-0.5
 20
-0.5
 30
0.0
 11
-0.5
 21
0.5
 31
0.0
  0
ENDBLK
  5
8C
330
86
100
AcDbEntity
  8
0
100
AcDbBlockEnd
  0
BLOCK
  5
90
330
8D
100
AcDbEntity
  8
0
100
AcDbBlockBegin
  2
CDWK_PTTYP2
 70
     0
 10
0.0
 20
0.0
 30
0.0
  3
CDWK_PTTYP2
  1

  0
LINE
  5
8E
330
8D
100
AcDbEntity
  8
0
 62
     0
370
    -2
100
AcDbLine
 10
0.0
 20
0.5
 30
0.0
 11
0.0
 21
-0.5
 31
0.0
  0
LINE
  5
8F
330
8D
100
AcDbEntity
  8
0
 62
     0
370
    -2
100
AcDbLine
 10
0.5
 20
0.0
 30
0.0
 11
-0.5
 21
0.0
 31
0.0
  0
ENDBLK
  5
91
330
8D
100
AcDbEntity
  8
0
100
AcDbBlockEnd
  0
BLOCK
  5
94
330
92
100
AcDbEntity
  8
0
100
AcDbBlockBegin
  2
CDWK_PTTYP4
 70
     0
 10
0.0
 20
0.0
 30
0.0
  3
CDWK_PTTYP4
  1

  0
HATCH
  5
93
330
92
100
AcDbEntity
  8
0
 62
     0
370
    -2
100
AcDbHatch
 10
0.0
 20
0.0
 30
0.0
210
0.0
220
0.0
230
1.0
  2
SOLID
 70
     1
 71
     1
 91
        1
 92
        1
 93
        1
 72
     2
 10
0.0
 20
0.0
 40
0.5
 50
0.0
 51
360.0
 73
     1
 97
        0
 75
     0
 76
     1
 98
        0
  0
ENDBLK
  5
95
330
92
100
AcDbEntity
  8
0
100
AcDbBlockEnd
  0
BLOCK
  5
9D
330
96
100
AcDbEntity
  8
0
100
AcDbBlockBegin
  2
CDWK_PTTYP5
 70
     0
 10
0.0
 20
0.0
 30
0.0
  3
CDWK_PTTYP5
  1

  0
LINE
  5
97
330
96
100
AcDbEntity
  8
0
 62
     0
370
    -2
100
AcDbLine
 10
-0.5
 20
0.5
 30
0.0
 11
0.5
 21
0.5
 31
0.0
  0
LINE
  5
98
330
96
100
AcDbEntity
  8
0
 62
     0
370
    -2
100
AcDbLine
 10
0.5
 20
0.5
 30
0.0
 11
0.5
 21
-0.5
 31
0.0
  0
LINE
  5
99
330
96
100
AcDbEntity
  8
0
 62
     0
370
    -2
100
AcDbLine
 10
0.5
 20
-0.5
 30
0.0
 11
-0.5
 21
-0.5
 31
0.0
  0
LINE
  5
9A
330
96
100
AcDbEntity
  8
0
 62
     0
370
    -2
100
AcDbLine
 10
-0.5
 20
-0.5
 30
0.0
 11
-0.5
 21
0.5
 31
0.0
  0
HATCH
  5
9B
330
96
100
AcDbEntity
  8
0
 62
     0
370
    -2
100
AcDbHatch
 10
0.0
 20
0.0
 30
0.0
210
0.0
220
0.0
230
1.0
  2
SOLID
 70
     1
 71
     1
 91
        1
 92
        3
 72
     0
 73
     1
 93
        4
 10
-0.5
 20
0.0
 10
0.0
 20
0.0
 10
0.0
 20
-0.5
 10
-0.5
 20
-0.5
 97
        0
 75
     0
 76
     1
 98
        0
  0
HATCH
  5
9C
330
96
100
AcDbEntity
  8
0
 62
     0
370
    -2
100
AcDbHatch
 10
0.0
 20
0.0
 30
0.0
210
0.0
220
0.0
230
1.0
  2
SOLID
 70
     1
 71
     1
 91
        1
 92
        3
 72
     0
 73
     1
 93
        4
 10
0.0
 20
0.0
 10
0.5
 20
0.0
 10
0.5
 20
0.5
 10
0.0
 20
0.5
 97
        0
 75
     0
 76
     1
 98
        0
  0
ENDBLK
  5
9E
330
96
100
AcDbEntity
  8
0
100
AcDbBlockEnd
  0
BLOCK
  5
A5
330
9F
100
AcDbEntity
  8
0
100
AcDbBlockBegin
  2
CDWK_PTTYP6
 70
     0
 10
0.0
 20
0.0
 30
0.0
  3
CDWK_PTTYP6
  1

  0
LINE
  5
A0
330
9F
100
AcDbEntity
  8
0
 62
     0
370
    -2
100
AcDbLine
 10
-0.5
 20
0.5
 30
0.0
 11
0.5
 21
0.5
 31
0.0
  0
LINE
  5
A1
330
9F
100
AcDbEntity
  8
0
 62
     0
370
    -2
100
AcDbLine
 10
0.5
 20
0.5
 30
0.0
 11
0.5
 21
-0.5
 31
0.0
  0
LINE
  5
A2
330
9F
100
AcDbEntity
  8
0
 62
     0
370
    -2
100
AcDbLine
 10
0.5
 20
-0.5
 30
0.0
 11
-0.5
 21
-0.5
 31
0.0
  0
LINE
  5
A3
330
9F
100
AcDbEntity
  8
0
 62
     0
370
    -2
100
AcDbLine
 10
-0.5
 20
-0.5
 30
0.0
 11
-0.5
 21
0.5
 31
0.0
  0
HATCH
  5
A4
330
9F
100
AcDbEntity
  8
0
 62
     0
370
    -2
100
AcDbHatch
 10
0.0
 20
0.0
 30
0.0
210
0.0
220
0.0
230
1.0
  2
SOLID
 70
     1
 71
     1
 91
        1
 92
        3
 72
     0
 73
     1
 93
        3
 10
-0.5
 20
-0.5
 10
-0.5
 20
0.5
 10
0.5
 20
0.5
 97
        0
 75
     0
 76
     1
 98
        0
  0
ENDBLK
  5
A6
330
9F
100
AcDbEntity
  8
0
100
AcDbBlockEnd
  0
BLOCK
  5
AE
330
A7
100
AcDbEntity
  8
0
100
AcDbBlockBegin
  2
CDWK_PTTYP7
 70
     0
 10
0.0
 20
0.0
 30
0.0
  3
CDWK_PTTYP7
  1

  0
LINE
  5
A8
330
A7
100
AcDbEntity
  8
0
 62
     0
370
    -2
100
AcDbLine
 10
-0.5
 20
0.5
 30
0.0
 11
0.5
 21
0.5
 31
0.0
  0
LINE
  5
A9
330
A7
100
AcDbEntity
  8
0
 62
     0
370
    -2
100
AcDbLine
 10
0.5
 20
0.5
 30
0.0
 11
0.5
 21
-0.5
 31
0.0
  0
LINE
  5
AA
330
A7
100
AcDbEntity
  8
0
 62
     0
370
    -2
100
AcDbLine
 10
0.5
 20
-0.5
 30
0.0
 11
-0.5
 21
-0.5
 31
0.0
  0
LINE
  5
AB
330
A7
100
AcDbEntity
  8
0
 62
     0
370
    -2
100
AcDbLine
 10
-0.5
 20
-0.5
 30
0.0
 11
-0.5
 21
0.5
 31
0.0
  0
LINE
  5
AC
330
A7
100
AcDbEntity
  8
0
 62
     0
370
    -2
100
AcDbLine
 10
0.0
 20
0.5
 30
0.0
 11
0.0
 21
-0.5
 31
0.0
  0
LINE
  5
AD
330
A7
100
AcDbEntity
  8
0
 62
     0
370
    -2
100
AcDbLine
 10
0.5
 20
0.0
 30
0.0
 11
-0.5
 21
0.0
 31
0.0
  0
ENDBLK
  5
AF
330
A7
100
AcDbEntity
  8
0
100
AcDbBlockEnd
  0
BLOCK
  5
B2
330
B0
100
AcDbEntity
  8
0
100
AcDbBlockBegin
  2
CDWK_PTTYP8
 70
     0
 10
0.0
 20
0.0
 30
0.0
  3
CDWK_PTTYP8
  1

  0
HATCH
  5
B1
330
B0
100
AcDbEntity
  8
0
 62
     0
370
    -2
100
AcDbHatch
 10
0.0
 20
0.0
 30
0.0
210
0.0
220
0.0
230
1.0
  2
SOLID
 70
     1
 71
     1
 91
        1
 92
        3
 72
     0
 73
     1
 93
        4
 10
0.5
 20
0.5
 10
0.5
 20
-0.5
 10
-0.5
 20
-0.5
 10
-0.5
 20
0.5
 97
        0
 75
     0
 76
     1
 98
        0
  0
ENDBLK
  5
B3
330
B0
100
AcDbEntity
  8
0
100
AcDbBlockEnd
  0
BLOCK
  5
B7
330
B4
100
AcDbEntity
  8
0
100
AcDbBlockBegin
  2
CDWK_PTTYP9
 70
     0
 10
0.0
 20
0.0
 30
0.0
  3
CDWK_PTTYP9
  1

  0
CIRCLE
  5
B5
330
B4
100
AcDbEntity
  8
0
 62
     0
370
    -2
100
AcDbCircle
 10
0.0
 20
0.0
 30
0.0
 40
0.1666666666666667
  0
CIRCLE
  5
B6
330
B4
100
AcDbEntity
  8
0
 62
     0
370
    -2
100
AcDbCircle
 10
0.0
 20
0.0
 30
0.0
 40
0.5
  0
ENDBLK
  5
B8
330
B4
100
AcDbEntity
  8
0
100
AcDbBlockEnd
  0
BLOCK
  5
BB
330
B9
100
AcDbEntity
  8
0
100
AcDbBlockBegin
  2
CDWK_PTTYP10
 70
     0
 10
0.0
 20
0.0
 30
0.0
  3
CDWK_PTTYP10
  1

  0
CIRCLE
  5
BA
330
B9
100
AcDbEntity
  8
0
 62
     0
370
    -2
100
AcDbCircle
 10
0.0
 20
0.0
 30
0.0
 40
0.5
  0
ENDBLK
  5
BC
330
B9
100
AcDbEntity
  8
0
100
AcDbBlockEnd
  0
BLOCK
  5
C0
330
BD
100
AcDbEntity
  8
0
100
AcDbBlockBegin
  2
CDWK_PTTYP11
 70
     0
 10
0.0
 20
0.0
 30
0.0
  3
CDWK_PTTYP11
  1

  0
CIRCLE
  5
BE
330
BD
100
AcDbEntity
  8
0
 62
     0
370
    -2
100
AcDbCircle
 10
0.0
 20
0.0
 30
0.0
 40
0.25
  0
CIRCLE
  5
BF
330
BD
100
AcDbEntity
  8
0
 62
     0
370
    -2
100
AcDbCircle
 10
0.0
 20
0.0
 30
0.0
 40
0.5
  0
ENDBLK
  5
C1
330
BD
100
AcDbEntity
  8
0
100
AcDbBlockEnd
  0
BLOCK
  5
C5
330
C2
100
AcDbEntity
  8
0
100
AcDbBlockBegin
  2
CDWK_PTTYP12
 70
     0
 10
0.0
 20
0.0
 30
0.0
  3
CDWK_PTTYP12
  1

  0
CIRCLE
  5
C3
330
C2
100
AcDbEntity
  8
0
 62
     0
370
    -2
100
AcDbCircle
 10
0.25
 20
0.0
 30
0.0
 40
0.25
  0
CIRCLE
  5
C4
330
C2
100
AcDbEntity
  8
0
 62
     0
370
    -2
100
AcDbCircle
 10
0.0
 20
0.0
 30
0.0
 40
0.5
  0
ENDBLK
  5
C6
330
C2
100
AcDbEntity
  8
0
100
AcDbBlockEnd
  0
BLOCK
  5
CB
330
C7
100
AcDbEntity
  8
0
100
AcDbBlockBegin
  2
CDWK_PTTYP13
 70
     0
 10
0.0
 20
0.0
 30
0.0
  3
CDWK_PTTYP13
  1

  0
CIRCLE
  5
C8
330
C7
100
AcDbEntity
  8
0
 62
     0
370
    -2
100
AcDbCircle
 10
-0.25
 20
0.0
 30
0.0
 40
0.25
  0
CIRCLE
  5
C9
330
C7
100
AcDbEntity
  8
0
 62
     0
370
    -2
100
AcDbCircle
 10
0.25
 20
0.0
 30
0.0
 40
0.25
  0
CIRCLE
  5
CA
330
C7
100
AcDbEntity
  8
0
 62
     0
370
    -2
100
AcDbCircle
 10
0.0
 20
0.0
 30
0.0
 40
0.5
  0
ENDBLK
  5
CC
330
C7
100
AcDbEntity
  8
0
100
AcDbBlockEnd
  0
BLOCK
  5
D2
330
CD
100
AcDbEntity
  8
0
100
AcDbBlockBegin
  2
CDWK_PTTYP16
 70
     0
 10
0.0
 20
0.0
 30
0.0
  3
CDWK_PTTYP16
  1

  0
LINE
  5
CE
330
CD
100
AcDbEntity
  8
0
 62
     0
370
    -2
100
AcDbLine
 10
-0.5
 20
-0.289
 30
0.0
 11
0.5
 21
-0.289
 31
0.0
  0
LINE
  5
CF
330
CD
100
AcDbEntity
  8
0
 62
     0
370
    -2
100
AcDbLine
 10
0.5
 20
-0.289
 30
0.0
 11
0.0
 21
0.577
 31
0.0
  0
LINE
  5
D0
330
CD
100
AcDbEntity
  8
0
 62
     0
370
    -2
100
AcDbLine
 10
0.0
 20
0.577
 30
0.0
 11
-0.5
 21
-0.289
 31
0.0
  0
CIRCLE
  5
D1
330
CD
100
AcDbEntity
  8
0
 62
     0
370
    -2
100
AcDbCircle
 10
0.0
 20
0.0
 30
0.0
 40
0.289
  0
ENDBLK
  5
D3
330
CD
100
AcDbEntity
  8
0
100
AcDbBlockEnd
  0
BLOCK
  5
D7
330
D4
100
AcDbEntity
  8
0
100
AcDbBlockBegin
  2
CDWK_PTTYP17
 70
     0
 10
0.0
 20
0.0
 30
0.0
  3
CDWK_PTTYP17
  1

  0
CIRCLE
  5
D5
330
D4
100
AcDbEntity
  8
0
 62
     0
370
    -2
100
AcDbCircle
 10
0.0
 20
0.0
 30
0.0
 40
0.5
  0
HATCH
  5
D6
330
D4
100
AcDbEntity
  8
0
 62
     0
370
    -2
100
AcDbHatch
 10
0.0
 20
0.0
 30
0.0
210
0.0
220
0.0
230
1.0
  2
SOLID
 70
     1
 71
     1
 91
        1
 92
        1
 93
        1
 72
     2
 10
0.0
 20
0.0
 40
0.25
 50
0.0
 51
360.0
 73
     1
 97
        0
 75
     0
 76
     1
 98
        0
  0
ENDBLK
  5
D8
330
D4
100
AcDbEntity
  8
0
100
AcDbBlockEnd
  0
BLOCK
  5
DC
330
D9
100
AcDbEntity
  8
0
100
AcDbBlockBegin
  2
CDWK_PTTYP18
 70
     0
 10
0.0
 20
0.0
 30
0.0
  3
CDWK_PTTYP18
  1

  0
CIRCLE
  5
DA
330
D9
100
AcDbEntity
  8
0
 62
     0
370
    -2
100
AcDbCircle
 10
0.0
 20
0.0
 30
0.0
 40
0.5
  0
CIRCLE
  5
DB
330
D9
100
AcDbEntity
  8
0
 62
     0
370
    -2
100
AcDbCircle
 10
0.0
 20
0.0
 30
0.0
 40
0.208
  0
ENDBLK
  5
DD
330
D9
100
AcDbEntity
  8
0
100
AcDbBlockEnd
  0
BLOCK
  5
E2
330
DE
100
AcDbEntity
  8
0
100
AcDbBlockBegin
  2
CDWK_PTTYP19
 70
     0
 10
0.0
 20
0.0
 30
0.0
  3
CDWK_PTTYP19
  1

  0
CIRCLE
  5
DF
330
DE
100
AcDbEntity
  8
0
 62
     0
370
    -2
100
AcDbCircle
 10
0.0
 20
0.0
 30
0.0
 40
0.25
  0
CIRCLE
  5
E0
330
DE
100
AcDbEntity
  8
0
 62
     0
370
    -2
100
AcDbCircle
 10
0.0
 20
0.0
 30
0.0
 40
0.35
  0
LINE
  5
E1
330
DE
100
AcDbEntity
  8
0
 62
     0
370
    -2
100
AcDbLine
 10
-0.25
 20
0.0
 30
0.0
 11
0.25
 21
0.0
 31
0.0
  0
ENDBLK
  5
E3
330
DE
100
AcDbEntity
  8
0
100
AcDbBlockEnd
  0
BLOCK
  5
E7
330
E4
100
AcDbEntity
  8
0
100
AcDbBlockBegin
  2
CDWK_PTTYP20
 70
     0
 10
0.0
 20
0.0
 30
0.0
  3
CDWK_PTTYP20
  1

  0
CIRCLE
  5
E5
330
E4
100
AcDbEntity
  8
0
 62
     0
370
    -2
100
AcDbCircle
 10
0.0
 20
0.0
 30
0.0
 40
0.3333333333333333
  0
CIRCLE
  5
E6
330
E4
100
AcDbEntity
  8
0
 62
     0
370
    -2
100
AcDbCircle
 10
0.0
 20
0.0
 30
0.0
 40
0.5
  0
ENDBLK
  5
E8
330
E4
100
AcDbEntity
  8
0
100
AcDbBlockEnd
  0
BLOCK
  5
EC
330
E9
100
AcDbEntity
  8
0
100
AcDbBlockBegin
  2
CDWK_PTTYP21
 70
     0
 10
0.0
 20
0.0
 30
0.0
  3
CDWK_PTTYP21
  1

  0
CIRCLE
  5
EA
330
E9
100
AcDbEntity
  8
0
 62
     0
370
    -2
100
AcDbCircle
 10
0.0
 20
0.0
 30
0.0
 40
0.5
  0
LINE
  5
EB
330
E9
100
AcDbEntity
  8
0
 62
     0
370
    -2
100
AcDbLine
 10
-0.5
 20
0.0
 30
0.0
 11
0.5
 21
0.0
 31
0.0
  0
ENDBLK
  5
ED
330
E9
100
AcDbEntity
  8
0
100
AcDbBlockEnd
  0
BLOCK
  5
F3
330
EE
100
AcDbEntity
  8
0
100
AcDbBlockBegin
  2
CDWK_PTTYP25
 70
     0
 10
0.0
 20
0.0
 30
0.0
  3
CDWK_PTTYP25
  1

  0
LINE
  5
EF
330
EE
100
AcDbEntity
  8
0
 62
     0
370
    -2
100
AcDbLine
 10
0.0
 20
0.5
 30
0.0
 11
-0.4330127018922193
 21
-0.25
 31
0.0
  0
LINE
  5
F0
330
EE
100
AcDbEntity
  8
0
 62
     0
370
    -2
100
AcDbLine
 10
-0.4330127018922193
 20
-0.25
 30
0.0
 11
0.4330127018922193
 21
-0.25
 31
0.0
  0
LINE
  5
F1
330
EE
100
AcDbEntity
  8
0
 62
     0
370
    -2
100
AcDbLine
 10
0.4330127018922193
 20
-0.25
 30
0.0
 11
0.0
 21
0.5
 31
0.0
  0
CIRCLE
  5
F2
330
EE
100
AcDbEntity
  8
0
 62
     0
370
    -2
100
AcDbCircle
 10
0.0
 20
0.0
 30
0.0
 40
0.5
  0
ENDBLK
  5
F4
330
EE
100
AcDbEntity
  8
0
100
AcDbBlockEnd
  0
BLOCK
  5
FA
330
F5
100
AcDbEntity
  8
0
100
AcDbBlockBegin
  2
CDWK_PTTYP26
 70
     0
 10
0.0
 20
0.0
 30
0.0
  3
CDWK_PTTYP26
  1

  0
LINE
  5
F6
330
F5
100
AcDbEntity
  8
0
 62
     0
370
    -2
100
AcDbLine
 10
-0.5
 20
-0.289
 30
0.0
 11
0.5
 21
-0.289
 31
0.0
  0
LINE
  5
F7
330
F5
100
AcDbEntity
  8
0
 62
     0
370
    -2
100
AcDbLine
 10
0.5
 20
-0.289
 30
0.0
 11
0.0
 21
0.577
 31
0.0
  0
LINE
  5
F8
330
F5
100
AcDbEntity
  8
0
 62
     0
370
    -2
100
AcDbLine
 10
0.0
 20
0.577
 30
0.0
 11
-0.5
 21
-0.289
 31
0.0
  0
CIRCLE
  5
F9
330
F5
100
AcDbEntity
  8
0
 62
     0
370
    -2
100
AcDbCircle
 10
0.0
 20
0.0
 30
0.0
 40
0.125
  0
ENDBLK
  5
FB
330
F5
100
AcDbEntity
  8
0
100
AcDbBlockEnd
  0
BLOCK
  5
102
330
FC
100
AcDbEntity
  8
0
100
AcDbBlockBegin
  2
CDWK_PTTYP27
 70
     0
 10
0.0
 20
0.0
 30
0.0
  3
CDWK_PTTYP27
  1

  0
LINE
  5
FD
330
FC
100
AcDbEntity
  8
0
 62
     0
370
    -2
100
AcDbLine
 10
0.0
 20
0.5
 30
0.0
 11
-0.4330127018922193
 21
-0.25
 31
0.0
  0
LINE
  5
FE
330
FC
100
AcDbEntity
  8
0
 62
     0
370
    -2
100
AcDbLine
 10
-0.4330127018922193
 20
-0.25
 30
0.0
 11
0.4330127018922193
 21
-0.25
 31
0.0
  0
LINE
  5
FF
330
FC
100
AcDbEntity
  8
0
 62
     0
370
    -2
100
AcDbLine
 10
0.4330127018922193
 20
-0.25
 30
0.0
 11
0.0
 21
0.5
 31
0.0
  0
CIRCLE
  5
100
330
FC
100
AcDbEntity
  8
0
 62
     0
370
    -2
100
AcDbCircle
 10
0.0
 20
0.0
 30
0.0
 40
0.125
  0
CIRCLE
  5
101
330
FC
100
AcDbEntity
  8
0
 62
     0
370
    -2
100
AcDbCircle
 10
0.0
 20
0.0
 30
0.0
 40
0.5
  0
ENDBLK
  5
103
330
FC
100
AcDbEntity
  8
0
100
AcDbBlockEnd
  0
BLOCK
  5
109
330
104
100
AcDbEntity
  8
0
100
AcDbBlockBegin
  2
CDWK_PTTYP28
 70
     0
 10
0.0
 20
0.0
 30
0.0
  3
CDWK_PTTYP28
  1

  0
LINE
  5
105
330
104
100
AcDbEntity
  8
0
 62
     0
370
    -2
100
AcDbLine
 10
-0.5
 20
0.5
 30
0.0
 11
0.5
 21
0.5
 31
0.0
  0
LINE
  5
106
330
104
100
AcDbEntity
  8
0
 62
     0
370
    -2
100
AcDbLine
 10
0.5
 20
0.5
 30
0.0
 11
-0.5
 21
-0.5
 31
0.0
  0
LINE
  5
107
330
104
100
AcDbEntity
  8
0
 62
     0
370
    -2
100
AcDbLine
 10
0.5
 20
-0.5
 30
0.0
 11
-0.5
 21
-0.5
 31
0.0
  0
LINE
  5
108
330
104
100
AcDbEntity
  8
0
 62
     0
370
    -2
100
AcDbLine
 10
-0.5
 20
0.5
 30
0.0
 11
0.5
 21
-0.5
 31
0.0
  0
ENDBLK
  5
10A
330
104
100
AcDbEntity
  8
0
100
AcDbBlockEnd
  0
BLOCK
  5
10F
330
10B
100
AcDbEntity
  8
0
100
AcDbBlockBegin
  2
CDWK_PTTYP29
 70
     0
 10
0.0
 20
0.0
 30
0.0
  3
CDWK_PTTYP29
  1

  0
CIRCLE
  5
10C
330
10B
100
AcDbEntity
  8
0
 62
     0
370
    -2
100
AcDbCircle
 10
0.0
 20
0.0
 30
0.0
 40
0.2
  0
CIRCLE
  5
10D
330
10B
100
AcDbEntity
  8
0
 62
     0
370
    -2
100
AcDbCircle
 10
0.0
 20
0.0
 30
0.0
 40
0.35
  0
CIRCLE
  5
10E
330
10B
100
AcDbEntity
  8
0
 62
     0
370
    -2
100
AcDbCircle
 10
0.0
 20
0.0
 30
0.0
 40
0.5
  0
ENDBLK
  5
110
330
10B
100
AcDbEntity
  8
0
100
AcDbBlockEnd
  0
BLOCK
  5
116
330
111
100
AcDbEntity
  8
0
100
AcDbBlockBegin
  2
CDWK_PTTYP30
 70
     0
 10
0.0
 20
0.0
 30
0.0
  3
CDWK_PTTYP30
  1

  0
LINE
  5
112
330
111
100
AcDbEntity
  8
0
 62
     0
370
    -2
100
AcDbLine
 10
-0.5
 20
0.5
 30
0.0
 11
-0.1
 21
0.1
 31
0.0
  0
LINE
  5
113
330
111
100
AcDbEntity
  8
0
 62
     0
370
    -2
100
AcDbLine
 10
0.5
 20
0.5
 30
0.0
 11
0.1
 21
0.1
 31
0.0
  0
LINE
  5
114
330
111
100
AcDbEntity
  8
0
 62
     0
370
    -2
100
AcDbLine
 10
0.5
 20
-0.5
 30
0.0
 11
0.1
 21
-0.1
 31
0.0
  0
LINE
  5
115
330
111
100
AcDbEntity
  8
0
 62
     0
370
    -2
100
AcDbLine
 10
-0.5
 20
-0.5
 30
0.0
 11
-0.1
 21
-0.1
 31
0.0
  0
ENDBLK
  5
117
330
111
100
AcDbEntity
  8
0
100
AcDbBlockEnd
  0
BLOCK
  5
11E
330
118
100
AcDbEntity
  8
0
100
AcDbBlockBegin
  2
CDWK_PTTYP31
 70
     0
 10
0.0
 20
0.0
 30
0.0
  3
CDWK_PTTYP31
  1

  0
LINE
  5
119
330
118
100
AcDbEntity
  8
0
 62
     0
370
    -2
100
AcDbLine
 10
-0.5
 20
0.0
 30
0.0
 11
-0.1
 21
0.0
 31
0.0
  0
LINE
  5
11A
330
118
100
AcDbEntity
  8
0
 62
     0
370
    -2
100
AcDbLine
 10
0.1
 20
0.0
 30
0.0
 11
0.5
 21
0.0
 31
0.0
  0
LINE
  5
11B
330
118
100
AcDbEntity
  8
0
 62
     0
370
    -2
100
AcDbLine
 10
0.0
 20
0.5
 30
0.0
 11
0.0
 21
0.1
 31
0.0
  0
LINE
  5
11C
330
118
100
AcDbEntity
  8
0
 62
     0
370
    -2
100
AcDbLine
 10
0.0
 20
-0.1
 30
0.0
 11
0.0
 21
-0.5
 31
0.0
  0
CIRCLE
  5
11D
330
118
100
AcDbEntity
  8
0
 62
     0
370
    -2
100
AcDbCircle
 10
0.0
 20
0.0
 30
0.0
 40
0.1
  0
ENDBLK
  5
11F
330
118
100
AcDbEntity
  8
0
100
AcDbBlockEnd
  0
BLOCK
  5
127
330
120
100
AcDbEntity
  8
0
100
AcDbBlockBegin
  2
CDWK_PTTYP32
 70
     0
 10
0.0
 20
0.0
 30
0.0
  3
CDWK_PTTYP32
  1

  0
CIRCLE
  5
121
330
120
100
AcDbEntity
  8
0
 62
     0
370
    -2
100
AcDbCircle
 10
0.0
 20
0.0
 30
0.0
 40
0.2
  0
CIRCLE
  5
122
330
120
100
AcDbEntity
  8
0
 62
     0
370
    -2
100
AcDbCircle
 10
0.0
 20
0.0
 30
0.0
 40
0.5
  0
LINE
  5
123
330
120
100
AcDbEntity
  8
0
 62
     0
370
    -2
100
AcDbLine
 10
0.1414213562373095
 20
0.1414213562373095
 30
0.0
 11
0.3535533905932738
 21
0.3535533905932738
 31
0.0
  0
LINE
  5
124
330
120
100
AcDbEntity
  8
0
 62
     0
370
    -2
100
AcDbLine
 10
-0.1414213562373095
 20
0.1414213562373095
 30
0.0
 11
-0.3535533905932738
 21
0.3535533905932738
 31
0.0
  0
LINE
  5
125
330
120
100
AcDbEntity
  8
0
 62
     0
370
    -2
100
AcDbLine
 10
0.1414213562373095
 20
-0.1414213562373095
 30
0.0
 11
0.3535533905932738
 21
-0.3535533905932738
 31
0.0
  0
LINE
  5
126
330
120
100
AcDbEntity
  8
0
 62
     0
370
    -2
100
AcDbLine
 10
-0.1414213562373095
 20
-0.1414213562373095
 30
0.0
 11
-0.3535533905932738
 21
-0.3535533905932738
 31
0.0
  0
ENDBLK
  5
128
330
120
100
AcDbEntity
  8
0
100
AcDbBlockEnd
  0
BLOCK
  5
12D
330
129
100
AcDbEntity
  8
0
100
AcDbBlockBegin
  2
CDWK_PTTYP33
 70
     0
 10
0.0
 20
0.0
 30
0.0
  3
CDWK_PTTYP33
  1

  0
LINE
  5
12A
330
129
100
AcDbEntity
  8
0
 62
     0
370
    -2
100
AcDbLine
 10
0.0
 20
-0.5
 30
0.0
 11
0.0
 21
0.5
 31
0.0
  0
LINE
  5
12B
330
129
100
AcDbEntity
  8
0
 62
     0
370
    -2
100
AcDbLine
 10
0.5
 20
0.0
 30
0.0
 11
-0.5
 21
0.0
 31
0.0
  0
CIRCLE
  5
12C
330
129
100
AcDbEntity
  8
0
 62
     0
370
    -2
100
AcDbCircle
 10
0.0
 20
0.0
 30
0.0
 40
0.5
  0
ENDBLK
  5
12E
330
129
100
AcDbEntity
  8
0
100
AcDbBlockEnd
  0
BLOCK
  5
133
330
12F
100
AcDbEntity
  8
0
100
AcDbBlockBegin
  2
CDWK_PTTYP34
 70
     0
 10
0.0
 20
0.0
 30
0.0
  3
CDWK_PTTYP34
  1

  0
CIRCLE
  5
130
330
12F
100
AcDbEntity
  8
0
 62
     0
370
    -2
100
AcDbCircle
 10
0.0
 20
0.0
 30
0.0
 40
0.5
  0
LINE
  5
131
330
12F
100
AcDbEntity
  8
0
 62
     0
370
    -2
100
AcDbLine
 10
-0.4
 20
-0.3
 30
0.0
 11
0.3
 21
0.4
 31
0.0
  0
LINE
  5
132
330
12F
100
AcDbEntity
  8
0
 62
     0
370
    -2
100
AcDbLine
 10
-0.3
 20
-0.4
 30
0.0
 11
0.4
 21
0.3
 31
0.0
  0
ENDBLK
  5
134
330
12F
100
AcDbEntity
  8
0
100
AcDbBlockEnd
  0
BLOCK
  5
139
330
135
100
AcDbEntity
  8
0
100
AcDbBlockBegin
  2
CDWK_PTTYP35
 70
     0
 10
0.0
 20
0.0
 30
0.0
  3
CDWK_PTTYP35
  1

  0
LINE
  5
136
330
135
100
AcDbEntity
  8
0
 62
     0
370
    -2
100
AcDbLine
 10
0.0
 20
0.2
 30
0.0
 11
0.0
 21
0.5
 31
0.0
  0
LINE
  5
137
330
135
100
AcDbEntity
  8
0
 62
     0
370
    -2
100
AcDbLine
 10
0.0
 20
-0.2
 30
0.0
 11
0.0
 21
-0.5
 31
0.0
  0
CIRCLE
  5
138
330
135
100
AcDbEntity
  8
0
 62
     0
370
    -2
100
AcDbCircle
 10
0.0
 20
0.0
 30
0.0
 40
0.2
  0
ENDBLK
  5
13A
330
135
100
AcDbEntity
  8
0
100
AcDbBlockEnd
  0
BLOCK
  5
141
330
13B
100
AcDbEntity
  8
0
100
AcDbBlockBegin
  2
CDWK_PTTYP36
 70
     0
 10
0.0
 20
0.0
 30
0.0
  3
CDWK_PTTYP36
  1

  0
LINE
  5
13C
330
13B
100
AcDbEntity
  8
0
 62
     0
370
    -2
100
AcDbLine
 10
-0.5
 20
0.2
 30
0.0
 11
0.5
 21
0.2
 31
0.0
  0
LINE
  5
13D
330
13B
100
AcDbEntity
  8
0
 62
     0
370
    -2
100
AcDbLine
 10
0.5
 20
0.2
 30
0.0
 11
0.5
 21
-0.2
 31
0.0
  0
LINE
  5
13E
330
13B
100
AcDbEntity
  8
0
 62
     0
370
    -2
100
AcDbLine
 10
0.5
 20
-0.2
 30
0.0
 11
-0.5
 21
-0.2
 31
0.0
  0
LINE
  5
13F
330
13B
100
AcDbEntity
  8
0
 62
     0
370
    -2
100
AcDbLine
 10
-0.5
 20
-0.2
 30
0.0
 11
-0.5
 21
0.2
 31
0.0
  0
HATCH
  5
140
330
13B
100
AcDbEntity
  8
0
 62
     0
370
    -2
100
AcDbHatch
 10
0.0
 20
0.0
 30
0.0
210
0.0
220
0.0
230
1.0
  2
SOLID
 70
     1
 71
     1
 91
        1
 92
        3
 72
     0
 73
     1
 93
        3
 10
-0.5
 20
-0.2
 10
0.5
 20
-0.2
 10
0.5
 20
0.2
 97
        0
 75
     0
 76
     1
 98
        0
  0
ENDBLK
  5
142
330
13B
100
AcDbEntity
  8
0
100
AcDbBlockEnd
  0
BLOCK
  5
146
330
143
100
AcDbEntity
  8
0
100
AcDbBlockBegin
  2
CDWK_PTTYP37
 70
     0
 10
0.0
 20
0.0
 30
0.0
  3
CDWK_PTTYP37
  1

  0
HATCH
  5
144
330
143
100
AcDbEntity
  8
0
 62
     0
370
    -2
100
AcDbHatch
 10
0.0
 20
0.0
 30
0.0
210
0.0
220
0.0
230
1.0
  2
SOLID
 70
     1
 71
     1
 91
        1
 92
        3
 72
     0
 73
     1
 93
      202
 10
-0.3535533905932738
 20
-0.3535533905932738
 10
-0.3485533905932738
 20
-0.3535533905932737
 10
-0.3435533905932738
 20
-0.3584836591895546
 10
-0.3385533905932738
 20
-0.3632782236961988
 10
-0.3335533905932738
 20
-0.367942389128785
 10
-0.3285533905932738
 20
-0.372481054046687
 10
-0.3235533905932738
 20
-0.3768987523588579
 10
-0.3185533905932738
 20
-0.3811996897107819
 10
-0.3135533905932738
 20
-0.3853877752881235
 10
-0.3085533905932737
 20
-0.3894666497242888
 10
-0.3035533905932737
 20
-0.3934397096803965
 10
-0.2985533905932737
 20
-0.3973101295704999
 10
-0.2935533905932737
 20
-0.4010808808273714
 10
-0.2885533905932737
 20
-0.4047547490409382
 10
-0.2835533905932737
 20
-0.4083343492496384
 10
-0.2785533905932737
 20
-0.4118221396222626
 10
-0.2735533905932737
 20
-0.4152204337324827
 10
-0.2685533905932737
 20
-0.4185314115988474
 10
-0.2635533905932737
 20
-0.4217571296384408
 10
-0.2585533905932737
 20
-0.4248995296617653
 10
-0.2535533905932737
 20
-0.4279604470190231
 10
-0.2485533905932737
 20
-0.4309416179932669
 10
-0.2435533905932737
 20
-0.4338446865234004
 10
-0.2385533905932737
 20
-0.4366712103293738
 10
-0.2335533905932737
 20
-0.439422666502825
 10
-0.2285533905932737
 20
-0.4421004566186126
 10
-0.2235533905932737
 20
-0.4447059114159811
 10
-0.2185533905932737
 20
-0.4472402950923041
 10
-0.2135533905932737
 20
-0.4497048092473372
 10
-0.2085533905932737
 20
-0.4521005965115692
 10
-0.2035533905932737
 20
-0.4544287438884664
 10
-0.1985533905932736
 20
-0.456690285837111
 10
-0.1935533905932736
 20
-0.45888620711884
 10
-0.1885533905932736
 20
-0.4610174454289638
 10
-0.1835533905932736
 20
-0.4630848938324164
 10
-0.1785533905932736
 20
-0.4650894030202291
 10
-0.1735533905932736
 20
-0.4670317834019928
 10
-0.1685533905932736
 20
-0.46891280704794
 10
-0.1635533905932736
 20
-0.4707332094929264
 10
-0.1585533905932736
 20
-0.4724936914133818
 10
-0.1535533905932736
 20
-0.4741949201872336
 10
-0.1485533905932736
 20
-0.4758375313458466
 10
-0.1435533905932736
 20
-0.4774221299261716
 10
-0.1385533905932736
 20
-0.4789492917305286
 10
-0.1335533905932736
 20
-0.4804195645007682
 10
-0.1285533905932736
 20
-0.4818334690129366
 10
-0.1235533905932736
 20
-0.4831915000980183
 10
-0.1185533905932736
 20
-0.4844941275938295
 10
-0.1135533905932736
 20
-0.4857417972326848
 10
-0.1085533905932736
 20
-0.4869349314690531
 10
-0.1035533905932736
 20
-0.4880739302510473
 10
-0.0985533905932736
 20
-0.489159171739258
 10
-0.0935533905932736
 20
-0.4901910129761353
 10
-0.0885533905932736
 20
-0.4911697905088447
 10
-0.0835533905932735
 20
-0.4920958209682695
 10
-0.0785533905932735
 20
-0.4929694016065986
 10
-0.0735533905932735
 20
-0.4937908107957261
 10
-0.0685533905932735
 20
-0.494560308488493
 10
-0.0635533905932735
 20
-0.4952781366446192
 10
-0.0585533905932735
 20
-0.4959445196230107
 10
-0.0535533905932735
 20
-0.4965596645419678
 10
-0.0485533905932735
 20
-0.4971237616086806
 10
-0.0435533905932735
 20
-0.4976369844192622
 10
-0.0385533905932735
 20
-0.4980994902304456
 10
-0.0335533905932735
 20
-0.4985114202039533
 10
-0.0285533905932735
 20
-0.4988728996244386
 10
-0.0235533905932735
 20
-0.4991840380917923
 10
-0.0185533905932735
 20
-0.49944492968851
 10
-0.0135533905932735
 20
-0.4996556531227215
 10
-0.0085533905932735
 20
-0.4998162718473921
 10
-0.0035533905932735
 20
-0.4999268341561182
 10
0.0014466094067265
 20
-0.499987373255857
 10
0.0064466094067265
 20
-0.4999979073168451
 10
0.0114466094067265
 20
-0.4999584394998819
 10
0.0164466094067265
 20
-0.4998689579610739
 10
0.0214466094067265
 20
-0.4997294358340547
 10
0.0264466094067265
 20
-0.4995398311896213
 10
0.0314466094067265
 20
-0.4993000869726422
 10
0.0364466094067265
 20
-0.4990101309160174
 10
0.0414466094067265
 20
-0.4986698754313855
 10
0.0464466094067265
 20
-0.498279217476192
 10
0.0514466094067265
 20
-0.4978380383966446
 10
0.0564466094067265
 20
-0.497346203745994
 10
0.0614466094067265
 20
-0.4968035630774849
 10
0.0664466094067264
 20
-0.4962099497112257
 10
0.0714466094067265
 20
-0.4955651804741228
 10
0.0764466094067265
 20
-0.4948690554119167
 10
0.0814466094067265
 20
-0.4941213574722463
 10
0.0864466094067265
 20
-0.4933218521575424
 10
0.0914466094067265
 20
-0.4924702871464235
 10
0.0964466094067265
 20
-0.4915663918821278
 10
0.1014466094067265
 20
-0.4906098771263643
 10
0.1064466094067265
 20
-0.4896004344768079
 10
0.1114466094067265
 20
-0.4885377358462822
 10
0.1164466094067265
 20
-0.4874214329014929
 10
0.1214466094067265
 20
-0.4862511564589613
 10
0.1264466094067265
 20
-0.4850265158355881
 10
0.1314466094067265
 20
-0.4837470981510305
 10
0.1364466094067265
 20
-0.482412467578809
 10
0.1414466094067265
 20
-0.4810221645427664
 10
0.1464466094067265
 20
-0.4795757048551781
 10
0.1514466094067265
 20
-0.4780725787924608
 10
0.1564466094067265
 20
-0.4765122501040308
 10
0.1614466094067265
 20
-0.4748941549494363
 10
0.1664466094067265
 20
-0.4732177007584056
 10
0.1714466094067265
 20
-0.4714822650079264
 10
0.1764466094067265
 20
-0.4696871939098801
 10
0.1814466094067266
 20
-0.4678318010021017
 10
0.1864466094067266
 20
-0.4659153656350076
 10
0.1914466094067266
 20
-0.4639371313451162
 10
0.1964466094067266
 20
-0.4618963041058764
 10
0.2014466094067266
 20
-0.4597920504451997
 10
0.2064466094067266
 20
-0.4576234954179405
 10
0.2114466094067266
 20
-0.4553897204202862
 10
0.2164466094067266
 20
-0.4530897608315588
 10
0.2214466094067266
 20
-0.45072260346729
 10
0.2264466094067266
 20
-0.4482871838255748
 10
0.2314466094067266
 20
-0.4457823831065977
 10
0.2364466094067266
 20
-0.4432070249828292
 10
0.2414466094067266
 20
-0.4405598720946596
 10
0.2464466094067266
 20
-0.4378396222431172
 10
0.2514466094067266
 20
-0.4350449042477435
 10
0.2564466094067266
 20
-0.4321742734336012
 10
0.2614466094067266
 20
-0.4292262067066663
 10
0.2664466094067266
 20
-0.4261990971714118
 10
0.2714466094067266
 20
-0.4230912482380831
 10
0.2764466094067266
 20
-0.4199008671598476
 10
0.2814466094067266
 20
-0.4166260579314797
 10
0.2864466094067266
 20
-0.4132648134712868
 10
0.2914466094067266
 20
-0.4098150069963156
 10
0.2964466094067266
 20
-0.4062743824871597
 10
0.3014466094067266
 20
-0.4026405441224911
 10
0.3064466094067266
 20
-0.3989109445442534
 10
0.3114466094067266
 20
-0.3950828717916294
 10
0.3164466094067266
 20
-0.391153434714632
 10
0.3214466094067266
 20
-0.3871195466454601
 10
0.3264466094067267
 20
-0.3829779070663467
 10
0.3314466094067267
 20
-0.3787249809648844
 10
0.3364466094067267
 20
-0.3743569755097196
 10
0.3414466094067267
 20
-0.3698698136084067
 10
0.3464466094067267
 20
-0.3652591038217257
 10
0.3514466094067267
 20
-0.3605201060004601
 10
0.3564466094067267
 20
-0.3556476918757041
 10
0.3614466094067267
 20
-0.3506362996645505
 10
0.3664466094067267
 20
-0.34547988153926
 10
0.3714466094067267
 20
-0.3401718425359658
 10
0.3764466094067267
 20
-0.334704969129899
 10
0.3814466094067267
 20
-0.3290713452523318
 10
0.3864466094067267
 20
-0.3232622529342269
 10
0.3914466094067267
 20
-0.3172680539828188
 10
0.3964466094067267
 20
-0.3110780480586465
 10
0.4014466094067267
 20
-0.304680301118911
 10
0.4064466094067267
 20
-0.2980614362775617
 10
0.4114466094067267
 20
-0.291206376478565
 10
0.4164466094067267
 20
-0.2840980246459106
 10
0.4214466094067267
 20
-0.276716861635935
 10
0.4264466094067267
 20
-0.2690404345439063
 10
0.4314466094067267
 20
-0.2610426963649944
 10
0.4364466094067267
 20
-0.2526931404518915
 10
0.4414466094067268
 20
-0.2439556458403291
 10
0.4464466094067268
 20
-0.2347869056044327
 10
0.4514466094067268
 20
-0.2251342376211081
 10
0.4564466094067268
 20
-0.2149324518428296
 10
0.4614466094067268
 20
-0.2040992228331676
 10
0.4664466094067268
 20
-0.1925279893081412
 10
0.4714466094067268
 20
-0.1800765408735088
 10
0.4764466094067268
 20
-0.1665475742210051
 10
0.4814466094067268
 20
-0.1516529867323223
 10
0.4864466094067268
 20
-0.1349413290684758
 10
0.4914466094067268
 20
-0.1156274024472547
 10
0.4964466094067268
 20
-0.0920881648347501
 10
0.5
 20
0.0
 10
0.495
 20
0.0
 10
0.49
 20
0.0705336798983295
 10
0.485
 20
0.0994987437106621
 10
0.48
 20
0.1215524578114322
 10
0.475
 20
0.14
 10
0.47
 20
0.15612494995996
 10
0.465
 20
0.1705872210923199
 10
0.46
 20
0.1837797594948911
 10
0.455
 20
0.1959591794226544
 10
0.45
 20
0.2073041244162789
 10
0.445
 20
0.2179449471770338
 10
0.4399999999999999
 20
0.2279802623035601
 10
0.4349999999999999
 20
0.2374868417407584
 10
0.4299999999999999
 20
0.2465258607124211
 10
0.4249999999999999
 20
0.2551470164434615
 10
0.4199999999999999
 20
0.2633913438213186
 10
0.4149999999999999
 20
0.2712931993250108
 10
0.4099999999999999
 20
0.2788816953476869
 10
0.4049999999999999
 20
0.2861817604250838
 10
0.3999999999999999
 20
0.2932149382279151
 10
0.3949999999999999
 20
0.3000000000000002
 10
0.3899999999999999
 20
0.3065534211193868
 10
0.3849999999999999
 20
0.3128897569432404
 10
0.3799999999999999
 20
0.3190219428189855
 10
0.3749999999999999
 20
0.3249615361854385
 10
0.3699999999999999
 20
0.330718913883074
 10
0.3649999999999999
 20
0.3363034344160049
 10
0.3599999999999999
 20
0.3417235724968357
 10
0.3549999999999999
 20
0.3469870314579496
 10
0.3535533905932738
 20
0.3535533905932738
 97
        0
 75
     0
 76
     1
 98
        0
  0
CIRCLE
  5
145
330
143
100
AcDbEntity
  8
0
 62
     0
370
    -2
100
AcDbCircle
 10
0.0
 20
0.0
 30
0.0
 40
0.5
  0
ENDBLK
  5
147
330
143
100
AcDbEntity
  8
0
100
AcDbBlockEnd
  0
BLOCK
  5
14C
330
148
100
AcDbEntity
  8
0
100
AcDbBlockBegin
  2
CDWK_PTTYP38
 70
     0
 10
0.0
 20
0.0
 30
0.0
  3
CDWK_PTTYP38
  1

  0
HATCH
  5
149
330
148
100
AcDbEntity
  8
0
 62
     0
370
    -2
100
AcDbHatch
 10
0.0
 20
0.0
 30
0.0
210
0.0
220
0.0
230
1.0
  2
SOLID
 70
     1
 71
     1
 91
        1
 92
        3
 72
     0
 73
     1
 93
      102
 10
0.0
 20
0.0
 10
0.0
 20
0.5
 10
0.005
 20
0.5
 10
0.01
 20
0.4999749993749688
 10
0.015
 20
0.4998999899979995
 10
0.02
 20
0.4997749493522059
 10
0.025
 20
0.4995998398718718
 10
0.03
 20
0.4993746088859545
 10
0.035
 20
0.4990991885387112
 10
0.04
 20
0.4987734956871706
 10
0.045
 20
0.4983974317750845
 10
0.05
 20
0.4979708826829135
 10
0.055
 20
0.49749371855331
 10
0.06
 20
0.4969657935914704
 10
0.065
 20
0.4963869458396343
 10
0.07
 20
0.4957569969249047
 10
0.075
 20
0.4950757517794626
 10
0.08
 20
0.4943429983321297
 10
0.085
 20
0.4935585071701227
 10
0.09
 20
0.4927220311697053
 10
0.095
 20
0.4918333050943175
 10
0.1
 20
0.4908920451586071
 10
0.105
 20
0.4898979485566356
 10
0.11
 20
0.4888506929523574
 10
0.115
 20
0.4877499359302879
 10
0.12
 20
0.4865953144040744
 10
0.125
 20
0.4853864439804639
 10
0.13
 20
0.4841229182759271
 10
0.135
 20
0.4828043081829325
 10
0.14
 20
0.4814301610825811
 10
0.145
 20
0.48
 10
0.15
 20
0.478513322698543
 10
0.1550000000000001
 20
0.4769696007084728
 10
0.1600000000000001
 20
0.4753682782853731
 10
0.1650000000000001
 20
0.4737087712930804
 10
0.1700000000000001
 20
0.4719904660054056
 10
0.1750000000000001
 20
0.4702127178203498
 10
0.1800000000000001
 20
0.4683748498798799
 10
0.1850000000000001
 20
0.466476151587624
 10
0.1900000000000001
 20
0.4645158770160606
 10
0.1950000000000001
 20
0.4624932431938871
 10
0.2000000000000001
 20
0.460407428263272
 10
0.2050000000000001
 20
0.4582575694955839
 10
0.2100000000000001
 20
0.4560427611529427
 10
0.2150000000000001
 20
0.4537620521815371
 10
0.2200000000000001
 20
0.4514144437210665
 10
0.2250000000000001
 20
0.4489988864128729
 10
0.2300000000000001
 20
0.4465142774872937
 10
0.2350000000000001
 20
0.4439594576084622
 10
0.2400000000000001
 20
0.4413332074521472
 10
0.2450000000000001
 20
0.4386342439892261
 10
0.2500000000000001
 20
0.4358612164439502
 10
0.2550000000000001
 20
0.4330127018922192
 10
0.2600000000000001
 20
0.4300872004605577
 10
0.2650000000000001
 20
0.4270831300812524
 10
0.2700000000000001
 20
0.423998820753077
 10
0.2750000000000001
 20
0.4208325082500162
 10
0.2800000000000001
 20
0.4175823272122516
 10
0.2850000000000001
 20
0.4142463035441595
 10
0.2900000000000001
 20
0.4108223460329293
 10
0.2950000000000002
 20
0.4073082370883259
 10
0.3000000000000002
 20
0.403701622488689
 10
0.3050000000000002
 20
0.3999999999999999
 10
0.3100000000000002
 20
0.3962007067131506
 10
0.3150000000000002
 20
0.3923009049186605
 10
0.3200000000000002
 20
0.3882975663070783
 10
0.3250000000000002
 20
0.3841874542459708
 10
0.3300000000000002
 20
0.3799671038392664
 10
0.3350000000000002
 20
0.3756327994198588
 10
0.3400000000000002
 20
0.3711805490593491
 10
0.3450000000000002
 20
0.366606055596467
 10
0.3500000000000002
 20
0.3619046835839512
 10
0.3550000000000002
 20
0.3570714214271423
 10
0.3600000000000002
 20
0.3521008378291649
 10
0.3650000000000002
 20
0.3469870314579492
 10
0.3700000000000002
 20
0.3417235724968353
 10
0.3750000000000002
 20
0.3363034344160045
 10
0.3800000000000002
 20
0.3307189138830736
 10
0.3850000000000002
 20
0.3249615361854382
 10
0.3900000000000002
 20
0.3190219428189851
 10
0.3950000000000002
 20
0.31288975694324
 10
0.4000000000000002
 20
0.3065534211193863
 10
0.4050000000000002
 20
0.2999999999999997
 10
0.4100000000000003
 20
0.2932149382279147
 10
0.4150000000000003
 20
0.2861817604250834
 10
0.4200000000000003
 20
0.2788816953476864
 10
0.4250000000000003
 20
0.2712931993250103
 10
0.4300000000000003
 20
0.263391343821318
 10
0.4350000000000003
 20
0.255147016443461
 10
0.4400000000000003
 20
0.2465258607124206
 10
0.4450000000000003
 20
0.2374868417407578
 10
0.4500000000000003
 20
0.2279802623035594
 10
0.4550000000000003
 20
0.2179449471770331
 10
0.4600000000000003
 20
0.2073041244162782
 10
0.4650000000000003
 20
0.1959591794226536
 10
0.4700000000000003
 20
0.1837797594948903
 10
0.4750000000000003
 20
0.170587221092319
 10
0.4800000000000003
 20
0.156124949959959
 10
0.4850000000000003
 20
0.1399999999999989
 10
0.4900000000000003
 20
0.1215524578114309
 10
0.4950000000000003
 20
0.0994987437106604
 10
0.5
 20
0.0
 97
        0
 75
     0
 76
     1
 98
        0
  0
HATCH
  5
14A
330
148
100
AcDbEntity
  8
0
 62
     0
370
    -2
100
AcDbHatch
 10
0.0
 20
0.0
 30
0.0
210
0.0
220
0.0
230
1.0
  2
SOLID
 70
     1
 71
     1
 91
        1
 92
        3
 72
     0
 73
     1
 93
      102
 10
0.0
 20
0.0
 10
-0.5
 20
0.0
 10
-0.495
 20
0.0
 10
-0.49
 20
-0.0705336798983295
 10
-0.485
 20
-0.0994987437106621
 10
-0.48
 20
-0.1215524578114322
 10
-0.475
 20
-0.14
 10
-0.47
 20
-0.15612494995996
 10
-0.465
 20
-0.1705872210923199
 10
-0.46
 20
-0.1837797594948911
 10
-0.455
 20
-0.1959591794226544
 10
-0.45
 20
-0.2073041244162789
 10
-0.445
 20
-0.2179449471770338
 10
-0.4399999999999999
 20
-0.2279802623035601
 10
-0.4349999999999999
 20
-0.2374868417407584
 10
-0.4299999999999999
 20
-0.2465258607124211
 10
-0.4249999999999999
 20
-0.2551470164434615
 10
-0.4199999999999999
 20
-0.2633913438213186
 10
-0.4149999999999999
 20
-0.2712931993250108
 10
-0.4099999999999999
 20
-0.2788816953476869
 10
-0.4049999999999999
 20
-0.2861817604250838
 10
-0.3999999999999999
 20
-0.2932149382279151
 10
-0.3949999999999999
 20
-0.3000000000000002
 10
-0.3899999999999999
 20
-0.3065534211193868
 10
-0.3849999999999999
 20
-0.3128897569432404
 10
-0.3799999999999999
 20
-0.3190219428189855
 10
-0.3749999999999999
 20
-0.3249615361854385
 10
-0.3699999999999999
 20
-0.330718913883074
 10
-0.3649999999999999
 20
-0.3363034344160049
 10
-0.3599999999999999
 20
-0.3417235724968357
 10
-0.3549999999999999
 20
-0.3469870314579496
 10
-0.3499999999999999
 20
-0.3521008378291652
 10
-0.3449999999999999
 20
-0.3570714214271427
 10
-0.3399999999999999
 20
-0.3619046835839516
 10
-0.3349999999999999
 20
-0.3666060555964674
 10
-0.3299999999999998
 20
-0.3711805490593494
 10
-0.3249999999999998
 20
-0.3756327994198591
 10
-0.3199999999999998
 20
-0.3799671038392667
 10
-0.3149999999999998
 20
-0.3841874542459711
 10
-0.3099999999999998
 20
-0.3882975663070786
 10
-0.3049999999999998
 20
-0.3923009049186608
 10
-0.2999999999999998
 20
-0.3962007067131507
 10
-0.2949999999999998
 20
-0.4000000000000001
 10
-0.2899999999999998
 20
-0.4037016224886891
 10
-0.2849999999999998
 20
-0.4073082370883261
 10
-0.2799999999999998
 20
-0.4108223460329296
 10
-0.2749999999999998
 20
-0.4142463035441597
 10
-0.2699999999999998
 20
-0.4175823272122518
 10
-0.2649999999999998
 20
-0.4208325082500164
 10
-0.2599999999999998
 20
-0.4239988207530773
 10
-0.2549999999999998
 20
-0.4270831300812526
 10
-0.2499999999999998
 20
-0.4300872004605579
 10
-0.2449999999999998
 20
-0.4330127018922195
 10
-0.2399999999999998
 20
-0.4358612164439503
 10
-0.2349999999999998
 20
-0.4386342439892263
 10
-0.2299999999999998
 20
-0.4413332074521473
 10
-0.2249999999999998
 20
-0.4439594576084624
 10
-0.2199999999999998
 20
-0.4465142774872939
 10
-0.2149999999999997
 20
-0.4489988864128731
 10
-0.2099999999999997
 20
-0.4514144437210667
 10
-0.2049999999999997
 20
-0.4537620521815372
 10
-0.1999999999999997
 20
-0.4560427611529429
 10
-0.1949999999999997
 20
-0.4582575694955841
 10
-0.1899999999999997
 20
-0.4604074282632722
 10
-0.1849999999999997
 20
-0.4624932431938872
 10
-0.1799999999999997
 20
-0.4645158770160608
 10
-0.1749999999999997
 20
-0.4664761515876241
 10
-0.1699999999999997
 20
-0.46837484987988
 10
-0.1649999999999997
 20
-0.47021271782035
 10
-0.1599999999999997
 20
-0.4719904660054058
 10
-0.1549999999999997
 20
-0.4737087712930805
 10
-0.1499999999999997
 20
-0.4753682782853733
 10
-0.1449999999999997
 20
-0.4769696007084729
 10
-0.1399999999999997
 20
-0.4785133226985431
 10
-0.1349999999999997
 20
-0.4800000000000001
 10
-0.1299999999999997
 20
-0.4814301610825812
 10
-0.1249999999999997
 20
-0.4828043081829325
 10
-0.1199999999999997
 20
-0.4841229182759272
 10
-0.1149999999999997
 20
-0.485386443980464
 10
-0.1099999999999997
 20
-0.4865953144040744
 10
-0.1049999999999996
 20
-0.487749935930288
 10
-0.0999999999999996
 20
-0.4888506929523574
 10
-0.0949999999999996
 20
-0.4898979485566357
 10
-0.0899999999999996
 20
-0.4908920451586072
 10
-0.0849999999999996
 20
-0.4918333050943176
 10
-0.0799999999999996
 20
-0.4927220311697053
 10
-0.0749999999999996
 20
-0.4935585071701227
 10
-0.0699999999999996
 20
-0.4943429983321298
 10
-0.0649999999999996
 20
-0.4950757517794626
 10
-0.0599999999999996
 20
-0.4957569969249048
 10
-0.0549999999999996
 20
-0.4963869458396343
 10
-0.0499999999999996
 20
-0.4969657935914705
 10
-0.0449999999999996
 20
-0.49749371855331
 10
-0.0399999999999996
 20
-0.4979708826829135
 10
-0.0349999999999996
 20
-0.4983974317750846
 10
-0.0299999999999996
 20
-0.4987734956871706
 10
-0.0249999999999996
 20
-0.4990991885387112
 10
-0.0199999999999996
 20
-0.4993746088859545
 10
-0.0149999999999996
 20
-0.4995998398718719
 10
-0.0099999999999996
 20
-0.499774949352206
 10
-0.0049999999999996
 20
-0.4998999899979995
 10
0.0
 20
-0.5
 97
        0
 75
     0
 76
     1
 98
        0
  0
CIRCLE
  5
14B
330
148
100
AcDbEntity
  8
0
 62
     0
370
    -2
100
AcDbCircle
 10
0.0
 20
0.0
 30
0.0
 40
0.5
  0
ENDBLK
  5
14D
330
148
100
AcDbEntity
  8
0
100
AcDbBlockEnd
  0
BLOCK
  5
156
330
14E
100
AcDbEntity
  8
0
100
AcDbBlockBegin
  2
CDWK_PTTYP41
 70
     0
 10
0.0
 20
0.0
 30
0.0
  3
CDWK_PTTYP41
  1

  0
LINE
  5
14F
330
14E
100
AcDbEntity
  8
0
 62
     0
370
    -2
100
AcDbLine
 10
-0.5
 20
0.5
 30
0.0
 11
0.5
 21
0.5
 31
0.0
  0
LINE
  5
150
330
14E
100
AcDbEntity
  8
0
 62
     0
370
    -2
100
AcDbLine
 10
0.5
 20
0.5
 30
0.0
 11
0.5
 21
-0.5
 31
0.0
  0
LINE
  5
151
330
14E
100
AcDbEntity
  8
0
 62
     0
370
    -2
100
AcDbLine
 10
0.5
 20
-0.5
 30
0.0
 11
-0.5
 21
-0.5
 31
0.0
  0
LINE
  5
152
330
14E
100
AcDbEntity
  8
0
 62
     0
370
    -2
100
AcDbLine
 10
-0.5
 20
-0.5
 30
0.0
 11
-0.5
 21
0.5
 31
0.0
  0
LINE
  5
153
330
14E
100
AcDbEntity
  8
0
 62
     0
370
    -2
100
AcDbLine
 10
-0.375
 20
0.25
 30
0.0
 11
0.375
 21
0.25
 31
0.0
  0
LINE
  5
154
330
14E
100
AcDbEntity
  8
0
 62
     0
370
    -2
100
AcDbLine
 10
-0.375
 20
0.0
 30
0.0
 11
0.375
 21
0.0
 31
0.0
  0
LINE
  5
155
330
14E
100
AcDbEntity
  8
0
 62
     0
370
    -2
100
AcDbLine
 10
-0.375
 20
-0.25
 30
0.0
 11
0.375
 21
-0.25
 31
0.0
  0
ENDBLK
  5
157
330
14E
100
AcDbEntity
  8
0
100
AcDbBlockEnd
  0
BLOCK
  5
15F
330
158
100
AcDbEntity
  8
0
100
AcDbBlockBegin
  2
CDWK_PTTYP42
 70
     0
 10
0.0
 20
0.0
 30
0.0
  3
CDWK_PTTYP42
  1

  0
LINE
  5
159
330
158
100
AcDbEntity
  8
0
 62
     0
370
    -2
100
AcDbLine
 10
-0.5
 20
0.5
 30
0.0
 11
0.5
 21
0.5
 31
0.0
  0
LINE
  5
15A
330
158
100
AcDbEntity
  8
0
 62
     0
370
    -2
100
AcDbLine
 10
0.5
 20
0.5
 30
0.0
 11
0.5
 21
-0.5
 31
0.0
  0
LINE
  5
15B
330
158
100
AcDbEntity
  8
0
 62
     0
370
    -2
100
AcDbLine
 10
0.5
 20
-0.5
 30
0.0
 11
-0.5
 21
-0.5
 31
0.0
  0
LINE
  5
15C
330
158
100
AcDbEntity
  8
0
 62
     0
370
    -2
100
AcDbLine
 10
-0.5
 20
-0.5
 30
0.0
 11
-0.5
 21
0.5
 31
0.0
  0
LINE
  5
15D
330
158
100
AcDbEntity
  8
0
 62
     0
370
    -2
100
AcDbLine
 10
-0.375
 20
0.125
 30
0.0
 11
0.375
 21
0.125
 31
0.0
  0
LINE
  5
15E
330
158
100
AcDbEntity
  8
0
 62
     0
370
    -2
100
AcDbLine
 10
-0.375
 20
-0.125
 30
0.0
 11
0.375
 21
-0.125
 31
0.0
  0
ENDBLK
  5
160
330
158
100
AcDbEntity
  8
0
100
AcDbBlockEnd
  0
BLOCK
  5
165
330
161
100
AcDbEntity
  8
0
100
AcDbBlockBegin
  2
CDWK_PTTYP43
 70
     0
 10
0.0
 20
0.0
 30
0.0
  3
CDWK_PTTYP43
  1

  0
CIRCLE
  5
162
330
161
100
AcDbEntity
  8
0
 62
     0
370
    -2
100
AcDbCircle
 10
0.0
 20
0.0
 30
0.0
 40
0.5
  0
LINE
  5
163
330
161
100
AcDbEntity
  8
0
 62
     0
370
    -2
100
AcDbLine
 10
-0.375
 20
0.166
 30
0.0
 11
0.375
 21
0.166
 31
0.0
  0
LINE
  5
164
330
161
100
AcDbEntity
  8
0
 62
     0
370
    -2
100
AcDbLine
 10
-0.375
 20
-0.166
 30
0.0
 11
0.375
 21
-0.166
 31
0.0
  0
ENDBLK
  5
166
330
161
100
AcDbEntity
  8
0
100
AcDbBlockEnd
  0
BLOCK
  5
16E
330
167
100
AcDbEntity
  8
0
100
AcDbBlockBegin
  2
CDWK_PTTYP44
 70
     0
 10
0.0
 20
0.0
 30
0.0
  3
CDWK_PTTYP44
  1

  0
CIRCLE
  5
168
330
167
100
AcDbEntity
  8
0
 62
     0
370
    -2
100
AcDbCircle
 10
0.0
 20
0.0
 30
0.0
 40
0.5
  0
LINE
  5
169
330
167
100
AcDbEntity
  8
0
 62
     0
370
    -2
100
AcDbLine
 10
-0.375
 20
0.333
 30
0.0
 11
0.375
 21
0.333
 31
0.0
  0
LINE
  5
16A
330
167
100
AcDbEntity
  8
0
 62
     0
370
    -2
100
AcDbLine
 10
-0.375
 20
0.166
 30
0.0
 11
0.375
 21
0.166
 31
0.0
  0
LINE
  5
16B
330
167
100
AcDbEntity
  8
0
 62
     0
370
    -2
100
AcDbLine
 10
-0.375
 20
0.0
 30
0.0
 11
0.375
 21
0.0
 31
0.0
  0
LINE
  5
16C
330
167
100
AcDbEntity
  8
0
 62
     0
370
    -2
100
AcDbLine
 10
-0.375
 20
-0.166
 30
0.0
 11
0.375
 21
-0.166
 31
0.0
  0
LINE
  5
16D
330
167
100
AcDbEntity
  8
0
 62
     0
370
    -2
100
AcDbLine
 10
-0.375
 20
-0.333
 30
0.0
 11
0.375
 21
-0.333
 31
0.0
  0
ENDBLK
  5
16F
330
167
100
AcDbEntity
  8
0
100
AcDbBlockEnd
  0
BLOCK
  5
173
330
170
100
AcDbEntity
  8
0
100
AcDbBlockBegin
  2
CDWK_PTTYP45
 70
     0
 10
0.0
 20
0.0
 30
0.0
  3
CDWK_PTTYP45
  1

  0
ELLIPSE
  5
171
330
170
100
AcDbEntity
  8
0
 62
     0
370
    -2
100
AcDbEllipse
 10
0.0
 20
0.0
 30
0.0
 11
0.5
 21
0.0
 31
0.0
210
0.0
220
0.0
230
1.0
 40
0.82
 41
0.0
 42
6.283185307179586
  0
CIRCLE
  5
172
330
170
100
AcDbEntity
  8
0
 62
     0
370
    -2
100
AcDbCircle
 10
-0.235
 20
0.0
 30
0.0
 40
0.26
  0
ENDBLK
  5
174
330
170
100
AcDbEntity
  8
0
100
AcDbBlockEnd
  0
BLOCK
  5
178
330
175
100
AcDbEntity
  8
0
100
AcDbBlockBegin
  2
CDWK_PTTYP46
 70
     0
 10
0.0
 20
0.0
 30
0.0
  3
CDWK_PTTYP46
  1

  0
ELLIPSE
  5
176
330
175
100
AcDbEntity
  8
0
 62
     0
370
    -2
100
AcDbEllipse
 10
0.0
 20
0.0
 30
0.0
 11
0.5
 21
0.0
 31
0.0
210
0.0
220
0.0
230
1.0
 40
0.82
 41
0.0
 42
6.283185307179586
  0
CIRCLE
  5
177
330
175
100
AcDbEntity
  8
0
 62
     0
370
    -2
100
AcDbCircle
 10
0.0
 20
0.15
 30
0.0
 40
0.26
  0
ENDBLK
  5
179
330
175
100
AcDbEntity
  8
0
100
AcDbBlockEnd
  0
BLOCK
  5
180
330
17A
100
AcDbEntity
  8
0
100
AcDbBlockBegin
  2
CDWK_PTTYP47
 70
     0
 10
0.0
 20
0.0
 30
0.0
  3
CDWK_PTTYP47
  1

  0
LINE
  5
17B
330
17A
100
AcDbEntity
  8
0
 62
     0
370
    -2
100
AcDbLine
 10
-0.5
 20
0.166
 30
0.0
 11
0.5
 21
0.166
 31
0.0
  0
LINE
  5
17C
330
17A
100
AcDbEntity
  8
0
 62
     0
370
    -2
100
AcDbLine
 10
0.5
 20
0.166
 30
0.0
 11
0.5
 21
-0.166
 31
0.0
  0
LINE
  5
17D
330
17A
100
AcDbEntity
  8
0
 62
     0
370
    -2
100
AcDbLine
 10
0.5
 20
-0.166
 30
0.0
 11
-0.5
 21
-0.166
 31
0.0
  0
LINE
  5
17E
330
17A
100
AcDbEntity
  8
0
 62
     0
370
    -2
100
AcDbLine
 10
-0.5
 20
-0.166
 30
0.0
 11
-0.5
 21
0.166
 31
0.0
  0
CIRCLE
  5
17F
330
17A
100
AcDbEntity
  8
0
 62
     0
370
    -2
100
AcDbCircle
 10
0.0
 20
-0.313
 30
0.0
 40
0.4
  0
ENDBLK
  5
181
330
17A
100
AcDbEntity
  8
0
100
AcDbBlockEnd
  0
BLOCK
  5
186
330
183
100
AcDbEntity
  8
0
100
AcDbBlockBegin
  2
CDWK_PTTYP48
 70
     0
 10
0.0
 20
0.0
 30
0.0
  3
CDWK_PTTYP48
  1

  0
CIRCLE
  5
184
330
183
100
AcDbEntity
  8
0
  6
CADWORK_3
 62
     0
 48
0.1
370
    -2
100
AcDbCircle
 10
0.0
 20
0.0
 30
0.0
 40
0.5
  0
CIRCLE
  5
185
330
183
100
AcDbEntity
  8
0
 62
     0
370
    -2
100
AcDbCircle
 10
0.0
 20
0.0
 30
0.0
 40
0.25
  0
ENDBLK
  5
187
330
183
100
AcDbEntity
  8
0
100
AcDbBlockEnd
  0
BLOCK
  5
18D
330
188
100
AcDbEntity
  8
0
100
AcDbBlockBegin
  2
CDWK_PTTYP49
 70
     0
 10
0.0
 20
0.0
 30
0.0
  3
CDWK_PTTYP49
  1

  0
LINE
  5
189
330
188
100
AcDbEntity
  8
0
 62
     0
370
    -2
100
AcDbLine
 10
-0.5
 20
0.166
 30
0.0
 11
0.5
 21
0.166
 31
0.0
  0
LINE
  5
18A
330
188
100
AcDbEntity
  8
0
 62
     0
370
    -2
100
AcDbLine
 10
0.5
 20
0.166
 30
0.0
 11
0.5
 21
-0.166
 31
0.0
  0
LINE
  5
18B
330
188
100
AcDbEntity
  8
0
 62
     0
370
    -2
100
AcDbLine
 10
0.5
 20
-0.166
 30
0.0
 11
-0.5
 21
-0.166
 31
0.0
  0
LINE
  5
18C
330
188
100
AcDbEntity
  8
0
 62
     0
370
    -2
100
AcDbLine
 10
-0.5
 20
-0.166
 30
0.0
 11
-0.5
 21
0.166
 31
0.0
  0
ENDBLK
  5
18E
330
188
100
AcDbEntity
  8
0
100
AcDbBlockEnd
  0
BLOCK
  5
197
330
18F
100
AcDbEntity
  8
0
100
AcDbBlockBegin
  2
CDWK_PTTYP50
 70
     0
 10
0.0
 20
0.0
 30
0.0
  3
CDWK_PTTYP50
  1

  0
LINE
  5
190
330
18F
100
AcDbEntity
  8
0
 62
     0
370
    -2
100
AcDbLine
 10
-0.5
 20
0.166
 30
0.0
 11
0.5
 21
0.166
 31
0.0
  0
LINE
  5
191
330
18F
100
AcDbEntity
  8
0
 62
     0
370
    -2
100
AcDbLine
 10
0.5
 20
0.166
 30
0.0
 11
0.5
 21
-0.166
 31
0.0
  0
LINE
  5
192
330
18F
100
AcDbEntity
  8
0
 62
     0
370
    -2
100
AcDbLine
 10
0.5
 20
-0.166
 30
0.0
 11
-0.5
 21
-0.166
 31
0.0
  0
LINE
  5
193
330
18F
100
AcDbEntity
  8
0
 62
     0
370
    -2
100
AcDbLine
 10
-0.5
 20
-0.166
 30
0.0
 11
-0.5
 21
0.166
 31
0.0
  0
LINE
  5
194
330
18F
100
AcDbEntity
  8
0
 62
     0
370
    -2
100
AcDbLine
 10
-0.25
 20
-0.166
 30
0.0
 11
-0.25
 21
0.166
 31
0.0
  0
LINE
  5
195
330
18F
100
AcDbEntity
  8
0
 62
     0
370
    -2
100
AcDbLine
 10
0.0
 20
-0.166
 30
0.0
 11
0.0
 21
0.166
 31
0.0
  0
LINE
  5
196
330
18F
100
AcDbEntity
  8
0
 62
     0
370
    -2
100
AcDbLine
 10
0.25
 20
-0.166
 30
0.0
 11
0.25
 21
0.166
 31
0.0
  0
ENDBLK
  5
198
330
18F
100
AcDbEntity
  8
0
100
AcDbBlockEnd
  0
BLOCK
  5
19C
330
199
100
AcDbEntity
  8
0
100
AcDbBlockBegin
  2
CDWK_PTTYP51
 70
     0
 10
0.0
 20
0.0
 30
0.0
  3
CDWK_PTTYP51
  1

  0
SPLINE
  5
19A
330
199
100
AcDbEntity
  8
0
 62
     0
370
    -2
100
AcDbSpline
210
0.0
220
0.0
230
1.0
 70
  1064
 71
     3
 72
    12
 73
     8
 74
     6
 42
0.000000001
 43
0.0000000001
 44
0.0000000001
 40
0.0
 40
0.0
 40
0.0
 40
0.0
 40
0.1690118339052032
 40
0.5175774661755118
 40
0.8011704844252565
 40
0.9154070810132151
 40
0.975822310881188
 40
0.975822310881188
 40
0.975822310881188
 40
0.975822310881188
 10
-0.5
 20
-0.077
 30
0.0
 10
-0.443824324006723
 20
-0.0900581618560981
 30
0.0
 10
-0.2717933876546281
 20
-0.1300471387828842
 30
0.0
 10
-0.0276699186086479
 20
-0.0006977790990417
 30
0.0
 10
0.2303349729129116
 20
0.0817803270207037
 30
0.0
 10
0.3686157174766292
 20
0.0066250198607167
 30
0.0
 10
0.4216533294581816
 20
-0.0168719667726145
 30
0.0
 10
0.44
 20
-0.025
 30
0.0
 11
-0.5
 21
-0.077
 31
0.0
 11
-0.333
 21
-0.103
 31
0.0
 11
0.0
 21
0.0
 31
0.0
 11
0.28
 21
0.045
 31
0.0
 11
0.385
 21
0.0
 31
0.0
 11
0.44
 21
-0.025
 31
0.0
  0
HATCH
  5
19B
330
199
100
AcDbEntity
  8
0
 62
     0
370
    -2
100
AcDbHatch
 10
0.0
 20
0.0
 30
0.0
210
0.0
220
0.0
230
1.0
  2
SOLID
 70
     1
 71
     1
 91
        1
 92
        3
 72
     0
 73
     1
 93
        3
 10
0.365
 20
-0.05
 10
0.5
 20
-0.042
 10
0.395
 20
0.045
 97
        0
 75
     0
 76
     1
 98
        0
  0
ENDBLK
  5
19D
330
199
100
AcDbEntity
  8
0
100
AcDbBlockEnd
  0
BLOCK
  5
1A2
330
19E
100
AcDbEntity
  8
0
100
AcDbBlockBegin
  2
CDWK_PTTYP52
 70
     0
 10
0.0
 20
0.0
 30
0.0
  3
CDWK_PTTYP52
  1

  0
LINE
  5
19F
330
19E
100
AcDbEntity
  8
0
 62
     0
370
    -2
100
AcDbLine
 10
-0.5
 20
-0.289
 30
0.0
 11
0.5
 21
-0.289
 31
0.0
  0
LINE
  5
1A0
330
19E
100
AcDbEntity
  8
0
 62
     0
370
    -2
100
AcDbLine
 10
0.5
 20
-0.289
 30
0.0
 11
0.0
 21
0.577
 31
0.0
  0
LINE
  5
1A1
330
19E
100
AcDbEntity
  8
0
 62
     0
370
    -2
100
AcDbLine
 10
0.0
 20
0.577
 30
0.0
 11
-0.5
 21
-0.289
 31
0.0
  0
ENDBLK
  5
1A3
330
19E
100
AcDbEntity
  8
0
100
AcDbBlockEnd
  0
BLOCK
  5
1A9
330
1A4
100
AcDbEntity
  8
0
100
AcDbBlockBegin
  2
cw-dimension-symbol1
 70
     0
 10
0.0
 20
0.0
 30
0.0
  3
cw-dimension-symbol1
  1

  0
LINE
  5
1A5
330
1A4
100
AcDbEntity
  8
0
 62
     0
370
    -2
100
AcDbLine
 10
0.0
 20
0.0
 30
0.0
 11
-1.0
 21
0.25
 31
0.0
  0
LINE
  5
1A6
330
1A4
100
AcDbEntity
  8
0
 62
     0
370
    -2
100
AcDbLine
 10
0.0
 20
0.0
 30
0.0
 11
-1.0
 21
-0.25
 31
0.0
  0
LINE
  5
1A7
330
1A4
100
AcDbEntity
  8
0
 62
     0
370
    -2
100
AcDbLine
 10
-1.0
 20
0.25
 30
0.0
 11
-1.0
 21
-0.25
 31
0.0
  0
LINE
  5
1A8
330
1A4
100
AcDbEntity
  8
0
 62
     0
370
    -2
100
AcDbLine
 10
0.0
 20
0.0
 30
0.0
 11
-1.0
 21
0.0
 31
0.0
  0
ENDBLK
  5
1AA
330
1A4
100
AcDbEntity
  8
0
100
AcDbBlockEnd
  0
BLOCK
  5
1AE
330
1AB
100
AcDbEntity
  8
0
100
AcDbBlockBegin
  2
cw-dimension-symbol2
 70
     0
 10
0.0
 20
0.0
 30
0.0
  3
cw-dimension-symbol2
  1

  0
LINE
  5
1AC
330
1AB
100
AcDbEntity
  8
0
 62
     0
370
    -2
100
AcDbLine
 10
-1.0
 20
0.0
 30
0.0
 11
1.0
 21
0.0
 31
0.0
  0
LINE
  5
1AD
330
1AB
100
AcDbEntity
  8
0
 62
     0
370
    -2
100
AcDbLine
 10
-0.5
 20
-0.5
 30
0.0
 11
0.5
 21
0.5
 31
0.0
  0
ENDBLK
  5
1AF
330
1AB
100
AcDbEntity
  8
0
100
AcDbBlockEnd
  0
BLOCK
  5
1B3
330
1B0
100
AcDbEntity
  8
0
100
AcDbBlockBegin
  2
cw-dimension-symbol3
 70
     0
 10
0.0
 20
0.0
 30
0.0
  3
cw-dimension-symbol3
  1

  0
LINE
  5
1B1
330
1B0
100
AcDbEntity
  8
0
 62
     0
370
    -2
100
AcDbLine
 10
-1.0
 20
0.0
 30
0.0
 11
1.0
 21
0.0
 31
0.0
  0
CIRCLE
  5
1B2
330
1B0
100
AcDbEntity
  8
0
 62
     0
370
    -2
100
AcDbCircle
 10
0.0
 20
0.0
 30
0.0
 40
0.25
  0
ENDBLK
  5
1B4
330
1B0
100
AcDbEntity
  8
0
100
AcDbBlockEnd
  0
BLOCK
  5
1BA
330
1B5
100
AcDbEntity
  8
0
100
AcDbBlockBegin
  2
cw-dimension-symbol5
 70
     0
 10
0.0
 20
0.0
 30
0.0
  3
cw-dimension-symbol5
  1

  0
HATCH
  5
1B6
330
1B5
100
AcDbEntity
  8
0
 62
     0
370
    -2
100
AcDbHatch
 10
0.0
 20
0.0
 30
0.0
210
0.0
220
0.0
230
1.0
  2
SOLID
 70
     1
 71
     1
 91
        1
 92
        3
 72
     0
 73
     1
 93
        3
 10
0.0
 20
0.0
 10
-1.0
 20
0.25
 10
-1.0
 20
-0.25
 97
        0
 75
     0
 76
     1
 98
        0
  0
LINE
  5
1B7
330
1B5
100
AcDbEntity
  8
0
 62
     0
370
    -2
100
AcDbLine
 10
0.0
 20
0.0
 30
0.0
 11
-1.0
 21
0.25
 31
0.0
  0
LINE
  5
1B8
330
1B5
100
AcDbEntity
  8
0
 62
     0
370
    -2
100
AcDbLine
 10
-1.0
 20
0.25
 30
0.0
 11
-1.0
 21
-0.25
 31
0.0
  0
LINE
  5
1B9
330
1B5
100
AcDbEntity
  8
0
 62
     0
370
    -2
100
AcDbLine
 10
-1.0
 20
-0.25
 30
0.0
 11
0.0
 21
0.0
 31
0.0
  0
ENDBLK
  5
1BB
330
1B5
100
AcDbEntity
  8
0
100
AcDbBlockEnd
  0
BLOCK
  5
1C0
330
1BC
100
AcDbEntity
  8
0
100
AcDbBlockBegin
  2
cw-dimension-symbol6
 70
     0
 10
0.0
 20
0.0
 30
0.0
  3
cw-dimension-symbol6
  1

  0
LINE
  5
1BD
330
1BC
100
AcDbEntity
  8
0
 62
     0
370
    -2
100
AcDbLine
 10
0.0
 20
0.0
 30
0.0
 11
-1.0
 21
0.25
 31
0.0
  0
LINE
  5
1BE
330
1BC
100
AcDbEntity
  8
0
 62
     0
370
    -2
100
AcDbLine
 10
0.0
 20
0.0
 30
0.0
 11
-1.0
 21
-0.25
 31
0.0
  0
LINE
  5
1BF
330
1BC
100
AcDbEntity
  8
0
 62
     0
370
    -2
100
AcDbLine
 10
0.0
 20
0.0
 30
0.0
 11
-1.0
 21
0.0
 31
0.0
  0
ENDBLK
  5
1C1
330
1BC
100
AcDbEntity
  8
0
100
AcDbBlockEnd
  0
BLOCK
  5
1C6
330
1C2
100
AcDbEntity
  8
0
100
AcDbBlockBegin
  2
cw-dimension-symbol11
 70
     0
 10
0.0
 20
0.0
 30
0.0
  3
cw-dimension-symbol11
  1

  0
LINE
  5
1C3
330
1C2
100
AcDbEntity
  8
0
 62
     0
370
    -2
100
AcDbLine
 10
-1.0
 20
1.0
 30
0.0
 11
1.0
 21
1.0
 31
0.0
  0
LINE
  5
1C4
330
1C2
100
AcDbEntity
  8
0
 62
     0
370
    -2
100
AcDbLine
 10
0.0
 20
0.0
 30
0.0
 11
-1.0
 21
1.0
 31
0.0
  0
LINE
  5
1C5
330
1C2
100
AcDbEntity
  8
0
 62
     0
370
    -2
100
AcDbLine
 10
0.0
 20
0.0
 30
0.0
 11
1.0
 21
1.0
 31
0.0
  0
ENDBLK
  5
1C7
330
1C2
100
AcDbEntity
  8
0
100
AcDbBlockEnd
  0
BLOCK
  5
1CC
330
1C8
100
AcDbEntity
  8
0
100
AcDbBlockBegin
  2
cw-dimension-symbol13
 70
     0
 10
0.0
 20
0.0
 30
0.0
  3
cw-dimension-symbol13
  1

  0
LINE
  5
1C9
330
1C8
100
AcDbEntity
  8
0
 62
     0
370
    -2
100
AcDbLine
 10
-1.0
 20
-1.0
 30
0.0
 11
1.0
 21
-1.0
 31
0.0
  0
LINE
  5
1CA
330
1C8
100
AcDbEntity
  8
0
 62
     0
370
    -2
100
AcDbLine
 10
0.0
 20
0.0
 30
0.0
 11
-1.0
 21
-1.0
 31
0.0
  0
LINE
  5
1CB
330
1C8
100
AcDbEntity
  8
0
 62
     0
370
    -2
100
AcDbLine
 10
0.0
 20
0.0
 30
0.0
 11
1.0
 21
-1.0
 31
0.0
  0
ENDBLK
  5
1CD
330
1C8
100
AcDbEntity
  8
0
100
AcDbBlockEnd
  0
BLOCK
  5
1D3
330
1CE
100
AcDbEntity
  8
0
100
AcDbBlockBegin
  2
cw-dimension-symbol15
 70
     0
 10
0.0
 20
0.0
 30
0.0
  3
cw-dimension-symbol15
  1

  0
HATCH
  5
1CF
330
1CE
100
AcDbEntity
  8
0
 62
     0
370
    -2
100
AcDbHatch
 10
0.0
 20
0.0
 30
0.0
210
0.0
220
0.0
230
1.0
  2
SOLID
 70
     1
 71
     1
 91
        1
 92
        3
 72
     0
 73
     1
 93
        3
 10
0.0
 20
0.0
 10
-1.0
 20
1.0
 10
1.0
 20
1.0
 97
        0
 75
     0
 76
     1
 98
        0
  0
LINE
  5
1D0
330
1CE
100
AcDbEntity
  8
0
 62
     0
370
    -2
100
AcDbLine
 10
0.0
 20
0.0
 30
0.0
 11
-1.0
 21
1.0
 31
0.0
  0
LINE
  5
1D1
330
1CE
100
AcDbEntity
  8
0
 62
     0
370
    -2
100
AcDbLine
 10
-1.0
 20
1.0
 30
0.0
 11
1.0
 21
1.0
 31
0.0
  0
LINE
  5
1D2
330
1CE
100
AcDbEntity
  8
0
 62
     0
370
    -2
100
AcDbLine
 10
1.0
 20
1.0
 30
0.0
 11
0.0
 21
0.0
 31
0.0
  0
ENDBLK
  5
1D4
330
1CE
100
AcDbEntity
  8
0
100
AcDbBlockEnd
  0
BLOCK
  5
1DA
330
1D5
100
AcDbEntity
  8
0
100
AcDbBlockBegin
  2
cw-dimension-symbol16
 70
     0
 10
0.0
 20
0.0
 30
0.0
  3
cw-dimension-symbol16
  1

  0
HATCH
  5
1D6
330
1D5
100
AcDbEntity
  8
0
 62
     0
370
    -2
100
AcDbHatch
 10
0.0
 20
0.0
 30
0.0
210
0.0
220
0.0
230
1.0
  2
SOLID
 70
     1
 71
     1
 91
        1
 92
        3
 72
     0
 73
     1
 93
        3
 10
0.0
 20
0.0
 10
-1.0
 20
-1.0
 10
1.0
 20
-1.0
 97
        0
 75
     0
 76
     1
 98
        0
  0
LINE
  5
1D7
330
1D5
100
AcDbEntity
  8
0
 62
     0
370
    -2
100
AcDbLine
 10
0.0
 20
0.0
 30
0.0
 11
-1.0
 21
-1.0
 31
0.0
  0
LINE
  5
1D8
330
1D5
100
AcDbEntity
  8
0
 62
     0
370
    -2
100
AcDbLine
 10
-1.0
 20
-1.0
 30
0.0
 11
1.0
 21
-1.0
 31
0.0
  0
LINE
  5
1D9
330
1D5
100
AcDbEntity
  8
0
 62
     0
370
    -2
100
AcDbLine
 10
1.0
 20
-1.0
 30
0.0
 11
0.0
 21
0.0
 31
0.0
  0
ENDBLK
  5
1DB
330
1D5
100
AcDbEntity
  8
0
100
AcDbBlockEnd
  0
BLOCK
  5
1E1
330
1DC
100
AcDbEntity
  8
0
100
AcDbBlockBegin
  2
cw-dimension-symbol17
 70
     0
 10
0.0
 20
0.0
 30
0.0
  3
cw-dimension-symbol17
  1

  0
LINE
  5
1DD
330
1DC
100
AcDbEntity
  8
0
 62
     0
370
    -2
100
AcDbLine
 10
0.0
 20
0.0
 30
0.0
 11
1.0
 21
1.0
 31
0.0
  0
LINE
  5
1DE
330
1DC
100
AcDbEntity
  8
0
 62
     0
370
    -2
100
AcDbLine
 10
1.0
 20
1.0
 30
0.0
 11
-1.0
 21
1.0
 31
0.0
  0
LINE
  5
1DF
330
1DC
100
AcDbEntity
  8
0
 62
     0
370
    -2
100
AcDbLine
 10
-1.0
 20
1.0
 30
0.0
 11
0.0
 21
0.0
 31
0.0
  0
HATCH
  5
1E0
330
1DC
100
AcDbEntity
  8
0
 62
     0
370
    -2
100
AcDbHatch
 10
0.0
 20
0.0
 30
0.0
210
0.0
220
0.0
230
1.0
  2
SOLID
 70
     1
 71
     1
 91
        1
 92
        3
 72
     0
 73
     1
 93
        3
 10
0.0
 20
0.0
 10
-1.0
 20
1.0
 10
0.0
 20
1.0
 97
        0
 75
     0
 76
     1
 98
        0
  0
ENDBLK
  5
1E2
330
1DC
100
AcDbEntity
  8
0
100
AcDbBlockEnd
  0
BLOCK
  5
1E8
330
1E3
100
AcDbEntity
  8
0
100
AcDbBlockBegin
  2
cw-dimension-symbol18
 70
     0
 10
0.0
 20
0.0
 30
0.0
  3
cw-dimension-symbol18
  1

  0
LINE
  5
1E4
330
1E3
100
AcDbEntity
  8
0
 62
     0
370
    -2
100
AcDbLine
 10
0.0
 20
0.0
 30
0.0
 11
1.0
 21
-1.0
 31
0.0
  0
LINE
  5
1E5
330
1E3
100
AcDbEntity
  8
0
 62
     0
370
    -2
100
AcDbLine
 10
1.0
 20
-1.0
 30
0.0
 11
-1.0
 21
-1.0
 31
0.0
  0
LINE
  5
1E6
330
1E3
100
AcDbEntity
  8
0
 62
     0
370
    -2
100
AcDbLine
 10
-1.0
 20
-1.0
 30
0.0
 11
0.0
 21
0.0
 31
0.0
  0
HATCH
  5
1E7
330
1E3
100
AcDbEntity
  8
0
 62
     0
370
    -2
100
AcDbHatch
 10
0.0
 20
0.0
 30
0.0
210
0.0
220
0.0
230
1.0
  2
SOLID
 70
     1
 71
     1
 91
        1
 92
        3
 72
     0
 73
     1
 93
        3
 10
0.0
 20
0.0
 10
-1.0
 20
-1.0
 10
0.0
 20
-1.0
 97
        0
 75
     0
 76
     1
 98
        0
  0
ENDBLK
  5
1E9
330
1E3
100
AcDbEntity
  8
0
100
AcDbBlockEnd
  0
BLOCK
  5
1EB
330
1EA
100
AcDbEntity
  8
0
100
AcDbBlockBegin
  2
cw-dimension-symbol19
 70
     0
 10
0.0
 20
0.0
 30
0.0
  3
cw-dimension-symbol19
  1

  0
ENDBLK
  5
1EC
330
1EA
100
AcDbEntity
  8
0
100
AcDbBlockEnd
  0
BLOCK
  5
1F2
330
1ED
100
AcDbEntity
  8
0
100
AcDbBlockBegin
  2
cw-dimension-symbol20
 70
     0
 10
0.0
 20
0.0
 30
0.0
  3
cw-dimension-symbol20
  1

  0
LINE
  5
1EE
330
1ED
100
AcDbEntity
  8
0
 62
     0
370
    -2
100
AcDbLine
 10
0.0
 20
0.0
 30
0.0
 11
0.0
 21
2.0
 31
0.0
  0
LINE
  5
1EF
330
1ED
100
AcDbEntity
  8
0
 62
     0
370
    -2
100
AcDbLine
 10
0.0
 20
0.0
 30
0.0
 11
-1.0
 21
0.33
 31
0.0
  0
LINE
  5
1F0
330
1ED
100
AcDbEntity
  8
0
 62
     0
370
    -2
100
AcDbLine
 10
0.0
 20
0.0
 30
0.0
 11
1.0
 21
0.33
 31
0.0
  0
LINE
  5
1F1
330
1ED
100
AcDbEntity
  8
0
 62
     0
370
    -2
100
AcDbLine
 10
0.0
 20
2.0
 30
0.0
 11
4.15
 21
2.0
 31
0.0
  0
ENDBLK
  5
1F3
330
1ED
100
AcDbEntity
  8
0
100
AcDbBlockEnd
  0
BLOCK
  5
1F9
330
1F4
100
AcDbEntity
  8
0
100
AcDbBlockBegin
  2
cw-dimension-symbol21
 70
     0
 10
0.0
 20
0.0
 30
0.0
  3
cw-dimension-symbol21
  1

  0
LINE
  5
1F5
330
1F4
100
AcDbEntity
  8
0
 62
     0
370
    -2
100
AcDbLine
 10
0.0
 20
0.0
 30
0.0
 11
0.0
 21
-2.0
 31
0.0
  0
LINE
  5
1F6
330
1F4
100
AcDbEntity
  8
0
 62
     0
370
    -2
100
AcDbLine
 10
0.0
 20
0.0
 30
0.0
 11
-1.0
 21
-0.33
 31
0.0
  0
LINE
  5
1F7
330
1F4
100
AcDbEntity
  8
0
 62
     0
370
    -2
100
AcDbLine
 10
0.0
 20
0.0
 30
0.0
 11
1.0
 21
-0.33
 31
0.0
  0
LINE
  5
1F8
330
1F4
100
AcDbEntity
  8
0
 62
     0
370
    -2
100
AcDbLine
 10
0.0
 20
-2.0
 30
0.0
 11
4.15
 21
-2.0
 31
0.0
  0
ENDBLK
  5
1FA
330
1F4
100
AcDbEntity
  8
0
100
AcDbBlockEnd
  0
BLOCK
  5
22B
330
1FB
100
AcDbEntity
  8
0
100
AcDbBlockBegin
  2
cw-line-extremity0
 70
     0
 10
0.0
 20
0.0
 30
0.0
  3
cw-line-extremity0
  1

  0
LINE
  5
1FC
330
1FB
100
AcDbEntity
  8
0
 62
     0
370
    -2
100
AcDbLine
 10
0.0
 20
0.0
 30
0.0
 11
4.0
 21
1.0
 31
0.0
  0
LINE
  5
1FD
330
1FB
100
AcDbEntity
  8
0
 62
     0
370
    -2
100
AcDbLine
 10
0.0
 20
0.0
 30
0.0
 11
4.0
 21
-1.0
 31
0.0
  0
LINE
  5
1FE
330
1FB
100
AcDbEntity
  8
0
 62
     0
370
    -2
100
AcDbLine
 10
4.0
 20
1.0
 30
0.0
 11
4.0
 21
-1.0
 31
0.0
  0
ENDBLK
  5
22C
330
1FB
100
AcDbEntity
  8
0
100
AcDbBlockEnd
  0
BLOCK
  5
229
330
1FF
100
AcDbEntity
  8
0
100
AcDbBlockBegin
  2
cw-line-extremity2
 70
     0
 10
0.0
 20
0.0
 30
0.0
  3
cw-line-extremity2
  1

  0
HATCH
  5
200
330
1FF
100
AcDbEntity
  8
0
 62
     0
370
     0
100
AcDbHatch
 10
0.0
 20
0.0
 30
0.0
210
0.0
220
0.0
230
1.0
  2
SOLID
 70
     1
 71
     1
 91
        1
 92
        3
 72
     0
 73
     1
 93
        3
 10
0.0
 20
0.0
 10
4.0
 20
1.0
 10
4.0
 20
-1.0
 97
        0
 75
     0
 76
     1
 98
        0
  0
LINE
  5
201
330
1FF
100
AcDbEntity
  8
0
 62
     0
370
    -2
100
AcDbLine
 10
0.0
 20
0.0
 30
0.0
 11
4.0
 21
1.0
 31
0.0
  0
LINE
  5
202
330
1FF
100
AcDbEntity
  8
0
 62
     0
370
    -2
100
AcDbLine
 10
4.0
 20
1.0
 30
0.0
 11
4.0
 21
-1.0
 31
0.0
  0
LINE
  5
203
330
1FF
100
AcDbEntity
  8
0
 62
     0
370
    -2
100
AcDbLine
 10
4.0
 20
-1.0
 30
0.0
 11
0.0
 21
0.0
 31
0.0
  0
ENDBLK
  5
22A
330
1FF
100
AcDbEntity
  8
0
100
AcDbBlockEnd
  0
BLOCK
  5
227
330
204
100
AcDbEntity
  8
0
100
AcDbBlockBegin
  2
cw-line-extremity3
 70
     0
 10
0.0
 20
0.0
 30
0.0
  3
cw-line-extremity3
  1

  0
HATCH
  5
205
330
204
100
AcDbEntity
  8
0
 62
     0
370
     0
100
AcDbHatch
 10
0.0
 20
0.0
 30
0.0
210
0.0
220
0.0
230
1.0
  2
SOLID
 70
     1
 71
     1
 91
        1
 92
        3
 72
     0
 73
     1
 93
        3
 10
0.0
 20
0.0
 10
4.0
 20
1.0
 10
4.0
 20
-1.0
 97
        0
 75
     0
 76
     1
 98
        0
  0
LINE
  5
206
330
204
100
AcDbEntity
  8
0
 62
     0
370
    -2
100
AcDbLine
 10
0.0
 20
0.0
 30
0.0
 11
4.0
 21
1.0
 31
0.0
  0
LINE
  5
207
330
204
100
AcDbEntity
  8
0
 62
     0
370
    -2
100
AcDbLine
 10
4.0
 20
1.0
 30
0.0
 11
4.0
 21
-1.0
 31
0.0
  0
LINE
  5
208
330
204
100
AcDbEntity
  8
0
 62
     0
370
    -2
100
AcDbLine
 10
4.0
 20
-1.0
 30
0.0
 11
0.0
 21
0.0
 31
0.0
  0
ENDBLK
  5
228
330
204
100
AcDbEntity
  8
0
100
AcDbBlockEnd
  0
BLOCK
  5
225
330
209
100
AcDbEntity
  8
0
100
AcDbBlockBegin
  2
cw-line-extremity301
 70
     0
 10
0.0
 20
0.0
 30
0.0
  3
cw-line-extremity301
  1

  0
LINE
  5
20A
330
209
100
AcDbEntity
  8
0
 62
     0
370
    -2
100
AcDbLine
 10
0.0
 20
2.66666
 30
0.0
 11
0.0
 21
-2.66666
 31
0.0
  0
ENDBLK
  5
226
330
209
100
AcDbEntity
  8
0
100
AcDbBlockEnd
  0
BLOCK
  5
223
330
20B
100
AcDbEntity
  8
0
100
AcDbBlockBegin
  2
cw-line-extremity4
 70
     0
 10
0.0
 20
0.0
 30
0.0
  3
cw-line-extremity4
  1

  0
HATCH
  5
20C
330
20B
100
AcDbEntity
  8
0
 62
     0
370
     5
100
AcDbHatch
 10
0.0
 20
0.0
 30
0.0
210
0.0
220
0.0
230
1.0
  2
SOLID
 70
     1
 71
     1
 91
        1
 92
        1
 93
        1
 72
     2
 10
0.0
 20
0.0
 40
1.0
 50
0.0
 51
360.0
 73
     1
 97
        0
 75
     0
 76
     1
 98
        0
  0
ENDBLK
  5
224
330
20B
100
AcDbEntity
  8
0
100
AcDbBlockEnd
  0
BLOCK
  5
221
330
20D
100
AcDbEntity
  8
0
100
AcDbBlockBegin
  2
cw-line-extremity5
 70
     0
 10
0.0
 20
0.0
 30
0.0
  3
cw-line-extremity5
  1

  0
LINE
  5
20E
330
20D
100
AcDbEntity
  8
0
 62
     0
370
    -2
100
AcDbLine
 10
0.0
 20
0.0
 30
0.0
 11
-1.0
 21
0.0
 31
0.0
  0
ENDBLK
  5
222
330
20D
100
AcDbEntity
  8
0
100
AcDbBlockEnd
  0
BLOCK
  5
21F
330
20F
100
AcDbEntity
  8
0
100
AcDbBlockBegin
  2
cw-line-extremity6
 70
     0
 10
0.0
 20
0.0
 30
0.0
  3
cw-line-extremity6
  1

  0
LINE
  5
210
330
20F
100
AcDbEntity
  8
0
 62
     0
370
    18
100
AcDbLine
 10
0.0
 20
1.0
 30
0.0
 11
0.0
 21
-1.0
 31
0.0
  0
ENDBLK
  5
220
330
20F
100
AcDbEntity
  8
0
100
AcDbBlockEnd
  0
BLOCK
  5
21D
330
211
100
AcDbEntity
  8
0
100
AcDbBlockBegin
  2
cw-line-extremity9
 70
     0
 10
0.0
 20
0.0
 30
0.0
  3
cw-line-extremity9
  1

  0
LINE
  5
212
330
211
100
AcDbEntity
  8
0
 62
     0
370
    18
100
AcDbLine
 10
-1.0
 20
-1.0
 30
0.0
 11
1.0
 21
1.0
 31
0.0
  0
ENDBLK
  5
21E
330
211
100
AcDbEntity
  8
0
100
AcDbBlockEnd
  0
BLOCK
  5
21B
330
213
100
AcDbEntity
  8
0
100
AcDbBlockBegin
  2
cw-line-extremity10
 70
     0
 10
0.0
 20
0.0
 30
0.0
  3
cw-line-extremity10
  1

  0
CIRCLE
  5
214
330
213
100
AcDbEntity
  8
0
 62
     0
370
    -2
100
AcDbCircle
 10
0.0
 20
0.0
 30
0.0
 40
1.0
  0
ENDBLK
  5
21C
330
213
100
AcDbEntity
  8
0
100
AcDbBlockEnd
  0
BLOCK
  5
219
330
215
100
AcDbEntity
  8
0
100
AcDbBlockBegin
  2
cw-line-extremity1
 70
     0
 10
0.0
 20
0.0
 30
0.0
  3
cw-line-extremity1
  1

  0
LINE
  5
216
330
215
100
AcDbEntity
  8
0
 62
     0
370
    -2
100
AcDbLine
 10
0.0
 20
0.0
 30
0.0
 11
0.0
 21
1.0
 31
0.0
  0
LINE
  5
217
330
215
100
AcDbEntity
  8
0
 62
     0
370
    -2
100
AcDbLine
 10
0.0
 20
1.0
 30
0.0
 11
0.5
 21
1.5
 31
0.0
  0
LINE
  5
218
330
215
100
AcDbEntity
  8
0
 62
     0
370
    -2
100
AcDbLine
 10
0.5
 20
1.5
 30
0.0
 11
1.5
 21
1.5
 31
0.0
  0
ENDBLK
  5
21A
330
215
100
AcDbEntity
  8
0
100
AcDbBlockEnd
  0
BLOCK
  5
1C
330
1B
100
AcDbEntity
  8
0
100
AcDbBlockBegin
  2
*Paper_Space69
 70
     0
 10
0.0
 20
0.0
 30
0.0
  3
*Paper_Space69
  1

  0
ENDBLK
  5
1D
330
1B
100
AcDbEntity
  8
0
100
AcDbBlockEnd
  0
ENDSEC
  0
SECTION
  2
ENTITIES
  0
LINE
  5
236
330
1F
100
AcDbEntity
  8
Ech.1_5
 62
   190
370
    20
100
AcDbLine
 10
1210.399758093854
 20
-2866.13400587921
 30
0.0
 11
1047.204922284653
 21
-2871.316265121234
 31
0.0
  0
LINE
  5
237
330
1F
100
AcDbEntity
  8
Ech.1_5
 62
   190
370
    20
100
AcDbLine
 10
1210.514783517854
 20
-2870.932772751209
 30
0.0
 11
1047.204922284653
 21
-2876.118684633234
 31
0.0
  0
LINE
  5
238
330
1F
100
AcDbEntity
  8
Ech.1_5
370
    20
100
AcDbLine
 10
1093.723890248653
 20
-2934.386095117234
 30
0.0
 11
1093.723890248653
 21
-2878.747344197235
 31
0.0
  0
LINE
  5
239
330
1F
100
AcDbEntity
  8
Ech.1_5
 62
   190
370
    20
100
AcDbLine
 10
1179.523890248653
 20
-2834.150565177235
 30
0.0
 11
1179.523890248653
 21
-2717.999317691107
 31
0.0
  0
LINE
  5
23A
330
1F
100
AcDbEntity
  8
Ech.1_5
 62
   190
370
    20
100
AcDbLine
 10
1179.523890248653
 20
-2916.342049541235
 30
0.0
 11
1179.523890248653
 21
-2995.070185413234
 31
0.0
  0
LWPOLYLINE
  5
23B
330
1F
100
AcDbEntity
  8
Ech.1_5
 62
   190
370
    20
100
AcDbPolyline
 90
        3
 70
     0
 43
0.0
 10
1184.24255423591
 20
-2868.279485105235
 10
1211.343658283909
 20
-2891.904859153235
 10
1219.343658283909
 20
-2891.904859153235
  0
INSERT
  5
23C
330
1F
100
AcDbEntity
  8
Ech.1_5
 62
   190
370
    20
100
AcDbBlockReference
  2
cw-line-extremity4
 10
1184.24255423591
 20
-2868.279485105235
 30
0.0
 50
318.9197257538347
  0
LWPOLYLINE
  5
23D
330
1F
100
AcDbEntity
  8
Ech.1_5
 62
   190
370
    20
100
AcDbPolyline
 90
        6
 70
     0
 43
0.0
 10
1185.523890248654
 20
-3039.154581741051
 10
1151.168657136655
 20
-3039.154970818237
 10
1144.574455872654
 20
-3046.345910182235
 10
1150.218431880653
 20
-3031.963630178236
 10
1143.623890248653
 20
-3039.154970818237
 10
1068.901055762069
 20
-3039.154665133086
  0
HATCH
  5
23E
330
1F
100
AcDbEntity
  8
Ech.1_5
 62
   254
420
 15326711
440
 33554687
370
     5
100
AcDbHatch
 10
0.0
 20
0.0
 30
0.0
210
0.0
220
0.0
230
1.0
  2
SOLID
 70
     1
 71
     1
 91
        1
 92
        3
 72
     0
 73
     1
 93
        8
 10
1150.218431880653
 20
-3031.963630178236
 10
1144.574455872654
 20
-3046.345910182235
 10
1151.168657136655
 20
-3039.154970818237
 10
1179.523890248653
 20
-3039.154318998235
 10
1179.523890248653
 20
-2873.362361197234
 10
1104.523890248653
 20
-2875.663059685235
 10
1104.523890248653
 20
-3039.154093410236
 10
1143.623890248653
 20
-3039.154970818237
 97
        0
 75
     0
 76
     1
 98
        0
  0
LWPOLYLINE
  5
23F
330
1F
100
AcDbEntity
  8
Ech.1_5
 62
   190
370
    20
100
AcDbPolyline
 90
        9
 70
     0
 43
0.0
 10
1150.218431880653
 20
-3031.963630178236
 10
1144.574455872654
 20
-3046.345910182235
 10
1151.168657136655
 20
-3039.154970818237
 10
1179.523890248653
 20
-3039.154318998235
 10
1179.523890248653
 20
-2873.362361197234
 10
1104.523890248653
 20
-2875.663059685235
 10
1104.523890248653
 20
-3039.154093410236
 10
1143.623890248653
 20
-3039.154970818237
 10
1150.218431880653
 20
-3031.963630178236
  0
LWPOLYLINE
  5
240
330
1F
100
AcDbEntity
  8
Ech.1_5
 62
   190
370
    20
100
AcDbPolyline
 90
        9
 70
     0
 43
0.0
 10
1151.168657136655
 20
-2717.998819879106
 10
1144.574115504655
 20
-2725.190160523106
 10
1150.218091512654
 20
-2710.807880519106
 10
1143.623890248653
 20
-2717.998819879106
 10
1104.523890248653
 20
-2717.999048187106
 10
1104.523890248653
 20
-2868.245896697236
 10
1179.523890248653
 20
-2865.546788481235
 10
1179.523890248653
 20
-2717.998979899105
 10
1151.168657136655
 20
-2717.998819879106
  0
HATCH
  5
241
330
1F
100
AcDbEntity
  8
Ech.1_5
 62
   254
420
 15326711
440
 33554687
370
     5
100
AcDbHatch
 10
0.0
 20
0.0
 30
0.0
210
0.0
220
0.0
230
1.0
  2
SOLID
 70
     1
 71
     1
 91
        1
 92
        3
 72
     0
 73
     1
 93
        8
 10
1151.168657136655
 20
-2717.998819879106
 10
1144.574115504655
 20
-2725.190160523106
 10
1150.218091512654
 20
-2710.807880519106
 10
1143.623890248653
 20
-2717.998819879106
 10
1104.523890248653
 20
-2717.999048187106
 10
1104.523890248653
 20
-2868.245896697236
 10
1179.523890248653
 20
-2865.546788481235
 10
1179.523890248653
 20
-2717.998979899105
 97
        0
 75
     0
 76
     1
 98
        0
  0
LWPOLYLINE
  5
242
330
1F
100
AcDbEntity
  8
Ech.1_5
 62
   190
370
    20
100
AcDbPolyline
 90
        9
 70
     0
 43
0.0
 10
1151.168657136655
 20
-2717.998819879106
 10
1144.574115504655
 20
-2725.190160523106
 10
1150.218091512654
 20
-2710.807880519106
 10
1143.623890248653
 20
-2717.998819879106
 10
1104.523890248653
 20
-2717.999048187106
 10
1104.523890248653
 20
-2868.245896697236
 10
1179.523890248653
 20
-2865.546788481235
 10
1179.523890248653
 20
-2717.998979899105
 10
1151.168657136655
 20
-2717.998819879106
  0
LWPOLYLINE
  5
243
330
1F
100
AcDbEntity
  8
Ech.1_5
 62
   190
370
    20
100
AcDbPolyline
 90
       21
 70
     0
 43
0.0
 10
1210.514783517854
 20
-2870.932772751209
 10
1210.767634865852
 20
-2870.895111859209
 10
1211.012380169853
 20
-2870.799174835209
 10
1211.242992981852
 20
-2870.64732396321
 10
1211.453794853853
 20
-2870.44329831921
 10
1211.639595137854
 20
-2870.19212169121
 10
1211.795818817852
 20
-2869.899978879208
 10
1211.918619153853
 20
-2869.57406341121
 10
1212.004972381852
 20
-2869.22240040321
 10
1212.052752209854
 20
-2868.853648971208
 10
1212.060782133852
 20
-2868.47688899921
 10
1212.028864433853
 20
-2868.10139756321
 10
1211.957785025854
 20
-2867.736420507209
 10
1211.849294121852
 20
-2867.390944787209
 10
1211.706063133854
 20
-2867.07347715521
 10
1211.531618873854
 20
-2866.791834719209
 10
1211.330256745854
 20
-2866.552952447209
 10
1211.106934953854
 20
-2866.362712419208
 10
1210.867152417853
 20
-2866.225798975209
 10
1210.616813381852
 20
-2866.14558337521
 10
1210.362082021853
 20
-2866.124040795209
  0
LWPOLYLINE
  5
244
330
1F
100
AcDbEntity
  8
Ech.1_5
 62
   190
370
    20
100
AcDbPolyline
 90
       21
 70
     0
 43
0.0
 10
1210.362082021853
 20
-2866.124040795209
 10
1210.109230669853
 20
-2866.16170168721
 10
1209.864485365854
 20
-2866.257638711209
 10
1209.633872553852
 20
-2866.40948958321
 10
1209.423070685854
 20
-2866.61351522721
 10
1209.237270397853
 20
-2866.864691855209
 10
1209.081046717853
 20
-2867.156834667209
 10
1208.958246385854
 20
-2867.48275013521
 10
1208.871893153852
 20
-2867.83441314321
 10
1208.824113329852
 20
-2868.203164575209
 10
1208.816083401852
 20
-2868.579924551209
 10
1208.848001105854
 20
-2868.95541598721
 10
1208.919080513853
 20
-2869.320393039208
 10
1209.027571413853
 20
-2869.665868759208
 10
1209.170802405852
 20
-2869.983336391209
 10
1209.345246661853
 20
-2870.26497882721
 10
1209.546608789854
 20
-2870.503861099209
 10
1209.769930585853
 20
-2870.694101127209
 10
1210.009713121853
 20
-2870.831014571209
 10
1210.260052157852
 20
-2870.911230171209
 10
1210.514783517854
 20
-2870.932772751209
  0
LWPOLYLINE
  5
245
330
1F
100
AcDbEntity
  8
Ech.1_5
 62
   190
370
    20
100
AcDbPolyline
 90
       21
 70
     0
 43
0.0
 10
1047.204922284653
 20
-2876.118684633234
 10
1047.457773636653
 20
-2876.081023741235
 10
1047.702518936653
 20
-2875.985086717235
 10
1047.933131748652
 20
-2875.833235845235
 10
1048.143933620655
 20
-2875.629210201234
 10
1048.329733904654
 20
-2875.378033573235
 10
1048.485957588653
 20
-2875.085890761236
 10
1048.608757920652
 20
-2874.759975293235
 10
1048.695111148655
 20
-2874.408312285235
 10
1048.742890976654
 20
-2874.039560853235
 10
1048.750920900655
 20
-2873.662800877235
 10
1048.719003200652
 20
-2873.287309441235
 10
1048.647923792653
 20
-2872.922332389235
 10
1048.539432892653
 20
-2872.576856669235
 10
1048.396201900654
 20
-2872.259389037235
 10
1048.221757640654
 20
-2871.977746597235
 10
1048.020395512654
 20
-2871.738864329234
 10
1047.797073720654
 20
-2871.548624301234
 10
1047.557291184653
 20
-2871.411710857234
 10
1047.306952148655
 20
-2871.331495257235
 10
1047.052220788652
 20
-2871.309952677234
  0
LWPOLYLINE
  5
246
330
1F
100
AcDbEntity
  8
Ech.1_5
 62
   190
370
    20
100
AcDbPolyline
 90
       21
 70
     0
 43
0.0
 10
1047.052220788652
 20
-2871.309952677234
 10
1046.799369436653
 20
-2871.347613569235
 10
1046.554624136653
 20
-2871.443550593235
 10
1046.324011320655
 20
-2871.595401461234
 10
1046.113209452654
 20
-2871.799427105234
 10
1045.927409168655
 20
-2872.050603737235
 10
1045.771185484653
 20
-2872.342746549235
 10
1045.648385152653
 20
-2872.668662017235
 10
1045.562031920655
 20
-2873.020325025234
 10
1045.514252096655
 20
-2873.389076457235
 10
1045.506222172654
 20
-2873.765836429235
 10
1045.538139872654
 20
-2874.141327865235
 10
1045.609219280652
 20
-2874.506304917235
 10
1045.717710180652
 20
-2874.851780641234
 10
1045.860941172655
 20
-2875.169248273235
 10
1046.035385428653
 20
-2875.450890709235
 10
1046.236747556653
 20
-2875.689772981234
 10
1046.460069352652
 20
-2875.880013009235
 10
1046.699851888653
 20
-2876.016926453234
 10
1046.950190924654
 20
-2876.097142053235
 10
1047.204922284653
 20
-2876.118684633234
  0
LINE
  5
247
330
1F
100
AcDbEntity
  8
Ech.1_5
 62
   190
370
    20
100
AcDbLine
 10
1073.324178060574
 20
-2870.067689553234
 30
0.0
 11
1071.149617896574
 21
-2870.067689553234
 31
0.0
  0
LINE
  5
248
330
1F
100
AcDbEntity
  8
Ech.1_5
 62
   190
370
    20
100
AcDbLine
 10
1073.324178060574
 20
-2868.245705101235
 30
0.0
 11
1071.149617896574
 21
-2868.245705101235
 31
0.0
  0
LINE
  5
249
330
1F
100
AcDbEntity
  8
Ech.1_5
 62
   190
370
    20
100
AcDbLine
 10
1071.324178060574
 20
-2872.067689553234
 30
0.0
 11
1071.324178060574
 21
-2866.245705101235
 31
0.0
  0
LINE
  5
24A
330
1F
100
AcDbEntity
  8
Ech.1_5
 62
   190
370
    20
100
AcDbLine
 10
1072.324178060574
 20
-2871.067689553234
 30
0.0
 11
1070.324178060574
 21
-2869.067689553236
 31
0.0
  0
LINE
  5
24B
330
1F
100
AcDbEntity
  8
Ech.1_5
 62
   190
370
    20
100
AcDbLine
 10
1072.324178060574
 20
-2869.245705101235
 30
0.0
 11
1070.324178060574
 21
-2867.245705101235
 31
0.0
  0
LWPOLYLINE
  5
24C
330
1F
100
AcDbEntity
  8
Ech.1_5
 62
   190
370
    20
100
AcDbPolyline
 90
        9
 70
     0
 43
0.0
 10
1151.168657136657
 20
-2717.998819879106
 10
1144.574115504657
 20
-2725.190160523106
 10
1150.218091512655
 20
-2710.807880519106
 10
1143.623890248655
 20
-2717.998819879106
 10
1104.523890248654
 20
-2717.999048187106
 10
1104.523890248654
 20
-2868.245896697236
 10
1179.523890248654
 20
-2865.546788481235
 10
1179.523890248654
 20
-2717.998979899105
 10
1151.168657136657
 20
-2717.998819879106
  0
LWPOLYLINE
  5
24D
330
1F
100
AcDbEntity
  8
Ech.1_5
 62
   190
370
    20
100
AcDbPolyline
 90
        9
 70
     0
 43
0.0
 10
1150.218431880653
 20
-3031.963630178236
 10
1144.574455872654
 20
-3046.345910182235
 10
1151.168657136655
 20
-3039.154970818237
 10
1179.523890248654
 20
-3039.154318998235
 10
1179.523890248654
 20
-2873.362361197234
 10
1104.523890248654
 20
-2875.663059685235
 10
1104.523890248654
 20
-3039.154093410236
 10
1143.623890248653
 20
-3039.154970818237
 10
1150.218431880653
 20
-3031.963630178236
  0
LWPOLYLINE
  5
24E
330
1F
100
AcDbEntity
  8
Ech.1_5
 62
   190
370
    20
100
AcDbPolyline
 90
        5
 70
     0
 43
0.0
 10
932.6366187272117
 20
-3116.080870755796
 10
1326.636618727212
 20
-3116.080870755796
 10
1326.636618727212
 20
-3171.046099581818
 10
932.6366187272117
 20
-3171.046099581818
 10
932.6366187272117
 20
-3116.080870755796
  0
LWPOLYLINE
  5
24F
330
1F
100
AcDbEntity
  8
Ech.1_5
 62
   190
370
    20
100
AcDbPolyline
 90
        5
 70
     0
 43
0.0
 10
1326.636618727212
 20
-2667.252884784125
 10
932.6366187272117
 20
-2667.252884784125
 10
932.6366187272117
 20
-2629.046099581866
 10
1326.636618727212
 20
-2629.046099581866
 10
1326.636618727212
 20
-2667.252884784125
  0
LWPOLYLINE
  5
250
330
1F
100
AcDbEntity
  8
Ech.1_5
 62
   190
370
    20
100
AcDbPolyline
 90
        5
 70
     0
 43
0.0
 10
1326.636618727212
 20
-3124.880870755795
 10
932.6366187272117
 20
-3124.880870755795
 10
932.6366187272117
 20
-3116.080870755796
 10
1326.636618727212
 20
-3116.080870755796
 10
1326.636618727212
 20
-3124.880870755795
  0
LWPOLYLINE
  5
251
330
1F
100
AcDbEntity
  8
Ech.1_5
 62
   190
370
    20
100
AcDbPolyline
 90
        5
 70
     0
 43
0.0
 10
1326.636618727212
 20
-3147.629328847932
 10
932.6366187272117
 20
-3147.629328847932
 10
932.6366187272117
 20
-3138.138517523636
 10
1326.636618727212
 20
-3138.138517523636
 10
1326.636618727212
 20
-3147.629328847932
  0
LINE
  5
252
330
1F
100
AcDbEntity
  8
Ech.1_5
 62
   190
370
    20
100
AcDbLine
 10
1007.918443512395
 20
-3116.080870755796
 30
0.0
 11
1007.918443512395
 21
-3124.880870755795
 31
0.0
  0
LINE
  5
253
330
1F
100
AcDbEntity
  8
Ech.1_5
 62
   190
370
    20
100
AcDbLine
 10
1270.717684564613
 20
-3116.080870755796
 30
0.0
 11
1270.717684564613
 21
-3124.880870755795
 31
0.0
  0
LINE
  5
254
330
1F
100
AcDbEntity
  8
Ech.1_5
 62
   190
370
    20
100
AcDbLine
 10
1070.380530710536
 20
-3116.080870755796
 30
0.0
 11
1070.380530710536
 21
-3124.880870755795
 31
0.0
  0
IMAGE
  5
257
330
1F
100
AcDbEntity
  8
Ech.1_5
160
                 8
310
0800000000000000
100
AcDbRasterImage
 90
        0
 10
1009.062318223565
 20
-3169.031880589399
 30
0.0
 11
0.1133603238866397
 21
0.0
 31
0.0
 12
0.0
 22
0.1111111111111111
 32
0.0
 13
247.0
 23
171.0
340
256
 70
     3
280
     0
281
    50
282
    50
283
     0
360
258
 71
     1
 91
        2
 14
-0.5
 24
-0.5
 14
246.5
 24
170.5
290
     0
  0
IMAGE
  5
25A
330
1F
100
AcDbEntity
  8
Ech.1_5
160
                 8
310
0800000000000000
100
AcDbRasterImage
 90
        0
 10
1113.493386720356
 20
-3170.053725510912
 30
0.0
 11
0.16
 21
0.0
 31
0.0
 12
0.0
 22
0.1578947368421053
 32
0.0
 13
200.0
 23
133.0
340
259
 70
     3
280
     0
281
    50
282
    50
283
     0
360
25B
 71
     1
 91
        2
 14
-0.5
 24
-0.5
 14
199.5
 24
132.5
290
     0
  0
IMAGE
  5
25D
330
1F
100
AcDbEntity
  8
Ech.1_5
160
                 8
310
0800000000000000
100
AcDbRasterImage
 90
        0
 10
1210.843253272014
 20
-3170.535716676892
 30
0.0
 11
0.03770739064856712
 21
0.0
 31
0.0
 12
0.0
 22
0.03793103448275862
 32
0.0
 13
1326.0
 23
580.0
340
25C
 70
     3
280
     0
281
    50
282
    50
283
     0
360
25E
 71
     1
 91
        2
 14
-0.5
 24
-0.5
 14
1325.5
 24
579.5
290
     0
  0
LINE
  5
25F
330
1F
100
AcDbEntity
  8
Ech.1_5
 62
   190
370
    20
100
AcDbLine
 10
1326.636618727215
 20
-2641.046099581822
 30
0.0
 11
932.6366187272154
 21
-2641.046099581822
 31
0.0
  0
LWPOLYLINE
  5
260
330
1F
100
AcDbEntity
  8
Ech.1_5
 62
   190
370
    20
100
AcDbPolyline
 90
        5
 70
     0
 43
0.0
 10
1326.636618727212
 20
-3171.046099581818
 10
1326.636618727212
 20
-2629.046099581818
 10
932.6366187272117
 20
-2629.046099581818
 10
932.6366187272117
 20
-3171.046099581818
 10
1326.636618727212
 20
-3171.046099581818
  0
CIRCLE
  5
261
330
1F
100
AcDbEntity
  8
Ech.1_5
 62
   154
420
    21156
370
    50
100
AcDbCircle
 10
1276.63763670575
 20
-2711.550037222367
 30
0.0
 40
29.99694606438788
  0
LWPOLYLINE
  5
262
330
1F
100
AcDbEntity
  8
Ech.1_5
 62
   154
420
    21156
370
    20
100
AcDbPolyline
 90
      194
 70
     0
 43
0.0
 10
1276.305925611879
 20
-2702.820512267923
 10
1276.676626033422
 20
-2703.890590856562
 10
1277.039776069417
 20
-2704.962088644321
 10
1277.216160197351
 20
-2705.498813237596
 10
1277.387825334316
 20
-2706.036424830321
 10
1277.55382768212
 20
-2706.575100822387
 10
1277.71322344257
 20
-2707.115018613682
 10
1277.865068817471
 20
-2707.656355604098
 10
1278.00842000863
 20
-2708.199289193524
 10
1278.142333217854
 20
-2708.74399678185
 10
1278.265864646948
 20
-2709.290655768968
 10
1278.37807049772
 20
-2709.839443554766
 10
1278.478006971976
 20
-2710.390537539134
 10
1278.564730271522
 20
-2710.944115121962
 10
1278.637296598166
 20
-2711.500353703142
 10
1278.694762153712
 20
-2712.059430682561
 10
1278.717537205388
 20
-2712.340089009077
 10
1278.736183139968
 20
-2712.621523460112
 10
1278.750581982677
 20
-2712.903756210652
 10
1278.760615758741
 20
-2713.186809435684
 10
1278.766166493385
 20
-2713.470705310192
 10
1278.767116211835
 20
-2713.755466009165
 10
1278.763374364635
 20
-2714.041107808878
 10
1278.755196277708
 20
-2714.327572593802
 10
1278.727504101882
 20
-2714.902534024602
 10
1278.688008126046
 20
-2715.479471163736
 10
1278.640681393338
 20
-2716.057503883686
 10
1278.538427829867
 20
-2717.213335555947
 10
1278.491447085383
 20
-2717.789374253216
 10
1278.452527756588
 20
-2718.362988021218
 10
1278.425642886619
 20
-2718.93329673243
 10
1278.417954949676
 20
-2719.216936651891
 10
1278.414765518618
 20
-2719.499420259333
 10
1278.416571223836
 20
-2719.780637538819
 10
1278.423868695724
 20
-2720.060478474406
 10
1278.437154564673
 20
-2720.338833050155
 10
1278.456925461076
 20
-2720.615591250128
 10
1278.483678015325
 20
-2720.89064305838
 10
1278.517908857815
 20
-2721.163878458976
 10
1278.560114618935
 20
-2721.435187435974
 10
1278.61079192908
 20
-2721.704459973434
 10
1278.67043741864
 20
-2721.971586055414
 10
1278.73954771801
 20
-2722.236455665977
 10
1278.818619457582
 20
-2722.498958789181
 10
1278.908149267747
 20
-2722.758985409086
 10
1279.008633778899
 20
-2723.016425509753
 10
1279.120566844158
 20
-2723.271168798427
 10
1279.24416159764
 20
-2723.523077002824
 10
1279.379113458047
 20
-2723.771960249465
 10
1279.525062026048
 20
-2724.017623101437
 10
1279.681646902311
 20
-2724.259870121824
 10
1279.848507687505
 20
-2724.498505873711
 10
1280.025283982299
 20
-2724.733334920186
 10
1280.211615387361
 20
-2724.964161824333
 10
1280.407141503362
 20
-2725.190791149238
 10
1280.611501930969
 20
-2725.413027457985
 10
1280.824336270851
 20
-2725.630675313661
 10
1281.045284123678
 20
-2725.843539279354
 10
1281.273985090118
 20
-2726.051423918144
 10
1281.51007877084
 20
-2726.25413379312
 10
1281.753204766513
 20
-2726.451473467368
 10
1282.003002677805
 20
-2726.643247503972
 10
1282.259112105386
 20
-2726.829260466018
 10
1282.521172649925
 20
-2727.009316916592
 10
1282.78882391209
 20
-2727.183221418779
 10
1283.061705492549
 20
-2727.350778535665
 10
1283.339456991973
 20
-2727.511792830335
 10
1283.62171801103
 20
-2727.666068865875
 10
1283.908128150388
 20
-2727.813411205371
 10
1284.198327010718
 20
-2727.953624411908
 10
1284.491954192686
 20
-2728.086513048571
 10
1284.788649296963
 20
-2728.211881678446
 10
1285.088051924216
 20
-2728.329534864618
 10
1285.389801675117
 20
-2728.439277170175
 10
1285.693538150332
 20
-2728.540913158199
 10
1285.99890095053
 20
-2728.634247391778
 10
1286.305529676381
 20
-2728.719084433998
 10
1286.613063928554
 20
-2728.795228847942
 10
1286.921143307717
 20
-2728.862485196697
 10
1287.229407414539
 20
-2728.920658043348
 10
1287.537495849689
 20
-2728.969551950983
 10
1287.845048213836
 20
-2729.008971482684
 10
1288.151704107649
 20
-2729.038721201538
 10
1288.457103131796
 20
-2729.058605670631
 10
1288.760884886947
 20
-2729.068429453048
 10
1289.06268897377
 20
-2729.067997111876
 10
1289.362154992934
 20
-2729.057113210198
 10
1289.658922545109
 20
-2729.035582311101
 10
1289.952631230962
 20
-2729.003208977671
 10
1290.242920651163
 20
-2728.959797772992
 10
1290.52943040638
 20
-2728.905153260152
 10
1290.811800097284
 20
-2728.839080002234
 10
1291.089669324541
 20
-2728.761382562325
 10
1291.362677688821
 20
-2728.67186550351
 10
1291.630464790794
 20
-2728.570333388875
 10
1291.892670231128
 20
-2728.456590781504
 10
1292.148944676736
 20
-2728.330464139466
 10
1292.39910161561
 20
-2728.192102068413
 10
1292.643078477583
 20
-2728.041898397576
 10
1292.880815800982
 20
-2727.880253106455
 10
1293.112254124136
 20
-2727.707566174548
 10
1293.33733398537
 20
-2727.524237581357
 10
1293.555995923012
 20
-2727.33066730638
 10
1293.76818047539
 20
-2727.127255329117
 10
1293.973828180831
 20
-2726.914401629066
 10
1294.172879577661
 20
-2726.69250618573
 10
1294.365275204208
 20
-2726.461968978604
 10
1294.550955598799
 20
-2726.223189987191
 10
1294.729861299761
 20
-2725.976569190989
 10
1294.901932845422
 20
-2725.722506569498
 10
1295.067110774109
 20
-2725.461402102217
 10
1295.225335624148
 20
-2725.193655768646
 10
1295.376547933867
 20
-2724.919667548284
 10
1295.520688241593
 20
-2724.639837420631
 10
1295.657697085654
 20
-2724.354565365187
 10
1295.787515004377
 20
-2724.06425136145
 10
1295.910082536088
 20
-2723.769295388921
 10
1296.025340219115
 20
-2723.470097427099
 10
1296.133228591785
 20
-2723.167057455483
 10
1296.233688192425
 20
-2722.860575453572
 10
1296.326659559364
 20
-2722.551051400868
 10
1296.412083230926
 20
-2722.238885276869
 10
1296.489899745441
 20
-2721.924477061074
 10
1296.560049641234
 20
-2721.608226732982
 10
1296.622473456634
 20
-2721.290534272094
 10
1296.677111729967
 20
-2720.97179965791
 10
1296.72390499956
 20
-2720.652422869928
 10
1296.762793803742
 20
-2720.332803887647
 10
1296.793718680838
 20
-2720.013342690568
 10
1296.816620169177
 20
-2719.694439258191
 10
1296.831438807085
 20
-2719.376493570013
 10
1296.838115132889
 20
-2719.059905605536
 10
1296.836589684917
 20
-2718.745075344258
 10
1296.826803001496
 20
-2718.43240276568
 10
1296.808695620953
 20
-2718.1222878493
 10
1296.782208081615
 20
-2717.815130574618
 10
1296.747280921809
 20
-2717.511330921133
 10
1296.703854679864
 20
-2717.211288868346
 10
1296.651869894105
 20
-2716.915404395756
 10
1296.59126710286
 20
-2716.624077482862
 10
1296.521986844456
 20
-2716.337708109163
 10
1296.44396965722
 20
-2716.056696254159
 10
1296.35715607948
 20
-2715.78144189735
 10
1296.261486649563
 20
-2715.512345018235
 10
1296.156901905795
 20
-2715.249805596314
 10
1296.043342386505
 20
-2714.994223611086
 10
1295.920748630019
 20
-2714.745999042051
 10
1295.789071156823
 20
-2714.505513043231
 10
1295.648436304854
 20
-2714.272815192321
 10
1295.499120707299
 20
-2714.047671623332
 10
1295.341405835667
 20
-2713.829839345619
 10
1295.175573161468
 20
-2713.619075368539
 10
1295.001904156213
 20
-2713.415136701446
 10
1294.820680291409
 20
-2713.217780353696
 10
1294.632183038568
 20
-2713.026763334646
 10
1294.436693869198
 20
-2712.84184265365
 10
1294.23449425481
 20
-2712.662775320064
 10
1294.025865666913
 20
-2712.489318343245
 10
1293.811089577016
 20
-2712.321228732548
 10
1293.59044745663
 20
-2712.158263497328
 10
1293.364220777263
 20
-2712.000179646942
 10
1293.132691010426
 20
-2711.846734190745
 10
1292.896139627628
 20
-2711.697684138094
 10
1292.65484810038
 20
-2711.552786498342
 10
1292.409097900189
 20
-2711.411798280848
 10
1292.159170498567
 20
-2711.274476494965
 10
1291.905347367023
 20
-2711.14057815005
 10
1291.647909977066
 20
-2711.009860255458
 10
1291.387139800207
 20
-2710.882079820545
 10
1290.856726971817
 20
-2710.634359367181
 10
1290.316360653932
 20
-2710.395472864803
 10
1289.768292618628
 20
-2710.163476388256
 10
1289.214774637983
 20
-2709.936426012386
 10
1288.100395928976
 20
-2709.489387862061
 10
1287.54403874477
 20
-2709.265512237298
 10
1286.99123870353
 20
-2709.038807012595
 10
1286.444247577335
 20
-2708.807328262799
 10
1285.905110674917
 20
-2708.569309399965
 10
1285.374217159124
 20
-2708.324406346725
 10
1284.851159683737
 20
-2708.07295916989
 10
1284.335525825577
 20
-2707.81531229702
 10
1283.826903161465
 20
-2707.55181015567
 10
1283.324879268222
 20
-2707.282797173399
 10
1282.829041722668
 20
-2707.008617777764
 10
1282.338978101623
 20
-2706.729616396322
 10
1281.854275981909
 20
-2706.446137456632
 10
1281.374522940347
 20
-2706.158525386251
 10
1280.899306553757
 20
-2705.867124612737
 10
1280.428214398959
 20
-2705.572279563647
 10
1279.960834052776
 20
-2705.274334666539
 10
1279.035559093531
 20
-2704.670523038497
 10
1278.12018229059
 20
-2704.058445149073
 10
1277.211404258517
 20
-2703.440856418729
 10
1276.305925611879
 20
-2702.820512267923
  0
LWPOLYLINE
  5
263
330
1F
100
AcDbEntity
  8
Ech.1_5
 62
   154
420
    21156
370
    20
100
AcDbPolyline
 90
       95
 70
     0
 43
0.0
 10
1293.861488781155
 20
-2714.505257430176
 10
1293.842712718736
 20
-2715.040051873368
 10
1293.823737958324
 20
-2715.584242186806
 10
1293.814113973249
 20
-2715.86279700432
 10
1293.804365801929
 20
-2716.147224240738
 10
1293.794468607116
 20
-2716.438698379841
 10
1293.784397551559
 20
-2716.73839390541
 10
1293.774127798011
 20
-2717.047485301225
 10
1293.763634509223
 20
-2717.367147051068
 10
1293.752892847945
 20
-2717.698553638719
 10
1293.741877976929
 20
-2718.04287954796
 10
1293.730565058925
 20
-2718.40129926257
 10
1293.718929256685
 20
-2718.774987266332
 10
1293.712982512335
 20
-2718.967923902825
 10
1293.706945732959
 20
-2719.165118043024
 10
1293.694695613456
 20
-2719.572122632416
 10
1293.682874789953
 20
-2719.992118829683
 10
1293.672400312507
 20
-2720.419672766999
 10
1293.664189522555
 20
-2720.849348532187
 10
1293.659159761539
 20
-2721.27571021307
 10
1293.658228370895
 20
-2721.693321897471
 10
1293.659586233663
 20
-2721.897147768436
 10
1293.662312692064
 20
-2722.096747673214
 10
1293.666522413777
 20
-2722.291442122782
 10
1293.672330066483
 20
-2722.480551628119
 10
1293.679850317861
 20
-2722.663396700204
 10
1293.689197835592
 20
-2722.839297850012
 10
1293.700487287354
 20
-2723.007575588524
 10
1293.713833340829
 20
-2723.167550426715
 10
1293.729350663695
 20
-2723.318542875565
 10
1293.747153923632
 20
-2723.45987344605
 10
1293.767357788322
 20
-2723.59086264915
 10
1293.790076925442
 20
-2723.71083099584
 10
1293.815426002674
 20
-2723.819098997102
 10
1293.843519687696
 20
-2723.91498716391
 10
1293.87447264819
 20
-2723.997816007243
 10
1293.908399551834
 20
-2724.06690603808
 10
1293.945415066308
 20
-2724.121577767398
 10
1293.985633859293
 20
-2724.161151706176
 10
1294.006980318877
 20
-2724.175064663792
 10
1294.029170598468
 20
-2724.184948365389
 10
1294.052219031527
 20
-2724.19071787484
 10
1294.076139951513
 20
-2724.192288256017
 10
1294.100946999989
 20
-2724.189576797934
 10
1294.126629638068
 20
-2724.182578553729
 10
1294.153147402898
 20
-2724.171384811799
 10
1294.180457974642
 20
-2724.156092832581
 10
1294.237288259525
 20
-2724.113603204029
 10
1294.296781934027
 20
-2724.05588775157
 10
1294.358600439454
 20
-2723.983724558702
 10
1294.422405217116
 20
-2723.897891708922
 10
1294.48785770832
 20
-2723.799167285727
 10
1294.554619354374
 20
-2723.688329372615
 10
1294.622351596586
 20
-2723.566156053083
 10
1294.690715876264
 20
-2723.43342541063
 10
1294.759373634716
 20
-2723.290915528751
 10
1294.82798631325
 20
-2723.139404490946
 10
1294.896215353174
 20
-2722.979670380711
 10
1294.963722195797
 20
-2722.812491281543
 10
1295.030168282426
 20
-2722.638645276942
 10
1295.095215054368
 20
-2722.458910450402
 10
1295.158523952933
 20
-2722.274064885423
 10
1295.219756419428
 20
-2722.084886665501
 10
1295.334637821441
 20
-2721.696644594822
 10
1295.43715079087
 20
-2721.300408906342
 10
1295.482922716637
 20
-2721.101238664172
 10
1295.524586858181
 20
-2720.902404268044
 10
1295.561804656812
 20
-2720.704683801456
 10
1295.594237553837
 20
-2720.508855347905
 10
1295.621547616555
 20
-2720.315695857567
 10
1295.643531225903
 20
-2720.125739113036
 10
1295.660285225659
 20
-2719.938974925167
 10
1295.671947237131
 20
-2719.755319279311
 10
1295.678654881622
 20
-2719.574688160819
 10
1295.680545780439
 20
-2719.396997555042
 10
1295.677757554885
 20
-2719.22216344733
 10
1295.670427826265
 20
-2719.050101823036
 10
1295.658694215886
 20
-2718.880728667511
 10
1295.642694345051
 20
-2718.713959966103
 10
1295.622565835066
 20
-2718.549711704165
 10
1295.598446307235
 20
-2718.387899867049
 10
1295.570473382865
 20
-2718.228440440105
 10
1295.538784683259
 20
-2718.071249408684
 10
1295.503517829723
 20
-2717.916242758136
 10
1295.464810443562
 20
-2717.763336473814
 10
1295.377624558584
 20
-2717.463488945248
 10
1295.278327998765
 20
-2717.171034705794
 10
1295.168021734546
 20
-2716.88530163826
 10
1295.047806736367
 20
-2716.605617625455
 10
1294.918783974666
 20
-2716.331310550185
 10
1294.782054419886
 20
-2716.061708295259
 10
1294.638719042464
 20
-2715.796138743485
 10
1294.489878812843
 20
-2715.533929777672
 10
1294.180087678759
 20
-2715.016905135156
 10
1293.861488781155
 20
-2714.505257430176
  0
LWPOLYLINE
  5
264
330
1F
100
AcDbEntity
  8
Ech.1_5
 62
   154
420
    21156
370
    20
100
AcDbPolyline
 90
      171
 70
     0
 43
0.0
 10
1263.922563005718
 20
-2708.84688876977
 10
1264.255935874055
 20
-2710.005774872523
 10
1264.415761553239
 20
-2710.586488493688
 10
1264.567354326439
 20
-2711.168726798601
 10
1264.707969891662
 20
-2711.752998015176
 10
1264.834863946913
 20
-2712.339810371329
 10
1264.892307813927
 20
-2712.634328297971
 10
1264.945292190199
 20
-2712.929672094977
 10
1264.993474037982
 20
-2713.225905290834
 10
1265.036510319524
 20
-2713.523091414032
 10
1265.074057997079
 20
-2713.821293993063
 10
1265.105774032895
 20
-2714.120576556413
 10
1265.131315389225
 20
-2714.421002632575
 10
1265.150339028318
 20
-2714.722635750035
 10
1265.162501912425
 20
-2715.025539437285
 10
1265.167461003797
 20
-2715.329777222813
 10
1265.164873264685
 20
-2715.635412635109
 10
1265.154395657339
 20
-2715.942509202662
 10
1265.135988400158
 20
-2716.251064566839
 10
1265.111298045717
 20
-2716.560709986626
 10
1265.051985849678
 20
-2717.181289453777
 10
1264.99429746015
 20
-2717.800283921251
 10
1264.971636863848
 20
-2718.107948091438
 10
1264.956071824398
 20
-2718.413729585303
 10
1264.949832210209
 20
-2718.71713292738
 10
1264.955147889689
 20
-2719.017662642198
 10
1264.974248731246
 20
-2719.31482325429
 10
1264.989665421681
 20
-2719.461985310731
 10
1265.009364603288
 20
-2719.608119288189
 10
1265.033625009619
 20
-2719.753163252234
 10
1265.062725374224
 20
-2719.89705526843
 10
1265.096944430654
 20
-2720.039733402343
 10
1265.136560912461
 20
-2720.181135719541
 10
1265.181853553196
 20
-2720.321200285591
 10
1265.233101086408
 20
-2720.459865166057
 10
1265.290582245651
 20
-2720.597068426509
 10
1265.354556311585
 20
-2720.732745756837
 10
1265.425011043188
 20
-2720.866799687491
 10
1265.501734750309
 20
-2720.999108391301
 10
1265.584511135796
 20
-2721.129549478469
 10
1265.673123902497
 20
-2721.258000559195
 10
1265.767356753262
 20
-2721.384339243683
 10
1265.866993390936
 20
-2721.508443142132
 10
1265.971817518369
 20
-2721.630189864746
 10
1266.081612838409
 20
-2721.749457021725
 10
1266.196163053904
 20
-2721.866122223273
 10
1266.315251867702
 20
-2721.980063079589
 10
1266.438662982651
 20
-2722.091157200877
 10
1266.566180101599
 20
-2722.199282197337
 10
1266.697586927394
 20
-2722.304315679171
 10
1266.832667162884
 20
-2722.40613525658
 10
1266.971204510919
 20
-2722.504618539769
 10
1267.112982674344
 20
-2722.599643138936
 10
1267.257785356009
 20
-2722.691086664285
 10
1267.405396258762
 20
-2722.778826726016
 10
1267.55559908545
 20
-2722.862740934331
 10
1267.708177538923
 20
-2722.942706899432
 10
1267.862915322027
 20
-2723.018602231522
 10
1268.019596137612
 20
-2723.090304540802
 10
1268.178003688524
 20
-2723.157691437472
 10
1268.337921677613
 20
-2723.220640531735
 10
1268.499133807726
 20
-2723.279029433793
 10
1268.661423781712
 20
-2723.332735753848
 10
1268.824575302418
 20
-2723.3816371021
 10
1268.988372072693
 20
-2723.425611088752
 10
1269.152597795384
 20
-2723.464535324005
 10
1269.317036173341
 20
-2723.498287418063
 10
1269.48147090941
 20
-2723.526744981124
 10
1269.64568570644
 20
-2723.549785623392
 10
1269.80946426728
 20
-2723.567286955068
 10
1269.972590294776
 20
-2723.579126586355
 10
1270.134847491778
 20
-2723.585182127452
 10
1270.296019561133
 20
-2723.585331188563
 10
1270.45589020569
 20
-2723.579451379889
 10
1270.614243128296
 20
-2723.567420311632
 10
1270.7708620318
 20
-2723.549115593994
 10
1270.92553061905
 20
-2723.524414837175
 10
1271.078032592893
 20
-2723.493195651377
 10
1271.228151656179
 20
-2723.455335646805
 10
1271.375671511754
 20
-2723.410712433656
 10
1271.520375862468
 20
-2723.359203622135
 10
1271.662048411167
 20
-2723.300686822442
 10
1271.800473284213
 20
-2723.235040549861
 10
1271.935489031363
 20
-2723.162259627078
 10
1272.067041654868
 20
-2723.08256851185
 10
1272.195089750973
 20
-2722.996218576369
 10
1272.319591915926
 20
-2722.903461192829
 10
1272.440506745975
 20
-2722.80454773342
 10
1272.557792837366
 20
-2722.699729570337
 10
1272.671408786345
 20
-2722.58925807577
 10
1272.78131318916
 20
-2722.473384621912
 10
1272.887464642058
 20
-2722.352360580955
 10
1272.989821741285
 20
-2722.226437325091
 10
1273.088343083089
 20
-2722.095866226513
 10
1273.182987263717
 20
-2721.960898657415
 10
1273.273712879415
 20
-2721.821785989985
 10
1273.36047852643
 20
-2721.67877959642
 10
1273.443242801009
 20
-2721.532130848909
 10
1273.521964299399
 20
-2721.382091119645
 10
1273.596601617847
 20
-2721.228911780821
 10
1273.667113352601
 20
-2721.072844204628
 10
1273.733458099906
 20
-2720.914139763261
 10
1273.79559445601
 20
-2720.753049828909
 10
1273.853481017159
 20
-2720.589825773766
 10
1273.907076379601
 20
-2720.424718970025
 10
1273.956339139582
 20
-2720.257980789877
 10
1274.00122789335
 20
-2720.089862605515
 10
1274.041701237151
 20
-2719.92061578913
 10
1274.077717767232
 20
-2719.750491712916
 10
1274.10923607984
 20
-2719.579741749063
 10
1274.136214771223
 20
-2719.408617269766
 10
1274.158612437626
 20
-2719.237369647217
 10
1274.176387675297
 20
-2719.066250253607
 10
1274.189499080483
 20
-2718.895510461128
 10
1274.19790524943
 20
-2718.725401641973
 10
1274.201564778386
 20
-2718.556175168335
 10
1274.200436263597
 20
-2718.388082412405
 10
1274.194478301311
 20
-2718.221374746376
 10
1274.183649487775
 20
-2718.056303542441
 10
1274.167908419234
 20
-2717.89312017279
 10
1274.147213691937
 20
-2717.732076009619
 10
1274.121523902129
 20
-2717.573422425115
 10
1274.090797646058
 20
-2717.417410791476
 10
1274.054993519972
 20
-2717.264292480891
 10
1274.014070120116
 20
-2717.114318865551
 10
1273.967986042738
 20
-2716.967741317653
 10
1273.916699884084
 20
-2716.824811209385
 10
1273.860170240402
 20
-2716.685779912941
 10
1273.798355707938
 20
-2716.550898800513
 10
1273.73121488294
 20
-2716.420419244294
 10
1273.658714074946
 20
-2716.294578501378
 10
1273.580943604913
 20
-2716.173386891624
 10
1273.498093855732
 20
-2716.056671624497
 10
1273.410358064446
 20
-2715.944254686457
 10
1273.317929468096
 20
-2715.835958063957
 10
1273.221001303724
 20
-2715.731603743457
 10
1273.119766808372
 20
-2715.631013711411
 10
1273.01441921908
 20
-2715.534009954279
 10
1272.905151772892
 20
-2715.440414458515
 10
1272.792157706848
 20
-2715.350049210576
 10
1272.67563025799
 20
-2715.26273619692
 10
1272.55576266336
 20
-2715.178297404003
 10
1272.432748160001
 20
-2715.096554818283
 10
1272.178051375256
 20
-2714.940446214256
 10
1271.91308580009
 20
-2714.792986276496
 10
1271.639397330837
 20
-2714.652750896655
 10
1271.358531863829
 20
-2714.518315966388
 10
1271.072035295401
 20
-2714.388257377349
 10
1270.488332439617
 20
-2714.135572789575
 10
1269.900655934151
 20
-2713.883304266563
 10
1269.609192303623
 20
-2713.753765758479
 10
1269.321372949674
 20
-2713.620058941549
 10
1269.03874376864
 20
-2713.480759707429
 10
1268.762779438445
 20
-2713.334510921418
 10
1268.493935363982
 20
-2713.180913971188
 10
1268.231905369047
 20
-2713.02028643377
 10
1267.97636497366
 20
-2712.85296309903
 10
1267.726989697846
 20
-2712.679278756835
 10
1267.483455061627
 20
-2712.49956819705
 10
1267.245436585026
 20
-2712.314166209543
 10
1267.012609788064
 20
-2712.123407584178
 10
1266.784650190764
 20
-2711.927627110822
 10
1266.561233313149
 20
-2711.727159579341
 10
1266.342034675241
 20
-2711.522339779601
 10
1266.126729797064
 20
-2711.313502501467
 10
1265.914994198638
 20
-2711.100982534807
 10
1265.706503399988
 20
-2710.885114669487
 10
1265.500932921135
 20
-2710.666233695372
 10
1265.097255002911
 20
-2710.220771580221
 10
1264.701364604147
 20
-2709.767274508285
 10
1263.922563005718
 20
-2708.84688876977
  0
LWPOLYLINE
  5
265
330
1F
100
AcDbEntity
  8
Ech.1_5
 62
   154
420
    21156
370
    20
100
AcDbPolyline
 90
       70
 70
     0
 43
0.0
 10
1272.700344026735
 20
-2716.300269894508
 10
1272.657176632678
 20
-2716.571577323233
 10
1272.6140219222
 20
-2716.847416981651
 10
1272.570892578882
 20
-2717.132321099456
 10
1272.527801286304
 20
-2717.430821906338
 10
1272.50627387266
 20
-2717.586587389962
 10
1272.484760728045
 20
-2717.747451631993
 10
1272.463263437904
 20
-2717.913981161138
 10
1272.441783587685
 20
-2718.086742506111
 10
1272.420322762836
 20
-2718.266302195624
 10
1272.398882548804
 20
-2718.453226758388
 10
1272.377464531037
 20
-2718.648082723113
 10
1272.356119878196
 20
-2718.851196722271
 10
1272.335319606503
 20
-2719.060864058694
 10
1272.31574604383
 20
-2719.27435765551
 10
1272.283014782176
 20
-2719.701884236425
 10
1272.271224951508
 20
-2719.91044752357
 10
1272.263397566488
 20
-2720.111897677206
 10
1272.260216561273
 20
-2720.303499848859
 10
1272.262365870019
 20
-2720.482519190052
 10
1272.265653121553
 20
-2720.566455659076
 10
1272.270529426885
 20
-2720.646220852309
 10
1272.277080277786
 20
-2720.721472913688
 10
1272.285391166026
 20
-2720.791869987155
 10
1272.295547583373
 20
-2720.857070216649
 10
1272.307635021598
 20
-2720.916731746113
 10
1272.32173897247
 20
-2720.970512719487
 10
1272.337944927759
 20
-2721.018071280709
 10
1272.356338379235
 20
-2721.059065573722
 10
1272.377004818666
 20
-2721.093153742467
 10
1272.400029737823
 20
-2721.119993930883
 10
1272.425498628475
 20
-2721.139244282911
 10
1272.453496982392
 20
-2721.150562942491
 10
1272.484102847164
 20
-2721.153625258543
 10
1272.517244801894
 20
-2721.148452031416
 10
1272.552713125266
 20
-2721.135383701247
 10
1272.590292889626
 20
-2721.114772741059
 10
1272.62976916732
 20
-2721.08697162388
 10
1272.670927030692
 20
-2721.052332822735
 10
1272.713551552088
 20
-2721.011208810651
 10
1272.757427803854
 20
-2720.963952060653
 10
1272.802340858334
 20
-2720.910915045767
 10
1272.848075787872
 20
-2720.852450239019
 10
1272.894417664816
 20
-2720.788910113435
 10
1272.94115156151
 20
-2720.720647142041
 10
1272.988062550299
 20
-2720.648013797863
 10
1273.081556093542
 20
-2720.491045883256
 10
1273.173178873309
 20
-2720.320826153823
 10
1273.261211468361
 20
-2720.140174393773
 10
1273.343934457459
 20
-2719.951910387309
 10
1273.419628419365
 20
-2719.75885391864
 10
1273.486573932842
 20
-2719.563824771975
 10
1273.54305157665
 20
-2719.369642731519
 10
1273.587347589497
 20
-2719.179120282593
 10
1273.618496976531
 20
-2718.99410432492
 10
1273.637024668689
 20
-2718.8145203969
 10
1273.643631871239
 20
-2718.640066719108
 10
1273.639019789456
 20
-2718.470441512119
 10
1273.623889628608
 20
-2718.305342996508
 10
1273.598942593967
 20
-2718.14446939285
 10
1273.564879890804
 20
-2717.987518921719
 10
1273.52240272439
 20
-2717.834189803689
 10
1273.472212299995
 20
-2717.684180259337
 10
1273.41500982289
 20
-2717.537188509236
 10
1273.351496498348
 20
-2717.392912773962
 10
1273.282373531638
 20
-2717.25105127409
 10
1273.208342128031
 20
-2717.111302230194
 10
1273.048358831212
 20
-2716.83693439263
 10
1272.877156250057
 20
-2716.567395025868
 10
1272.700344026735
 20
-2716.300269894508
  0
LWPOLYLINE
  5
266
330
1F
100
AcDbEntity
  8
Ech.1_5
 62
   154
420
    21156
370
    20
100
AcDbPolyline
 90
      170
 70
     0
 43
0.0
 10
1282.673942783487
 20
-2693.776202609074
 10
1282.955571140577
 20
-2694.30394334277
 10
1283.232378974144
 20
-2694.832701153319
 10
1283.499545760667
 20
-2695.363493117574
 10
1283.628007347685
 20
-2695.629969743857
 10
1283.752250976622
 20
-2695.897336312387
 10
1283.871674082037
 20
-2696.16571995777
 10
1283.985674098488
 20
-2696.435247814613
 10
1284.093648460537
 20
-2696.706047017522
 10
1284.194994602743
 20
-2696.978244701103
 10
1284.289109959665
 20
-2697.251967999965
 10
1284.375391965863
 20
-2697.527344048711
 10
1284.453238055897
 20
-2697.804499981952
 10
1284.522045664327
 20
-2698.083562934291
 10
1284.581212225712
 20
-2698.364660040336
 10
1284.630135174612
 20
-2698.647918434694
 10
1284.668211945587
 20
-2698.933465251971
 10
1284.694839973196
 20
-2699.221427626774
 10
1284.709416693975
 20
-2699.511932693264
 10
1284.711861474182
 20
-2699.804990159942
 10
1284.704084589648
 20
-2700.100161813161
 10
1284.688470953564
 20
-2700.396902653629
 10
1284.643273079513
 20
-2700.992911899113
 10
1284.595347157554
 20
-2701.588657902017
 10
1284.576323461588
 20
-2701.885069689259
 10
1284.563772493217
 20
-2702.179780667965
 10
1284.560079165633
 20
-2702.472245838837
 10
1284.567628392026
 20
-2702.761920202579
 10
1284.588805085589
 20
-2703.048258759894
 10
1284.60524901793
 20
-2703.19000679886
 10
1284.625994159511
 20
-2703.330716511483
 10
1284.651338624479
 20
-2703.47031977285
 10
1284.681580526984
 20
-2703.608748458051
 10
1284.717017981174
 20
-2703.745934442172
 10
1284.757949101197
 20
-2703.8818096003
 10
1284.804672001204
 20
-2704.016305807524
 10
1284.857484795343
 20
-2704.149354938932
 10
1284.916648103621
 20
-2704.280885987779
 10
1284.982112612963
 20
-2704.410804125577
 10
1285.053676124078
 20
-2704.539002772865
 10
1285.131135360924
 20
-2704.665375267426
 10
1285.214287047454
 20
-2704.789814947037
 10
1285.302927907626
 20
-2704.912215149478
 10
1285.396854665396
 20
-2705.032469212528
 10
1285.495864044719
 20
-2705.150470473968
 10
1285.599752769551
 20
-2705.266112271576
 10
1285.708317563849
 20
-2705.379287943133
 10
1285.821355151567
 20
-2705.489890826417
 10
1285.938662256664
 20
-2705.597814259208
 10
1286.060035603093
 20
-2705.702951579286
 10
1286.185271914812
 20
-2705.80519612443
 10
1286.314167915775
 20
-2705.90444123242
 10
1286.44652032994
 20
-2706.000580241035
 10
1286.582125881262
 20
-2706.093506488055
 10
1286.720781293697
 20
-2706.183113311259
 10
1286.862283291201
 20
-2706.269294048428
 10
1287.00642859773
 20
-2706.351942037339
 10
1287.15301393724
 20
-2706.430950615773
 10
1287.301836033687
 20
-2706.50621312151
 10
1287.452691611026
 20
-2706.577622892328
 10
1287.605377393214
 20
-2706.645073266007
 10
1287.759690104208
 20
-2706.708457580329
 10
1287.915426467962
 20
-2706.76766917307
 10
1288.072383208433
 20
-2706.822601382011
 10
1288.230357049576
 20
-2706.873147544932
 10
1288.389144715348
 20
-2706.919200999612
 10
1288.548542929705
 20
-2706.96065508383
 10
1288.708348416603
 20
-2706.997403135367
 10
1288.868357899997
 20
-2707.029338492001
 10
1289.028368103843
 20
-2707.056354491512
 10
1289.188175752098
 20
-2707.078344471679
 10
1289.347577568718
 20
-2707.095201770283
 10
1289.506370277658
 20
-2707.106819725102
 10
1289.664350602874
 20
-2707.113091673916
 10
1289.821315268323
 20
-2707.113910954506
 10
1289.97706099796
 20
-2707.109170904649
 10
1290.131384515742
 20
-2707.098764862126
 10
1290.284082545623
 20
-2707.082586164717
 10
1290.434951811561
 20
-2707.0605281502
 10
1290.583789037511
 20
-2707.032484156355
 10
1290.730390947429
 20
-2706.998347520963
 10
1290.874554265271
 20
-2706.958011581802
 10
1291.016075714994
 20
-2706.911369676651
 10
1291.154752020552
 20
-2706.85831514329
 10
1291.290379905903
 20
-2706.7987413195
 10
1291.422768308821
 20
-2706.732564664922
 10
1291.55183178761
 20
-2706.659901588386
 10
1291.677538994928
 20
-2706.580970904219
 10
1291.799859021945
 20
-2706.495992256887
 10
1291.91876095983
 20
-2706.405185290856
 10
1292.034213899752
 20
-2706.308769650592
 10
1292.146186932879
 20
-2706.206964980561
 10
1292.254649150381
 20
-2706.099990925227
 10
1292.359569643425
 20
-2705.988067129055
 10
1292.460917503181
 20
-2705.871413236513
 10
1292.558661820818
 20
-2705.750248892066
 10
1292.652771687505
 20
-2705.624793740178
 10
1292.74321619441
 20
-2705.495267425316
 10
1292.829964432703
 20
-2705.361889591945
 10
1292.912985493551
 20
-2705.224879884531
 10
1292.992248468125
 20
-2705.084457947539
 10
1293.067722447593
 20
-2704.940843425435
 10
1293.139376523123
 20
-2704.794255962683
 10
1293.207179785884
 20
-2704.644915203751
 10
1293.271101327046
 20
-2704.493040793104
 10
1293.331110237777
 20
-2704.338852375206
 10
1293.387175609246
 20
-2704.182569594523
 10
1293.439266532622
 20
-2704.024412095523
 10
1293.487352099074
 20
-2703.864599522668
 10
1293.53140139977
 20
-2703.703351520426
 10
1293.57138352588
 20
-2703.540887733262
 10
1293.607267568571
 20
-2703.377427805641
 10
1293.639022619014
 20
-2703.213191382028
 10
1293.666617768377
 20
-2703.048398106891
 10
1293.690022107828
 20
-2702.883267624693
 10
1293.709204728538
 20
-2702.718019579901
 10
1293.724134721673
 20
-2702.55287361698
 10
1293.734781178403
 20
-2702.388049380396
 10
1293.741113189898
 20
-2702.223766514615
 10
1293.743099847326
 20
-2702.060244664101
 10
1293.740710241856
 20
-2701.897703473321
 10
1293.733913464655
 20
-2701.736362586739
 10
1293.722678606895
 20
-2701.576441648822
 10
1293.706974759742
 20
-2701.418160304035
 10
1293.686771014367
 20
-2701.261738196843
 10
1293.662036461938
 20
-2701.107394971713
 10
1293.632740193624
 20
-2700.955350273111
 10
1293.598851300593
 20
-2700.805823745499
 10
1293.560338874015
 20
-2700.659035033346
 10
1293.517172005057
 20
-2700.515203781115
 10
1293.469319784891
 20
-2700.374549633276
 10
1293.416751304683
 20
-2700.23729223429
 10
1293.359435655603
 20
-2700.103651228624
 10
1293.29734192882
 20
-2699.973846260743
 10
1293.230441211816
 20
-2699.848093147677
 10
1293.158780122872
 20
-2699.726462894825
 10
1293.082502213122
 20
-2699.608840662819
 10
1293.001757394112
 20
-2699.495099417773
 10
1292.916695577386
 20
-2699.385112125801
 10
1292.827466674491
 20
-2699.278751753018
 10
1292.734220596969
 20
-2699.175891265537
 10
1292.637107256368
 20
-2699.076403629477
 10
1292.536276564231
 20
-2698.980161810947
 10
1292.431878432106
 20
-2698.887038776065
 10
1292.324062771535
 20
-2698.796907490944
 10
1292.212979494065
 20
-2698.709640921699
 10
1292.098778511241
 20
-2698.625112034444
 10
1291.861623075711
 20
-2698.463759170365
 10
1291.613795757306
 20
-2698.311832627621
 10
1291.356495848387
 20
-2698.16831613513
 10
1291.090922641316
 20
-2698.032193421805
 10
1290.818275428453
 20
-2697.902448216566
 10
1290.539753502161
 20
-2697.778064248326
 10
1290.2565561548
 20
-2697.658025246003
 10
1289.969882678732
 20
-2697.541314938511
 10
1288.812413334613
 20
-2697.087435235186
 10
1288.526348600427
 20
-2696.972124335595
 10
1288.243857306743
 20
-2696.854166591515
 10
1287.965104005812
 20
-2696.733409900814
 10
1287.68991936089
 20
-2696.609981010618
 10
1287.418133435975
 20
-2696.484007168523
 10
1287.149576295067
 20
-2696.355615622123
 10
1286.62146862127
 20
-2696.092088406788
 10
1286.104236851496
 20
-2695.820417345373
 10
1285.596521497743
 20
-2695.541620418638
 10
1285.096963072007
 20
-2695.256715607343
 10
1284.604202086286
 20
-2694.96672089225
 10
1284.116879052576
 20
-2694.672654254116
 10
1283.633634482875
 20
-2694.375533673701
 10
1282.673942783487
 20
-2693.776202609074
  0
LWPOLYLINE
  5
267
330
1F
100
AcDbEntity
  8
Ech.1_5
 62
   154
420
    21156
370
    20
100
AcDbPolyline
 90
      167
 70
     0
 43
0.0
 10
1263.109837777212
 20
-2697.184787414999
 10
1263.43020184329
 20
-2697.677524530758
 10
1263.744281085847
 20
-2698.171738377945
 10
1263.896999890956
 20
-2698.419860554395
 10
1264.045790681365
 20
-2698.66890568799
 10
1264.189867854133
 20
-2698.919058370155
 10
1264.328445806322
 20
-2699.170503192322
 10
1264.46073893499
 20
-2699.423424745916
 10
1264.585961637198
 20
-2699.678007622369
 10
1264.703328310005
 20
-2699.934436413107
 10
1264.812053350473
 20
-2700.19289570956
 10
1264.91135115566
 20
-2700.453570103156
 10
1265.000436122627
 20
-2700.716644185325
 10
1265.078522648434
 20
-2700.982302547493
 10
1265.14482513014
 20
-2701.250729781092
 10
1265.198557964805
 20
-2701.522110477548
 10
1265.238935549491
 20
-2701.79662922829
 10
1265.265178059981
 20
-2702.074469249657
 10
1265.277448685695
 20
-2702.355589360973
 10
1265.277890533451
 20
-2702.639477245689
 10
1265.268896375196
 20
-2702.925561177605
 10
1265.252858982876
 20
-2703.213269430523
 10
1265.232171128437
 20
-2703.502030278241
 10
1265.186415120991
 20
-2704.080422853287
 10
1265.166132511876
 20
-2704.368911128216
 10
1265.15077052843
 20
-2704.656165093149
 10
1265.142721942598
 20
-2704.941613021888
 10
1265.144379526327
 20
-2705.224683188234
 10
1265.158136051564
 20
-2705.504803865987
 10
1265.170299158482
 20
-2705.643579482203
 10
1265.186384290256
 20
-2705.781403328947
 10
1265.20669054338
 20
-2705.918203940442
 10
1265.231517014347
 20
-2706.053909850915
 10
1265.261162799652
 20
-2706.188449594591
 10
1265.295926995787
 20
-2706.321751705694
 10
1265.336108699245
 20
-2706.453744718449
 10
1265.38200700652
 20
-2706.584357167083
 10
1265.433920176084
 20
-2706.713517545052
 10
1265.492002584304
 20
-2706.841147346486
 10
1265.556102775025
 20
-2706.967153187897
 10
1265.626030166822
 20
-2707.0914397825
 10
1265.701594178272
 20
-2707.213911843508
 10
1265.78260422795
 20
-2707.334474084134
 10
1265.868869734431
 20
-2707.453031217594
 10
1265.96020011629
 20
-2707.569487957099
 10
1266.056404792105
 20
-2707.683749015865
 10
1266.15729318045
 20
-2707.795719107103
 10
1266.2626746999
 20
-2707.90530294403
 10
1266.372358769032
 20
-2708.012405239858
 10
1266.486154806422
 20
-2708.116930707802
 10
1266.603872230643
 20
-2708.218784061074
 10
1266.725320460273
 20
-2708.317870012889
 10
1266.850308913887
 20
-2708.414093276459
 10
1266.97864701006
 20
-2708.507358565
 10
1267.110144167369
 20
-2708.597570591726
 10
1267.244609804389
 20
-2708.684634069849
 10
1267.381853339694
 20
-2708.768453712583
 10
1267.521684191862
 20
-2708.848934233142
 10
1267.663911779467
 20
-2708.92598034474
 10
1267.808345521085
 20
-2708.999496760591
 10
1267.954794835292
 20
-2709.069388193908
 10
1268.103069140664
 20
-2709.135559357906
 10
1268.252977855776
 20
-2709.197914965797
 10
1268.404330399203
 20
-2709.256359730797
 10
1268.556936189521
 20
-2709.310798366118
 10
1268.710604645306
 20
-2709.361135584973
 10
1268.865145185134
 20
-2709.407276100578
 10
1269.02036722758
 20
-2709.449124626145
 10
1269.17608019122
 20
-2709.48658587489
 10
1269.332093494628
 20
-2709.519564560024
 10
1269.488216556382
 20
-2709.547965394762
 10
1269.644258795056
 20
-2709.571693092319
 10
1269.800029629226
 20
-2709.590652365905
 10
1269.955338477469
 20
-2709.604747928739
 10
1270.109994758358
 20
-2709.61388449403
 10
1270.263807890471
 20
-2709.617966774996
 10
1270.416587292382
 20
-2709.616899484847
 10
1270.568142382667
 20
-2709.610587336799
 10
1270.718282579902
 20
-2709.598935044064
 10
1270.866817302662
 20
-2709.581847319858
 10
1271.013555969524
 20
-2709.559228877393
 10
1271.158307999062
 20
-2709.530984429884
 10
1271.300882809852
 20
-2709.497018690543
 10
1271.44108982047
 20
-2709.457236372586
 10
1271.578738449492
 20
-2709.411542189225
 10
1271.713638115493
 20
-2709.359840853675
 10
1271.845598237048
 20
-2709.302037079148
 10
1271.974441032116
 20
-2709.238058264783
 10
1272.100091280209
 20
-2709.168013592204
 10
1272.222523042627
 20
-2709.092099591222
 10
1272.341710693656
 20
-2709.010513346398
 10
1272.457628607587
 20
-2708.923451942292
 10
1272.570251158708
 20
-2708.831112463467
 10
1272.679552721308
 20
-2708.733691994482
 10
1272.785507669674
 20
-2708.6313876199
 10
1272.888090378096
 20
-2708.52439642428
 10
1272.987275220862
 20
-2708.412915492185
 10
1273.083036572261
 20
-2708.297141908175
 10
1273.175348806582
 20
-2708.17727275681
 10
1273.264186298112
 20
-2708.053505122653
 10
1273.349523421142
 20
-2707.926036090264
 10
1273.431334549958
 20
-2707.795062744205
 10
1273.509594058851
 20
-2707.660782169035
 10
1273.584276322108
 20
-2707.523391449316
 10
1273.655355714018
 20
-2707.38308766961
 10
1273.722806608869
 20
-2707.240067914478
 10
1273.786603380951
 20
-2707.094529268479
 10
1273.846720404552
 20
-2706.946668816175
 10
1273.90313205396
 20
-2706.796683642129
 10
1273.955812703465
 20
-2706.6447708309
 10
1274.004736727354
 20
-2706.491127467049
 10
1274.049878499916
 20
-2706.335950635137
 10
1274.09121239544
 20
-2706.179437419726
 10
1274.162354052529
 20
-2705.86319017665
 10
1274.217956692929
 20
-2705.543962414308
 10
1274.257815310948
 20
-2705.223330809188
 10
1274.271776547286
 20
-2705.062981276989
 10
1274.281724900896
 20
-2704.902872037779
 10
1274.287634746064
 20
-2704.743200176118
 10
1274.289480457081
 20
-2704.584162776569
 10
1274.287236408234
 20
-2704.425956923691
 10
1274.280876973812
 20
-2704.268779702046
 10
1274.270376528104
 20
-2704.112828196195
 10
1274.255709445398
 20
-2703.958299490698
 10
1274.236850099984
 20
-2703.805390670118
 10
1274.213772866149
 20
-2703.654298819014
 10
1274.186452118182
 20
-2703.505221021948
 10
1274.154862230371
 20
-2703.358354363481
 10
1274.118977577006
 20
-2703.213895928175
 10
1274.078772532376
 20
-2703.072042800589
 10
1274.034221470768
 20
-2702.932992065286
 10
1273.98529876647
 20
-2702.796940806824
 10
1273.931978793773
 20
-2702.664086109769
 10
1273.874235926964
 20
-2702.534625058677
 10
1273.812044540332
 20
-2702.408754738112
 10
1273.745401674952
 20
-2702.286628976735
 10
1273.674406812856
 20
-2702.168206111192
 10
1273.599188362233
 20
-2702.053389277235
 10
1273.519874732997
 20
-2701.942081607321
 10
1273.436594335061
 20
-2701.83418623391
 10
1273.34947557834
 20
-2701.72960628946
 10
1273.258646872748
 20
-2701.628244906429
 10
1273.164236628197
 20
-2701.530005217276
 10
1273.066373254603
 20
-2701.434790354459
 10
1272.96518516188
 20
-2701.342503450436
 10
1272.86080075994
 20
-2701.253047637668
 10
1272.642956668069
 20
-2701.082241815725
 10
1272.413868258301
 20
-2700.921597948296
 10
1272.174562809948
 20
-2700.770341095052
 10
1271.926067602321
 20
-2700.627696315657
 10
1271.669409914731
 20
-2700.492888669783
 10
1271.40561702649
 20
-2700.365143217095
 10
1271.135716216909
 20
-2700.243685017261
 10
1270.860734765299
 20
-2700.12773912995
 10
1270.581699950972
 20
-2700.016530614831
 10
1270.01557935141
 20
-2699.805225939835
 10
1269.445572652714
 20
-2699.603571469616
 10
1268.879863998566
 20
-2699.405391173524
 10
1268.323569739125
 20
-2699.206623040128
 10
1267.776345885723
 20
-2699.006967782286
 10
1267.237285397755
 20
-2698.806514112443
 10
1266.705481234619
 20
-2698.605350743042
 10
1266.18002635571
 20
-2698.40356638653
 10
1265.660013720425
 20
-2698.20124975535
 10
1265.144536288159
 20
-2697.998489561948
 10
1264.123558870269
 20
-2697.591993338252
 10
1263.109837777212
 20
-2697.184787414999
  0
LWPOLYLINE
  5
268
330
1F
100
AcDbEntity
  8
Ech.1_5
 62
   154
420
    21156
370
    20
100
AcDbPolyline
 90
       70
 70
     0
 43
0.0
 10
1272.808196839766
 20
-2702.336730151866
 10
1272.765029445709
 20
-2702.60803758059
 10
1272.721874735231
 20
-2702.883877239009
 10
1272.678745391912
 20
-2703.168781356812
 10
1272.635654099334
 20
-2703.467282163695
 10
1272.61412668569
 20
-2703.623047647319
 10
1272.592613541074
 20
-2703.783911889349
 10
1272.571116250933
 20
-2703.950441418494
 10
1272.549636400714
 20
-2704.123202763467
 10
1272.528175575865
 20
-2704.30276245298
 10
1272.506735361833
 20
-2704.489687015743
 10
1272.485317344066
 20
-2704.684542980469
 10
1272.463972691225
 20
-2704.887656979626
 10
1272.443172419531
 20
-2705.097324316049
 10
1272.423598856858
 20
-2705.310817912865
 10
1272.390867595204
 20
-2705.738344493779
 10
1272.379077764536
 20
-2705.946907780924
 10
1272.371250379516
 20
-2706.148357934561
 10
1272.368069374301
 20
-2706.339960106213
 10
1272.370218683048
 20
-2706.518979447405
 10
1272.373505934581
 20
-2706.602915916431
 10
1272.378382239914
 20
-2706.682681109663
 10
1272.384933090815
 20
-2706.757933171042
 10
1272.393243979054
 20
-2706.828330244508
 10
1272.403400396402
 20
-2706.893530474003
 10
1272.415487834627
 20
-2706.953192003467
 10
1272.429591785499
 20
-2707.00697297684
 10
1272.445797740788
 20
-2707.054531538062
 10
1272.464191192264
 20
-2707.095525831076
 10
1272.484857631695
 20
-2707.12961399982
 10
1272.507882550852
 20
-2707.156454188236
 10
1272.533351441504
 20
-2707.175704540264
 10
1272.561349795421
 20
-2707.187023199844
 10
1272.591955660193
 20
-2707.190085515896
 10
1272.625097614922
 20
-2707.18491228877
 10
1272.660565938295
 20
-2707.1718439586
 10
1272.698145702655
 20
-2707.151232998412
 10
1272.737621980349
 20
-2707.123431881234
 10
1272.778779843721
 20
-2707.088793080089
 10
1272.821404365117
 20
-2707.047669068005
 10
1272.865280616883
 20
-2707.000412318007
 10
1272.910193671363
 20
-2706.947375303121
 10
1272.955928600901
 20
-2706.888910496373
 10
1273.002270477845
 20
-2706.825370370789
 10
1273.049004374539
 20
-2706.757107399395
 10
1273.095915363327
 20
-2706.684474055216
 10
1273.189408906571
 20
-2706.527506140611
 10
1273.281031686338
 20
-2706.357286411178
 10
1273.36906428139
 20
-2706.176634651127
 10
1273.451787270488
 20
-2705.988370644664
 10
1273.527481232395
 20
-2705.795314175995
 10
1273.594426745871
 20
-2705.60028502933
 10
1273.650904389679
 20
-2705.406102988874
 10
1273.695200402526
 20
-2705.215580539948
 10
1273.72634978956
 20
-2705.030564582275
 10
1273.744877481718
 20
-2704.850980654256
 10
1273.751484684269
 20
-2704.676526976465
 10
1273.746872602485
 20
-2704.506901769476
 10
1273.731742441638
 20
-2704.341803253865
 10
1273.706795406997
 20
-2704.180929650207
 10
1273.672732703833
 20
-2704.023979179075
 10
1273.630255537419
 20
-2703.870650061046
 10
1273.580065113025
 20
-2703.720640516694
 10
1273.522862635921
 20
-2703.573648766594
 10
1273.459349311378
 20
-2703.42937303132
 10
1273.390226344668
 20
-2703.287511531448
 10
1273.316194941061
 20
-2703.147762487552
 10
1273.156211644242
 20
-2702.873394649988
 10
1272.985009063088
 20
-2702.603855283226
 10
1272.808196839766
 20
-2702.336730151866
  0
LWPOLYLINE
  5
269
330
1F
100
AcDbEntity
  8
Ech.1_5
 62
   154
420
    21156
370
    20
100
AcDbPolyline
 90
       70
 70
     0
 43
0.0
 10
1291.240607252651
 20
-2699.372069725619
 10
1291.197439858594
 20
-2699.643377154345
 10
1291.154285148116
 20
-2699.919216812763
 10
1291.111155804798
 20
-2700.204120930567
 10
1291.068064512219
 20
-2700.502621737449
 10
1291.046537098576
 20
-2700.658387221075
 10
1291.02502395396
 20
-2700.819251463105
 10
1291.003526663819
 20
-2700.985780992251
 10
1290.9820468136
 20
-2701.158542337224
 10
1290.960585988751
 20
-2701.338102026737
 10
1290.939145774719
 20
-2701.525026589501
 10
1290.917727756952
 20
-2701.719882554227
 10
1290.896383104111
 20
-2701.922996553385
 10
1290.875582832417
 20
-2702.132663889808
 10
1290.856009269745
 20
-2702.346157486625
 10
1290.82327800809
 20
-2702.773684067539
 10
1290.811488177422
 20
-2702.982247354685
 10
1290.803660792402
 20
-2703.183697508322
 10
1290.800479787187
 20
-2703.375299679974
 10
1290.802629095934
 20
-2703.554319021167
 10
1290.805916347467
 20
-2703.638255490192
 10
1290.810792652799
 20
-2703.718020683424
 10
1290.8173435037
 20
-2703.793272744803
 10
1290.82565439194
 20
-2703.86366981827
 10
1290.835810809288
 20
-2703.928870047765
 10
1290.847898247512
 20
-2703.988531577228
 10
1290.862002198385
 20
-2704.042312550602
 10
1290.878208153674
 20
-2704.089871111824
 10
1290.896601605149
 20
-2704.130865404838
 10
1290.917268044581
 20
-2704.164953573582
 10
1290.940292963738
 20
-2704.191793761998
 10
1290.96576185439
 20
-2704.211044114026
 10
1290.993760208307
 20
-2704.222362773606
 10
1291.02436607308
 20
-2704.225425089659
 10
1291.057508027809
 20
-2704.220251862532
 10
1291.092976351181
 20
-2704.207183532362
 10
1291.130556115541
 20
-2704.186572572174
 10
1291.170032393235
 20
-2704.158771454994
 10
1291.211190256608
 20
-2704.12413265385
 10
1291.253814778004
 20
-2704.083008641766
 10
1291.29769102977
 20
-2704.035751891768
 10
1291.342604084249
 20
-2703.982714876882
 10
1291.388339013788
 20
-2703.924250070133
 10
1291.434680890732
 20
-2703.860709944549
 10
1291.481414787426
 20
-2703.792446973155
 10
1291.528325776215
 20
-2703.719813628977
 10
1291.621819319459
 20
-2703.562845714371
 10
1291.713442099226
 20
-2703.392625984937
 10
1291.801474694277
 20
-2703.211974224886
 10
1291.884197683376
 20
-2703.023710218422
 10
1291.959891645283
 20
-2702.830653749754
 10
1292.026837158759
 20
-2702.635624603088
 10
1292.083314802567
 20
-2702.441442562632
 10
1292.127610815414
 20
-2702.250920113706
 10
1292.158760202448
 20
-2702.065904156033
 10
1292.177287894605
 20
-2701.886320228014
 10
1292.183895097157
 20
-2701.711866550221
 10
1292.179283015373
 20
-2701.542241343232
 10
1292.164152854525
 20
-2701.377142827622
 10
1292.139205819884
 20
-2701.216269223963
 10
1292.10514311672
 20
-2701.059318752832
 10
1292.062665950306
 20
-2700.905989634802
 10
1292.012475525911
 20
-2700.75598009045
 10
1291.955273048807
 20
-2700.608988340349
 10
1291.891759724264
 20
-2700.464712605075
 10
1291.822636757554
 20
-2700.322851105203
 10
1291.748605353947
 20
-2700.183102061306
 10
1291.588622057128
 20
-2699.908734223742
 10
1291.417419475973
 20
-2699.639194856979
 10
1291.240607252651
 20
-2699.372069725619
  0
LWPOLYLINE
  5
26A
330
1F
100
AcDbEntity
  8
Ech.1_5
 62
     7
370
    20
100
AcDbPolyline
 90
        3
 70
     0
 43
0.0
 10
1104.523890248653
 20
-2868.245705101235
 10
1093.723890248653
 20
-2868.245705101235
 10
1093.723890248653
 20
-2717.999058324322
  0
HATCH
  5
26B
330
1F
100
AcDbEntity
  8
Ech.1_5
 62
    17
420
  8405056
440
 33554687
370
    20
100
AcDbHatch
 10
0.0
 20
0.0
 30
0.0
210
0.0
220
0.0
230
1.0
  2
SOLID
 70
     1
 71
     1
 91
        1
 92
        3
 72
     0
 73
     1
 93
        4
 10
1082.923890248653
 20
-2868.245705101235
 10
1082.901055762069
 20
-2717.999058324322
 10
1074.901055762069
 20
-2717.999058324322
 10
1074.901055762069
 20
-2868.245705101235
 97
        0
 75
     0
 76
     1
 98
        0
  0
LWPOLYLINE
  5
26C
330
1F
100
AcDbEntity
  8
Ech.1_5
 62
     7
370
    20
100
AcDbPolyline
 90
        5
 70
     0
 43
0.0
 10
1082.923890248653
 20
-2868.245705101235
 10
1082.901055762069
 20
-2717.999058324322
 10
1074.901055762069
 20
-2717.999058324322
 10
1074.901055762069
 20
-2868.245705101235
 10
1082.923890248653
 20
-2868.245705101235
  0
LWPOLYLINE
  5
26D
330
1F
100
AcDbEntity
  8
Ech.1_5
 62
     7
370
    20
100
AcDbPolyline
 90
        4
 70
     0
 43
0.0
 10
1074.901055762069
 20
-2717.999058324322
 10
1074.901055762069
 20
-2868.245705101235
 10
1082.923890248653
 20
-2868.245705101235
 10
1082.901055762069
 20
-2717.999058324322
  0
HATCH
  5
26E
330
1F
100
AcDbEntity
  8
Ech.1_5
 62
    35
420
  9529928
440
 33554687
370
    20
100
AcDbHatch
 10
0.0
 20
0.0
 30
0.0
210
0.0
220
0.0
230
1.0
  2
SOLID
 70
     1
 71
     1
 91
        1
 92
        3
 72
     0
 73
     1
 93
        4
 10
1104.523890248653
 20
-2868.245705101235
 10
1104.523890248654
 20
-2717.999058324322
 10
1093.723890248625
 20
-2717.999058324322
 10
1093.723890248653
 20
-2868.245705101235
 97
        0
 75
     0
 76
     1
 98
        0
  0
LWPOLYLINE
  5
26F
330
1F
100
AcDbEntity
  8
Ech.1_5
 62
   190
370
    20
100
AcDbPolyline
 90
        5
 70
     0
 43
0.0
 10
1104.523890248653
 20
-2868.245705101235
 10
1104.523890248654
 20
-2717.999058324322
 10
1093.723890248625
 20
-2717.999058324322
 10
1093.723890248653
 20
-2868.245705101235
 10
1104.523890248653
 20
-2868.245705101235
  0
LWPOLYLINE
  5
270
330
1F
100
AcDbEntity
  8
Ech.1_5
 62
   202
420
  8519880
370
    50
100
AcDbPolyline
 90
        4
 70
     0
 43
0.0
 10
1088.592868656652
 20
-2869.450724849235
 10
1099.646074248654
 20
-2869.009011897236
 42
0.351643470000531
 10
1103.836837636655
 20
-2865.042888533235
 10
1103.836837636655
 20
-2845.705632025234
  0
LWPOLYLINE
  5
271
330
1F
100
AcDbEntity
  8
Ech.1_5
 62
   202
420
  8519880
370
    50
100
AcDbPolyline
 90
        4
 70
     0
 43
0.0
 10
1104.523890248653
 20
-2839.459054802157
 10
1104.523890248653
 20
-2844.654708170157
 10
1102.251645064653
 20
-2846.228601026156
 10
1102.251645064653
 20
-2851.619973026157
  0
LWPOLYLINE
  5
272
330
1F
100
AcDbEntity
  8
Ech.1_5
 62
   190
370
    20
100
AcDbPolyline
 90
        3
 70
     0
 43
0.0
 10
1103.836837636655
 20
-2859.175144555477
 10
1062.704042605844
 20
-2843.923790034423
 10
1054.704042605844
 20
-2843.923790034423
  0
INSERT
  5
273
330
1F
100
AcDbEntity
  8
Ech.1_5
 62
   190
370
    20
100
AcDbBlockReference
  2
cw-line-extremity4
 10
1103.836837636655
 20
-2859.175144555477
 30
0.0
 50
159.6560595042136
  0
LWPOLYLINE
  5
274
330
1F
100
AcDbEntity
  8
Ech.1_5
 62
   190
370
    20
100
AcDbPolyline
 90
        3
 70
     0
 43
0.0
 10
1141.553846225204
 20
-2755.25100545537
 10
1062.704042605844
 20
-2755.25100545537
 10
1054.704042605844
 20
-2755.25100545537
  0
INSERT
  5
275
330
1F
100
AcDbEntity
  8
Ech.1_5
 62
   190
370
    20
100
AcDbBlockReference
  2
cw-line-extremity4
 10
1141.553846225204
 20
-2755.25100545537
 30
0.0
 50
180.0
  0
LWPOLYLINE
  5
276
330
1F
100
AcDbEntity
  8
Ech.1_5
 62
   190
370
    20
100
AcDbPolyline
 90
        3
 70
     0
 43
0.0
 10
1078.306690305076
 20
-2786.604669971657
 10
1062.704042605844
 20
-2786.604669971657
 10
1054.704042605844
 20
-2786.604669971657
  0
INSERT
  5
277
330
1F
100
AcDbEntity
  8
Ech.1_5
 62
   190
370
    20
100
AcDbBlockReference
  2
cw-line-extremity4
 10
1078.306690305076
 20
-2786.604669971657
 30
0.0
 50
180.0
  0
LWPOLYLINE
  5
278
330
1F
100
AcDbEntity
  8
Ech.1_5
 62
   190
370
    20
100
AcDbPolyline
 90
        3
 70
     0
 43
0.0
 10
1098.72102952383
 20
-2731.083883644997
 10
1062.704042605844
 20
-2731.083883644997
 10
1054.704042605844
 20
-2731.083883644997
  0
INSERT
  5
279
330
1F
100
AcDbEntity
  8
Ech.1_5
 62
   190
370
    20
100
AcDbBlockReference
  2
cw-line-extremity4
 10
1098.72102952383
 20
-2731.083883644997
 30
0.0
 50
180.0
  0
LWPOLYLINE
  5
27A
330
1F
100
AcDbEntity
  8
Ech.1_5
 62
   190
370
    20
100
AcDbPolyline
 90
        6
 70
     0
 43
0.0
 10
1068.901055762069
 20
-2717.999079142312
 10
1143.623890248653
 20
-2717.998819879106
 10
1150.218091512654
 20
-2710.807880519106
 10
1144.574115504655
 20
-2725.190160523106
 10
1151.168657136655
 20
-2717.998819879106
 10
1185.523890248654
 20
-2717.999016212007
  0
HATCH
  5
27B
330
1F
100
AcDbEntity
  8
Ech.1_5
 62
    35
420
  9529928
440
 33554687
370
    20
100
AcDbHatch
 10
0.0
 20
0.0
 30
0.0
210
0.0
220
0.0
230
1.0
  2
SOLID
 70
     1
 71
     1
 91
        1
 92
        3
 72
     0
 73
     1
 93
        4
 10
1104.523890248653
 20
-2875.663059685235
 10
1093.723890248653
 20
-2875.663059685235
 10
1093.723890248629
 20
-3039.154732106359
 10
1104.523890248654
 20
-3039.154732106359
 97
        0
 75
     0
 76
     1
 98
        0
  0
LWPOLYLINE
  5
27C
330
1F
100
AcDbEntity
  8
Ech.1_5
 62
   190
370
    20
100
AcDbPolyline
 90
        5
 70
     0
 43
0.0
 10
1104.523890248653
 20
-2875.663059685235
 10
1093.723890248653
 20
-2875.663059685235
 10
1093.723890248629
 20
-3039.154732106359
 10
1104.523890248654
 20
-3039.154732106359
 10
1104.523890248653
 20
-2875.663059685235
  0
LWPOLYLINE
  5
27D
330
1F
100
AcDbEntity
  8
Ech.1_5
 62
     7
370
    20
100
AcDbPolyline
 90
        3
 70
     0
 43
0.0
 10
1104.523890248653
 20
-2875.663059685235
 10
1093.723890248653
 20
-2875.663059685235
 10
1093.723890248653
 20
-3039.154732106359
  0
HATCH
  5
27E
330
1F
100
AcDbEntity
  8
Ech.1_5
 62
    17
420
  8405056
440
 33554687
370
    20
100
AcDbHatch
 10
0.0
 20
0.0
 30
0.0
210
0.0
220
0.0
230
1.0
  2
SOLID
 70
     1
 71
     1
 91
        1
 92
        3
 72
     0
 73
     1
 93
        4
 10
1082.923890248653
 20
-2875.663059685235
 10
1074.901055762069
 20
-2875.663059685235
 10
1074.901055762069
 20
-3039.15472241731
 10
1082.903827987319
 20
-3039.15472241731
 97
        0
 75
     0
 76
     1
 98
        0
  0
LWPOLYLINE
  5
27F
330
1F
100
AcDbEntity
  8
Ech.1_5
 62
     7
370
    20
100
AcDbPolyline
 90
        5
 70
     0
 43
0.0
 10
1082.923890248653
 20
-2875.663059685235
 10
1074.901055762069
 20
-2875.663059685235
 10
1074.901055762069
 20
-3039.15472241731
 10
1082.903827987319
 20
-3039.15472241731
 10
1082.923890248653
 20
-2875.663059685235
  0
HATCH
  5
280
330
1F
100
AcDbEntity
  8
Ech.1_5
 62
    35
420
  9529928
440
 33554687
370
    20
100
AcDbHatch
 10
0.0
 20
0.0
 30
0.0
210
0.0
220
0.0
230
1.0
  2
SOLID
 70
     1
 71
     1
 91
        1
 92
        3
 72
     0
 73
     1
 93
        4
 10
1082.923890248653
 20
-3011.663059876088
 10
1082.923890248653
 20
-2995.663059685235
 10
1093.723890248653
 20
-2995.663059685235
 10
1093.723890248653
 20
-3011.663059685235
 97
        0
 75
     0
 76
     1
 98
        0
  0
LWPOLYLINE
  5
281
330
1F
100
AcDbEntity
  8
Ech.1_5
 62
   190
370
    20
100
AcDbPolyline
 90
        5
 70
     0
 43
0.0
 10
1082.923890248653
 20
-3011.663059876088
 10
1082.923890248653
 20
-2995.663059685235
 10
1093.723890248653
 20
-2995.663059685235
 10
1093.723890248653
 20
-3011.663059685235
 10
1082.923890248653
 20
-3011.663059876088
  0
LWPOLYLINE
  5
282
330
1F
100
AcDbEntity
  8
Ech.1_5
 62
   190
370
    20
100
AcDbPolyline
 90
        4
 70
     0
 43
0.0
 10
1093.723890248653
 20
-3011.663059685235
 10
1082.923890248653
 20
-2995.663059685235
 10
1093.723890248653
 20
-2995.663059685235
 10
1082.923890248653
 20
-3011.663014551614
  0
LWPOLYLINE
  5
283
330
1F
100
AcDbEntity
  8
Ech.1_5
 62
     5
370
    40
100
AcDbPolyline
 90
        5
 70
     0
 43
0.0
 10
1082.923890248653
 20
-3011.663014551614
 10
1082.923890248653
 20
-2995.663059685235
 10
1093.723890248653
 20
-2995.663059685235
 10
1093.723890248653
 20
-3011.663059685235
 10
1082.923890248653
 20
-3011.663014551614
  0
LWPOLYLINE
  5
284
330
1F
100
AcDbEntity
  8
Ech.1_5
 62
     7
370
    20
100
AcDbPolyline
 90
        4
 70
     0
 43
0.0
 10
1074.901055762069
 20
-3039.15472241731
 10
1074.901055762069
 20
-2875.663059685235
 10
1082.923890248653
 20
-2875.663059685235
 10
1082.903827987319
 20
-3039.15472241731
  0
LINE
  5
285
330
1F
100
AcDbEntity
  8
Ech.1_5
 62
   190
370
     9
100
AcDbLine
 10
1074.678833362358
 20
-3004.67055968523
 30
0.0
 11
1074.556611361997
 21
-3004.67055968523
 31
0.0
  0
LINE
  5
286
330
1F
100
AcDbEntity
  8
Ech.1_5
 62
   190
370
     9
100
AcDbLine
 10
1074.556611361997
 20
-3004.67055968523
 30
0.0
 11
1074.556611361997
 21
-3002.655559685239
 31
0.0
  0
LINE
  5
287
330
1F
100
AcDbEntity
  8
Ech.1_5
 62
   190
370
     9
100
AcDbLine
 10
1074.678833362358
 20
-3002.655559685239
 30
0.0
 11
1074.556611361997
 21
-3002.655559685239
 31
0.0
  0
HATCH
  5
288
330
1F
100
AcDbEntity
  8
Ech.1_5
 62
   252
440
 33554687
370
     5
100
AcDbHatch
 10
0.0
 20
0.0
 30
0.0
210
0.0
220
0.0
230
1.0
  2
SOLID
 70
     1
 71
     1
 91
        1
 92
        3
 72
     0
 73
     1
 93
        4
 10
1090.601055362836
 20
-3003.211115285214
 10
1090.934388962403
 20
-3003.211115285214
 10
1090.934388962403
 20
-3004.115004085232
 10
1090.601055362836
 20
-3004.115004085232
 97
        0
 75
     0
 76
     1
 98
        0
  0
LWPOLYLINE
  5
289
330
1F
100
AcDbEntity
  8
Ech.1_5
 62
     7
370
     9
100
AcDbPolyline
 90
        5
 70
     0
 43
0.0
 10
1090.601055362836
 20
-3003.211115285214
 10
1090.934388962403
 20
-3003.211115285214
 10
1090.934388962403
 20
-3004.115004085232
 10
1090.601055362836
 20
-3004.115004085232
 10
1090.601055362836
 20
-3003.211115285214
  0
LINE
  5
28A
330
1F
100
AcDbEntity
  8
Ech.1_5
 62
   190
370
     9
100
AcDbLine
 10
1091.814022561805
 20
-3004.115004085232
 30
0.0
 11
1074.901055762069
 21
-3004.115004085232
 31
0.0
  0
LINE
  5
28B
330
1F
100
AcDbEntity
  8
Ech.1_5
 62
   190
370
     9
100
AcDbLine
 10
1091.814022561805
 20
-3003.211115285214
 30
0.0
 11
1074.901055762069
 21
-3003.211115285214
 31
0.0
  0
ARC
  5
28C
330
1F
100
AcDbEntity
  8
Ech.1_5
 62
   190
370
     9
100
AcDbCircle
 10
1079.581892718335
 20
-3003.663059685223
 30
0.0
 40
5.12528135633781
100
AcDbArc
 50
168.6632793503256
 51
191.3367206496744
  0
LINE
  5
28D
330
1F
100
AcDbEntity
  8
Ech.1_5
 62
   190
370
     9
100
AcDbLine
 10
1074.678833362358
 20
-3004.67055968523
 30
0.0
 11
1074.678833362358
 21
-3004.33722648525
 31
0.0
  0
ARC
  5
28E
330
1F
100
AcDbEntity
  8
Ech.1_5
 62
   190
370
     9
100
AcDbCircle
 10
1074.901055758317
 20
-3004.337226481191
 30
0.0
 40
0.2222223959593166
100
AcDbArc
 50
89.99999903252916
 51
180.00000104632
  0
LINE
  5
28F
330
1F
100
AcDbEntity
  8
Ech.1_5
 62
   190
370
     9
100
AcDbLine
 10
1074.678833362358
 20
-3004.33722648525
 30
0.0
 11
1074.678833362358
 21
-3002.988892885223
 31
0.0
  0
ARC
  5
290
330
1F
100
AcDbEntity
  8
Ech.1_5
 62
   190
370
     9
100
AcDbCircle
 10
1074.901055758273
 20
-3002.988892889299
 30
0.0
 40
0.2222223959150674
100
AcDbArc
 50
179.9999989491073
 51
270.0000009789025
  0
LINE
  5
291
330
1F
100
AcDbEntity
  8
Ech.1_5
 62
   190
370
     9
100
AcDbLine
 10
1074.678833362358
 20
-3002.655559685239
 30
0.0
 11
1074.678833362358
 21
-3002.988892885223
 31
0.0
  0
LINE
  5
292
330
1F
100
AcDbEntity
  8
Ech.1_5
 62
   190
370
     9
100
AcDbLine
 10
1078.934388962403
 20
-3004.115004085232
 30
0.0
 11
1078.934388962403
 21
-3003.211115285214
 31
0.0
  0
LINE
  5
293
330
1F
100
AcDbEntity
  8
Ech.1_5
 62
   190
370
     9
100
AcDbLine
 10
1079.26772216262
 20
-3004.115004085232
 30
0.0
 11
1079.26772216262
 21
-3003.211115285214
 31
0.0
  0
LINE
  5
294
330
1F
100
AcDbEntity
  8
Ech.1_5
 62
   190
370
     9
100
AcDbLine
 10
1077.934388962403
 20
-3004.115004085232
 30
0.0
 11
1077.934388962403
 21
-3003.211115285214
 31
0.0
  0
LINE
  5
295
330
1F
100
AcDbEntity
  8
Ech.1_5
 62
   190
370
     9
100
AcDbLine
 10
1078.26772216262
 20
-3004.115004085232
 30
0.0
 11
1078.26772216262
 21
-3003.211115285214
 31
0.0
  0
LINE
  5
296
330
1F
100
AcDbEntity
  8
Ech.1_5
 62
   190
370
     9
100
AcDbLine
 10
1078.601055362836
 20
-3004.115004085232
 30
0.0
 11
1078.601055362836
 21
-3003.211115285214
 31
0.0
  0
LINE
  5
297
330
1F
100
AcDbEntity
  8
Ech.1_5
 62
   190
370
     9
100
AcDbLine
 10
1076.934388962403
 20
-3004.115004085232
 30
0.0
 11
1076.934388962403
 21
-3003.211115285214
 31
0.0
  0
LINE
  5
298
330
1F
100
AcDbEntity
  8
Ech.1_5
 62
   190
370
     9
100
AcDbLine
 10
1077.26772216262
 20
-3004.115004085232
 30
0.0
 11
1077.26772216262
 21
-3003.211115285214
 31
0.0
  0
LINE
  5
299
330
1F
100
AcDbEntity
  8
Ech.1_5
 62
   190
370
     9
100
AcDbLine
 10
1077.601055362837
 20
-3004.115004085232
 30
0.0
 11
1077.601055362837
 21
-3003.211115285214
 31
0.0
  0
LINE
  5
29A
330
1F
100
AcDbEntity
  8
Ech.1_5
 62
   190
370
     9
100
AcDbLine
 10
1076.601055362836
 20
-3004.115004085232
 30
0.0
 11
1076.601055362836
 21
-3003.211115285214
 31
0.0
  0
LINE
  5
29B
330
1F
100
AcDbEntity
  8
Ech.1_5
 62
   190
370
     9
100
AcDbLine
 10
1076.26772216262
 20
-3004.115004085232
 30
0.0
 11
1076.26772216262
 21
-3003.211115285214
 31
0.0
  0
LINE
  5
29C
330
1F
100
AcDbEntity
  8
Ech.1_5
 62
   190
370
     9
100
AcDbLine
 10
1075.934388962403
 20
-3004.115004085232
 30
0.0
 11
1075.934388962403
 21
-3003.211115285214
 31
0.0
  0
LINE
  5
29D
330
1F
100
AcDbEntity
  8
Ech.1_5
 62
   190
370
     9
100
AcDbLine
 10
1075.601055362836
 20
-3004.115004085232
 30
0.0
 11
1075.601055362836
 21
-3003.211115285217
 31
0.0
  0
LINE
  5
29E
330
1F
100
AcDbEntity
  8
Ech.1_5
 62
   190
370
     9
100
AcDbLine
 10
1089.601055362836
 20
-3004.115004085232
 30
0.0
 11
1089.601055362836
 21
-3003.211115285214
 31
0.0
  0
LINE
  5
29F
330
1F
100
AcDbEntity
  8
Ech.1_5
 62
   190
370
     9
100
AcDbLine
 10
1089.26772216262
 20
-3004.115004085232
 30
0.0
 11
1089.26772216262
 21
-3003.211115285214
 31
0.0
  0
LINE
  5
2A0
330
1F
100
AcDbEntity
  8
Ech.1_5
 62
   190
370
     9
100
AcDbLine
 10
1089.934388962403
 20
-3004.115004085232
 30
0.0
 11
1089.934388962403
 21
-3003.211115285214
 31
0.0
  0
LINE
  5
2A1
330
1F
100
AcDbEntity
  8
Ech.1_5
 62
   190
370
     9
100
AcDbLine
 10
1088.26772216262
 20
-3004.115004085232
 30
0.0
 11
1088.26772216262
 21
-3003.211115285214
 31
0.0
  0
LINE
  5
2A2
330
1F
100
AcDbEntity
  8
Ech.1_5
 62
   190
370
     9
100
AcDbLine
 10
1088.601055362836
 20
-3004.115004085232
 30
0.0
 11
1088.601055362836
 21
-3003.211115285214
 31
0.0
  0
LINE
  5
2A3
330
1F
100
AcDbEntity
  8
Ech.1_5
 62
   190
370
     9
100
AcDbLine
 10
1088.934388962403
 20
-3004.115004085232
 30
0.0
 11
1088.934388962403
 21
-3003.211115285214
 31
0.0
  0
LINE
  5
2A4
330
1F
100
AcDbEntity
  8
Ech.1_5
 62
   190
370
     9
100
AcDbLine
 10
1087.26772216262
 20
-3004.115004085232
 30
0.0
 11
1087.26772216262
 21
-3003.211115285214
 31
0.0
  0
LINE
  5
2A5
330
1F
100
AcDbEntity
  8
Ech.1_5
 62
   190
370
     9
100
AcDbLine
 10
1087.601055362836
 20
-3004.115004085232
 30
0.0
 11
1087.601055362836
 21
-3003.211115285214
 31
0.0
  0
LINE
  5
2A6
330
1F
100
AcDbEntity
  8
Ech.1_5
 62
   190
370
     9
100
AcDbLine
 10
1087.934388962403
 20
-3004.115004085232
 30
0.0
 11
1087.934388962403
 21
-3003.211115285214
 31
0.0
  0
LINE
  5
2A7
330
1F
100
AcDbEntity
  8
Ech.1_5
 62
   190
370
     9
100
AcDbLine
 10
1086.26772216262
 20
-3004.115004085232
 30
0.0
 11
1086.26772216262
 21
-3003.211115285214
 31
0.0
  0
LINE
  5
2A8
330
1F
100
AcDbEntity
  8
Ech.1_5
 62
   190
370
     9
100
AcDbLine
 10
1086.601055362836
 20
-3004.115004085232
 30
0.0
 11
1086.601055362836
 21
-3003.211115285214
 31
0.0
  0
LINE
  5
2A9
330
1F
100
AcDbEntity
  8
Ech.1_5
 62
   190
370
     9
100
AcDbLine
 10
1086.934388962403
 20
-3004.115004085232
 30
0.0
 11
1086.934388962403
 21
-3003.211115285214
 31
0.0
  0
LINE
  5
2AA
330
1F
100
AcDbEntity
  8
Ech.1_5
 62
   190
370
     9
100
AcDbLine
 10
1085.934388962403
 20
-3004.115004085232
 30
0.0
 11
1085.934388962403
 21
-3003.211115285214
 31
0.0
  0
LINE
  5
2AB
330
1F
100
AcDbEntity
  8
Ech.1_5
 62
   190
370
     9
100
AcDbLine
 10
1080.601055362836
 20
-3004.115004085232
 30
0.0
 11
1080.601055362836
 21
-3003.211115285214
 31
0.0
  0
LINE
  5
2AC
330
1F
100
AcDbEntity
  8
Ech.1_5
 62
   190
370
     9
100
AcDbLine
 10
1080.934388962403
 20
-3004.115004085232
 30
0.0
 11
1080.934388962403
 21
-3003.211115285214
 31
0.0
  0
LINE
  5
2AD
330
1F
100
AcDbEntity
  8
Ech.1_5
 62
   190
370
     9
100
AcDbLine
 10
1081.26772216262
 20
-3004.115004085232
 30
0.0
 11
1081.26772216262
 21
-3003.211115285214
 31
0.0
  0
LINE
  5
2AE
330
1F
100
AcDbEntity
  8
Ech.1_5
 62
   190
370
     9
100
AcDbLine
 10
1081.601055362836
 20
-3004.115004085232
 30
0.0
 11
1081.601055362836
 21
-3003.211115285214
 31
0.0
  0
LINE
  5
2AF
330
1F
100
AcDbEntity
  8
Ech.1_5
 62
   190
370
     9
100
AcDbLine
 10
1082.601055362836
 20
-3004.115004085232
 30
0.0
 11
1082.601055362836
 21
-3003.211115285214
 31
0.0
  0
LINE
  5
2B0
330
1F
100
AcDbEntity
  8
Ech.1_5
 62
   190
370
     9
100
AcDbLine
 10
1082.26772216262
 20
-3004.115004085232
 30
0.0
 11
1082.26772216262
 21
-3003.211115285214
 31
0.0
  0
LINE
  5
2B1
330
1F
100
AcDbEntity
  8
Ech.1_5
 62
   190
370
     9
100
AcDbLine
 10
1081.934388962403
 20
-3004.115004085232
 30
0.0
 11
1081.934388962403
 21
-3003.211115285214
 31
0.0
  0
LINE
  5
2B2
330
1F
100
AcDbEntity
  8
Ech.1_5
 62
   190
370
     9
100
AcDbLine
 10
1083.601055362836
 20
-3004.115004085232
 30
0.0
 11
1083.601055362836
 21
-3003.211115285214
 31
0.0
  0
LINE
  5
2B3
330
1F
100
AcDbEntity
  8
Ech.1_5
 62
   190
370
     9
100
AcDbLine
 10
1083.26772216262
 20
-3004.115004085232
 30
0.0
 11
1083.26772216262
 21
-3003.211115285214
 31
0.0
  0
LINE
  5
2B4
330
1F
100
AcDbEntity
  8
Ech.1_5
 62
   190
370
     9
100
AcDbLine
 10
1082.934388962403
 20
-3004.115004085232
 30
0.0
 11
1082.934388962403
 21
-3003.211115285214
 31
0.0
  0
LINE
  5
2B5
330
1F
100
AcDbEntity
  8
Ech.1_5
 62
   190
370
     9
100
AcDbLine
 10
1084.601055362836
 20
-3004.115004085232
 30
0.0
 11
1084.601055362836
 21
-3003.211115285214
 31
0.0
  0
LINE
  5
2B6
330
1F
100
AcDbEntity
  8
Ech.1_5
 62
   190
370
     9
100
AcDbLine
 10
1084.26772216262
 20
-3004.115004085232
 30
0.0
 11
1084.26772216262
 21
-3003.211115285214
 31
0.0
  0
LINE
  5
2B7
330
1F
100
AcDbEntity
  8
Ech.1_5
 62
   190
370
     9
100
AcDbLine
 10
1083.934388962403
 20
-3004.115004085232
 30
0.0
 11
1083.934388962403
 21
-3003.211115285214
 31
0.0
  0
LINE
  5
2B8
330
1F
100
AcDbEntity
  8
Ech.1_5
 62
   190
370
     9
100
AcDbLine
 10
1085.601055362836
 20
-3004.115004085232
 30
0.0
 11
1085.601055362836
 21
-3003.211115285214
 31
0.0
  0
LINE
  5
2B9
330
1F
100
AcDbEntity
  8
Ech.1_5
 62
   190
370
     9
100
AcDbLine
 10
1085.26772216262
 20
-3004.115004085232
 30
0.0
 11
1085.26772216262
 21
-3003.211115285214
 31
0.0
  0
LINE
  5
2BA
330
1F
100
AcDbEntity
  8
Ech.1_5
 62
   190
370
     9
100
AcDbLine
 10
1084.934388962403
 20
-3004.115004085232
 30
0.0
 11
1084.934388962403
 21
-3003.211115285214
 31
0.0
  0
LINE
  5
2BB
330
1F
100
AcDbEntity
  8
Ech.1_5
 62
   190
370
     9
100
AcDbLine
 10
1079.934388962403
 20
-3004.115004085232
 30
0.0
 11
1079.934388962403
 21
-3003.211115285214
 31
0.0
  0
LINE
  5
2BC
330
1F
100
AcDbEntity
  8
Ech.1_5
 62
   190
370
     9
100
AcDbLine
 10
1080.26772216262
 20
-3004.115004085232
 30
0.0
 11
1080.26772216262
 21
-3003.211115285214
 31
0.0
  0
LINE
  5
2BD
330
1F
100
AcDbEntity
  8
Ech.1_5
 62
   190
370
     9
100
AcDbLine
 10
1080.601055362836
 20
-3004.115004085232
 30
0.0
 11
1080.601055362836
 21
-3003.211115285214
 31
0.0
  0
LINE
  5
2BE
330
1F
100
AcDbEntity
  8
Ech.1_5
 62
   190
370
     9
100
AcDbLine
 10
1079.601055362836
 20
-3004.115004085232
 30
0.0
 11
1079.601055362836
 21
-3003.211115285214
 31
0.0
  0
LINE
  5
2BF
330
1F
100
AcDbEntity
  8
Ech.1_5
 62
   190
370
     9
100
AcDbLine
 10
1092.878833362358
 20
-3003.663059685235
 30
0.0
 11
1091.814022561805
 21
-3004.115004085232
 31
0.0
  0
ARC
  5
2C0
330
1F
100
AcDbEntity
  8
Ech.1_5
 62
   190
370
     9
100
AcDbCircle
 10
1092.377762958044
 20
-3003.663059685236
 30
0.0
 40
0.7225351986662851
100
AcDbArc
 50
141.2812399142066
 51
218.7187600857934
  0
LINE
  5
2C1
330
1F
100
AcDbEntity
  8
Ech.1_5
 62
   190
370
     9
100
AcDbLine
 10
1092.878833362358
 20
-3003.663059685235
 30
0.0
 11
1091.814022561805
 21
-3003.211115285214
 31
0.0
  0
HATCH
  5
2C2
330
1F
100
AcDbEntity
  8
Ech.1_5
 62
   252
440
 33554687
370
     5
100
AcDbHatch
 10
0.0
 20
0.0
 30
0.0
210
0.0
220
0.0
230
1.0
  2
SOLID
 70
     1
 71
     1
 91
        1
 92
        3
 72
     0
 73
     1
 93
        4
 10
1075.601055362836
 20
-3003.211115285217
 10
1075.934388962403
 20
-3003.211115285214
 10
1075.934388962403
 20
-3004.115004085232
 10
1075.601055362836
 20
-3004.115004085232
 97
        0
 75
     0
 76
     1
 98
        0
  0
LWPOLYLINE
  5
2C3
330
1F
100
AcDbEntity
  8
Ech.1_5
 62
     7
370
     9
100
AcDbPolyline
 90
        5
 70
     0
 43
0.0
 10
1075.601055362836
 20
-3003.211115285217
 10
1075.934388962403
 20
-3003.211115285214
 10
1075.934388962403
 20
-3004.115004085232
 10
1075.601055362836
 20
-3004.115004085232
 10
1075.601055362836
 20
-3003.211115285217
  0
HATCH
  5
2C4
330
1F
100
AcDbEntity
  8
Ech.1_5
 62
   252
440
 33554687
370
     5
100
AcDbHatch
 10
0.0
 20
0.0
 30
0.0
210
0.0
220
0.0
230
1.0
  2
SOLID
 70
     1
 71
     1
 91
        1
 92
        3
 72
     0
 73
     1
 93
        4
 10
1075.934388962403
 20
-3003.211115285214
 10
1076.267722561971
 20
-3003.211115285214
 10
1076.267722561971
 20
-3004.115004085232
 10
1075.934388962403
 20
-3004.115004085232
 97
        0
 75
     0
 76
     1
 98
        0
  0
LWPOLYLINE
  5
2C5
330
1F
100
AcDbEntity
  8
Ech.1_5
 62
     7
370
     9
100
AcDbPolyline
 90
        5
 70
     0
 43
0.0
 10
1075.934388962403
 20
-3003.211115285214
 10
1076.267722561971
 20
-3003.211115285214
 10
1076.267722561971
 20
-3004.115004085232
 10
1075.934388962403
 20
-3004.115004085232
 10
1075.934388962403
 20
-3003.211115285214
  0
HATCH
  5
2C6
330
1F
100
AcDbEntity
  8
Ech.1_5
 62
   252
440
 33554687
370
     5
100
AcDbHatch
 10
0.0
 20
0.0
 30
0.0
210
0.0
220
0.0
230
1.0
  2
SOLID
 70
     1
 71
     1
 91
        1
 92
        3
 72
     0
 73
     1
 93
        4
 10
1076.267722561971
 20
-3003.211115285214
 10
1076.601056161538
 20
-3003.211115285214
 10
1076.601056161538
 20
-3004.115004085232
 10
1076.267722561971
 20
-3004.115004085232
 97
        0
 75
     0
 76
     1
 98
        0
  0
LWPOLYLINE
  5
2C7
330
1F
100
AcDbEntity
  8
Ech.1_5
 62
     7
370
     9
100
AcDbPolyline
 90
        5
 70
     0
 43
0.0
 10
1076.267722561971
 20
-3003.211115285214
 10
1076.601056161538
 20
-3003.211115285214
 10
1076.601056161538
 20
-3004.115004085232
 10
1076.267722561971
 20
-3004.115004085232
 10
1076.267722561971
 20
-3003.211115285214
  0
HATCH
  5
2C8
330
1F
100
AcDbEntity
  8
Ech.1_5
 62
   252
440
 33554687
370
     5
100
AcDbHatch
 10
0.0
 20
0.0
 30
0.0
210
0.0
220
0.0
230
1.0
  2
SOLID
 70
     1
 71
     1
 91
        1
 92
        3
 72
     0
 73
     1
 93
        4
 10
1076.601056161538
 20
-3003.211115285214
 10
1076.934389761106
 20
-3003.211115285214
 10
1076.934389761106
 20
-3004.115004085232
 10
1076.601056161538
 20
-3004.115004085232
 97
        0
 75
     0
 76
     1
 98
        0
  0
LWPOLYLINE
  5
2C9
330
1F
100
AcDbEntity
  8
Ech.1_5
 62
     7
370
     9
100
AcDbPolyline
 90
        5
 70
     0
 43
0.0
 10
1076.601056161538
 20
-3003.211115285214
 10
1076.934389761106
 20
-3003.211115285214
 10
1076.934389761106
 20
-3004.115004085232
 10
1076.601056161538
 20
-3004.115004085232
 10
1076.601056161538
 20
-3003.211115285214
  0
HATCH
  5
2CA
330
1F
100
AcDbEntity
  8
Ech.1_5
 62
   252
440
 33554687
370
     5
100
AcDbHatch
 10
0.0
 20
0.0
 30
0.0
210
0.0
220
0.0
230
1.0
  2
SOLID
 70
     1
 71
     1
 91
        1
 92
        3
 72
     0
 73
     1
 93
        4
 10
1076.934388962403
 20
-3003.211115285214
 10
1077.267722561972
 20
-3003.211115285214
 10
1077.267722561972
 20
-3004.115004085232
 10
1076.934388962403
 20
-3004.115004085232
 97
        0
 75
     0
 76
     1
 98
        0
  0
LWPOLYLINE
  5
2CB
330
1F
100
AcDbEntity
  8
Ech.1_5
 62
     7
370
     9
100
AcDbPolyline
 90
        5
 70
     0
 43
0.0
 10
1076.934388962403
 20
-3003.211115285214
 10
1077.267722561972
 20
-3003.211115285214
 10
1077.267722561972
 20
-3004.115004085232
 10
1076.934388962403
 20
-3004.115004085232
 10
1076.934388962403
 20
-3003.211115285214
  0
HATCH
  5
2CC
330
1F
100
AcDbEntity
  8
Ech.1_5
 62
   252
440
 33554687
370
     5
100
AcDbHatch
 10
0.0
 20
0.0
 30
0.0
210
0.0
220
0.0
230
1.0
  2
SOLID
 70
     1
 71
     1
 91
        1
 92
        3
 72
     0
 73
     1
 93
        4
 10
1077.26772216262
 20
-3003.211115285214
 10
1077.601055762188
 20
-3003.211115285214
 10
1077.601055762188
 20
-3004.115004085235
 10
1077.26772216262
 20
-3004.115004085232
 97
        0
 75
     0
 76
     1
 98
        0
  0
LWPOLYLINE
  5
2CD
330
1F
100
AcDbEntity
  8
Ech.1_5
 62
     7
370
     9
100
AcDbPolyline
 90
        5
 70
     0
 43
0.0
 10
1077.26772216262
 20
-3003.211115285214
 10
1077.601055762188
 20
-3003.211115285214
 10
1077.601055762188
 20
-3004.115004085235
 10
1077.26772216262
 20
-3004.115004085232
 10
1077.26772216262
 20
-3003.211115285214
  0
HATCH
  5
2CE
330
1F
100
AcDbEntity
  8
Ech.1_5
 62
   252
440
 33554687
370
     5
100
AcDbHatch
 10
0.0
 20
0.0
 30
0.0
210
0.0
220
0.0
230
1.0
  2
SOLID
 70
     1
 71
     1
 91
        1
 92
        3
 72
     0
 73
     1
 93
        4
 10
1077.601055762188
 20
-3003.211115285214
 10
1077.934389361754
 20
-3003.211115285214
 10
1077.934389361754
 20
-3004.115004085232
 10
1077.601055762188
 20
-3004.115004085235
 97
        0
 75
     0
 76
     1
 98
        0
  0
LWPOLYLINE
  5
2CF
330
1F
100
AcDbEntity
  8
Ech.1_5
 62
     7
370
     9
100
AcDbPolyline
 90
        5
 70
     0
 43
0.0
 10
1077.601055762188
 20
-3003.211115285214
 10
1077.934389361754
 20
-3003.211115285214
 10
1077.934389361754
 20
-3004.115004085232
 10
1077.601055762188
 20
-3004.115004085235
 10
1077.601055762188
 20
-3003.211115285214
  0
HATCH
  5
2D0
330
1F
100
AcDbEntity
  8
Ech.1_5
 62
   252
440
 33554687
370
     5
100
AcDbHatch
 10
0.0
 20
0.0
 30
0.0
210
0.0
220
0.0
230
1.0
  2
SOLID
 70
     1
 71
     1
 91
        1
 92
        3
 72
     0
 73
     1
 93
        4
 10
1077.934388962403
 20
-3003.211115285214
 10
1078.267722561971
 20
-3003.211115285214
 10
1078.267722561971
 20
-3004.115004085232
 10
1077.934388962403
 20
-3004.115004085232
 97
        0
 75
     0
 76
     1
 98
        0
  0
LWPOLYLINE
  5
2D1
330
1F
100
AcDbEntity
  8
Ech.1_5
 62
     7
370
     9
100
AcDbPolyline
 90
        5
 70
     0
 43
0.0
 10
1077.934388962403
 20
-3003.211115285214
 10
1078.267722561971
 20
-3003.211115285214
 10
1078.267722561971
 20
-3004.115004085232
 10
1077.934388962403
 20
-3004.115004085232
 10
1077.934388962403
 20
-3003.211115285214
  0
HATCH
  5
2D2
330
1F
100
AcDbEntity
  8
Ech.1_5
 62
   252
440
 33554687
370
     5
100
AcDbHatch
 10
0.0
 20
0.0
 30
0.0
210
0.0
220
0.0
230
1.0
  2
SOLID
 70
     1
 71
     1
 91
        1
 92
        3
 72
     0
 73
     1
 93
        4
 10
1078.267722561971
 20
-3003.211115285214
 10
1078.601056161538
 20
-3003.211115285214
 10
1078.601056161538
 20
-3004.115004085232
 10
1078.267722561971
 20
-3004.115004085232
 97
        0
 75
     0
 76
     1
 98
        0
  0
LWPOLYLINE
  5
2D3
330
1F
100
AcDbEntity
  8
Ech.1_5
 62
     7
370
     9
100
AcDbPolyline
 90
        5
 70
     0
 43
0.0
 10
1078.267722561971
 20
-3003.211115285214
 10
1078.601056161538
 20
-3003.211115285214
 10
1078.601056161538
 20
-3004.115004085232
 10
1078.267722561971
 20
-3004.115004085232
 10
1078.267722561971
 20
-3003.211115285214
  0
HATCH
  5
2D4
330
1F
100
AcDbEntity
  8
Ech.1_5
 62
   252
440
 33554687
370
     5
100
AcDbHatch
 10
0.0
 20
0.0
 30
0.0
210
0.0
220
0.0
230
1.0
  2
SOLID
 70
     1
 71
     1
 91
        1
 92
        3
 72
     0
 73
     1
 93
        4
 10
1078.601055362836
 20
-3003.211115285214
 10
1078.934388962403
 20
-3003.211115285214
 10
1078.934388962403
 20
-3004.115004085232
 10
1078.601055362836
 20
-3004.115004085232
 97
        0
 75
     0
 76
     1
 98
        0
  0
LWPOLYLINE
  5
2D5
330
1F
100
AcDbEntity
  8
Ech.1_5
 62
     7
370
     9
100
AcDbPolyline
 90
        5
 70
     0
 43
0.0
 10
1078.601055362836
 20
-3003.211115285214
 10
1078.934388962403
 20
-3003.211115285214
 10
1078.934388962403
 20
-3004.115004085232
 10
1078.601055362836
 20
-3004.115004085232
 10
1078.601055362836
 20
-3003.211115285214
  0
HATCH
  5
2D6
330
1F
100
AcDbEntity
  8
Ech.1_5
 62
   252
440
 33554687
370
     5
100
AcDbHatch
 10
0.0
 20
0.0
 30
0.0
210
0.0
220
0.0
230
1.0
  2
SOLID
 70
     1
 71
     1
 91
        1
 92
        3
 72
     0
 73
     1
 93
        4
 10
1078.934388962403
 20
-3003.211115285214
 10
1079.267722561971
 20
-3003.211115285214
 10
1079.267722561971
 20
-3004.115004085232
 10
1078.934388962403
 20
-3004.115004085232
 97
        0
 75
     0
 76
     1
 98
        0
  0
LWPOLYLINE
  5
2D7
330
1F
100
AcDbEntity
  8
Ech.1_5
 62
     7
370
     9
100
AcDbPolyline
 90
        5
 70
     0
 43
0.0
 10
1078.934388962403
 20
-3003.211115285214
 10
1079.267722561971
 20
-3003.211115285214
 10
1079.267722561971
 20
-3004.115004085232
 10
1078.934388962403
 20
-3004.115004085232
 10
1078.934388962403
 20
-3003.211115285214
  0
HATCH
  5
2D8
330
1F
100
AcDbEntity
  8
Ech.1_5
 62
   252
440
 33554687
370
     5
100
AcDbHatch
 10
0.0
 20
0.0
 30
0.0
210
0.0
220
0.0
230
1.0
  2
SOLID
 70
     1
 71
     1
 91
        1
 92
        3
 72
     0
 73
     1
 93
        4
 10
1079.267722561971
 20
-3003.211115285214
 10
1079.601056161538
 20
-3003.211115285214
 10
1079.601056161539
 20
-3004.115004085232
 10
1079.267722561971
 20
-3004.115004085232
 97
        0
 75
     0
 76
     1
 98
        0
  0
LWPOLYLINE
  5
2D9
330
1F
100
AcDbEntity
  8
Ech.1_5
 62
     7
370
     9
100
AcDbPolyline
 90
        5
 70
     0
 43
0.0
 10
1079.267722561971
 20
-3003.211115285214
 10
1079.601056161538
 20
-3003.211115285214
 10
1079.601056161539
 20
-3004.115004085232
 10
1079.267722561971
 20
-3004.115004085232
 10
1079.267722561971
 20
-3003.211115285214
  0
HATCH
  5
2DA
330
1F
100
AcDbEntity
  8
Ech.1_5
 62
   252
440
 33554687
370
     5
100
AcDbHatch
 10
0.0
 20
0.0
 30
0.0
210
0.0
220
0.0
230
1.0
  2
SOLID
 70
     1
 71
     1
 91
        1
 92
        3
 72
     0
 73
     1
 93
        4
 10
1079.601056161538
 20
-3003.211115285214
 10
1079.934389761106
 20
-3003.211115285214
 10
1079.934389761106
 20
-3004.115004085232
 10
1079.601056161539
 20
-3004.115004085232
 97
        0
 75
     0
 76
     1
 98
        0
  0
LWPOLYLINE
  5
2DB
330
1F
100
AcDbEntity
  8
Ech.1_5
 62
     7
370
     9
100
AcDbPolyline
 90
        5
 70
     0
 43
0.0
 10
1079.601056161538
 20
-3003.211115285214
 10
1079.934389761106
 20
-3003.211115285214
 10
1079.934389761106
 20
-3004.115004085232
 10
1079.601056161539
 20
-3004.115004085232
 10
1079.601056161538
 20
-3003.211115285214
  0
HATCH
  5
2DC
330
1F
100
AcDbEntity
  8
Ech.1_5
 62
   252
440
 33554687
370
     5
100
AcDbHatch
 10
0.0
 20
0.0
 30
0.0
210
0.0
220
0.0
230
1.0
  2
SOLID
 70
     1
 71
     1
 91
        1
 92
        3
 72
     0
 73
     1
 93
        4
 10
1079.934389761106
 20
-3003.211115285214
 10
1080.267723360673
 20
-3003.211115285214
 10
1080.267723360673
 20
-3004.115004085232
 10
1079.934389761106
 20
-3004.115004085232
 97
        0
 75
     0
 76
     1
 98
        0
  0
LWPOLYLINE
  5
2DD
330
1F
100
AcDbEntity
  8
Ech.1_5
 62
     7
370
     9
100
AcDbPolyline
 90
        5
 70
     0
 43
0.0
 10
1079.934389761106
 20
-3003.211115285214
 10
1080.267723360673
 20
-3003.211115285214
 10
1080.267723360673
 20
-3004.115004085232
 10
1079.934389761106
 20
-3004.115004085232
 10
1079.934389761106
 20
-3003.211115285214
  0
HATCH
  5
2DE
330
1F
100
AcDbEntity
  8
Ech.1_5
 62
   252
440
 33554687
370
     5
100
AcDbHatch
 10
0.0
 20
0.0
 30
0.0
210
0.0
220
0.0
230
1.0
  2
SOLID
 70
     1
 71
     1
 91
        1
 92
        3
 72
     0
 73
     1
 93
        4
 10
1080.267722561971
 20
-3003.211115285214
 10
1080.601056161538
 20
-3003.211115285214
 10
1080.601056161538
 20
-3004.115004085232
 10
1080.267722561971
 20
-3004.115004085232
 97
        0
 75
     0
 76
     1
 98
        0
  0
LWPOLYLINE
  5
2DF
330
1F
100
AcDbEntity
  8
Ech.1_5
 62
     7
370
     9
100
AcDbPolyline
 90
        5
 70
     0
 43
0.0
 10
1080.267722561971
 20
-3003.211115285214
 10
1080.601056161538
 20
-3003.211115285214
 10
1080.601056161538
 20
-3004.115004085232
 10
1080.267722561971
 20
-3004.115004085232
 10
1080.267722561971
 20
-3003.211115285214
  0
HATCH
  5
2E0
330
1F
100
AcDbEntity
  8
Ech.1_5
 62
   252
440
 33554687
370
     5
100
AcDbHatch
 10
0.0
 20
0.0
 30
0.0
210
0.0
220
0.0
230
1.0
  2
SOLID
 70
     1
 71
     1
 91
        1
 92
        3
 72
     0
 73
     1
 93
        4
 10
1080.601055762187
 20
-3003.211115285214
 10
1080.934389361754
 20
-3003.211115285214
 10
1080.934389361754
 20
-3004.115004085232
 10
1080.601055762187
 20
-3004.115004085232
 97
        0
 75
     0
 76
     1
 98
        0
  0
LWPOLYLINE
  5
2E1
330
1F
100
AcDbEntity
  8
Ech.1_5
 62
     7
370
     9
100
AcDbPolyline
 90
        5
 70
     0
 43
0.0
 10
1080.601055762187
 20
-3003.211115285214
 10
1080.934389361754
 20
-3003.211115285214
 10
1080.934389361754
 20
-3004.115004085232
 10
1080.601055762187
 20
-3004.115004085232
 10
1080.601055762187
 20
-3003.211115285214
  0
HATCH
  5
2E2
330
1F
100
AcDbEntity
  8
Ech.1_5
 62
   252
440
 33554687
370
     5
100
AcDbHatch
 10
0.0
 20
0.0
 30
0.0
210
0.0
220
0.0
230
1.0
  2
SOLID
 70
     1
 71
     1
 91
        1
 92
        3
 72
     0
 73
     1
 93
        4
 10
1080.934389361754
 20
-3003.211115285214
 10
1081.267722961322
 20
-3003.211115285214
 10
1081.267722961322
 20
-3004.115004085232
 10
1080.934389361754
 20
-3004.115004085232
 97
        0
 75
     0
 76
     1
 98
        0
  0
LWPOLYLINE
  5
2E3
330
1F
100
AcDbEntity
  8
Ech.1_5
 62
     7
370
     9
100
AcDbPolyline
 90
        5
 70
     0
 43
0.0
 10
1080.934389361754
 20
-3003.211115285214
 10
1081.267722961322
 20
-3003.211115285214
 10
1081.267722961322
 20
-3004.115004085232
 10
1080.934389361754
 20
-3004.115004085232
 10
1080.934389361754
 20
-3003.211115285214
  0
HATCH
  5
2E4
330
1F
100
AcDbEntity
  8
Ech.1_5
 62
   252
440
 33554687
370
     5
100
AcDbHatch
 10
0.0
 20
0.0
 30
0.0
210
0.0
220
0.0
230
1.0
  2
SOLID
 70
     1
 71
     1
 91
        1
 92
        3
 72
     0
 73
     1
 93
        4
 10
1081.267722561971
 20
-3003.211115285214
 10
1081.601056161538
 20
-3003.211115285214
 10
1081.601056161538
 20
-3004.115004085232
 10
1081.267722561971
 20
-3004.115004085232
 97
        0
 75
     0
 76
     1
 98
        0
  0
LWPOLYLINE
  5
2E5
330
1F
100
AcDbEntity
  8
Ech.1_5
 62
     7
370
     9
100
AcDbPolyline
 90
        5
 70
     0
 43
0.0
 10
1081.267722561971
 20
-3003.211115285214
 10
1081.601056161538
 20
-3003.211115285214
 10
1081.601056161538
 20
-3004.115004085232
 10
1081.267722561971
 20
-3004.115004085232
 10
1081.267722561971
 20
-3003.211115285214
  0
HATCH
  5
2E6
330
1F
100
AcDbEntity
  8
Ech.1_5
 62
   252
440
 33554687
370
     5
100
AcDbHatch
 10
0.0
 20
0.0
 30
0.0
210
0.0
220
0.0
230
1.0
  2
SOLID
 70
     1
 71
     1
 91
        1
 92
        3
 72
     0
 73
     1
 93
        4
 10
1081.601056161538
 20
-3003.211115285214
 10
1081.934389761106
 20
-3003.211115285214
 10
1081.934389761106
 20
-3004.115004085232
 10
1081.601056161538
 20
-3004.115004085232
 97
        0
 75
     0
 76
     1
 98
        0
  0
LWPOLYLINE
  5
2E7
330
1F
100
AcDbEntity
  8
Ech.1_5
 62
     7
370
     9
100
AcDbPolyline
 90
        5
 70
     0
 43
0.0
 10
1081.601056161538
 20
-3003.211115285214
 10
1081.934389761106
 20
-3003.211115285214
 10
1081.934389761106
 20
-3004.115004085232
 10
1081.601056161538
 20
-3004.115004085232
 10
1081.601056161538
 20
-3003.211115285214
  0
HATCH
  5
2E8
330
1F
100
AcDbEntity
  8
Ech.1_5
 62
   252
440
 33554687
370
     5
100
AcDbHatch
 10
0.0
 20
0.0
 30
0.0
210
0.0
220
0.0
230
1.0
  2
SOLID
 70
     1
 71
     1
 91
        1
 92
        3
 72
     0
 73
     1
 93
        4
 10
1081.934388962403
 20
-3003.211115285214
 10
1082.267722561971
 20
-3003.211115285214
 10
1082.267722561971
 20
-3004.115004085232
 10
1081.934388962403
 20
-3004.115004085232
 97
        0
 75
     0
 76
     1
 98
        0
  0
LWPOLYLINE
  5
2E9
330
1F
100
AcDbEntity
  8
Ech.1_5
 62
     7
370
     9
100
AcDbPolyline
 90
        5
 70
     0
 43
0.0
 10
1081.934388962403
 20
-3003.211115285214
 10
1082.267722561971
 20
-3003.211115285214
 10
1082.267722561971
 20
-3004.115004085232
 10
1081.934388962403
 20
-3004.115004085232
 10
1081.934388962403
 20
-3003.211115285214
  0
HATCH
  5
2EA
330
1F
100
AcDbEntity
  8
Ech.1_5
 62
   252
440
 33554687
370
     5
100
AcDbHatch
 10
0.0
 20
0.0
 30
0.0
210
0.0
220
0.0
230
1.0
  2
SOLID
 70
     1
 71
     1
 91
        1
 92
        3
 72
     0
 73
     1
 93
        4
 10
1082.267722561971
 20
-3003.211115285214
 10
1082.601056161538
 20
-3003.211115285214
 10
1082.601056161538
 20
-3004.115004085232
 10
1082.267722561971
 20
-3004.115004085232
 97
        0
 75
     0
 76
     1
 98
        0
  0
LWPOLYLINE
  5
2EB
330
1F
100
AcDbEntity
  8
Ech.1_5
 62
     7
370
     9
100
AcDbPolyline
 90
        5
 70
     0
 43
0.0
 10
1082.267722561971
 20
-3003.211115285214
 10
1082.601056161538
 20
-3003.211115285214
 10
1082.601056161538
 20
-3004.115004085232
 10
1082.267722561971
 20
-3004.115004085232
 10
1082.267722561971
 20
-3003.211115285214
  0
HATCH
  5
2EC
330
1F
100
AcDbEntity
  8
Ech.1_5
 62
   252
440
 33554687
370
     5
100
AcDbHatch
 10
0.0
 20
0.0
 30
0.0
210
0.0
220
0.0
230
1.0
  2
SOLID
 70
     1
 71
     1
 91
        1
 92
        3
 72
     0
 73
     1
 93
        4
 10
1082.601056161538
 20
-3003.211115285214
 10
1082.934389761106
 20
-3003.211115285214
 10
1082.934389761106
 20
-3004.115004085232
 10
1082.601056161538
 20
-3004.115004085232
 97
        0
 75
     0
 76
     1
 98
        0
  0
LWPOLYLINE
  5
2ED
330
1F
100
AcDbEntity
  8
Ech.1_5
 62
     7
370
     9
100
AcDbPolyline
 90
        5
 70
     0
 43
0.0
 10
1082.601056161538
 20
-3003.211115285214
 10
1082.934389761106
 20
-3003.211115285214
 10
1082.934389761106
 20
-3004.115004085232
 10
1082.601056161538
 20
-3004.115004085232
 10
1082.601056161538
 20
-3003.211115285214
  0
HATCH
  5
2EE
330
1F
100
AcDbEntity
  8
Ech.1_5
 62
   252
440
 33554687
370
     5
100
AcDbHatch
 10
0.0
 20
0.0
 30
0.0
210
0.0
220
0.0
230
1.0
  2
SOLID
 70
     1
 71
     1
 91
        1
 92
        3
 72
     0
 73
     1
 93
        4
 10
1082.934389761106
 20
-3003.211115285214
 10
1083.267723360674
 20
-3003.211115285214
 10
1083.267723360673
 20
-3004.115004085232
 10
1082.934389761106
 20
-3004.115004085232
 97
        0
 75
     0
 76
     1
 98
        0
  0
LWPOLYLINE
  5
2EF
330
1F
100
AcDbEntity
  8
Ech.1_5
 62
     7
370
     9
100
AcDbPolyline
 90
        5
 70
     0
 43
0.0
 10
1082.934389761106
 20
-3003.211115285214
 10
1083.267723360674
 20
-3003.211115285214
 10
1083.267723360673
 20
-3004.115004085232
 10
1082.934389761106
 20
-3004.115004085232
 10
1082.934389761106
 20
-3003.211115285214
  0
HATCH
  5
2F0
330
1F
100
AcDbEntity
  8
Ech.1_5
 62
   252
440
 33554687
370
     5
100
AcDbHatch
 10
0.0
 20
0.0
 30
0.0
210
0.0
220
0.0
230
1.0
  2
SOLID
 70
     1
 71
     1
 91
        1
 92
        3
 72
     0
 73
     1
 93
        4
 10
1083.267723360674
 20
-3003.211115285214
 10
1083.60105696024
 20
-3003.211115285214
 10
1083.60105696024
 20
-3004.115004085232
 10
1083.267723360673
 20
-3004.115004085232
 97
        0
 75
     0
 76
     1
 98
        0
  0
LWPOLYLINE
  5
2F1
330
1F
100
AcDbEntity
  8
Ech.1_5
 62
     7
370
     9
100
AcDbPolyline
 90
        5
 70
     0
 43
0.0
 10
1083.267723360674
 20
-3003.211115285214
 10
1083.60105696024
 20
-3003.211115285214
 10
1083.60105696024
 20
-3004.115004085232
 10
1083.267723360673
 20
-3004.115004085232
 10
1083.267723360674
 20
-3003.211115285214
  0
HATCH
  5
2F2
330
1F
100
AcDbEntity
  8
Ech.1_5
 62
   252
440
 33554687
370
     5
100
AcDbHatch
 10
0.0
 20
0.0
 30
0.0
210
0.0
220
0.0
230
1.0
  2
SOLID
 70
     1
 71
     1
 91
        1
 92
        3
 72
     0
 73
     1
 93
        4
 10
1083.601056161538
 20
-3003.211115285214
 10
1083.934389761106
 20
-3003.211115285214
 10
1083.934389761106
 20
-3004.115004085232
 10
1083.601056161538
 20
-3004.115004085232
 97
        0
 75
     0
 76
     1
 98
        0
  0
LWPOLYLINE
  5
2F3
330
1F
100
AcDbEntity
  8
Ech.1_5
 62
     7
370
     9
100
AcDbPolyline
 90
        5
 70
     0
 43
0.0
 10
1083.601056161538
 20
-3003.211115285214
 10
1083.934389761106
 20
-3003.211115285214
 10
1083.934389761106
 20
-3004.115004085232
 10
1083.601056161538
 20
-3004.115004085232
 10
1083.601056161538
 20
-3003.211115285214
  0
HATCH
  5
2F4
330
1F
100
AcDbEntity
  8
Ech.1_5
 62
   252
440
 33554687
370
     5
100
AcDbHatch
 10
0.0
 20
0.0
 30
0.0
210
0.0
220
0.0
230
1.0
  2
SOLID
 70
     1
 71
     1
 91
        1
 92
        3
 72
     0
 73
     1
 93
        4
 10
1083.934389361754
 20
-3003.211115285214
 10
1084.267722961322
 20
-3003.211115285214
 10
1084.267722961322
 20
-3004.115004085232
 10
1083.934389361754
 20
-3004.115004085232
 97
        0
 75
     0
 76
     1
 98
        0
  0
LWPOLYLINE
  5
2F5
330
1F
100
AcDbEntity
  8
Ech.1_5
 62
     7
370
     9
100
AcDbPolyline
 90
        5
 70
     0
 43
0.0
 10
1083.934389361754
 20
-3003.211115285214
 10
1084.267722961322
 20
-3003.211115285214
 10
1084.267722961322
 20
-3004.115004085232
 10
1083.934389361754
 20
-3004.115004085232
 10
1083.934389361754
 20
-3003.211115285214
  0
HATCH
  5
2F6
330
1F
100
AcDbEntity
  8
Ech.1_5
 62
   252
440
 33554687
370
     5
100
AcDbHatch
 10
0.0
 20
0.0
 30
0.0
210
0.0
220
0.0
230
1.0
  2
SOLID
 70
     1
 71
     1
 91
        1
 92
        3
 72
     0
 73
     1
 93
        4
 10
1084.267722961322
 20
-3003.211115285214
 10
1084.601056560889
 20
-3003.211115285214
 10
1084.601056560889
 20
-3004.115004085232
 10
1084.267722961322
 20
-3004.115004085232
 97
        0
 75
     0
 76
     1
 98
        0
  0
LWPOLYLINE
  5
2F7
330
1F
100
AcDbEntity
  8
Ech.1_5
 62
     7
370
     9
100
AcDbPolyline
 90
        5
 70
     0
 43
0.0
 10
1084.267722961322
 20
-3003.211115285214
 10
1084.601056560889
 20
-3003.211115285214
 10
1084.601056560889
 20
-3004.115004085232
 10
1084.267722961322
 20
-3004.115004085232
 10
1084.267722961322
 20
-3003.211115285214
  0
HATCH
  5
2F8
330
1F
100
AcDbEntity
  8
Ech.1_5
 62
   252
440
 33554687
370
     5
100
AcDbHatch
 10
0.0
 20
0.0
 30
0.0
210
0.0
220
0.0
230
1.0
  2
SOLID
 70
     1
 71
     1
 91
        1
 92
        3
 72
     0
 73
     1
 93
        4
 10
1084.601056161538
 20
-3003.211115285214
 10
1084.934389761106
 20
-3003.211115285214
 10
1084.934389761106
 20
-3004.115004085232
 10
1084.601056161538
 20
-3004.115004085232
 97
        0
 75
     0
 76
     1
 98
        0
  0
LWPOLYLINE
  5
2F9
330
1F
100
AcDbEntity
  8
Ech.1_5
 62
     7
370
     9
100
AcDbPolyline
 90
        5
 70
     0
 43
0.0
 10
1084.601056161538
 20
-3003.211115285214
 10
1084.934389761106
 20
-3003.211115285214
 10
1084.934389761106
 20
-3004.115004085232
 10
1084.601056161538
 20
-3004.115004085232
 10
1084.601056161538
 20
-3003.211115285214
  0
HATCH
  5
2FA
330
1F
100
AcDbEntity
  8
Ech.1_5
 62
   252
440
 33554687
370
     5
100
AcDbHatch
 10
0.0
 20
0.0
 30
0.0
210
0.0
220
0.0
230
1.0
  2
SOLID
 70
     1
 71
     1
 91
        1
 92
        3
 72
     0
 73
     1
 93
        4
 10
1084.934389761106
 20
-3003.211115285214
 10
1085.267723360673
 20
-3003.211115285214
 10
1085.267723360673
 20
-3004.115004085232
 10
1084.934389761106
 20
-3004.115004085232
 97
        0
 75
     0
 76
     1
 98
        0
  0
LWPOLYLINE
  5
2FB
330
1F
100
AcDbEntity
  8
Ech.1_5
 62
     7
370
     9
100
AcDbPolyline
 90
        5
 70
     0
 43
0.0
 10
1084.934389761106
 20
-3003.211115285214
 10
1085.267723360673
 20
-3003.211115285214
 10
1085.267723360673
 20
-3004.115004085232
 10
1084.934389761106
 20
-3004.115004085232
 10
1084.934389761106
 20
-3003.211115285214
  0
HATCH
  5
2FC
330
1F
100
AcDbEntity
  8
Ech.1_5
 62
   252
440
 33554687
370
     5
100
AcDbHatch
 10
0.0
 20
0.0
 30
0.0
210
0.0
220
0.0
230
1.0
  2
SOLID
 70
     1
 71
     1
 91
        1
 92
        3
 72
     0
 73
     1
 93
        4
 10
1085.267722561971
 20
-3003.211115285214
 10
1085.601056161538
 20
-3003.211115285214
 10
1085.601056161538
 20
-3004.115004085232
 10
1085.267722561971
 20
-3004.115004085232
 97
        0
 75
     0
 76
     1
 98
        0
  0
LWPOLYLINE
  5
2FD
330
1F
100
AcDbEntity
  8
Ech.1_5
 62
     7
370
     9
100
AcDbPolyline
 90
        5
 70
     0
 43
0.0
 10
1085.267722561971
 20
-3003.211115285214
 10
1085.601056161538
 20
-3003.211115285214
 10
1085.601056161538
 20
-3004.115004085232
 10
1085.267722561971
 20
-3004.115004085232
 10
1085.267722561971
 20
-3003.211115285214
  0
HATCH
  5
2FE
330
1F
100
AcDbEntity
  8
Ech.1_5
 62
   252
440
 33554687
370
     5
100
AcDbHatch
 10
0.0
 20
0.0
 30
0.0
210
0.0
220
0.0
230
1.0
  2
SOLID
 70
     1
 71
     1
 91
        1
 92
        3
 72
     0
 73
     1
 93
        4
 10
1085.601055362836
 20
-3003.211115285214
 10
1085.934388962403
 20
-3003.211115285214
 10
1085.934388962403
 20
-3004.115004085232
 10
1085.601055362836
 20
-3004.115004085232
 97
        0
 75
     0
 76
     1
 98
        0
  0
LWPOLYLINE
  5
2FF
330
1F
100
AcDbEntity
  8
Ech.1_5
 62
     7
370
     9
100
AcDbPolyline
 90
        5
 70
     0
 43
0.0
 10
1085.601055362836
 20
-3003.211115285214
 10
1085.934388962403
 20
-3003.211115285214
 10
1085.934388962403
 20
-3004.115004085232
 10
1085.601055362836
 20
-3004.115004085232
 10
1085.601055362836
 20
-3003.211115285214
  0
HATCH
  5
300
330
1F
100
AcDbEntity
  8
Ech.1_5
 62
   252
440
 33554687
370
     5
100
AcDbHatch
 10
0.0
 20
0.0
 30
0.0
210
0.0
220
0.0
230
1.0
  2
SOLID
 70
     1
 71
     1
 91
        1
 92
        3
 72
     0
 73
     1
 93
        4
 10
1085.934388962403
 20
-3003.211115285214
 10
1086.267722561971
 20
-3003.211115285214
 10
1086.267722561971
 20
-3004.115004085232
 10
1085.934388962403
 20
-3004.115004085232
 97
        0
 75
     0
 76
     1
 98
        0
  0
LWPOLYLINE
  5
301
330
1F
100
AcDbEntity
  8
Ech.1_5
 62
     7
370
     9
100
AcDbPolyline
 90
        5
 70
     0
 43
0.0
 10
1085.934388962403
 20
-3003.211115285214
 10
1086.267722561971
 20
-3003.211115285214
 10
1086.267722561971
 20
-3004.115004085232
 10
1085.934388962403
 20
-3004.115004085232
 10
1085.934388962403
 20
-3003.211115285214
  0
HATCH
  5
302
330
1F
100
AcDbEntity
  8
Ech.1_5
 62
   252
440
 33554687
370
     5
100
AcDbHatch
 10
0.0
 20
0.0
 30
0.0
210
0.0
220
0.0
230
1.0
  2
SOLID
 70
     1
 71
     1
 91
        1
 92
        3
 72
     0
 73
     1
 93
        4
 10
1086.267722561971
 20
-3003.211115285214
 10
1086.601056161538
 20
-3003.211115285214
 10
1086.601056161538
 20
-3004.115004085232
 10
1086.267722561971
 20
-3004.115004085232
 97
        0
 75
     0
 76
     1
 98
        0
  0
LWPOLYLINE
  5
303
330
1F
100
AcDbEntity
  8
Ech.1_5
 62
     7
370
     9
100
AcDbPolyline
 90
        5
 70
     0
 43
0.0
 10
1086.267722561971
 20
-3003.211115285214
 10
1086.601056161538
 20
-3003.211115285214
 10
1086.601056161538
 20
-3004.115004085232
 10
1086.267722561971
 20
-3004.115004085232
 10
1086.267722561971
 20
-3003.211115285214
  0
HATCH
  5
304
330
1F
100
AcDbEntity
  8
Ech.1_5
 62
   252
440
 33554687
370
     5
100
AcDbHatch
 10
0.0
 20
0.0
 30
0.0
210
0.0
220
0.0
230
1.0
  2
SOLID
 70
     1
 71
     1
 91
        1
 92
        3
 72
     0
 73
     1
 93
        4
 10
1086.601056161538
 20
-3003.211115285214
 10
1086.934389761106
 20
-3003.211115285214
 10
1086.934389761106
 20
-3004.115004085232
 10
1086.601056161538
 20
-3004.115004085232
 97
        0
 75
     0
 76
     1
 98
        0
  0
LWPOLYLINE
  5
305
330
1F
100
AcDbEntity
  8
Ech.1_5
 62
     7
370
     9
100
AcDbPolyline
 90
        5
 70
     0
 43
0.0
 10
1086.601056161538
 20
-3003.211115285214
 10
1086.934389761106
 20
-3003.211115285214
 10
1086.934389761106
 20
-3004.115004085232
 10
1086.601056161538
 20
-3004.115004085232
 10
1086.601056161538
 20
-3003.211115285214
  0
HATCH
  5
306
330
1F
100
AcDbEntity
  8
Ech.1_5
 62
   252
440
 33554687
370
     5
100
AcDbHatch
 10
0.0
 20
0.0
 30
0.0
210
0.0
220
0.0
230
1.0
  2
SOLID
 70
     1
 71
     1
 91
        1
 92
        3
 72
     0
 73
     1
 93
        4
 10
1086.934388962403
 20
-3003.211115285214
 10
1087.267722561971
 20
-3003.211115285214
 10
1087.267722561971
 20
-3004.115004085232
 10
1086.934388962403
 20
-3004.115004085232
 97
        0
 75
     0
 76
     1
 98
        0
  0
LWPOLYLINE
  5
307
330
1F
100
AcDbEntity
  8
Ech.1_5
 62
     7
370
     9
100
AcDbPolyline
 90
        5
 70
     0
 43
0.0
 10
1086.934388962403
 20
-3003.211115285214
 10
1087.267722561971
 20
-3003.211115285214
 10
1087.267722561971
 20
-3004.115004085232
 10
1086.934388962403
 20
-3004.115004085232
 10
1086.934388962403
 20
-3003.211115285214
  0
HATCH
  5
308
330
1F
100
AcDbEntity
  8
Ech.1_5
 62
   252
440
 33554687
370
     5
100
AcDbHatch
 10
0.0
 20
0.0
 30
0.0
210
0.0
220
0.0
230
1.0
  2
SOLID
 70
     1
 71
     1
 91
        1
 92
        3
 72
     0
 73
     1
 93
        4
 10
1087.26772216262
 20
-3003.211115285214
 10
1087.601055762187
 20
-3003.211115285214
 10
1087.601055762187
 20
-3004.115004085232
 10
1087.26772216262
 20
-3004.115004085232
 97
        0
 75
     0
 76
     1
 98
        0
  0
LWPOLYLINE
  5
309
330
1F
100
AcDbEntity
  8
Ech.1_5
 62
     7
370
     9
100
AcDbPolyline
 90
        5
 70
     0
 43
0.0
 10
1087.26772216262
 20
-3003.211115285214
 10
1087.601055762187
 20
-3003.211115285214
 10
1087.601055762187
 20
-3004.115004085232
 10
1087.26772216262
 20
-3004.115004085232
 10
1087.26772216262
 20
-3003.211115285214
  0
HATCH
  5
30A
330
1F
100
AcDbEntity
  8
Ech.1_5
 62
   252
440
 33554687
370
     5
100
AcDbHatch
 10
0.0
 20
0.0
 30
0.0
210
0.0
220
0.0
230
1.0
  2
SOLID
 70
     1
 71
     1
 91
        1
 92
        3
 72
     0
 73
     1
 93
        4
 10
1087.601055762187
 20
-3003.211115285214
 10
1087.934389361754
 20
-3003.211115285214
 10
1087.934389361754
 20
-3004.115004085232
 10
1087.601055762187
 20
-3004.115004085232
 97
        0
 75
     0
 76
     1
 98
        0
  0
LWPOLYLINE
  5
30B
330
1F
100
AcDbEntity
  8
Ech.1_5
 62
     7
370
     9
100
AcDbPolyline
 90
        5
 70
     0
 43
0.0
 10
1087.601055762187
 20
-3003.211115285214
 10
1087.934389361754
 20
-3003.211115285214
 10
1087.934389361754
 20
-3004.115004085232
 10
1087.601055762187
 20
-3004.115004085232
 10
1087.601055762187
 20
-3003.211115285214
  0
HATCH
  5
30C
330
1F
100
AcDbEntity
  8
Ech.1_5
 62
   252
440
 33554687
370
     5
100
AcDbHatch
 10
0.0
 20
0.0
 30
0.0
210
0.0
220
0.0
230
1.0
  2
SOLID
 70
     1
 71
     1
 91
        1
 92
        3
 72
     0
 73
     1
 93
        4
 10
1087.934388962403
 20
-3003.211115285214
 10
1088.267722561971
 20
-3003.211115285214
 10
1088.267722561971
 20
-3004.115004085232
 10
1087.934388962403
 20
-3004.115004085232
 97
        0
 75
     0
 76
     1
 98
        0
  0
LWPOLYLINE
  5
30D
330
1F
100
AcDbEntity
  8
Ech.1_5
 62
     7
370
     9
100
AcDbPolyline
 90
        5
 70
     0
 43
0.0
 10
1087.934388962403
 20
-3003.211115285214
 10
1088.267722561971
 20
-3003.211115285214
 10
1088.267722561971
 20
-3004.115004085232
 10
1087.934388962403
 20
-3004.115004085232
 10
1087.934388962403
 20
-3003.211115285214
  0
HATCH
  5
30E
330
1F
100
AcDbEntity
  8
Ech.1_5
 62
   252
440
 33554687
370
     5
100
AcDbHatch
 10
0.0
 20
0.0
 30
0.0
210
0.0
220
0.0
230
1.0
  2
SOLID
 70
     1
 71
     1
 91
        1
 92
        3
 72
     0
 73
     1
 93
        4
 10
1088.267722561971
 20
-3003.211115285214
 10
1088.601056161538
 20
-3003.211115285214
 10
1088.601056161538
 20
-3004.115004085232
 10
1088.267722561971
 20
-3004.115004085232
 97
        0
 75
     0
 76
     1
 98
        0
  0
LWPOLYLINE
  5
30F
330
1F
100
AcDbEntity
  8
Ech.1_5
 62
     7
370
     9
100
AcDbPolyline
 90
        5
 70
     0
 43
0.0
 10
1088.267722561971
 20
-3003.211115285214
 10
1088.601056161538
 20
-3003.211115285214
 10
1088.601056161538
 20
-3004.115004085232
 10
1088.267722561971
 20
-3004.115004085232
 10
1088.267722561971
 20
-3003.211115285214
  0
HATCH
  5
310
330
1F
100
AcDbEntity
  8
Ech.1_5
 62
   252
440
 33554687
370
     5
100
AcDbHatch
 10
0.0
 20
0.0
 30
0.0
210
0.0
220
0.0
230
1.0
  2
SOLID
 70
     1
 71
     1
 91
        1
 92
        3
 72
     0
 73
     1
 93
        4
 10
1088.601055362836
 20
-3003.211115285214
 10
1088.934388962403
 20
-3003.211115285214
 10
1088.934388962403
 20
-3004.115004085232
 10
1088.601055362836
 20
-3004.115004085232
 97
        0
 75
     0
 76
     1
 98
        0
  0
LWPOLYLINE
  5
311
330
1F
100
AcDbEntity
  8
Ech.1_5
 62
     7
370
     9
100
AcDbPolyline
 90
        5
 70
     0
 43
0.0
 10
1088.601055362836
 20
-3003.211115285214
 10
1088.934388962403
 20
-3003.211115285214
 10
1088.934388962403
 20
-3004.115004085232
 10
1088.601055362836
 20
-3004.115004085232
 10
1088.601055362836
 20
-3003.211115285214
  0
HATCH
  5
312
330
1F
100
AcDbEntity
  8
Ech.1_5
 62
   252
440
 33554687
370
     5
100
AcDbHatch
 10
0.0
 20
0.0
 30
0.0
210
0.0
220
0.0
230
1.0
  2
SOLID
 70
     1
 71
     1
 91
        1
 92
        3
 72
     0
 73
     1
 93
        4
 10
1088.934388962403
 20
-3003.211115285214
 10
1089.267722561971
 20
-3003.211115285214
 10
1089.267722561971
 20
-3004.115004085232
 10
1088.934388962403
 20
-3004.115004085232
 97
        0
 75
     0
 76
     1
 98
        0
  0
LWPOLYLINE
  5
313
330
1F
100
AcDbEntity
  8
Ech.1_5
 62
     7
370
     9
100
AcDbPolyline
 90
        5
 70
     0
 43
0.0
 10
1088.934388962403
 20
-3003.211115285214
 10
1089.267722561971
 20
-3003.211115285214
 10
1089.267722561971
 20
-3004.115004085232
 10
1088.934388962403
 20
-3004.115004085232
 10
1088.934388962403
 20
-3003.211115285214
  0
HATCH
  5
314
330
1F
100
AcDbEntity
  8
Ech.1_5
 62
   252
440
 33554687
370
     5
100
AcDbHatch
 10
0.0
 20
0.0
 30
0.0
210
0.0
220
0.0
230
1.0
  2
SOLID
 70
     1
 71
     1
 91
        1
 92
        3
 72
     0
 73
     1
 93
        4
 10
1089.267722561971
 20
-3003.211115285214
 10
1089.601056161538
 20
-3003.211115285214
 10
1089.601056161538
 20
-3004.115004085232
 10
1089.267722561971
 20
-3004.115004085232
 97
        0
 75
     0
 76
     1
 98
        0
  0
LWPOLYLINE
  5
315
330
1F
100
AcDbEntity
  8
Ech.1_5
 62
     7
370
     9
100
AcDbPolyline
 90
        5
 70
     0
 43
0.0
 10
1089.267722561971
 20
-3003.211115285214
 10
1089.601056161538
 20
-3003.211115285214
 10
1089.601056161538
 20
-3004.115004085232
 10
1089.267722561971
 20
-3004.115004085232
 10
1089.267722561971
 20
-3003.211115285214
  0
HATCH
  5
316
330
1F
100
AcDbEntity
  8
Ech.1_5
 62
   252
440
 33554687
370
     5
100
AcDbHatch
 10
0.0
 20
0.0
 30
0.0
210
0.0
220
0.0
230
1.0
  2
SOLID
 70
     1
 71
     1
 91
        1
 92
        3
 72
     0
 73
     1
 93
        4
 10
1089.601056161538
 20
-3003.211115285214
 10
1089.934389761106
 20
-3003.211115285214
 10
1089.934389761106
 20
-3004.115004085232
 10
1089.601056161538
 20
-3004.115004085232
 97
        0
 75
     0
 76
     1
 98
        0
  0
LWPOLYLINE
  5
317
330
1F
100
AcDbEntity
  8
Ech.1_5
 62
     7
370
     9
100
AcDbPolyline
 90
        5
 70
     0
 43
0.0
 10
1089.601056161538
 20
-3003.211115285214
 10
1089.934389761106
 20
-3003.211115285214
 10
1089.934389761106
 20
-3004.115004085232
 10
1089.601056161538
 20
-3004.115004085232
 10
1089.601056161538
 20
-3003.211115285214
  0
HATCH
  5
318
330
1F
100
AcDbEntity
  8
Ech.1_5
 62
   252
440
 33554687
370
     5
100
AcDbHatch
 10
0.0
 20
0.0
 30
0.0
210
0.0
220
0.0
230
1.0
  2
SOLID
 70
     1
 71
     1
 91
        1
 92
        3
 72
     1
 73
     1
 93
        4
 10
1091.814022561805
 20
-3004.115004085232
 42
0.0
 10
1091.267721763269
 20
-3004.115004085232
 42
0.0
 10
1091.267721763269
 20
-3003.211115285214
 42
0.0
 10
1091.814022561805
 20
-3003.211115285214
 42
0.3513591548521035
 97
        0
 75
     0
 76
     1
 98
        0
  0
LWPOLYLINE
  5
319
330
1F
100
AcDbEntity
  8
Ech.1_5
 62
     7
370
     9
100
AcDbPolyline
 90
        5
 70
     0
 43
0.0
 10
1091.814022561805
 20
-3004.115004085232
 10
1091.267721763269
 20
-3004.115004085232
 10
1091.267721763269
 20
-3003.211115285214
 10
1091.814022561805
 20
-3003.211115285214
 42
0.3513591548518972
 10
1091.814022561805
 20
-3004.115004085232
  0
HATCH
  5
31A
330
1F
100
AcDbEntity
  8
Ech.1_5
 62
   252
440
 33554687
370
     5
100
AcDbHatch
 10
0.0
 20
0.0
 30
0.0
210
0.0
220
0.0
230
1.0
  2
SOLID
 70
     1
 71
     1
 91
        1
 92
        3
 72
     1
 73
     1
 93
        3
 10
1092.878833362358
 20
-3003.663059685235
 42
0.0
 10
1091.814022561805
 20
-3004.115004085232
 42
-0.3513591548519267
 10
1091.814022561805
 20
-3003.211115285214
 42
0.0
 97
        0
 75
     0
 76
     1
 98
        0
  0
LWPOLYLINE
  5
31B
330
1F
100
AcDbEntity
  8
Ech.1_5
 62
     7
370
     9
100
AcDbPolyline
 90
        4
 70
     0
 43
0.0
 10
1092.878833362358
 20
-3003.663059685235
 10
1091.814022561805
 20
-3004.115004085232
 42
-0.3513591548518956
 10
1091.814022561805
 20
-3003.211115285214
 10
1092.878833362358
 20
-3003.663059685235
  0
HATCH
  5
31C
330
1F
100
AcDbEntity
  8
Ech.1_5
 62
   252
440
 33554687
370
     5
100
AcDbHatch
 10
0.0
 20
0.0
 30
0.0
210
0.0
220
0.0
230
1.0
  2
SOLID
 70
     1
 71
     1
 91
        1
 92
        3
 72
     1
 73
     1
 93
        6
 10
1075.601055362836
 20
-3003.211115285217
 42
0.0
 10
1074.901055762069
 20
-3003.211115285214
 42
-0.4142135727478138
 10
1074.678833362358
 20
-3002.988892885223
 42
0.0
 10
1074.678833362358
 20
-3004.33722648525
 42
-0.4142135726649113
 10
1074.901055762069
 20
-3004.115004085232
 42
0.0
 10
1075.601055362836
 20
-3004.115004085232
 42
0.0
 97
        0
 75
     0
 76
     1
 98
        0
  0
LWPOLYLINE
  5
31D
330
1F
100
AcDbEntity
  8
Ech.1_5
 62
     7
370
     9
100
AcDbPolyline
 90
        7
 70
     0
 43
0.0
 10
1075.601055362836
 20
-3003.211115285217
 10
1074.901055762069
 20
-3003.211115285214
 42
-0.4142135727497837
 10
1074.678833362358
 20
-3002.988892885223
 10
1074.678833362358
 20
-3004.33722648525
 42
-0.414213572666436
 10
1074.901055762069
 20
-3004.115004085232
 10
1075.601055362836
 20
-3004.115004085232
 10
1075.601055362836
 20
-3003.211115285217
  0
HATCH
  5
31E
330
1F
100
AcDbEntity
  8
Ech.1_5
 62
   252
440
 33554687
370
     5
100
AcDbHatch
 10
0.0
 20
0.0
 30
0.0
210
0.0
220
0.0
230
1.0
  2
SOLID
 70
     1
 71
     1
 91
        1
 92
        1
 93
        2
 72
     1
 10
1074.556611361997
 20
-3002.655559674669
 11
1074.556611361997
 21
-3004.670559695777
 72
     2
 10
1079.581892718327
 20
-3003.663059685223
 40
5.125281356329573
 50
168.6632793503046
 51
191.3367206496955
 73
     0
 97
        0
 75
     0
 76
     1
 98
        0
  0
LWPOLYLINE
  5
31F
330
1F
100
AcDbEntity
  8
Ech.1_5
 62
     7
370
     9
100
AcDbPolyline
 90
        3
 70
     0
 43
0.0
 10
1074.556611361997
 20
-3002.655559674669
 10
1074.556611361997
 20
-3004.670559695777
 42
-0.0992555820868614
 10
1074.556611361997
 20
-3002.655559674669
  0
HATCH
  5
320
330
1F
100
AcDbEntity
  8
Ech.1_5
 62
   252
440
 33554687
370
     5
100
AcDbHatch
 10
0.0
 20
0.0
 30
0.0
210
0.0
220
0.0
230
1.0
  2
SOLID
 70
     1
 71
     1
 91
        1
 92
        3
 72
     0
 73
     1
 93
        6
 10
1074.678833362358
 20
-3002.655559685239
 10
1074.678833362358
 20
-3002.988892885223
 10
1074.678833362358
 20
-3004.33722648525
 10
1074.678833362358
 20
-3004.67055968523
 10
1074.556611361997
 20
-3004.670559695777
 10
1074.556611361997
 20
-3002.655559674669
 97
        0
 75
     0
 76
     1
 98
        0
  0
LWPOLYLINE
  5
321
330
1F
100
AcDbEntity
  8
Ech.1_5
 62
     7
370
     9
100
AcDbPolyline
 90
        7
 70
     0
 43
0.0
 10
1074.678833362358
 20
-3002.655559685239
 10
1074.678833362358
 20
-3002.988892885223
 10
1074.678833362358
 20
-3004.33722648525
 10
1074.678833362358
 20
-3004.67055968523
 10
1074.556611361997
 20
-3004.670559695777
 10
1074.556611361997
 20
-3002.655559674669
 10
1074.678833362358
 20
-3002.655559685239
  0
HATCH
  5
322
330
1F
100
AcDbEntity
  8
Ech.1_5
 62
   252
440
 33554687
370
     5
100
AcDbHatch
 10
0.0
 20
0.0
 30
0.0
210
0.0
220
0.0
230
1.0
  2
SOLID
 70
     1
 71
     1
 91
        1
 92
        3
 72
     0
 73
     1
 93
        4
 10
1089.934389761106
 20
-3003.211115285214
 10
1090.267723360673
 20
-3003.211115285214
 10
1090.267723360673
 20
-3004.115004085232
 10
1089.934389761106
 20
-3004.115004085232
 97
        0
 75
     0
 76
     1
 98
        0
  0
LWPOLYLINE
  5
323
330
1F
100
AcDbEntity
  8
Ech.1_5
 62
     7
370
     9
100
AcDbPolyline
 90
        5
 70
     0
 43
0.0
 10
1089.934389761106
 20
-3003.211115285214
 10
1090.267723360673
 20
-3003.211115285214
 10
1090.267723360673
 20
-3004.115004085232
 10
1089.934389761106
 20
-3004.115004085232
 10
1089.934389761106
 20
-3003.211115285214
  0
LINE
  5
324
330
1F
100
AcDbEntity
  8
Ech.1_5
 62
   190
370
     9
100
AcDbLine
 10
1090.601055362836
 20
-3004.115004085232
 30
0.0
 11
1090.601055362836
 21
-3003.211115285214
 31
0.0
  0
LINE
  5
325
330
1F
100
AcDbEntity
  8
Ech.1_5
 62
   190
370
     9
100
AcDbLine
 10
1090.934388962403
 20
-3004.115004085232
 30
0.0
 11
1090.934388962403
 21
-3003.211115285214
 31
0.0
  0
LINE
  5
326
330
1F
100
AcDbEntity
  8
Ech.1_5
 62
   190
370
     9
100
AcDbLine
 10
1091.267721763269
 20
-3004.115004085232
 30
0.0
 11
1091.267721763269
 21
-3003.211115285214
 31
0.0
  0
LINE
  5
327
330
1F
100
AcDbEntity
  8
Ech.1_5
 62
   190
370
     9
100
AcDbLine
 10
1090.267722561971
 20
-3004.115004085232
 30
0.0
 11
1090.267722561971
 21
-3003.211115285214
 31
0.0
  0
HATCH
  5
328
330
1F
100
AcDbEntity
  8
Ech.1_5
 62
   252
440
 33554687
370
     5
100
AcDbHatch
 10
0.0
 20
0.0
 30
0.0
210
0.0
220
0.0
230
1.0
  2
SOLID
 70
     1
 71
     1
 91
        1
 92
        3
 72
     0
 73
     1
 93
        4
 10
1090.267721763269
 20
-3003.211115285214
 10
1090.601055362836
 20
-3003.211115285214
 10
1090.601055362836
 20
-3004.115004085232
 10
1090.267721763269
 20
-3004.115004085232
 97
        0
 75
     0
 76
     1
 98
        0
  0
LWPOLYLINE
  5
329
330
1F
100
AcDbEntity
  8
Ech.1_5
 62
     7
370
     9
100
AcDbPolyline
 90
        5
 70
     0
 43
0.0
 10
1090.267721763269
 20
-3003.211115285214
 10
1090.601055362836
 20
-3003.211115285214
 10
1090.601055362836
 20
-3004.115004085232
 10
1090.267721763269
 20
-3004.115004085232
 10
1090.267721763269
 20
-3003.211115285214
  0
HATCH
  5
32A
330
1F
100
AcDbEntity
  8
Ech.1_5
 62
   252
440
 33554687
370
     5
100
AcDbHatch
 10
0.0
 20
0.0
 30
0.0
210
0.0
220
0.0
230
1.0
  2
SOLID
 70
     1
 71
     1
 91
        1
 92
        3
 72
     0
 73
     1
 93
        4
 10
1090.934388163701
 20
-3003.211115285214
 10
1091.267721763269
 20
-3003.211115285214
 10
1091.267721763269
 20
-3004.115004085232
 10
1090.934388163701
 20
-3004.115004085232
 97
        0
 75
     0
 76
     1
 98
        0
  0
LWPOLYLINE
  5
32B
330
1F
100
AcDbEntity
  8
Ech.1_5
 62
     7
370
     9
100
AcDbPolyline
 90
        5
 70
     0
 43
0.0
 10
1090.934388163701
 20
-3003.211115285214
 10
1091.267721763269
 20
-3003.211115285214
 10
1091.267721763269
 20
-3004.115004085232
 10
1090.934388163701
 20
-3004.115004085232
 10
1090.934388163701
 20
-3003.211115285214
  0
LWPOLYLINE
  5
32C
330
1F
100
AcDbEntity
  8
Ech.1_5
 62
   202
420
  8519880
370
    50
100
AcDbPolyline
 90
        4
 70
     0
 43
0.0
 10
1104.523890248654
 20
-2903.630805628753
 10
1104.523890248654
 20
-2897.635152260753
 10
1102.251645064654
 20
-2896.061259404752
 10
1102.251645064654
 20
-2888.669887400752
  0
LWPOLYLINE
  5
32D
330
1F
100
AcDbEntity
  8
Ech.1_5
 62
   202
420
  8519880
370
    50
100
AcDbPolyline
 90
        4
 70
     0
 43
0.0
 10
1088.455358380654
 20
-2875.050456037235
 10
1099.491369416654
 20
-2874.665995789234
 42
-0.3516434700004065
 10
1103.682132804655
 20
-2878.632119153234
 10
1103.682132804655
 20
-2896.232100061235
  0
HATCH
  5
32E
330
1F
100
AcDbEntity
  8
Ech.1_5
 62
    35
420
  9529928
440
 33554687
370
    20
100
AcDbHatch
 10
0.0
 20
0.0
 30
0.0
210
0.0
220
0.0
230
1.0
  2
SOLID
 70
     1
 71
     1
 91
        1
 92
        3
 72
     0
 73
     1
 93
        4
 10
1082.923890248653
 20
-2771.663059876088
 10
1082.923890248653
 20
-2755.663059685235
 10
1093.723890248653
 20
-2755.663059685235
 10
1093.723890248653
 20
-2771.663059685235
 97
        0
 75
     0
 76
     1
 98
        0
  0
LWPOLYLINE
  5
32F
330
1F
100
AcDbEntity
  8
Ech.1_5
 62
   190
370
    20
100
AcDbPolyline
 90
        5
 70
     0
 43
0.0
 10
1082.923890248653
 20
-2771.663059876088
 10
1082.923890248653
 20
-2755.663059685235
 10
1093.723890248653
 20
-2755.663059685235
 10
1093.723890248653
 20
-2771.663059685235
 10
1082.923890248653
 20
-2771.663059876088
  0
LWPOLYLINE
  5
330
330
1F
100
AcDbEntity
  8
Ech.1_5
 62
   190
370
    20
100
AcDbPolyline
 90
        4
 70
     0
 43
0.0
 10
1093.723890248653
 20
-2771.663059685235
 10
1082.923890248653
 20
-2755.663059685235
 10
1093.723890248653
 20
-2755.663059685235
 10
1082.923890248653
 20
-2771.663014551614
  0
LWPOLYLINE
  5
331
330
1F
100
AcDbEntity
  8
Ech.1_5
 62
     5
370
    40
100
AcDbPolyline
 90
        5
 70
     0
 43
0.0
 10
1082.923890248653
 20
-2771.663014551614
 10
1082.923890248653
 20
-2755.663059685235
 10
1093.723890248653
 20
-2755.663059685235
 10
1093.723890248653
 20
-2771.663059685235
 10
1082.923890248653
 20
-2771.663014551614
  0
LINE
  5
332
330
1F
100
AcDbEntity
  8
Ech.1_5
 62
   190
370
     9
100
AcDbLine
 10
1074.678833362358
 20
-2764.67055968523
 30
0.0
 11
1074.556611361997
 21
-2764.67055968523
 31
0.0
  0
LINE
  5
333
330
1F
100
AcDbEntity
  8
Ech.1_5
 62
   190
370
     9
100
AcDbLine
 10
1074.556611361997
 20
-2764.67055968523
 30
0.0
 11
1074.556611361997
 21
-2762.655559685239
 31
0.0
  0
LINE
  5
334
330
1F
100
AcDbEntity
  8
Ech.1_5
 62
   190
370
     9
100
AcDbLine
 10
1074.678833362358
 20
-2762.655559685239
 30
0.0
 11
1074.556611361997
 21
-2762.655559685239
 31
0.0
  0
HATCH
  5
335
330
1F
100
AcDbEntity
  8
Ech.1_5
 62
   252
440
 33554687
370
     5
100
AcDbHatch
 10
0.0
 20
0.0
 30
0.0
210
0.0
220
0.0
230
1.0
  2
SOLID
 70
     1
 71
     1
 91
        1
 92
        3
 72
     0
 73
     1
 93
        4
 10
1090.601055362836
 20
-2763.211115285214
 10
1090.934388962403
 20
-2763.211115285214
 10
1090.934388962403
 20
-2764.115004085232
 10
1090.601055362836
 20
-2764.115004085232
 97
        0
 75
     0
 76
     1
 98
        0
  0
LWPOLYLINE
  5
336
330
1F
100
AcDbEntity
  8
Ech.1_5
 62
     7
370
     9
100
AcDbPolyline
 90
        5
 70
     0
 43
0.0
 10
1090.601055362836
 20
-2763.211115285214
 10
1090.934388962403
 20
-2763.211115285214
 10
1090.934388962403
 20
-2764.115004085232
 10
1090.601055362836
 20
-2764.115004085232
 10
1090.601055362836
 20
-2763.211115285214
  0
LINE
  5
337
330
1F
100
AcDbEntity
  8
Ech.1_5
 62
   190
370
     9
100
AcDbLine
 10
1091.814022561805
 20
-2764.115004085232
 30
0.0
 11
1074.901055762069
 21
-2764.115004085232
 31
0.0
  0
LINE
  5
338
330
1F
100
AcDbEntity
  8
Ech.1_5
 62
   190
370
     9
100
AcDbLine
 10
1091.814022561805
 20
-2763.211115285214
 30
0.0
 11
1074.901055762069
 21
-2763.211115285214
 31
0.0
  0
ARC
  5
339
330
1F
100
AcDbEntity
  8
Ech.1_5
 62
   190
370
     9
100
AcDbCircle
 10
1079.581892718335
 20
-2763.663059685223
 30
0.0
 40
5.12528135633781
100
AcDbArc
 50
168.6632793503256
 51
191.3367206496744
  0
LINE
  5
33A
330
1F
100
AcDbEntity
  8
Ech.1_5
 62
   190
370
     9
100
AcDbLine
 10
1074.678833362358
 20
-2764.67055968523
 30
0.0
 11
1074.678833362358
 21
-2764.33722648525
 31
0.0
  0
ARC
  5
33B
330
1F
100
AcDbEntity
  8
Ech.1_5
 62
   190
370
     9
100
AcDbCircle
 10
1074.901055758317
 20
-2764.337226481191
 30
0.0
 40
0.2222223959593166
100
AcDbArc
 50
89.99999903252916
 51
180.00000104632
  0
LINE
  5
33C
330
1F
100
AcDbEntity
  8
Ech.1_5
 62
   190
370
     9
100
AcDbLine
 10
1074.678833362358
 20
-2764.33722648525
 30
0.0
 11
1074.678833362358
 21
-2762.988892885223
 31
0.0
  0
ARC
  5
33D
330
1F
100
AcDbEntity
  8
Ech.1_5
 62
   190
370
     9
100
AcDbCircle
 10
1074.901055758273
 20
-2762.988892889299
 30
0.0
 40
0.2222223959150674
100
AcDbArc
 50
179.9999989491073
 51
270.0000009789025
  0
LINE
  5
33E
330
1F
100
AcDbEntity
  8
Ech.1_5
 62
   190
370
     9
100
AcDbLine
 10
1074.678833362358
 20
-2762.655559685239
 30
0.0
 11
1074.678833362358
 21
-2762.988892885223
 31
0.0
  0
LINE
  5
33F
330
1F
100
AcDbEntity
  8
Ech.1_5
 62
   190
370
     9
100
AcDbLine
 10
1078.934388962403
 20
-2764.115004085232
 30
0.0
 11
1078.934388962403
 21
-2763.211115285214
 31
0.0
  0
LINE
  5
340
330
1F
100
AcDbEntity
  8
Ech.1_5
 62
   190
370
     9
100
AcDbLine
 10
1079.26772216262
 20
-2764.115004085232
 30
0.0
 11
1079.26772216262
 21
-2763.211115285214
 31
0.0
  0
LINE
  5
341
330
1F
100
AcDbEntity
  8
Ech.1_5
 62
   190
370
     9
100
AcDbLine
 10
1077.934388962403
 20
-2764.115004085232
 30
0.0
 11
1077.934388962403
 21
-2763.211115285214
 31
0.0
  0
LINE
  5
342
330
1F
100
AcDbEntity
  8
Ech.1_5
 62
   190
370
     9
100
AcDbLine
 10
1078.26772216262
 20
-2764.115004085232
 30
0.0
 11
1078.26772216262
 21
-2763.211115285214
 31
0.0
  0
LINE
  5
343
330
1F
100
AcDbEntity
  8
Ech.1_5
 62
   190
370
     9
100
AcDbLine
 10
1078.601055362836
 20
-2764.115004085232
 30
0.0
 11
1078.601055362836
 21
-2763.211115285214
 31
0.0
  0
LINE
  5
344
330
1F
100
AcDbEntity
  8
Ech.1_5
 62
   190
370
     9
100
AcDbLine
 10
1076.934388962403
 20
-2764.115004085232
 30
0.0
 11
1076.934388962403
 21
-2763.211115285214
 31
0.0
  0
LINE
  5
345
330
1F
100
AcDbEntity
  8
Ech.1_5
 62
   190
370
     9
100
AcDbLine
 10
1077.26772216262
 20
-2764.115004085232
 30
0.0
 11
1077.26772216262
 21
-2763.211115285214
 31
0.0
  0
LINE
  5
346
330
1F
100
AcDbEntity
  8
Ech.1_5
 62
   190
370
     9
100
AcDbLine
 10
1077.601055362837
 20
-2764.115004085232
 30
0.0
 11
1077.601055362837
 21
-2763.211115285214
 31
0.0
  0
LINE
  5
347
330
1F
100
AcDbEntity
  8
Ech.1_5
 62
   190
370
     9
100
AcDbLine
 10
1076.601055362836
 20
-2764.115004085232
 30
0.0
 11
1076.601055362836
 21
-2763.211115285214
 31
0.0
  0
LINE
  5
348
330
1F
100
AcDbEntity
  8
Ech.1_5
 62
   190
370
     9
100
AcDbLine
 10
1076.26772216262
 20
-2764.115004085232
 30
0.0
 11
1076.26772216262
 21
-2763.211115285214
 31
0.0
  0
LINE
  5
349
330
1F
100
AcDbEntity
  8
Ech.1_5
 62
   190
370
     9
100
AcDbLine
 10
1075.934388962403
 20
-2764.115004085232
 30
0.0
 11
1075.934388962403
 21
-2763.211115285214
 31
0.0
  0
LINE
  5
34A
330
1F
100
AcDbEntity
  8
Ech.1_5
 62
   190
370
     9
100
AcDbLine
 10
1075.601055362836
 20
-2764.115004085232
 30
0.0
 11
1075.601055362836
 21
-2763.211115285217
 31
0.0
  0
LINE
  5
34B
330
1F
100
AcDbEntity
  8
Ech.1_5
 62
   190
370
     9
100
AcDbLine
 10
1089.601055362836
 20
-2764.115004085232
 30
0.0
 11
1089.601055362836
 21
-2763.211115285214
 31
0.0
  0
LINE
  5
34C
330
1F
100
AcDbEntity
  8
Ech.1_5
 62
   190
370
     9
100
AcDbLine
 10
1089.26772216262
 20
-2764.115004085232
 30
0.0
 11
1089.26772216262
 21
-2763.211115285214
 31
0.0
  0
LINE
  5
34D
330
1F
100
AcDbEntity
  8
Ech.1_5
 62
   190
370
     9
100
AcDbLine
 10
1089.934388962403
 20
-2764.115004085232
 30
0.0
 11
1089.934388962403
 21
-2763.211115285214
 31
0.0
  0
LINE
  5
34E
330
1F
100
AcDbEntity
  8
Ech.1_5
 62
   190
370
     9
100
AcDbLine
 10
1088.26772216262
 20
-2764.115004085232
 30
0.0
 11
1088.26772216262
 21
-2763.211115285214
 31
0.0
  0
LINE
  5
34F
330
1F
100
AcDbEntity
  8
Ech.1_5
 62
   190
370
     9
100
AcDbLine
 10
1088.601055362836
 20
-2764.115004085232
 30
0.0
 11
1088.601055362836
 21
-2763.211115285214
 31
0.0
  0
LINE
  5
350
330
1F
100
AcDbEntity
  8
Ech.1_5
 62
   190
370
     9
100
AcDbLine
 10
1088.934388962403
 20
-2764.115004085232
 30
0.0
 11
1088.934388962403
 21
-2763.211115285214
 31
0.0
  0
LINE
  5
351
330
1F
100
AcDbEntity
  8
Ech.1_5
 62
   190
370
     9
100
AcDbLine
 10
1087.26772216262
 20
-2764.115004085232
 30
0.0
 11
1087.26772216262
 21
-2763.211115285214
 31
0.0
  0
LINE
  5
352
330
1F
100
AcDbEntity
  8
Ech.1_5
 62
   190
370
     9
100
AcDbLine
 10
1087.601055362836
 20
-2764.115004085232
 30
0.0
 11
1087.601055362836
 21
-2763.211115285214
 31
0.0
  0
LINE
  5
353
330
1F
100
AcDbEntity
  8
Ech.1_5
 62
   190
370
     9
100
AcDbLine
 10
1087.934388962403
 20
-2764.115004085232
 30
0.0
 11
1087.934388962403
 21
-2763.211115285214
 31
0.0
  0
LINE
  5
354
330
1F
100
AcDbEntity
  8
Ech.1_5
 62
   190
370
     9
100
AcDbLine
 10
1086.26772216262
 20
-2764.115004085232
 30
0.0
 11
1086.26772216262
 21
-2763.211115285214
 31
0.0
  0
LINE
  5
355
330
1F
100
AcDbEntity
  8
Ech.1_5
 62
   190
370
     9
100
AcDbLine
 10
1086.601055362836
 20
-2764.115004085232
 30
0.0
 11
1086.601055362836
 21
-2763.211115285214
 31
0.0
  0
LINE
  5
356
330
1F
100
AcDbEntity
  8
Ech.1_5
 62
   190
370
     9
100
AcDbLine
 10
1086.934388962403
 20
-2764.115004085232
 30
0.0
 11
1086.934388962403
 21
-2763.211115285214
 31
0.0
  0
LINE
  5
357
330
1F
100
AcDbEntity
  8
Ech.1_5
 62
   190
370
     9
100
AcDbLine
 10
1085.934388962403
 20
-2764.115004085232
 30
0.0
 11
1085.934388962403
 21
-2763.211115285214
 31
0.0
  0
LINE
  5
358
330
1F
100
AcDbEntity
  8
Ech.1_5
 62
   190
370
     9
100
AcDbLine
 10
1080.601055362836
 20
-2764.115004085232
 30
0.0
 11
1080.601055362836
 21
-2763.211115285214
 31
0.0
  0
LINE
  5
359
330
1F
100
AcDbEntity
  8
Ech.1_5
 62
   190
370
     9
100
AcDbLine
 10
1080.934388962403
 20
-2764.115004085232
 30
0.0
 11
1080.934388962403
 21
-2763.211115285214
 31
0.0
  0
LINE
  5
35A
330
1F
100
AcDbEntity
  8
Ech.1_5
 62
   190
370
     9
100
AcDbLine
 10
1081.26772216262
 20
-2764.115004085232
 30
0.0
 11
1081.26772216262
 21
-2763.211115285214
 31
0.0
  0
LINE
  5
35B
330
1F
100
AcDbEntity
  8
Ech.1_5
 62
   190
370
     9
100
AcDbLine
 10
1081.601055362836
 20
-2764.115004085232
 30
0.0
 11
1081.601055362836
 21
-2763.211115285214
 31
0.0
  0
LINE
  5
35C
330
1F
100
AcDbEntity
  8
Ech.1_5
 62
   190
370
     9
100
AcDbLine
 10
1082.601055362836
 20
-2764.115004085232
 30
0.0
 11
1082.601055362836
 21
-2763.211115285214
 31
0.0
  0
LINE
  5
35D
330
1F
100
AcDbEntity
  8
Ech.1_5
 62
   190
370
     9
100
AcDbLine
 10
1082.26772216262
 20
-2764.115004085232
 30
0.0
 11
1082.26772216262
 21
-2763.211115285214
 31
0.0
  0
LINE
  5
35E
330
1F
100
AcDbEntity
  8
Ech.1_5
 62
   190
370
     9
100
AcDbLine
 10
1081.934388962403
 20
-2764.115004085232
 30
0.0
 11
1081.934388962403
 21
-2763.211115285214
 31
0.0
  0
LINE
  5
35F
330
1F
100
AcDbEntity
  8
Ech.1_5
 62
   190
370
     9
100
AcDbLine
 10
1083.601055362836
 20
-2764.115004085232
 30
0.0
 11
1083.601055362836
 21
-2763.211115285214
 31
0.0
  0
LINE
  5
360
330
1F
100
AcDbEntity
  8
Ech.1_5
 62
   190
370
     9
100
AcDbLine
 10
1083.26772216262
 20
-2764.115004085232
 30
0.0
 11
1083.26772216262
 21
-2763.211115285214
 31
0.0
  0
LINE
  5
361
330
1F
100
AcDbEntity
  8
Ech.1_5
 62
   190
370
     9
100
AcDbLine
 10
1082.934388962403
 20
-2764.115004085232
 30
0.0
 11
1082.934388962403
 21
-2763.211115285214
 31
0.0
  0
LINE
  5
362
330
1F
100
AcDbEntity
  8
Ech.1_5
 62
   190
370
     9
100
AcDbLine
 10
1084.601055362836
 20
-2764.115004085232
 30
0.0
 11
1084.601055362836
 21
-2763.211115285214
 31
0.0
  0
LINE
  5
363
330
1F
100
AcDbEntity
  8
Ech.1_5
 62
   190
370
     9
100
AcDbLine
 10
1084.26772216262
 20
-2764.115004085232
 30
0.0
 11
1084.26772216262
 21
-2763.211115285214
 31
0.0
  0
LINE
  5
364
330
1F
100
AcDbEntity
  8
Ech.1_5
 62
   190
370
     9
100
AcDbLine
 10
1083.934388962403
 20
-2764.115004085232
 30
0.0
 11
1083.934388962403
 21
-2763.211115285214
 31
0.0
  0
LINE
  5
365
330
1F
100
AcDbEntity
  8
Ech.1_5
 62
   190
370
     9
100
AcDbLine
 10
1085.601055362836
 20
-2764.115004085232
 30
0.0
 11
1085.601055362836
 21
-2763.211115285214
 31
0.0
  0
LINE
  5
366
330
1F
100
AcDbEntity
  8
Ech.1_5
 62
   190
370
     9
100
AcDbLine
 10
1085.26772216262
 20
-2764.115004085232
 30
0.0
 11
1085.26772216262
 21
-2763.211115285214
 31
0.0
  0
LINE
  5
367
330
1F
100
AcDbEntity
  8
Ech.1_5
 62
   190
370
     9
100
AcDbLine
 10
1084.934388962403
 20
-2764.115004085232
 30
0.0
 11
1084.934388962403
 21
-2763.211115285214
 31
0.0
  0
LINE
  5
368
330
1F
100
AcDbEntity
  8
Ech.1_5
 62
   190
370
     9
100
AcDbLine
 10
1079.934388962403
 20
-2764.115004085232
 30
0.0
 11
1079.934388962403
 21
-2763.211115285214
 31
0.0
  0
LINE
  5
369
330
1F
100
AcDbEntity
  8
Ech.1_5
 62
   190
370
     9
100
AcDbLine
 10
1080.26772216262
 20
-2764.115004085232
 30
0.0
 11
1080.26772216262
 21
-2763.211115285214
 31
0.0
  0
LINE
  5
36A
330
1F
100
AcDbEntity
  8
Ech.1_5
 62
   190
370
     9
100
AcDbLine
 10
1080.601055362836
 20
-2764.115004085232
 30
0.0
 11
1080.601055362836
 21
-2763.211115285214
 31
0.0
  0
LINE
  5
36B
330
1F
100
AcDbEntity
  8
Ech.1_5
 62
   190
370
     9
100
AcDbLine
 10
1079.601055362836
 20
-2764.115004085232
 30
0.0
 11
1079.601055362836
 21
-2763.211115285214
 31
0.0
  0
LINE
  5
36C
330
1F
100
AcDbEntity
  8
Ech.1_5
 62
   190
370
     9
100
AcDbLine
 10
1092.878833362358
 20
-2763.663059685235
 30
0.0
 11
1091.814022561805
 21
-2764.115004085232
 31
0.0
  0
ARC
  5
36D
330
1F
100
AcDbEntity
  8
Ech.1_5
 62
   190
370
     9
100
AcDbCircle
 10
1092.377762958044
 20
-2763.663059685236
 30
0.0
 40
0.7225351986662851
100
AcDbArc
 50
141.2812399142066
 51
218.7187600857934
  0
LINE
  5
36E
330
1F
100
AcDbEntity
  8
Ech.1_5
 62
   190
370
     9
100
AcDbLine
 10
1092.878833362358
 20
-2763.663059685235
 30
0.0
 11
1091.814022561805
 21
-2763.211115285214
 31
0.0
  0
HATCH
  5
36F
330
1F
100
AcDbEntity
  8
Ech.1_5
 62
   252
440
 33554687
370
     5
100
AcDbHatch
 10
0.0
 20
0.0
 30
0.0
210
0.0
220
0.0
230
1.0
  2
SOLID
 70
     1
 71
     1
 91
        1
 92
        3
 72
     0
 73
     1
 93
        4
 10
1075.601055362836
 20
-2763.211115285217
 10
1075.934388962403
 20
-2763.211115285214
 10
1075.934388962403
 20
-2764.115004085232
 10
1075.601055362836
 20
-2764.115004085232
 97
        0
 75
     0
 76
     1
 98
        0
  0
LWPOLYLINE
  5
370
330
1F
100
AcDbEntity
  8
Ech.1_5
 62
     7
370
     9
100
AcDbPolyline
 90
        5
 70
     0
 43
0.0
 10
1075.601055362836
 20
-2763.211115285217
 10
1075.934388962403
 20
-2763.211115285214
 10
1075.934388962403
 20
-2764.115004085232
 10
1075.601055362836
 20
-2764.115004085232
 10
1075.601055362836
 20
-2763.211115285217
  0
HATCH
  5
371
330
1F
100
AcDbEntity
  8
Ech.1_5
 62
   252
440
 33554687
370
     5
100
AcDbHatch
 10
0.0
 20
0.0
 30
0.0
210
0.0
220
0.0
230
1.0
  2
SOLID
 70
     1
 71
     1
 91
        1
 92
        3
 72
     0
 73
     1
 93
        4
 10
1075.934388962403
 20
-2763.211115285214
 10
1076.267722561971
 20
-2763.211115285214
 10
1076.267722561971
 20
-2764.115004085232
 10
1075.934388962403
 20
-2764.115004085232
 97
        0
 75
     0
 76
     1
 98
        0
  0
LWPOLYLINE
  5
372
330
1F
100
AcDbEntity
  8
Ech.1_5
 62
     7
370
     9
100
AcDbPolyline
 90
        5
 70
     0
 43
0.0
 10
1075.934388962403
 20
-2763.211115285214
 10
1076.267722561971
 20
-2763.211115285214
 10
1076.267722561971
 20
-2764.115004085232
 10
1075.934388962403
 20
-2764.115004085232
 10
1075.934388962403
 20
-2763.211115285214
  0
HATCH
  5
373
330
1F
100
AcDbEntity
  8
Ech.1_5
 62
   252
440
 33554687
370
     5
100
AcDbHatch
 10
0.0
 20
0.0
 30
0.0
210
0.0
220
0.0
230
1.0
  2
SOLID
 70
     1
 71
     1
 91
        1
 92
        3
 72
     0
 73
     1
 93
        4
 10
1076.267722561971
 20
-2763.211115285214
 10
1076.601056161538
 20
-2763.211115285214
 10
1076.601056161538
 20
-2764.115004085232
 10
1076.267722561971
 20
-2764.115004085232
 97
        0
 75
     0
 76
     1
 98
        0
  0
LWPOLYLINE
  5
374
330
1F
100
AcDbEntity
  8
Ech.1_5
 62
     7
370
     9
100
AcDbPolyline
 90
        5
 70
     0
 43
0.0
 10
1076.267722561971
 20
-2763.211115285214
 10
1076.601056161538
 20
-2763.211115285214
 10
1076.601056161538
 20
-2764.115004085232
 10
1076.267722561971
 20
-2764.115004085232
 10
1076.267722561971
 20
-2763.211115285214
  0
HATCH
  5
375
330
1F
100
AcDbEntity
  8
Ech.1_5
 62
   252
440
 33554687
370
     5
100
AcDbHatch
 10
0.0
 20
0.0
 30
0.0
210
0.0
220
0.0
230
1.0
  2
SOLID
 70
     1
 71
     1
 91
        1
 92
        3
 72
     0
 73
     1
 93
        4
 10
1076.601056161538
 20
-2763.211115285214
 10
1076.934389761106
 20
-2763.211115285214
 10
1076.934389761106
 20
-2764.115004085232
 10
1076.601056161538
 20
-2764.115004085232
 97
        0
 75
     0
 76
     1
 98
        0
  0
LWPOLYLINE
  5
376
330
1F
100
AcDbEntity
  8
Ech.1_5
 62
     7
370
     9
100
AcDbPolyline
 90
        5
 70
     0
 43
0.0
 10
1076.601056161538
 20
-2763.211115285214
 10
1076.934389761106
 20
-2763.211115285214
 10
1076.934389761106
 20
-2764.115004085232
 10
1076.601056161538
 20
-2764.115004085232
 10
1076.601056161538
 20
-2763.211115285214
  0
HATCH
  5
377
330
1F
100
AcDbEntity
  8
Ech.1_5
 62
   252
440
 33554687
370
     5
100
AcDbHatch
 10
0.0
 20
0.0
 30
0.0
210
0.0
220
0.0
230
1.0
  2
SOLID
 70
     1
 71
     1
 91
        1
 92
        3
 72
     0
 73
     1
 93
        4
 10
1076.934388962403
 20
-2763.211115285214
 10
1077.267722561972
 20
-2763.211115285214
 10
1077.267722561972
 20
-2764.115004085232
 10
1076.934388962403
 20
-2764.115004085232
 97
        0
 75
     0
 76
     1
 98
        0
  0
LWPOLYLINE
  5
378
330
1F
100
AcDbEntity
  8
Ech.1_5
 62
     7
370
     9
100
AcDbPolyline
 90
        5
 70
     0
 43
0.0
 10
1076.934388962403
 20
-2763.211115285214
 10
1077.267722561972
 20
-2763.211115285214
 10
1077.267722561972
 20
-2764.115004085232
 10
1076.934388962403
 20
-2764.115004085232
 10
1076.934388962403
 20
-2763.211115285214
  0
HATCH
  5
379
330
1F
100
AcDbEntity
  8
Ech.1_5
 62
   252
440
 33554687
370
     5
100
AcDbHatch
 10
0.0
 20
0.0
 30
0.0
210
0.0
220
0.0
230
1.0
  2
SOLID
 70
     1
 71
     1
 91
        1
 92
        3
 72
     0
 73
     1
 93
        4
 10
1077.26772216262
 20
-2763.211115285214
 10
1077.601055762188
 20
-2763.211115285214
 10
1077.601055762188
 20
-2764.115004085235
 10
1077.26772216262
 20
-2764.115004085232
 97
        0
 75
     0
 76
     1
 98
        0
  0
LWPOLYLINE
  5
37A
330
1F
100
AcDbEntity
  8
Ech.1_5
 62
     7
370
     9
100
AcDbPolyline
 90
        5
 70
     0
 43
0.0
 10
1077.26772216262
 20
-2763.211115285214
 10
1077.601055762188
 20
-2763.211115285214
 10
1077.601055762188
 20
-2764.115004085235
 10
1077.26772216262
 20
-2764.115004085232
 10
1077.26772216262
 20
-2763.211115285214
  0
HATCH
  5
37B
330
1F
100
AcDbEntity
  8
Ech.1_5
 62
   252
440
 33554687
370
     5
100
AcDbHatch
 10
0.0
 20
0.0
 30
0.0
210
0.0
220
0.0
230
1.0
  2
SOLID
 70
     1
 71
     1
 91
        1
 92
        3
 72
     0
 73
     1
 93
        4
 10
1077.601055762188
 20
-2763.211115285214
 10
1077.934389361754
 20
-2763.211115285214
 10
1077.934389361754
 20
-2764.115004085232
 10
1077.601055762188
 20
-2764.115004085235
 97
        0
 75
     0
 76
     1
 98
        0
  0
LWPOLYLINE
  5
37C
330
1F
100
AcDbEntity
  8
Ech.1_5
 62
     7
370
     9
100
AcDbPolyline
 90
        5
 70
     0
 43
0.0
 10
1077.601055762188
 20
-2763.211115285214
 10
1077.934389361754
 20
-2763.211115285214
 10
1077.934389361754
 20
-2764.115004085232
 10
1077.601055762188
 20
-2764.115004085235
 10
1077.601055762188
 20
-2763.211115285214
  0
HATCH
  5
37D
330
1F
100
AcDbEntity
  8
Ech.1_5
 62
   252
440
 33554687
370
     5
100
AcDbHatch
 10
0.0
 20
0.0
 30
0.0
210
0.0
220
0.0
230
1.0
  2
SOLID
 70
     1
 71
     1
 91
        1
 92
        3
 72
     0
 73
     1
 93
        4
 10
1077.934388962403
 20
-2763.211115285214
 10
1078.267722561971
 20
-2763.211115285214
 10
1078.267722561971
 20
-2764.115004085232
 10
1077.934388962403
 20
-2764.115004085232
 97
        0
 75
     0
 76
     1
 98
        0
  0
LWPOLYLINE
  5
37E
330
1F
100
AcDbEntity
  8
Ech.1_5
 62
     7
370
     9
100
AcDbPolyline
 90
        5
 70
     0
 43
0.0
 10
1077.934388962403
 20
-2763.211115285214
 10
1078.267722561971
 20
-2763.211115285214
 10
1078.267722561971
 20
-2764.115004085232
 10
1077.934388962403
 20
-2764.115004085232
 10
1077.934388962403
 20
-2763.211115285214
  0
HATCH
  5
37F
330
1F
100
AcDbEntity
  8
Ech.1_5
 62
   252
440
 33554687
370
     5
100
AcDbHatch
 10
0.0
 20
0.0
 30
0.0
210
0.0
220
0.0
230
1.0
  2
SOLID
 70
     1
 71
     1
 91
        1
 92
        3
 72
     0
 73
     1
 93
        4
 10
1078.267722561971
 20
-2763.211115285214
 10
1078.601056161538
 20
-2763.211115285214
 10
1078.601056161538
 20
-2764.115004085232
 10
1078.267722561971
 20
-2764.115004085232
 97
        0
 75
     0
 76
     1
 98
        0
  0
LWPOLYLINE
  5
380
330
1F
100
AcDbEntity
  8
Ech.1_5
 62
     7
370
     9
100
AcDbPolyline
 90
        5
 70
     0
 43
0.0
 10
1078.267722561971
 20
-2763.211115285214
 10
1078.601056161538
 20
-2763.211115285214
 10
1078.601056161538
 20
-2764.115004085232
 10
1078.267722561971
 20
-2764.115004085232
 10
1078.267722561971
 20
-2763.211115285214
  0
HATCH
  5
381
330
1F
100
AcDbEntity
  8
Ech.1_5
 62
   252
440
 33554687
370
     5
100
AcDbHatch
 10
0.0
 20
0.0
 30
0.0
210
0.0
220
0.0
230
1.0
  2
SOLID
 70
     1
 71
     1
 91
        1
 92
        3
 72
     0
 73
     1
 93
        4
 10
1078.601055362836
 20
-2763.211115285214
 10
1078.934388962403
 20
-2763.211115285214
 10
1078.934388962403
 20
-2764.115004085232
 10
1078.601055362836
 20
-2764.115004085232
 97
        0
 75
     0
 76
     1
 98
        0
  0
LWPOLYLINE
  5
382
330
1F
100
AcDbEntity
  8
Ech.1_5
 62
     7
370
     9
100
AcDbPolyline
 90
        5
 70
     0
 43
0.0
 10
1078.601055362836
 20
-2763.211115285214
 10
1078.934388962403
 20
-2763.211115285214
 10
1078.934388962403
 20
-2764.115004085232
 10
1078.601055362836
 20
-2764.115004085232
 10
1078.601055362836
 20
-2763.211115285214
  0
HATCH
  5
383
330
1F
100
AcDbEntity
  8
Ech.1_5
 62
   252
440
 33554687
370
     5
100
AcDbHatch
 10
0.0
 20
0.0
 30
0.0
210
0.0
220
0.0
230
1.0
  2
SOLID
 70
     1
 71
     1
 91
        1
 92
        3
 72
     0
 73
     1
 93
        4
 10
1078.934388962403
 20
-2763.211115285214
 10
1079.267722561971
 20
-2763.211115285214
 10
1079.267722561971
 20
-2764.115004085232
 10
1078.934388962403
 20
-2764.115004085232
 97
        0
 75
     0
 76
     1
 98
        0
  0
LWPOLYLINE
  5
384
330
1F
100
AcDbEntity
  8
Ech.1_5
 62
     7
370
     9
100
AcDbPolyline
 90
        5
 70
     0
 43
0.0
 10
1078.934388962403
 20
-2763.211115285214
 10
1079.267722561971
 20
-2763.211115285214
 10
1079.267722561971
 20
-2764.115004085232
 10
1078.934388962403
 20
-2764.115004085232
 10
1078.934388962403
 20
-2763.211115285214
  0
HATCH
  5
385
330
1F
100
AcDbEntity
  8
Ech.1_5
 62
   252
440
 33554687
370
     5
100
AcDbHatch
 10
0.0
 20
0.0
 30
0.0
210
0.0
220
0.0
230
1.0
  2
SOLID
 70
     1
 71
     1
 91
        1
 92
        3
 72
     0
 73
     1
 93
        4
 10
1079.267722561971
 20
-2763.211115285214
 10
1079.601056161538
 20
-2763.211115285214
 10
1079.601056161539
 20
-2764.115004085232
 10
1079.267722561971
 20
-2764.115004085232
 97
        0
 75
     0
 76
     1
 98
        0
  0
LWPOLYLINE
  5
386
330
1F
100
AcDbEntity
  8
Ech.1_5
 62
     7
370
     9
100
AcDbPolyline
 90
        5
 70
     0
 43
0.0
 10
1079.267722561971
 20
-2763.211115285214
 10
1079.601056161538
 20
-2763.211115285214
 10
1079.601056161539
 20
-2764.115004085232
 10
1079.267722561971
 20
-2764.115004085232
 10
1079.267722561971
 20
-2763.211115285214
  0
HATCH
  5
387
330
1F
100
AcDbEntity
  8
Ech.1_5
 62
   252
440
 33554687
370
     5
100
AcDbHatch
 10
0.0
 20
0.0
 30
0.0
210
0.0
220
0.0
230
1.0
  2
SOLID
 70
     1
 71
     1
 91
        1
 92
        3
 72
     0
 73
     1
 93
        4
 10
1079.601056161538
 20
-2763.211115285214
 10
1079.934389761106
 20
-2763.211115285214
 10
1079.934389761106
 20
-2764.115004085232
 10
1079.601056161539
 20
-2764.115004085232
 97
        0
 75
     0
 76
     1
 98
        0
  0
LWPOLYLINE
  5
388
330
1F
100
AcDbEntity
  8
Ech.1_5
 62
     7
370
     9
100
AcDbPolyline
 90
        5
 70
     0
 43
0.0
 10
1079.601056161538
 20
-2763.211115285214
 10
1079.934389761106
 20
-2763.211115285214
 10
1079.934389761106
 20
-2764.115004085232
 10
1079.601056161539
 20
-2764.115004085232
 10
1079.601056161538
 20
-2763.211115285214
  0
HATCH
  5
389
330
1F
100
AcDbEntity
  8
Ech.1_5
 62
   252
440
 33554687
370
     5
100
AcDbHatch
 10
0.0
 20
0.0
 30
0.0
210
0.0
220
0.0
230
1.0
  2
SOLID
 70
     1
 71
     1
 91
        1
 92
        3
 72
     0
 73
     1
 93
        4
 10
1079.934389761106
 20
-2763.211115285214
 10
1080.267723360673
 20
-2763.211115285214
 10
1080.267723360673
 20
-2764.115004085232
 10
1079.934389761106
 20
-2764.115004085232
 97
        0
 75
     0
 76
     1
 98
        0
  0
LWPOLYLINE
  5
38A
330
1F
100
AcDbEntity
  8
Ech.1_5
 62
     7
370
     9
100
AcDbPolyline
 90
        5
 70
     0
 43
0.0
 10
1079.934389761106
 20
-2763.211115285214
 10
1080.267723360673
 20
-2763.211115285214
 10
1080.267723360673
 20
-2764.115004085232
 10
1079.934389761106
 20
-2764.115004085232
 10
1079.934389761106
 20
-2763.211115285214
  0
HATCH
  5
38B
330
1F
100
AcDbEntity
  8
Ech.1_5
 62
   252
440
 33554687
370
     5
100
AcDbHatch
 10
0.0
 20
0.0
 30
0.0
210
0.0
220
0.0
230
1.0
  2
SOLID
 70
     1
 71
     1
 91
        1
 92
        3
 72
     0
 73
     1
 93
        4
 10
1080.267722561971
 20
-2763.211115285214
 10
1080.601056161538
 20
-2763.211115285214
 10
1080.601056161538
 20
-2764.115004085232
 10
1080.267722561971
 20
-2764.115004085232
 97
        0
 75
     0
 76
     1
 98
        0
  0
LWPOLYLINE
  5
38C
330
1F
100
AcDbEntity
  8
Ech.1_5
 62
     7
370
     9
100
AcDbPolyline
 90
        5
 70
     0
 43
0.0
 10
1080.267722561971
 20
-2763.211115285214
 10
1080.601056161538
 20
-2763.211115285214
 10
1080.601056161538
 20
-2764.115004085232
 10
1080.267722561971
 20
-2764.115004085232
 10
1080.267722561971
 20
-2763.211115285214
  0
HATCH
  5
38D
330
1F
100
AcDbEntity
  8
Ech.1_5
 62
   252
440
 33554687
370
     5
100
AcDbHatch
 10
0.0
 20
0.0
 30
0.0
210
0.0
220
0.0
230
1.0
  2
SOLID
 70
     1
 71
     1
 91
        1
 92
        3
 72
     0
 73
     1
 93
        4
 10
1080.601055762187
 20
-2763.211115285214
 10
1080.934389361754
 20
-2763.211115285214
 10
1080.934389361754
 20
-2764.115004085232
 10
1080.601055762187
 20
-2764.115004085232
 97
        0
 75
     0
 76
     1
 98
        0
  0
LWPOLYLINE
  5
38E
330
1F
100
AcDbEntity
  8
Ech.1_5
 62
     7
370
     9
100
AcDbPolyline
 90
        5
 70
     0
 43
0.0
 10
1080.601055762187
 20
-2763.211115285214
 10
1080.934389361754
 20
-2763.211115285214
 10
1080.934389361754
 20
-2764.115004085232
 10
1080.601055762187
 20
-2764.115004085232
 10
1080.601055762187
 20
-2763.211115285214
  0
HATCH
  5
38F
330
1F
100
AcDbEntity
  8
Ech.1_5
 62
   252
440
 33554687
370
     5
100
AcDbHatch
 10
0.0
 20
0.0
 30
0.0
210
0.0
220
0.0
230
1.0
  2
SOLID
 70
     1
 71
     1
 91
        1
 92
        3
 72
     0
 73
     1
 93
        4
 10
1080.934389361754
 20
-2763.211115285214
 10
1081.267722961322
 20
-2763.211115285214
 10
1081.267722961322
 20
-2764.115004085232
 10
1080.934389361754
 20
-2764.115004085232
 97
        0
 75
     0
 76
     1
 98
        0
  0
LWPOLYLINE
  5
390
330
1F
100
AcDbEntity
  8
Ech.1_5
 62
     7
370
     9
100
AcDbPolyline
 90
        5
 70
     0
 43
0.0
 10
1080.934389361754
 20
-2763.211115285214
 10
1081.267722961322
 20
-2763.211115285214
 10
1081.267722961322
 20
-2764.115004085232
 10
1080.934389361754
 20
-2764.115004085232
 10
1080.934389361754
 20
-2763.211115285214
  0
HATCH
  5
391
330
1F
100
AcDbEntity
  8
Ech.1_5
 62
   252
440
 33554687
370
     5
100
AcDbHatch
 10
0.0
 20
0.0
 30
0.0
210
0.0
220
0.0
230
1.0
  2
SOLID
 70
     1
 71
     1
 91
        1
 92
        3
 72
     0
 73
     1
 93
        4
 10
1081.267722561971
 20
-2763.211115285214
 10
1081.601056161538
 20
-2763.211115285214
 10
1081.601056161538
 20
-2764.115004085232
 10
1081.267722561971
 20
-2764.115004085232
 97
        0
 75
     0
 76
     1
 98
        0
  0
LWPOLYLINE
  5
392
330
1F
100
AcDbEntity
  8
Ech.1_5
 62
     7
370
     9
100
AcDbPolyline
 90
        5
 70
     0
 43
0.0
 10
1081.267722561971
 20
-2763.211115285214
 10
1081.601056161538
 20
-2763.211115285214
 10
1081.601056161538
 20
-2764.115004085232
 10
1081.267722561971
 20
-2764.115004085232
 10
1081.267722561971
 20
-2763.211115285214
  0
HATCH
  5
393
330
1F
100
AcDbEntity
  8
Ech.1_5
 62
   252
440
 33554687
370
     5
100
AcDbHatch
 10
0.0
 20
0.0
 30
0.0
210
0.0
220
0.0
230
1.0
  2
SOLID
 70
     1
 71
     1
 91
        1
 92
        3
 72
     0
 73
     1
 93
        4
 10
1081.601056161538
 20
-2763.211115285214
 10
1081.934389761106
 20
-2763.211115285214
 10
1081.934389761106
 20
-2764.115004085232
 10
1081.601056161538
 20
-2764.115004085232
 97
        0
 75
     0
 76
     1
 98
        0
  0
LWPOLYLINE
  5
394
330
1F
100
AcDbEntity
  8
Ech.1_5
 62
     7
370
     9
100
AcDbPolyline
 90
        5
 70
     0
 43
0.0
 10
1081.601056161538
 20
-2763.211115285214
 10
1081.934389761106
 20
-2763.211115285214
 10
1081.934389761106
 20
-2764.115004085232
 10
1081.601056161538
 20
-2764.115004085232
 10
1081.601056161538
 20
-2763.211115285214
  0
HATCH
  5
395
330
1F
100
AcDbEntity
  8
Ech.1_5
 62
   252
440
 33554687
370
     5
100
AcDbHatch
 10
0.0
 20
0.0
 30
0.0
210
0.0
220
0.0
230
1.0
  2
SOLID
 70
     1
 71
     1
 91
        1
 92
        3
 72
     0
 73
     1
 93
        4
 10
1081.934388962403
 20
-2763.211115285214
 10
1082.267722561971
 20
-2763.211115285214
 10
1082.267722561971
 20
-2764.115004085232
 10
1081.934388962403
 20
-2764.115004085232
 97
        0
 75
     0
 76
     1
 98
        0
  0
LWPOLYLINE
  5
396
330
1F
100
AcDbEntity
  8
Ech.1_5
 62
     7
370
     9
100
AcDbPolyline
 90
        5
 70
     0
 43
0.0
 10
1081.934388962403
 20
-2763.211115285214
 10
1082.267722561971
 20
-2763.211115285214
 10
1082.267722561971
 20
-2764.115004085232
 10
1081.934388962403
 20
-2764.115004085232
 10
1081.934388962403
 20
-2763.211115285214
  0
HATCH
  5
397
330
1F
100
AcDbEntity
  8
Ech.1_5
 62
   252
440
 33554687
370
     5
100
AcDbHatch
 10
0.0
 20
0.0
 30
0.0
210
0.0
220
0.0
230
1.0
  2
SOLID
 70
     1
 71
     1
 91
        1
 92
        3
 72
     0
 73
     1
 93
        4
 10
1082.267722561971
 20
-2763.211115285214
 10
1082.601056161538
 20
-2763.211115285214
 10
1082.601056161538
 20
-2764.115004085232
 10
1082.267722561971
 20
-2764.115004085232
 97
        0
 75
     0
 76
     1
 98
        0
  0
LWPOLYLINE
  5
398
330
1F
100
AcDbEntity
  8
Ech.1_5
 62
     7
370
     9
100
AcDbPolyline
 90
        5
 70
     0
 43
0.0
 10
1082.267722561971
 20
-2763.211115285214
 10
1082.601056161538
 20
-2763.211115285214
 10
1082.601056161538
 20
-2764.115004085232
 10
1082.267722561971
 20
-2764.115004085232
 10
1082.267722561971
 20
-2763.211115285214
  0
HATCH
  5
399
330
1F
100
AcDbEntity
  8
Ech.1_5
 62
   252
440
 33554687
370
     5
100
AcDbHatch
 10
0.0
 20
0.0
 30
0.0
210
0.0
220
0.0
230
1.0
  2
SOLID
 70
     1
 71
     1
 91
        1
 92
        3
 72
     0
 73
     1
 93
        4
 10
1082.601056161538
 20
-2763.211115285214
 10
1082.934389761106
 20
-2763.211115285214
 10
1082.934389761106
 20
-2764.115004085232
 10
1082.601056161538
 20
-2764.115004085232
 97
        0
 75
     0
 76
     1
 98
        0
  0
LWPOLYLINE
  5
39A
330
1F
100
AcDbEntity
  8
Ech.1_5
 62
     7
370
     9
100
AcDbPolyline
 90
        5
 70
     0
 43
0.0
 10
1082.601056161538
 20
-2763.211115285214
 10
1082.934389761106
 20
-2763.211115285214
 10
1082.934389761106
 20
-2764.115004085232
 10
1082.601056161538
 20
-2764.115004085232
 10
1082.601056161538
 20
-2763.211115285214
  0
HATCH
  5
39B
330
1F
100
AcDbEntity
  8
Ech.1_5
 62
   252
440
 33554687
370
     5
100
AcDbHatch
 10
0.0
 20
0.0
 30
0.0
210
0.0
220
0.0
230
1.0
  2
SOLID
 70
     1
 71
     1
 91
        1
 92
        3
 72
     0
 73
     1
 93
        4
 10
1082.934389761106
 20
-2763.211115285214
 10
1083.267723360674
 20
-2763.211115285214
 10
1083.267723360673
 20
-2764.115004085232
 10
1082.934389761106
 20
-2764.115004085232
 97
        0
 75
     0
 76
     1
 98
        0
  0
LWPOLYLINE
  5
39C
330
1F
100
AcDbEntity
  8
Ech.1_5
 62
     7
370
     9
100
AcDbPolyline
 90
        5
 70
     0
 43
0.0
 10
1082.934389761106
 20
-2763.211115285214
 10
1083.267723360674
 20
-2763.211115285214
 10
1083.267723360673
 20
-2764.115004085232
 10
1082.934389761106
 20
-2764.115004085232
 10
1082.934389761106
 20
-2763.211115285214
  0
HATCH
  5
39D
330
1F
100
AcDbEntity
  8
Ech.1_5
 62
   252
440
 33554687
370
     5
100
AcDbHatch
 10
0.0
 20
0.0
 30
0.0
210
0.0
220
0.0
230
1.0
  2
SOLID
 70
     1
 71
     1
 91
        1
 92
        3
 72
     0
 73
     1
 93
        4
 10
1083.267723360674
 20
-2763.211115285214
 10
1083.60105696024
 20
-2763.211115285214
 10
1083.60105696024
 20
-2764.115004085232
 10
1083.267723360673
 20
-2764.115004085232
 97
        0
 75
     0
 76
     1
 98
        0
  0
LWPOLYLINE
  5
39E
330
1F
100
AcDbEntity
  8
Ech.1_5
 62
     7
370
     9
100
AcDbPolyline
 90
        5
 70
     0
 43
0.0
 10
1083.267723360674
 20
-2763.211115285214
 10
1083.60105696024
 20
-2763.211115285214
 10
1083.60105696024
 20
-2764.115004085232
 10
1083.267723360673
 20
-2764.115004085232
 10
1083.267723360674
 20
-2763.211115285214
  0
HATCH
  5
39F
330
1F
100
AcDbEntity
  8
Ech.1_5
 62
   252
440
 33554687
370
     5
100
AcDbHatch
 10
0.0
 20
0.0
 30
0.0
210
0.0
220
0.0
230
1.0
  2
SOLID
 70
     1
 71
     1
 91
        1
 92
        3
 72
     0
 73
     1
 93
        4
 10
1083.601056161538
 20
-2763.211115285214
 10
1083.934389761106
 20
-2763.211115285214
 10
1083.934389761106
 20
-2764.115004085232
 10
1083.601056161538
 20
-2764.115004085232
 97
        0
 75
     0
 76
     1
 98
        0
  0
LWPOLYLINE
  5
3A0
330
1F
100
AcDbEntity
  8
Ech.1_5
 62
     7
370
     9
100
AcDbPolyline
 90
        5
 70
     0
 43
0.0
 10
1083.601056161538
 20
-2763.211115285214
 10
1083.934389761106
 20
-2763.211115285214
 10
1083.934389761106
 20
-2764.115004085232
 10
1083.601056161538
 20
-2764.115004085232
 10
1083.601056161538
 20
-2763.211115285214
  0
HATCH
  5
3A1
330
1F
100
AcDbEntity
  8
Ech.1_5
 62
   252
440
 33554687
370
     5
100
AcDbHatch
 10
0.0
 20
0.0
 30
0.0
210
0.0
220
0.0
230
1.0
  2
SOLID
 70
     1
 71
     1
 91
        1
 92
        3
 72
     0
 73
     1
 93
        4
 10
1083.934389361754
 20
-2763.211115285214
 10
1084.267722961322
 20
-2763.211115285214
 10
1084.267722961322
 20
-2764.115004085232
 10
1083.934389361754
 20
-2764.115004085232
 97
        0
 75
     0
 76
     1
 98
        0
  0
LWPOLYLINE
  5
3A2
330
1F
100
AcDbEntity
  8
Ech.1_5
 62
     7
370
     9
100
AcDbPolyline
 90
        5
 70
     0
 43
0.0
 10
1083.934389361754
 20
-2763.211115285214
 10
1084.267722961322
 20
-2763.211115285214
 10
1084.267722961322
 20
-2764.115004085232
 10
1083.934389361754
 20
-2764.115004085232
 10
1083.934389361754
 20
-2763.211115285214
  0
HATCH
  5
3A3
330
1F
100
AcDbEntity
  8
Ech.1_5
 62
   252
440
 33554687
370
     5
100
AcDbHatch
 10
0.0
 20
0.0
 30
0.0
210
0.0
220
0.0
230
1.0
  2
SOLID
 70
     1
 71
     1
 91
        1
 92
        3
 72
     0
 73
     1
 93
        4
 10
1084.267722961322
 20
-2763.211115285214
 10
1084.601056560889
 20
-2763.211115285214
 10
1084.601056560889
 20
-2764.115004085232
 10
1084.267722961322
 20
-2764.115004085232
 97
        0
 75
     0
 76
     1
 98
        0
  0
LWPOLYLINE
  5
3A4
330
1F
100
AcDbEntity
  8
Ech.1_5
 62
     7
370
     9
100
AcDbPolyline
 90
        5
 70
     0
 43
0.0
 10
1084.267722961322
 20
-2763.211115285214
 10
1084.601056560889
 20
-2763.211115285214
 10
1084.601056560889
 20
-2764.115004085232
 10
1084.267722961322
 20
-2764.115004085232
 10
1084.267722961322
 20
-2763.211115285214
  0
HATCH
  5
3A5
330
1F
100
AcDbEntity
  8
Ech.1_5
 62
   252
440
 33554687
370
     5
100
AcDbHatch
 10
0.0
 20
0.0
 30
0.0
210
0.0
220
0.0
230
1.0
  2
SOLID
 70
     1
 71
     1
 91
        1
 92
        3
 72
     0
 73
     1
 93
        4
 10
1084.601056161538
 20
-2763.211115285214
 10
1084.934389761106
 20
-2763.211115285214
 10
1084.934389761106
 20
-2764.115004085232
 10
1084.601056161538
 20
-2764.115004085232
 97
        0
 75
     0
 76
     1
 98
        0
  0
LWPOLYLINE
  5
3A6
330
1F
100
AcDbEntity
  8
Ech.1_5
 62
     7
370
     9
100
AcDbPolyline
 90
        5
 70
     0
 43
0.0
 10
1084.601056161538
 20
-2763.211115285214
 10
1084.934389761106
 20
-2763.211115285214
 10
1084.934389761106
 20
-2764.115004085232
 10
1084.601056161538
 20
-2764.115004085232
 10
1084.601056161538
 20
-2763.211115285214
  0
HATCH
  5
3A7
330
1F
100
AcDbEntity
  8
Ech.1_5
 62
   252
440
 33554687
370
     5
100
AcDbHatch
 10
0.0
 20
0.0
 30
0.0
210
0.0
220
0.0
230
1.0
  2
SOLID
 70
     1
 71
     1
 91
        1
 92
        3
 72
     0
 73
     1
 93
        4
 10
1084.934389761106
 20
-2763.211115285214
 10
1085.267723360673
 20
-2763.211115285214
 10
1085.267723360673
 20
-2764.115004085232
 10
1084.934389761106
 20
-2764.115004085232
 97
        0
 75
     0
 76
     1
 98
        0
  0
LWPOLYLINE
  5
3A8
330
1F
100
AcDbEntity
  8
Ech.1_5
 62
     7
370
     9
100
AcDbPolyline
 90
        5
 70
     0
 43
0.0
 10
1084.934389761106
 20
-2763.211115285214
 10
1085.267723360673
 20
-2763.211115285214
 10
1085.267723360673
 20
-2764.115004085232
 10
1084.934389761106
 20
-2764.115004085232
 10
1084.934389761106
 20
-2763.211115285214
  0
HATCH
  5
3A9
330
1F
100
AcDbEntity
  8
Ech.1_5
 62
   252
440
 33554687
370
     5
100
AcDbHatch
 10
0.0
 20
0.0
 30
0.0
210
0.0
220
0.0
230
1.0
  2
SOLID
 70
     1
 71
     1
 91
        1
 92
        3
 72
     0
 73
     1
 93
        4
 10
1085.267722561971
 20
-2763.211115285214
 10
1085.601056161538
 20
-2763.211115285214
 10
1085.601056161538
 20
-2764.115004085232
 10
1085.267722561971
 20
-2764.115004085232
 97
        0
 75
     0
 76
     1
 98
        0
  0
LWPOLYLINE
  5
3AA
330
1F
100
AcDbEntity
  8
Ech.1_5
 62
     7
370
     9
100
AcDbPolyline
 90
        5
 70
     0
 43
0.0
 10
1085.267722561971
 20
-2763.211115285214
 10
1085.601056161538
 20
-2763.211115285214
 10
1085.601056161538
 20
-2764.115004085232
 10
1085.267722561971
 20
-2764.115004085232
 10
1085.267722561971
 20
-2763.211115285214
  0
HATCH
  5
3AB
330
1F
100
AcDbEntity
  8
Ech.1_5
 62
   252
440
 33554687
370
     5
100
AcDbHatch
 10
0.0
 20
0.0
 30
0.0
210
0.0
220
0.0
230
1.0
  2
SOLID
 70
     1
 71
     1
 91
        1
 92
        3
 72
     0
 73
     1
 93
        4
 10
1085.601055362836
 20
-2763.211115285214
 10
1085.934388962403
 20
-2763.211115285214
 10
1085.934388962403
 20
-2764.115004085232
 10
1085.601055362836
 20
-2764.115004085232
 97
        0
 75
     0
 76
     1
 98
        0
  0
LWPOLYLINE
  5
3AC
330
1F
100
AcDbEntity
  8
Ech.1_5
 62
     7
370
     9
100
AcDbPolyline
 90
        5
 70
     0
 43
0.0
 10
1085.601055362836
 20
-2763.211115285214
 10
1085.934388962403
 20
-2763.211115285214
 10
1085.934388962403
 20
-2764.115004085232
 10
1085.601055362836
 20
-2764.115004085232
 10
1085.601055362836
 20
-2763.211115285214
  0
HATCH
  5
3AD
330
1F
100
AcDbEntity
  8
Ech.1_5
 62
   252
440
 33554687
370
     5
100
AcDbHatch
 10
0.0
 20
0.0
 30
0.0
210
0.0
220
0.0
230
1.0
  2
SOLID
 70
     1
 71
     1
 91
        1
 92
        3
 72
     0
 73
     1
 93
        4
 10
1085.934388962403
 20
-2763.211115285214
 10
1086.267722561971
 20
-2763.211115285214
 10
1086.267722561971
 20
-2764.115004085232
 10
1085.934388962403
 20
-2764.115004085232
 97
        0
 75
     0
 76
     1
 98
        0
  0
LWPOLYLINE
  5
3AE
330
1F
100
AcDbEntity
  8
Ech.1_5
 62
     7
370
     9
100
AcDbPolyline
 90
        5
 70
     0
 43
0.0
 10
1085.934388962403
 20
-2763.211115285214
 10
1086.267722561971
 20
-2763.211115285214
 10
1086.267722561971
 20
-2764.115004085232
 10
1085.934388962403
 20
-2764.115004085232
 10
1085.934388962403
 20
-2763.211115285214
  0
HATCH
  5
3AF
330
1F
100
AcDbEntity
  8
Ech.1_5
 62
   252
440
 33554687
370
     5
100
AcDbHatch
 10
0.0
 20
0.0
 30
0.0
210
0.0
220
0.0
230
1.0
  2
SOLID
 70
     1
 71
     1
 91
        1
 92
        3
 72
     0
 73
     1
 93
        4
 10
1086.267722561971
 20
-2763.211115285214
 10
1086.601056161538
 20
-2763.211115285214
 10
1086.601056161538
 20
-2764.115004085232
 10
1086.267722561971
 20
-2764.115004085232
 97
        0
 75
     0
 76
     1
 98
        0
  0
LWPOLYLINE
  5
3B0
330
1F
100
AcDbEntity
  8
Ech.1_5
 62
     7
370
     9
100
AcDbPolyline
 90
        5
 70
     0
 43
0.0
 10
1086.267722561971
 20
-2763.211115285214
 10
1086.601056161538
 20
-2763.211115285214
 10
1086.601056161538
 20
-2764.115004085232
 10
1086.267722561971
 20
-2764.115004085232
 10
1086.267722561971
 20
-2763.211115285214
  0
HATCH
  5
3B1
330
1F
100
AcDbEntity
  8
Ech.1_5
 62
   252
440
 33554687
370
     5
100
AcDbHatch
 10
0.0
 20
0.0
 30
0.0
210
0.0
220
0.0
230
1.0
  2
SOLID
 70
     1
 71
     1
 91
        1
 92
        3
 72
     0
 73
     1
 93
        4
 10
1086.601056161538
 20
-2763.211115285214
 10
1086.934389761106
 20
-2763.211115285214
 10
1086.934389761106
 20
-2764.115004085232
 10
1086.601056161538
 20
-2764.115004085232
 97
        0
 75
     0
 76
     1
 98
        0
  0
LWPOLYLINE
  5
3B2
330
1F
100
AcDbEntity
  8
Ech.1_5
 62
     7
370
     9
100
AcDbPolyline
 90
        5
 70
     0
 43
0.0
 10
1086.601056161538
 20
-2763.211115285214
 10
1086.934389761106
 20
-2763.211115285214
 10
1086.934389761106
 20
-2764.115004085232
 10
1086.601056161538
 20
-2764.115004085232
 10
1086.601056161538
 20
-2763.211115285214
  0
HATCH
  5
3B3
330
1F
100
AcDbEntity
  8
Ech.1_5
 62
   252
440
 33554687
370
     5
100
AcDbHatch
 10
0.0
 20
0.0
 30
0.0
210
0.0
220
0.0
230
1.0
  2
SOLID
 70
     1
 71
     1
 91
        1
 92
        3
 72
     0
 73
     1
 93
        4
 10
1086.934388962403
 20
-2763.211115285214
 10
1087.267722561971
 20
-2763.211115285214
 10
1087.267722561971
 20
-2764.115004085232
 10
1086.934388962403
 20
-2764.115004085232
 97
        0
 75
     0
 76
     1
 98
        0
  0
LWPOLYLINE
  5
3B4
330
1F
100
AcDbEntity
  8
Ech.1_5
 62
     7
370
     9
100
AcDbPolyline
 90
        5
 70
     0
 43
0.0
 10
1086.934388962403
 20
-2763.211115285214
 10
1087.267722561971
 20
-2763.211115285214
 10
1087.267722561971
 20
-2764.115004085232
 10
1086.934388962403
 20
-2764.115004085232
 10
1086.934388962403
 20
-2763.211115285214
  0
HATCH
  5
3B5
330
1F
100
AcDbEntity
  8
Ech.1_5
 62
   252
440
 33554687
370
     5
100
AcDbHatch
 10
0.0
 20
0.0
 30
0.0
210
0.0
220
0.0
230
1.0
  2
SOLID
 70
     1
 71
     1
 91
        1
 92
        3
 72
     0
 73
     1
 93
        4
 10
1087.26772216262
 20
-2763.211115285214
 10
1087.601055762187
 20
-2763.211115285214
 10
1087.601055762187
 20
-2764.115004085232
 10
1087.26772216262
 20
-2764.115004085232
 97
        0
 75
     0
 76
     1
 98
        0
  0
LWPOLYLINE
  5
3B6
330
1F
100
AcDbEntity
  8
Ech.1_5
 62
     7
370
     9
100
AcDbPolyline
 90
        5
 70
     0
 43
0.0
 10
1087.26772216262
 20
-2763.211115285214
 10
1087.601055762187
 20
-2763.211115285214
 10
1087.601055762187
 20
-2764.115004085232
 10
1087.26772216262
 20
-2764.115004085232
 10
1087.26772216262
 20
-2763.211115285214
  0
HATCH
  5
3B7
330
1F
100
AcDbEntity
  8
Ech.1_5
 62
   252
440
 33554687
370
     5
100
AcDbHatch
 10
0.0
 20
0.0
 30
0.0
210
0.0
220
0.0
230
1.0
  2
SOLID
 70
     1
 71
     1
 91
        1
 92
        3
 72
     0
 73
     1
 93
        4
 10
1087.601055762187
 20
-2763.211115285214
 10
1087.934389361754
 20
-2763.211115285214
 10
1087.934389361754
 20
-2764.115004085232
 10
1087.601055762187
 20
-2764.115004085232
 97
        0
 75
     0
 76
     1
 98
        0
  0
LWPOLYLINE
  5
3B8
330
1F
100
AcDbEntity
  8
Ech.1_5
 62
     7
370
     9
100
AcDbPolyline
 90
        5
 70
     0
 43
0.0
 10
1087.601055762187
 20
-2763.211115285214
 10
1087.934389361754
 20
-2763.211115285214
 10
1087.934389361754
 20
-2764.115004085232
 10
1087.601055762187
 20
-2764.115004085232
 10
1087.601055762187
 20
-2763.211115285214
  0
HATCH
  5
3B9
330
1F
100
AcDbEntity
  8
Ech.1_5
 62
   252
440
 33554687
370
     5
100
AcDbHatch
 10
0.0
 20
0.0
 30
0.0
210
0.0
220
0.0
230
1.0
  2
SOLID
 70
     1
 71
     1
 91
        1
 92
        3
 72
     0
 73
     1
 93
        4
 10
1087.934388962403
 20
-2763.211115285214
 10
1088.267722561971
 20
-2763.211115285214
 10
1088.267722561971
 20
-2764.115004085232
 10
1087.934388962403
 20
-2764.115004085232
 97
        0
 75
     0
 76
     1
 98
        0
  0
LWPOLYLINE
  5
3BA
330
1F
100
AcDbEntity
  8
Ech.1_5
 62
     7
370
     9
100
AcDbPolyline
 90
        5
 70
     0
 43
0.0
 10
1087.934388962403
 20
-2763.211115285214
 10
1088.267722561971
 20
-2763.211115285214
 10
1088.267722561971
 20
-2764.115004085232
 10
1087.934388962403
 20
-2764.115004085232
 10
1087.934388962403
 20
-2763.211115285214
  0
HATCH
  5
3BB
330
1F
100
AcDbEntity
  8
Ech.1_5
 62
   252
440
 33554687
370
     5
100
AcDbHatch
 10
0.0
 20
0.0
 30
0.0
210
0.0
220
0.0
230
1.0
  2
SOLID
 70
     1
 71
     1
 91
        1
 92
        3
 72
     0
 73
     1
 93
        4
 10
1088.267722561971
 20
-2763.211115285214
 10
1088.601056161538
 20
-2763.211115285214
 10
1088.601056161538
 20
-2764.115004085232
 10
1088.267722561971
 20
-2764.115004085232
 97
        0
 75
     0
 76
     1
 98
        0
  0
LWPOLYLINE
  5
3BC
330
1F
100
AcDbEntity
  8
Ech.1_5
 62
     7
370
     9
100
AcDbPolyline
 90
        5
 70
     0
 43
0.0
 10
1088.267722561971
 20
-2763.211115285214
 10
1088.601056161538
 20
-2763.211115285214
 10
1088.601056161538
 20
-2764.115004085232
 10
1088.267722561971
 20
-2764.115004085232
 10
1088.267722561971
 20
-2763.211115285214
  0
HATCH
  5
3BD
330
1F
100
AcDbEntity
  8
Ech.1_5
 62
   252
440
 33554687
370
     5
100
AcDbHatch
 10
0.0
 20
0.0
 30
0.0
210
0.0
220
0.0
230
1.0
  2
SOLID
 70
     1
 71
     1
 91
        1
 92
        3
 72
     0
 73
     1
 93
        4
 10
1088.601055362836
 20
-2763.211115285214
 10
1088.934388962403
 20
-2763.211115285214
 10
1088.934388962403
 20
-2764.115004085232
 10
1088.601055362836
 20
-2764.115004085232
 97
        0
 75
     0
 76
     1
 98
        0
  0
LWPOLYLINE
  5
3BE
330
1F
100
AcDbEntity
  8
Ech.1_5
 62
     7
370
     9
100
AcDbPolyline
 90
        5
 70
     0
 43
0.0
 10
1088.601055362836
 20
-2763.211115285214
 10
1088.934388962403
 20
-2763.211115285214
 10
1088.934388962403
 20
-2764.115004085232
 10
1088.601055362836
 20
-2764.115004085232
 10
1088.601055362836
 20
-2763.211115285214
  0
HATCH
  5
3BF
330
1F
100
AcDbEntity
  8
Ech.1_5
 62
   252
440
 33554687
370
     5
100
AcDbHatch
 10
0.0
 20
0.0
 30
0.0
210
0.0
220
0.0
230
1.0
  2
SOLID
 70
     1
 71
     1
 91
        1
 92
        3
 72
     0
 73
     1
 93
        4
 10
1088.934388962403
 20
-2763.211115285214
 10
1089.267722561971
 20
-2763.211115285214
 10
1089.267722561971
 20
-2764.115004085232
 10
1088.934388962403
 20
-2764.115004085232
 97
        0
 75
     0
 76
     1
 98
        0
  0
LWPOLYLINE
  5
3C0
330
1F
100
AcDbEntity
  8
Ech.1_5
 62
     7
370
     9
100
AcDbPolyline
 90
        5
 70
     0
 43
0.0
 10
1088.934388962403
 20
-2763.211115285214
 10
1089.267722561971
 20
-2763.211115285214
 10
1089.267722561971
 20
-2764.115004085232
 10
1088.934388962403
 20
-2764.115004085232
 10
1088.934388962403
 20
-2763.211115285214
  0
HATCH
  5
3C1
330
1F
100
AcDbEntity
  8
Ech.1_5
 62
   252
440
 33554687
370
     5
100
AcDbHatch
 10
0.0
 20
0.0
 30
0.0
210
0.0
220
0.0
230
1.0
  2
SOLID
 70
     1
 71
     1
 91
        1
 92
        3
 72
     0
 73
     1
 93
        4
 10
1089.267722561971
 20
-2763.211115285214
 10
1089.601056161538
 20
-2763.211115285214
 10
1089.601056161538
 20
-2764.115004085232
 10
1089.267722561971
 20
-2764.115004085232
 97
        0
 75
     0
 76
     1
 98
        0
  0
LWPOLYLINE
  5
3C2
330
1F
100
AcDbEntity
  8
Ech.1_5
 62
     7
370
     9
100
AcDbPolyline
 90
        5
 70
     0
 43
0.0
 10
1089.267722561971
 20
-2763.211115285214
 10
1089.601056161538
 20
-2763.211115285214
 10
1089.601056161538
 20
-2764.115004085232
 10
1089.267722561971
 20
-2764.115004085232
 10
1089.267722561971
 20
-2763.211115285214
  0
HATCH
  5
3C3
330
1F
100
AcDbEntity
  8
Ech.1_5
 62
   252
440
 33554687
370
     5
100
AcDbHatch
 10
0.0
 20
0.0
 30
0.0
210
0.0
220
0.0
230
1.0
  2
SOLID
 70
     1
 71
     1
 91
        1
 92
        3
 72
     0
 73
     1
 93
        4
 10
1089.601056161538
 20
-2763.211115285214
 10
1089.934389761106
 20
-2763.211115285214
 10
1089.934389761106
 20
-2764.115004085232
 10
1089.601056161538
 20
-2764.115004085232
 97
        0
 75
     0
 76
     1
 98
        0
  0
LWPOLYLINE
  5
3C4
330
1F
100
AcDbEntity
  8
Ech.1_5
 62
     7
370
     9
100
AcDbPolyline
 90
        5
 70
     0
 43
0.0
 10
1089.601056161538
 20
-2763.211115285214
 10
1089.934389761106
 20
-2763.211115285214
 10
1089.934389761106
 20
-2764.115004085232
 10
1089.601056161538
 20
-2764.115004085232
 10
1089.601056161538
 20
-2763.211115285214
  0
HATCH
  5
3C5
330
1F
100
AcDbEntity
  8
Ech.1_5
 62
   252
440
 33554687
370
     5
100
AcDbHatch
 10
0.0
 20
0.0
 30
0.0
210
0.0
220
0.0
230
1.0
  2
SOLID
 70
     1
 71
     1
 91
        1
 92
        3
 72
     1
 73
     1
 93
        4
 10
1091.814022561805
 20
-2764.115004085232
 42
0.0
 10
1091.267721763269
 20
-2764.115004085232
 42
0.0
 10
1091.267721763269
 20
-2763.211115285214
 42
0.0
 10
1091.814022561805
 20
-2763.211115285214
 42
0.3513591548521035
 97
        0
 75
     0
 76
     1
 98
        0
  0
LWPOLYLINE
  5
3C6
330
1F
100
AcDbEntity
  8
Ech.1_5
 62
     7
370
     9
100
AcDbPolyline
 90
        5
 70
     0
 43
0.0
 10
1091.814022561805
 20
-2764.115004085232
 10
1091.267721763269
 20
-2764.115004085232
 10
1091.267721763269
 20
-2763.211115285214
 10
1091.814022561805
 20
-2763.211115285214
 42
0.3513591548518972
 10
1091.814022561805
 20
-2764.115004085232
  0
HATCH
  5
3C7
330
1F
100
AcDbEntity
  8
Ech.1_5
 62
   252
440
 33554687
370
     5
100
AcDbHatch
 10
0.0
 20
0.0
 30
0.0
210
0.0
220
0.0
230
1.0
  2
SOLID
 70
     1
 71
     1
 91
        1
 92
        3
 72
     1
 73
     1
 93
        3
 10
1092.878833362358
 20
-2763.663059685235
 42
0.0
 10
1091.814022561805
 20
-2764.115004085232
 42
-0.3513591548519267
 10
1091.814022561805
 20
-2763.211115285214
 42
0.0
 97
        0
 75
     0
 76
     1
 98
        0
  0
LWPOLYLINE
  5
3C8
330
1F
100
AcDbEntity
  8
Ech.1_5
 62
     7
370
     9
100
AcDbPolyline
 90
        4
 70
     0
 43
0.0
 10
1092.878833362358
 20
-2763.663059685235
 10
1091.814022561805
 20
-2764.115004085232
 42
-0.3513591548518956
 10
1091.814022561805
 20
-2763.211115285214
 10
1092.878833362358
 20
-2763.663059685235
  0
HATCH
  5
3C9
330
1F
100
AcDbEntity
  8
Ech.1_5
 62
   252
440
 33554687
370
     5
100
AcDbHatch
 10
0.0
 20
0.0
 30
0.0
210
0.0
220
0.0
230
1.0
  2
SOLID
 70
     1
 71
     1
 91
        1
 92
        3
 72
     1
 73
     1
 93
        6
 10
1075.601055362836
 20
-2763.211115285217
 42
0.0
 10
1074.901055762069
 20
-2763.211115285214
 42
-0.4142135727478138
 10
1074.678833362358
 20
-2762.988892885223
 42
0.0
 10
1074.678833362358
 20
-2764.33722648525
 42
-0.4142135726649113
 10
1074.901055762069
 20
-2764.115004085232
 42
0.0
 10
1075.601055362836
 20
-2764.115004085232
 42
0.0
 97
        0
 75
     0
 76
     1
 98
        0
  0
LWPOLYLINE
  5
3CA
330
1F
100
AcDbEntity
  8
Ech.1_5
 62
     7
370
     9
100
AcDbPolyline
 90
        7
 70
     0
 43
0.0
 10
1075.601055362836
 20
-2763.211115285217
 10
1074.901055762069
 20
-2763.211115285214
 42
-0.4142135727497837
 10
1074.678833362358
 20
-2762.988892885223
 10
1074.678833362358
 20
-2764.33722648525
 42
-0.414213572666436
 10
1074.901055762069
 20
-2764.115004085232
 10
1075.601055362836
 20
-2764.115004085232
 10
1075.601055362836
 20
-2763.211115285217
  0
HATCH
  5
3CB
330
1F
100
AcDbEntity
  8
Ech.1_5
 62
   252
440
 33554687
370
     5
100
AcDbHatch
 10
0.0
 20
0.0
 30
0.0
210
0.0
220
0.0
230
1.0
  2
SOLID
 70
     1
 71
     1
 91
        1
 92
        1
 93
        2
 72
     1
 10
1074.556611361997
 20
-2762.655559674669
 11
1074.556611361997
 21
-2764.670559695777
 72
     2
 10
1079.581892718327
 20
-2763.663059685223
 40
5.125281356329573
 50
168.6632793503046
 51
191.3367206496955
 73
     0
 97
        0
 75
     0
 76
     1
 98
        0
  0
LWPOLYLINE
  5
3CC
330
1F
100
AcDbEntity
  8
Ech.1_5
 62
     7
370
     9
100
AcDbPolyline
 90
        3
 70
     0
 43
0.0
 10
1074.556611361997
 20
-2762.655559674669
 10
1074.556611361997
 20
-2764.670559695777
 42
-0.0992555820868614
 10
1074.556611361997
 20
-2762.655559674669
  0
HATCH
  5
3CD
330
1F
100
AcDbEntity
  8
Ech.1_5
 62
   252
440
 33554687
370
     5
100
AcDbHatch
 10
0.0
 20
0.0
 30
0.0
210
0.0
220
0.0
230
1.0
  2
SOLID
 70
     1
 71
     1
 91
        1
 92
        3
 72
     0
 73
     1
 93
        6
 10
1074.678833362358
 20
-2762.655559685239
 10
1074.678833362358
 20
-2762.988892885223
 10
1074.678833362358
 20
-2764.33722648525
 10
1074.678833362358
 20
-2764.67055968523
 10
1074.556611361997
 20
-2764.670559695777
 10
1074.556611361997
 20
-2762.655559674669
 97
        0
 75
     0
 76
     1
 98
        0
  0
LWPOLYLINE
  5
3CE
330
1F
100
AcDbEntity
  8
Ech.1_5
 62
     7
370
     9
100
AcDbPolyline
 90
        7
 70
     0
 43
0.0
 10
1074.678833362358
 20
-2762.655559685239
 10
1074.678833362358
 20
-2762.988892885223
 10
1074.678833362358
 20
-2764.33722648525
 10
1074.678833362358
 20
-2764.67055968523
 10
1074.556611361997
 20
-2764.670559695777
 10
1074.556611361997
 20
-2762.655559674669
 10
1074.678833362358
 20
-2762.655559685239
  0
HATCH
  5
3CF
330
1F
100
AcDbEntity
  8
Ech.1_5
 62
   252
440
 33554687
370
     5
100
AcDbHatch
 10
0.0
 20
0.0
 30
0.0
210
0.0
220
0.0
230
1.0
  2
SOLID
 70
     1
 71
     1
 91
        1
 92
        3
 72
     0
 73
     1
 93
        4
 10
1089.934389761106
 20
-2763.211115285214
 10
1090.267723360673
 20
-2763.211115285214
 10
1090.267723360673
 20
-2764.115004085232
 10
1089.934389761106
 20
-2764.115004085232
 97
        0
 75
     0
 76
     1
 98
        0
  0
LWPOLYLINE
  5
3D0
330
1F
100
AcDbEntity
  8
Ech.1_5
 62
     7
370
     9
100
AcDbPolyline
 90
        5
 70
     0
 43
0.0
 10
1089.934389761106
 20
-2763.211115285214
 10
1090.267723360673
 20
-2763.211115285214
 10
1090.267723360673
 20
-2764.115004085232
 10
1089.934389761106
 20
-2764.115004085232
 10
1089.934389761106
 20
-2763.211115285214
  0
LINE
  5
3D1
330
1F
100
AcDbEntity
  8
Ech.1_5
 62
   190
370
     9
100
AcDbLine
 10
1090.601055362836
 20
-2764.115004085232
 30
0.0
 11
1090.601055362836
 21
-2763.211115285214
 31
0.0
  0
LINE
  5
3D2
330
1F
100
AcDbEntity
  8
Ech.1_5
 62
   190
370
     9
100
AcDbLine
 10
1090.934388962403
 20
-2764.115004085232
 30
0.0
 11
1090.934388962403
 21
-2763.211115285214
 31
0.0
  0
LINE
  5
3D3
330
1F
100
AcDbEntity
  8
Ech.1_5
 62
   190
370
     9
100
AcDbLine
 10
1091.267721763269
 20
-2764.115004085232
 30
0.0
 11
1091.267721763269
 21
-2763.211115285214
 31
0.0
  0
LINE
  5
3D4
330
1F
100
AcDbEntity
  8
Ech.1_5
 62
   190
370
     9
100
AcDbLine
 10
1090.267722561971
 20
-2764.115004085232
 30
0.0
 11
1090.267722561971
 21
-2763.211115285214
 31
0.0
  0
HATCH
  5
3D5
330
1F
100
AcDbEntity
  8
Ech.1_5
 62
   252
440
 33554687
370
     5
100
AcDbHatch
 10
0.0
 20
0.0
 30
0.0
210
0.0
220
0.0
230
1.0
  2
SOLID
 70
     1
 71
     1
 91
        1
 92
        3
 72
     0
 73
     1
 93
        4
 10
1090.267721763269
 20
-2763.211115285214
 10
1090.601055362836
 20
-2763.211115285214
 10
1090.601055362836
 20
-2764.115004085232
 10
1090.267721763269
 20
-2764.115004085232
 97
        0
 75
     0
 76
     1
 98
        0
  0
LWPOLYLINE
  5
3D6
330
1F
100
AcDbEntity
  8
Ech.1_5
 62
     7
370
     9
100
AcDbPolyline
 90
        5
 70
     0
 43
0.0
 10
1090.267721763269
 20
-2763.211115285214
 10
1090.601055362836
 20
-2763.211115285214
 10
1090.601055362836
 20
-2764.115004085232
 10
1090.267721763269
 20
-2764.115004085232
 10
1090.267721763269
 20
-2763.211115285214
  0
HATCH
  5
3D7
330
1F
100
AcDbEntity
  8
Ech.1_5
 62
   252
440
 33554687
370
     5
100
AcDbHatch
 10
0.0
 20
0.0
 30
0.0
210
0.0
220
0.0
230
1.0
  2
SOLID
 70
     1
 71
     1
 91
        1
 92
        3
 72
     0
 73
     1
 93
        4
 10
1090.934388163701
 20
-2763.211115285214
 10
1091.267721763269
 20
-2763.211115285214
 10
1091.267721763269
 20
-2764.115004085232
 10
1090.934388163701
 20
-2764.115004085232
 97
        0
 75
     0
 76
     1
 98
        0
  0
LWPOLYLINE
  5
3D8
330
1F
100
AcDbEntity
  8
Ech.1_5
 62
     7
370
     9
100
AcDbPolyline
 90
        5
 70
     0
 43
0.0
 10
1090.934388163701
 20
-2763.211115285214
 10
1091.267721763269
 20
-2763.211115285214
 10
1091.267721763269
 20
-2764.115004085232
 10
1090.934388163701
 20
-2764.115004085232
 10
1090.934388163701
 20
-2763.211115285214
  0
MTEXT
  5
3D9
330
1F
100
AcDbEntity
  8
Ech.1_5
 62
     7
100
AcDbMText
 10
1222.093658283909
 20
-2884.204859284365
 30
0.0
 40
5.5
 41
93.11691696381445
 46
0.0
 71
     1
 72
     1
  1
{\fArial|b0|i0;\W1.000000;\H5.500000;\c16711848;Gaine Ø < 16mm}\P{\fArial|b0|i0;\W1.000000;\H5.500000;\c16711848;(pente selon paroi support)}
 73
     1
 44
1.07999975538982
  0
MTEXT
  5
3DA
330
1F
100
AcDbEntity
  8
Ech.1_5
 62
     4
420
    65535
100
AcDbMText
 10
1170.549107637575
 20
-3117.556443873847
 30
0.0
 40
5.0
 41
195.3371538540771
 46
0.0
 71
     2
 72
     1
  1
{\fArial|b0|i0;\W1.000000;\H5.000000;\c16711848;Vue en coupe verticale}
 73
     1
 44
1.07999975538982
  0
MTEXT
  5
3DB
330
1F
100
AcDbEntity
  8
Ech.1_5
 62
     4
420
    65535
100
AcDbMText
 10
1298.677151645913
 20
-3117.489573276787
 30
0.0
 40
5.0
 41
50.91893416259836
 46
0.0
 71
     2
 72
     1
  1
{\fArial|b0|i0;\W1.000000;\H5.000000;\c16711848;Ech 1/5 }
 73
     1
 44
1.07999975538982
  0
MTEXT
  5
3DC
330
1F
100
AcDbEntity
  8
Ech.1_5
 62
     4
420
    65535
100
AcDbMText
 10
1039.149487111466
 20
-3117.380870755795
 30
0.0
 40
5.0
 41
57.46208719814172
 46
0.0
 71
     2
 72
     1
  1
{\fArial|b0|i0;\W1.000000;\H5.000000;\c16711848;BMBVT40-04}
 73
     1
 44
1.07999975538982
  0
MTEXT
  5
3DD
330
1F
100
AcDbEntity
  8
Ech.1_5
 62
   200
420
 11010303
100
AcDbMText
 10
1129.636618727212
 20
-3125.963517690529
 30
0.0
 40
2.25
 41
391.75
 46
0.0
 71
     2
 72
     1
  3
{\fArial|b0|i1;\W1.000000;\H2.250000;\c16711848; Il est rappelé à l'utilisateur qui consulte le site et utilise les informations qu'il contient, qu'il doit les utiliser sous sa seule responsabilité en vérifiant leur pertinence, leur cohérence et leur
  1
 non obsolescence.}
 73
     1
 44
1.07999975538982
  0
MTEXT
  5
3DE
330
1F
100
AcDbEntity
  8
Ech.1_5
 62
   200
420
 11010303
100
AcDbMText
 10
1129.636618727212
 20
-3139.504328847932
 30
0.0
 40
2.75
 41
391.25
 46
0.0
 71
     2
 72
     1
  1
{\fArial|b0|i1;\W1.000000;\H2.750000;\c16711848;www.catalogue-bois-construction.fr}
 73
     1
 44
1.07999975538982
  0
MTEXT
  5
3DF
330
1F
100
AcDbEntity
  8
Ech.1_5
 62
     4
420
    65535
100
AcDbMText
 10
1129.636618727212
 20
-2657.410088551038
 30
0.0
 40
6.0
 41
388.0
 46
0.0
 71
     2
 72
     1
  1
{\fArial|b0|i0;\W1.000000;\H6.000000;\c16711848;Traversée de paroi - Détail sur Fourreau - Compatible niveau étanchéité Ee2}
 73
     1
 44
1.07999975538982
  0
MTEXT
  5
3E0
330
1F
100
AcDbEntity
  8
Ech.1_5
 62
     4
420
    65535
100
AcDbMText
 10
1054.704042605844
 20
-2831.273790296683
 30
0.0
 40
5.5
 41
111.527883776577
 46
0.0
 71
     3
 72
     1
  1
{\fArial|b0|i0;\W1.000000;\H5.500000;\c16711848;Manchon ou manchette élastique en caoutchouc EPDM - diamètre fonction du fourreau}
 73
     1
 44
1.07999975538982
  0
MTEXT
  5
3E1
330
1F
100
AcDbEntity
  8
Ech.1_5
 62
     4
420
    65535
100
AcDbMText
 10
1051.954042605844
 20
-2723.422141452917
 30
0.0
 40
5.5
 41
90.93480449709307
 46
0.0
 71
     3
 72
     1
  1
{\fArial|b0|i0;\W1.000000;\H5.500000;\c16711848;Doube-tasseautage bois support de bardage}
 73
     1
 44
1.07999975538982
  0
MTEXT
  5
3E2
330
1F
100
AcDbEntity
  8
Ech.1_5
 62
     4
420
    65535
100
AcDbMText
 10
1051.954042605844
 20
-2752.50100545537
 30
0.0
 40
5.5
 41
73.49250351114301
 46
0.0
 71
     3
 72
     1
  1
{\fArial|b0|i0;\W1.000000;\H5.500000;\c16711848;Paroi support}
 73
     1
 44
1.07999975538982
  0
MTEXT
  5
3E3
330
1F
100
AcDbEntity
  8
Ech.1_5
 62
     4
420
    65535
100
AcDbMText
 10
1051.954042605844
 20
-2773.954670233918
 30
0.0
 40
5.5
 41
110.8085444356034
 46
0.0
 71
     3
 72
     1
  1
{\fArial|b0|i0;\W1.000000;\H5.500000;\c16711848;Bardage bois en lames à recouvrement à mi-bois en pose verticale - épaisseur 18 mm mini}
 73
     1
 44
1.07999975538982
  0
TEXT
  5
3E5
330
1F
100
AcDbEntity
  8
Ech.1_5
 62
   190
100
AcDbText
 10
1069.324178060574
 20
-2868.387615049236
 30
0.0
 40
4.999999999999999
  1
2 mm
 50
89.99999749996337
  7
arial-
100
AcDbText
  0
TEXT
  5
3E6
330
1F
100
AcDbEntity
  8
Ech.1_5
 62
   190
100
AcDbText
 10
953.3654710081287
 20
-3122.353230495679
 30
0.0
 40
5.0
  1
20/11/2020
  7
arial-
100
AcDbText
  0
TEXT
  5
3E7
330
1F
100
AcDbEntity
  8
Ech.1_5
 62
   190
100
AcDbText
 10
1003.332511061198
 20
-2651.299486698099
 30
0.0
 40
6.6
  1
Epaisseur mini selon NF DTU 41.2 - hors exigences feu façade
  7
arial-
100
AcDbText
  0
TEXT
  5
3E9
330
1F
100
AcDbEntity
  8
Ech.1_5
 62
   190
100
AcDbText
 10
1007.039353102214
 20
-2638.346099581842
 30
0.0
 40
6.6
  1
BARDAGES EN LAMES : lames à mi-bois - pose verticale
  7
arial-b
100
AcDbText
  0
TEXT
  5
3EB
330
1F
100
AcDbEntity
  8
Ech.1_5
 62
   154
420
    21156
100
AcDbText
 10
1268.079861762844
 20
-2692.29851031495
 30
0.0
 40
6.0
  1
m
 50
8.975659904392682
 41
0.8000000000000002
  7
tahoma-b
100
AcDbText
  0
TEXT
  5
3EC
330
1F
100
AcDbEntity
  8
Ech.1_5
 62
   154
420
    21156
100
AcDbText
 10
1261.228383345312
 20
-2694.545707057019
 30
0.0
 40
6.0
  1
C
 50
20.66888961044281
 41
0.8000000000000002
  7
tahoma-b
100
AcDbText
  0
TEXT
  5
3ED
330
1F
100
AcDbEntity
  8
Ech.1_5
 62
   154
420
    21156
100
AcDbText
 10
1264.780772410418
 20
-2693.20557492068
 30
0.0
 40
6.0
  1
o
 50
15.37326472327272
 41
0.8000000000000002
  7
tahoma-b
100
AcDbText
  0
TEXT
  5
3EE
330
1F
100
AcDbEntity
  8
Ech.1_5
 62
   154
420
    21156
100
AcDbText
 10
1273.311804248509
 20
-2691.472130241534
 30
0.0
 40
6.0
  1
p
 50
2.547444553701101
 41
0.8000000000000002
  7
tahoma-b
100
AcDbText
  0
TEXT
  5
3EF
330
1F
100
AcDbEntity
  8
Ech.1_5
 62
   154
420
    21156
100
AcDbText
 10
1276.771594140937
 20
-2691.318202060453
 30
0.0
 40
6.0
  1
a
 50
357.5885357786794
 41
0.8000000000000002
  7
tahoma-b
100
AcDbText
  0
TEXT
  5
3F0
330
1F
100
AcDbEntity
  8
Ech.1_5
 62
   154
420
    21156
100
AcDbText
 10
1280.065087232492
 20
-2691.456900472672
 30
0.0
 40
6.0
  1
t
 50
353.6091644148265
 41
0.8000000000000002
  7
tahoma-b
100
AcDbText
  0
TEXT
  5
3F1
330
1F
100
AcDbEntity
  8
Ech.1_5
 62
   154
420
    21156
100
AcDbText
 10
1282.180292878297
 20
-2691.693816224457
 30
0.0
 40
6.000000000000001
  1
i
 50
350.9766571715648
 41
0.8000000000000002
  7
tahoma-b
100
AcDbText
  0
TEXT
  5
3F2
330
1F
100
AcDbEntity
  8
Ech.1_5
 62
   154
420
    21156
100
AcDbText
 10
1283.622999369057
 20
-2691.92292104001
 30
0.0
 40
6.0
  1
b
 50
347.3646125172271
 41
0.8000000000000002
  7
tahoma-b
100
AcDbText
  0
TEXT
  5
3F3
330
1F
100
AcDbEntity
  8
Ech.1_5
 62
   154
420
    21156
100
AcDbText
 10
1287.002339132206
 20
-2692.680484733609
 30
0.0
 40
5.999999999999999
  1
l
 50
343.752567862822
 41
0.8
  7
tahoma-b
100
AcDbText
  0
TEXT
  5
3F4
330
1F
100
AcDbEntity
  8
Ech.1_5
 62
   154
420
    21156
100
AcDbText
 10
1288.404783292117
 20
-2693.089191735404
 30
0.0
 40
5.999999999999999
  1
e
 50
340.2629653356133
 41
0.8000000000000003
  7
tahoma-b
100
AcDbText
  0
TEXT
  5
3F5
330
1F
100
AcDbEntity
  8
Ech.1_5
 62
   154
420
    21156
100
AcDbText
 10
1255.162853762025
 20
-2744.546983286751
 30
0.0
 40
6.0
  1
s
 50
329.3124952401241
 41
0.8000000000000002
  7
tahoma-b
100
AcDbText
  0
TEXT
  5
3F6
330
1F
100
AcDbEntity
  8
Ech.1_5
 62
   154
420
    21156
100
AcDbText
 10
1257.961798441595
 20
-2746.208049531026
 30
0.0
 40
6.0
  1
u
 50
334.6276163794103
 41
0.8000000000000002
  7
tahoma-b
100
AcDbText
  0
TEXT
  5
3F7
330
1F
100
AcDbEntity
  8
Ech.1_5
 62
   154
420
    21156
100
AcDbText
 10
1261.61835288843
 20
-2747.942149907273
 30
0.0
 40
6.0
  1
r
 50
339.5478999136871
 41
0.8000000000000002
  7
tahoma-b
100
AcDbText
  0
TEXT
  5
3F8
330
1F
100
AcDbEntity
  8
Ech.1_5
 62
   154
420
    21156
100
AcDbText
 10
1265.687274512198
 20
-2749.36609624345
 30
0.0
 40
6.0
  1
p
 50
346.7359685598498
 41
0.8000000000000002
  7
tahoma-b
100
AcDbText
  0
TEXT
  5
3F9
330
1F
100
AcDbEntity
  8
Ech.1_5
 62
   154
420
    21156
100
AcDbText
 10
1269.54508109466
 20
-2750.275486308978
 30
0.0
 40
6.000000000000002
  1
a
 50
352.3548109071144
 41
0.8
  7
tahoma-b
100
AcDbText
  0
TEXT
  5
3FA
330
1F
100
AcDbEntity
  8
Ech.1_5
 62
   154
420
    21156
100
AcDbText
 10
1273.266798576268
 20
-2750.775057328937
 30
0.0
 40
6.0
  1
r
 50
357.0624896305035
 41
0.8000000000000002
  7
tahoma-b
100
AcDbText
  0
TEXT
  5
3FB
330
1F
100
AcDbEntity
  8
Ech.1_5
 62
   154
420
    21156
100
AcDbText
 10
1275.975741052162
 20
-2750.914064534111
 30
0.0
 40
6.0
  1
o
 50
1.861284750937963
 41
0.8000000000000002
  7
tahoma-b
100
AcDbText
  0
TEXT
  5
3FC
330
1F
100
AcDbEntity
  8
Ech.1_5
 62
   154
420
    21156
100
AcDbText
 10
1279.85386083356
 20
-2750.788037355091
 30
0.0
 40
6.000000000000001
  1
i
 50
6.083009645690362
 41
0.8
  7
tahoma-b
100
AcDbText
  0
TEXT
  5
3FD
330
1F
100
AcDbEntity
  8
Ech.1_5
 62
   154
420
    21156
100
AcDbText
 10
1283.344576515705
 20
-2750.344130979555
 30
0.0
 40
6.0
  1
b
 50
12.6940080661183
 41
0.8000000000000002
  7
tahoma-b
100
AcDbText
  0
TEXT
  5
3FE
330
1F
100
AcDbEntity
  8
Ech.1_5
 62
   154
420
    21156
100
AcDbText
 10
1287.211239356854
 20
-2749.473165772533
 30
0.0
 40
6.0
  1
o
 50
18.40396681045428
 41
0.8000000000000002
  7
tahoma-b
100
AcDbText
  0
TEXT
  5
3FF
330
1F
100
AcDbEntity
  8
Ech.1_5
 62
   154
420
    21156
100
AcDbText
 10
1290.892951932595
 20
-2748.248139895928
 30
0.0
 40
6.0
  1
i
 50
22.62569170521869
 41
0.8000000000000002
  7
tahoma-b
100
AcDbText
  0
TEXT
  5
400
330
1F
100
AcDbEntity
  8
Ech.1_5
 62
   154
420
    21156
100
AcDbText
 10
1292.665008966178
 20
-2747.509571291673
 30
0.0
 40
5.999999999999999
  1
s
 50
26.39183478797532
 41
0.8000000000000003
  7
tahoma-b
100
AcDbText
  0
TEXT
  5
401
330
1F
100
AcDbEntity
  8
Ech.1_5
 62
   154
420
    21156
100
AcDbText
 10
1266.933289095277
 20
-2735.688020073468
 30
0.0
 40
10.0
  1
E
 50
345.222214497101
 41
0.8
  7
tahoma-b
100
AcDbText
  0
TEXT
  5
402
330
1F
100
AcDbEntity
  8
Ech.1_5
 62
   154
420
    21156
100
AcDbText
 10
1273.172750090241
 20
-2737.33396902895
 30
0.0
 40
10.0
  1
e
 50
359.2406769519218
 41
0.8
  7
tahoma-b
100
AcDbText
  0
TEXT
  5
403
330
1F
100
AcDbEntity
  8
Ech.1_5
 62
   154
420
    21156
100
AcDbText
 10
1279.417973538147
 20
-2737.416739868109
 30
0.0
 40
10.0
  1
2
 50
13.48894999981065
 41
0.8
  7
tahoma-b
100
AcDbText
  0
VIEWPORT
  5
233
330
22D
100
AcDbEntity
 67
     1
  8
0
100
AcDbViewport
 10
98.8
 20
135.8
 30
0.0
 40
209.0608
 41
287.3528000000001
 68
     1
 69
     1
 12
128.5
 22
97.5
 13
0.0
 23
0.0
 14
10.0
 24
10.0
 15
10.0
 25
10.0
 16
0.0
 26
0.0
 36
1.0
 17
0.0
 27
0.0
 37
0.0
 42
50.0
 43
0.0
 44
0.0
 45
222.18
 50
0.0
 51
0.0
 72
   100
 90
   557152
  1

281
     0
 71
     1
 74
     0
110
0.0
120
0.0
130
0.0
111
1.0
121
0.0
131
0.0
112
0.0
122
1.0
132
0.0
 79
     0
146
0.0
170
     0
 61
     5
348
2F
292
     1
282
     1
141
0.0
142
0.0
 63
   256
361
234
  0
VIEWPORT
  5
235
330
22D
100
AcDbEntity
 67
     1
  8
0
 60
     1
100
AcDbViewport
 10
98.8
 20
135.8
 30
0.0
 40
197.6
 41
271.6
 68
     2
 69
     2
 12
1129.636618727212
 22
-2900.046099581818
 13
0.0
 23
0.0
 14
10.0
 24
10.0
 15
10.0
 25
10.0
 16
0.0
 26
0.0
 36
1.0
 17
0.0
 27
0.0
 37
0.0
 42
50.0
 43
0.0
 44
0.0
 45
543.2
 50
0.0
 51
0.0
 72
   100
 90
   557152
  1

281
     0
 71
     1
 74
     0
110
0.0
120
0.0
130
0.0
111
1.0
121
0.0
131
0.0
112
0.0
122
1.0
132
0.0
 79
     0
146
0.0
170
     0
 61
     5
348
2F
292
     1
282
     1
141
0.0
142
0.0
 63
   256
  0
ENDSEC
  0
SECTION
  2
OBJECTS
  0
DICTIONARY
  5
C
330
0
100
AcDbDictionary
281
     1
  3
ACAD_DETAILVIEWSTYLE
350
40B
  3
ACAD_GROUP
350
D
  3
ACAD_IMAGE_DICT
350
255
  3
ACAD_IMAGE_VARS
350
6F
  3
ACAD_LAYOUT
350
1A
  3
ACAD_MATERIAL
350
43
  3
ACAD_MLEADERSTYLE
350
6B
  3
ACAD_MLINESTYLE
350
17
  3
ACAD_PLOTSETTINGS
350
19
  3
ACAD_PLOTSTYLENAME
350
E
  3
ACAD_SCALELIST
350
47
  3
ACAD_SECTIONVIEWSTYLE
350
40C
  3
ACAD_TABLESTYLE
350
69
  3
ACAD_VISUALSTYLE
350
2A
  3
ACDB_RECOMPOSE_DATA
350
408
  3
AcDbVariableDictionary
350
404
  0
SUN
  5
6D
330
29
100
AcDbSun
 90
        1
290
     0
 63
     7
421
 16777215
 40
1.0
291
     1
 91
  2455826
 92
 54000000
292
     0
 70
     2
 71
   256
280
     1
  0
IMAGEDEF_REACTOR
  5
258
330
257
100
AcDbRasterImageDefReactor
 90
        2
330
257
  0
IMAGEDEF_REACTOR
  5
25B
330
25A
100
AcDbRasterImageDefReactor
 90
        2
330
25A
  0
IMAGEDEF_REACTOR
  5
25E
330
25D
100
AcDbRasterImageDefReactor
 90
        2
330
25D
  0
SUN
  5
234
330
233
100
AcDbSun
 90
        1
290
     0
 63
     7
421
 16777215
 40
1.0
291
     1
 91
  2455826
 92
 54000000
292
     0
 70
     2
 71
   256
280
     1
  0
DICTIONARY
  5
40B
102
{ACAD_REACTORS
330
C
102
}
330
C
100
AcDbDictionary
281
     1
  0
DICTIONARY
  5
D
102
{ACAD_REACTORS
330
C
102
}
330
C
100
AcDbDictionary
281
     1
  0
DICTIONARY
  5
255
102
{ACAD_REACTORS
330
C
102
}
330
C
100
AcDbDictionary
281
     1
  3
C:\Users\MAIFFR~1\AppData\Local\Temp\EXE_LOGO_FBF_soutien_Q_L.jpg1
350
259
  3
C:\Users\MAIFFR~1\AppData\Local\Temp\fcba.jpg0
350
256
  3
C:\Users\MAIFFR~1\AppData\Local\Temp\logo_codifab_baseline_soutien.jpg2
350
25C
  0
RASTERVARIABLES
  5
6F
102
{ACAD_REACTORS
330
C
102
}
330
C
100
AcDbRasterVariables
 90
        0
 70
     0
 71
     1
 72
     1
  0
DICTIONARY
  5
1A
102
{ACAD_REACTORS
330
C
102
}
330
C
100
AcDbDictionary
281
     1
  3
CompleteLayout
350
1E
  3
Model
350
22
  3
PrintFrame_44
350
22E
  0
DICTIONARY
  5
43
102
{ACAD_REACTORS
330
C
102
}
330
C
100
AcDbDictionary
281
     1
  3
ByBlock
350
45
  3
ByLayer
350
44
  3
Global
350
46
  0
DICTIONARY
  5
6B
102
{ACAD_REACTORS
330
C
102
}
330
C
100
AcDbDictionary
281
     1
  3
Standard
350
6C
  0
DICTIONARY
  5
17
102
{ACAD_REACTORS
330
C
102
}
330
C
100
AcDbDictionary
281
     1
  3
Standard
350
18
  0
DICTIONARY
  5
19
102
{ACAD_REACTORS
330
C
102
}
330
C
100
AcDbDictionary
281
     1
  3
PlotSettings_
350
231
  0
ACDBDICTIONARYWDFLT
  5
E
102
{ACAD_REACTORS
330
C
102
}
330
C
100
AcDbDictionary
281
     1
  3
Normal
350
F
100
AcDbDictionaryWithDefault
340
F
  0
DICTIONARY
  5
47
102
{ACAD_REACTORS
330
C
102
}
330
C
100
AcDbDictionary
281
     1
  3
A0
350
48
  3
A1
350
49
  3
A2
350
4A
  3
A3
350
4B
  3
A4
350
4C
  3
A5
350
4D
  3
A6
350
4E
  3
A7
350
4F
  3
A8
350
50
  3
A9
350
51
  3
B0
350
52
  3
B1
350
53
  3
B2
350
54
  3
B3
350
55
  3
B4
350
56
  3
B5
350
57
  3
B6
350
58
  3
B7
350
59
  3
B8
350
5A
  3
B9
350
5B
  3
C0
350
5C
  3
C1
350
5D
  3
C2
350
5E
  3
C3
350
5F
  3
C4
350
60
  3
C5
350
61
  3
C6
350
62
  3
C7
350
63
  3
C8
350
64
  3
C9
350
65
  3
D0
350
66
  3
D1
350
67
  3
D2
350
68
  0
DICTIONARY
  5
40C
102
{ACAD_REACTORS
330
C
102
}
330
C
100
AcDbDictionary
281
     1
  0
DICTIONARY
  5
69
102
{ACAD_REACTORS
330
C
102
}
330
C
100
AcDbDictionary
281
     1
  3
Standard
350
6A
  0
DICTIONARY
  5
2A
102
{ACAD_REACTORS
330
C
102
}
330
C
100
AcDbDictionary
281
     1
  3
2dWireframe
350
2F
  3
Basic
350
32
  3
Brighten
350
36
  3
ColorChange
350
3A
  3
Conceptual
350
34
  3
Dim
350
35
  3
EdgeColorOff
350
3D
  3
Facepattern
350
39
  3
Flat
350
2B
  3
FlatWithEdges
350
2C
  3
Gouraud
350
2D
  3
GouraudWithEdges
350
2E
  3
Hidden
350
31
  3
JitterOff
350
3B
  3
Linepattern
350
38
  3
OverhangOff
350
3C
  3
Realistic
350
33
  3
Shaded
350
42
  3
Shaded with edges
350
41
  3
Shades of Gray
350
3E
  3
Sketchy
350
3F
  3
Thicken
350
37
  3
Wireframe
350
30
  3
X-Ray
350
40
  0
XRECORD
  5
408
102
{ACAD_REACTORS
330
C
102
}
330
C
100
AcDbXrecord
280
     1
 90
        1
330
6A
  0
DICTIONARY
  5
404
102
{ACAD_REACTORS
330
C
102
}
330
C
100
AcDbDictionary
281
     1
  3
CANNOSCALE
350
405
  3
CMLEADERSTYLE
350
40A
  3
CTABLESTYLE
350
409
  3
WIPEOUTFRAME
350
40D
  0
IMAGEDEF
  5
259
102
{ACAD_REACTORS
330
255
330
25B
102
}
330
255
100
AcDbRasterImageDef
 90
        0
  1
EXE_LOGO_FBF_soutien_Q_L.jpg
 10
200.0
 20
133.0
 11
0.3527336860670194
 21
0.3527336860670194
280
     1
281
     3
  0
IMAGEDEF
  5
256
102
{ACAD_REACTORS
330
255
330
258
102
}
330
255
100
AcDbRasterImageDef
 90
        0
  1
fcba.jpg
 10
247.0
 20
171.0
 11
0.3527336860670194
 21
0.3527336860670194
280
     1
281
     3
  0
IMAGEDEF
  5
25C
102
{ACAD_REACTORS
330
255
330
25E
102
}
330
255
100
AcDbRasterImageDef
 90
        0
  1
logo_codifab_baseline_soutien.jpg
 10
1326.0
 20
580.0
 11
0.08466683600033867
 21
0.08466683600033867
280
     1
281
     3
  0
LAYOUT
  5
1E
102
{ACAD_REACTORS
330
1A
102
}
330
1A
100
AcDbPlotSettings
  1

  2
none_device
  4

  6

 40
0.0
 41
0.0
 42
0.0
 43
0.0
 44
0.0
 45
0.0
 46
0.0
 47
0.0
 48
0.0
 49
0.0
140
0.0
141
0.0
142
1.0
143
1.0
 70
   688
 72
     0
 73
     0
 74
     5
  7

 75
    16
 76
     0
 77
     2
 78
   300
147
1.0
148
0.0
149
0.0
100
AcDbLayout
  1
CompleteLayout
 70
     1
 71
     1
 10
0.0
 20
0.0
 11
12.0
 21
9.0
 12
0.0
 22
0.0
 32
0.0
 14
1.000000000000000E+20
 24
1.000000000000000E+20
 34
1.000000000000000E+20
 15
-1.000000000000000E+20
 25
-1.000000000000000E+20
 35
-1.000000000000000E+20
146
0.0
 13
0.0
 23
0.0
 33
0.0
 16
1.0
 26
0.0
 36
0.0
 17
0.0
 27
1.0
 37
0.0
 76
     0
330
1B
  0
LAYOUT
  5
22
102
{ACAD_REACTORS
330
1A
102
}
330
1A
100
AcDbPlotSettings
  1

  2
none_device
  4
Letter_(8.50_x_11.00_Inches)
  6

 40
6.35
 41
6.35
 42
6.35000508
 43
6.35000508
 44
215.9
 45
279.4
 46
0.0
 47
0.0
 48
0.0
 49
0.0
140
0.0
141
0.0
142
1.0
143
1.0
 70
  1712
 72
     0
 73
     0
 74
     0
  7

 75
     0
 76
     0
 77
     2
 78
   300
147
1.0
148
0.0
149
0.0
100
AcDbLayout
  1
Model
 70
     1
 71
     0
 10
0.0
 20
0.0
 11
12.0
 21
9.0
 12
0.0
 22
0.0
 32
0.0
 14
932.6366187272117
 24
-3171.046099581818
 34
0.0
 15
1326.636618727215
 25
-2629.046099581818
 35
0.0
146
0.0
 13
0.0
 23
0.0
 33
0.0
 16
1.0
 26
0.0
 36
0.0
 17
0.0
 27
1.0
 37
0.0
 76
     0
330
1F
331
29
  0
LAYOUT
  5
22E
102
{ACAD_REACTORS
330
1A
102
}
330
1A
100
AcDbPlotSettings
  1
PlotSettings_
  2
Custom Device
  4
Custom_210.000000x297.000000_12.700000_12.700000_6.200000_6.200000
  6

 40
6.2
 41
12.7
 42
6.2
 43
12.7
 44
210.0
 45
297.0
 46
0.0
 47
0.0
 48
0.0
 49
0.0
140
0.0
141
0.0
142
1.0
143
1.0
 70
   752
 72
     1
 73
     0
 74
     5
  7

 75
    16
 76
     0
 77
     2
 78
   300
147
1.0
148
0.0
149
0.0
100
AcDbLayout
  1
PrintFrame_44
 70
     0
 71
     2
 10
-20.0
 20
-7.5
 11
277.0
 21
202.5
 12
0.0
 22
0.0
 32
0.0
 14
0.0
 24
0.0
 34
0.0
 15
197.6
 25
271.6
 35
0.0
146
0.0
 13
0.0
 23
0.0
 33
0.0
 16
1.0
 26
0.0
 36
0.0
 17
0.0
 27
1.0
 37
0.0
 76
     0
330
22D
331
233
1001
PLOTTRANSPARENCY
1071
        1
1000
layout-user-created
1070
     1
1000
layout-line-weight-scale
1042
1.0
  0
MATERIAL
  5
45
102
{ACAD_REACTORS
330
43
102
}
330
43
100
AcDbMaterial
  1
ByBlock
 72
     1
 94
      127
  0
MATERIAL
  5
44
102
{ACAD_REACTORS
330
43
102
}
330
43
100
AcDbMaterial
  1
ByLayer
 72
     1
 94
      127
  0
MATERIAL
  5
46
102
{ACAD_REACTORS
330
43
102
}
330
43
100
AcDbMaterial
  1
Global
 72
     1
 94
      127
  0
MLEADERSTYLE
  5
6C
102
{ACAD_REACTORS
330
6B
102
}
330
6B
100
AcDbMLeaderStyle
179
     2
170
     2
171
     1
172
     0
 90
        2
 40
0.0
 41
0.0
173
     1
 91
-1056964608
340
14
 92
       -2
290
     1
 42
0.09
291
     1
 43
0.36
  3
Standard
341
0
 44
0.18
300

342
11
174
     1
178
     6
175
     1
176
     0
 93
-1056964608
 45
0.18
292
     0
297
     0
 46
0.18
343
0
 94
-1056964608
 47
1.0
 49
1.0
140
1.0
293
     1
141
0.0
294
     1
177
     0
142
1.0
295
     0
296
     0
143
0.125
271
     0
272
     9
273
     9
298
     0
  0
MLINESTYLE
  5
18
102
{ACAD_REACTORS
330
17
102
}
330
17
100
AcDbMlineStyle
  2
Standard
 70
     0
  3

 62
   256
 51
90.0
 52
90.0
 71
     2
 49
0.5
 62
   256
  6
BYLAYER
 49
-0.5
 62
   256
  6
BYLAYER
  0
PLOTSETTINGS
  5
231
102
{ACAD_REACTORS
330
19
102
}
330
19
100
AcDbPlotSettings
  1
PlotSettings_
  2
Custom Device
  4
Custom_210.000000x297.000000_12.700000_12.700000_6.200000_6.200000
  6

 40
6.2
 41
12.7
 42
6.2
 43
12.7
 44
210.0
 45
297.0
 46
0.0
 47
0.0
 48
0.0
 49
0.0
140
0.0
141
0.0
142
1.0
143
1.0
 70
   752
 72
     1
 73
     0
 74
     5
  7

 75
    16
 76
     0
 77
     2
 78
   300
147
1.0
148
0.0
149
0.0
1001
PLOTTRANSPARENCY
1071
        1
1000
layout-user-created
1070
     1
1000
layout-line-weight-scale
1042
1.0
  0
ACDBPLACEHOLDER
  5
F
102
{ACAD_REACTORS
330
E
102
}
330
E
  0
SCALE
  5
48
102
{ACAD_REACTORS
330
47
102
}
330
47
100
AcDbScale
 70
     0
300
1:1
140
1.0
141
1.0
290
     1
  0
SCALE
  5
49
102
{ACAD_REACTORS
330
47
102
}
330
47
100
AcDbScale
 70
     0
300
1:2
140
1.0
141
2.0
290
     0
  0
SCALE
  5
4A
102
{ACAD_REACTORS
330
47
102
}
330
47
100
AcDbScale
 70
     0
300
1:4
140
1.0
141
4.0
290
     0
  0
SCALE
  5
4B
102
{ACAD_REACTORS
330
47
102
}
330
47
100
AcDbScale
 70
     0
300
1:5
140
1.0
141
5.0
290
     0
  0
SCALE
  5
4C
102
{ACAD_REACTORS
330
47
102
}
330
47
100
AcDbScale
 70
     0
300
1:8
140
1.0
141
8.0
290
     0
  0
SCALE
  5
4D
102
{ACAD_REACTORS
330
47
102
}
330
47
100
AcDbScale
 70
     0
300
1:10
140
1.0
141
10.0
290
     0
  0
SCALE
  5
4E
102
{ACAD_REACTORS
330
47
102
}
330
47
100
AcDbScale
 70
     0
300
1:16
140
1.0
141
16.0
290
     0
  0
SCALE
  5
4F
102
{ACAD_REACTORS
330
47
102
}
330
47
100
AcDbScale
 70
     0
300
1:20
140
1.0
141
20.0
290
     0
  0
SCALE
  5
50
102
{ACAD_REACTORS
330
47
102
}
330
47
100
AcDbScale
 70
     0
300
1:30
140
1.0
141
30.0
290
     0
  0
SCALE
  5
51
102
{ACAD_REACTORS
330
47
102
}
330
47
100
AcDbScale
 70
     0
300
1:40
140
1.0
141
40.0
290
     0
  0
SCALE
  5
52
102
{ACAD_REACTORS
330
47
102
}
330
47
100
AcDbScale
 70
     0
300
1:50
140
1.0
141
50.0
290
     0
  0
SCALE
  5
53
102
{ACAD_REACTORS
330
47
102
}
330
47
100
AcDbScale
 70
     0
300
1:100
140
1.0
141
100.0
290
     0
  0
SCALE
  5
54
102
{ACAD_REACTORS
330
47
102
}
330
47
100
AcDbScale
 70
     0
300
2:1
140
2.0
141
1.0
290
     0
  0
SCALE
  5
55
102
{ACAD_REACTORS
330
47
102
}
330
47
100
AcDbScale
 70
     0
300
4:1
140
4.0
141
1.0
290
     0
  0
SCALE
  5
56
102
{ACAD_REACTORS
330
47
102
}
330
47
100
AcDbScale
 70
     0
300
8:1
140
8.0
141
1.0
290
     0
  0
SCALE
  5
57
102
{ACAD_REACTORS
330
47
102
}
330
47
100
AcDbScale
 70
     0
300
10:1
140
10.0
141
1.0
290
     0
  0
SCALE
  5
58
102
{ACAD_REACTORS
330
47
102
}
330
47
100
AcDbScale
 70
     0
300
100:1
140
100.0
141
1.0
290
     0
  0
SCALE
  5
59
102
{ACAD_REACTORS
330
47
102
}
330
47
100
AcDbScale
 70
     0
300
1/128" = 1'-0"
140
0.0078125
141
12.0
290
     0
  0
SCALE
  5
5A
102
{ACAD_REACTORS
330
47
102
}
330
47
100
AcDbScale
 70
     0
300
1/64" = 1'-0"
140
0.015625
141
12.0
290
     0
  0
SCALE
  5
5B
102
{ACAD_REACTORS
330
47
102
}
330
47
100
AcDbScale
 70
     0
300
1/32" = 1'-0"
140
0.03125
141
12.0
290
     0
  0
SCALE
  5
5C
102
{ACAD_REACTORS
330
47
102
}
330
47
100
AcDbScale
 70
     0
300
1/16" = 1'-0"
140
0.0625
141
12.0
290
     0
  0
SCALE
  5
5D
102
{ACAD_REACTORS
330
47
102
}
330
47
100
AcDbScale
 70
     0
300
3/32" = 1'-0"
140
0.09375
141
12.0
290
     0
  0
SCALE
  5
5E
102
{ACAD_REACTORS
330
47
102
}
330
47
100
AcDbScale
 70
     0
300
1/8" = 1'-0"
140
0.125
141
12.0
290
     0
  0
SCALE
  5
5F
102
{ACAD_REACTORS
330
47
102
}
330
47
100
AcDbScale
 70
     0
300
3/16" = 1'-0"
140
0.1875
141
12.0
290
     0
  0
SCALE
  5
60
102
{ACAD_REACTORS
330
47
102
}
330
47
100
AcDbScale
 70
     0
300
1/4" = 1'-0"
140
0.25
141
12.0
290
     0
  0
SCALE
  5
61
102
{ACAD_REACTORS
330
47
102
}
330
47
100
AcDbScale
 70
     0
300
3/8" = 1'-0"
140
0.375
141
12.0
290
     0
  0
SCALE
  5
62
102
{ACAD_REACTORS
330
47
102
}
330
47
100
AcDbScale
 70
     0
300
1/2" = 1'-0"
140
0.5
141
12.0
290
     0
  0
SCALE
  5
63
102
{ACAD_REACTORS
330
47
102
}
330
47
100
AcDbScale
 70
     0
300
3/4" = 1'-0"
140
0.75
141
12.0
290
     0
  0
SCALE
  5
64
102
{ACAD_REACTORS
330
47
102
}
330
47
100
AcDbScale
 70
     0
300
1" = 1'-0"
140
1.0
141
12.0
290
     0
  0
SCALE
  5
65
102
{ACAD_REACTORS
330
47
102
}
330
47
100
AcDbScale
 70
     0
300
1-1/2" = 1'-0"
140
1.5
141
12.0
290
     0
  0
SCALE
  5
66
102
{ACAD_REACTORS
330
47
102
}
330
47
100
AcDbScale
 70
     0
300
3" = 1'-0"
140
3.0
141
12.0
290
     0
  0
SCALE
  5
67
102
{ACAD_REACTORS
330
47
102
}
330
47
100
AcDbScale
 70
     0
300
6" = 1'-0"
140
6.0
141
12.0
290
     0
  0
SCALE
  5
68
102
{ACAD_REACTORS
330
47
102
}
330
47
100
AcDbScale
 70
     0
300
1'-0" = 1'-0"
140
12.0
141
12.0
290
     0
  0
TABLESTYLE
  5
6A
102
{ACAD_REACTORS
330
69
102
}
102
{ACAD_XDICTIONARY
360
406
102
}
330
69
100
AcDbTableStyle
  3
Standard
 70
     0
 71
     0
 40
0.06
 41
0.06
280
     0
281
     0
  7
Standard
140
0.18
170
     2
 62
     0
 63
   257
283
     0
 90
        4
 91
        0
  1

274
    -2
284
     1
 64
     0
275
    -2
285
     1
 65
     0
276
    -2
286
     1
 66
     0
277
    -2
287
     1
 67
     0
278
    -2
288
     1
 68
     0
279
    -2
289
     1
 69
     0
  7
Standard
140
0.25
170
     5
 62
     0
 63
   257
283
     0
 90
        4
 91
        0
  1

274
    -2
284
     1
 64
     0
275
    -2
285
     1
 65
     0
276
    -2
286
     1
 66
     0
277
    -2
287
     1
 67
     0
278
    -2
288
     1
 68
     0
279
    -2
289
     1
 69
     0
  7
Standard
140
0.18
170
     5
 62
     0
 63
   257
283
     0
 90
        4
 91
        0
  1

274
    -2
284
     1
 64
     0
275
    -2
285
     1
 65
     0
276
    -2
286
     1
 66
     0
277
    -2
287
     1
 67
     0
278
    -2
288
     1
 68
     0
279
    -2
289
     1
 69
     0
  0
VISUALSTYLE
  5
2F
102
{ACAD_REACTORS
330
2A
102
}
330
2A
100
AcDbVisualStyle
  2
2dWireframe
 70
     4
177
     3
291
     0
 70
    58
 90
        0
176
     1
 90
        2
176
     1
 90
        0
176
     1
 90
        0
176
     1
 40
0.6
176
     1
 40
30.0
176
     1
 62
     7
420
 16777215
176
     1
 90
        1
176
     1
 90
        4
176
     1
 62
     7
176
     1
 62
   257
176
     1
 90
        1
176
     1
 90
        1
176
     1
 40
1.0
176
     1
 90
        0
176
     1
 62
   257
176
     1
 40
1.0
176
     1
 90
        1
176
     1
 90
        6
176
     1
 90
        2
176
     1
 62
     7
176
     1
 90
        5
176
     1
 90
        0
176
     1
 90
        0
176
     1
290
     0
176
     1
 90
        1
176
     1
 40
0.0
176
     1
 90
        0
176
     1
290
     1
176
     1
290
     1
176
     1
290
     0
176
     1
290
     0
176
     1
290
     0
176
     1
290
     0
176
     1
290
     0
176
     1
290
     0
176
     1
290
     0
176
     1
 90
       50
176
     1
 40
0.0
176
     1
 40
1.0
176
     1
 90
        0
176
     1
 62
    18
420
        0
176
     1
 90
       50
176
     1
 90
        3
176
     1
 62
     5
420
      255
176
     1
290
     0
176
     1
 90
       50
176
     1
 90
       50
176
     1
 90
       50
176
     1
290
     0
176
     1
 90
       50
176
     1
 62
   256
176
     0
 40
1.0
176
     0
 90
        2
176
     1
  1
strokes_ogs.tif
176
     1
290
     0
176
     1
 40
1.0
176
     1
 40
1.0
176
     1
  0
VISUALSTYLE
  5
32
102
{ACAD_REACTORS
330
2A
102
}
330
2A
100
AcDbVisualStyle
  2
Basic
 70
     7
177
     3
291
     1
 70
    58
 90
        1
176
     1
 90
        0
176
     1
 90
        1
176
     1
 90
        0
176
     1
 40
0.6
176
     1
 40
30.0
176
     1
 62
     7
420
 16777215
176
     1
 90
        0
176
     1
 90
        4
176
     1
 62
     7
176
     1
 62
   257
176
     1
 90
        1
176
     1
 90
        1
176
     1
 40
1.0
176
     1
 90
        8
176
     1
 62
     7
176
     1
 40
1.0
176
     1
 90
        1
176
     1
 90
        6
176
     1
 90
        2
176
     1
 62
     7
176
     1
 90
        5
176
     1
 90
        0
176
     1
 90
        0
176
     1
290
     0
176
     1
 90
        1
176
     1
 40
0.0
176
     1
 90
        0
176
     1
290
     0
176
     1
290
     1
176
     1
290
     1
176
     1
290
     0
176
     1
290
     0
176
     1
290
     0
176
     1
290
     0
176
     1
290
     0
176
     1
290
     0
176
     1
 90
       50
176
     1
 40
0.0
176
     1
 40
1.0
176
     1
 90
        0
176
     1
 62
    18
420
        0
176
     1
 90
       50
176
     1
 90
        3
176
     1
 62
     5
420
      255
176
     1
290
     0
176
     1
 90
       50
176
     1
 90
       50
176
     1
 90
       50
176
     1
290
     0
176
     1
 90
       50
176
     1
 62
   256
176
     0
 40
1.0
176
     0
 90
        2
176
     1
  1
strokes_ogs.tif
176
     1
290
     0
176
     1
 40
1.0
176
     1
 40
1.0
176
     1
  0
VISUALSTYLE
  5
36
102
{ACAD_REACTORS
330
2A
102
}
330
2A
100
AcDbVisualStyle
  2
Brighten
 70
    12
177
     3
291
     1
 70
    58
 90
        2
176
     1
 90
        2
176
     1
 90
        0
176
     1
 90
        0
176
     1
 40
0.6
176
     1
 40
30.0
176
     1
 62
     7
420
 16777215
176
     1
 90
        1
176
     1
 90
        4
176
     1
 62
     7
176
     1
 62
   257
176
     1
 90
        1
176
     1
 90
        1
176
     1
 40
1.0
176
     1
 90
        8
176
     1
 62
     7
176
     1
 40
1.0
176
     1
 90
        1
176
     1
 90
        6
176
     1
 90
        2
176
     1
 62
     7
176
     1
 90
        5
176
     1
 90
        0
176
     1
 90
        0
176
     1
290
     0
176
     1
 90
        1
176
     1
 40
50.0
176
     1
 90
        0
176
     1
290
     0
176
     1
290
     1
176
     1
290
     1
176
     1
290
     0
176
     1
290
     0
176
     1
290
     0
176
     1
290
     0
176
     1
290
     0
176
     1
290
     0
176
     1
 90
       50
176
     1
 40
0.0
176
     1
 40
1.0
176
     1
 90
        0
176
     1
 62
    18
420
        0
176
     1
 90
       50
176
     1
 90
        3
176
     1
 62
     5
420
      255
176
     1
290
     0
176
     1
 90
       50
176
     1
 90
       50
176
     1
 90
       50
176
     1
290
     0
176
     1
 90
       50
176
     1
 62
   256
176
     0
 40
1.0
176
     0
 90
        2
176
     1
  1
strokes_ogs.tif
176
     1
290
     0
176
     1
 40
1.0
176
     1
 40
1.0
176
     1
  0
VISUALSTYLE
  5
3A
102
{ACAD_REACTORS
330
2A
102
}
330
2A
100
AcDbVisualStyle
  2
ColorChange
 70
    16
177
     3
291
     1
 70
    58
 90
        2
176
     1
 90
        2
176
     1
 90
        3
176
     1
 90
        0
176
     1
 40
0.6
176
     1
 40
30.0
176
     1
 62
     8
420
  8421504
176
     1
 90
        1
176
     1
 90
        4
176
     1
 62
     7
176
     1
 62
   257
176
     1
 90
        1
176
     1
 90
        1
176
     1
 40
1.0
176
     1
 90
        8
176
     1
 62
     8
420
  8421504
176
     1
 40
1.0
176
     1
 90
        1
176
     1
 90
        6
176
     1
 90
        2
176
     1
 62
     7
176
     1
 90
        5
176
     1
 90
        0
176
     1
 90
        0
176
     1
290
     0
176
     1
 90
        1
176
     1
 40
0.0
176
     1
 90
        0
176
     1
290
     0
176
     1
290
     1
176
     1
290
     1
176
     1
290
     0
176
     1
290
     0
176
     1
290
     0
176
     1
290
     0
176
     1
290
     0
176
     1
290
     0
176
     1
 90
       50
176
     1
 40
0.0
176
     1
 40
1.0
176
     1
 90
        0
176
     1
 62
    18
420
        0
176
     1
 90
       50
176
     1
 90
        3
176
     1
 62
     5
420
      255
176
     1
290
     0
176
     1
 90
       50
176
     1
 90
       50
176
     1
 90
       50
176
     1
290
     0
176
     1
 90
       50
176
     1
 62
   256
176
     0
 40
1.0
176
     0
 90
        2
176
     1
  1
strokes_ogs.tif
176
     1
290
     0
176
     1
 40
1.0
176
     1
 40
1.0
176
     1
  0
VISUALSTYLE
  5
34
102
{ACAD_REACTORS
330
2A
102
}
330
2A
100
AcDbVisualStyle
  2
Conceptual
 70
     9
177
     3
291
     0
 70
    58
 90
        3
176
     1
 90
        2
176
     1
 90
        0
176
     1
 90
        0
176
     1
 40
0.6
176
     1
 40
30.0
176
     1
 62
     7
420
 16777215
176
     1
 90
        2
176
     1
 90
        2
176
     1
 62
     7
176
     1
 62
   257
176
     1
 90
        1
176
     1
 90
        1
176
     1
 40
179.0
176
     1
 90
        8
176
     1
 62
     7
176
     1
 40
1.0
176
     1
 90
        1
176
     1
 90
        6
176
     1
 90
        2
176
     1
 62
     7
176
     1
 90
        3
176
     1
 90
        0
176
     1
 90
        0
176
     1
290
     0
176
     1
 90
        1
176
     1
 40
0.0
176
     1
 90
        0
176
     1
290
     0
176
     1
290
     1
176
     1
290
     1
176
     1
290
     0
176
     1
290
     0
176
     1
290
     0
176
     1
290
     0
176
     1
290
     0
176
     1
290
     0
176
     1
 90
       50
176
     1
 40
0.0
176
     1
 40
1.0
176
     1
 90
        0
176
     1
 62
    18
420
        0
176
     1
 90
       50
176
     1
 90
        3
176
     1
 62
     5
420
      255
176
     1
290
     0
176
     1
 90
       50
176
     1
 90
       50
176
     1
 90
       50
176
     1
290
     0
176
     1
 90
       50
176
     1
 62
   256
176
     0
 40
1.0
176
     0
 90
        2
176
     1
  1
strokes_ogs.tif
176
     1
290
     0
176
     1
 40
1.0
176
     1
 40
1.0
176
     1
  0
VISUALSTYLE
  5
35
102
{ACAD_REACTORS
330
2A
102
}
330
2A
100
AcDbVisualStyle
  2
Dim
 70
    11
177
     3
291
     1
 70
    58
 90
        2
176
     1
 90
        2
176
     1
 90
        0
176
     1
 90
        0
176
     1
 40
0.6
176
     1
 40
30.0
176
     1
 62
     7
420
 16777215
176
     1
 90
        1
176
     1
 90
        4
176
     1
 62
     7
176
     1
 62
   257
176
     1
 90
        1
176
     1
 90
        1
176
     1
 40
1.0
176
     1
 90
        8
176
     1
 62
     7
176
     1
 40
1.0
176
     1
 90
        1
176
     1
 90
        6
176
     1
 90
        2
176
     1
 62
     7
176
     1
 90
        5
176
     1
 90
        0
176
     1
 90
        0
176
     1
290
     0
176
     1
 90
        1
176
     1
 40
-50.0
176
     1
 90
        0
176
     1
290
     0
176
     1
290
     1
176
     1
290
     1
176
     1
290
     0
176
     1
290
     0
176
     1
290
     0
176
     1
290
     0
176
     1
290
     0
176
     1
290
     0
176
     1
 90
       50
176
     1
 40
0.0
176
     1
 40
1.0
176
     1
 90
        0
176
     1
 62
    18
420
        0
176
     1
 90
       50
176
     1
 90
        3
176
     1
 62
     5
420
      255
176
     1
290
     0
176
     1
 90
       50
176
     1
 90
       50
176
     1
 90
       50
176
     1
290
     0
176
     1
 90
       50
176
     1
 62
   256
176
     0
 40
1.0
176
     0
 90
        2
176
     1
  1
strokes_ogs.tif
176
     1
290
     0
176
     1
 40
1.0
176
     1
 40
1.0
176
     1
  0
VISUALSTYLE
  5
3D
102
{ACAD_REACTORS
330
2A
102
}
330
2A
100
AcDbVisualStyle
  2
EdgeColorOff
 70
    22
177
     3
291
     1
 70
    58
 90
        2
176
     0
 90
        2
176
     0
 90
        0
176
     0
 90
        0
176
     0
 40
0.6
176
     0
 40
30.0
176
     0
 62
     7
420
 16777215
176
     0
 90
        1
176
     0
 90
        4
176
     0
 62
     7
176
     0
 62
   257
176
     0
 90
        1
176
     0
 90
        1
176
     0
 40
1.0
176
     0
 90
        8
176
     2
 62
     7
176
     0
 40
1.0
176
     0
 90
        1
176
     0
 90
        6
176
     0
 90
        2
176
     0
 62
     7
176
     0
 90
        5
176
     0
 90
        0
176
     0
 90
        0
176
     0
290
     0
176
     0
 90
        1
176
     0
 40
0.0
176
     0
 90
        0
176
     0
290
     0
176
     0
290
     1
176
     0
290
     1
176
     0
290
     0
176
     0
290
     0
176
     0
290
     0
176
     0
290
     0
176
     0
290
     0
176
     0
290
     0
176
     0
 90
       50
176
     0
 40
0.0
176
     0
 40
1.0
176
     0
 90
        0
176
     0
 62
    18
420
        0
176
     0
 90
       50
176
     0
 90
        3
176
     0
 62
     5
420
      255
176
     0
290
     0
176
     0
 90
       50
176
     0
 90
       50
176
     0
 90
       50
176
     0
290
     0
176
     0
 90
       50
176
     0
 62
   256
176
     0
 40
1.0
176
     0
 90
        2
176
     0
  1
strokes_ogs.tif
176
     0
290
     0
176
     0
 40
1.0
176
     0
 40
1.0
176
     0
  0
VISUALSTYLE
  5
39
102
{ACAD_REACTORS
330
2A
102
}
330
2A
100
AcDbVisualStyle
  2
Facepattern
 70
    15
177
     3
291
     1
 70
    58
 90
        2
176
     1
 90
        2
176
     1
 90
        0
176
     1
 90
        0
176
     1
 40
0.6
176
     1
 40
30.0
176
     1
 62
     7
420
 16777215
176
     1
 90
        1
176
     1
 90
        4
176
     1
 62
     7
176
     1
 62
   257
176
     1
 90
        1
176
     1
 90
        1
176
     1
 40
1.0
176
     1
 90
        8
176
     1
 62
     7
176
     1
 40
1.0
176
     1
 90
        1
176
     1
 90
        6
176
     1
 90
        2
176
     1
 62
     7
176
     1
 90
        5
176
     1
 90
        0
176
     1
 90
        0
176
     1
290
     0
176
     1
 90
        1
176
     1
 40
0.0
176
     1
 90
        0
176
     1
290
     0
176
     1
290
     1
176
     1
290
     1
176
     1
290
     0
176
     1
290
     0
176
     1
290
     0
176
     1
290
     0
176
     1
290
     0
176
     1
290
     0
176
     1
 90
       50
176
     1
 40
0.0
176
     1
 40
1.0
176
     1
 90
        0
176
     1
 62
    18
420
        0
176
     1
 90
       50
176
     1
 90
        3
176
     1
 62
     5
420
      255
176
     1
290
     0
176
     1
 90
       50
176
     1
 90
       50
176
     1
 90
       50
176
     1
290
     0
176
     1
 90
       50
176
     1
 62
   256
176
     0
 40
1.0
176
     0
 90
        2
176
     1
  1
strokes_ogs.tif
176
     1
290
     0
176
     1
 40
1.0
176
     1
 40
1.0
176
     1
  0
VISUALSTYLE
  5
2B
102
{ACAD_REACTORS
330
2A
102
}
330
2A
100
AcDbVisualStyle
  2
Flat
 70
     0
177
     3
291
     1
 70
    58
 90
        2
176
     1
 90
        1
176
     1
 90
        1
176
     1
 90
        2
176
     1
 40
0.6
176
     1
 40
30.0
176
     1
 62
     7
420
 16777215
176
     1
 90
        0
176
     1
 90
        0
176
     1
 62
     7
176
     1
 62
   257
176
     1
 90
        1
176
     1
 90
        1
176
     1
 40
1.0
176
     1
 90
        8
176
     1
 62
     7
176
     1
 40
1.0
176
     1
 90
        1
176
     1
 90
        6
176
     1
 90
        2
176
     1
 62
     7
176
     1
 90
        5
176
     1
 90
        0
176
     1
 90
        0
176
     1
290
     0
176
     1
 90
       13
176
     1
 40
0.0
176
     1
 90
        0
176
     1
290
     0
176
     1
290
     1
176
     1
290
     1
176
     1
290
     0
176
     1
290
     0
176
     1
290
     0
176
     1
290
     0
176
     1
290
     0
176
     1
290
     0
176
     1
 90
       50
176
     1
 40
0.0
176
     1
 40
1.0
176
     1
 90
        0
176
     1
 62
    18
420
        0
176
     1
 90
       50
176
     1
 90
        3
176
     1
 62
     5
420
      255
176
     1
290
     0
176
     1
 90
       50
176
     1
 90
       50
176
     1
 90
       50
176
     1
290
     0
176
     1
 90
       50
176
     1
 62
   256
176
     0
 40
1.0
176
     0
 90
        2
176
     1
  1
strokes_ogs.tif
176
     1
290
     0
176
     1
 40
1.0
176
     1
 40
1.0
176
     1
  0
VISUALSTYLE
  5
2C
102
{ACAD_REACTORS
330
2A
102
}
330
2A
100
AcDbVisualStyle
  2
FlatWithEdges
 70
     1
177
     3
291
     1
 70
    58
 90
        2
176
     1
 90
        1
176
     1
 90
        1
176
     1
 90
        2
176
     1
 40
0.6
176
     1
 40
30.0
176
     1
 62
     7
420
 16777215
176
     1
 90
        1
176
     1
 90
        0
176
     1
 62
     7
176
     1
 62
   257
176
     1
 90
        1
176
     1
 90
        1
176
     1
 40
1.0
176
     1
 90
        0
176
     1
 62
   257
176
     1
 40
1.0
176
     1
 90
        1
176
     1
 90
        6
176
     1
 90
        2
176
     1
 62
     7
176
     1
 90
        5
176
     1
 90
        0
176
     1
 90
        0
176
     1
290
     0
176
     1
 90
       13
176
     1
 40
0.0
176
     1
 90
        0
176
     1
290
     0
176
     1
290
     1
176
     1
290
     1
176
     1
290
     0
176
     1
290
     0
176
     1
290
     0
176
     1
290
     0
176
     1
290
     0
176
     1
290
     0
176
     1
 90
       50
176
     1
 40
0.0
176
     1
 40
1.0
176
     1
 90
        0
176
     1
 62
    18
420
        0
176
     1
 90
       50
176
     1
 90
        3
176
     1
 62
     5
420
      255
176
     1
290
     0
176
     1
 90
       50
176
     1
 90
       50
176
     1
 90
       50
176
     1
290
     0
176
     1
 90
       50
176
     1
 62
   256
176
     0
 40
1.0
176
     0
 90
        2
176
     1
  1
strokes_ogs.tif
176
     1
290
     0
176
     1
 40
1.0
176
     1
 40
1.0
176
     1
  0
VISUALSTYLE
  5
2D
102
{ACAD_REACTORS
330
2A
102
}
330
2A
100
AcDbVisualStyle
  2
Gouraud
 70
     2
177
     3
291
     1
 70
    58
 90
        2
176
     1
 90
        2
176
     1
 90
        1
176
     1
 90
        2
176
     1
 40
0.6
176
     1
 40
30.0
176
     1
 62
     7
420
 16777215
176
     1
 90
        0
176
     1
 90
        0
176
     1
 62
     7
176
     1
 62
   257
176
     1
 90
        1
176
     1
 90
        1
176
     1
 40
1.0
176
     1
 90
        0
176
     1
 62
     7
176
     1
 40
1.0
176
     1
 90
        1
176
     1
 90
        6
176
     1
 90
        2
176
     1
 62
     7
176
     1
 90
        5
176
     1
 90
        0
176
     1
 90
        0
176
     1
290
     0
176
     1
 90
       13
176
     1
 40
0.0
176
     1
 90
        0
176
     1
290
     0
176
     1
290
     1
176
     1
290
     1
176
     1
290
     0
176
     1
290
     0
176
     1
290
     0
176
     1
290
     0
176
     1
290
     0
176
     1
290
     0
176
     1
 90
       50
176
     1
 40
0.0
176
     1
 40
1.0
176
     1
 90
        0
176
     1
 62
    18
420
        0
176
     1
 90
       50
176
     1
 90
        3
176
     1
 62
     5
420
      255
176
     1
290
     0
176
     1
 90
       50
176
     1
 90
       50
176
     1
 90
       50
176
     1
290
     0
176
     1
 90
       50
176
     1
 62
   256
176
     0
 40
1.0
176
     0
 90
        2
176
     1
  1
strokes_ogs.tif
176
     1
290
     0
176
     1
 40
1.0
176
     1
 40
1.0
176
     1
  0
VISUALSTYLE
  5
2E
102
{ACAD_REACTORS
330
2A
102
}
330
2A
100
AcDbVisualStyle
  2
GouraudWithEdges
 70
     3
177
     3
291
     1
 70
    58
 90
        2
176
     1
 90
        2
176
     1
 90
        1
176
     1
 90
        2
176
     1
 40
0.6
176
     1
 40
30.0
176
     1
 62
     7
420
 16777215
176
     1
 90
        1
176
     1
 90
        0
176
     1
 62
     7
176
     1
 62
   257
176
     1
 90
        1
176
     1
 90
        1
176
     1
 40
1.0
176
     1
 90
        0
176
     1
 62
   257
176
     1
 40
1.0
176
     1
 90
        1
176
     1
 90
        6
176
     1
 90
        2
176
     1
 62
     7
176
     1
 90
        5
176
     1
 90
        0
176
     1
 90
        0
176
     1
290
     0
176
     1
 90
       13
176
     1
 40
0.0
176
     1
 90
        0
176
     1
290
     0
176
     1
290
     1
176
     1
290
     1
176
     1
290
     0
176
     1
290
     0
176
     1
290
     0
176
     1
290
     0
176
     1
290
     0
176
     1
290
     0
176
     1
 90
       50
176
     1
 40
0.0
176
     1
 40
1.0
176
     1
 90
        0
176
     1
 62
    18
420
        0
176
     1
 90
       50
176
     1
 90
        3
176
     1
 62
     5
420
      255
176
     1
290
     0
176
     1
 90
       50
176
     1
 90
       50
176
     1
 90
       50
176
     1
290
     0
176
     1
 90
       50
176
     1
 62
   256
176
     0
 40
1.0
176
     0
 90
        2
176
     1
  1
strokes_ogs.tif
176
     1
290
     0
176
     1
 40
1.0
176
     1
 40
1.0
176
     1
  0
VISUALSTYLE
  5
31
102
{ACAD_REACTORS
330
2A
102
}
330
2A
100
AcDbVisualStyle
  2
Hidden
 70
     6
177
     3
291
     0
 70
    58
 90
        1
176
     1
 90
        2
176
     1
 90
        2
176
     1
 90
        0
176
     1
 40
0.6
176
     1
 40
30.0
176
     1
 62
     7
420
 16777215
176
     1
 90
        2
176
     1
 90
        2
176
     1
 62
     7
176
     1
 62
   257
176
     1
 90
        2
176
     1
 90
        1
176
     1
 40
40.0
176
     1
 90
        0
176
     1
 62
   257
176
     1
 40
1.0
176
     1
 90
        1
176
     1
 90
        6
176
     1
 90
        2
176
     1
 62
     7
176
     1
 90
        3
176
     1
 90
        0
176
     1
 90
        0
176
     1
290
     0
176
     1
 90
        1
176
     1
 40
0.0
176
     1
 90
        0
176
     1
290
     0
176
     1
290
     1
176
     1
290
     1
176
     1
290
     0
176
     1
290
     0
176
     1
290
     0
176
     1
290
     0
176
     1
290
     0
176
     1
290
     0
176
     1
 90
       50
176
     1
 40
0.0
176
     1
 40
1.0
176
     1
 90
        0
176
     1
 62
    18
420
        0
176
     1
 90
       50
176
     1
 90
        3
176
     1
 62
     5
420
      255
176
     1
290
     0
176
     1
 90
       50
176
     1
 90
       50
176
     1
 90
       50
176
     1
290
     0
176
     1
 90
       50
176
     1
 62
   256
176
     0
 40
1.0
176
     0
 90
        2
176
     1
  1
strokes_ogs.tif
176
     1
290
     0
176
     1
 40
1.0
176
     1
 40
1.0
176
     1
  0
VISUALSTYLE
  5
3B
102
{ACAD_REACTORS
330
2A
102
}
330
2A
100
AcDbVisualStyle
  2
JitterOff
 70
    20
177
     3
291
     1
 70
    58
 90
        2
176
     0
 90
        2
176
     0
 90
        0
176
     0
 90
        0
176
     0
 40
0.6
176
     0
 40
30.0
176
     0
 62
     7
420
 16777215
176
     0
 90
        1
176
     0
 90
        4
176
     0
 62
     7
176
     0
 62
   257
176
     0
 90
        1
176
     0
 90
        1
176
     0
 40
1.0
176
     0
 90
       10
176
     2
 62
     7
176
     0
 40
1.0
176
     0
 90
        1
176
     0
 90
        6
176
     0
 90
        2
176
     0
 62
     7
176
     0
 90
        5
176
     0
 90
        0
176
     0
 90
        0
176
     0
290
     0
176
     0
 90
        1
176
     0
 40
0.0
176
     0
 90
        0
176
     0
290
     0
176
     0
290
     1
176
     0
290
     1
176
     0
290
     0
176
     0
290
     0
176
     0
290
     0
176
     0
290
     0
176
     0
290
     0
176
     0
290
     0
176
     0
 90
       50
176
     0
 40
0.0
176
     0
 40
1.0
176
     0
 90
        0
176
     0
 62
    18
420
        0
176
     0
 90
       50
176
     0
 90
        3
176
     0
 62
     5
420
      255
176
     0
290
     0
176
     0
 90
       50
176
     0
 90
       50
176
     0
 90
       50
176
     0
290
     0
176
     0
 90
       50
176
     0
 62
   256
176
     0
 40
1.0
176
     0
 90
        2
176
     0
  1
strokes_ogs.tif
176
     0
290
     0
176
     0
 40
1.0
176
     0
 40
1.0
176
     0
  0
VISUALSTYLE
  5
38
102
{ACAD_REACTORS
330
2A
102
}
330
2A
100
AcDbVisualStyle
  2
Linepattern
 70
    14
177
     3
291
     1
 70
    58
 90
        2
176
     1
 90
        2
176
     1
 90
        0
176
     1
 90
        0
176
     1
 40
0.6
176
     1
 40
30.0
176
     1
 62
     7
420
 16777215
176
     1
 90
        1
176
     1
 90
        4
176
     1
 62
     7
176
     1
 62
   257
176
     1
 90
        7
176
     1
 90
        7
176
     1
 40
1.0
176
     1
 90
        8
176
     1
 62
     7
176
     1
 40
1.0
176
     1
 90
        1
176
     1
 90
        6
176
     1
 90
        2
176
     1
 62
     7
176
     1
 90
        5
176
     1
 90
        0
176
     1
 90
        0
176
     1
290
     0
176
     1
 90
        1
176
     1
 40
0.0
176
     1
 90
        0
176
     1
290
     0
176
     1
290
     1
176
     1
290
     1
176
     1
290
     0
176
     1
290
     0
176
     1
290
     0
176
     1
290
     0
176
     1
290
     0
176
     1
290
     0
176
     1
 90
       50
176
     1
 40
0.0
176
     1
 40
1.0
176
     1
 90
        0
176
     1
 62
    18
420
        0
176
     1
 90
       50
176
     1
 90
        3
176
     1
 62
     5
420
      255
176
     1
290
     0
176
     1
 90
       50
176
     1
 90
       50
176
     1
 90
       50
176
     1
290
     0
176
     1
 90
       50
176
     1
 62
   256
176
     0
 40
1.0
176
     0
 90
        2
176
     1
  1
strokes_ogs.tif
176
     1
290
     0
176
     1
 40
1.0
176
     1
 40
1.0
176
     1
  0
VISUALSTYLE
  5
3C
102
{ACAD_REACTORS
330
2A
102
}
330
2A
100
AcDbVisualStyle
  2
OverhangOff
 70
    21
177
     3
291
     1
 70
    58
 90
        2
176
     0
 90
        2
176
     0
 90
        0
176
     0
 90
        0
176
     0
 40
0.6
176
     0
 40
30.0
176
     0
 62
     7
420
 16777215
176
     0
 90
        1
176
     0
 90
        4
176
     0
 62
     7
176
     0
 62
   257
176
     0
 90
        1
176
     0
 90
        1
176
     0
 40
1.0
176
     0
 90
        9
176
     2
 62
     7
176
     0
 40
1.0
176
     0
 90
        1
176
     0
 90
        6
176
     0
 90
        2
176
     0
 62
     7
176
     0
 90
        5
176
     0
 90
        0
176
     0
 90
        0
176
     0
290
     0
176
     0
 90
        1
176
     0
 40
0.0
176
     0
 90
        0
176
     0
290
     0
176
     0
290
     1
176
     0
290
     1
176
     0
290
     0
176
     0
290
     0
176
     0
290
     0
176
     0
290
     0
176
     0
290
     0
176
     0
290
     0
176
     0
 90
       50
176
     0
 40
0.0
176
     0
 40
1.0
176
     0
 90
        0
176
     0
 62
    18
420
        0
176
     0
 90
       50
176
     0
 90
        3
176
     0
 62
     5
420
      255
176
     0
290
     0
176
     0
 90
       50
176
     0
 90
       50
176
     0
 90
       50
176
     0
290
     0
176
     0
 90
       50
176
     0
 62
   256
176
     0
 40
1.0
176
     0
 90
        2
176
     0
  1
strokes_ogs.tif
176
     0
290
     0
176
     0
 40
1.0
176
     0
 40
1.0
176
     0
  0
VISUALSTYLE
  5
33
102
{ACAD_REACTORS
330
2A
102
}
330
2A
100
AcDbVisualStyle
  2
Realistic
 70
     8
177
     3
291
     0
 70
    58
 90
        2
176
     1
 90
        3
176
     1
 90
        0
176
     1
 90
        2
176
     1
 40
0.6
176
     1
 40
30.0
176
     1
 62
     7
420
 16777215
176
     1
 90
        0
176
     1
 90
        0
176
     1
 62
     7
176
     1
 62
   257
176
     1
 90
        1
176
     1
 90
        1
176
     1
 40
1.0
176
     1
 90
        8
176
     1
 62
   257
176
     1
 40
1.0
176
     1
 90
        1
176
     1
 90
        6
176
     1
 90
        2
176
     1
 62
     7
176
     1
 90
        3
176
     1
 90
        0
176
     1
 90
        0
176
     1
290
     0
176
     1
 90
       13
176
     1
 40
0.0
176
     1
 90
        0
176
     1
290
     0
176
     1
290
     1
176
     1
290
     1
176
     1
290
     0
176
     1
290
     0
176
     1
290
     0
176
     1
290
     0
176
     1
290
     0
176
     1
290
     0
176
     1
 90
       50
176
     1
 40
0.0
176
     1
 40
1.0
176
     1
 90
        0
176
     1
 62
    18
420
        0
176
     1
 90
       50
176
     1
 90
        3
176
     1
 62
     5
420
      255
176
     1
290
     0
176
     1
 90
       50
176
     1
 90
       50
176
     1
 90
       50
176
     1
290
     0
176
     1
 90
       50
176
     1
 62
   256
176
     0
 40
1.0
176
     0
 90
        2
176
     1
  1
strokes_ogs.tif
176
     1
290
     0
176
     1
 40
1.0
176
     1
 40
1.0
176
     1
  0
VISUALSTYLE
  5
42
102
{ACAD_REACTORS
330
2A
102
}
330
2A
100
AcDbVisualStyle
  2
Shaded
 70
    27
177
     3
291
     0
 70
    58
 90
        2
176
     1
 90
        2
176
     1
 90
        1
176
     1
 90
        2
176
     1
 40
0.6
176
     1
 40
30.0
176
     1
 62
     7
420
 16777215
176
     1
 90
        0
176
     1
 90
        4
176
     1
 62
     7
176
     1
 62
   257
176
     1
 90
        1
176
     1
 90
        1
176
     1
 40
1.0
176
     1
 90
        8
176
     1
 62
   257
176
     1
 40
1.0
176
     1
 90
        1
176
     1
 90
        6
176
     1
 90
        2
176
     1
 62
     8
420
  7895160
176
     1
 90
        3
176
     1
 90
        0
176
     1
 90
        0
176
     1
290
     0
176
     1
 90
        5
176
     1
 40
0.0
176
     1
 90
        0
176
     1
290
     0
176
     1
290
     1
176
     1
290
     1
176
     1
290
     0
176
     1
290
     0
176
     1
290
     0
176
     1
290
     0
176
     1
290
     0
176
     1
290
     0
176
     1
 90
       50
176
     1
 40
0.0
176
     1
 40
1.0
176
     1
 90
        0
176
     1
 62
    18
420
        0
176
     1
 90
       50
176
     1
 90
        3
176
     1
 62
     5
420
      255
176
     1
290
     0
176
     1
 90
       50
176
     1
 90
       50
176
     1
 90
       50
176
     1
290
     0
176
     1
 90
       50
176
     1
 62
   256
176
     0
 40
1.0
176
     0
 90
        2
176
     1
  1
strokes_ogs.tif
176
     1
290
     0
176
     1
 40
1.0
176
     1
 40
1.0
176
     1
  0
VISUALSTYLE
  5
41
102
{ACAD_REACTORS
330
2A
102
}
330
2A
100
AcDbVisualStyle
  2
Shaded with edges
 70
    26
177
     3
291
     0
 70
    58
 90
        2
176
     1
 90
        2
176
     1
 90
        1
176
     1
 90
        2
176
     1
 40
0.6
176
     1
 40
30.0
176
     1
 62
     7
420
 16777215
176
     1
 90
        1
176
     1
 90
       10
176
     1
 62
     7
176
     1
 62
   257
176
     1
 90
        2
176
     1
 90
        1
176
     1
 40
1.0
176
     1
 90
        8
176
     1
 62
   257
176
     1
 40
1.0
176
     1
 90
        1
176
     1
 90
        6
176
     1
 90
        2
176
     1
 62
     7
176
     1
 90
        3
176
     1
 90
        0
176
     1
 90
        0
176
     1
290
     0
176
     1
 90
        5
176
     1
 40
0.0
176
     1
 90
        0
176
     1
290
     0
176
     1
290
     1
176
     1
290
     1
176
     1
290
     0
176
     1
290
     0
176
     1
290
     0
176
     1
290
     0
176
     1
290
     0
176
     1
290
     0
176
     1
 90
       50
176
     1
 40
0.0
176
     1
 40
1.0
176
     1
 90
        0
176
     1
 62
    18
420
        0
176
     1
 90
       50
176
     1
 90
        3
176
     1
 62
     5
420
      255
176
     1
290
     0
176
     1
 90
       50
176
     1
 90
       50
176
     1
 90
       50
176
     1
290
     0
176
     1
 90
       50
176
     1
 62
   256
176
     0
 40
1.0
176
     0
 90
        2
176
     1
  1
strokes_ogs.tif
176
     1
290
     0
176
     1
 40
1.0
176
     1
 40
1.0
176
     1
  0
VISUALSTYLE
  5
3E
102
{ACAD_REACTORS
330
2A
102
}
330
2A
100
AcDbVisualStyle
  2
Shades of Gray
 70
    23
177
     3
291
     0
 70
    58
 90
        2
176
     1
 90
        2
176
     1
 90
        3
176
     1
 90
        0
176
     1
 40
0.6
176
     1
 40
30.0
176
     1
 62
     7
420
 16777215
176
     1
 90
        2
176
     1
 90
        2
176
     1
 62
     7
176
     1
 62
     7
176
     1
 90
        1
176
     1
 90
        1
176
     1
 40
40.0
176
     1
 90
        8
176
     1
 62
     7
176
     1
 40
1.0
176
     1
 90
        1
176
     1
 90
        6
176
     1
 90
        2
176
     1
 62
     7
176
     1
 90
        3
176
     1
 90
        0
176
     1
 90
        0
176
     1
290
     0
176
     1
 90
        1
176
     1
 40
0.0
176
     1
 90
        0
176
     1
290
     0
176
     1
290
     1
176
     1
290
     1
176
     1
290
     0
176
     1
290
     0
176
     1
290
     0
176
     1
290
     0
176
     1
290
     0
176
     1
290
     0
176
     1
 90
       50
176
     1
 40
0.0
176
     1
 40
1.0
176
     1
 90
        0
176
     1
 62
    18
420
        0
176
     1
 90
       50
176
     1
 90
        3
176
     1
 62
     5
420
      255
176
     1
290
     0
176
     1
 90
       50
176
     1
 90
       50
176
     1
 90
       50
176
     1
290
     0
176
     1
 90
       50
176
     1
 62
   256
176
     0
 40
1.0
176
     0
 90
        2
176
     1
  1
strokes_ogs.tif
176
     1
290
     0
176
     1
 40
1.0
176
     1
 40
1.0
176
     1
  0
VISUALSTYLE
  5
3F
102
{ACAD_REACTORS
330
2A
102
}
330
2A
100
AcDbVisualStyle
  2
Sketchy
 70
    24
177
     3
291
     0
 70
    58
 90
        1
176
     1
 90
        2
176
     1
 90
        2
176
     1
 90
        0
176
     1
 40
0.6
176
     1
 40
30.0
176
     1
 62
     7
420
 16777215
176
     1
 90
        2
176
     1
 90
        2
176
     1
 62
     7
176
     1
 62
     7
176
     1
 90
        1
176
     1
 90
        1
176
     1
 40
40.0
176
     1
 90
       11
176
     1
 62
     7
176
     1
 40
1.0
176
     1
 90
        1
176
     1
 90
        6
176
     1
 90
        2
176
     1
 62
     7
176
     1
 90
        6
176
     1
 90
        0
176
     1
 90
        0
176
     1
290
     0
176
     1
 90
        1
176
     1
 40
0.0
176
     1
 90
        0
176
     1
290
     0
176
     1
290
     1
176
     1
290
     1
176
     1
290
     0
176
     1
290
     0
176
     1
290
     0
176
     1
290
     0
176
     1
290
     0
176
     1
290
     0
176
     1
 90
       50
176
     1
 40
0.0
176
     1
 40
1.0
176
     1
 90
        0
176
     1
 62
    18
420
        0
176
     1
 90
       50
176
     1
 90
        3
176
     1
 62
     5
420
      255
176
     1
290
     0
176
     1
 90
       50
176
     1
 90
       50
176
     1
 90
       50
176
     1
290
     0
176
     1
 90
       50
176
     1
 62
   256
176
     0
 40
1.0
176
     0
 90
        2
176
     1
  1
strokes_ogs.tif
176
     1
290
     0
176
     1
 40
1.0
176
     1
 40
1.0
176
     1
  0
VISUALSTYLE
  5
37
102
{ACAD_REACTORS
330
2A
102
}
330
2A
100
AcDbVisualStyle
  2
Thicken
 70
    13
177
     3
291
     1
 70
    58
 90
        2
176
     1
 90
        2
176
     1
 90
        0
176
     1
 90
        0
176
     1
 40
0.6
176
     1
 40
30.0
176
     1
 62
     7
420
 16777215
176
     1
 90
        1
176
     1
 90
        4
176
     1
 62
     7
176
     1
 62
   257
176
     1
 90
        1
176
     1
 90
        1
176
     1
 40
1.0
176
     1
 90
       12
176
     1
 62
     7
176
     1
 40
1.0
176
     1
 90
        1
176
     1
 90
        6
176
     1
 90
        2
176
     1
 62
     7
176
     1
 90
        5
176
     1
 90
        0
176
     1
 90
        0
176
     1
290
     0
176
     1
 90
        1
176
     1
 40
0.0
176
     1
 90
        0
176
     1
290
     0
176
     1
290
     1
176
     1
290
     1
176
     1
290
     0
176
     1
290
     0
176
     1
290
     0
176
     1
290
     0
176
     1
290
     0
176
     1
290
     0
176
     1
 90
       50
176
     1
 40
0.0
176
     1
 40
1.0
176
     1
 90
        0
176
     1
 62
    18
420
        0
176
     1
 90
       50
176
     1
 90
        3
176
     1
 62
     5
420
      255
176
     1
290
     0
176
     1
 90
       50
176
     1
 90
       50
176
     1
 90
       50
176
     1
290
     0
176
     1
 90
       50
176
     1
 62
   256
176
     0
 40
1.0
176
     0
 90
        2
176
     1
  1
strokes_ogs.tif
176
     1
290
     0
176
     1
 40
1.0
176
     1
 40
1.0
176
     1
  0
VISUALSTYLE
  5
30
102
{ACAD_REACTORS
330
2A
102
}
330
2A
100
AcDbVisualStyle
  2
Wireframe
 70
     5
177
     3
291
     0
 70
    58
 90
        0
176
     1
 90
        2
176
     1
 90
        0
176
     1
 90
        0
176
     1
 40
0.6
176
     1
 40
30.0
176
     1
 62
     7
420
 16777215
176
     1
 90
        1
176
     1
 90
        4
176
     1
 62
     7
176
     1
 62
   257
176
     1
 90
        1
176
     1
 90
        1
176
     1
 40
1.0
176
     1
 90
        0
176
     1
 62
   257
176
     1
 40
1.0
176
     1
 90
        1
176
     1
 90
        6
176
     1
 90
        2
176
     1
 62
     7
176
     1
 90
        3
176
     1
 90
        0
176
     1
 90
        0
176
     1
290
     0
176
     1
 90
        1
176
     1
 40
0.0
176
     1
 90
        0
176
     1
290
     0
176
     1
290
     1
176
     1
290
     1
176
     1
290
     0
176
     1
290
     0
176
     1
290
     0
176
     1
290
     0
176
     1
290
     0
176
     1
290
     0
176
     1
 90
       50
176
     1
 40
0.0
176
     1
 40
1.0
176
     1
 90
        0
176
     1
 62
    18
420
        0
176
     1
 90
       50
176
     1
 90
        3
176
     1
 62
     5
420
      255
176
     1
290
     0
176
     1
 90
       50
176
     1
 90
       50
176
     1
 90
       50
176
     1
290
     0
176
     1
 90
       50
176
     1
 62
   256
176
     0
 40
1.0
176
     0
 90
        2
176
     1
  1
strokes_ogs.tif
176
     1
290
     0
176
     1
 40
1.0
176
     1
 40
1.0
176
     1
  0
VISUALSTYLE
  5
40
102
{ACAD_REACTORS
330
2A
102
}
330
2A
100
AcDbVisualStyle
  2
X-Ray
 70
    25
177
     3
291
     0
 70
    58
 90
        2
176
     1
 90
        2
176
     1
 90
        1
176
     1
 90
        1
176
     1
 40
0.5
176
     1
 40
30.0
176
     1
 62
     7
420
 16777215
176
     1
 90
        1
176
     1
 90
        0
176
     1
 62
     7
176
     1
 62
   257
176
     1
 90
        1
176
     1
 90
        1
176
     1
 40
1.0
176
     1
 90
        8
176
     1
 62
     7
176
     1
 40
1.0
176
     1
 90
        1
176
     1
 90
        6
176
     1
 90
        2
176
     1
 62
     7
176
     1
 90
        3
176
     1
 90
        0
176
     1
 90
        0
176
     1
290
     0
176
     1
 90
       13
176
     1
 40
0.0
176
     1
 90
        0
176
     1
290
     0
176
     1
290
     1
176
     1
290
     1
176
     1
290
     0
176
     1
290
     0
176
     1
290
     0
176
     1
290
     0
176
     1
290
     0
176
     1
290
     0
176
     1
 90
       50
176
     1
 40
0.0
176
     1
 40
1.0
176
     1
 90
        0
176
     1
 62
    18
420
        0
176
     1
 90
       50
176
     1
 90
        3
176
     1
 62
     5
420
      255
176
     1
290
     0
176
     1
 90
       50
176
     1
 90
       50
176
     1
 90
       50
176
     1
290
     0
176
     1
 90
       50
176
     1
 62
   256
176
     0
 40
1.0
176
     0
 90
        2
176
     1
  1
strokes_ogs.tif
176
     1
290
     0
176
     1
 40
1.0
176
     1
 40
1.0
176
     1
  0
DICTIONARYVAR
  5
405
102
{ACAD_REACTORS
330
404
102
}
330
404
100
DictionaryVariables
280
     0
  1
1:1
  0
DICTIONARYVAR
  5
40A
102
{ACAD_REACTORS
330
404
102
}
330
404
100
DictionaryVariables
280
     0
  1
Standard
  0
DICTIONARYVAR
  5
409
102
{ACAD_REACTORS
330
404
102
}
330
404
100
DictionaryVariables
280
     0
  1
Standard
  0
DICTIONARYVAR
  5
40D
102
{ACAD_REACTORS
330
404
102
}
330
404
100
DictionaryVariables
280
     0
  1
0
  0
DICTIONARY
  5
406
330
6A
100
AcDbDictionary
280
     1
281
     1
  3
ACAD_ROUNDTRIP_2008_TABLESTYLE_CELLSTYLEMAP
360
407
  0
CELLSTYLEMAP
  5
407
102
{ACAD_REACTORS
330
406
102
}
330
406
100
AcDbCellStyleMap
 90
        3
300
CELLSTYLE
  1
TABLEFORMAT_BEGIN
 90
        5
170
     1
 91
        0
 92
    32768
 62
   257
 93
        1
300
CONTENTFORMAT
  1
CONTENTFORMAT_BEGIN
 90
        0
 91
        0
 92
        4
 93
        0
300

 40
0.0
140
1.0
 94
        5
 62
     0
340
11
144
0.25
309
CONTENTFORMAT_END
171
     1
301
MARGIN
  1
CELLMARGIN_BEGIN
 40
0.06
 40
0.06
 40
0.06
 40
0.06
 40
0.06
 40
0.06
309
CELLMARGIN_END
 94
        6
 95
        1
302
GRIDFORMAT
  1
GRIDFORMAT_BEGIN
 90
        0
 91
        1
 62
     0
 92
       -2
340
14
 93
        0
 40
0.045
309
GRIDFORMAT_END
 95
        2
302
GRIDFORMAT
  1
GRIDFORMAT_BEGIN
 90
        0
 91
        1
 62
     0
 92
       -2
340
14
 93
        0
 40
0.045
309
GRIDFORMAT_END
 95
        4
302
GRIDFORMAT
  1
GRIDFORMAT_BEGIN
 90
        0
 91
        1
 62
     0
 92
       -2
340
14
 93
        0
 40
0.045
309
GRIDFORMAT_END
 95
        8
302
GRIDFORMAT
  1
GRIDFORMAT_BEGIN
 90
        0
 91
        1
 62
     0
 92
       -2
340
14
 93
        0
 40
0.045
309
GRIDFORMAT_END
 95
       16
302
GRIDFORMAT
  1
GRIDFORMAT_BEGIN
 90
        0
 91
        1
 62
     0
 92
       -2
340
14
 93
        0
 40
0.045
309
GRIDFORMAT_END
 95
       32
302
GRIDFORMAT
  1
GRIDFORMAT_BEGIN
 90
        0
 91
        1
 62
     0
 92
       -2
340
14
 93
        0
 40
0.045
309
GRIDFORMAT_END
309
TABLEFORMAT_END
  1
CELLSTYLE_BEGIN
 90
        1
 91
        1
300
_TITLE
309
CELLSTYLE_END
300
CELLSTYLE
  1
TABLEFORMAT_BEGIN
 90
        5
170
     1
 91
        0
 92
        0
 62
   257
 93
        1
300
CONTENTFORMAT
  1
CONTENTFORMAT_BEGIN
 90
        0
 91
        0
 92
        4
 93
        0
300

 40
0.0
140
1.0
 94
        5
 62
     0
340
11
144
0.18
309
CONTENTFORMAT_END
171
     1
301
MARGIN
  1
CELLMARGIN_BEGIN
 40
0.06
 40
0.06
 40
0.06
 40
0.06
 40
0.06
 40
0.06
309
CELLMARGIN_END
 94
        6
 95
        1
302
GRIDFORMAT
  1
GRIDFORMAT_BEGIN
 90
        0
 91
        1
 62
     0
 92
       -2
340
14
 93
        0
 40
0.045
309
GRIDFORMAT_END
 95
        2
302
GRIDFORMAT
  1
GRIDFORMAT_BEGIN
 90
        0
 91
        1
 62
     0
 92
       -2
340
14
 93
        0
 40
0.045
309
GRIDFORMAT_END
 95
        4
302
GRIDFORMAT
  1
GRIDFORMAT_BEGIN
 90
        0
 91
        1
 62
     0
 92
       -2
340
14
 93
        0
 40
0.045
309
GRIDFORMAT_END
 95
        8
302
GRIDFORMAT
  1
GRIDFORMAT_BEGIN
 90
        0
 91
        1
 62
     0
 92
       -2
340
14
 93
        0
 40
0.045
309
GRIDFORMAT_END
 95
       16
302
GRIDFORMAT
  1
GRIDFORMAT_BEGIN
 90
        0
 91
        1
 62
     0
 92
       -2
340
14
 93
        0
 40
0.045
309
GRIDFORMAT_END
 95
       32
302
GRIDFORMAT
  1
GRIDFORMAT_BEGIN
 90
        0
 91
        1
 62
     0
 92
       -2
340
14
 93
        0
 40
0.045
309
GRIDFORMAT_END
309
TABLEFORMAT_END
  1
CELLSTYLE_BEGIN
 90
        2
 91
        1
300
_HEADER
309
CELLSTYLE_END
300
CELLSTYLE
  1
TABLEFORMAT_BEGIN
 90
        5
170
     1
 91
        0
 92
        0
 62
   257
 93
        1
300
CONTENTFORMAT
  1
CONTENTFORMAT_BEGIN
 90
        0
 91
        0
 92
        4
 93
        0
300

 40
0.0
140
1.0
 94
        2
 62
     0
340
11
144
0.18
309
CONTENTFORMAT_END
171
     1
301
MARGIN
  1
CELLMARGIN_BEGIN
 40
0.06
 40
0.06
 40
0.06
 40
0.06
 40
0.06
 40
0.06
309
CELLMARGIN_END
 94
        6
 95
        1
302
GRIDFORMAT
  1
GRIDFORMAT_BEGIN
 90
        0
 91
        1
 62
     0
 92
       -2
340
14
 93
        0
 40
0.045
309
GRIDFORMAT_END
 95
        2
302
GRIDFORMAT
  1
GRIDFORMAT_BEGIN
 90
        0
 91
        1
 62
     0
 92
       -2
340
14
 93
        0
 40
0.045
309
GRIDFORMAT_END
 95
        4
302
GRIDFORMAT
  1
GRIDFORMAT_BEGIN
 90
        0
 91
        1
 62
     0
 92
       -2
340
14
 93
        0
 40
0.045
309
GRIDFORMAT_END
 95
        8
302
GRIDFORMAT
  1
GRIDFORMAT_BEGIN
 90
        0
 91
        1
 62
     0
 92
       -2
340
14
 93
        0
 40
0.045
309
GRIDFORMAT_END
 95
       16
302
GRIDFORMAT
  1
GRIDFORMAT_BEGIN
 90
        0
 91
        1
 62
     0
 92
       -2
340
14
 93
        0
 40
0.045
309
GRIDFORMAT_END
 95
       32
302
GRIDFORMAT
  1
GRIDFORMAT_BEGIN
 90
        0
 91
        1
 62
     0
 92
       -2
340
14
 93
        0
 40
0.045
309
GRIDFORMAT_END
309
TABLEFORMAT_END
  1
CELLSTYLE_BEGIN
 90
        3
 91
        2
300
_DATA
309
CELLSTYLE_END
  0
ENDSEC
  0
EOF
