  0
SECTION
  2
HEADER
  9
$ACADVER
  1
AC1027
  9
$ACADMAINTVER
 70
   105
  9
$DWGCODEPAGE
  3
ANSI_1252
  9
$REQUIREDVERSIONS
160
                 0
  9
$INSBASE
 10
0.0
 20
0.0
 30
0.0
  9
$EXTMIN
 10
3553.917814353682
 20
-9777.512248640422
 30
0.0
  9
$EXTMAX
 10
4538.91781435369
 20
-8422.512248640422
 30
0.0
  9
$LIMMIN
 10
0.0
 20
0.0
  9
$LIMMAX
 10
12.0
 20
9.0
  9
$ORTHOMODE
 70
     0
  9
$REGENMODE
 70
     1
  9
$FILLMODE
 70
     1
  9
$QTEXTMODE
 70
     0
  9
$MIRRTEXT
 70
     1
  9
$LTSCALE
 40
5.0
  9
$ATTMODE
 70
     1
  9
$TEXTSIZE
 40
0.2
  9
$TRACEWID
 40
0.05
  9
$TEXTSTYLE
  7
Standard
  9
$CLAYER
  8
0
  9
$CELTYPE
  6
ByLayer
  9
$CECOLOR
 62
   256
  9
$CELTSCALE
 40
1.0
  9
$DISPSILH
 70
     0
  9
$DIMSCALE
 40
1.0
  9
$DIMASZ
 40
0.18
  9
$DIMEXO
 40
0.0625
  9
$DIMDLI
 40
0.38
  9
$DIMRND
 40
0.0
  9
$DIMDLE
 40
0.0
  9
$DIMEXE
 40
0.18
  9
$DIMTP
 40
0.0
  9
$DIMTM
 40
0.0
  9
$DIMTXT
 40
0.18
  9
$DIMCEN
 40
0.09
  9
$DIMTSZ
 40
0.0
  9
$DIMTOL
 70
     0
  9
$DIMLIM
 70
     0
  9
$DIMTIH
 70
     1
  9
$DIMTOH
 70
     1
  9
$DIMSE1
 70
     0
  9
$DIMSE2
 70
     0
  9
$DIMTAD
 70
     0
  9
$DIMZIN
 70
     0
  9
$DIMBLK
  1

  9
$DIMASO
 70
     1
  9
$DIMSHO
 70
     1
  9
$DIMPOST
  1

  9
$DIMAPOST
  1

  9
$DIMALT
 70
     0
  9
$DIMALTD
 70
     2
  9
$DIMALTF
 40
25.4
  9
$DIMLFAC
 40
1.0
  9
$DIMTOFL
 70
     1
  9
$DIMTVP
 40
0.0
  9
$DIMTIX
 70
     0
  9
$DIMSOXD
 70
     1
  9
$DIMSAH
 70
     0
  9
$DIMBLK1
  1

  9
$DIMBLK2
  1

  9
$DIMSTYLE
  2
Standard
  9
$DIMCLRD
 70
     0
  9
$DIMCLRE
 70
     0
  9
$DIMCLRT
 70
     0
  9
$DIMTFAC
 40
1.0
  9
$DIMGAP
 40
0.09
  9
$DIMJUST
 70
     0
  9
$DIMSD1
 70
     0
  9
$DIMSD2
 70
     0
  9
$DIMTOLJ
 70
     1
  9
$DIMTZIN
 70
     0
  9
$DIMALTZ
 70
     0
  9
$DIMALTTZ
 70
     0
  9
$DIMUPT
 70
     0
  9
$DIMDEC
 70
     4
  9
$DIMTDEC
 70
     4
  9
$DIMALTU
 70
     2
  9
$DIMALTTD
 70
     2
  9
$DIMTXSTY
  7
Standard
  9
$DIMAUNIT
 70
     0
  9
$DIMADEC
 70
     0
  9
$DIMALTRND
 40
0.0
  9
$DIMAZIN
 70
     0
  9
$DIMDSEP
 70
    46
  9
$DIMATFIT
 70
     3
  9
$DIMFRAC
 70
     0
  9
$DIMLDRBLK
  1

  9
$DIMLUNIT
 70
     2
  9
$DIMLWD
 70
    -2
  9
$DIMLWE
 70
    -2
  9
$DIMTMOVE
 70
     2
  9
$DIMFXL
 40
1.0
  9
$DIMFXLON
 70
     0
  9
$DIMJOGANG
 40
0.7853981633974483
  9
$DIMTFILL
 70
     0
  9
$DIMTFILLCLR
 70
     0
  9
$DIMARCSYM
 70
     0
  9
$DIMLTYPE
  6

  9
$DIMLTEX1
  6

  9
$DIMLTEX2
  6

  9
$DIMTXTDIRECTION
 70
     0
  9
$LUNITS
 70
     2
  9
$LUPREC
 70
     4
  9
$SKETCHINC
 40
0.1
  9
$FILLETRAD
 40
0.5
  9
$AUNITS
 70
     0
  9
$AUPREC
 70
     0
  9
$MENU
  1
.
  9
$ELEVATION
 40
0.0
  9
$PELEVATION
 40
0.0
  9
$THICKNESS
 40
0.0
  9
$LIMCHECK
 70
     0
  9
$CHAMFERA
 40
0.0
  9
$CHAMFERB
 40
0.0
  9
$CHAMFERC
 40
0.0
  9
$CHAMFERD
 40
0.0
  9
$SKPOLY
 70
     0
  9
$TDCREATE
 40
2459184.490907315
  9
$TDUCREATE
 40
2459184.449240648
  9
$TDUPDATE
 40
2459184.490909491
  9
$TDUUPDATE
 40
2459184.449242824
  9
$TDINDWG
 40
0.0000000116
  9
$TDUSRTIMER
 40
0.0000000116
  9
$USRTIMER
 70
     1
  9
$ANGBASE
 50
0.0
  9
$ANGDIR
 70
     0
  9
$PDMODE
 70
     0
  9
$PDSIZE
 40
0.0
  9
$PLINEWID
 40
0.0
  9
$SPLFRAME
 70
     0
  9
$SPLINETYPE
 70
     6
  9
$SPLINESEGS
 70
     8
  9
$HANDSEED
  5
415
  9
$SURFTAB1
 70
     6
  9
$SURFTAB2
 70
     6
  9
$SURFTYPE
 70
     6
  9
$SURFU
 70
     6
  9
$SURFV
 70
     6
  9
$UCSBASE
  2

  9
$UCSNAME
  2

  9
$UCSORG
 10
0.0
 20
0.0
 30
0.0
  9
$UCSXDIR
 10
1.0
 20
0.0
 30
0.0
  9
$UCSYDIR
 10
0.0
 20
1.0
 30
0.0
  9
$UCSORTHOREF
  2

  9
$UCSORTHOVIEW
 70
     0
  9
$UCSORGTOP
 10
0.0
 20
0.0
 30
0.0
  9
$UCSORGBOTTOM
 10
0.0
 20
0.0
 30
0.0
  9
$UCSORGLEFT
 10
0.0
 20
0.0
 30
0.0
  9
$UCSORGRIGHT
 10
0.0
 20
0.0
 30
0.0
  9
$UCSORGFRONT
 10
0.0
 20
0.0
 30
0.0
  9
$UCSORGBACK
 10
0.0
 20
0.0
 30
0.0
  9
$PUCSBASE
  2

  9
$PUCSNAME
  2

  9
$PUCSORG
 10
0.0
 20
0.0
 30
0.0
  9
$PUCSXDIR
 10
1.0
 20
0.0
 30
0.0
  9
$PUCSYDIR
 10
0.0
 20
1.0
 30
0.0
  9
$PUCSORTHOREF
  2

  9
$PUCSORTHOVIEW
 70
     0
  9
$PUCSORGTOP
 10
0.0
 20
0.0
 30
0.0
  9
$PUCSORGBOTTOM
 10
0.0
 20
0.0
 30
0.0
  9
$PUCSORGLEFT
 10
0.0
 20
0.0
 30
0.0
  9
$PUCSORGRIGHT
 10
0.0
 20
0.0
 30
0.0
  9
$PUCSORGFRONT
 10
0.0
 20
0.0
 30
0.0
  9
$PUCSORGBACK
 10
0.0
 20
0.0
 30
0.0
  9
$USERI1
 70
     0
  9
$USERI2
 70
     0
  9
$USERI3
 70
     0
  9
$USERI4
 70
     0
  9
$USERI5
 70
     0
  9
$USERR1
 40
0.0
  9
$USERR2
 40
0.0
  9
$USERR3
 40
0.0
  9
$USERR4
 40
0.0
  9
$USERR5
 40
0.0
  9
$WORLDVIEW
 70
     1
  9
$SHADEDGE
 70
     3
  9
$SHADEDIF
 70
    70
  9
$TILEMODE
 70
     1
  9
$MAXACTVP
 70
    64
  9
$PINSBASE
 10
0.0
 20
0.0
 30
0.0
  9
$PLIMCHECK
 70
     0
  9
$PEXTMIN
 10
0.0
 20
0.0
 30
0.0
  9
$PEXTMAX
 10
197.5999999999998
 20
271.6
 30
0.0
  9
$PLIMMIN
 10
-20.0
 20
-7.5
  9
$PLIMMAX
 10
277.0
 20
202.5
  9
$UNITMODE
 70
     0
  9
$VISRETAIN
 70
     1
  9
$PLINEGEN
 70
     0
  9
$PSLTSCALE
 70
     0
  9
$TREEDEPTH
 70
  3020
  9
$CMLSTYLE
  2
Standard
  9
$CMLJUST
 70
     0
  9
$CMLSCALE
 40
1.0
  9
$PROXYGRAPHICS
 70
     1
  9
$MEASUREMENT
 70
     1
  9
$CELWEIGHT
370
    -1
  9
$ENDCAPS
280
     0
  9
$JOINSTYLE
280
     0
  9
$LWDISPLAY
290
     0
  9
$INSUNITS
 70
     4
  9
$HYPERLINKBASE
  1

  9
$STYLESHEET
  1

  9
$XEDIT
290
     1
  9
$CEPSNTYPE
380
     0
  9
$PSTYLEMODE
290
     0
  9
$FINGERPRINTGUID
  2
{D770CABF-3983-4000-91F8-94F994BFC806}
  9
$VERSIONGUID
  2
{FAEB1C32-E019-11D5-929B-00C0DF256EC4}
  9
$EXTNAMES
290
     1
  9
$PSVPSCALE
 40
0.0
  9
$OLESTARTUP
290
     0
  9
$SORTENTS
280
   127
  9
$INDEXCTL
280
     0
  9
$HIDETEXT
280
     1
  9
$XCLIPFRAME
280
     2
  9
$HALOGAP
280
     0
  9
$OBSCOLOR
 70
   257
  9
$OBSLTYPE
280
     0
  9
$INTERSECTIONDISPLAY
280
     0
  9
$INTERSECTIONCOLOR
 70
   257
  9
$DIMASSOC
280
     2
  9
$PROJECTNAME
  1

  9
$CAMERADISPLAY
290
     0
  9
$LENSLENGTH
 40
50.0
  9
$CAMERAHEIGHT
 40
0.0
  9
$STEPSPERSEC
 40
2.0
  9
$STEPSIZE
 40
6.0
  9
$3DDWFPREC
 40
2.0
  9
$PSOLWIDTH
 40
0.25
  9
$PSOLHEIGHT
 40
4.0
  9
$LOFTANG1
 40
1.570796326794897
  9
$LOFTANG2
 40
1.570796326794897
  9
$LOFTMAG1
 40
0.0
  9
$LOFTMAG2
 40
0.0
  9
$LOFTPARAM
 70
     7
  9
$LOFTNORMALS
280
     1
  9
$LATITUDE
 40
37.795
  9
$LONGITUDE
 40
-122.394
  9
$NORTHDIRECTION
 40
0.0
  9
$TIMEZONE
 70
 -8000
  9
$LIGHTGLYPHDISPLAY
280
     1
  9
$TILEMODELIGHTSYNCH
280
     1
  9
$CMATERIAL
347
44
  9
$SOLIDHIST
280
     0
  9
$SHOWHIST
280
     1
  9
$DWFFRAME
280
     2
  9
$DGNFRAME
280
     2
  9
$REALWORLDSCALE
290
     1
  9
$INTERFERECOLOR
 62
   256
  9
$CSHADOW
280
     0
  9
$SHADOWPLANELOCATION
 40
0.0
  0
ENDSEC
  0
SECTION
  2
CLASSES
  0
CLASS
  1
ACDBDICTIONARYWDFLT
  2
AcDbDictionaryWithDefault
  3
ObjectDBX Classes
 90
        0
 91
        3
280
     0
281
     0
  0
CLASS
  1
VISUALSTYLE
  2
AcDbVisualStyle
  3
ObjectDBX Classes
 90
     4095
 91
        3
280
     0
281
     0
  0
CLASS
  1
MATERIAL
  2
AcDbMaterial
  3
ObjectDBX Classes
 90
     1153
 91
        3
280
     0
281
     0
  0
CLASS
  1
SCALE
  2
AcDbScale
  3
ObjectDBX Classes
 90
     1153
 91
        3
280
     0
281
     0
  0
CLASS
  1
TABLESTYLE
  2
AcDbTableStyle
  3
ObjectDBX Classes
 90
     4095
 91
        3
280
     0
281
     0
  0
CLASS
  1
MLEADERSTYLE
  2
AcDbMLeaderStyle
  3
ACDB_MLEADERSTYLE_CLASS
 90
     4095
 91
        3
280
     0
281
     0
  0
CLASS
  1
SUN
  2
AcDbSun
  3
SCENEOE
 90
     1153
 91
        3
280
     0
281
     0
  0
CLASS
  1
RASTERVARIABLES
  2
AcDbRasterVariables
  3
ISM
 90
        0
 91
        3
280
     0
281
     0
  0
CLASS
  1
PLOTSETTINGS
  2
AcDbPlotSettings
  3
ObjectDBX Classes
 90
        0
 91
        3
280
     0
281
     0
  0
CLASS
  1
IMAGEDEF
  2
AcDbRasterImageDef
  3
ISM
 90
        0
 91
        3
280
     0
281
     0
  0
CLASS
  1
IMAGE
  2
AcDbRasterImage
  3
ISM
 90
      127
 91
        4
280
     0
281
     1
  0
CLASS
  1
IMAGEDEF_REACTOR
  2
AcDbRasterImageDefReactor
  3
ISM
 90
        1
 91
        3
280
     0
281
     0
  0
CLASS
  1
WIPEOUT
  2
AcDbWipeout
  3
WipeOut|AutoCAD Express Tool|expresstools@autodesk.com
 90
      127
 91
        3
280
     0
281
     1
  0
CLASS
  1
DICTIONARYVAR
  2
AcDbDictionaryVar
  3
ObjectDBX Classes
 90
        0
 91
        3
280
     0
281
     0
  0
CLASS
  1
CELLSTYLEMAP
  2
AcDbCellStyleMap
  3
ObjectDBX Classes
 90
     1152
 91
        3
280
     0
281
     0
  0
ENDSEC
  0
SECTION
  2
TABLES
  0
TABLE
  2
VPORT
  5
8
330
0
100
AcDbSymbolTable
 70
     1
  0
VPORT
  5
29
330
8
100
AcDbSymbolTableRecord
100
AcDbViewportTableRecord
  2
*Active
 70
     0
 10
0.0
 20
0.0
 11
1.0
 21
1.0
 12
10.42990654205607
 22
4.5
 13
0.0
 23
0.0
 14
0.5
 24
0.5
 15
0.5
 25
0.5
 16
0.0
 26
0.0
 36
1.0
 17
0.0
 27
0.0
 37
0.0
 40
9.0
 41
1.972972972850329
 42
50.0
 43
0.0
 44
0.0
 50
0.0
 51
0.0
 71
     0
 72
   100
 73
     1
 74
     3
 75
     0
 76
     0
 77
     0
 78
     0
281
     0
 65
     1
110
0.0
120
0.0
130
0.0
111
1.0
121
0.0
131
0.0
112
0.0
122
1.0
132
0.0
 79
     0
146
0.0
348
2F
 60
     3
 61
     5
292
     1
282
     1
141
0.0
142
0.0
 63
   250
361
6D
  0
ENDTAB
  0
TABLE
  2
LTYPE
  5
5
330
0
100
AcDbSymbolTable
 70
     2
  0
LTYPE
  5
14
330
5
100
AcDbSymbolTableRecord
100
AcDbLinetypeTableRecord
  2
ByBlock
 70
     0
  3

 72
    65
 73
     0
 40
0.0
  0
LTYPE
  5
15
330
5
100
AcDbSymbolTableRecord
100
AcDbLinetypeTableRecord
  2
ByLayer
 70
     0
  3

 72
    65
 73
     0
 40
0.0
  0
LTYPE
  5
16
330
5
100
AcDbSymbolTableRecord
100
AcDbLinetypeTableRecord
  2
Continuous
 70
     0
  3
Solid line
 72
    65
 73
     0
 40
0.0
  0
LTYPE
  5
182
330
5
100
AcDbSymbolTableRecord
100
AcDbLinetypeTableRecord
  2
CADWORK_3
 70
     0
  3

 72
    65
 73
     2
 40
4.0
 49
2.0
 74
     0
 49
-2.0
 74
     0
  0
ENDTAB
  0
TABLE
  2
LAYER
  5
2
330
0
100
AcDbSymbolTable
 70
    18
  0
LAYER
  5
10
330
2
100
AcDbSymbolTableRecord
100
AcDbLayerTableRecord
  2
0
 70
     0
 62
     7
  6
Continuous
370
    -3
390
F
347
46
348
0
  0
LAYER
  5
70
330
2
100
AcDbSymbolTableRecord
100
AcDbLayerTableRecord
  2
Standard
 70
     0
 62
     7
  6
Continuous
370
    -3
390
F
347
46
348
0
  0
LAYER
  5
71
330
2
100
AcDbSymbolTableRecord
100
AcDbLayerTableRecord
  2
Ech.1_1
 70
     0
 62
     7
  6
Continuous
370
    -3
390
F
347
46
348
0
  0
LAYER
  5
72
330
2
100
AcDbSymbolTableRecord
100
AcDbLayerTableRecord
  2
Ech.1_2
 70
     0
 62
     7
  6
Continuous
370
    -3
390
F
347
46
348
0
  0
LAYER
  5
73
330
2
100
AcDbSymbolTableRecord
100
AcDbLayerTableRecord
  2
Ech.1_5
 70
     0
 62
     7
  6
Continuous
370
    -3
390
F
347
46
348
0
  0
LAYER
  5
74
330
2
100
AcDbSymbolTableRecord
100
AcDbLayerTableRecord
  2
Ech.1_10
 70
     0
 62
     7
  6
Continuous
370
    -3
390
F
347
46
348
0
  0
LAYER
  5
75
330
2
100
AcDbSymbolTableRecord
100
AcDbLayerTableRecord
  2
Ech.1_20
 70
     0
 62
     7
  6
Continuous
370
    -3
390
F
347
46
348
0
  0
LAYER
  5
76
330
2
100
AcDbSymbolTableRecord
100
AcDbLayerTableRecord
  2
Ech.1_25
 70
     0
 62
     7
  6
Continuous
370
    -3
390
F
347
46
348
0
  0
LAYER
  5
77
330
2
100
AcDbSymbolTableRecord
100
AcDbLayerTableRecord
  2
Ech.1_33
 70
     0
 62
     7
  6
Continuous
370
    -3
390
F
347
46
348
0
  0
LAYER
  5
78
330
2
100
AcDbSymbolTableRecord
100
AcDbLayerTableRecord
  2
Ech.1_50
 70
     0
 62
     7
  6
Continuous
370
    -3
390
F
347
46
348
0
  0
LAYER
  5
79
330
2
100
AcDbSymbolTableRecord
100
AcDbLayerTableRecord
  2
Ech.1_75
 70
     0
 62
     7
  6
Continuous
370
    -3
390
F
347
46
348
0
  0
LAYER
  5
7A
330
2
100
AcDbSymbolTableRecord
100
AcDbLayerTableRecord
  2
Ech.1_100
 70
     0
 62
     7
  6
Continuous
370
    -3
390
F
347
46
348
0
  0
LAYER
  5
7B
330
2
100
AcDbSymbolTableRecord
100
AcDbLayerTableRecord
  2
Ech.1_200
 70
     0
 62
     7
  6
Continuous
370
    -3
390
F
347
46
348
0
  0
LAYER
  5
7C
330
2
100
AcDbSymbolTableRecord
100
AcDbLayerTableRecord
  2
Ech.1_500
 70
     0
 62
     7
  6
Continuous
370
    -3
390
F
347
46
348
0
  0
LAYER
  5
7D
330
2
100
AcDbSymbolTableRecord
100
AcDbLayerTableRecord
  2
Ech.1_1000
 70
     0
 62
     7
  6
Continuous
370
    -3
390
F
347
46
348
0
  0
LAYER
  5
7E
330
2
100
AcDbSymbolTableRecord
100
AcDbLayerTableRecord
  2
Cadres traceur
 70
     0
 62
     7
  6
Continuous
370
    -3
390
F
347
46
348
0
  0
LAYER
  5
7F
330
2
100
AcDbSymbolTableRecord
100
AcDbLayerTableRecord
  2
Cadres laser
 70
     0
 62
     7
  6
Continuous
370
    -3
390
F
347
46
348
0
  0
LAYER
  5
80
330
2
100
AcDbSymbolTableRecord
100
AcDbLayerTableRecord
  2
Légende d_aide
 70
     0
 62
     7
  6
Continuous
370
    -3
390
F
347
46
348
0
  0
ENDTAB
  0
TABLE
  2
STYLE
  5
3
330
0
100
AcDbSymbolTable
 70
     8
  0
STYLE
  5
11
330
3
100
AcDbSymbolTableRecord
100
AcDbTextStyleTableRecord
  2
Standard
 70
     0
 40
0.0
 41
1.0
 50
0.0
 71
     0
 42
0.2
  3
txt
  4

  0
STYLE
  5
81
330
3
100
AcDbSymbolTableRecord
100
AcDbTextStyleTableRecord
  2
CwStyleShx
 70
     0
 40
1.0
 41
1.0
 50
0.0
 71
     0
 42
0.2
  3

  4

  0
STYLE
  5
82
330
3
100
AcDbSymbolTableRecord
100
AcDbTextStyleTableRecord
  2
CwStyleShx16
 70
     0
 40
1.0
 41
1.0
 50
0.0
 71
     0
 42
0.2
  3

  4

  0
STYLE
  5
83
330
3
100
AcDbSymbolTableRecord
100
AcDbTextStyleTableRecord
  2
MONOTXT
 70
     0
 40
0.0
 41
1.0
 50
0.0
 71
     0
 42
0.2
  3
MONOTXT
  4

  0
STYLE
  5
84
330
3
100
AcDbSymbolTableRecord
100
AcDbTextStyleTableRecord
  2
SYMAP
 70
     0
 40
1.0
 41
1.0
 50
0.0
 71
     0
 42
0.2
  3
SYMAP
  4

  0
STYLE
  5
85
330
3
100
AcDbSymbolTableRecord
100
AcDbTextStyleTableRecord
  2
CwStyleTtf
 70
     0
 40
1.0
 41
1.0
 50
0.0
 71
     0
 42
0.2
  3
arial.ttf
  4

  0
STYLE
  5
3ED
330
3
100
AcDbSymbolTableRecord
100
AcDbTextStyleTableRecord
  2
arial-
 70
     0
 40
1.0
 41
1.0
 50
0.0
 71
     0
 42
0.2
  3
arial.ttf
  4

1001
ACAD
1000
Arial
1071
        0
  0
STYLE
  5
3F0
330
3
100
AcDbSymbolTableRecord
100
AcDbTextStyleTableRecord
  2
tahoma-b
 70
     0
 40
1.0
 41
1.0
 50
0.0
 71
     0
 42
0.2
  3
tahomabd.ttf
  4

1001
ACAD
1000
Tahoma
1071
 33554432
  0
ENDTAB
  0
TABLE
  2
VIEW
  5
6
330
0
100
AcDbSymbolTable
 70
     0
  0
ENDTAB
  0
TABLE
  2
UCS
  5
7
330
0
100
AcDbSymbolTable
 70
     0
  0
ENDTAB
  0
TABLE
  2
APPID
  5
9
330
0
100
AcDbSymbolTable
 70
     3
  0
APPID
  5
12
330
9
100
AcDbSymbolTableRecord
100
AcDbRegAppTableRecord
  2
ACAD
 70
     0
  0
APPID
  5
6E
330
9
100
AcDbSymbolTableRecord
100
AcDbRegAppTableRecord
  2
Cadwork
 70
     0
  0
APPID
  5
232
330
9
100
AcDbSymbolTableRecord
100
AcDbRegAppTableRecord
  2
PLOTTRANSPARENCY
 70
     0
  0
ENDTAB
  0
TABLE
  2
DIMSTYLE
  5
A
330
0
100
AcDbSymbolTable
 70
     1
100
AcDbDimStyleTable
  0
DIMSTYLE
105
27
330
A
100
AcDbSymbolTableRecord
100
AcDbDimStyleTableRecord
  2
Standard
 70
     0
178
     0
340
11
  0
ENDTAB
  0
TABLE
  2
BLOCK_RECORD
  5
1
330
0
100
AcDbSymbolTable
 70
    69
  0
BLOCK_RECORD
  5
1F
330
1
100
AcDbSymbolTableRecord
100
AcDbBlockTableRecord
  2
*Model_Space
340
22
 70
     0
280
     1
281
     0
  0
BLOCK_RECORD
  5
22D
330
1
100
AcDbSymbolTableRecord
100
AcDbBlockTableRecord
  2
*Paper_Space
340
22E
 70
     0
280
     1
281
     0
  0
BLOCK_RECORD
  5
86
330
1
100
AcDbSymbolTableRecord
100
AcDbBlockTableRecord
  2
CDWK_PTTYP1
340
0
 70
     0
280
     1
281
     1
  0
BLOCK_RECORD
  5
8D
330
1
100
AcDbSymbolTableRecord
100
AcDbBlockTableRecord
  2
CDWK_PTTYP2
340
0
 70
     0
280
     1
281
     1
  0
BLOCK_RECORD
  5
92
330
1
100
AcDbSymbolTableRecord
100
AcDbBlockTableRecord
  2
CDWK_PTTYP4
340
0
 70
     0
280
     1
281
     1
  0
BLOCK_RECORD
  5
96
330
1
100
AcDbSymbolTableRecord
100
AcDbBlockTableRecord
  2
CDWK_PTTYP5
340
0
 70
     0
280
     1
281
     1
  0
BLOCK_RECORD
  5
9F
330
1
100
AcDbSymbolTableRecord
100
AcDbBlockTableRecord
  2
CDWK_PTTYP6
340
0
 70
     0
280
     1
281
     1
  0
BLOCK_RECORD
  5
A7
330
1
100
AcDbSymbolTableRecord
100
AcDbBlockTableRecord
  2
CDWK_PTTYP7
340
0
 70
     0
280
     1
281
     1
  0
BLOCK_RECORD
  5
B0
330
1
100
AcDbSymbolTableRecord
100
AcDbBlockTableRecord
  2
CDWK_PTTYP8
340
0
 70
     0
280
     1
281
     1
  0
BLOCK_RECORD
  5
B4
330
1
100
AcDbSymbolTableRecord
100
AcDbBlockTableRecord
  2
CDWK_PTTYP9
340
0
 70
     0
280
     1
281
     1
  0
BLOCK_RECORD
  5
B9
330
1
100
AcDbSymbolTableRecord
100
AcDbBlockTableRecord
  2
CDWK_PTTYP10
340
0
 70
     0
280
     1
281
     1
  0
BLOCK_RECORD
  5
BD
330
1
100
AcDbSymbolTableRecord
100
AcDbBlockTableRecord
  2
CDWK_PTTYP11
340
0
 70
     0
280
     1
281
     1
  0
BLOCK_RECORD
  5
C2
330
1
100
AcDbSymbolTableRecord
100
AcDbBlockTableRecord
  2
CDWK_PTTYP12
340
0
 70
     0
280
     1
281
     1
  0
BLOCK_RECORD
  5
C7
330
1
100
AcDbSymbolTableRecord
100
AcDbBlockTableRecord
  2
CDWK_PTTYP13
340
0
 70
     0
280
     1
281
     1
  0
BLOCK_RECORD
  5
CD
330
1
100
AcDbSymbolTableRecord
100
AcDbBlockTableRecord
  2
CDWK_PTTYP16
340
0
 70
     0
280
     1
281
     1
  0
BLOCK_RECORD
  5
D4
330
1
100
AcDbSymbolTableRecord
100
AcDbBlockTableRecord
  2
CDWK_PTTYP17
340
0
 70
     0
280
     1
281
     1
  0
BLOCK_RECORD
  5
D9
330
1
100
AcDbSymbolTableRecord
100
AcDbBlockTableRecord
  2
CDWK_PTTYP18
340
0
 70
     0
280
     1
281
     1
  0
BLOCK_RECORD
  5
DE
330
1
100
AcDbSymbolTableRecord
100
AcDbBlockTableRecord
  2
CDWK_PTTYP19
340
0
 70
     0
280
     1
281
     1
  0
BLOCK_RECORD
  5
E4
330
1
100
AcDbSymbolTableRecord
100
AcDbBlockTableRecord
  2
CDWK_PTTYP20
340
0
 70
     0
280
     1
281
     1
  0
BLOCK_RECORD
  5
E9
330
1
100
AcDbSymbolTableRecord
100
AcDbBlockTableRecord
  2
CDWK_PTTYP21
340
0
 70
     0
280
     1
281
     1
  0
BLOCK_RECORD
  5
EE
330
1
100
AcDbSymbolTableRecord
100
AcDbBlockTableRecord
  2
CDWK_PTTYP25
340
0
 70
     0
280
     1
281
     1
  0
BLOCK_RECORD
  5
F5
330
1
100
AcDbSymbolTableRecord
100
AcDbBlockTableRecord
  2
CDWK_PTTYP26
340
0
 70
     0
280
     1
281
     1
  0
BLOCK_RECORD
  5
FC
330
1
100
AcDbSymbolTableRecord
100
AcDbBlockTableRecord
  2
CDWK_PTTYP27
340
0
 70
     0
280
     1
281
     1
  0
BLOCK_RECORD
  5
104
330
1
100
AcDbSymbolTableRecord
100
AcDbBlockTableRecord
  2
CDWK_PTTYP28
340
0
 70
     0
280
     1
281
     1
  0
BLOCK_RECORD
  5
10B
330
1
100
AcDbSymbolTableRecord
100
AcDbBlockTableRecord
  2
CDWK_PTTYP29
340
0
 70
     0
280
     1
281
     1
  0
BLOCK_RECORD
  5
111
330
1
100
AcDbSymbolTableRecord
100
AcDbBlockTableRecord
  2
CDWK_PTTYP30
340
0
 70
     0
280
     1
281
     1
  0
BLOCK_RECORD
  5
118
330
1
100
AcDbSymbolTableRecord
100
AcDbBlockTableRecord
  2
CDWK_PTTYP31
340
0
 70
     0
280
     1
281
     1
  0
BLOCK_RECORD
  5
120
330
1
100
AcDbSymbolTableRecord
100
AcDbBlockTableRecord
  2
CDWK_PTTYP32
340
0
 70
     0
280
     1
281
     1
  0
BLOCK_RECORD
  5
129
330
1
100
AcDbSymbolTableRecord
100
AcDbBlockTableRecord
  2
CDWK_PTTYP33
340
0
 70
     0
280
     1
281
     1
  0
BLOCK_RECORD
  5
12F
330
1
100
AcDbSymbolTableRecord
100
AcDbBlockTableRecord
  2
CDWK_PTTYP34
340
0
 70
     0
280
     1
281
     1
  0
BLOCK_RECORD
  5
135
330
1
100
AcDbSymbolTableRecord
100
AcDbBlockTableRecord
  2
CDWK_PTTYP35
340
0
 70
     0
280
     1
281
     1
  0
BLOCK_RECORD
  5
13B
330
1
100
AcDbSymbolTableRecord
100
AcDbBlockTableRecord
  2
CDWK_PTTYP36
340
0
 70
     0
280
     1
281
     1
  0
BLOCK_RECORD
  5
143
330
1
100
AcDbSymbolTableRecord
100
AcDbBlockTableRecord
  2
CDWK_PTTYP37
340
0
 70
     0
280
     1
281
     1
  0
BLOCK_RECORD
  5
148
330
1
100
AcDbSymbolTableRecord
100
AcDbBlockTableRecord
  2
CDWK_PTTYP38
340
0
 70
     0
280
     1
281
     1
  0
BLOCK_RECORD
  5
14E
330
1
100
AcDbSymbolTableRecord
100
AcDbBlockTableRecord
  2
CDWK_PTTYP41
340
0
 70
     0
280
     1
281
     1
  0
BLOCK_RECORD
  5
158
330
1
100
AcDbSymbolTableRecord
100
AcDbBlockTableRecord
  2
CDWK_PTTYP42
340
0
 70
     0
280
     1
281
     1
  0
BLOCK_RECORD
  5
161
330
1
100
AcDbSymbolTableRecord
100
AcDbBlockTableRecord
  2
CDWK_PTTYP43
340
0
 70
     0
280
     1
281
     1
  0
BLOCK_RECORD
  5
167
330
1
100
AcDbSymbolTableRecord
100
AcDbBlockTableRecord
  2
CDWK_PTTYP44
340
0
 70
     0
280
     1
281
     1
  0
BLOCK_RECORD
  5
170
330
1
100
AcDbSymbolTableRecord
100
AcDbBlockTableRecord
  2
CDWK_PTTYP45
340
0
 70
     0
280
     1
281
     1
  0
BLOCK_RECORD
  5
175
330
1
100
AcDbSymbolTableRecord
100
AcDbBlockTableRecord
  2
CDWK_PTTYP46
340
0
 70
     0
280
     1
281
     1
  0
BLOCK_RECORD
  5
17A
330
1
100
AcDbSymbolTableRecord
100
AcDbBlockTableRecord
  2
CDWK_PTTYP47
340
0
 70
     0
280
     1
281
     1
  0
BLOCK_RECORD
  5
183
330
1
100
AcDbSymbolTableRecord
100
AcDbBlockTableRecord
  2
CDWK_PTTYP48
340
0
 70
     0
280
     1
281
     1
  0
BLOCK_RECORD
  5
188
330
1
100
AcDbSymbolTableRecord
100
AcDbBlockTableRecord
  2
CDWK_PTTYP49
340
0
 70
     0
280
     1
281
     1
  0
BLOCK_RECORD
  5
18F
330
1
100
AcDbSymbolTableRecord
100
AcDbBlockTableRecord
  2
CDWK_PTTYP50
340
0
 70
     0
280
     1
281
     1
  0
BLOCK_RECORD
  5
199
330
1
100
AcDbSymbolTableRecord
100
AcDbBlockTableRecord
  2
CDWK_PTTYP51
340
0
 70
     0
280
     1
281
     1
  0
BLOCK_RECORD
  5
19E
330
1
100
AcDbSymbolTableRecord
100
AcDbBlockTableRecord
  2
CDWK_PTTYP52
340
0
 70
     0
280
     1
281
     1
  0
BLOCK_RECORD
  5
1A4
330
1
100
AcDbSymbolTableRecord
100
AcDbBlockTableRecord
  2
cw-dimension-symbol1
340
0
 70
     0
280
     1
281
     0
  0
BLOCK_RECORD
  5
1AB
330
1
100
AcDbSymbolTableRecord
100
AcDbBlockTableRecord
  2
cw-dimension-symbol2
340
0
 70
     0
280
     1
281
     0
  0
BLOCK_RECORD
  5
1B0
330
1
100
AcDbSymbolTableRecord
100
AcDbBlockTableRecord
  2
cw-dimension-symbol3
340
0
 70
     0
280
     1
281
     0
  0
BLOCK_RECORD
  5
1B5
330
1
100
AcDbSymbolTableRecord
100
AcDbBlockTableRecord
  2
cw-dimension-symbol5
340
0
 70
     0
280
     1
281
     0
  0
BLOCK_RECORD
  5
1BC
330
1
100
AcDbSymbolTableRecord
100
AcDbBlockTableRecord
  2
cw-dimension-symbol6
340
0
 70
     0
280
     1
281
     0
  0
BLOCK_RECORD
  5
1C2
330
1
100
AcDbSymbolTableRecord
100
AcDbBlockTableRecord
  2
cw-dimension-symbol11
340
0
 70
     0
280
     1
281
     0
  0
BLOCK_RECORD
  5
1C8
330
1
100
AcDbSymbolTableRecord
100
AcDbBlockTableRecord
  2
cw-dimension-symbol13
340
0
 70
     0
280
     1
281
     0
  0
BLOCK_RECORD
  5
1CE
330
1
100
AcDbSymbolTableRecord
100
AcDbBlockTableRecord
  2
cw-dimension-symbol15
340
0
 70
     0
280
     1
281
     0
  0
BLOCK_RECORD
  5
1D5
330
1
100
AcDbSymbolTableRecord
100
AcDbBlockTableRecord
  2
cw-dimension-symbol16
340
0
 70
     0
280
     1
281
     0
  0
BLOCK_RECORD
  5
1DC
330
1
100
AcDbSymbolTableRecord
100
AcDbBlockTableRecord
  2
cw-dimension-symbol17
340
0
 70
     0
280
     1
281
     0
  0
BLOCK_RECORD
  5
1E3
330
1
100
AcDbSymbolTableRecord
100
AcDbBlockTableRecord
  2
cw-dimension-symbol18
340
0
 70
     0
280
     1
281
     0
  0
BLOCK_RECORD
  5
1EA
330
1
100
AcDbSymbolTableRecord
100
AcDbBlockTableRecord
  2
cw-dimension-symbol19
340
0
 70
     0
280
     1
281
     0
  0
BLOCK_RECORD
  5
1ED
330
1
100
AcDbSymbolTableRecord
100
AcDbBlockTableRecord
  2
cw-dimension-symbol20
340
0
 70
     0
280
     1
281
     0
  0
BLOCK_RECORD
  5
1F4
330
1
100
AcDbSymbolTableRecord
100
AcDbBlockTableRecord
  2
cw-dimension-symbol21
340
0
 70
     0
280
     1
281
     0
  0
BLOCK_RECORD
  5
1FB
330
1
100
AcDbSymbolTableRecord
100
AcDbBlockTableRecord
  2
cw-line-extremity0
340
0
 70
     0
280
     1
281
     0
  0
BLOCK_RECORD
  5
1FF
330
1
100
AcDbSymbolTableRecord
100
AcDbBlockTableRecord
  2
cw-line-extremity2
340
0
 70
     0
280
     1
281
     0
  0
BLOCK_RECORD
  5
204
330
1
100
AcDbSymbolTableRecord
100
AcDbBlockTableRecord
  2
cw-line-extremity3
340
0
 70
     0
280
     1
281
     0
  0
BLOCK_RECORD
  5
209
330
1
100
AcDbSymbolTableRecord
100
AcDbBlockTableRecord
  2
cw-line-extremity301
340
0
 70
     0
280
     1
281
     0
  0
BLOCK_RECORD
  5
20B
330
1
100
AcDbSymbolTableRecord
100
AcDbBlockTableRecord
  2
cw-line-extremity4
340
0
102
{BLKREFS
331
3BF
331
3C1
331
3C3
331
3D4
331
3D6
331
3D8
331
3DA
331
3DC
102
}
 70
     0
280
     1
281
     0
  0
BLOCK_RECORD
  5
20D
330
1
100
AcDbSymbolTableRecord
100
AcDbBlockTableRecord
  2
cw-line-extremity5
340
0
 70
     0
280
     1
281
     0
  0
BLOCK_RECORD
  5
20F
330
1
100
AcDbSymbolTableRecord
100
AcDbBlockTableRecord
  2
cw-line-extremity6
340
0
 70
     0
280
     1
281
     0
  0
BLOCK_RECORD
  5
211
330
1
100
AcDbSymbolTableRecord
100
AcDbBlockTableRecord
  2
cw-line-extremity9
340
0
 70
     0
280
     1
281
     0
  0
BLOCK_RECORD
  5
213
330
1
100
AcDbSymbolTableRecord
100
AcDbBlockTableRecord
  2
cw-line-extremity10
340
0
 70
     0
280
     1
281
     0
  0
BLOCK_RECORD
  5
215
330
1
100
AcDbSymbolTableRecord
100
AcDbBlockTableRecord
  2
cw-line-extremity1
340
0
 70
     0
280
     1
281
     0
  0
BLOCK_RECORD
  5
1B
330
1
100
AcDbSymbolTableRecord
100
AcDbBlockTableRecord
  2
*Paper_Space69
340
1E
 70
     0
280
     1
281
     0
  0
ENDTAB
  0
ENDSEC
  0
SECTION
  2
BLOCKS
  0
BLOCK
  5
20
330
1F
100
AcDbEntity
  8
0
100
AcDbBlockBegin
  2
*Model_Space
 70
     0
 10
0.0
 20
0.0
 30
0.0
  3
*Model_Space
  1

  0
ENDBLK
  5
21
330
1F
100
AcDbEntity
  8
0
100
AcDbBlockEnd
  0
BLOCK
  5
22F
330
22D
100
AcDbEntity
 67
     1
  8
0
100
AcDbBlockBegin
  2
*Paper_Space
 70
     0
 10
0.0
 20
0.0
 30
0.0
  3
*Paper_Space
  1

  0
ENDBLK
  5
230
330
22D
100
AcDbEntity
 67
     1
  8
0
100
AcDbBlockEnd
  0
BLOCK
  5
8B
330
86
100
AcDbEntity
  8
0
100
AcDbBlockBegin
  2
CDWK_PTTYP1
 70
     0
 10
0.0
 20
0.0
 30
0.0
  3
CDWK_PTTYP1
  1

  0
LINE
  5
87
330
86
100
AcDbEntity
  8
0
 62
     0
370
    -2
100
AcDbLine
 10
-0.5
 20
0.5
 30
0.0
 11
0.5
 21
0.5
 31
0.0
  0
LINE
  5
88
330
86
100
AcDbEntity
  8
0
 62
     0
370
    -2
100
AcDbLine
 10
0.5
 20
0.5
 30
0.0
 11
0.5
 21
-0.5
 31
0.0
  0
LINE
  5
89
330
86
100
AcDbEntity
  8
0
 62
     0
370
    -2
100
AcDbLine
 10
0.5
 20
-0.5
 30
0.0
 11
-0.5
 21
-0.5
 31
0.0
  0
LINE
  5
8A
330
86
100
AcDbEntity
  8
0
 62
     0
370
    -2
100
AcDbLine
 10
-0.5
 20
-0.5
 30
0.0
 11
-0.5
 21
0.5
 31
0.0
  0
ENDBLK
  5
8C
330
86
100
AcDbEntity
  8
0
100
AcDbBlockEnd
  0
BLOCK
  5
90
330
8D
100
AcDbEntity
  8
0
100
AcDbBlockBegin
  2
CDWK_PTTYP2
 70
     0
 10
0.0
 20
0.0
 30
0.0
  3
CDWK_PTTYP2
  1

  0
LINE
  5
8E
330
8D
100
AcDbEntity
  8
0
 62
     0
370
    -2
100
AcDbLine
 10
0.0
 20
0.5
 30
0.0
 11
0.0
 21
-0.5
 31
0.0
  0
LINE
  5
8F
330
8D
100
AcDbEntity
  8
0
 62
     0
370
    -2
100
AcDbLine
 10
0.5
 20
0.0
 30
0.0
 11
-0.5
 21
0.0
 31
0.0
  0
ENDBLK
  5
91
330
8D
100
AcDbEntity
  8
0
100
AcDbBlockEnd
  0
BLOCK
  5
94
330
92
100
AcDbEntity
  8
0
100
AcDbBlockBegin
  2
CDWK_PTTYP4
 70
     0
 10
0.0
 20
0.0
 30
0.0
  3
CDWK_PTTYP4
  1

  0
HATCH
  5
93
330
92
100
AcDbEntity
  8
0
 62
     0
370
    -2
100
AcDbHatch
 10
0.0
 20
0.0
 30
0.0
210
0.0
220
0.0
230
1.0
  2
SOLID
 70
     1
 71
     1
 91
        1
 92
        1
 93
        1
 72
     2
 10
0.0
 20
0.0
 40
0.5
 50
0.0
 51
360.0
 73
     1
 97
        0
 75
     0
 76
     1
 98
        0
  0
ENDBLK
  5
95
330
92
100
AcDbEntity
  8
0
100
AcDbBlockEnd
  0
BLOCK
  5
9D
330
96
100
AcDbEntity
  8
0
100
AcDbBlockBegin
  2
CDWK_PTTYP5
 70
     0
 10
0.0
 20
0.0
 30
0.0
  3
CDWK_PTTYP5
  1

  0
LINE
  5
97
330
96
100
AcDbEntity
  8
0
 62
     0
370
    -2
100
AcDbLine
 10
-0.5
 20
0.5
 30
0.0
 11
0.5
 21
0.5
 31
0.0
  0
LINE
  5
98
330
96
100
AcDbEntity
  8
0
 62
     0
370
    -2
100
AcDbLine
 10
0.5
 20
0.5
 30
0.0
 11
0.5
 21
-0.5
 31
0.0
  0
LINE
  5
99
330
96
100
AcDbEntity
  8
0
 62
     0
370
    -2
100
AcDbLine
 10
0.5
 20
-0.5
 30
0.0
 11
-0.5
 21
-0.5
 31
0.0
  0
LINE
  5
9A
330
96
100
AcDbEntity
  8
0
 62
     0
370
    -2
100
AcDbLine
 10
-0.5
 20
-0.5
 30
0.0
 11
-0.5
 21
0.5
 31
0.0
  0
HATCH
  5
9B
330
96
100
AcDbEntity
  8
0
 62
     0
370
    -2
100
AcDbHatch
 10
0.0
 20
0.0
 30
0.0
210
0.0
220
0.0
230
1.0
  2
SOLID
 70
     1
 71
     1
 91
        1
 92
        3
 72
     0
 73
     1
 93
        4
 10
-0.5
 20
0.0
 10
0.0
 20
0.0
 10
0.0
 20
-0.5
 10
-0.5
 20
-0.5
 97
        0
 75
     0
 76
     1
 98
        0
  0
HATCH
  5
9C
330
96
100
AcDbEntity
  8
0
 62
     0
370
    -2
100
AcDbHatch
 10
0.0
 20
0.0
 30
0.0
210
0.0
220
0.0
230
1.0
  2
SOLID
 70
     1
 71
     1
 91
        1
 92
        3
 72
     0
 73
     1
 93
        4
 10
0.0
 20
0.0
 10
0.5
 20
0.0
 10
0.5
 20
0.5
 10
0.0
 20
0.5
 97
        0
 75
     0
 76
     1
 98
        0
  0
ENDBLK
  5
9E
330
96
100
AcDbEntity
  8
0
100
AcDbBlockEnd
  0
BLOCK
  5
A5
330
9F
100
AcDbEntity
  8
0
100
AcDbBlockBegin
  2
CDWK_PTTYP6
 70
     0
 10
0.0
 20
0.0
 30
0.0
  3
CDWK_PTTYP6
  1

  0
LINE
  5
A0
330
9F
100
AcDbEntity
  8
0
 62
     0
370
    -2
100
AcDbLine
 10
-0.5
 20
0.5
 30
0.0
 11
0.5
 21
0.5
 31
0.0
  0
LINE
  5
A1
330
9F
100
AcDbEntity
  8
0
 62
     0
370
    -2
100
AcDbLine
 10
0.5
 20
0.5
 30
0.0
 11
0.5
 21
-0.5
 31
0.0
  0
LINE
  5
A2
330
9F
100
AcDbEntity
  8
0
 62
     0
370
    -2
100
AcDbLine
 10
0.5
 20
-0.5
 30
0.0
 11
-0.5
 21
-0.5
 31
0.0
  0
LINE
  5
A3
330
9F
100
AcDbEntity
  8
0
 62
     0
370
    -2
100
AcDbLine
 10
-0.5
 20
-0.5
 30
0.0
 11
-0.5
 21
0.5
 31
0.0
  0
HATCH
  5
A4
330
9F
100
AcDbEntity
  8
0
 62
     0
370
    -2
100
AcDbHatch
 10
0.0
 20
0.0
 30
0.0
210
0.0
220
0.0
230
1.0
  2
SOLID
 70
     1
 71
     1
 91
        1
 92
        3
 72
     0
 73
     1
 93
        3
 10
-0.5
 20
-0.5
 10
-0.5
 20
0.5
 10
0.5
 20
0.5
 97
        0
 75
     0
 76
     1
 98
        0
  0
ENDBLK
  5
A6
330
9F
100
AcDbEntity
  8
0
100
AcDbBlockEnd
  0
BLOCK
  5
AE
330
A7
100
AcDbEntity
  8
0
100
AcDbBlockBegin
  2
CDWK_PTTYP7
 70
     0
 10
0.0
 20
0.0
 30
0.0
  3
CDWK_PTTYP7
  1

  0
LINE
  5
A8
330
A7
100
AcDbEntity
  8
0
 62
     0
370
    -2
100
AcDbLine
 10
-0.5
 20
0.5
 30
0.0
 11
0.5
 21
0.5
 31
0.0
  0
LINE
  5
A9
330
A7
100
AcDbEntity
  8
0
 62
     0
370
    -2
100
AcDbLine
 10
0.5
 20
0.5
 30
0.0
 11
0.5
 21
-0.5
 31
0.0
  0
LINE
  5
AA
330
A7
100
AcDbEntity
  8
0
 62
     0
370
    -2
100
AcDbLine
 10
0.5
 20
-0.5
 30
0.0
 11
-0.5
 21
-0.5
 31
0.0
  0
LINE
  5
AB
330
A7
100
AcDbEntity
  8
0
 62
     0
370
    -2
100
AcDbLine
 10
-0.5
 20
-0.5
 30
0.0
 11
-0.5
 21
0.5
 31
0.0
  0
LINE
  5
AC
330
A7
100
AcDbEntity
  8
0
 62
     0
370
    -2
100
AcDbLine
 10
0.0
 20
0.5
 30
0.0
 11
0.0
 21
-0.5
 31
0.0
  0
LINE
  5
AD
330
A7
100
AcDbEntity
  8
0
 62
     0
370
    -2
100
AcDbLine
 10
0.5
 20
0.0
 30
0.0
 11
-0.5
 21
0.0
 31
0.0
  0
ENDBLK
  5
AF
330
A7
100
AcDbEntity
  8
0
100
AcDbBlockEnd
  0
BLOCK
  5
B2
330
B0
100
AcDbEntity
  8
0
100
AcDbBlockBegin
  2
CDWK_PTTYP8
 70
     0
 10
0.0
 20
0.0
 30
0.0
  3
CDWK_PTTYP8
  1

  0
HATCH
  5
B1
330
B0
100
AcDbEntity
  8
0
 62
     0
370
    -2
100
AcDbHatch
 10
0.0
 20
0.0
 30
0.0
210
0.0
220
0.0
230
1.0
  2
SOLID
 70
     1
 71
     1
 91
        1
 92
        3
 72
     0
 73
     1
 93
        4
 10
0.5
 20
0.5
 10
0.5
 20
-0.5
 10
-0.5
 20
-0.5
 10
-0.5
 20
0.5
 97
        0
 75
     0
 76
     1
 98
        0
  0
ENDBLK
  5
B3
330
B0
100
AcDbEntity
  8
0
100
AcDbBlockEnd
  0
BLOCK
  5
B7
330
B4
100
AcDbEntity
  8
0
100
AcDbBlockBegin
  2
CDWK_PTTYP9
 70
     0
 10
0.0
 20
0.0
 30
0.0
  3
CDWK_PTTYP9
  1

  0
CIRCLE
  5
B5
330
B4
100
AcDbEntity
  8
0
 62
     0
370
    -2
100
AcDbCircle
 10
0.0
 20
0.0
 30
0.0
 40
0.1666666666666667
  0
CIRCLE
  5
B6
330
B4
100
AcDbEntity
  8
0
 62
     0
370
    -2
100
AcDbCircle
 10
0.0
 20
0.0
 30
0.0
 40
0.5
  0
ENDBLK
  5
B8
330
B4
100
AcDbEntity
  8
0
100
AcDbBlockEnd
  0
BLOCK
  5
BB
330
B9
100
AcDbEntity
  8
0
100
AcDbBlockBegin
  2
CDWK_PTTYP10
 70
     0
 10
0.0
 20
0.0
 30
0.0
  3
CDWK_PTTYP10
  1

  0
CIRCLE
  5
BA
330
B9
100
AcDbEntity
  8
0
 62
     0
370
    -2
100
AcDbCircle
 10
0.0
 20
0.0
 30
0.0
 40
0.5
  0
ENDBLK
  5
BC
330
B9
100
AcDbEntity
  8
0
100
AcDbBlockEnd
  0
BLOCK
  5
C0
330
BD
100
AcDbEntity
  8
0
100
AcDbBlockBegin
  2
CDWK_PTTYP11
 70
     0
 10
0.0
 20
0.0
 30
0.0
  3
CDWK_PTTYP11
  1

  0
CIRCLE
  5
BE
330
BD
100
AcDbEntity
  8
0
 62
     0
370
    -2
100
AcDbCircle
 10
0.0
 20
0.0
 30
0.0
 40
0.25
  0
CIRCLE
  5
BF
330
BD
100
AcDbEntity
  8
0
 62
     0
370
    -2
100
AcDbCircle
 10
0.0
 20
0.0
 30
0.0
 40
0.5
  0
ENDBLK
  5
C1
330
BD
100
AcDbEntity
  8
0
100
AcDbBlockEnd
  0
BLOCK
  5
C5
330
C2
100
AcDbEntity
  8
0
100
AcDbBlockBegin
  2
CDWK_PTTYP12
 70
     0
 10
0.0
 20
0.0
 30
0.0
  3
CDWK_PTTYP12
  1

  0
CIRCLE
  5
C3
330
C2
100
AcDbEntity
  8
0
 62
     0
370
    -2
100
AcDbCircle
 10
0.25
 20
0.0
 30
0.0
 40
0.25
  0
CIRCLE
  5
C4
330
C2
100
AcDbEntity
  8
0
 62
     0
370
    -2
100
AcDbCircle
 10
0.0
 20
0.0
 30
0.0
 40
0.5
  0
ENDBLK
  5
C6
330
C2
100
AcDbEntity
  8
0
100
AcDbBlockEnd
  0
BLOCK
  5
CB
330
C7
100
AcDbEntity
  8
0
100
AcDbBlockBegin
  2
CDWK_PTTYP13
 70
     0
 10
0.0
 20
0.0
 30
0.0
  3
CDWK_PTTYP13
  1

  0
CIRCLE
  5
C8
330
C7
100
AcDbEntity
  8
0
 62
     0
370
    -2
100
AcDbCircle
 10
-0.25
 20
0.0
 30
0.0
 40
0.25
  0
CIRCLE
  5
C9
330
C7
100
AcDbEntity
  8
0
 62
     0
370
    -2
100
AcDbCircle
 10
0.25
 20
0.0
 30
0.0
 40
0.25
  0
CIRCLE
  5
CA
330
C7
100
AcDbEntity
  8
0
 62
     0
370
    -2
100
AcDbCircle
 10
0.0
 20
0.0
 30
0.0
 40
0.5
  0
ENDBLK
  5
CC
330
C7
100
AcDbEntity
  8
0
100
AcDbBlockEnd
  0
BLOCK
  5
D2
330
CD
100
AcDbEntity
  8
0
100
AcDbBlockBegin
  2
CDWK_PTTYP16
 70
     0
 10
0.0
 20
0.0
 30
0.0
  3
CDWK_PTTYP16
  1

  0
LINE
  5
CE
330
CD
100
AcDbEntity
  8
0
 62
     0
370
    -2
100
AcDbLine
 10
-0.5
 20
-0.289
 30
0.0
 11
0.5
 21
-0.289
 31
0.0
  0
LINE
  5
CF
330
CD
100
AcDbEntity
  8
0
 62
     0
370
    -2
100
AcDbLine
 10
0.5
 20
-0.289
 30
0.0
 11
0.0
 21
0.577
 31
0.0
  0
LINE
  5
D0
330
CD
100
AcDbEntity
  8
0
 62
     0
370
    -2
100
AcDbLine
 10
0.0
 20
0.577
 30
0.0
 11
-0.5
 21
-0.289
 31
0.0
  0
CIRCLE
  5
D1
330
CD
100
AcDbEntity
  8
0
 62
     0
370
    -2
100
AcDbCircle
 10
0.0
 20
0.0
 30
0.0
 40
0.289
  0
ENDBLK
  5
D3
330
CD
100
AcDbEntity
  8
0
100
AcDbBlockEnd
  0
BLOCK
  5
D7
330
D4
100
AcDbEntity
  8
0
100
AcDbBlockBegin
  2
CDWK_PTTYP17
 70
     0
 10
0.0
 20
0.0
 30
0.0
  3
CDWK_PTTYP17
  1

  0
CIRCLE
  5
D5
330
D4
100
AcDbEntity
  8
0
 62
     0
370
    -2
100
AcDbCircle
 10
0.0
 20
0.0
 30
0.0
 40
0.5
  0
HATCH
  5
D6
330
D4
100
AcDbEntity
  8
0
 62
     0
370
    -2
100
AcDbHatch
 10
0.0
 20
0.0
 30
0.0
210
0.0
220
0.0
230
1.0
  2
SOLID
 70
     1
 71
     1
 91
        1
 92
        1
 93
        1
 72
     2
 10
0.0
 20
0.0
 40
0.25
 50
0.0
 51
360.0
 73
     1
 97
        0
 75
     0
 76
     1
 98
        0
  0
ENDBLK
  5
D8
330
D4
100
AcDbEntity
  8
0
100
AcDbBlockEnd
  0
BLOCK
  5
DC
330
D9
100
AcDbEntity
  8
0
100
AcDbBlockBegin
  2
CDWK_PTTYP18
 70
     0
 10
0.0
 20
0.0
 30
0.0
  3
CDWK_PTTYP18
  1

  0
CIRCLE
  5
DA
330
D9
100
AcDbEntity
  8
0
 62
     0
370
    -2
100
AcDbCircle
 10
0.0
 20
0.0
 30
0.0
 40
0.5
  0
CIRCLE
  5
DB
330
D9
100
AcDbEntity
  8
0
 62
     0
370
    -2
100
AcDbCircle
 10
0.0
 20
0.0
 30
0.0
 40
0.208
  0
ENDBLK
  5
DD
330
D9
100
AcDbEntity
  8
0
100
AcDbBlockEnd
  0
BLOCK
  5
E2
330
DE
100
AcDbEntity
  8
0
100
AcDbBlockBegin
  2
CDWK_PTTYP19
 70
     0
 10
0.0
 20
0.0
 30
0.0
  3
CDWK_PTTYP19
  1

  0
CIRCLE
  5
DF
330
DE
100
AcDbEntity
  8
0
 62
     0
370
    -2
100
AcDbCircle
 10
0.0
 20
0.0
 30
0.0
 40
0.25
  0
CIRCLE
  5
E0
330
DE
100
AcDbEntity
  8
0
 62
     0
370
    -2
100
AcDbCircle
 10
0.0
 20
0.0
 30
0.0
 40
0.35
  0
LINE
  5
E1
330
DE
100
AcDbEntity
  8
0
 62
     0
370
    -2
100
AcDbLine
 10
-0.25
 20
0.0
 30
0.0
 11
0.25
 21
0.0
 31
0.0
  0
ENDBLK
  5
E3
330
DE
100
AcDbEntity
  8
0
100
AcDbBlockEnd
  0
BLOCK
  5
E7
330
E4
100
AcDbEntity
  8
0
100
AcDbBlockBegin
  2
CDWK_PTTYP20
 70
     0
 10
0.0
 20
0.0
 30
0.0
  3
CDWK_PTTYP20
  1

  0
CIRCLE
  5
E5
330
E4
100
AcDbEntity
  8
0
 62
     0
370
    -2
100
AcDbCircle
 10
0.0
 20
0.0
 30
0.0
 40
0.3333333333333333
  0
CIRCLE
  5
E6
330
E4
100
AcDbEntity
  8
0
 62
     0
370
    -2
100
AcDbCircle
 10
0.0
 20
0.0
 30
0.0
 40
0.5
  0
ENDBLK
  5
E8
330
E4
100
AcDbEntity
  8
0
100
AcDbBlockEnd
  0
BLOCK
  5
EC
330
E9
100
AcDbEntity
  8
0
100
AcDbBlockBegin
  2
CDWK_PTTYP21
 70
     0
 10
0.0
 20
0.0
 30
0.0
  3
CDWK_PTTYP21
  1

  0
CIRCLE
  5
EA
330
E9
100
AcDbEntity
  8
0
 62
     0
370
    -2
100
AcDbCircle
 10
0.0
 20
0.0
 30
0.0
 40
0.5
  0
LINE
  5
EB
330
E9
100
AcDbEntity
  8
0
 62
     0
370
    -2
100
AcDbLine
 10
-0.5
 20
0.0
 30
0.0
 11
0.5
 21
0.0
 31
0.0
  0
ENDBLK
  5
ED
330
E9
100
AcDbEntity
  8
0
100
AcDbBlockEnd
  0
BLOCK
  5
F3
330
EE
100
AcDbEntity
  8
0
100
AcDbBlockBegin
  2
CDWK_PTTYP25
 70
     0
 10
0.0
 20
0.0
 30
0.0
  3
CDWK_PTTYP25
  1

  0
LINE
  5
EF
330
EE
100
AcDbEntity
  8
0
 62
     0
370
    -2
100
AcDbLine
 10
0.0
 20
0.5
 30
0.0
 11
-0.4330127018922193
 21
-0.25
 31
0.0
  0
LINE
  5
F0
330
EE
100
AcDbEntity
  8
0
 62
     0
370
    -2
100
AcDbLine
 10
-0.4330127018922193
 20
-0.25
 30
0.0
 11
0.4330127018922193
 21
-0.25
 31
0.0
  0
LINE
  5
F1
330
EE
100
AcDbEntity
  8
0
 62
     0
370
    -2
100
AcDbLine
 10
0.4330127018922193
 20
-0.25
 30
0.0
 11
0.0
 21
0.5
 31
0.0
  0
CIRCLE
  5
F2
330
EE
100
AcDbEntity
  8
0
 62
     0
370
    -2
100
AcDbCircle
 10
0.0
 20
0.0
 30
0.0
 40
0.5
  0
ENDBLK
  5
F4
330
EE
100
AcDbEntity
  8
0
100
AcDbBlockEnd
  0
BLOCK
  5
FA
330
F5
100
AcDbEntity
  8
0
100
AcDbBlockBegin
  2
CDWK_PTTYP26
 70
     0
 10
0.0
 20
0.0
 30
0.0
  3
CDWK_PTTYP26
  1

  0
LINE
  5
F6
330
F5
100
AcDbEntity
  8
0
 62
     0
370
    -2
100
AcDbLine
 10
-0.5
 20
-0.289
 30
0.0
 11
0.5
 21
-0.289
 31
0.0
  0
LINE
  5
F7
330
F5
100
AcDbEntity
  8
0
 62
     0
370
    -2
100
AcDbLine
 10
0.5
 20
-0.289
 30
0.0
 11
0.0
 21
0.577
 31
0.0
  0
LINE
  5
F8
330
F5
100
AcDbEntity
  8
0
 62
     0
370
    -2
100
AcDbLine
 10
0.0
 20
0.577
 30
0.0
 11
-0.5
 21
-0.289
 31
0.0
  0
CIRCLE
  5
F9
330
F5
100
AcDbEntity
  8
0
 62
     0
370
    -2
100
AcDbCircle
 10
0.0
 20
0.0
 30
0.0
 40
0.125
  0
ENDBLK
  5
FB
330
F5
100
AcDbEntity
  8
0
100
AcDbBlockEnd
  0
BLOCK
  5
102
330
FC
100
AcDbEntity
  8
0
100
AcDbBlockBegin
  2
CDWK_PTTYP27
 70
     0
 10
0.0
 20
0.0
 30
0.0
  3
CDWK_PTTYP27
  1

  0
LINE
  5
FD
330
FC
100
AcDbEntity
  8
0
 62
     0
370
    -2
100
AcDbLine
 10
0.0
 20
0.5
 30
0.0
 11
-0.4330127018922193
 21
-0.25
 31
0.0
  0
LINE
  5
FE
330
FC
100
AcDbEntity
  8
0
 62
     0
370
    -2
100
AcDbLine
 10
-0.4330127018922193
 20
-0.25
 30
0.0
 11
0.4330127018922193
 21
-0.25
 31
0.0
  0
LINE
  5
FF
330
FC
100
AcDbEntity
  8
0
 62
     0
370
    -2
100
AcDbLine
 10
0.4330127018922193
 20
-0.25
 30
0.0
 11
0.0
 21
0.5
 31
0.0
  0
CIRCLE
  5
100
330
FC
100
AcDbEntity
  8
0
 62
     0
370
    -2
100
AcDbCircle
 10
0.0
 20
0.0
 30
0.0
 40
0.125
  0
CIRCLE
  5
101
330
FC
100
AcDbEntity
  8
0
 62
     0
370
    -2
100
AcDbCircle
 10
0.0
 20
0.0
 30
0.0
 40
0.5
  0
ENDBLK
  5
103
330
FC
100
AcDbEntity
  8
0
100
AcDbBlockEnd
  0
BLOCK
  5
109
330
104
100
AcDbEntity
  8
0
100
AcDbBlockBegin
  2
CDWK_PTTYP28
 70
     0
 10
0.0
 20
0.0
 30
0.0
  3
CDWK_PTTYP28
  1

  0
LINE
  5
105
330
104
100
AcDbEntity
  8
0
 62
     0
370
    -2
100
AcDbLine
 10
-0.5
 20
0.5
 30
0.0
 11
0.5
 21
0.5
 31
0.0
  0
LINE
  5
106
330
104
100
AcDbEntity
  8
0
 62
     0
370
    -2
100
AcDbLine
 10
0.5
 20
0.5
 30
0.0
 11
-0.5
 21
-0.5
 31
0.0
  0
LINE
  5
107
330
104
100
AcDbEntity
  8
0
 62
     0
370
    -2
100
AcDbLine
 10
0.5
 20
-0.5
 30
0.0
 11
-0.5
 21
-0.5
 31
0.0
  0
LINE
  5
108
330
104
100
AcDbEntity
  8
0
 62
     0
370
    -2
100
AcDbLine
 10
-0.5
 20
0.5
 30
0.0
 11
0.5
 21
-0.5
 31
0.0
  0
ENDBLK
  5
10A
330
104
100
AcDbEntity
  8
0
100
AcDbBlockEnd
  0
BLOCK
  5
10F
330
10B
100
AcDbEntity
  8
0
100
AcDbBlockBegin
  2
CDWK_PTTYP29
 70
     0
 10
0.0
 20
0.0
 30
0.0
  3
CDWK_PTTYP29
  1

  0
CIRCLE
  5
10C
330
10B
100
AcDbEntity
  8
0
 62
     0
370
    -2
100
AcDbCircle
 10
0.0
 20
0.0
 30
0.0
 40
0.2
  0
CIRCLE
  5
10D
330
10B
100
AcDbEntity
  8
0
 62
     0
370
    -2
100
AcDbCircle
 10
0.0
 20
0.0
 30
0.0
 40
0.35
  0
CIRCLE
  5
10E
330
10B
100
AcDbEntity
  8
0
 62
     0
370
    -2
100
AcDbCircle
 10
0.0
 20
0.0
 30
0.0
 40
0.5
  0
ENDBLK
  5
110
330
10B
100
AcDbEntity
  8
0
100
AcDbBlockEnd
  0
BLOCK
  5
116
330
111
100
AcDbEntity
  8
0
100
AcDbBlockBegin
  2
CDWK_PTTYP30
 70
     0
 10
0.0
 20
0.0
 30
0.0
  3
CDWK_PTTYP30
  1

  0
LINE
  5
112
330
111
100
AcDbEntity
  8
0
 62
     0
370
    -2
100
AcDbLine
 10
-0.5
 20
0.5
 30
0.0
 11
-0.1
 21
0.1
 31
0.0
  0
LINE
  5
113
330
111
100
AcDbEntity
  8
0
 62
     0
370
    -2
100
AcDbLine
 10
0.5
 20
0.5
 30
0.0
 11
0.1
 21
0.1
 31
0.0
  0
LINE
  5
114
330
111
100
AcDbEntity
  8
0
 62
     0
370
    -2
100
AcDbLine
 10
0.5
 20
-0.5
 30
0.0
 11
0.1
 21
-0.1
 31
0.0
  0
LINE
  5
115
330
111
100
AcDbEntity
  8
0
 62
     0
370
    -2
100
AcDbLine
 10
-0.5
 20
-0.5
 30
0.0
 11
-0.1
 21
-0.1
 31
0.0
  0
ENDBLK
  5
117
330
111
100
AcDbEntity
  8
0
100
AcDbBlockEnd
  0
BLOCK
  5
11E
330
118
100
AcDbEntity
  8
0
100
AcDbBlockBegin
  2
CDWK_PTTYP31
 70
     0
 10
0.0
 20
0.0
 30
0.0
  3
CDWK_PTTYP31
  1

  0
LINE
  5
119
330
118
100
AcDbEntity
  8
0
 62
     0
370
    -2
100
AcDbLine
 10
-0.5
 20
0.0
 30
0.0
 11
-0.1
 21
0.0
 31
0.0
  0
LINE
  5
11A
330
118
100
AcDbEntity
  8
0
 62
     0
370
    -2
100
AcDbLine
 10
0.1
 20
0.0
 30
0.0
 11
0.5
 21
0.0
 31
0.0
  0
LINE
  5
11B
330
118
100
AcDbEntity
  8
0
 62
     0
370
    -2
100
AcDbLine
 10
0.0
 20
0.5
 30
0.0
 11
0.0
 21
0.1
 31
0.0
  0
LINE
  5
11C
330
118
100
AcDbEntity
  8
0
 62
     0
370
    -2
100
AcDbLine
 10
0.0
 20
-0.1
 30
0.0
 11
0.0
 21
-0.5
 31
0.0
  0
CIRCLE
  5
11D
330
118
100
AcDbEntity
  8
0
 62
     0
370
    -2
100
AcDbCircle
 10
0.0
 20
0.0
 30
0.0
 40
0.1
  0
ENDBLK
  5
11F
330
118
100
AcDbEntity
  8
0
100
AcDbBlockEnd
  0
BLOCK
  5
127
330
120
100
AcDbEntity
  8
0
100
AcDbBlockBegin
  2
CDWK_PTTYP32
 70
     0
 10
0.0
 20
0.0
 30
0.0
  3
CDWK_PTTYP32
  1

  0
CIRCLE
  5
121
330
120
100
AcDbEntity
  8
0
 62
     0
370
    -2
100
AcDbCircle
 10
0.0
 20
0.0
 30
0.0
 40
0.2
  0
CIRCLE
  5
122
330
120
100
AcDbEntity
  8
0
 62
     0
370
    -2
100
AcDbCircle
 10
0.0
 20
0.0
 30
0.0
 40
0.5
  0
LINE
  5
123
330
120
100
AcDbEntity
  8
0
 62
     0
370
    -2
100
AcDbLine
 10
0.1414213562373095
 20
0.1414213562373095
 30
0.0
 11
0.3535533905932738
 21
0.3535533905932738
 31
0.0
  0
LINE
  5
124
330
120
100
AcDbEntity
  8
0
 62
     0
370
    -2
100
AcDbLine
 10
-0.1414213562373095
 20
0.1414213562373095
 30
0.0
 11
-0.3535533905932738
 21
0.3535533905932738
 31
0.0
  0
LINE
  5
125
330
120
100
AcDbEntity
  8
0
 62
     0
370
    -2
100
AcDbLine
 10
0.1414213562373095
 20
-0.1414213562373095
 30
0.0
 11
0.3535533905932738
 21
-0.3535533905932738
 31
0.0
  0
LINE
  5
126
330
120
100
AcDbEntity
  8
0
 62
     0
370
    -2
100
AcDbLine
 10
-0.1414213562373095
 20
-0.1414213562373095
 30
0.0
 11
-0.3535533905932738
 21
-0.3535533905932738
 31
0.0
  0
ENDBLK
  5
128
330
120
100
AcDbEntity
  8
0
100
AcDbBlockEnd
  0
BLOCK
  5
12D
330
129
100
AcDbEntity
  8
0
100
AcDbBlockBegin
  2
CDWK_PTTYP33
 70
     0
 10
0.0
 20
0.0
 30
0.0
  3
CDWK_PTTYP33
  1

  0
LINE
  5
12A
330
129
100
AcDbEntity
  8
0
 62
     0
370
    -2
100
AcDbLine
 10
0.0
 20
-0.5
 30
0.0
 11
0.0
 21
0.5
 31
0.0
  0
LINE
  5
12B
330
129
100
AcDbEntity
  8
0
 62
     0
370
    -2
100
AcDbLine
 10
0.5
 20
0.0
 30
0.0
 11
-0.5
 21
0.0
 31
0.0
  0
CIRCLE
  5
12C
330
129
100
AcDbEntity
  8
0
 62
     0
370
    -2
100
AcDbCircle
 10
0.0
 20
0.0
 30
0.0
 40
0.5
  0
ENDBLK
  5
12E
330
129
100
AcDbEntity
  8
0
100
AcDbBlockEnd
  0
BLOCK
  5
133
330
12F
100
AcDbEntity
  8
0
100
AcDbBlockBegin
  2
CDWK_PTTYP34
 70
     0
 10
0.0
 20
0.0
 30
0.0
  3
CDWK_PTTYP34
  1

  0
CIRCLE
  5
130
330
12F
100
AcDbEntity
  8
0
 62
     0
370
    -2
100
AcDbCircle
 10
0.0
 20
0.0
 30
0.0
 40
0.5
  0
LINE
  5
131
330
12F
100
AcDbEntity
  8
0
 62
     0
370
    -2
100
AcDbLine
 10
-0.4
 20
-0.3
 30
0.0
 11
0.3
 21
0.4
 31
0.0
  0
LINE
  5
132
330
12F
100
AcDbEntity
  8
0
 62
     0
370
    -2
100
AcDbLine
 10
-0.3
 20
-0.4
 30
0.0
 11
0.4
 21
0.3
 31
0.0
  0
ENDBLK
  5
134
330
12F
100
AcDbEntity
  8
0
100
AcDbBlockEnd
  0
BLOCK
  5
139
330
135
100
AcDbEntity
  8
0
100
AcDbBlockBegin
  2
CDWK_PTTYP35
 70
     0
 10
0.0
 20
0.0
 30
0.0
  3
CDWK_PTTYP35
  1

  0
LINE
  5
136
330
135
100
AcDbEntity
  8
0
 62
     0
370
    -2
100
AcDbLine
 10
0.0
 20
0.2
 30
0.0
 11
0.0
 21
0.5
 31
0.0
  0
LINE
  5
137
330
135
100
AcDbEntity
  8
0
 62
     0
370
    -2
100
AcDbLine
 10
0.0
 20
-0.2
 30
0.0
 11
0.0
 21
-0.5
 31
0.0
  0
CIRCLE
  5
138
330
135
100
AcDbEntity
  8
0
 62
     0
370
    -2
100
AcDbCircle
 10
0.0
 20
0.0
 30
0.0
 40
0.2
  0
ENDBLK
  5
13A
330
135
100
AcDbEntity
  8
0
100
AcDbBlockEnd
  0
BLOCK
  5
141
330
13B
100
AcDbEntity
  8
0
100
AcDbBlockBegin
  2
CDWK_PTTYP36
 70
     0
 10
0.0
 20
0.0
 30
0.0
  3
CDWK_PTTYP36
  1

  0
LINE
  5
13C
330
13B
100
AcDbEntity
  8
0
 62
     0
370
    -2
100
AcDbLine
 10
-0.5
 20
0.2
 30
0.0
 11
0.5
 21
0.2
 31
0.0
  0
LINE
  5
13D
330
13B
100
AcDbEntity
  8
0
 62
     0
370
    -2
100
AcDbLine
 10
0.5
 20
0.2
 30
0.0
 11
0.5
 21
-0.2
 31
0.0
  0
LINE
  5
13E
330
13B
100
AcDbEntity
  8
0
 62
     0
370
    -2
100
AcDbLine
 10
0.5
 20
-0.2
 30
0.0
 11
-0.5
 21
-0.2
 31
0.0
  0
LINE
  5
13F
330
13B
100
AcDbEntity
  8
0
 62
     0
370
    -2
100
AcDbLine
 10
-0.5
 20
-0.2
 30
0.0
 11
-0.5
 21
0.2
 31
0.0
  0
HATCH
  5
140
330
13B
100
AcDbEntity
  8
0
 62
     0
370
    -2
100
AcDbHatch
 10
0.0
 20
0.0
 30
0.0
210
0.0
220
0.0
230
1.0
  2
SOLID
 70
     1
 71
     1
 91
        1
 92
        3
 72
     0
 73
     1
 93
        3
 10
-0.5
 20
-0.2
 10
0.5
 20
-0.2
 10
0.5
 20
0.2
 97
        0
 75
     0
 76
     1
 98
        0
  0
ENDBLK
  5
142
330
13B
100
AcDbEntity
  8
0
100
AcDbBlockEnd
  0
BLOCK
  5
146
330
143
100
AcDbEntity
  8
0
100
AcDbBlockBegin
  2
CDWK_PTTYP37
 70
     0
 10
0.0
 20
0.0
 30
0.0
  3
CDWK_PTTYP37
  1

  0
HATCH
  5
144
330
143
100
AcDbEntity
  8
0
 62
     0
370
    -2
100
AcDbHatch
 10
0.0
 20
0.0
 30
0.0
210
0.0
220
0.0
230
1.0
  2
SOLID
 70
     1
 71
     1
 91
        1
 92
        3
 72
     0
 73
     1
 93
      202
 10
-0.3535533905932738
 20
-0.3535533905932738
 10
-0.3485533905932738
 20
-0.3535533905932737
 10
-0.3435533905932738
 20
-0.3584836591895546
 10
-0.3385533905932738
 20
-0.3632782236961988
 10
-0.3335533905932738
 20
-0.367942389128785
 10
-0.3285533905932738
 20
-0.372481054046687
 10
-0.3235533905932738
 20
-0.3768987523588579
 10
-0.3185533905932738
 20
-0.3811996897107819
 10
-0.3135533905932738
 20
-0.3853877752881235
 10
-0.3085533905932737
 20
-0.3894666497242888
 10
-0.3035533905932737
 20
-0.3934397096803965
 10
-0.2985533905932737
 20
-0.3973101295704999
 10
-0.2935533905932737
 20
-0.4010808808273714
 10
-0.2885533905932737
 20
-0.4047547490409382
 10
-0.2835533905932737
 20
-0.4083343492496384
 10
-0.2785533905932737
 20
-0.4118221396222626
 10
-0.2735533905932737
 20
-0.4152204337324827
 10
-0.2685533905932737
 20
-0.4185314115988474
 10
-0.2635533905932737
 20
-0.4217571296384408
 10
-0.2585533905932737
 20
-0.4248995296617653
 10
-0.2535533905932737
 20
-0.4279604470190231
 10
-0.2485533905932737
 20
-0.4309416179932669
 10
-0.2435533905932737
 20
-0.4338446865234004
 10
-0.2385533905932737
 20
-0.4366712103293738
 10
-0.2335533905932737
 20
-0.439422666502825
 10
-0.2285533905932737
 20
-0.4421004566186126
 10
-0.2235533905932737
 20
-0.4447059114159811
 10
-0.2185533905932737
 20
-0.4472402950923041
 10
-0.2135533905932737
 20
-0.4497048092473372
 10
-0.2085533905932737
 20
-0.4521005965115692
 10
-0.2035533905932737
 20
-0.4544287438884664
 10
-0.1985533905932736
 20
-0.456690285837111
 10
-0.1935533905932736
 20
-0.45888620711884
 10
-0.1885533905932736
 20
-0.4610174454289638
 10
-0.1835533905932736
 20
-0.4630848938324164
 10
-0.1785533905932736
 20
-0.4650894030202291
 10
-0.1735533905932736
 20
-0.4670317834019928
 10
-0.1685533905932736
 20
-0.46891280704794
 10
-0.1635533905932736
 20
-0.4707332094929264
 10
-0.1585533905932736
 20
-0.4724936914133818
 10
-0.1535533905932736
 20
-0.4741949201872336
 10
-0.1485533905932736
 20
-0.4758375313458466
 10
-0.1435533905932736
 20
-0.4774221299261716
 10
-0.1385533905932736
 20
-0.4789492917305286
 10
-0.1335533905932736
 20
-0.4804195645007682
 10
-0.1285533905932736
 20
-0.4818334690129366
 10
-0.1235533905932736
 20
-0.4831915000980183
 10
-0.1185533905932736
 20
-0.4844941275938295
 10
-0.1135533905932736
 20
-0.4857417972326848
 10
-0.1085533905932736
 20
-0.4869349314690531
 10
-0.1035533905932736
 20
-0.4880739302510473
 10
-0.0985533905932736
 20
-0.489159171739258
 10
-0.0935533905932736
 20
-0.4901910129761353
 10
-0.0885533905932736
 20
-0.4911697905088447
 10
-0.0835533905932735
 20
-0.4920958209682695
 10
-0.0785533905932735
 20
-0.4929694016065986
 10
-0.0735533905932735
 20
-0.4937908107957261
 10
-0.0685533905932735
 20
-0.494560308488493
 10
-0.0635533905932735
 20
-0.4952781366446192
 10
-0.0585533905932735
 20
-0.4959445196230107
 10
-0.0535533905932735
 20
-0.4965596645419678
 10
-0.0485533905932735
 20
-0.4971237616086806
 10
-0.0435533905932735
 20
-0.4976369844192622
 10
-0.0385533905932735
 20
-0.4980994902304456
 10
-0.0335533905932735
 20
-0.4985114202039533
 10
-0.0285533905932735
 20
-0.4988728996244386
 10
-0.0235533905932735
 20
-0.4991840380917923
 10
-0.0185533905932735
 20
-0.49944492968851
 10
-0.0135533905932735
 20
-0.4996556531227215
 10
-0.0085533905932735
 20
-0.4998162718473921
 10
-0.0035533905932735
 20
-0.4999268341561182
 10
0.0014466094067265
 20
-0.499987373255857
 10
0.0064466094067265
 20
-0.4999979073168451
 10
0.0114466094067265
 20
-0.4999584394998819
 10
0.0164466094067265
 20
-0.4998689579610739
 10
0.0214466094067265
 20
-0.4997294358340547
 10
0.0264466094067265
 20
-0.4995398311896213
 10
0.0314466094067265
 20
-0.4993000869726422
 10
0.0364466094067265
 20
-0.4990101309160174
 10
0.0414466094067265
 20
-0.4986698754313855
 10
0.0464466094067265
 20
-0.498279217476192
 10
0.0514466094067265
 20
-0.4978380383966446
 10
0.0564466094067265
 20
-0.497346203745994
 10
0.0614466094067265
 20
-0.4968035630774849
 10
0.0664466094067264
 20
-0.4962099497112257
 10
0.0714466094067265
 20
-0.4955651804741228
 10
0.0764466094067265
 20
-0.4948690554119167
 10
0.0814466094067265
 20
-0.4941213574722463
 10
0.0864466094067265
 20
-0.4933218521575424
 10
0.0914466094067265
 20
-0.4924702871464235
 10
0.0964466094067265
 20
-0.4915663918821278
 10
0.1014466094067265
 20
-0.4906098771263643
 10
0.1064466094067265
 20
-0.4896004344768079
 10
0.1114466094067265
 20
-0.4885377358462822
 10
0.1164466094067265
 20
-0.4874214329014929
 10
0.1214466094067265
 20
-0.4862511564589613
 10
0.1264466094067265
 20
-0.4850265158355881
 10
0.1314466094067265
 20
-0.4837470981510305
 10
0.1364466094067265
 20
-0.482412467578809
 10
0.1414466094067265
 20
-0.4810221645427664
 10
0.1464466094067265
 20
-0.4795757048551781
 10
0.1514466094067265
 20
-0.4780725787924608
 10
0.1564466094067265
 20
-0.4765122501040308
 10
0.1614466094067265
 20
-0.4748941549494363
 10
0.1664466094067265
 20
-0.4732177007584056
 10
0.1714466094067265
 20
-0.4714822650079264
 10
0.1764466094067265
 20
-0.4696871939098801
 10
0.1814466094067266
 20
-0.4678318010021017
 10
0.1864466094067266
 20
-0.4659153656350076
 10
0.1914466094067266
 20
-0.4639371313451162
 10
0.1964466094067266
 20
-0.4618963041058764
 10
0.2014466094067266
 20
-0.4597920504451997
 10
0.2064466094067266
 20
-0.4576234954179405
 10
0.2114466094067266
 20
-0.4553897204202862
 10
0.2164466094067266
 20
-0.4530897608315588
 10
0.2214466094067266
 20
-0.45072260346729
 10
0.2264466094067266
 20
-0.4482871838255748
 10
0.2314466094067266
 20
-0.4457823831065977
 10
0.2364466094067266
 20
-0.4432070249828292
 10
0.2414466094067266
 20
-0.4405598720946596
 10
0.2464466094067266
 20
-0.4378396222431172
 10
0.2514466094067266
 20
-0.4350449042477435
 10
0.2564466094067266
 20
-0.4321742734336012
 10
0.2614466094067266
 20
-0.4292262067066663
 10
0.2664466094067266
 20
-0.4261990971714118
 10
0.2714466094067266
 20
-0.4230912482380831
 10
0.2764466094067266
 20
-0.4199008671598476
 10
0.2814466094067266
 20
-0.4166260579314797
 10
0.2864466094067266
 20
-0.4132648134712868
 10
0.2914466094067266
 20
-0.4098150069963156
 10
0.2964466094067266
 20
-0.4062743824871597
 10
0.3014466094067266
 20
-0.4026405441224911
 10
0.3064466094067266
 20
-0.3989109445442534
 10
0.3114466094067266
 20
-0.3950828717916294
 10
0.3164466094067266
 20
-0.391153434714632
 10
0.3214466094067266
 20
-0.3871195466454601
 10
0.3264466094067267
 20
-0.3829779070663467
 10
0.3314466094067267
 20
-0.3787249809648844
 10
0.3364466094067267
 20
-0.3743569755097196
 10
0.3414466094067267
 20
-0.3698698136084067
 10
0.3464466094067267
 20
-0.3652591038217257
 10
0.3514466094067267
 20
-0.3605201060004601
 10
0.3564466094067267
 20
-0.3556476918757041
 10
0.3614466094067267
 20
-0.3506362996645505
 10
0.3664466094067267
 20
-0.34547988153926
 10
0.3714466094067267
 20
-0.3401718425359658
 10
0.3764466094067267
 20
-0.334704969129899
 10
0.3814466094067267
 20
-0.3290713452523318
 10
0.3864466094067267
 20
-0.3232622529342269
 10
0.3914466094067267
 20
-0.3172680539828188
 10
0.3964466094067267
 20
-0.3110780480586465
 10
0.4014466094067267
 20
-0.304680301118911
 10
0.4064466094067267
 20
-0.2980614362775617
 10
0.4114466094067267
 20
-0.291206376478565
 10
0.4164466094067267
 20
-0.2840980246459106
 10
0.4214466094067267
 20
-0.276716861635935
 10
0.4264466094067267
 20
-0.2690404345439063
 10
0.4314466094067267
 20
-0.2610426963649944
 10
0.4364466094067267
 20
-0.2526931404518915
 10
0.4414466094067268
 20
-0.2439556458403291
 10
0.4464466094067268
 20
-0.2347869056044327
 10
0.4514466094067268
 20
-0.2251342376211081
 10
0.4564466094067268
 20
-0.2149324518428296
 10
0.4614466094067268
 20
-0.2040992228331676
 10
0.4664466094067268
 20
-0.1925279893081412
 10
0.4714466094067268
 20
-0.1800765408735088
 10
0.4764466094067268
 20
-0.1665475742210051
 10
0.4814466094067268
 20
-0.1516529867323223
 10
0.4864466094067268
 20
-0.1349413290684758
 10
0.4914466094067268
 20
-0.1156274024472547
 10
0.4964466094067268
 20
-0.0920881648347501
 10
0.5
 20
0.0
 10
0.495
 20
0.0
 10
0.49
 20
0.0705336798983295
 10
0.485
 20
0.0994987437106621
 10
0.48
 20
0.1215524578114322
 10
0.475
 20
0.14
 10
0.47
 20
0.15612494995996
 10
0.465
 20
0.1705872210923199
 10
0.46
 20
0.1837797594948911
 10
0.455
 20
0.1959591794226544
 10
0.45
 20
0.2073041244162789
 10
0.445
 20
0.2179449471770338
 10
0.4399999999999999
 20
0.2279802623035601
 10
0.4349999999999999
 20
0.2374868417407584
 10
0.4299999999999999
 20
0.2465258607124211
 10
0.4249999999999999
 20
0.2551470164434615
 10
0.4199999999999999
 20
0.2633913438213186
 10
0.4149999999999999
 20
0.2712931993250108
 10
0.4099999999999999
 20
0.2788816953476869
 10
0.4049999999999999
 20
0.2861817604250838
 10
0.3999999999999999
 20
0.2932149382279151
 10
0.3949999999999999
 20
0.3000000000000002
 10
0.3899999999999999
 20
0.3065534211193868
 10
0.3849999999999999
 20
0.3128897569432404
 10
0.3799999999999999
 20
0.3190219428189855
 10
0.3749999999999999
 20
0.3249615361854385
 10
0.3699999999999999
 20
0.330718913883074
 10
0.3649999999999999
 20
0.3363034344160049
 10
0.3599999999999999
 20
0.3417235724968357
 10
0.3549999999999999
 20
0.3469870314579496
 10
0.3535533905932738
 20
0.3535533905932738
 97
        0
 75
     0
 76
     1
 98
        0
  0
CIRCLE
  5
145
330
143
100
AcDbEntity
  8
0
 62
     0
370
    -2
100
AcDbCircle
 10
0.0
 20
0.0
 30
0.0
 40
0.5
  0
ENDBLK
  5
147
330
143
100
AcDbEntity
  8
0
100
AcDbBlockEnd
  0
BLOCK
  5
14C
330
148
100
AcDbEntity
  8
0
100
AcDbBlockBegin
  2
CDWK_PTTYP38
 70
     0
 10
0.0
 20
0.0
 30
0.0
  3
CDWK_PTTYP38
  1

  0
HATCH
  5
149
330
148
100
AcDbEntity
  8
0
 62
     0
370
    -2
100
AcDbHatch
 10
0.0
 20
0.0
 30
0.0
210
0.0
220
0.0
230
1.0
  2
SOLID
 70
     1
 71
     1
 91
        1
 92
        3
 72
     0
 73
     1
 93
      102
 10
0.0
 20
0.0
 10
0.0
 20
0.5
 10
0.005
 20
0.5
 10
0.01
 20
0.4999749993749688
 10
0.015
 20
0.4998999899979995
 10
0.02
 20
0.4997749493522059
 10
0.025
 20
0.4995998398718718
 10
0.03
 20
0.4993746088859545
 10
0.035
 20
0.4990991885387112
 10
0.04
 20
0.4987734956871706
 10
0.045
 20
0.4983974317750845
 10
0.05
 20
0.4979708826829135
 10
0.055
 20
0.49749371855331
 10
0.06
 20
0.4969657935914704
 10
0.065
 20
0.4963869458396343
 10
0.07
 20
0.4957569969249047
 10
0.075
 20
0.4950757517794626
 10
0.08
 20
0.4943429983321297
 10
0.085
 20
0.4935585071701227
 10
0.09
 20
0.4927220311697053
 10
0.095
 20
0.4918333050943175
 10
0.1
 20
0.4908920451586071
 10
0.105
 20
0.4898979485566356
 10
0.11
 20
0.4888506929523574
 10
0.115
 20
0.4877499359302879
 10
0.12
 20
0.4865953144040744
 10
0.125
 20
0.4853864439804639
 10
0.13
 20
0.4841229182759271
 10
0.135
 20
0.4828043081829325
 10
0.14
 20
0.4814301610825811
 10
0.145
 20
0.48
 10
0.15
 20
0.478513322698543
 10
0.1550000000000001
 20
0.4769696007084728
 10
0.1600000000000001
 20
0.4753682782853731
 10
0.1650000000000001
 20
0.4737087712930804
 10
0.1700000000000001
 20
0.4719904660054056
 10
0.1750000000000001
 20
0.4702127178203498
 10
0.1800000000000001
 20
0.4683748498798799
 10
0.1850000000000001
 20
0.466476151587624
 10
0.1900000000000001
 20
0.4645158770160606
 10
0.1950000000000001
 20
0.4624932431938871
 10
0.2000000000000001
 20
0.460407428263272
 10
0.2050000000000001
 20
0.4582575694955839
 10
0.2100000000000001
 20
0.4560427611529427
 10
0.2150000000000001
 20
0.4537620521815371
 10
0.2200000000000001
 20
0.4514144437210665
 10
0.2250000000000001
 20
0.4489988864128729
 10
0.2300000000000001
 20
0.4465142774872937
 10
0.2350000000000001
 20
0.4439594576084622
 10
0.2400000000000001
 20
0.4413332074521472
 10
0.2450000000000001
 20
0.4386342439892261
 10
0.2500000000000001
 20
0.4358612164439502
 10
0.2550000000000001
 20
0.4330127018922192
 10
0.2600000000000001
 20
0.4300872004605577
 10
0.2650000000000001
 20
0.4270831300812524
 10
0.2700000000000001
 20
0.423998820753077
 10
0.2750000000000001
 20
0.4208325082500162
 10
0.2800000000000001
 20
0.4175823272122516
 10
0.2850000000000001
 20
0.4142463035441595
 10
0.2900000000000001
 20
0.4108223460329293
 10
0.2950000000000002
 20
0.4073082370883259
 10
0.3000000000000002
 20
0.403701622488689
 10
0.3050000000000002
 20
0.3999999999999999
 10
0.3100000000000002
 20
0.3962007067131506
 10
0.3150000000000002
 20
0.3923009049186605
 10
0.3200000000000002
 20
0.3882975663070783
 10
0.3250000000000002
 20
0.3841874542459708
 10
0.3300000000000002
 20
0.3799671038392664
 10
0.3350000000000002
 20
0.3756327994198588
 10
0.3400000000000002
 20
0.3711805490593491
 10
0.3450000000000002
 20
0.366606055596467
 10
0.3500000000000002
 20
0.3619046835839512
 10
0.3550000000000002
 20
0.3570714214271423
 10
0.3600000000000002
 20
0.3521008378291649
 10
0.3650000000000002
 20
0.3469870314579492
 10
0.3700000000000002
 20
0.3417235724968353
 10
0.3750000000000002
 20
0.3363034344160045
 10
0.3800000000000002
 20
0.3307189138830736
 10
0.3850000000000002
 20
0.3249615361854382
 10
0.3900000000000002
 20
0.3190219428189851
 10
0.3950000000000002
 20
0.31288975694324
 10
0.4000000000000002
 20
0.3065534211193863
 10
0.4050000000000002
 20
0.2999999999999997
 10
0.4100000000000003
 20
0.2932149382279147
 10
0.4150000000000003
 20
0.2861817604250834
 10
0.4200000000000003
 20
0.2788816953476864
 10
0.4250000000000003
 20
0.2712931993250103
 10
0.4300000000000003
 20
0.263391343821318
 10
0.4350000000000003
 20
0.255147016443461
 10
0.4400000000000003
 20
0.2465258607124206
 10
0.4450000000000003
 20
0.2374868417407578
 10
0.4500000000000003
 20
0.2279802623035594
 10
0.4550000000000003
 20
0.2179449471770331
 10
0.4600000000000003
 20
0.2073041244162782
 10
0.4650000000000003
 20
0.1959591794226536
 10
0.4700000000000003
 20
0.1837797594948903
 10
0.4750000000000003
 20
0.170587221092319
 10
0.4800000000000003
 20
0.156124949959959
 10
0.4850000000000003
 20
0.1399999999999989
 10
0.4900000000000003
 20
0.1215524578114309
 10
0.4950000000000003
 20
0.0994987437106604
 10
0.5
 20
0.0
 97
        0
 75
     0
 76
     1
 98
        0
  0
HATCH
  5
14A
330
148
100
AcDbEntity
  8
0
 62
     0
370
    -2
100
AcDbHatch
 10
0.0
 20
0.0
 30
0.0
210
0.0
220
0.0
230
1.0
  2
SOLID
 70
     1
 71
     1
 91
        1
 92
        3
 72
     0
 73
     1
 93
      102
 10
0.0
 20
0.0
 10
-0.5
 20
0.0
 10
-0.495
 20
0.0
 10
-0.49
 20
-0.0705336798983295
 10
-0.485
 20
-0.0994987437106621
 10
-0.48
 20
-0.1215524578114322
 10
-0.475
 20
-0.14
 10
-0.47
 20
-0.15612494995996
 10
-0.465
 20
-0.1705872210923199
 10
-0.46
 20
-0.1837797594948911
 10
-0.455
 20
-0.1959591794226544
 10
-0.45
 20
-0.2073041244162789
 10
-0.445
 20
-0.2179449471770338
 10
-0.4399999999999999
 20
-0.2279802623035601
 10
-0.4349999999999999
 20
-0.2374868417407584
 10
-0.4299999999999999
 20
-0.2465258607124211
 10
-0.4249999999999999
 20
-0.2551470164434615
 10
-0.4199999999999999
 20
-0.2633913438213186
 10
-0.4149999999999999
 20
-0.2712931993250108
 10
-0.4099999999999999
 20
-0.2788816953476869
 10
-0.4049999999999999
 20
-0.2861817604250838
 10
-0.3999999999999999
 20
-0.2932149382279151
 10
-0.3949999999999999
 20
-0.3000000000000002
 10
-0.3899999999999999
 20
-0.3065534211193868
 10
-0.3849999999999999
 20
-0.3128897569432404
 10
-0.3799999999999999
 20
-0.3190219428189855
 10
-0.3749999999999999
 20
-0.3249615361854385
 10
-0.3699999999999999
 20
-0.330718913883074
 10
-0.3649999999999999
 20
-0.3363034344160049
 10
-0.3599999999999999
 20
-0.3417235724968357
 10
-0.3549999999999999
 20
-0.3469870314579496
 10
-0.3499999999999999
 20
-0.3521008378291652
 10
-0.3449999999999999
 20
-0.3570714214271427
 10
-0.3399999999999999
 20
-0.3619046835839516
 10
-0.3349999999999999
 20
-0.3666060555964674
 10
-0.3299999999999998
 20
-0.3711805490593494
 10
-0.3249999999999998
 20
-0.3756327994198591
 10
-0.3199999999999998
 20
-0.3799671038392667
 10
-0.3149999999999998
 20
-0.3841874542459711
 10
-0.3099999999999998
 20
-0.3882975663070786
 10
-0.3049999999999998
 20
-0.3923009049186608
 10
-0.2999999999999998
 20
-0.3962007067131507
 10
-0.2949999999999998
 20
-0.4000000000000001
 10
-0.2899999999999998
 20
-0.4037016224886891
 10
-0.2849999999999998
 20
-0.4073082370883261
 10
-0.2799999999999998
 20
-0.4108223460329296
 10
-0.2749999999999998
 20
-0.4142463035441597
 10
-0.2699999999999998
 20
-0.4175823272122518
 10
-0.2649999999999998
 20
-0.4208325082500164
 10
-0.2599999999999998
 20
-0.4239988207530773
 10
-0.2549999999999998
 20
-0.4270831300812526
 10
-0.2499999999999998
 20
-0.4300872004605579
 10
-0.2449999999999998
 20
-0.4330127018922195
 10
-0.2399999999999998
 20
-0.4358612164439503
 10
-0.2349999999999998
 20
-0.4386342439892263
 10
-0.2299999999999998
 20
-0.4413332074521473
 10
-0.2249999999999998
 20
-0.4439594576084624
 10
-0.2199999999999998
 20
-0.4465142774872939
 10
-0.2149999999999997
 20
-0.4489988864128731
 10
-0.2099999999999997
 20
-0.4514144437210667
 10
-0.2049999999999997
 20
-0.4537620521815372
 10
-0.1999999999999997
 20
-0.4560427611529429
 10
-0.1949999999999997
 20
-0.4582575694955841
 10
-0.1899999999999997
 20
-0.4604074282632722
 10
-0.1849999999999997
 20
-0.4624932431938872
 10
-0.1799999999999997
 20
-0.4645158770160608
 10
-0.1749999999999997
 20
-0.4664761515876241
 10
-0.1699999999999997
 20
-0.46837484987988
 10
-0.1649999999999997
 20
-0.47021271782035
 10
-0.1599999999999997
 20
-0.4719904660054058
 10
-0.1549999999999997
 20
-0.4737087712930805
 10
-0.1499999999999997
 20
-0.4753682782853733
 10
-0.1449999999999997
 20
-0.4769696007084729
 10
-0.1399999999999997
 20
-0.4785133226985431
 10
-0.1349999999999997
 20
-0.4800000000000001
 10
-0.1299999999999997
 20
-0.4814301610825812
 10
-0.1249999999999997
 20
-0.4828043081829325
 10
-0.1199999999999997
 20
-0.4841229182759272
 10
-0.1149999999999997
 20
-0.485386443980464
 10
-0.1099999999999997
 20
-0.4865953144040744
 10
-0.1049999999999996
 20
-0.487749935930288
 10
-0.0999999999999996
 20
-0.4888506929523574
 10
-0.0949999999999996
 20
-0.4898979485566357
 10
-0.0899999999999996
 20
-0.4908920451586072
 10
-0.0849999999999996
 20
-0.4918333050943176
 10
-0.0799999999999996
 20
-0.4927220311697053
 10
-0.0749999999999996
 20
-0.4935585071701227
 10
-0.0699999999999996
 20
-0.4943429983321298
 10
-0.0649999999999996
 20
-0.4950757517794626
 10
-0.0599999999999996
 20
-0.4957569969249048
 10
-0.0549999999999996
 20
-0.4963869458396343
 10
-0.0499999999999996
 20
-0.4969657935914705
 10
-0.0449999999999996
 20
-0.49749371855331
 10
-0.0399999999999996
 20
-0.4979708826829135
 10
-0.0349999999999996
 20
-0.4983974317750846
 10
-0.0299999999999996
 20
-0.4987734956871706
 10
-0.0249999999999996
 20
-0.4990991885387112
 10
-0.0199999999999996
 20
-0.4993746088859545
 10
-0.0149999999999996
 20
-0.4995998398718719
 10
-0.0099999999999996
 20
-0.499774949352206
 10
-0.0049999999999996
 20
-0.4998999899979995
 10
0.0
 20
-0.5
 97
        0
 75
     0
 76
     1
 98
        0
  0
CIRCLE
  5
14B
330
148
100
AcDbEntity
  8
0
 62
     0
370
    -2
100
AcDbCircle
 10
0.0
 20
0.0
 30
0.0
 40
0.5
  0
ENDBLK
  5
14D
330
148
100
AcDbEntity
  8
0
100
AcDbBlockEnd
  0
BLOCK
  5
156
330
14E
100
AcDbEntity
  8
0
100
AcDbBlockBegin
  2
CDWK_PTTYP41
 70
     0
 10
0.0
 20
0.0
 30
0.0
  3
CDWK_PTTYP41
  1

  0
LINE
  5
14F
330
14E
100
AcDbEntity
  8
0
 62
     0
370
    -2
100
AcDbLine
 10
-0.5
 20
0.5
 30
0.0
 11
0.5
 21
0.5
 31
0.0
  0
LINE
  5
150
330
14E
100
AcDbEntity
  8
0
 62
     0
370
    -2
100
AcDbLine
 10
0.5
 20
0.5
 30
0.0
 11
0.5
 21
-0.5
 31
0.0
  0
LINE
  5
151
330
14E
100
AcDbEntity
  8
0
 62
     0
370
    -2
100
AcDbLine
 10
0.5
 20
-0.5
 30
0.0
 11
-0.5
 21
-0.5
 31
0.0
  0
LINE
  5
152
330
14E
100
AcDbEntity
  8
0
 62
     0
370
    -2
100
AcDbLine
 10
-0.5
 20
-0.5
 30
0.0
 11
-0.5
 21
0.5
 31
0.0
  0
LINE
  5
153
330
14E
100
AcDbEntity
  8
0
 62
     0
370
    -2
100
AcDbLine
 10
-0.375
 20
0.25
 30
0.0
 11
0.375
 21
0.25
 31
0.0
  0
LINE
  5
154
330
14E
100
AcDbEntity
  8
0
 62
     0
370
    -2
100
AcDbLine
 10
-0.375
 20
0.0
 30
0.0
 11
0.375
 21
0.0
 31
0.0
  0
LINE
  5
155
330
14E
100
AcDbEntity
  8
0
 62
     0
370
    -2
100
AcDbLine
 10
-0.375
 20
-0.25
 30
0.0
 11
0.375
 21
-0.25
 31
0.0
  0
ENDBLK
  5
157
330
14E
100
AcDbEntity
  8
0
100
AcDbBlockEnd
  0
BLOCK
  5
15F
330
158
100
AcDbEntity
  8
0
100
AcDbBlockBegin
  2
CDWK_PTTYP42
 70
     0
 10
0.0
 20
0.0
 30
0.0
  3
CDWK_PTTYP42
  1

  0
LINE
  5
159
330
158
100
AcDbEntity
  8
0
 62
     0
370
    -2
100
AcDbLine
 10
-0.5
 20
0.5
 30
0.0
 11
0.5
 21
0.5
 31
0.0
  0
LINE
  5
15A
330
158
100
AcDbEntity
  8
0
 62
     0
370
    -2
100
AcDbLine
 10
0.5
 20
0.5
 30
0.0
 11
0.5
 21
-0.5
 31
0.0
  0
LINE
  5
15B
330
158
100
AcDbEntity
  8
0
 62
     0
370
    -2
100
AcDbLine
 10
0.5
 20
-0.5
 30
0.0
 11
-0.5
 21
-0.5
 31
0.0
  0
LINE
  5
15C
330
158
100
AcDbEntity
  8
0
 62
     0
370
    -2
100
AcDbLine
 10
-0.5
 20
-0.5
 30
0.0
 11
-0.5
 21
0.5
 31
0.0
  0
LINE
  5
15D
330
158
100
AcDbEntity
  8
0
 62
     0
370
    -2
100
AcDbLine
 10
-0.375
 20
0.125
 30
0.0
 11
0.375
 21
0.125
 31
0.0
  0
LINE
  5
15E
330
158
100
AcDbEntity
  8
0
 62
     0
370
    -2
100
AcDbLine
 10
-0.375
 20
-0.125
 30
0.0
 11
0.375
 21
-0.125
 31
0.0
  0
ENDBLK
  5
160
330
158
100
AcDbEntity
  8
0
100
AcDbBlockEnd
  0
BLOCK
  5
165
330
161
100
AcDbEntity
  8
0
100
AcDbBlockBegin
  2
CDWK_PTTYP43
 70
     0
 10
0.0
 20
0.0
 30
0.0
  3
CDWK_PTTYP43
  1

  0
CIRCLE
  5
162
330
161
100
AcDbEntity
  8
0
 62
     0
370
    -2
100
AcDbCircle
 10
0.0
 20
0.0
 30
0.0
 40
0.5
  0
LINE
  5
163
330
161
100
AcDbEntity
  8
0
 62
     0
370
    -2
100
AcDbLine
 10
-0.375
 20
0.166
 30
0.0
 11
0.375
 21
0.166
 31
0.0
  0
LINE
  5
164
330
161
100
AcDbEntity
  8
0
 62
     0
370
    -2
100
AcDbLine
 10
-0.375
 20
-0.166
 30
0.0
 11
0.375
 21
-0.166
 31
0.0
  0
ENDBLK
  5
166
330
161
100
AcDbEntity
  8
0
100
AcDbBlockEnd
  0
BLOCK
  5
16E
330
167
100
AcDbEntity
  8
0
100
AcDbBlockBegin
  2
CDWK_PTTYP44
 70
     0
 10
0.0
 20
0.0
 30
0.0
  3
CDWK_PTTYP44
  1

  0
CIRCLE
  5
168
330
167
100
AcDbEntity
  8
0
 62
     0
370
    -2
100
AcDbCircle
 10
0.0
 20
0.0
 30
0.0
 40
0.5
  0
LINE
  5
169
330
167
100
AcDbEntity
  8
0
 62
     0
370
    -2
100
AcDbLine
 10
-0.375
 20
0.333
 30
0.0
 11
0.375
 21
0.333
 31
0.0
  0
LINE
  5
16A
330
167
100
AcDbEntity
  8
0
 62
     0
370
    -2
100
AcDbLine
 10
-0.375
 20
0.166
 30
0.0
 11
0.375
 21
0.166
 31
0.0
  0
LINE
  5
16B
330
167
100
AcDbEntity
  8
0
 62
     0
370
    -2
100
AcDbLine
 10
-0.375
 20
0.0
 30
0.0
 11
0.375
 21
0.0
 31
0.0
  0
LINE
  5
16C
330
167
100
AcDbEntity
  8
0
 62
     0
370
    -2
100
AcDbLine
 10
-0.375
 20
-0.166
 30
0.0
 11
0.375
 21
-0.166
 31
0.0
  0
LINE
  5
16D
330
167
100
AcDbEntity
  8
0
 62
     0
370
    -2
100
AcDbLine
 10
-0.375
 20
-0.333
 30
0.0
 11
0.375
 21
-0.333
 31
0.0
  0
ENDBLK
  5
16F
330
167
100
AcDbEntity
  8
0
100
AcDbBlockEnd
  0
BLOCK
  5
173
330
170
100
AcDbEntity
  8
0
100
AcDbBlockBegin
  2
CDWK_PTTYP45
 70
     0
 10
0.0
 20
0.0
 30
0.0
  3
CDWK_PTTYP45
  1

  0
ELLIPSE
  5
171
330
170
100
AcDbEntity
  8
0
 62
     0
370
    -2
100
AcDbEllipse
 10
0.0
 20
0.0
 30
0.0
 11
0.5
 21
0.0
 31
0.0
210
0.0
220
0.0
230
1.0
 40
0.82
 41
0.0
 42
6.283185307179586
  0
CIRCLE
  5
172
330
170
100
AcDbEntity
  8
0
 62
     0
370
    -2
100
AcDbCircle
 10
-0.235
 20
0.0
 30
0.0
 40
0.26
  0
ENDBLK
  5
174
330
170
100
AcDbEntity
  8
0
100
AcDbBlockEnd
  0
BLOCK
  5
178
330
175
100
AcDbEntity
  8
0
100
AcDbBlockBegin
  2
CDWK_PTTYP46
 70
     0
 10
0.0
 20
0.0
 30
0.0
  3
CDWK_PTTYP46
  1

  0
ELLIPSE
  5
176
330
175
100
AcDbEntity
  8
0
 62
     0
370
    -2
100
AcDbEllipse
 10
0.0
 20
0.0
 30
0.0
 11
0.5
 21
0.0
 31
0.0
210
0.0
220
0.0
230
1.0
 40
0.82
 41
0.0
 42
6.283185307179586
  0
CIRCLE
  5
177
330
175
100
AcDbEntity
  8
0
 62
     0
370
    -2
100
AcDbCircle
 10
0.0
 20
0.15
 30
0.0
 40
0.26
  0
ENDBLK
  5
179
330
175
100
AcDbEntity
  8
0
100
AcDbBlockEnd
  0
BLOCK
  5
180
330
17A
100
AcDbEntity
  8
0
100
AcDbBlockBegin
  2
CDWK_PTTYP47
 70
     0
 10
0.0
 20
0.0
 30
0.0
  3
CDWK_PTTYP47
  1

  0
LINE
  5
17B
330
17A
100
AcDbEntity
  8
0
 62
     0
370
    -2
100
AcDbLine
 10
-0.5
 20
0.166
 30
0.0
 11
0.5
 21
0.166
 31
0.0
  0
LINE
  5
17C
330
17A
100
AcDbEntity
  8
0
 62
     0
370
    -2
100
AcDbLine
 10
0.5
 20
0.166
 30
0.0
 11
0.5
 21
-0.166
 31
0.0
  0
LINE
  5
17D
330
17A
100
AcDbEntity
  8
0
 62
     0
370
    -2
100
AcDbLine
 10
0.5
 20
-0.166
 30
0.0
 11
-0.5
 21
-0.166
 31
0.0
  0
LINE
  5
17E
330
17A
100
AcDbEntity
  8
0
 62
     0
370
    -2
100
AcDbLine
 10
-0.5
 20
-0.166
 30
0.0
 11
-0.5
 21
0.166
 31
0.0
  0
CIRCLE
  5
17F
330
17A
100
AcDbEntity
  8
0
 62
     0
370
    -2
100
AcDbCircle
 10
0.0
 20
-0.313
 30
0.0
 40
0.4
  0
ENDBLK
  5
181
330
17A
100
AcDbEntity
  8
0
100
AcDbBlockEnd
  0
BLOCK
  5
186
330
183
100
AcDbEntity
  8
0
100
AcDbBlockBegin
  2
CDWK_PTTYP48
 70
     0
 10
0.0
 20
0.0
 30
0.0
  3
CDWK_PTTYP48
  1

  0
CIRCLE
  5
184
330
183
100
AcDbEntity
  8
0
  6
CADWORK_3
 62
     0
 48
0.1
370
    -2
100
AcDbCircle
 10
0.0
 20
0.0
 30
0.0
 40
0.5
  0
CIRCLE
  5
185
330
183
100
AcDbEntity
  8
0
 62
     0
370
    -2
100
AcDbCircle
 10
0.0
 20
0.0
 30
0.0
 40
0.25
  0
ENDBLK
  5
187
330
183
100
AcDbEntity
  8
0
100
AcDbBlockEnd
  0
BLOCK
  5
18D
330
188
100
AcDbEntity
  8
0
100
AcDbBlockBegin
  2
CDWK_PTTYP49
 70
     0
 10
0.0
 20
0.0
 30
0.0
  3
CDWK_PTTYP49
  1

  0
LINE
  5
189
330
188
100
AcDbEntity
  8
0
 62
     0
370
    -2
100
AcDbLine
 10
-0.5
 20
0.166
 30
0.0
 11
0.5
 21
0.166
 31
0.0
  0
LINE
  5
18A
330
188
100
AcDbEntity
  8
0
 62
     0
370
    -2
100
AcDbLine
 10
0.5
 20
0.166
 30
0.0
 11
0.5
 21
-0.166
 31
0.0
  0
LINE
  5
18B
330
188
100
AcDbEntity
  8
0
 62
     0
370
    -2
100
AcDbLine
 10
0.5
 20
-0.166
 30
0.0
 11
-0.5
 21
-0.166
 31
0.0
  0
LINE
  5
18C
330
188
100
AcDbEntity
  8
0
 62
     0
370
    -2
100
AcDbLine
 10
-0.5
 20
-0.166
 30
0.0
 11
-0.5
 21
0.166
 31
0.0
  0
ENDBLK
  5
18E
330
188
100
AcDbEntity
  8
0
100
AcDbBlockEnd
  0
BLOCK
  5
197
330
18F
100
AcDbEntity
  8
0
100
AcDbBlockBegin
  2
CDWK_PTTYP50
 70
     0
 10
0.0
 20
0.0
 30
0.0
  3
CDWK_PTTYP50
  1

  0
LINE
  5
190
330
18F
100
AcDbEntity
  8
0
 62
     0
370
    -2
100
AcDbLine
 10
-0.5
 20
0.166
 30
0.0
 11
0.5
 21
0.166
 31
0.0
  0
LINE
  5
191
330
18F
100
AcDbEntity
  8
0
 62
     0
370
    -2
100
AcDbLine
 10
0.5
 20
0.166
 30
0.0
 11
0.5
 21
-0.166
 31
0.0
  0
LINE
  5
192
330
18F
100
AcDbEntity
  8
0
 62
     0
370
    -2
100
AcDbLine
 10
0.5
 20
-0.166
 30
0.0
 11
-0.5
 21
-0.166
 31
0.0
  0
LINE
  5
193
330
18F
100
AcDbEntity
  8
0
 62
     0
370
    -2
100
AcDbLine
 10
-0.5
 20
-0.166
 30
0.0
 11
-0.5
 21
0.166
 31
0.0
  0
LINE
  5
194
330
18F
100
AcDbEntity
  8
0
 62
     0
370
    -2
100
AcDbLine
 10
-0.25
 20
-0.166
 30
0.0
 11
-0.25
 21
0.166
 31
0.0
  0
LINE
  5
195
330
18F
100
AcDbEntity
  8
0
 62
     0
370
    -2
100
AcDbLine
 10
0.0
 20
-0.166
 30
0.0
 11
0.0
 21
0.166
 31
0.0
  0
LINE
  5
196
330
18F
100
AcDbEntity
  8
0
 62
     0
370
    -2
100
AcDbLine
 10
0.25
 20
-0.166
 30
0.0
 11
0.25
 21
0.166
 31
0.0
  0
ENDBLK
  5
198
330
18F
100
AcDbEntity
  8
0
100
AcDbBlockEnd
  0
BLOCK
  5
19C
330
199
100
AcDbEntity
  8
0
100
AcDbBlockBegin
  2
CDWK_PTTYP51
 70
     0
 10
0.0
 20
0.0
 30
0.0
  3
CDWK_PTTYP51
  1

  0
SPLINE
  5
19A
330
199
100
AcDbEntity
  8
0
 62
     0
370
    -2
100
AcDbSpline
210
0.0
220
0.0
230
1.0
 70
  1064
 71
     3
 72
    12
 73
     8
 74
     6
 42
0.000000001
 43
0.0000000001
 44
0.0000000001
 40
0.0
 40
0.0
 40
0.0
 40
0.0
 40
0.1690118339052032
 40
0.5175774661755118
 40
0.8011704844252565
 40
0.9154070810132151
 40
0.975822310881188
 40
0.975822310881188
 40
0.975822310881188
 40
0.975822310881188
 10
-0.5
 20
-0.077
 30
0.0
 10
-0.443824324006723
 20
-0.0900581618560981
 30
0.0
 10
-0.2717933876546281
 20
-0.1300471387828842
 30
0.0
 10
-0.0276699186086479
 20
-0.0006977790990417
 30
0.0
 10
0.2303349729129116
 20
0.0817803270207037
 30
0.0
 10
0.3686157174766292
 20
0.0066250198607167
 30
0.0
 10
0.4216533294581816
 20
-0.0168719667726145
 30
0.0
 10
0.44
 20
-0.025
 30
0.0
 11
-0.5
 21
-0.077
 31
0.0
 11
-0.333
 21
-0.103
 31
0.0
 11
0.0
 21
0.0
 31
0.0
 11
0.28
 21
0.045
 31
0.0
 11
0.385
 21
0.0
 31
0.0
 11
0.44
 21
-0.025
 31
0.0
  0
HATCH
  5
19B
330
199
100
AcDbEntity
  8
0
 62
     0
370
    -2
100
AcDbHatch
 10
0.0
 20
0.0
 30
0.0
210
0.0
220
0.0
230
1.0
  2
SOLID
 70
     1
 71
     1
 91
        1
 92
        3
 72
     0
 73
     1
 93
        3
 10
0.365
 20
-0.05
 10
0.5
 20
-0.042
 10
0.395
 20
0.045
 97
        0
 75
     0
 76
     1
 98
        0
  0
ENDBLK
  5
19D
330
199
100
AcDbEntity
  8
0
100
AcDbBlockEnd
  0
BLOCK
  5
1A2
330
19E
100
AcDbEntity
  8
0
100
AcDbBlockBegin
  2
CDWK_PTTYP52
 70
     0
 10
0.0
 20
0.0
 30
0.0
  3
CDWK_PTTYP52
  1

  0
LINE
  5
19F
330
19E
100
AcDbEntity
  8
0
 62
     0
370
    -2
100
AcDbLine
 10
-0.5
 20
-0.289
 30
0.0
 11
0.5
 21
-0.289
 31
0.0
  0
LINE
  5
1A0
330
19E
100
AcDbEntity
  8
0
 62
     0
370
    -2
100
AcDbLine
 10
0.5
 20
-0.289
 30
0.0
 11
0.0
 21
0.577
 31
0.0
  0
LINE
  5
1A1
330
19E
100
AcDbEntity
  8
0
 62
     0
370
    -2
100
AcDbLine
 10
0.0
 20
0.577
 30
0.0
 11
-0.5
 21
-0.289
 31
0.0
  0
ENDBLK
  5
1A3
330
19E
100
AcDbEntity
  8
0
100
AcDbBlockEnd
  0
BLOCK
  5
1A9
330
1A4
100
AcDbEntity
  8
0
100
AcDbBlockBegin
  2
cw-dimension-symbol1
 70
     0
 10
0.0
 20
0.0
 30
0.0
  3
cw-dimension-symbol1
  1

  0
LINE
  5
1A5
330
1A4
100
AcDbEntity
  8
0
 62
     0
370
    -2
100
AcDbLine
 10
0.0
 20
0.0
 30
0.0
 11
-1.0
 21
0.25
 31
0.0
  0
LINE
  5
1A6
330
1A4
100
AcDbEntity
  8
0
 62
     0
370
    -2
100
AcDbLine
 10
0.0
 20
0.0
 30
0.0
 11
-1.0
 21
-0.25
 31
0.0
  0
LINE
  5
1A7
330
1A4
100
AcDbEntity
  8
0
 62
     0
370
    -2
100
AcDbLine
 10
-1.0
 20
0.25
 30
0.0
 11
-1.0
 21
-0.25
 31
0.0
  0
LINE
  5
1A8
330
1A4
100
AcDbEntity
  8
0
 62
     0
370
    -2
100
AcDbLine
 10
0.0
 20
0.0
 30
0.0
 11
-1.0
 21
0.0
 31
0.0
  0
ENDBLK
  5
1AA
330
1A4
100
AcDbEntity
  8
0
100
AcDbBlockEnd
  0
BLOCK
  5
1AE
330
1AB
100
AcDbEntity
  8
0
100
AcDbBlockBegin
  2
cw-dimension-symbol2
 70
     0
 10
0.0
 20
0.0
 30
0.0
  3
cw-dimension-symbol2
  1

  0
LINE
  5
1AC
330
1AB
100
AcDbEntity
  8
0
 62
     0
370
    -2
100
AcDbLine
 10
-1.0
 20
0.0
 30
0.0
 11
1.0
 21
0.0
 31
0.0
  0
LINE
  5
1AD
330
1AB
100
AcDbEntity
  8
0
 62
     0
370
    -2
100
AcDbLine
 10
-0.5
 20
-0.5
 30
0.0
 11
0.5
 21
0.5
 31
0.0
  0
ENDBLK
  5
1AF
330
1AB
100
AcDbEntity
  8
0
100
AcDbBlockEnd
  0
BLOCK
  5
1B3
330
1B0
100
AcDbEntity
  8
0
100
AcDbBlockBegin
  2
cw-dimension-symbol3
 70
     0
 10
0.0
 20
0.0
 30
0.0
  3
cw-dimension-symbol3
  1

  0
LINE
  5
1B1
330
1B0
100
AcDbEntity
  8
0
 62
     0
370
    -2
100
AcDbLine
 10
-1.0
 20
0.0
 30
0.0
 11
1.0
 21
0.0
 31
0.0
  0
CIRCLE
  5
1B2
330
1B0
100
AcDbEntity
  8
0
 62
     0
370
    -2
100
AcDbCircle
 10
0.0
 20
0.0
 30
0.0
 40
0.25
  0
ENDBLK
  5
1B4
330
1B0
100
AcDbEntity
  8
0
100
AcDbBlockEnd
  0
BLOCK
  5
1BA
330
1B5
100
AcDbEntity
  8
0
100
AcDbBlockBegin
  2
cw-dimension-symbol5
 70
     0
 10
0.0
 20
0.0
 30
0.0
  3
cw-dimension-symbol5
  1

  0
HATCH
  5
1B6
330
1B5
100
AcDbEntity
  8
0
 62
     0
370
    -2
100
AcDbHatch
 10
0.0
 20
0.0
 30
0.0
210
0.0
220
0.0
230
1.0
  2
SOLID
 70
     1
 71
     1
 91
        1
 92
        3
 72
     0
 73
     1
 93
        3
 10
0.0
 20
0.0
 10
-1.0
 20
0.25
 10
-1.0
 20
-0.25
 97
        0
 75
     0
 76
     1
 98
        0
  0
LINE
  5
1B7
330
1B5
100
AcDbEntity
  8
0
 62
     0
370
    -2
100
AcDbLine
 10
0.0
 20
0.0
 30
0.0
 11
-1.0
 21
0.25
 31
0.0
  0
LINE
  5
1B8
330
1B5
100
AcDbEntity
  8
0
 62
     0
370
    -2
100
AcDbLine
 10
-1.0
 20
0.25
 30
0.0
 11
-1.0
 21
-0.25
 31
0.0
  0
LINE
  5
1B9
330
1B5
100
AcDbEntity
  8
0
 62
     0
370
    -2
100
AcDbLine
 10
-1.0
 20
-0.25
 30
0.0
 11
0.0
 21
0.0
 31
0.0
  0
ENDBLK
  5
1BB
330
1B5
100
AcDbEntity
  8
0
100
AcDbBlockEnd
  0
BLOCK
  5
1C0
330
1BC
100
AcDbEntity
  8
0
100
AcDbBlockBegin
  2
cw-dimension-symbol6
 70
     0
 10
0.0
 20
0.0
 30
0.0
  3
cw-dimension-symbol6
  1

  0
LINE
  5
1BD
330
1BC
100
AcDbEntity
  8
0
 62
     0
370
    -2
100
AcDbLine
 10
0.0
 20
0.0
 30
0.0
 11
-1.0
 21
0.25
 31
0.0
  0
LINE
  5
1BE
330
1BC
100
AcDbEntity
  8
0
 62
     0
370
    -2
100
AcDbLine
 10
0.0
 20
0.0
 30
0.0
 11
-1.0
 21
-0.25
 31
0.0
  0
LINE
  5
1BF
330
1BC
100
AcDbEntity
  8
0
 62
     0
370
    -2
100
AcDbLine
 10
0.0
 20
0.0
 30
0.0
 11
-1.0
 21
0.0
 31
0.0
  0
ENDBLK
  5
1C1
330
1BC
100
AcDbEntity
  8
0
100
AcDbBlockEnd
  0
BLOCK
  5
1C6
330
1C2
100
AcDbEntity
  8
0
100
AcDbBlockBegin
  2
cw-dimension-symbol11
 70
     0
 10
0.0
 20
0.0
 30
0.0
  3
cw-dimension-symbol11
  1

  0
LINE
  5
1C3
330
1C2
100
AcDbEntity
  8
0
 62
     0
370
    -2
100
AcDbLine
 10
-1.0
 20
1.0
 30
0.0
 11
1.0
 21
1.0
 31
0.0
  0
LINE
  5
1C4
330
1C2
100
AcDbEntity
  8
0
 62
     0
370
    -2
100
AcDbLine
 10
0.0
 20
0.0
 30
0.0
 11
-1.0
 21
1.0
 31
0.0
  0
LINE
  5
1C5
330
1C2
100
AcDbEntity
  8
0
 62
     0
370
    -2
100
AcDbLine
 10
0.0
 20
0.0
 30
0.0
 11
1.0
 21
1.0
 31
0.0
  0
ENDBLK
  5
1C7
330
1C2
100
AcDbEntity
  8
0
100
AcDbBlockEnd
  0
BLOCK
  5
1CC
330
1C8
100
AcDbEntity
  8
0
100
AcDbBlockBegin
  2
cw-dimension-symbol13
 70
     0
 10
0.0
 20
0.0
 30
0.0
  3
cw-dimension-symbol13
  1

  0
LINE
  5
1C9
330
1C8
100
AcDbEntity
  8
0
 62
     0
370
    -2
100
AcDbLine
 10
-1.0
 20
-1.0
 30
0.0
 11
1.0
 21
-1.0
 31
0.0
  0
LINE
  5
1CA
330
1C8
100
AcDbEntity
  8
0
 62
     0
370
    -2
100
AcDbLine
 10
0.0
 20
0.0
 30
0.0
 11
-1.0
 21
-1.0
 31
0.0
  0
LINE
  5
1CB
330
1C8
100
AcDbEntity
  8
0
 62
     0
370
    -2
100
AcDbLine
 10
0.0
 20
0.0
 30
0.0
 11
1.0
 21
-1.0
 31
0.0
  0
ENDBLK
  5
1CD
330
1C8
100
AcDbEntity
  8
0
100
AcDbBlockEnd
  0
BLOCK
  5
1D3
330
1CE
100
AcDbEntity
  8
0
100
AcDbBlockBegin
  2
cw-dimension-symbol15
 70
     0
 10
0.0
 20
0.0
 30
0.0
  3
cw-dimension-symbol15
  1

  0
HATCH
  5
1CF
330
1CE
100
AcDbEntity
  8
0
 62
     0
370
    -2
100
AcDbHatch
 10
0.0
 20
0.0
 30
0.0
210
0.0
220
0.0
230
1.0
  2
SOLID
 70
     1
 71
     1
 91
        1
 92
        3
 72
     0
 73
     1
 93
        3
 10
0.0
 20
0.0
 10
-1.0
 20
1.0
 10
1.0
 20
1.0
 97
        0
 75
     0
 76
     1
 98
        0
  0
LINE
  5
1D0
330
1CE
100
AcDbEntity
  8
0
 62
     0
370
    -2
100
AcDbLine
 10
0.0
 20
0.0
 30
0.0
 11
-1.0
 21
1.0
 31
0.0
  0
LINE
  5
1D1
330
1CE
100
AcDbEntity
  8
0
 62
     0
370
    -2
100
AcDbLine
 10
-1.0
 20
1.0
 30
0.0
 11
1.0
 21
1.0
 31
0.0
  0
LINE
  5
1D2
330
1CE
100
AcDbEntity
  8
0
 62
     0
370
    -2
100
AcDbLine
 10
1.0
 20
1.0
 30
0.0
 11
0.0
 21
0.0
 31
0.0
  0
ENDBLK
  5
1D4
330
1CE
100
AcDbEntity
  8
0
100
AcDbBlockEnd
  0
BLOCK
  5
1DA
330
1D5
100
AcDbEntity
  8
0
100
AcDbBlockBegin
  2
cw-dimension-symbol16
 70
     0
 10
0.0
 20
0.0
 30
0.0
  3
cw-dimension-symbol16
  1

  0
HATCH
  5
1D6
330
1D5
100
AcDbEntity
  8
0
 62
     0
370
    -2
100
AcDbHatch
 10
0.0
 20
0.0
 30
0.0
210
0.0
220
0.0
230
1.0
  2
SOLID
 70
     1
 71
     1
 91
        1
 92
        3
 72
     0
 73
     1
 93
        3
 10
0.0
 20
0.0
 10
-1.0
 20
-1.0
 10
1.0
 20
-1.0
 97
        0
 75
     0
 76
     1
 98
        0
  0
LINE
  5
1D7
330
1D5
100
AcDbEntity
  8
0
 62
     0
370
    -2
100
AcDbLine
 10
0.0
 20
0.0
 30
0.0
 11
-1.0
 21
-1.0
 31
0.0
  0
LINE
  5
1D8
330
1D5
100
AcDbEntity
  8
0
 62
     0
370
    -2
100
AcDbLine
 10
-1.0
 20
-1.0
 30
0.0
 11
1.0
 21
-1.0
 31
0.0
  0
LINE
  5
1D9
330
1D5
100
AcDbEntity
  8
0
 62
     0
370
    -2
100
AcDbLine
 10
1.0
 20
-1.0
 30
0.0
 11
0.0
 21
0.0
 31
0.0
  0
ENDBLK
  5
1DB
330
1D5
100
AcDbEntity
  8
0
100
AcDbBlockEnd
  0
BLOCK
  5
1E1
330
1DC
100
AcDbEntity
  8
0
100
AcDbBlockBegin
  2
cw-dimension-symbol17
 70
     0
 10
0.0
 20
0.0
 30
0.0
  3
cw-dimension-symbol17
  1

  0
LINE
  5
1DD
330
1DC
100
AcDbEntity
  8
0
 62
     0
370
    -2
100
AcDbLine
 10
0.0
 20
0.0
 30
0.0
 11
1.0
 21
1.0
 31
0.0
  0
LINE
  5
1DE
330
1DC
100
AcDbEntity
  8
0
 62
     0
370
    -2
100
AcDbLine
 10
1.0
 20
1.0
 30
0.0
 11
-1.0
 21
1.0
 31
0.0
  0
LINE
  5
1DF
330
1DC
100
AcDbEntity
  8
0
 62
     0
370
    -2
100
AcDbLine
 10
-1.0
 20
1.0
 30
0.0
 11
0.0
 21
0.0
 31
0.0
  0
HATCH
  5
1E0
330
1DC
100
AcDbEntity
  8
0
 62
     0
370
    -2
100
AcDbHatch
 10
0.0
 20
0.0
 30
0.0
210
0.0
220
0.0
230
1.0
  2
SOLID
 70
     1
 71
     1
 91
        1
 92
        3
 72
     0
 73
     1
 93
        3
 10
0.0
 20
0.0
 10
-1.0
 20
1.0
 10
0.0
 20
1.0
 97
        0
 75
     0
 76
     1
 98
        0
  0
ENDBLK
  5
1E2
330
1DC
100
AcDbEntity
  8
0
100
AcDbBlockEnd
  0
BLOCK
  5
1E8
330
1E3
100
AcDbEntity
  8
0
100
AcDbBlockBegin
  2
cw-dimension-symbol18
 70
     0
 10
0.0
 20
0.0
 30
0.0
  3
cw-dimension-symbol18
  1

  0
LINE
  5
1E4
330
1E3
100
AcDbEntity
  8
0
 62
     0
370
    -2
100
AcDbLine
 10
0.0
 20
0.0
 30
0.0
 11
1.0
 21
-1.0
 31
0.0
  0
LINE
  5
1E5
330
1E3
100
AcDbEntity
  8
0
 62
     0
370
    -2
100
AcDbLine
 10
1.0
 20
-1.0
 30
0.0
 11
-1.0
 21
-1.0
 31
0.0
  0
LINE
  5
1E6
330
1E3
100
AcDbEntity
  8
0
 62
     0
370
    -2
100
AcDbLine
 10
-1.0
 20
-1.0
 30
0.0
 11
0.0
 21
0.0
 31
0.0
  0
HATCH
  5
1E7
330
1E3
100
AcDbEntity
  8
0
 62
     0
370
    -2
100
AcDbHatch
 10
0.0
 20
0.0
 30
0.0
210
0.0
220
0.0
230
1.0
  2
SOLID
 70
     1
 71
     1
 91
        1
 92
        3
 72
     0
 73
     1
 93
        3
 10
0.0
 20
0.0
 10
-1.0
 20
-1.0
 10
0.0
 20
-1.0
 97
        0
 75
     0
 76
     1
 98
        0
  0
ENDBLK
  5
1E9
330
1E3
100
AcDbEntity
  8
0
100
AcDbBlockEnd
  0
BLOCK
  5
1EB
330
1EA
100
AcDbEntity
  8
0
100
AcDbBlockBegin
  2
cw-dimension-symbol19
 70
     0
 10
0.0
 20
0.0
 30
0.0
  3
cw-dimension-symbol19
  1

  0
ENDBLK
  5
1EC
330
1EA
100
AcDbEntity
  8
0
100
AcDbBlockEnd
  0
BLOCK
  5
1F2
330
1ED
100
AcDbEntity
  8
0
100
AcDbBlockBegin
  2
cw-dimension-symbol20
 70
     0
 10
0.0
 20
0.0
 30
0.0
  3
cw-dimension-symbol20
  1

  0
LINE
  5
1EE
330
1ED
100
AcDbEntity
  8
0
 62
     0
370
    -2
100
AcDbLine
 10
0.0
 20
0.0
 30
0.0
 11
0.0
 21
2.0
 31
0.0
  0
LINE
  5
1EF
330
1ED
100
AcDbEntity
  8
0
 62
     0
370
    -2
100
AcDbLine
 10
0.0
 20
0.0
 30
0.0
 11
-1.0
 21
0.33
 31
0.0
  0
LINE
  5
1F0
330
1ED
100
AcDbEntity
  8
0
 62
     0
370
    -2
100
AcDbLine
 10
0.0
 20
0.0
 30
0.0
 11
1.0
 21
0.33
 31
0.0
  0
LINE
  5
1F1
330
1ED
100
AcDbEntity
  8
0
 62
     0
370
    -2
100
AcDbLine
 10
0.0
 20
2.0
 30
0.0
 11
4.15
 21
2.0
 31
0.0
  0
ENDBLK
  5
1F3
330
1ED
100
AcDbEntity
  8
0
100
AcDbBlockEnd
  0
BLOCK
  5
1F9
330
1F4
100
AcDbEntity
  8
0
100
AcDbBlockBegin
  2
cw-dimension-symbol21
 70
     0
 10
0.0
 20
0.0
 30
0.0
  3
cw-dimension-symbol21
  1

  0
LINE
  5
1F5
330
1F4
100
AcDbEntity
  8
0
 62
     0
370
    -2
100
AcDbLine
 10
0.0
 20
0.0
 30
0.0
 11
0.0
 21
-2.0
 31
0.0
  0
LINE
  5
1F6
330
1F4
100
AcDbEntity
  8
0
 62
     0
370
    -2
100
AcDbLine
 10
0.0
 20
0.0
 30
0.0
 11
-1.0
 21
-0.33
 31
0.0
  0
LINE
  5
1F7
330
1F4
100
AcDbEntity
  8
0
 62
     0
370
    -2
100
AcDbLine
 10
0.0
 20
0.0
 30
0.0
 11
1.0
 21
-0.33
 31
0.0
  0
LINE
  5
1F8
330
1F4
100
AcDbEntity
  8
0
 62
     0
370
    -2
100
AcDbLine
 10
0.0
 20
-2.0
 30
0.0
 11
4.15
 21
-2.0
 31
0.0
  0
ENDBLK
  5
1FA
330
1F4
100
AcDbEntity
  8
0
100
AcDbBlockEnd
  0
BLOCK
  5
22B
330
1FB
100
AcDbEntity
  8
0
100
AcDbBlockBegin
  2
cw-line-extremity0
 70
     0
 10
0.0
 20
0.0
 30
0.0
  3
cw-line-extremity0
  1

  0
LINE
  5
1FC
330
1FB
100
AcDbEntity
  8
0
 62
     0
370
    -2
100
AcDbLine
 10
0.0
 20
0.0
 30
0.0
 11
10.0
 21
2.5
 31
0.0
  0
LINE
  5
1FD
330
1FB
100
AcDbEntity
  8
0
 62
     0
370
    -2
100
AcDbLine
 10
0.0
 20
0.0
 30
0.0
 11
10.0
 21
-2.5
 31
0.0
  0
LINE
  5
1FE
330
1FB
100
AcDbEntity
  8
0
 62
     0
370
    -2
100
AcDbLine
 10
10.0
 20
2.5
 30
0.0
 11
10.0
 21
-2.5
 31
0.0
  0
ENDBLK
  5
22C
330
1FB
100
AcDbEntity
  8
0
100
AcDbBlockEnd
  0
BLOCK
  5
229
330
1FF
100
AcDbEntity
  8
0
100
AcDbBlockBegin
  2
cw-line-extremity2
 70
     0
 10
0.0
 20
0.0
 30
0.0
  3
cw-line-extremity2
  1

  0
HATCH
  5
200
330
1FF
100
AcDbEntity
  8
0
 62
     0
370
     0
100
AcDbHatch
 10
0.0
 20
0.0
 30
0.0
210
0.0
220
0.0
230
1.0
  2
SOLID
 70
     1
 71
     1
 91
        1
 92
        3
 72
     0
 73
     1
 93
        3
 10
0.0
 20
0.0
 10
10.0
 20
2.5
 10
10.0
 20
-2.5
 97
        0
 75
     0
 76
     1
 98
        0
  0
LINE
  5
201
330
1FF
100
AcDbEntity
  8
0
 62
     0
370
    -2
100
AcDbLine
 10
0.0
 20
0.0
 30
0.0
 11
10.0
 21
2.5
 31
0.0
  0
LINE
  5
202
330
1FF
100
AcDbEntity
  8
0
 62
     0
370
    -2
100
AcDbLine
 10
10.0
 20
2.5
 30
0.0
 11
10.0
 21
-2.5
 31
0.0
  0
LINE
  5
203
330
1FF
100
AcDbEntity
  8
0
 62
     0
370
    -2
100
AcDbLine
 10
10.0
 20
-2.5
 30
0.0
 11
0.0
 21
0.0
 31
0.0
  0
ENDBLK
  5
22A
330
1FF
100
AcDbEntity
  8
0
100
AcDbBlockEnd
  0
BLOCK
  5
227
330
204
100
AcDbEntity
  8
0
100
AcDbBlockBegin
  2
cw-line-extremity3
 70
     0
 10
0.0
 20
0.0
 30
0.0
  3
cw-line-extremity3
  1

  0
HATCH
  5
205
330
204
100
AcDbEntity
  8
0
 62
     0
370
     0
100
AcDbHatch
 10
0.0
 20
0.0
 30
0.0
210
0.0
220
0.0
230
1.0
  2
SOLID
 70
     1
 71
     1
 91
        1
 92
        3
 72
     0
 73
     1
 93
        3
 10
0.0
 20
0.0
 10
10.0
 20
2.5
 10
10.0
 20
-2.5
 97
        0
 75
     0
 76
     1
 98
        0
  0
LINE
  5
206
330
204
100
AcDbEntity
  8
0
 62
     0
370
    -2
100
AcDbLine
 10
0.0
 20
0.0
 30
0.0
 11
10.0
 21
2.5
 31
0.0
  0
LINE
  5
207
330
204
100
AcDbEntity
  8
0
 62
     0
370
    -2
100
AcDbLine
 10
10.0
 20
2.5
 30
0.0
 11
10.0
 21
-2.5
 31
0.0
  0
LINE
  5
208
330
204
100
AcDbEntity
  8
0
 62
     0
370
    -2
100
AcDbLine
 10
10.0
 20
-2.5
 30
0.0
 11
0.0
 21
0.0
 31
0.0
  0
ENDBLK
  5
228
330
204
100
AcDbEntity
  8
0
100
AcDbBlockEnd
  0
BLOCK
  5
225
330
209
100
AcDbEntity
  8
0
100
AcDbBlockBegin
  2
cw-line-extremity301
 70
     0
 10
0.0
 20
0.0
 30
0.0
  3
cw-line-extremity301
  1

  0
LINE
  5
20A
330
209
100
AcDbEntity
  8
0
 62
     0
370
    -2
100
AcDbLine
 10
0.0
 20
6.66665
 30
0.0
 11
0.0
 21
-6.66665
 31
0.0
  0
ENDBLK
  5
226
330
209
100
AcDbEntity
  8
0
100
AcDbBlockEnd
  0
BLOCK
  5
223
330
20B
100
AcDbEntity
  8
0
100
AcDbBlockBegin
  2
cw-line-extremity4
 70
     0
 10
0.0
 20
0.0
 30
0.0
  3
cw-line-extremity4
  1

  0
HATCH
  5
20C
330
20B
100
AcDbEntity
  8
0
 62
     0
370
     5
100
AcDbHatch
 10
0.0
 20
0.0
 30
0.0
210
0.0
220
0.0
230
1.0
  2
SOLID
 70
     1
 71
     1
 91
        1
 92
        1
 93
        1
 72
     2
 10
0.0
 20
0.0
 40
2.5
 50
0.0
 51
360.0
 73
     1
 97
        0
 75
     0
 76
     1
 98
        0
  0
ENDBLK
  5
224
330
20B
100
AcDbEntity
  8
0
100
AcDbBlockEnd
  0
BLOCK
  5
221
330
20D
100
AcDbEntity
  8
0
100
AcDbBlockBegin
  2
cw-line-extremity5
 70
     0
 10
0.0
 20
0.0
 30
0.0
  3
cw-line-extremity5
  1

  0
LINE
  5
20E
330
20D
100
AcDbEntity
  8
0
 62
     0
370
    -2
100
AcDbLine
 10
0.0
 20
0.0
 30
0.0
 11
-2.5
 21
0.0
 31
0.0
  0
ENDBLK
  5
222
330
20D
100
AcDbEntity
  8
0
100
AcDbBlockEnd
  0
BLOCK
  5
21F
330
20F
100
AcDbEntity
  8
0
100
AcDbBlockBegin
  2
cw-line-extremity6
 70
     0
 10
0.0
 20
0.0
 30
0.0
  3
cw-line-extremity6
  1

  0
LINE
  5
210
330
20F
100
AcDbEntity
  8
0
 62
     0
370
    18
100
AcDbLine
 10
0.0
 20
2.5
 30
0.0
 11
0.0
 21
-2.5
 31
0.0
  0
ENDBLK
  5
220
330
20F
100
AcDbEntity
  8
0
100
AcDbBlockEnd
  0
BLOCK
  5
21D
330
211
100
AcDbEntity
  8
0
100
AcDbBlockBegin
  2
cw-line-extremity9
 70
     0
 10
0.0
 20
0.0
 30
0.0
  3
cw-line-extremity9
  1

  0
LINE
  5
212
330
211
100
AcDbEntity
  8
0
 62
     0
370
    18
100
AcDbLine
 10
-2.5
 20
-2.5
 30
0.0
 11
2.5
 21
2.5
 31
0.0
  0
ENDBLK
  5
21E
330
211
100
AcDbEntity
  8
0
100
AcDbBlockEnd
  0
BLOCK
  5
21B
330
213
100
AcDbEntity
  8
0
100
AcDbBlockBegin
  2
cw-line-extremity10
 70
     0
 10
0.0
 20
0.0
 30
0.0
  3
cw-line-extremity10
  1

  0
CIRCLE
  5
214
330
213
100
AcDbEntity
  8
0
 62
     0
370
    -2
100
AcDbCircle
 10
0.0
 20
0.0
 30
0.0
 40
2.5
  0
ENDBLK
  5
21C
330
213
100
AcDbEntity
  8
0
100
AcDbBlockEnd
  0
BLOCK
  5
219
330
215
100
AcDbEntity
  8
0
100
AcDbBlockBegin
  2
cw-line-extremity1
 70
     0
 10
0.0
 20
0.0
 30
0.0
  3
cw-line-extremity1
  1

  0
LINE
  5
216
330
215
100
AcDbEntity
  8
0
 62
     0
370
    -2
100
AcDbLine
 10
0.0
 20
0.0
 30
0.0
 11
0.0
 21
2.5
 31
0.0
  0
LINE
  5
217
330
215
100
AcDbEntity
  8
0
 62
     0
370
    -2
100
AcDbLine
 10
0.0
 20
2.5
 30
0.0
 11
1.25
 21
3.75
 31
0.0
  0
LINE
  5
218
330
215
100
AcDbEntity
  8
0
 62
     0
370
    -2
100
AcDbLine
 10
1.25
 20
3.75
 30
0.0
 11
3.75
 21
3.75
 31
0.0
  0
ENDBLK
  5
21A
330
215
100
AcDbEntity
  8
0
100
AcDbBlockEnd
  0
BLOCK
  5
1C
330
1B
100
AcDbEntity
  8
0
100
AcDbBlockBegin
  2
*Paper_Space69
 70
     0
 10
0.0
 20
0.0
 30
0.0
  3
*Paper_Space69
  1

  0
ENDBLK
  5
1D
330
1B
100
AcDbEntity
  8
0
100
AcDbBlockEnd
  0
ENDSEC
  0
SECTION
  2
ENTITIES
  0
HATCH
  5
236
330
1F
100
AcDbEntity
  8
Ech.1_5
 62
    21
420
 16756102
440
 33554687
370
     5
100
AcDbHatch
 10
0.0
 20
0.0
 30
0.0
210
0.0
220
0.0
230
1.0
  2
SOLID
 70
     1
 71
     1
 91
        1
 92
        3
 72
     0
 73
     1
 93
       12
 10
4071.752910323841
 20
-9447.781639435794
 10
3999.753761249588
 20
-9447.781347843353
 10
3999.753761249079
 20
-8644.891814197163
 10
4071.753761249439
 20
-8644.891722416138
 10
4088.239264405352
 20
-8626.914374008757
 10
4074.129324387546
 20
-8662.870074020564
 10
4090.615678469044
 20
-8644.891722416138
 10
4188.753761249582
 20
-8644.8921224615
 10
4188.753761249582
 20
-9447.780009886017
 10
4090.614827543446
 20
-9447.781639435794
 10
4074.129324387548
 20
-9465.758987843175
 10
4088.239264405354
 20
-9429.803287831368
 97
        0
 75
     0
 76
     1
 98
        0
  0
LWPOLYLINE
  5
237
330
1F
100
AcDbEntity
  8
Ech.1_5
 62
   190
370
    20
100
AcDbPolyline
 90
       13
 70
     0
 43
0.0
 10
4071.752910323841
 20
-9447.781639435794
 10
3999.753761249588
 20
-9447.781347843353
 10
3999.753761249079
 20
-8644.891814197163
 10
4071.753761249439
 20
-8644.891722416138
 10
4088.239264405352
 20
-8626.914374008757
 10
4074.129324387546
 20
-8662.870074020564
 10
4090.615678469044
 20
-8644.891722416138
 10
4188.753761249582
 20
-8644.8921224615
 10
4188.753761249582
 20
-9447.780009886017
 10
4090.614827543446
 20
-9447.781639435794
 10
4074.129324387548
 20
-9465.758987843175
 10
4088.239264405354
 20
-9429.803287831368
 10
4071.752910323841
 20
-9447.781639435794
  0
LINE
  5
238
330
1F
100
AcDbEntity
  8
Ech.1_5
 62
   190
370
    20
100
AcDbLine
 10
4188.753761249582
 20
-8644.893492199531
 30
0.0
 11
4188.753761249582
 21
-9447.780009886017
 31
0.0
  0
LWPOLYLINE
  5
239
330
1F
100
AcDbEntity
  8
Ech.1_5
 62
   190
370
    20
100
AcDbPolyline
 90
        6
 70
     0
 43
0.0
 10
3910.696675032868
 20
-8644.894540215893
 10
4071.753761249439
 20
-8644.891722416152
 10
4088.239264405352
 20
-8626.914374008757
 10
4074.129324387546
 20
-8662.870074020564
 10
4090.615678469088
 20
-8644.891722416138
 10
4203.753761249582
 20
-8644.893762703603
  0
LWPOLYLINE
  5
23A
330
1F
100
AcDbEntity
  8
Ech.1_5
 62
   190
370
    20
100
AcDbPolyline
 90
        6
 70
     0
 43
0.0
 10
3910.728861219362
 20
-9447.783454038505
 10
4071.753761249441
 20
-9447.780636238764
 10
4088.239264405354
 20
-9429.803287831368
 10
4074.129324387548
 20
-9465.758987843175
 10
4090.61567846909
 20
-9447.78063623875
 10
4203.753761249582
 20
-9447.782676526214
  0
LWPOLYLINE
  5
23B
330
1F
100
AcDbEntity
  8
Ech.1_5
 62
   190
370
    20
100
AcDbPolyline
 90
        5
 70
     0
 43
0.0
 10
3553.917814353682
 20
-9640.099176575368
 10
4538.917814353681
 20
-9640.099176575368
 10
4538.917814353681
 20
-9777.512248640422
 10
3553.917814353682
 20
-9777.512248640422
 10
3553.917814353682
 20
-9640.099176575368
  0
LWPOLYLINE
  5
23C
330
1F
100
AcDbEntity
  8
Ech.1_5
 62
   190
370
    20
100
AcDbPolyline
 90
        5
 70
     0
 43
0.0
 10
4538.917814353681
 20
-8518.02921164619
 10
3553.917814353682
 20
-8518.02921164619
 10
3553.917814353682
 20
-8422.512248640542
 10
4538.917814353681
 20
-8422.512248640542
 10
4538.917814353681
 20
-8518.02921164619
  0
LWPOLYLINE
  5
23D
330
1F
100
AcDbEntity
  8
Ech.1_5
 62
   190
370
    20
100
AcDbPolyline
 90
        5
 70
     0
 43
0.0
 10
4538.917814353681
 20
-9662.099176575364
 10
3553.917814353682
 20
-9662.099176575364
 10
3553.917814353682
 20
-9640.099176575368
 10
4538.917814353681
 20
-9640.099176575368
 10
4538.917814353681
 20
-9662.099176575364
  0
LWPOLYLINE
  5
23E
330
1F
100
AcDbEntity
  8
Ech.1_5
 62
   190
370
    20
100
AcDbPolyline
 90
        5
 70
     0
 43
0.0
 10
4538.917814353681
 20
-9718.970321805707
 10
3553.917814353682
 20
-9718.970321805707
 10
3553.917814353682
 20
-9695.243293494968
 10
4538.917814353681
 20
-9695.243293494968
 10
4538.917814353681
 20
-9718.970321805707
  0
LINE
  5
23F
330
1F
100
AcDbEntity
  8
Ech.1_5
 62
   190
370
    20
100
AcDbLine
 10
3742.12237631664
 20
-9640.099176575368
 30
0.0
 11
3742.12237631664
 21
-9662.099176575364
 31
0.0
  0
LINE
  5
240
330
1F
100
AcDbEntity
  8
Ech.1_5
 62
   190
370
    20
100
AcDbLine
 10
4399.120478947185
 20
-9640.099176575368
 30
0.0
 11
4399.120478947185
 21
-9662.099176575364
 31
0.0
  0
LINE
  5
241
330
1F
100
AcDbEntity
  8
Ech.1_5
 62
   190
370
    20
100
AcDbLine
 10
3898.277594311996
 20
-9640.099176575368
 30
0.0
 11
3898.277594311996
 21
-9662.099176575364
 31
0.0
  0
IMAGE
  5
244
330
1F
100
AcDbEntity
  8
Ech.1_5
160
                 8
310
0800000000000000
100
AcDbRasterImage
 90
        0
 10
3744.982063094565
 20
-9772.476701159376
 30
0.0
 11
0.2834008097165992
 21
0.0
 31
0.0
 12
0.0
 22
0.2807017543859649
 32
0.0
 13
247.0
 23
171.0
340
243
 70
     3
280
     0
281
    50
282
    50
283
     0
360
245
 71
     1
 91
        2
 14
-0.5
 24
-0.5
 14
246.5
 24
170.5
290
     0
  0
IMAGE
  5
247
330
1F
100
AcDbEntity
  8
Ech.1_5
160
                 8
310
0800000000000000
100
AcDbRasterImage
 90
        0
 10
4006.059734336549
 20
-9775.031313463158
 30
0.0
 11
0.4
 21
0.0
 31
0.0
 12
0.0
 22
0.3984962406015037
 32
0.0
 13
200.0
 23
133.0
340
246
 70
     3
280
     0
281
    50
282
    50
283
     0
360
248
 71
     1
 91
        2
 14
-0.5
 24
-0.5
 14
199.5
 24
132.5
290
     0
  0
IMAGE
  5
24A
330
1F
100
AcDbEntity
  8
Ech.1_5
160
                 8
310
0800000000000000
100
AcDbRasterImage
 90
        0
 10
4249.434400715687
 20
-9776.236291378107
 30
0.0
 11
0.09502262443438914
 21
0.0
 31
0.0
 12
0.0
 22
0.09482758620689655
 32
0.0
 13
1326.0
 23
580.0
340
249
 70
     3
280
     0
281
    50
282
    50
283
     0
360
24B
 71
     1
 91
        2
 14
-0.5
 24
-0.5
 14
1325.5
 24
579.5
290
     0
  0
LINE
  5
24C
330
1F
100
AcDbEntity
  8
Ech.1_5
 62
   190
370
    20
100
AcDbLine
 10
4538.91781435369
 20
-8452.512248640433
 30
0.0
 11
3553.917814353691
 21
-8452.512248640433
 31
0.0
  0
LWPOLYLINE
  5
24D
330
1F
100
AcDbEntity
  8
Ech.1_5
 62
   190
370
    20
100
AcDbPolyline
 90
        5
 70
     0
 43
0.0
 10
4538.917814353681
 20
-9777.512248640422
 10
4538.917814353681
 20
-8422.512248640422
 10
3553.917814353682
 20
-8422.512248640422
 10
3553.917814353682
 20
-9777.512248640422
 10
4538.917814353681
 20
-9777.512248640422
  0
CIRCLE
  5
24E
330
1F
100
AcDbEntity
  8
Ech.1_5
 62
   154
420
    21156
370
    50
100
AcDbCircle
 10
4413.920359300027
 20
-8628.772092741796
 30
0.0
 40
74.99236516096971
  0
LWPOLYLINE
  5
24F
330
1F
100
AcDbEntity
  8
Ech.1_5
 62
   154
420
    21156
370
    20
100
AcDbPolyline
 90
      194
 70
     0
 43
0.0
 10
4413.091081565348
 20
-8606.948280355686
 10
4414.017832619207
 20
-8609.623476827283
 10
4414.925707709194
 20
-8612.30222129668
 10
4415.366668029029
 20
-8613.644032779868
 10
4415.795830871442
 20
-8614.98806176168
 10
4416.210836740952
 20
-8616.334751741842
 10
4416.609326142075
 20
-8617.684546220082
 10
4416.988939579328
 20
-8619.03788869612
 10
4417.347317557225
 20
-8620.395222669687
 10
4417.682100580284
 20
-8621.756991640503
 10
4417.990929153022
 20
-8623.123639108298
 10
4418.27144377995
 20
-8624.49560857279
 10
4418.521284965591
 20
-8625.87334353371
 10
4418.738093214457
 20
-8627.257287490782
 10
4418.919509031065
 20
-8628.647883943731
 10
4419.063172919931
 20
-8630.045576392282
 10
4419.120110549123
 20
-8630.747222208573
 10
4419.166725385571
 20
-8631.450808336156
 10
4419.202722492344
 20
-8632.156390212507
 10
4419.227806932502
 20
-8632.864023275086
 10
4419.241683769114
 20
-8633.57376296136
 10
4419.24405806524
 20
-8634.28566470879
 10
4419.23470344724
 20
-8634.999769208072
 10
4419.21425822992
 20
-8635.715931170384
 10
4419.145027790358
 20
-8637.153334747381
 10
4419.046287850766
 20
-8638.59567759522
 10
4418.927971018996
 20
-8640.040759395091
 10
4418.672337110318
 20
-8642.930338575745
 10
4418.55488524911
 20
-8644.370435318919
 10
4418.45758692712
 20
-8645.804469738923
 10
4418.390374752201
 20
-8647.230241516956
 10
4418.371154909843
 20
-8647.939341315605
 10
4418.363181332197
 20
-8648.645550334213
 10
4418.367695595241
 20
-8649.348593532924
 10
4418.385939274962
 20
-8650.048195871892
 10
4418.419153947333
 20
-8650.744082311267
 10
4418.468581188342
 20
-8651.435977811194
 10
4418.535462573966
 20
-8652.123607331829
 10
4418.621039680189
 20
-8652.80669583332
 10
4418.72655408299
 20
-8653.484968275812
 10
4418.853247358351
 20
-8654.158149619461
 10
4419.002361082254
 20
-8654.825964824413
 10
4419.175136830679
 20
-8655.48813885082
 10
4419.372816179606
 20
-8656.144396658829
 10
4419.59664070502
 20
-8656.794463208595
 10
4419.847851982899
 20
-8657.43806346026
 10
4420.127684646047
 20
-8658.074921681948
 10
4420.436671529754
 20
-8658.70469219294
 10
4420.774051180772
 20
-8659.326900309543
 10
4421.138922600773
 20
-8659.941057439471
 10
4421.53038479143
 20
-8660.546674990437
 10
4421.947536754415
 20
-8661.143264370157
 10
4422.389477491399
 20
-8661.730336986342
 10
4422.855306004056
 20
-8662.30740424671
 10
4423.344121294058
 20
-8662.873977558971
 10
4423.855022363075
 20
-8663.429568330841
 10
4424.387108212782
 20
-8663.973687970034
 10
4424.939477844849
 20
-8664.505847884258
 10
4425.511230260949
 20
-8665.025559481237
 10
4426.101464462753
 20
-8665.53233416868
 10
4426.709279451935
 20
-8666.025683354295
 10
4427.333774230165
 20
-8666.505118445806
 10
4427.974047799118
 20
-8666.970150850922
 10
4428.629199160464
 20
-8667.420291977356
 10
4429.298327315877
 20
-8667.855053232826
 10
4429.980531267026
 20
-8668.273946025041
 10
4430.674910015585
 20
-8668.676481761715
 10
4431.380562563228
 20
-8669.062171850566
 10
4432.096587911624
 20
-8669.430527699307
 10
4432.822085062446
 20
-8669.781060715646
 10
4433.556153017367
 20
-8670.113282307306
 10
4434.29789077806
 20
-8670.426703881993
 10
4435.046397346194
 20
-8670.720836847424
 10
4435.800771723444
 20
-8670.995192611315
 10
4436.56011291148
 20
-8671.249282581379
 10
4437.323519911978
 20
-8671.482618165326
 10
4438.090091726605
 20
-8671.694710770871
 10
4438.858927357036
 20
-8671.885071805731
 10
4439.629125804943
 20
-8672.05321267762
 10
4440.399786071998
 20
-8672.198644794247
 10
4441.170007159873
 20
-8672.320879563335
 10
4441.938888070241
 20
-8672.419428392586
 10
4442.705527804774
 20
-8672.493802689723
 10
4443.469025365142
 20
-8672.543513862456
 10
4444.228479753018
 20
-8672.5680733185
 10
4444.982989970077
 20
-8672.566992465567
 10
4445.731655017988
 20
-8672.539782711372
 10
4446.473573898424
 20
-8672.485955463631
 10
4447.207845613057
 20
-8672.405022130055
 10
4447.933569163559
 20
-8672.29649411836
 10
4448.649843551602
 20
-8672.159882836257
 10
4449.355767778859
 20
-8671.994699691462
 10
4450.050440847004
 20
-8671.800456091689
 10
4450.732961757705
 20
-8671.576663444652
 10
4451.402429512636
 20
-8671.322833158065
 10
4452.057943113472
 20
-8671.038476639642
 10
4452.698629227491
 20
-8670.723160034544
 10
4453.324021574677
 20
-8670.37725485691
 10
4453.933963729608
 20
-8670.001745679816
 10
4454.528307038107
 20
-8669.597632452012
 10
4455.10690284599
 20
-8669.165915122248
 10
4455.669602499076
 20
-8668.70759363927
 10
4456.216257343182
 20
-8668.223667951828
 10
4456.746718724127
 20
-8667.715138008667
 10
4457.260837987728
 20
-8667.183003758542
 10
4457.758466479803
 20
-8666.6282651502
 10
4458.239455546171
 20
-8666.051922132388
 10
4458.703656532648
 20
-8665.454974653854
 10
4459.150920785054
 20
-8664.838422663348
 10
4459.581099649206
 20
-8664.203266109622
 10
4459.994044470923
 20
-8663.550504941419
 10
4460.389606596022
 20
-8662.88113910749
 10
4460.76763737032
 20
-8662.196168556588
 10
4461.127988139636
 20
-8661.496593237456
 10
4461.470510249786
 20
-8660.783413098845
 10
4461.795055046593
 20
-8660.057628089504
 10
4462.10147387587
 20
-8659.32023815818
 10
4462.389618083438
 20
-8658.572243253624
 10
4462.659339015113
 20
-8657.814643324582
 10
4462.910488016714
 20
-8657.04843831981
 10
4463.14291643406
 20
-8656.274628188048
 10
4463.356475612967
 20
-8655.49421287805
 10
4463.551016899252
 20
-8654.708192338561
 10
4463.726391638736
 20
-8653.917566518332
 10
4463.882451177235
 20
-8653.123335366114
 10
4464.019046860568
 20
-8652.326498830651
 10
4464.136030034551
 20
-8651.528056860698
 10
4464.233252045005
 20
-8650.729009404995
 10
4464.310564237746
 20
-8649.930356412297
 10
4464.367817958592
 20
-8649.133097831354
 10
4464.404864553361
 20
-8648.33823361091
 10
4464.421555367873
 20
-8647.546763699718
 10
4464.417741747943
 20
-8646.759688046524
 10
4464.39327503939
 20
-8645.978006600077
 10
4464.348006588032
 20
-8645.202719309127
 10
4464.281787739688
 20
-8644.434826122422
 10
4464.194469840174
 20
-8643.675326988712
 10
4464.085904235309
 20
-8642.925221856744
 10
4463.955942270912
 20
-8642.185510675266
 10
4463.8044352928
 20
-8641.457193393031
 10
4463.63123464679
 20
-8640.741269958784
 10
4463.436191678702
 20
-8640.038740321275
 10
4463.219157734352
 20
-8639.350604429254
 10
4462.979984159559
 20
-8638.677862231465
 10
4462.718522300139
 20
-8638.021513676662
 10
4462.434623501914
 20
-8637.38255871359
 10
4462.128139110699
 20
-8636.761997291003
 10
4461.798945427708
 20
-8636.160782293951
 10
4461.447358297785
 20
-8635.57903766668
 10
4461.074069303898
 20
-8635.016178744207
 10
4460.679782124819
 20
-8634.471598049928
 10
4460.265200439321
 20
-8633.944688107222
 10
4459.831027926183
 20
-8633.434841439492
 10
4459.377968264173
 20
-8632.941450570117
 10
4458.906725132071
 20
-8632.46390802249
 10
4458.418002208647
 20
-8632.001606320002
 10
4457.912503172675
 20
-8631.553937986037
 10
4457.390931702933
 20
-8631.120295543988
 10
4456.85399147819
 20
-8630.700071517243
 10
4456.302386177224
 20
-8630.292658429198
 10
4455.736819478809
 20
-8629.897448803233
 10
4455.157995061716
 20
-8629.513835162741
 10
4454.566616604722
 20
-8629.14121003111
 10
4453.963387786601
 20
-8628.778965931733
 10
4453.349012286124
 20
-8628.426495387996
 10
4452.72419378207
 20
-8628.083190923287
 10
4452.089635953209
 20
-8627.748445060999
 10
4451.446042478317
 20
-8627.42165032452
 10
4450.794117036168
 20
-8627.102199237239
 10
4449.468084965194
 20
-8626.48289810383
 10
4448.11716917048
 20
-8625.885681847883
 10
4446.746999082221
 20
-8625.305690656516
 10
4445.363204130608
 20
-8624.738064716841
 10
4442.577257358092
 20
-8623.62046934103
 10
4441.186364397576
 20
-8623.060780279122
 10
4439.804364294478
 20
-8622.494017217365
 10
4438.436886478989
 20
-8621.915320342874
 10
4437.089044222945
 20
-8621.32027318579
 10
4435.761810433462
 20
-8620.708015552687
 10
4434.454166744996
 20
-8620.079397610603
 10
4433.165082099596
 20
-8619.435280428426
 10
4431.893525439315
 20
-8618.776525075049
 10
4430.638465706205
 20
-8618.103992619373
 10
4429.39887184232
 20
-8617.418544130285
 10
4428.173712789709
 20
-8616.72104067668
 10
4426.961957490425
 20
-8616.012343327458
 10
4425.762574886519
 20
-8615.293313151506
 10
4424.574533920045
 20
-8614.56481121772
 10
4423.39680353305
 20
-8613.827698594992
 10
4422.228352667591
 20
-8613.082836352223
 10
4419.91516526948
 20
-8611.57330728212
 10
4417.626723262127
 20
-8610.043112558562
 10
4415.354778181943
 20
-8608.4991407327
 10
4413.091081565348
 20
-8606.948280355686
  0
LWPOLYLINE
  5
250
330
1F
100
AcDbEntity
  8
Ech.1_5
 62
   154
420
    21156
370
    20
100
AcDbPolyline
 90
       95
 70
     0
 43
0.0
 10
4456.97998948854
 20
-8636.160143261317
 10
4456.933049332491
 20
-8637.4971293693
 10
4456.885612431462
 20
-8638.857605152893
 10
4456.861552468774
 20
-8639.55399219668
 10
4456.837182040475
 20
-8640.265060287724
 10
4456.812439053441
 20
-8640.993745635482
 10
4456.787261414551
 20
-8641.742984449405
 10
4456.761587030682
 20
-8642.515712938944
 10
4456.735353808709
 20
-8643.31486731355
 10
4456.708499655514
 20
-8644.143383782677
 10
4456.680962477973
 20
-8645.00419855578
 10
4456.652680182964
 20
-8645.900247842306
 10
4456.623590677364
 20
-8646.83446785171
 10
4456.60872381649
 20
-8647.316809442942
 10
4456.59363186805
 20
-8647.809794793442
 10
4456.563006569292
 20
-8648.82730626692
 10
4456.533454510534
 20
-8649.877296760087
 10
4456.507268316917
 20
-8650.946181603374
 10
4456.486741342041
 20
-8652.020371016348
 10
4456.4741669395
 20
-8653.086275218555
 10
4456.47183846289
 20
-8654.130304429556
 10
4456.475233119811
 20
-8654.63986910697
 10
4456.482049265812
 20
-8655.138868868913
 10
4456.492573570095
 20
-8655.625604992836
 10
4456.50709270186
 20
-8656.098378756178
 10
4456.525893330306
 20
-8656.55549143639
 10
4456.549262124632
 20
-8656.995244310912
 10
4456.577485754037
 20
-8657.415938657186
 10
4456.610850887723
 20
-8657.815875752667
 10
4456.649644194889
 20
-8658.193356874792
 10
4456.694152344734
 20
-8658.546683301005
 10
4456.744662006457
 20
-8658.874156308755
 10
4456.801459849257
 20
-8659.174077175481
 10
4456.864832542336
 20
-8659.444747178632
 10
4456.935066754892
 20
-8659.684467595653
 10
4457.012449156126
 20
-8659.891539703985
 10
4457.097266415237
 20
-8660.064264781082
 10
4457.189805201422
 20
-8660.200944104374
 10
4457.290352183886
 20
-8660.299878951319
 10
4457.343718332844
 20
-8660.334661345358
 10
4457.399194031823
 20
-8660.35937059935
 10
4457.45681511447
 20
-8660.373794372981
 10
4457.516617414436
 20
-8660.377720325923
 10
4457.578635035624
 20
-8660.370941680712
 10
4457.642841630823
 20
-8660.353446070201
 10
4457.709136042898
 20
-8660.325461715378
 10
4457.777412472256
 20
-8660.287231767332
 10
4457.919488184466
 20
-8660.181007695952
 10
4458.068222370719
 20
-8660.036719064807
 10
4458.222768634289
 20
-8659.856311082634
 10
4458.382280578443
 20
-8659.641728958184
 10
4458.545911806453
 20
-8659.394917900196
 10
4458.712815921587
 20
-8659.117823117416
 10
4458.882146527117
 20
-8658.812389818586
 10
4459.053057226311
 20
-8658.480563212453
 10
4459.224701622442
 20
-8658.124288507755
 10
4459.396233318777
 20
-8657.745510913242
 10
4459.566805918588
 20
-8657.346175637655
 10
4459.735573025144
 20
-8656.928227889735
 10
4459.901688241715
 20
-8656.493612878232
 10
4460.064305171572
 20
-8656.044275811882
 10
4460.222577417985
 20
-8655.582161899436
 10
4460.375658584222
 20
-8655.10921634963
 10
4460.662862089254
 20
-8654.138611172932
 10
4460.91914451283
 20
-8653.148021951736
 10
4461.033574327244
 20
-8652.650096346308
 10
4461.137734681107
 20
-8652.153010355987
 10
4461.230779177684
 20
-8651.658709189518
 10
4461.311861420245
 20
-8651.16913805564
 10
4461.380136577041
 20
-8650.686239329794
 10
4461.43509560041
 20
-8650.211347468468
 10
4461.476980599801
 20
-8649.744436998795
 10
4461.50613562848
 20
-8649.285297884155
 10
4461.522904739709
 20
-8648.833720087925
 10
4461.52763198675
 20
-8648.38949357348
 10
4461.520661422864
 20
-8647.952408304203
 10
4461.502337101315
 20
-8647.522254243466
 10
4461.473003075367
 20
-8647.098821354655
 10
4461.43300339828
 20
-8646.681899601133
 10
4461.382682123316
 20
-8646.271278946291
 10
4461.32238330374
 20
-8645.8667493535
 10
4461.252450992813
 20
-8645.46810078614
 10
4461.173229243799
 20
-8645.075123207585
 10
4461.08506210996
 20
-8644.68760658122
 10
4460.988293644557
 20
-8644.305340870413
 10
4460.770328932113
 20
-8643.555722048999
 10
4460.522087532566
 20
-8642.824586450364
 10
4460.246321872017
 20
-8642.11025378153
 10
4459.945784376569
 20
-8641.411043749516
 10
4459.623227472318
 20
-8640.725276061343
 10
4459.281403585365
 20
-8640.051270424026
 10
4458.923065141813
 20
-8639.387346544592
 10
4458.550964567758
 20
-8638.731824130055
 10
4457.77648673255
 20
-8637.439262523767
 10
4456.97998948854
 20
-8636.160143261317
  0
LWPOLYLINE
  5
251
330
1F
100
AcDbEntity
  8
Ech.1_5
 62
   154
420
    21156
370
    20
100
AcDbPolyline
 90
      171
 70
     0
 43
0.0
 10
4382.132675049947
 20
-8622.014221610301
 10
4382.966107220791
 20
-8624.911436867185
 10
4383.365671418748
 20
-8626.363220920099
 10
4383.744653351749
 20
-8627.818816682382
 10
4384.096192264806
 20
-8629.27949472382
 10
4384.413427402935
 20
-8630.746525614202
 10
4384.557037070468
 20
-8631.482820430809
 10
4384.68949801115
 20
-8632.221179923321
 10
4384.809952630605
 20
-8632.961762912964
 10
4384.917543334464
 20
-8633.70472822096
 10
4385.011412528349
 20
-8634.450234668537
 10
4385.09070261789
 20
-8635.198441076911
 10
4385.154556008715
 20
-8635.949506267316
 10
4385.202115106446
 20
-8636.703589060966
 10
4385.232522316714
 20
-8637.460848279092
 10
4385.244920045146
 20
-8638.221442742912
 10
4385.238450697365
 20
-8638.98553127365
 10
4385.212256679
 20
-8639.753272692535
 10
4385.166238536047
 20
-8640.524661102976
 10
4385.104512649944
 20
-8641.298774652443
 10
4384.956232159846
 20
-8642.850223320322
 10
4384.812011186025
 20
-8644.397709489003
 10
4384.755359695271
 20
-8645.166869914474
 10
4384.716447096646
 20
-8645.931323649138
 10
4384.700848061174
 20
-8646.689832004324
 10
4384.714137259875
 20
-8647.441156291372
 10
4384.761889363767
 20
-8648.184057821603
 10
4384.800431089853
 20
-8648.551962962705
 10
4384.849679043871
 20
-8648.917297906351
 10
4384.910330059698
 20
-8649.279907816463
 10
4384.98308097121
 20
-8649.63963785695
 10
4385.068628612287
 20
-8649.996333191735
 10
4385.167669816804
 20
-8650.349838984732
 10
4385.28090141864
 20
-8650.700000399855
 10
4385.409020251673
 20
-8651.046662601022
 10
4385.552723149779
 20
-8651.38967075215
 10
4385.712658314616
 20
-8651.72886407797
 10
4385.888795143622
 20
-8652.063998904607
 10
4386.080604411424
 20
-8652.394770664132
 10
4386.28754537514
 20
-8652.72087338205
 10
4386.509077291896
 20
-8653.042001083868
 10
4386.744659418805
 20
-8653.357847795083
 10
4386.993751012991
 20
-8653.668107541207
 10
4387.255811331574
 20
-8653.972474347742
 10
4387.530299631674
 20
-8654.270642240192
 10
4387.816675170412
 20
-8654.562305244059
 10
4388.114397204906
 20
-8654.84715738485
 10
4388.422924992277
 20
-8655.124892688069
 10
4388.741717789648
 20
-8655.395205179218
 10
4389.070234854136
 20
-8655.657788883804
 10
4389.407935442862
 20
-8655.912337827329
 10
4389.754278812948
 20
-8656.1585460353
 10
4390.108724221512
 20
-8656.396107533215
 10
4390.470730925674
 20
-8656.624716346587
 10
4390.839758182554
 20
-8656.844066500915
 10
4391.215265249276
 20
-8657.053852021703
 10
4391.596711382957
 20
-8657.253766934457
 10
4391.983555840718
 20
-8657.443505264682
 10
4392.375257879679
 20
-8657.622761037881
 10
4392.771276756961
 20
-8657.791228279557
 10
4393.171071729682
 20
-8657.948601015214
 10
4393.574102054966
 20
-8658.094573270359
 10
4393.97982698993
 20
-8658.228839070496
 10
4394.387705791694
 20
-8658.351092441126
 10
4394.797197717382
 20
-8658.461027407755
 10
4395.207762024111
 20
-8658.55833799589
 10
4395.618857969002
 20
-8658.64271823103
 10
4396.029944809175
 20
-8658.713862138684
 10
4396.440481801751
 20
-8658.771463744357
 10
4396.849928203849
 20
-8658.815217073547
 10
4397.25774327259
 20
-8658.844816151763
 10
4397.663386265094
 20
-8658.859955004506
 10
4398.066316438482
 20
-8658.860327657283
 10
4398.465993049875
 20
-8658.8456281356
 10
4398.86187535639
 20
-8658.815550464957
 10
4399.25342261515
 20
-8658.76978867086
 10
4399.640094083274
 20
-8658.708036778811
 10
4400.021349017883
 20
-8658.629988814318
 10
4400.396646676097
 20
-8658.535338802887
 10
4400.765446315035
 20
-8658.423780770016
 10
4401.127207191818
 20
-8658.29500874121
 10
4401.481388563568
 20
-8658.148716741978
 10
4401.827450746184
 20
-8657.984601060525
 10
4402.164990114058
 20
-8657.80264875357
 10
4402.493871672818
 20
-8657.603420965499
 10
4402.813991913083
 20
-8657.387546126798
 10
4403.125247325465
 20
-8657.155652667945
 10
4403.427534400586
 20
-8656.908369019427
 10
4403.720749629064
 20
-8656.646323611718
 10
4404.004789501512
 20
-8656.3701448753
 10
4404.279550508551
 20
-8656.080461240654
 10
4404.544929140794
 20
-8655.777901138259
 10
4404.800821888863
 20
-8655.463092998601
 10
4405.047125243374
 20
-8655.136665252161
 10
4405.283735694943
 20
-8654.79924632941
 10
4405.510549734187
 20
-8654.45146466084
 10
4405.727463851724
 20
-8654.093948676922
 10
4405.934374538173
 20
-8653.727326808146
 10
4406.131178284149
 20
-8653.35222748499
 10
4406.317771580269
 20
-8652.969279137928
 10
4406.494050917153
 20
-8652.579110197448
 10
4406.659912785414
 20
-8652.18234909403
 10
4406.815253675674
 20
-8651.779624258148
 10
4406.959970078547
 20
-8651.37156412029
 10
4407.093958484652
 20
-8650.958797110938
 10
4407.217115384606
 20
-8650.541951660569
 10
4407.329337269024
 20
-8650.12165619966
 10
4407.430520628528
 20
-8649.6985391587
 10
4407.520561953731
 20
-8649.273228968166
 10
4407.599357735251
 20
-8648.846354058536
 10
4407.666804463706
 20
-8648.418542860292
 10
4407.722798629716
 20
-8647.99042380392
 10
4407.767236723893
 20
-8647.562625319893
 10
4407.800015236857
 20
-8647.135775838697
 10
4407.821030659225
 20
-8646.71050379081
 10
4407.830179481617
 20
-8646.287437606714
 10
4407.827358194644
 20
-8645.86720571689
 10
4407.81246328893
 20
-8645.450436551819
 10
4407.785391255088
 20
-8645.037758541981
 10
4407.746038583736
 20
-8644.629800117853
 10
4407.694301765492
 20
-8644.227189709922
 10
4407.630077290974
 20
-8643.830555748667
 10
4407.553261650798
 20
-8643.440526664566
 10
4407.463751335581
 20
-8643.057730888104
 10
4407.361442835941
 20
-8642.682796849756
 10
4407.246232642496
 20
-8642.31635298001
 10
4407.118017245863
 20
-8641.959027709341
 10
4406.976693136657
 20
-8641.61144946823
 10
4406.822156805497
 20
-8641.274246687159
 10
4406.654304743002
 20
-8640.948047796612
 10
4406.473052723017
 20
-8640.633445939322
 10
4406.278626547934
 20
-8640.330466914938
 10
4406.071502174982
 20
-8640.038678747123
 10
4405.852162696767
 20
-8639.757636402019
 10
4405.621091205892
 20
-8639.486894845772
 10
4405.378770794962
 20
-8639.22600904452
 10
4405.12568455658
 20
-8638.974533964407
 10
4404.862315583352
 20
-8638.732024571575
 10
4404.589146967881
 20
-8638.498035832165
 10
4404.306661802771
 20
-8638.272122712317
 10
4404.015343180627
 20
-8638.053840178178
 10
4403.715674194053
 20
-8637.842743195886
 10
4403.408137935652
 20
-8637.638386731582
 10
4402.771395973791
 20
-8637.248115221517
 10
4402.108982035877
 20
-8636.879465377118
 10
4401.424760862743
 20
-8636.528876927516
 10
4400.722597195225
 20
-8636.192789601848
 10
4400.006355774154
 20
-8635.86764312925
 10
4398.547098634694
 20
-8635.235931659814
 10
4397.07790737103
 20
-8634.605260352284
 10
4396.349248294708
 20
-8634.281414082076
 10
4395.629699909837
 20
-8633.947147039751
 10
4394.923126957249
 20
-8633.598898954446
 10
4394.233216131764
 20
-8633.233276989422
 10
4393.561105945607
 20
-8632.849284613847
 10
4392.906030958268
 20
-8632.4477157703
 10
4392.267179969801
 20
-8632.02940743345
 10
4391.643741780268
 20
-8631.595196577966
 10
4391.03490518972
 20
-8631.145920178504
 10
4390.439858998216
 20
-8630.682415209736
 10
4389.85779200581
 20
-8630.205518646322
 10
4389.287893012562
 20
-8629.716067462934
 10
4388.729350818524
 20
-8629.214898634229
 10
4388.181354223756
 20
-8628.702849134881
 10
4387.643092028311
 20
-8628.180755939546
 10
4387.113753032248
 20
-8627.6494560229
 10
4386.592526035622
 20
-8627.109786359595
 10
4386.078599838489
 20
-8626.562583924308
 10
4385.069405042928
 20
-8625.448928636431
 10
4384.079679046019
 20
-8624.315185956591
 10
4382.132675049947
 20
-8622.014221610301
  0
LWPOLYLINE
  5
252
330
1F
100
AcDbEntity
  8
Ech.1_5
 62
   154
420
    21156
370
    20
100
AcDbPolyline
 90
       70
 70
     0
 43
0.0
 10
4404.07712760249
 20
-8640.647674422147
 10
4403.969209117347
 20
-8641.325942993959
 10
4403.861322341152
 20
-8642.015542140005
 10
4403.753498982857
 20
-8642.727802434516
 10
4403.64577075141
 20
-8643.47405445172
 10
4403.591952217303
 20
-8643.863468160784
 10
4403.538169355763
 20
-8644.265628765857
 10
4403.48442613041
 20
-8644.681952588722
 10
4403.430726504863
 20
-8645.113855951155
 10
4403.37707444274
 20
-8645.562755174937
 10
4403.323473907662
 20
-8646.030066581847
 10
4403.269928863243
 20
-8646.517206493663
 10
4403.216567231142
 20
-8647.024991491555
 10
4403.164566551906
 20
-8647.549159832612
 10
4403.115632645226
 20
-8648.082893824656
 10
4403.03380449109
 20
-8649.15171027694
 10
4403.004329914419
 20
-8649.673118494802
 10
4402.984761451869
 20
-8650.176743878894
 10
4402.976808938832
 20
-8650.655749308025
 10
4402.9821822107
 20
-8651.103297661008
 10
4402.990400339532
 20
-8651.31313883357
 10
4403.002591102862
 20
-8651.512551816648
 10
4403.018968230115
 20
-8651.700681970098
 10
4403.039745450715
 20
-8651.876674653764
 10
4403.065136494083
 20
-8652.039675227501
 10
4403.095355089647
 20
-8652.18882905116
 10
4403.130614966827
 20
-8652.323281484594
 10
4403.17112985505
 20
-8652.442177887651
 10
4403.217113483738
 20
-8652.544663620185
 10
4403.268779582316
 20
-8652.629884042044
 10
4403.326341880209
 20
-8652.696984513084
 10
4403.390014106839
 20
-8652.745110393153
 10
4403.460009991631
 20
-8652.773407042103
 10
4403.536524653561
 20
-8652.781062832235
 10
4403.619379540384
 20
-8652.768129764418
 10
4403.708050348815
 20
-8652.73545893899
 10
4403.801999759718
 20
-8652.683931538524
 10
4403.900690453951
 20
-8652.614428745577
 10
4404.003585112382
 20
-8652.527831742716
 10
4404.110146415873
 20
-8652.425021712505
 10
4404.219837045285
 20
-8652.306879837508
 10
4404.332119681484
 20
-8652.174287300295
 10
4404.446457005332
 20
-8652.028125283423
 10
4404.562311697691
 20
-8651.869274969464
 10
4404.679146439425
 20
-8651.698617540978
 10
4404.796423911398
 20
-8651.517034180533
 10
4405.030157769507
 20
-8651.124614394017
 10
4405.259214718925
 20
-8650.699065070436
 10
4405.479296206552
 20
-8650.247435670306
 10
4405.686103679299
 20
-8649.776775654149
 10
4405.875338584065
 20
-8649.294134482478
 10
4406.042702367757
 20
-8648.806561615813
 10
4406.183896477278
 20
-8648.321106514675
 10
4406.294636509394
 20
-8647.844800392359
 10
4406.372509976979
 20
-8647.382260498176
 10
4406.418829207373
 20
-8646.933300678127
 10
4406.435347213751
 20
-8646.497166483647
 10
4406.423817009291
 20
-8646.073103466177
 10
4406.385991607171
 20
-8645.660357177148
 10
4406.32362402057
 20
-8645.258173168002
 10
4406.238467262661
 20
-8644.865796990174
 10
4406.132274346625
 20
-8644.4824741951
 10
4406.006798285639
 20
-8644.10745033422
 10
4405.863792092878
 20
-8643.739970958968
 10
4405.705008781521
 20
-8643.379281620784
 10
4405.532201364746
 20
-8643.024627871102
 10
4405.347122855728
 20
-8642.675255261362
 10
4404.947164613681
 20
-8641.989335667451
 10
4404.519158160794
 20
-8641.315487250546
 10
4404.07712760249
 20
-8640.647674422147
  0
LWPOLYLINE
  5
253
330
1F
100
AcDbEntity
  8
Ech.1_5
 62
   154
420
    21156
370
    20
100
AcDbPolyline
 90
      170
 70
     0
 43
0.0
 10
4429.011124494369
 20
-8584.337506208562
 10
4429.715195387094
 20
-8585.656858042801
 10
4430.407214971011
 20
-8586.978752569174
 10
4431.075131937318
 20
-8588.305732479812
 10
4431.396285904866
 20
-8588.971924045522
 10
4431.706894977207
 20
-8589.640340466847
 10
4432.005452740743
 20
-8590.311299580304
 10
4432.290452781873
 20
-8590.98511922241
 10
4432.560388686995
 20
-8591.66211722968
 10
4432.813754042508
 20
-8592.342611438635
 10
4433.049042434813
 20
-8593.026919685788
 10
4433.264747450309
 20
-8593.715359807657
 10
4433.459362675396
 20
-8594.408249640757
 10
4433.631381696469
 20
-8595.105907021605
 10
4433.779298099932
 20
-8595.808649786719
 10
4433.901605472182
 20
-8596.516795772612
 10
4433.99679739962
 20
-8597.230662815806
 10
4434.063367468642
 20
-8597.95056875281
 10
4434.099809270591
 20
-8598.67683141904
 10
4434.105921221106
 20
-8599.409475085731
 10
4434.08647900977
 20
-8600.14740421878
 10
4434.047444919561
 20
-8600.889256319948
 10
4433.934450234433
 20
-8602.379279433659
 10
4433.814635429538
 20
-8603.86864444092
 10
4433.76707618962
 20
-8604.609673909024
 10
4433.735698768693
 20
-8605.346451355788
 10
4433.726465449732
 20
-8606.077614282969
 10
4433.745338515718
 20
-8606.801800192325
 10
4433.798280249624
 20
-8607.517646585611
 10
4433.839390080477
 20
-8607.872016683026
 10
4433.891252934429
 20
-8608.223790964585
 10
4433.954614096849
 20
-8608.572799118005
 10
4434.03021885311
 20
-8608.918870831003
 10
4434.118812488584
 20
-8609.261835791305
 10
4434.221140288644
 20
-8609.601523686626
 10
4434.337947538662
 20
-8609.937764204687
 10
4434.469979524009
 20
-8610.270387033208
 10
4434.617887794702
 20
-8610.599214655322
 10
4434.781549068058
 20
-8610.924009999819
 10
4434.960457845847
 20
-8611.24450661804
 10
4435.154105937959
 20
-8611.560437854441
 10
4435.361985154285
 20
-8611.87153705347
 10
4435.583587304716
 20
-8612.177537559572
 10
4435.81840419914
 20
-8612.478172717198
 10
4436.065927647448
 20
-8612.773175870796
 10
4436.325649459528
 20
-8613.062280364818
 10
4436.597061445272
 20
-8613.345219543708
 10
4436.879655414569
 20
-8613.621726751919
 10
4437.17292317731
 20
-8613.891535333896
 10
4437.476356543382
 20
-8614.15437863409
 10
4437.78944732268
 20
-8614.409989996953
 10
4438.111687325088
 20
-8614.658102766927
 10
4438.442568360501
 20
-8614.898450288465
 10
4438.781582238807
 20
-8615.130765906015
 10
4439.128220769892
 20
-8615.354782964027
 10
4439.481975763652
 20
-8615.570234806946
 10
4439.842339029975
 20
-8615.776854779224
 10
4440.208802378749
 20
-8615.974376225307
 10
4440.580857619867
 20
-8616.16253248965
 10
4440.957996563216
 20
-8616.341056916697
 10
4441.339711018687
 20
-8616.509682850896
 10
4441.72549279617
 20
-8616.668143636698
 10
4442.114833705556
 20
-8616.816172618554
 10
4442.507225556733
 20
-8616.953503140905
 10
4442.902160159591
 20
-8617.079868548208
 10
4443.299129324022
 20
-8617.195002184906
 10
4443.697624859914
 20
-8617.298637395454
 10
4444.097138577158
 20
-8617.390507524293
 10
4444.497162285643
 20
-8617.470345915879
 10
4444.89718779526
 20
-8617.537885914657
 10
4445.296706915898
 20
-8617.592860865076
 10
4445.695211457446
 20
-8617.635004111584
 10
4446.092193229795
 20
-8617.664048998631
 10
4446.487144042838
 20
-8617.67972887067
 10
4446.879555706459
 20
-8617.681777072143
 10
4447.268920030552
 20
-8617.669926947501
 10
4447.654728825005
 20
-8617.643911841193
 10
4448.03647389971
 20
-8617.60346509767
 10
4448.413647064554
 20
-8617.548320061376
 10
4448.78574012943
 20
-8617.478210076768
 10
4449.152244904224
 20
-8617.392868488285
 10
4449.512653198831
 20
-8617.292028640382
 10
4449.866456823136
 20
-8617.175423877503
 10
4450.213147587033
 20
-8617.042787544106
 10
4450.552217300408
 20
-8616.89385298463
 10
4450.883188307705
 20
-8616.728411348186
 10
4451.205847004677
 20
-8616.546753656843
 10
4451.520115022972
 20
-8616.349426946425
 10
4451.825915090516
 20
-8616.136980328098
 10
4452.123169935227
 20
-8615.90996291302
 10
4452.411802285033
 20
-8615.66892381236
 10
4452.691734867849
 20
-8615.414412137281
 10
4452.962890411603
 20
-8615.146976998944
 10
4453.225191644214
 20
-8614.867167508519
 10
4453.478561293605
 20
-8614.575532777162
 10
4453.722922087698
 20
-8614.272621916045
 10
4453.958196754415
 20
-8613.958984036324
 10
4454.184308021678
 20
-8613.635168249171
 10
4454.401178617409
 20
-8613.301723665742
 10
4454.60873126953
 20
-8612.959199397206
 10
4454.806888705964
 20
-8612.608144554726
 10
4454.995573654634
 20
-8612.249108249465
 10
4455.174708843459
 20
-8611.882639592586
 10
4455.344217000363
 20
-8611.509287695257
 10
4455.504020853267
 20
-8611.129601668637
 10
4455.654043130095
 20
-8610.744130623894
 10
4455.794206558768
 20
-8610.353423672188
 10
4455.924433867209
 20
-8609.958029924685
 10
4456.044647783337
 20
-8609.55849849255
 10
4456.154771035078
 20
-8609.155378486943
 10
4456.254726350352
 20
-8608.749219019031
 10
4456.344436457081
 20
-8608.34056919998
 10
4456.423824083188
 20
-8607.92997814095
 10
4456.492811956595
 20
-8607.517994953107
 10
4456.551322805224
 20
-8607.105168747612
 10
4456.599279356996
 20
-8606.692048635632
 10
4456.636604339835
 20
-8606.279183728331
 10
4456.663220481661
 20
-8605.867123136872
 10
4456.679050510399
 20
-8605.456415972416
 10
4456.684017153967
 20
-8605.04761134613
 10
4456.678043140291
 20
-8604.64125836918
 10
4456.66105119729
 20
-8604.237906152724
 10
4456.632964052889
 20
-8603.838103807931
 10
4456.593704435008
 20
-8603.442400445963
 10
4456.543195071571
 20
-8603.051345177988
 10
4456.481358690497
 20
-8602.665487115162
 10
4456.408118019712
 20
-8602.285375368654
 10
4456.323395787134
 20
-8601.911559049626
 10
4456.227114720688
 20
-8601.544587269243
 10
4456.119197548296
 20
-8601.18500913867
 10
4455.999566997879
 20
-8600.833373769066
 10
4455.86814579736
 20
-8600.490230271602
 10
4455.724856674658
 20
-8600.156127757438
 10
4455.569622357701
 20
-8599.831615337736
 10
4455.402370565192
 20
-8599.51723255507
 10
4455.223217842832
 20
-8599.213156922942
 10
4455.032523068458
 20
-8598.919101342926
 10
4454.830661020933
 20
-8598.63474823031
 10
4454.618006479118
 20
-8598.359780000379
 10
4454.394934221878
 20
-8598.093879068423
 10
4454.161819028074
 20
-8597.836727849723
 10
4453.919035676571
 20
-8597.588008759569
 10
4453.666958946232
 20
-8597.347404213246
 10
4453.405963615916
 20
-8597.114596626041
 10
4453.136424464489
 20
-8596.889268413239
 10
4452.858716270816
 20
-8596.671101990127
 10
4452.573213813755
 20
-8596.459779771987
 10
4451.98032522493
 20
-8596.05639761179
 10
4451.360756928917
 20
-8595.676581254933
 10
4450.717507156619
 20
-8595.317790023702
 10
4450.053574138941
 20
-8594.977483240393
 10
4449.371956106786
 20
-8594.653120227293
 10
4448.675651291054
 20
-8594.342160306693
 10
4447.967657922653
 20
-8594.042062800883
 10
4447.250974232482
 20
-8593.750287032153
 10
4444.357300872183
 20
-8592.615587773842
 10
4443.64213903672
 20
-8592.327310524866
 10
4442.935910802508
 20
-8592.032416164664
 10
4442.239027550184
 20
-8591.730524437913
 10
4441.551065937878
 20
-8591.421952212422
 10
4440.87160112559
 20
-8591.107017607184
 10
4440.20020827332
 20
-8590.786038741184
 10
4438.879939088827
 20
-8590.127220702845
 10
4437.586859664393
 20
-8589.44804304931
 10
4436.31757128001
 20
-8588.751050732473
 10
4435.06867521567
 20
-8588.038788704236
 10
4433.836772751366
 20
-8587.313801916502
 10
4432.618465167091
 20
-8586.578635321164
 10
4431.410353742838
 20
-8585.835833870133
 10
4429.011124494369
 20
-8584.337506208562
  0
LWPOLYLINE
  5
254
330
1F
100
AcDbEntity
  8
Ech.1_5
 62
   154
420
    21156
370
    20
100
AcDbPolyline
 90
      167
 70
     0
 43
0.0
 10
4380.100861978681
 20
-8592.858968223376
 10
4380.901772143875
 20
-8594.090811012771
 10
4381.686970250271
 20
-8595.326345630738
 10
4382.068767263042
 20
-8595.946651071867
 10
4382.440744239063
 20
-8596.56926390585
 10
4382.800937170984
 20
-8597.194645611264
 10
4383.147382051455
 20
-8597.82325766668
 10
4383.478114873125
 20
-8598.455561550667
 10
4383.791171628644
 20
-8599.092018741798
 10
4384.084588310665
 20
-8599.733090718644
 10
4384.356400911833
 20
-8600.379238959777
 10
4384.604645424801
 20
-8601.030924943769
 10
4384.827357842218
 20
-8601.68861014919
 10
4385.022574156734
 20
-8602.35275605461
 10
4385.188330360999
 20
-8603.023824138607
 10
4385.322662447665
 20
-8603.702275879745
 10
4385.423606409377
 20
-8604.388572756601
 10
4385.489212685602
 20
-8605.083172810018
 10
4385.519889249889
 20
-8605.78597308831
 10
4385.52099386928
 20
-8606.495692800101
 10
4385.49850847364
 20
-8607.210902629891
 10
4385.45841499284
 20
-8607.930173262184
 10
4385.406695356743
 20
-8608.652075381482
 10
4385.292305338127
 20
-8610.098056819095
 10
4385.241598815342
 20
-8610.819277506418
 10
4385.203193856726
 20
-8611.537412418753
 10
4385.183072392147
 20
-8612.2510322406
 10
4385.187216351469
 20
-8612.958707656462
 10
4385.221607664562
 20
-8613.659009350844
 10
4385.252015431855
 20
-8614.005948391386
 10
4385.292228261291
 20
-8614.350508008245
 10
4385.3429938941
 20
-8614.692509536984
 10
4385.40506007152
 20
-8615.031774313167
 10
4385.479174534782
 20
-8615.368123672357
 10
4385.566085025119
 20
-8615.701378950112
 10
4385.666539283764
 20
-8616.031361482
 10
4385.781285051952
 20
-8616.357892603584
 10
4385.911067975861
 20
-8616.680793548507
 10
4386.056273996411
 20
-8616.999868052091
 10
4386.216524473213
 20
-8617.31488265562
 10
4386.391342952707
 20
-8617.625599142128
 10
4386.580252981332
 20
-8617.931779294648
 10
4386.782778105525
 20
-8618.233184896213
 10
4386.998441871727
 20
-8618.529577729862
 10
4387.226767826377
 20
-8618.820719578622
 10
4387.467279515914
 20
-8619.10637222554
 10
4387.719500486775
 20
-8619.386297453635
 10
4387.982954285403
 20
-8619.660257045954
 10
4388.257164458232
 20
-8619.928012785525
 10
4388.541654551705
 20
-8620.18932645538
 10
4388.835948112259
 20
-8620.443959838563
 10
4389.139568686334
 20
-8620.691674718099
 10
4389.452039820369
 20
-8620.932232877027
 10
4389.772885060802
 20
-8621.165396098379
 10
4390.101627954075
 20
-8621.390926165193
 10
4390.437792046622
 20
-8621.6085848605
 10
4390.780900884887
 20
-8621.818133967336
 10
4391.130478015306
 20
-8622.019335268733
 10
4391.486046984319
 20
-8622.21195054773
 10
4391.847131338365
 20
-8622.395741587357
 10
4392.213254623884
 20
-8622.57047017065
 10
4392.583940387311
 20
-8622.735898080642
 10
4392.958712175089
 20
-8622.89178710037
 10
4393.337093533658
 20
-8623.037899012868
 10
4393.718608009454
 20
-8623.17399560117
 10
4394.102779148918
 20
-8623.29983864831
 10
4394.489130498487
 20
-8623.415189937323
 10
4394.877185604601
 20
-8623.51981125124
 10
4395.2664680137
 20
-8623.6134643731
 10
4395.656501272222
 20
-8623.695911085937
 10
4396.046808926607
 20
-8623.766913172783
 10
4396.436914523292
 20
-8623.826232416674
 10
4396.826341608718
 20
-8623.873630600643
 10
4397.214613729324
 20
-8623.908869507726
 10
4397.601254431547
 20
-8623.931710920955
 10
4397.985787261828
 20
-8623.941916623366
 10
4398.367735766607
 20
-8623.939248397995
 10
4398.746623492319
 20
-8623.923468027873
 10
4399.121973985406
 20
-8623.894337296038
 10
4399.493310792307
 20
-8623.851617985521
 10
4399.860157459461
 20
-8623.795071879358
 10
4400.222037533305
 20
-8623.724460760586
 10
4400.578474560282
 20
-8623.639546412236
 10
4400.928992086827
 20
-8623.54009061734
 10
4401.273113659381
 20
-8623.425855158937
 10
4401.610362824384
 20
-8623.296601820064
 10
4401.940263128273
 20
-8623.152092383749
 10
4402.262370115943
 20
-8622.992145347836
 10
4402.576495736175
 20
-8622.817033666386
 10
4402.882575142218
 20
-8622.627248663932
 10
4403.180544269793
 20
-8622.42328305187
 10
4403.47033905462
 20
-8622.205629541606
 10
4403.751895432422
 20
-8621.974780844543
 10
4404.025149338921
 20
-8621.731229672083
 10
4404.290036709836
 20
-8621.475468735627
 10
4404.546493480891
 20
-8621.207990746574
 10
4404.794455587807
 20
-8620.929288416337
 10
4405.033858966305
 20
-8620.63985445631
 10
4405.264639552107
 20
-8620.340181577903
 10
4405.486733280934
 20
-8620.03076249251
 10
4405.700076088506
 20
-8619.712089911538
 10
4405.904603910547
 20
-8619.384656546386
 10
4406.100252682779
 20
-8619.048955108465
 10
4406.286958340921
 20
-8618.705478309168
 10
4406.464656820695
 20
-8618.354718859902
 10
4406.633284057824
 20
-8617.997169472072
 10
4406.79277598803
 20
-8617.633322857075
 10
4406.943068547032
 20
-8617.263671726316
 10
4407.084097670553
 20
-8616.8887087912
 10
4407.215799294313
 20
-8616.508926763125
 10
4407.338109354037
 20
-8616.124818353499
 10
4407.450963785443
 20
-8615.736876273719
 10
4407.554298524252
 20
-8615.34559323519
 10
4407.732152666975
 20
-8614.554975127501
 10
4407.871159267973
 20
-8613.756905721646
 10
4407.970805813022
 20
-8612.955326708847
 10
4408.005708903867
 20
-8612.554452878348
 10
4408.03057978789
 20
-8612.154179780322
 10
4408.045354400811
 20
-8611.755000126172
 10
4408.049968678354
 20
-8611.357406627298
 10
4408.044358556237
 20
-8610.961891995104
 10
4408.028459970181
 20
-8610.568948940989
 10
4408.002208855913
 20
-8610.179070176362
 10
4407.965541149148
 20
-8609.792748412621
 10
4407.918392785611
 20
-8609.410476361169
 10
4407.860699701023
 20
-8609.03274673341
 10
4407.792397831105
 20
-8608.660052240746
 10
4407.713423111581
 20
-8608.29288559458
 10
4407.623711478169
 20
-8607.931739506314
 10
4407.523198866591
 20
-8607.577106687348
 10
4407.41182121257
 20
-8607.22947984909
 10
4407.289514451827
 20
-8606.889351702937
 10
4407.156214520085
 20
-8606.557214960298
 10
4407.011857353062
 20
-8606.233562332569
 10
4406.856378886482
 20
-8605.918886531155
 10
4406.689771723031
 20
-8605.613572127713
 10
4406.512284567793
 20
-8605.317514963857
 10
4406.324238441235
 20
-8605.030472878963
 10
4406.125954368145
 20
-8604.75220370418
 10
4405.917753373305
 20
-8604.48246527065
 10
4405.699956481503
 20
-8604.221015409526
 10
4405.472884717522
 20
-8603.96761195195
 10
4405.236859106146
 20
-8603.722012729066
 10
4404.992200672161
 20
-8603.483975572024
 10
4404.739230440352
 20
-8603.253258311968
 10
4404.478269435502
 20
-8603.029618780047
 10
4403.933659205825
 20
-8602.602604225189
 10
4403.360938181405
 20
-8602.20099455662
 10
4402.762674560522
 20
-8601.822852423507
 10
4402.141436541454
 20
-8601.46624047502
 10
4401.49979232248
 20
-8601.129221360334
 10
4400.840310101878
 20
-8600.809857728613
 10
4400.165558077925
 20
-8600.506212229031
 10
4399.478104448899
 20
-8600.216347510752
 10
4398.780517413082
 20
-8599.938326222955
 10
4397.365215914177
 20
-8599.410064535467
 10
4395.940199167437
 20
-8598.90592835992
 10
4394.52592753207
 20
-8598.410477619693
 10
4393.135191883465
 20
-8597.9135572862
 10
4391.767132249958
 20
-8597.414419141593
 10
4390.419481030041
 20
-8596.913284966986
 10
4389.089970622199
 20
-8596.410376543483
 10
4387.776333424928
 20
-8595.905915652203
 10
4386.476301836712
 20
-8595.400124074253
 10
4385.187608256048
 20
-8594.893223590749
 10
4382.635164711326
 20
-8593.876983031509
 10
4380.100861978681
 20
-8592.858968223376
  0
LWPOLYLINE
  5
255
330
1F
100
AcDbEntity
  8
Ech.1_5
 62
   154
420
    21156
370
    20
100
AcDbPolyline
 90
       70
 70
     0
 43
0.0
 10
4404.346759635067
 20
-8605.738825065542
 10
4404.238841149923
 20
-8606.417093637354
 10
4404.130954373727
 20
-8607.1066927834
 10
4404.023131015432
 20
-8607.81895307791
 10
4403.915402783986
 20
-8608.565205095114
 10
4403.861584249876
 20
-8608.954618804175
 10
4403.807801388336
 20
-8609.356779409249
 10
4403.754058162983
 20
-8609.773103232112
 10
4403.700358537437
 20
-8610.205006594548
 10
4403.646706475314
 20
-8610.653905818328
 10
4403.593105940233
 20
-8611.121217225234
 10
4403.539560895815
 20
-8611.608357137051
 10
4403.486199263713
 20
-8612.116142134944
 10
4403.43419858448
 20
-8612.640310476001
 10
4403.385264677797
 20
-8613.174044468042
 10
4403.303436523664
 20
-8614.242860920327
 10
4403.273961946991
 20
-8614.764269138188
 10
4403.254393484442
 20
-8615.267894522278
 10
4403.246440971405
 20
-8615.746899951411
 10
4403.251814243272
 20
-8616.194448304392
 10
4403.260032372104
 20
-8616.404289476955
 10
4403.272223135435
 20
-8616.603702460034
 10
4403.288600262688
 20
-8616.791832613482
 10
4403.309377483287
 20
-8616.967825297148
 10
4403.334768526655
 20
-8617.130825870885
 10
4403.364987122219
 20
-8617.279979694546
 10
4403.400246999398
 20
-8617.414432127976
 10
4403.440761887621
 20
-8617.533328531035
 10
4403.486745516309
 20
-8617.635814263567
 10
4403.538411614888
 20
-8617.721034685428
 10
4403.59597391278
 20
-8617.788135156468
 10
4403.659646139411
 20
-8617.836261036537
 10
4403.729642024204
 20
-8617.864557685489
 10
4403.806156686134
 20
-8617.87221347562
 10
4403.889011572957
 20
-8617.859280407803
 10
4403.977682381387
 20
-8617.826609582378
 10
4404.071631792288
 20
-8617.77508218191
 10
4404.170322486523
 20
-8617.705579388961
 10
4404.273217144954
 20
-8617.6189823861
 10
4404.379778448445
 20
-8617.51617235589
 10
4404.489469077857
 20
-8617.398030480892
 10
4404.601751714056
 20
-8617.265437943679
 10
4404.716089037905
 20
-8617.11927592681
 10
4404.831943730263
 20
-8616.960425612848
 10
4404.948778471998
 20
-8616.789768184364
 10
4405.06605594397
 20
-8616.60818482392
 10
4405.299789802079
 20
-8616.215765037403
 10
4405.528846751496
 20
-8615.790215713821
 10
4405.748928239124
 20
-8615.338586313694
 10
4405.955735711872
 20
-8614.867926297537
 10
4406.144970616637
 20
-8614.385285125863
 10
4406.312334400329
 20
-8613.8977122592
 10
4406.453528509849
 20
-8613.412257158061
 10
4406.564268541966
 20
-8612.935951035746
 10
4406.642142009552
 20
-8612.473411141566
 10
4406.688461239944
 20
-8612.024451321515
 10
4406.704979246324
 20
-8611.588317127036
 10
4406.693449041864
 20
-8611.164254109564
 10
4406.655623639745
 20
-8610.751507820536
 10
4406.593256053142
 20
-8610.34932381139
 10
4406.508099295233
 20
-8609.956947633562
 10
4406.401906379199
 20
-8609.573624838491
 10
4406.276430318212
 20
-8609.19860097761
 10
4406.133424125453
 20
-8608.831121602361
 10
4405.974640814095
 20
-8608.470432264176
 10
4405.801833397321
 20
-8608.115778514495
 10
4405.616754888304
 20
-8607.766405904753
 10
4405.216796646257
 20
-8607.080486310842
 10
4404.788790193372
 20
-8606.40663789394
 10
4404.346759635067
 20
-8605.738825065542
  0
LWPOLYLINE
  5
256
330
1F
100
AcDbEntity
  8
Ech.1_5
 62
   154
420
    21156
370
    20
100
AcDbPolyline
 90
       70
 70
     0
 43
0.0
 10
4450.42778566728
 20
-8598.327173999925
 10
4450.319867182136
 20
-8599.005442571739
 10
4450.211980405942
 20
-8599.695041717785
 10
4450.104157047646
 20
-8600.407302012294
 10
4449.9964288162
 20
-8601.153554029503
 10
4449.942610282092
 20
-8601.542967738564
 10
4449.888827420552
 20
-8601.94512834364
 10
4449.8350841952
 20
-8602.361452166504
 10
4449.781384569652
 20
-8602.793355528938
 10
4449.727732507529
 20
-8603.24225475272
 10
4449.674131972449
 20
-8603.709566159629
 10
4449.620586928031
 20
-8604.196706071445
 10
4449.567225295928
 20
-8604.704491069338
 10
4449.515224616694
 20
-8605.228659410395
 10
4449.466290710013
 20
-8605.762393402438
 10
4449.384462555878
 20
-8606.831209854725
 10
4449.354987979206
 20
-8607.35261807259
 10
4449.335419516657
 20
-8607.856243456681
 10
4449.32746700362
 20
-8608.335248885815
 10
4449.332840275486
 20
-8608.782797238795
 10
4449.341058404319
 20
-8608.992638411359
 10
4449.35324916765
 20
-8609.192051394437
 10
4449.369626294903
 20
-8609.380181547886
 10
4449.390403515501
 20
-8609.556174231551
 10
4449.41579455887
 20
-8609.719174805288
 10
4449.446013154433
 20
-8609.868328628949
 10
4449.481273031614
 20
-8610.002781062383
 10
4449.521787919836
 20
-8610.121677465439
 10
4449.567771548526
 20
-8610.224163197974
 10
4449.619437647104
 20
-8610.309383619833
 10
4449.676999944997
 20
-8610.376484090873
 10
4449.740672171627
 20
-8610.424609970942
 10
4449.81066805642
 20
-8610.452906619894
 10
4449.88718271835
 20
-8610.460562410022
 10
4449.970037605174
 20
-8610.447629342209
 10
4450.058708413604
 20
-8610.414958516782
 10
4450.152657824506
 20
-8610.363431116313
 10
4450.251348518739
 20
-8610.293928323365
 10
4450.354243177171
 20
-8610.207331320504
 10
4450.460804480663
 20
-8610.104521290294
 10
4450.570495110076
 20
-8609.986379415295
 10
4450.682777746275
 20
-8609.853786878082
 10
4450.797115070121
 20
-8609.70762486121
 10
4450.912969762483
 20
-8609.548774547251
 10
4451.029804504216
 20
-8609.378117118766
 10
4451.147081976189
 20
-8609.19653375832
 10
4451.3808158343
 20
-8608.804113971804
 10
4451.609872783717
 20
-8608.378564648221
 10
4451.829954271347
 20
-8607.926935248093
 10
4452.036761744092
 20
-8607.456275231933
 10
4452.225996648858
 20
-8606.973634060263
 10
4452.393360432549
 20
-8606.486061193598
 10
4452.534554542071
 20
-8606.000606092457
 10
4452.645294574187
 20
-8605.524299970144
 10
4452.723168041774
 20
-8605.061760075963
 10
4452.769487272166
 20
-8604.612800255913
 10
4452.786005278543
 20
-8604.176666061432
 10
4452.774475074085
 20
-8603.752603043959
 10
4452.736649671964
 20
-8603.339856754934
 10
4452.674282085361
 20
-8602.937672745786
 10
4452.589125327454
 20
-8602.545296567958
 10
4452.482932411417
 20
-8602.161973772885
 10
4452.35745635043
 20
-8601.786949912002
 10
4452.214450157669
 20
-8601.41947053675
 10
4452.055666846313
 20
-8601.058781198568
 10
4451.882859429537
 20
-8600.704127448884
 10
4451.69778092052
 20
-8600.354754839143
 10
4451.297822678472
 20
-8599.668835245233
 10
4450.869816225584
 20
-8598.994986828326
 10
4450.42778566728
 20
-8598.327173999925
  0
HATCH
  5
257
330
1F
100
AcDbEntity
  8
Ech.1_5
 62
    33
420
 12426362
440
 33554687
370
     5
100
AcDbHatch
 10
0.0
 20
0.0
 30
0.0
210
0.0
220
0.0
230
1.0
  2
SOLID
 70
     1
 71
     1
 91
        2
 92
        3
 72
     0
 73
     1
 93
        5
 10
4302.597280312933
 20
-9029.154435797413
 10
4302.597280312933
 20
-9103.514999071853
 10
4422.597280312933
 20
-9103.51499907185
 10
4422.593550063666
 20
-9029.155439081278
 10
4362.594546318987
 20
-8994.514998118186
 97
        0
 92
        1
 93
        2
 72
     2
 10
4362.595821112607
 20
-9054.838997604036
 40
9.50000047683534
 50
270.0
 51
450.000000000011
 73
     0
 72
     2
 10
4362.595821112609
 20
-9054.838997604036
 40
9.50000047683534
 50
90.00000000002194
 51
269.999999999989
 73
     0
 97
        0
 75
     0
 76
     1
 98
        0
  0
LWPOLYLINE
  5
258
330
1F
100
AcDbEntity
  8
Ech.1_5
 62
     7
370
    20
100
AcDbPolyline
 90
        6
 70
   128
 43
0.0
 10
4302.597280312933
 20
-9029.154435797413
 10
4302.597280312933
 20
-9103.514999071853
 10
4422.597280312933
 20
-9103.51499907185
 10
4422.593550063666
 20
-9029.155439081278
 10
4362.594546318987
 20
-8994.514998118186
 10
4302.597280312933
 20
-9029.154435797413
  0
LWPOLYLINE
  5
259
330
1F
100
AcDbEntity
  8
Ech.1_5
 62
     7
370
    20
100
AcDbPolyline
 90
        3
 70
   128
 43
0.0
 10
4362.595821112607
 20
-9045.3389971272
 42
-1.000000000000096
 10
4362.595821112605
 20
-9064.338998080872
 42
-0.9999999999997128
 10
4362.595821112607
 20
-9045.3389971272
  0
CIRCLE
  5
25A
330
1F
100
AcDbEntity
  8
Ech.1_5
 62
   190
370
    20
100
AcDbCircle
 10
4362.595821112607
 20
-9054.838997604034
 30
0.0
 40
9.500000476837158
  0
LINE
  5
25B
330
1F
100
AcDbEntity
  8
Ech.1_5
 62
   190
370
    20
100
AcDbLine
 10
3999.753761249588
 20
-8644.893492199531
 30
0.0
 11
3999.753761249588
 21
-9447.780009886017
 31
0.0
  0
LWPOLYLINE
  5
25C
330
1F
100
AcDbEntity
  8
Ech.1_5
 62
     7
370
    20
100
AcDbPolyline
 90
        3
 70
     0
 43
0.0
 10
3999.753761249332
 20
-9044.3389971272
 10
3972.753761249331
 20
-9044.3389971272
 10
3972.753761249331
 20
-8644.893492199531
  0
HATCH
  5
25D
330
1F
100
AcDbEntity
  8
Ech.1_5
 62
    17
420
  8405056
440
 33554687
370
    20
100
AcDbHatch
 10
0.0
 20
0.0
 30
0.0
210
0.0
220
0.0
230
1.0
  2
SOLID
 70
     1
 71
     1
 91
        1
 92
        3
 72
     0
 73
     1
 93
        4
 10
3945.75376124933
 20
-9044.3389971272
 10
3945.696675032869
 20
-8644.893492199531
 10
3925.696675032868
 20
-8644.893492199531
 10
3925.696675032868
 20
-9044.3389971272
 97
        0
 75
     0
 76
     1
 98
        0
  0
LWPOLYLINE
  5
25E
330
1F
100
AcDbEntity
  8
Ech.1_5
 62
     7
370
    20
100
AcDbPolyline
 90
        5
 70
     0
 43
0.0
 10
3945.75376124933
 20
-9044.3389971272
 10
3945.696675032869
 20
-8644.893492199531
 10
3925.696675032868
 20
-8644.893492199531
 10
3925.696675032868
 20
-9044.3389971272
 10
3945.75376124933
 20
-9044.3389971272
  0
HATCH
  5
25F
330
1F
100
AcDbEntity
  8
Ech.1_5
 62
    35
420
  9529928
440
 33554687
370
    20
100
AcDbHatch
 10
0.0
 20
0.0
 30
0.0
210
0.0
220
0.0
230
1.0
  2
SOLID
 70
     1
 71
     1
 91
        1
 92
        3
 72
     0
 73
     1
 93
        4
 10
3945.75376124933
 20
-9004.338996650069
 10
3945.75376124933
 20
-9044.3389971272
 10
3972.753761249331
 20
-9044.3389971272
 10
3972.753761249331
 20
-9004.3389971272
 97
        0
 75
     0
 76
     1
 98
        0
  0
LWPOLYLINE
  5
260
330
1F
100
AcDbEntity
  8
Ech.1_5
 62
   190
370
    20
100
AcDbPolyline
 90
        5
 70
     0
 43
0.0
 10
3945.75376124933
 20
-9004.338996650069
 10
3945.75376124933
 20
-9044.3389971272
 10
3972.753761249331
 20
-9044.3389971272
 10
3972.753761249331
 20
-9004.3389971272
 10
3945.75376124933
 20
-9004.338996650069
  0
LWPOLYLINE
  5
261
330
1F
100
AcDbEntity
  8
Ech.1_5
 62
   190
370
    20
100
AcDbPolyline
 90
        4
 70
     0
 43
0.0
 10
3972.753761249331
 20
-9004.3389971272
 10
3945.75376124933
 20
-9044.3389971272
 10
3972.753761249331
 20
-9044.3389971272
 10
3945.75376124933
 20
-9004.339109961253
  0
LWPOLYLINE
  5
262
330
1F
100
AcDbEntity
  8
Ech.1_5
 62
     5
370
    20
100
AcDbPolyline
 90
        5
 70
     0
 43
0.0
 10
3945.75376124933
 20
-9004.339109961253
 10
3945.75376124933
 20
-9044.3389971272
 10
3972.753761249331
 20
-9044.3389971272
 10
3972.753761249331
 20
-9004.3389971272
 10
3945.75376124933
 20
-9004.339109961253
  0
LWPOLYLINE
  5
263
330
1F
100
AcDbEntity
  8
Ech.1_5
 62
     7
370
    20
100
AcDbPolyline
 90
        4
 70
     0
 43
0.0
 10
3925.696675032868
 20
-8644.893492199531
 10
3925.696675032868
 20
-9044.3389971272
 10
3945.75376124933
 20
-9044.3389971272
 10
3945.696675032869
 20
-8644.893492199531
  0
LINE
  5
264
330
1F
100
AcDbEntity
  8
Ech.1_5
 62
   190
370
     9
100
AcDbLine
 10
3925.141119033591
 20
-9021.820247127212
 30
0.0
 11
3924.835564032688
 21
-9021.820247127212
 31
0.0
  0
LINE
  5
265
330
1F
100
AcDbEntity
  8
Ech.1_5
 62
   190
370
     9
100
AcDbLine
 10
3924.835564032688
 20
-9021.820247127212
 30
0.0
 11
3924.835564032688
 21
-9026.85774712719
 31
0.0
  0
LINE
  5
266
330
1F
100
AcDbEntity
  8
Ech.1_5
 62
   190
370
     9
100
AcDbLine
 10
3925.141119033589
 20
-9026.85774712719
 30
0.0
 11
3924.835564032688
 21
-9026.85774712719
 31
0.0
  0
HATCH
  5
267
330
1F
100
AcDbEntity
  8
Ech.1_5
 62
   252
440
 33554687
370
     5
100
AcDbHatch
 10
0.0
 20
0.0
 30
0.0
210
0.0
220
0.0
230
1.0
  2
SOLID
 70
     1
 71
     1
 91
        1
 92
        3
 72
     0
 73
     1
 93
        4
 10
3964.946674034788
 20
-9025.468858127253
 10
3965.780008033706
 20
-9025.468858127253
 10
3965.780008033706
 20
-9023.209136127207
 10
3964.946674034788
 20
-9023.209136127207
 97
        0
 75
     0
 76
     1
 98
        0
  0
LWPOLYLINE
  5
268
330
1F
100
AcDbEntity
  8
Ech.1_5
 62
     7
370
     9
100
AcDbPolyline
 90
        5
 70
     0
 43
0.0
 10
3964.946674034788
 20
-9025.468858127253
 10
3965.780008033706
 20
-9025.468858127253
 10
3965.780008033706
 20
-9023.209136127207
 10
3964.946674034788
 20
-9023.209136127207
 10
3964.946674034788
 20
-9025.468858127253
  0
LINE
  5
269
330
1F
100
AcDbEntity
  8
Ech.1_5
 62
   190
370
     9
100
AcDbLine
 10
3967.979092032211
 20
-9023.209136127207
 30
0.0
 11
3925.696675032868
 21
-9023.209136127207
 31
0.0
  0
LINE
  5
26A
330
1F
100
AcDbEntity
  8
Ech.1_5
 62
   190
370
     9
100
AcDbLine
 10
3967.979092032211
 20
-9025.468858127253
 30
0.0
 11
3925.696675032868
 21
-9025.468858127253
 31
0.0
  0
ARC
  5
26B
330
1F
100
AcDbEntity
  8
Ech.1_5
 62
   190
370
     9
100
AcDbCircle
 10
3937.398767423522
 20
-9024.33899712723
 30
0.0
 40
12.81320339083424
100
AcDbArc
 50
168.6632793503132
 51
191.3367206496868
  0
LINE
  5
26C
330
1F
100
AcDbEntity
  8
Ech.1_5
 62
   190
370
     9
100
AcDbLine
 10
3925.141119033591
 20
-9021.820247127212
 30
0.0
 11
3925.141119033589
 21
-9022.653580127164
 31
0.0
  0
ARC
  5
26D
330
1F
100
AcDbEntity
  8
Ech.1_5
 62
   190
370
     9
100
AcDbCircle
 10
3925.696675023488
 20
-9022.653580137308
 30
0.0
 40
0.5555559898988737
100
AcDbArc
 50
179.9999989537737
 51
270.0000009673888
  0
LINE
  5
26E
330
1F
100
AcDbEntity
  8
Ech.1_5
 62
   190
370
     9
100
AcDbLine
 10
3925.141119033589
 20
-9022.653580127164
 30
0.0
 11
3925.141119033589
 21
-9026.02441412723
 31
0.0
  0
ARC
  5
26F
330
1F
100
AcDbEntity
  8
Ech.1_5
 62
   190
370
     9
100
AcDbCircle
 10
3925.696675023376
 20
-9026.02441411704
 30
0.0
 40
0.5555559897870862
100
AcDbArc
 50
89.99999902107403
 51
180.0000010509162
  0
LINE
  5
270
330
1F
100
AcDbEntity
  8
Ech.1_5
 62
   190
370
     9
100
AcDbLine
 10
3925.141119033589
 20
-9026.85774712719
 30
0.0
 11
3925.141119033589
 21
-9026.02441412723
 31
0.0
  0
LINE
  5
271
330
1F
100
AcDbEntity
  8
Ech.1_5
 62
   190
370
     9
100
AcDbLine
 10
3935.780008033705
 20
-9023.209136127207
 30
0.0
 11
3935.780008033705
 21
-9025.468858127253
 31
0.0
  0
LINE
  5
272
330
1F
100
AcDbEntity
  8
Ech.1_5
 62
   190
370
     9
100
AcDbLine
 10
3936.613341034245
 20
-9023.209136127207
 30
0.0
 11
3936.613341034245
 21
-9025.468858127253
 31
0.0
  0
LINE
  5
273
330
1F
100
AcDbEntity
  8
Ech.1_5
 62
   190
370
     9
100
AcDbLine
 10
3933.280008033704
 20
-9023.209136127207
 30
0.0
 11
3933.280008033704
 21
-9025.468858127253
 31
0.0
  0
LINE
  5
274
330
1F
100
AcDbEntity
  8
Ech.1_5
 62
   190
370
     9
100
AcDbLine
 10
3934.113341034245
 20
-9023.209136127207
 30
0.0
 11
3934.113341034245
 21
-9025.468858127253
 31
0.0
  0
LINE
  5
275
330
1F
100
AcDbEntity
  8
Ech.1_5
 62
   190
370
     9
100
AcDbLine
 10
3934.946674034785
 20
-9023.209136127207
 30
0.0
 11
3934.946674034785
 21
-9025.468858127253
 31
0.0
  0
LINE
  5
276
330
1F
100
AcDbEntity
  8
Ech.1_5
 62
   190
370
     9
100
AcDbLine
 10
3930.780008033704
 20
-9023.209136127207
 30
0.0
 11
3930.780008033704
 21
-9025.468858127253
 31
0.0
  0
LINE
  5
277
330
1F
100
AcDbEntity
  8
Ech.1_5
 62
   190
370
     9
100
AcDbLine
 10
3931.613341034246
 20
-9023.209136127207
 30
0.0
 11
3931.613341034246
 21
-9025.468858127253
 31
0.0
  0
LINE
  5
278
330
1F
100
AcDbEntity
  8
Ech.1_5
 62
   190
370
     9
100
AcDbLine
 10
3932.446674034787
 20
-9023.209136127207
 30
0.0
 11
3932.446674034787
 21
-9025.468858127253
 31
0.0
  0
LINE
  5
279
330
1F
100
AcDbEntity
  8
Ech.1_5
 62
   190
370
     9
100
AcDbLine
 10
3929.946674034785
 20
-9023.209136127207
 30
0.0
 11
3929.946674034785
 21
-9025.468858127253
 31
0.0
  0
LINE
  5
27A
330
1F
100
AcDbEntity
  8
Ech.1_5
 62
   190
370
     9
100
AcDbLine
 10
3929.113341034245
 20
-9023.209136127207
 30
0.0
 11
3929.113341034245
 21
-9025.468858127253
 31
0.0
  0
LINE
  5
27B
330
1F
100
AcDbEntity
  8
Ech.1_5
 62
   190
370
     9
100
AcDbLine
 10
3928.280008033704
 20
-9023.209136127207
 30
0.0
 11
3928.280008033704
 21
-9025.468858127253
 31
0.0
  0
LINE
  5
27C
330
1F
100
AcDbEntity
  8
Ech.1_5
 62
   190
370
     9
100
AcDbLine
 10
3927.446674034785
 20
-9023.209136127207
 30
0.0
 11
3927.446674034785
 21
-9025.468858127246
 31
0.0
  0
LINE
  5
27D
330
1F
100
AcDbEntity
  8
Ech.1_5
 62
   190
370
     9
100
AcDbLine
 10
3962.446674034788
 20
-9023.209136127207
 30
0.0
 11
3962.446674034788
 21
-9025.468858127253
 31
0.0
  0
LINE
  5
27E
330
1F
100
AcDbEntity
  8
Ech.1_5
 62
   190
370
     9
100
AcDbLine
 10
3961.613341034247
 20
-9023.209136127207
 30
0.0
 11
3961.613341034247
 21
-9025.468858127253
 31
0.0
  0
LINE
  5
27F
330
1F
100
AcDbEntity
  8
Ech.1_5
 62
   190
370
     9
100
AcDbLine
 10
3963.280008033706
 20
-9023.209136127207
 30
0.0
 11
3963.280008033706
 21
-9025.468858127253
 31
0.0
  0
LINE
  5
280
330
1F
100
AcDbEntity
  8
Ech.1_5
 62
   190
370
     9
100
AcDbLine
 10
3959.113341034247
 20
-9023.209136127207
 30
0.0
 11
3959.113341034247
 21
-9025.468858127253
 31
0.0
  0
LINE
  5
281
330
1F
100
AcDbEntity
  8
Ech.1_5
 62
   190
370
     9
100
AcDbLine
 10
3959.946674034788
 20
-9023.209136127207
 30
0.0
 11
3959.946674034788
 21
-9025.468858127253
 31
0.0
  0
LINE
  5
282
330
1F
100
AcDbEntity
  8
Ech.1_5
 62
   190
370
     9
100
AcDbLine
 10
3960.780008033706
 20
-9023.209136127207
 30
0.0
 11
3960.780008033706
 21
-9025.468858127253
 31
0.0
  0
LINE
  5
283
330
1F
100
AcDbEntity
  8
Ech.1_5
 62
   190
370
     9
100
AcDbLine
 10
3956.613341034246
 20
-9023.209136127207
 30
0.0
 11
3956.613341034246
 21
-9025.468858127253
 31
0.0
  0
LINE
  5
284
330
1F
100
AcDbEntity
  8
Ech.1_5
 62
   190
370
     9
100
AcDbLine
 10
3957.446674034787
 20
-9023.209136127207
 30
0.0
 11
3957.446674034787
 21
-9025.468858127253
 31
0.0
  0
LINE
  5
285
330
1F
100
AcDbEntity
  8
Ech.1_5
 62
   190
370
     9
100
AcDbLine
 10
3958.280008033706
 20
-9023.209136127207
 30
0.0
 11
3958.280008033706
 21
-9025.468858127253
 31
0.0
  0
LINE
  5
286
330
1F
100
AcDbEntity
  8
Ech.1_5
 62
   190
370
     9
100
AcDbLine
 10
3954.113341034246
 20
-9023.209136127207
 30
0.0
 11
3954.113341034246
 21
-9025.468858127253
 31
0.0
  0
LINE
  5
287
330
1F
100
AcDbEntity
  8
Ech.1_5
 62
   190
370
     9
100
AcDbLine
 10
3954.946674034787
 20
-9023.209136127207
 30
0.0
 11
3954.946674034787
 21
-9025.468858127253
 31
0.0
  0
LINE
  5
288
330
1F
100
AcDbEntity
  8
Ech.1_5
 62
   190
370
     9
100
AcDbLine
 10
3955.780008033706
 20
-9023.209136127207
 30
0.0
 11
3955.780008033706
 21
-9025.468858127253
 31
0.0
  0
LINE
  5
289
330
1F
100
AcDbEntity
  8
Ech.1_5
 62
   190
370
     9
100
AcDbLine
 10
3953.280008033706
 20
-9023.209136127207
 30
0.0
 11
3953.280008033706
 21
-9025.468858127253
 31
0.0
  0
LINE
  5
28A
330
1F
100
AcDbEntity
  8
Ech.1_5
 62
   190
370
     9
100
AcDbLine
 10
3939.946674034786
 20
-9023.209136127207
 30
0.0
 11
3939.946674034786
 21
-9025.468858127253
 31
0.0
  0
LINE
  5
28B
330
1F
100
AcDbEntity
  8
Ech.1_5
 62
   190
370
     9
100
AcDbLine
 10
3940.780008033705
 20
-9023.209136127207
 30
0.0
 11
3940.780008033705
 21
-9025.468858127253
 31
0.0
  0
LINE
  5
28C
330
1F
100
AcDbEntity
  8
Ech.1_5
 62
   190
370
     9
100
AcDbLine
 10
3941.613341034245
 20
-9023.209136127207
 30
0.0
 11
3941.613341034245
 21
-9025.468858127253
 31
0.0
  0
LINE
  5
28D
330
1F
100
AcDbEntity
  8
Ech.1_5
 62
   190
370
     9
100
AcDbLine
 10
3942.446674034786
 20
-9023.209136127207
 30
0.0
 11
3942.446674034786
 21
-9025.468858127253
 31
0.0
  0
LINE
  5
28E
330
1F
100
AcDbEntity
  8
Ech.1_5
 62
   190
370
     9
100
AcDbLine
 10
3944.946674034786
 20
-9023.209136127207
 30
0.0
 11
3944.946674034786
 21
-9025.468858127253
 31
0.0
  0
LINE
  5
28F
330
1F
100
AcDbEntity
  8
Ech.1_5
 62
   190
370
     9
100
AcDbLine
 10
3944.113341034245
 20
-9023.209136127207
 30
0.0
 11
3944.113341034245
 21
-9025.468858127253
 31
0.0
  0
LINE
  5
290
330
1F
100
AcDbEntity
  8
Ech.1_5
 62
   190
370
     9
100
AcDbLine
 10
3943.280008033705
 20
-9023.209136127207
 30
0.0
 11
3943.280008033705
 21
-9025.468858127253
 31
0.0
  0
LINE
  5
291
330
1F
100
AcDbEntity
  8
Ech.1_5
 62
   190
370
     9
100
AcDbLine
 10
3947.446674034787
 20
-9023.209136127207
 30
0.0
 11
3947.446674034787
 21
-9025.468858127253
 31
0.0
  0
LINE
  5
292
330
1F
100
AcDbEntity
  8
Ech.1_5
 62
   190
370
     9
100
AcDbLine
 10
3946.613341034246
 20
-9023.209136127207
 30
0.0
 11
3946.613341034246
 21
-9025.468858127253
 31
0.0
  0
LINE
  5
293
330
1F
100
AcDbEntity
  8
Ech.1_5
 62
   190
370
     9
100
AcDbLine
 10
3945.780008033705
 20
-9023.209136127207
 30
0.0
 11
3945.780008033705
 21
-9025.468858127253
 31
0.0
  0
LINE
  5
294
330
1F
100
AcDbEntity
  8
Ech.1_5
 62
   190
370
     9
100
AcDbLine
 10
3949.946674034787
 20
-9023.209136127207
 30
0.0
 11
3949.946674034787
 21
-9025.468858127253
 31
0.0
  0
LINE
  5
295
330
1F
100
AcDbEntity
  8
Ech.1_5
 62
   190
370
     9
100
AcDbLine
 10
3949.113341034246
 20
-9023.209136127207
 30
0.0
 11
3949.113341034246
 21
-9025.468858127253
 31
0.0
  0
LINE
  5
296
330
1F
100
AcDbEntity
  8
Ech.1_5
 62
   190
370
     9
100
AcDbLine
 10
3948.280008033706
 20
-9023.209136127207
 30
0.0
 11
3948.280008033706
 21
-9025.468858127253
 31
0.0
  0
LINE
  5
297
330
1F
100
AcDbEntity
  8
Ech.1_5
 62
   190
370
     9
100
AcDbLine
 10
3952.446674034787
 20
-9023.209136127207
 30
0.0
 11
3952.446674034787
 21
-9025.468858127253
 31
0.0
  0
LINE
  5
298
330
1F
100
AcDbEntity
  8
Ech.1_5
 62
   190
370
     9
100
AcDbLine
 10
3951.613341034246
 20
-9023.209136127207
 30
0.0
 11
3951.613341034246
 21
-9025.468858127253
 31
0.0
  0
LINE
  5
299
330
1F
100
AcDbEntity
  8
Ech.1_5
 62
   190
370
     9
100
AcDbLine
 10
3950.780008033706
 20
-9023.209136127207
 30
0.0
 11
3950.780008033706
 21
-9025.468858127253
 31
0.0
  0
LINE
  5
29A
330
1F
100
AcDbEntity
  8
Ech.1_5
 62
   190
370
     9
100
AcDbLine
 10
3938.280008033705
 20
-9023.209136127207
 30
0.0
 11
3938.280008033705
 21
-9025.468858127253
 31
0.0
  0
LINE
  5
29B
330
1F
100
AcDbEntity
  8
Ech.1_5
 62
   190
370
     9
100
AcDbLine
 10
3939.113341034245
 20
-9023.209136127207
 30
0.0
 11
3939.113341034245
 21
-9025.468858127253
 31
0.0
  0
LINE
  5
29C
330
1F
100
AcDbEntity
  8
Ech.1_5
 62
   190
370
     9
100
AcDbLine
 10
3939.946674034786
 20
-9023.209136127207
 30
0.0
 11
3939.946674034786
 21
-9025.468858127253
 31
0.0
  0
LINE
  5
29D
330
1F
100
AcDbEntity
  8
Ech.1_5
 62
   190
370
     9
100
AcDbLine
 10
3937.446674034786
 20
-9023.209136127207
 30
0.0
 11
3937.446674034786
 21
-9025.468858127253
 31
0.0
  0
LINE
  5
29E
330
1F
100
AcDbEntity
  8
Ech.1_5
 62
   190
370
     9
100
AcDbLine
 10
3970.641119033592
 20
-9024.3389971272
 30
0.0
 11
3967.979092032211
 21
-9023.209136127207
 31
0.0
  0
ARC
  5
29F
330
1F
100
AcDbEntity
  8
Ech.1_5
 62
   190
370
     9
100
AcDbCircle
 10
3969.388443022808
 20
-9024.338997127197
 30
0.0
 40
1.806337996665553
100
AcDbArc
 50
141.2812399141965
 51
218.7187600858035
  0
LINE
  5
2A0
330
1F
100
AcDbEntity
  8
Ech.1_5
 62
   190
370
     9
100
AcDbLine
 10
3970.641119033592
 20
-9024.3389971272
 30
0.0
 11
3967.979092032211
 21
-9025.468858127253
 31
0.0
  0
HATCH
  5
2A1
330
1F
100
AcDbEntity
  8
Ech.1_5
 62
   252
440
 33554687
370
     5
100
AcDbHatch
 10
0.0
 20
0.0
 30
0.0
210
0.0
220
0.0
230
1.0
  2
SOLID
 70
     1
 71
     1
 91
        1
 92
        3
 72
     0
 73
     1
 93
        4
 10
3927.446674034785
 20
-9025.468858127246
 10
3928.280008033704
 20
-9025.468858127253
 10
3928.280008033704
 20
-9023.209136127207
 10
3927.446674034785
 20
-9023.209136127207
 97
        0
 75
     0
 76
     1
 98
        0
  0
LWPOLYLINE
  5
2A2
330
1F
100
AcDbEntity
  8
Ech.1_5
 62
     7
370
     9
100
AcDbPolyline
 90
        5
 70
     0
 43
0.0
 10
3927.446674034785
 20
-9025.468858127246
 10
3928.280008033704
 20
-9025.468858127253
 10
3928.280008033704
 20
-9023.209136127207
 10
3927.446674034785
 20
-9023.209136127207
 10
3927.446674034785
 20
-9025.468858127246
  0
HATCH
  5
2A3
330
1F
100
AcDbEntity
  8
Ech.1_5
 62
   252
440
 33554687
370
     5
100
AcDbHatch
 10
0.0
 20
0.0
 30
0.0
210
0.0
220
0.0
230
1.0
  2
SOLID
 70
     1
 71
     1
 91
        1
 92
        3
 72
     0
 73
     1
 93
        4
 10
3928.280008033704
 20
-9025.468858127253
 10
3929.113342032622
 20
-9025.468858127253
 10
3929.113342032622
 20
-9023.209136127207
 10
3928.280008033704
 20
-9023.209136127207
 97
        0
 75
     0
 76
     1
 98
        0
  0
LWPOLYLINE
  5
2A4
330
1F
100
AcDbEntity
  8
Ech.1_5
 62
     7
370
     9
100
AcDbPolyline
 90
        5
 70
     0
 43
0.0
 10
3928.280008033704
 20
-9025.468858127253
 10
3929.113342032622
 20
-9025.468858127253
 10
3929.113342032622
 20
-9023.209136127207
 10
3928.280008033704
 20
-9023.209136127207
 10
3928.280008033704
 20
-9025.468858127253
  0
HATCH
  5
2A5
330
1F
100
AcDbEntity
  8
Ech.1_5
 62
   252
440
 33554687
370
     5
100
AcDbHatch
 10
0.0
 20
0.0
 30
0.0
210
0.0
220
0.0
230
1.0
  2
SOLID
 70
     1
 71
     1
 91
        1
 92
        3
 72
     0
 73
     1
 93
        4
 10
3929.113342032622
 20
-9025.468858127253
 10
3929.946676031541
 20
-9025.468858127253
 10
3929.946676031541
 20
-9023.209136127207
 10
3929.113342032622
 20
-9023.209136127207
 97
        0
 75
     0
 76
     1
 98
        0
  0
LWPOLYLINE
  5
2A6
330
1F
100
AcDbEntity
  8
Ech.1_5
 62
     7
370
     9
100
AcDbPolyline
 90
        5
 70
     0
 43
0.0
 10
3929.113342032622
 20
-9025.468858127253
 10
3929.946676031541
 20
-9025.468858127253
 10
3929.946676031541
 20
-9023.209136127207
 10
3929.113342032622
 20
-9023.209136127207
 10
3929.113342032622
 20
-9025.468858127253
  0
HATCH
  5
2A7
330
1F
100
AcDbEntity
  8
Ech.1_5
 62
   252
440
 33554687
370
     5
100
AcDbHatch
 10
0.0
 20
0.0
 30
0.0
210
0.0
220
0.0
230
1.0
  2
SOLID
 70
     1
 71
     1
 91
        1
 92
        3
 72
     0
 73
     1
 93
        4
 10
3929.946676031541
 20
-9025.468858127253
 10
3930.780010030459
 20
-9025.468858127253
 10
3930.780010030459
 20
-9023.209136127207
 10
3929.946676031541
 20
-9023.209136127207
 97
        0
 75
     0
 76
     1
 98
        0
  0
LWPOLYLINE
  5
2A8
330
1F
100
AcDbEntity
  8
Ech.1_5
 62
     7
370
     9
100
AcDbPolyline
 90
        5
 70
     0
 43
0.0
 10
3929.946676031541
 20
-9025.468858127253
 10
3930.780010030459
 20
-9025.468858127253
 10
3930.780010030459
 20
-9023.209136127207
 10
3929.946676031541
 20
-9023.209136127207
 10
3929.946676031541
 20
-9025.468858127253
  0
HATCH
  5
2A9
330
1F
100
AcDbEntity
  8
Ech.1_5
 62
   252
440
 33554687
370
     5
100
AcDbHatch
 10
0.0
 20
0.0
 30
0.0
210
0.0
220
0.0
230
1.0
  2
SOLID
 70
     1
 71
     1
 91
        1
 92
        3
 72
     0
 73
     1
 93
        4
 10
3930.780008033704
 20
-9025.468858127253
 10
3931.613342032624
 20
-9025.468858127253
 10
3931.613342032624
 20
-9023.209136127207
 10
3930.780008033704
 20
-9023.209136127207
 97
        0
 75
     0
 76
     1
 98
        0
  0
LWPOLYLINE
  5
2AA
330
1F
100
AcDbEntity
  8
Ech.1_5
 62
     7
370
     9
100
AcDbPolyline
 90
        5
 70
     0
 43
0.0
 10
3930.780008033704
 20
-9025.468858127253
 10
3931.613342032624
 20
-9025.468858127253
 10
3931.613342032624
 20
-9023.209136127207
 10
3930.780008033704
 20
-9023.209136127207
 10
3930.780008033704
 20
-9025.468858127253
  0
HATCH
  5
2AB
330
1F
100
AcDbEntity
  8
Ech.1_5
 62
   252
440
 33554687
370
     5
100
AcDbHatch
 10
0.0
 20
0.0
 30
0.0
210
0.0
220
0.0
230
1.0
  2
SOLID
 70
     1
 71
     1
 91
        1
 92
        3
 72
     0
 73
     1
 93
        4
 10
3931.613341034246
 20
-9025.468858127253
 10
3932.446675033165
 20
-9025.468858127253
 10
3932.446675033165
 20
-9023.2091361272
 10
3931.613341034246
 20
-9023.209136127207
 97
        0
 75
     0
 76
     1
 98
        0
  0
LWPOLYLINE
  5
2AC
330
1F
100
AcDbEntity
  8
Ech.1_5
 62
     7
370
     9
100
AcDbPolyline
 90
        5
 70
     0
 43
0.0
 10
3931.613341034246
 20
-9025.468858127253
 10
3932.446675033165
 20
-9025.468858127253
 10
3932.446675033165
 20
-9023.2091361272
 10
3931.613341034246
 20
-9023.209136127207
 10
3931.613341034246
 20
-9025.468858127253
  0
HATCH
  5
2AD
330
1F
100
AcDbEntity
  8
Ech.1_5
 62
   252
440
 33554687
370
     5
100
AcDbHatch
 10
0.0
 20
0.0
 30
0.0
210
0.0
220
0.0
230
1.0
  2
SOLID
 70
     1
 71
     1
 91
        1
 92
        3
 72
     0
 73
     1
 93
        4
 10
3932.446675033165
 20
-9025.468858127253
 10
3933.280009032082
 20
-9025.468858127253
 10
3933.280009032082
 20
-9023.209136127207
 10
3932.446675033165
 20
-9023.2091361272
 97
        0
 75
     0
 76
     1
 98
        0
  0
LWPOLYLINE
  5
2AE
330
1F
100
AcDbEntity
  8
Ech.1_5
 62
     7
370
     9
100
AcDbPolyline
 90
        5
 70
     0
 43
0.0
 10
3932.446675033165
 20
-9025.468858127253
 10
3933.280009032082
 20
-9025.468858127253
 10
3933.280009032082
 20
-9023.209136127207
 10
3932.446675033165
 20
-9023.2091361272
 10
3932.446675033165
 20
-9025.468858127253
  0
HATCH
  5
2AF
330
1F
100
AcDbEntity
  8
Ech.1_5
 62
   252
440
 33554687
370
     5
100
AcDbHatch
 10
0.0
 20
0.0
 30
0.0
210
0.0
220
0.0
230
1.0
  2
SOLID
 70
     1
 71
     1
 91
        1
 92
        3
 72
     0
 73
     1
 93
        4
 10
3933.280008033704
 20
-9025.468858127253
 10
3934.113342032622
 20
-9025.468858127253
 10
3934.113342032622
 20
-9023.209136127207
 10
3933.280008033704
 20
-9023.209136127207
 97
        0
 75
     0
 76
     1
 98
        0
  0
LWPOLYLINE
  5
2B0
330
1F
100
AcDbEntity
  8
Ech.1_5
 62
     7
370
     9
100
AcDbPolyline
 90
        5
 70
     0
 43
0.0
 10
3933.280008033704
 20
-9025.468858127253
 10
3934.113342032622
 20
-9025.468858127253
 10
3934.113342032622
 20
-9023.209136127207
 10
3933.280008033704
 20
-9023.209136127207
 10
3933.280008033704
 20
-9025.468858127253
  0
HATCH
  5
2B1
330
1F
100
AcDbEntity
  8
Ech.1_5
 62
   252
440
 33554687
370
     5
100
AcDbHatch
 10
0.0
 20
0.0
 30
0.0
210
0.0
220
0.0
230
1.0
  2
SOLID
 70
     1
 71
     1
 91
        1
 92
        3
 72
     0
 73
     1
 93
        4
 10
3934.113342032622
 20
-9025.468858127253
 10
3934.946676031541
 20
-9025.468858127253
 10
3934.946676031541
 20
-9023.209136127207
 10
3934.113342032622
 20
-9023.209136127207
 97
        0
 75
     0
 76
     1
 98
        0
  0
LWPOLYLINE
  5
2B2
330
1F
100
AcDbEntity
  8
Ech.1_5
 62
     7
370
     9
100
AcDbPolyline
 90
        5
 70
     0
 43
0.0
 10
3934.113342032622
 20
-9025.468858127253
 10
3934.946676031541
 20
-9025.468858127253
 10
3934.946676031541
 20
-9023.209136127207
 10
3934.113342032622
 20
-9023.209136127207
 10
3934.113342032622
 20
-9025.468858127253
  0
HATCH
  5
2B3
330
1F
100
AcDbEntity
  8
Ech.1_5
 62
   252
440
 33554687
370
     5
100
AcDbHatch
 10
0.0
 20
0.0
 30
0.0
210
0.0
220
0.0
230
1.0
  2
SOLID
 70
     1
 71
     1
 91
        1
 92
        3
 72
     0
 73
     1
 93
        4
 10
3934.946674034785
 20
-9025.468858127253
 10
3935.780008033705
 20
-9025.468858127253
 10
3935.780008033705
 20
-9023.209136127207
 10
3934.946674034785
 20
-9023.209136127207
 97
        0
 75
     0
 76
     1
 98
        0
  0
LWPOLYLINE
  5
2B4
330
1F
100
AcDbEntity
  8
Ech.1_5
 62
     7
370
     9
100
AcDbPolyline
 90
        5
 70
     0
 43
0.0
 10
3934.946674034785
 20
-9025.468858127253
 10
3935.780008033705
 20
-9025.468858127253
 10
3935.780008033705
 20
-9023.209136127207
 10
3934.946674034785
 20
-9023.209136127207
 10
3934.946674034785
 20
-9025.468858127253
  0
HATCH
  5
2B5
330
1F
100
AcDbEntity
  8
Ech.1_5
 62
   252
440
 33554687
370
     5
100
AcDbHatch
 10
0.0
 20
0.0
 30
0.0
210
0.0
220
0.0
230
1.0
  2
SOLID
 70
     1
 71
     1
 91
        1
 92
        3
 72
     0
 73
     1
 93
        4
 10
3935.780008033705
 20
-9025.468858127253
 10
3936.613342032623
 20
-9025.468858127253
 10
3936.613342032623
 20
-9023.209136127207
 10
3935.780008033705
 20
-9023.209136127207
 97
        0
 75
     0
 76
     1
 98
        0
  0
LWPOLYLINE
  5
2B6
330
1F
100
AcDbEntity
  8
Ech.1_5
 62
     7
370
     9
100
AcDbPolyline
 90
        5
 70
     0
 43
0.0
 10
3935.780008033705
 20
-9025.468858127253
 10
3936.613342032623
 20
-9025.468858127253
 10
3936.613342032623
 20
-9023.209136127207
 10
3935.780008033705
 20
-9023.209136127207
 10
3935.780008033705
 20
-9025.468858127253
  0
HATCH
  5
2B7
330
1F
100
AcDbEntity
  8
Ech.1_5
 62
   252
440
 33554687
370
     5
100
AcDbHatch
 10
0.0
 20
0.0
 30
0.0
210
0.0
220
0.0
230
1.0
  2
SOLID
 70
     1
 71
     1
 91
        1
 92
        3
 72
     0
 73
     1
 93
        4
 10
3936.613342032623
 20
-9025.468858127253
 10
3937.446676031542
 20
-9025.468858127253
 10
3937.446676031544
 20
-9023.209136127207
 10
3936.613342032623
 20
-9023.209136127207
 97
        0
 75
     0
 76
     1
 98
        0
  0
LWPOLYLINE
  5
2B8
330
1F
100
AcDbEntity
  8
Ech.1_5
 62
     7
370
     9
100
AcDbPolyline
 90
        5
 70
     0
 43
0.0
 10
3936.613342032623
 20
-9025.468858127253
 10
3937.446676031542
 20
-9025.468858127253
 10
3937.446676031544
 20
-9023.209136127207
 10
3936.613342032623
 20
-9023.209136127207
 10
3936.613342032623
 20
-9025.468858127253
  0
HATCH
  5
2B9
330
1F
100
AcDbEntity
  8
Ech.1_5
 62
   252
440
 33554687
370
     5
100
AcDbHatch
 10
0.0
 20
0.0
 30
0.0
210
0.0
220
0.0
230
1.0
  2
SOLID
 70
     1
 71
     1
 91
        1
 92
        3
 72
     0
 73
     1
 93
        4
 10
3937.446676031542
 20
-9025.468858127253
 10
3938.28001003046
 20
-9025.468858127253
 10
3938.28001003046
 20
-9023.209136127207
 10
3937.446676031544
 20
-9023.209136127207
 97
        0
 75
     0
 76
     1
 98
        0
  0
LWPOLYLINE
  5
2BA
330
1F
100
AcDbEntity
  8
Ech.1_5
 62
     7
370
     9
100
AcDbPolyline
 90
        5
 70
     0
 43
0.0
 10
3937.446676031542
 20
-9025.468858127253
 10
3938.28001003046
 20
-9025.468858127253
 10
3938.28001003046
 20
-9023.209136127207
 10
3937.446676031544
 20
-9023.209136127207
 10
3937.446676031542
 20
-9025.468858127253
  0
HATCH
  5
2BB
330
1F
100
AcDbEntity
  8
Ech.1_5
 62
   252
440
 33554687
370
     5
100
AcDbHatch
 10
0.0
 20
0.0
 30
0.0
210
0.0
220
0.0
230
1.0
  2
SOLID
 70
     1
 71
     1
 91
        1
 92
        3
 72
     0
 73
     1
 93
        4
 10
3938.28001003046
 20
-9025.468858127253
 10
3939.113344029379
 20
-9025.468858127253
 10
3939.113344029379
 20
-9023.209136127207
 10
3938.28001003046
 20
-9023.209136127207
 97
        0
 75
     0
 76
     1
 98
        0
  0
LWPOLYLINE
  5
2BC
330
1F
100
AcDbEntity
  8
Ech.1_5
 62
     7
370
     9
100
AcDbPolyline
 90
        5
 70
     0
 43
0.0
 10
3938.28001003046
 20
-9025.468858127253
 10
3939.113344029379
 20
-9025.468858127253
 10
3939.113344029379
 20
-9023.209136127207
 10
3938.28001003046
 20
-9023.209136127207
 10
3938.28001003046
 20
-9025.468858127253
  0
HATCH
  5
2BD
330
1F
100
AcDbEntity
  8
Ech.1_5
 62
   252
440
 33554687
370
     5
100
AcDbHatch
 10
0.0
 20
0.0
 30
0.0
210
0.0
220
0.0
230
1.0
  2
SOLID
 70
     1
 71
     1
 91
        1
 92
        3
 72
     0
 73
     1
 93
        4
 10
3939.113342032623
 20
-9025.468858127253
 10
3939.946676031542
 20
-9025.468858127253
 10
3939.946676031542
 20
-9023.209136127207
 10
3939.113342032623
 20
-9023.209136127207
 97
        0
 75
     0
 76
     1
 98
        0
  0
LWPOLYLINE
  5
2BE
330
1F
100
AcDbEntity
  8
Ech.1_5
 62
     7
370
     9
100
AcDbPolyline
 90
        5
 70
     0
 43
0.0
 10
3939.113342032623
 20
-9025.468858127253
 10
3939.946676031542
 20
-9025.468858127253
 10
3939.946676031542
 20
-9023.209136127207
 10
3939.113342032623
 20
-9023.209136127207
 10
3939.113342032623
 20
-9025.468858127253
  0
HATCH
  5
2BF
330
1F
100
AcDbEntity
  8
Ech.1_5
 62
   252
440
 33554687
370
     5
100
AcDbHatch
 10
0.0
 20
0.0
 30
0.0
210
0.0
220
0.0
230
1.0
  2
SOLID
 70
     1
 71
     1
 91
        1
 92
        3
 72
     0
 73
     1
 93
        4
 10
3939.946675033164
 20
-9025.468858127253
 10
3940.780009032082
 20
-9025.468858127253
 10
3940.780009032082
 20
-9023.209136127207
 10
3939.946675033164
 20
-9023.209136127207
 97
        0
 75
     0
 76
     1
 98
        0
  0
LWPOLYLINE
  5
2C0
330
1F
100
AcDbEntity
  8
Ech.1_5
 62
     7
370
     9
100
AcDbPolyline
 90
        5
 70
     0
 43
0.0
 10
3939.946675033164
 20
-9025.468858127253
 10
3940.780009032082
 20
-9025.468858127253
 10
3940.780009032082
 20
-9023.209136127207
 10
3939.946675033164
 20
-9023.209136127207
 10
3939.946675033164
 20
-9025.468858127253
  0
HATCH
  5
2C1
330
1F
100
AcDbEntity
  8
Ech.1_5
 62
   252
440
 33554687
370
     5
100
AcDbHatch
 10
0.0
 20
0.0
 30
0.0
210
0.0
220
0.0
230
1.0
  2
SOLID
 70
     1
 71
     1
 91
        1
 92
        3
 72
     0
 73
     1
 93
        4
 10
3940.780009032082
 20
-9025.468858127253
 10
3941.613343031001
 20
-9025.468858127253
 10
3941.613343031001
 20
-9023.209136127207
 10
3940.780009032082
 20
-9023.209136127207
 97
        0
 75
     0
 76
     1
 98
        0
  0
LWPOLYLINE
  5
2C2
330
1F
100
AcDbEntity
  8
Ech.1_5
 62
     7
370
     9
100
AcDbPolyline
 90
        5
 70
     0
 43
0.0
 10
3940.780009032082
 20
-9025.468858127253
 10
3941.613343031001
 20
-9025.468858127253
 10
3941.613343031001
 20
-9023.209136127207
 10
3940.780009032082
 20
-9023.209136127207
 10
3940.780009032082
 20
-9025.468858127253
  0
HATCH
  5
2C3
330
1F
100
AcDbEntity
  8
Ech.1_5
 62
   252
440
 33554687
370
     5
100
AcDbHatch
 10
0.0
 20
0.0
 30
0.0
210
0.0
220
0.0
230
1.0
  2
SOLID
 70
     1
 71
     1
 91
        1
 92
        3
 72
     0
 73
     1
 93
        4
 10
3941.613342032623
 20
-9025.468858127253
 10
3942.446676031542
 20
-9025.468858127253
 10
3942.446676031542
 20
-9023.209136127207
 10
3941.613342032623
 20
-9023.209136127207
 97
        0
 75
     0
 76
     1
 98
        0
  0
LWPOLYLINE
  5
2C4
330
1F
100
AcDbEntity
  8
Ech.1_5
 62
     7
370
     9
100
AcDbPolyline
 90
        5
 70
     0
 43
0.0
 10
3941.613342032623
 20
-9025.468858127253
 10
3942.446676031542
 20
-9025.468858127253
 10
3942.446676031542
 20
-9023.209136127207
 10
3941.613342032623
 20
-9023.209136127207
 10
3941.613342032623
 20
-9025.468858127253
  0
HATCH
  5
2C5
330
1F
100
AcDbEntity
  8
Ech.1_5
 62
   252
440
 33554687
370
     5
100
AcDbHatch
 10
0.0
 20
0.0
 30
0.0
210
0.0
220
0.0
230
1.0
  2
SOLID
 70
     1
 71
     1
 91
        1
 92
        3
 72
     0
 73
     1
 93
        4
 10
3942.446676031542
 20
-9025.468858127253
 10
3943.28001003046
 20
-9025.468858127253
 10
3943.28001003046
 20
-9023.209136127207
 10
3942.446676031542
 20
-9023.209136127207
 97
        0
 75
     0
 76
     1
 98
        0
  0
LWPOLYLINE
  5
2C6
330
1F
100
AcDbEntity
  8
Ech.1_5
 62
     7
370
     9
100
AcDbPolyline
 90
        5
 70
     0
 43
0.0
 10
3942.446676031542
 20
-9025.468858127253
 10
3943.28001003046
 20
-9025.468858127253
 10
3943.28001003046
 20
-9023.209136127207
 10
3942.446676031542
 20
-9023.209136127207
 10
3942.446676031542
 20
-9025.468858127253
  0
HATCH
  5
2C7
330
1F
100
AcDbEntity
  8
Ech.1_5
 62
   252
440
 33554687
370
     5
100
AcDbHatch
 10
0.0
 20
0.0
 30
0.0
210
0.0
220
0.0
230
1.0
  2
SOLID
 70
     1
 71
     1
 91
        1
 92
        3
 72
     0
 73
     1
 93
        4
 10
3943.280008033705
 20
-9025.468858127253
 10
3944.113342032623
 20
-9025.468858127253
 10
3944.113342032623
 20
-9023.209136127207
 10
3943.280008033705
 20
-9023.209136127207
 97
        0
 75
     0
 76
     1
 98
        0
  0
LWPOLYLINE
  5
2C8
330
1F
100
AcDbEntity
  8
Ech.1_5
 62
     7
370
     9
100
AcDbPolyline
 90
        5
 70
     0
 43
0.0
 10
3943.280008033705
 20
-9025.468858127253
 10
3944.113342032623
 20
-9025.468858127253
 10
3944.113342032623
 20
-9023.209136127207
 10
3943.280008033705
 20
-9023.209136127207
 10
3943.280008033705
 20
-9025.468858127253
  0
HATCH
  5
2C9
330
1F
100
AcDbEntity
  8
Ech.1_5
 62
   252
440
 33554687
370
     5
100
AcDbHatch
 10
0.0
 20
0.0
 30
0.0
210
0.0
220
0.0
230
1.0
  2
SOLID
 70
     1
 71
     1
 91
        1
 92
        3
 72
     0
 73
     1
 93
        4
 10
3944.113342032623
 20
-9025.468858127253
 10
3944.946676031542
 20
-9025.468858127253
 10
3944.946676031542
 20
-9023.209136127207
 10
3944.113342032623
 20
-9023.209136127207
 97
        0
 75
     0
 76
     1
 98
        0
  0
LWPOLYLINE
  5
2CA
330
1F
100
AcDbEntity
  8
Ech.1_5
 62
     7
370
     9
100
AcDbPolyline
 90
        5
 70
     0
 43
0.0
 10
3944.113342032623
 20
-9025.468858127253
 10
3944.946676031542
 20
-9025.468858127253
 10
3944.946676031542
 20
-9023.209136127207
 10
3944.113342032623
 20
-9023.209136127207
 10
3944.113342032623
 20
-9025.468858127253
  0
HATCH
  5
2CB
330
1F
100
AcDbEntity
  8
Ech.1_5
 62
   252
440
 33554687
370
     5
100
AcDbHatch
 10
0.0
 20
0.0
 30
0.0
210
0.0
220
0.0
230
1.0
  2
SOLID
 70
     1
 71
     1
 91
        1
 92
        3
 72
     0
 73
     1
 93
        4
 10
3944.946676031542
 20
-9025.468858127253
 10
3945.78001003046
 20
-9025.468858127253
 10
3945.78001003046
 20
-9023.209136127207
 10
3944.946676031542
 20
-9023.209136127207
 97
        0
 75
     0
 76
     1
 98
        0
  0
LWPOLYLINE
  5
2CC
330
1F
100
AcDbEntity
  8
Ech.1_5
 62
     7
370
     9
100
AcDbPolyline
 90
        5
 70
     0
 43
0.0
 10
3944.946676031542
 20
-9025.468858127253
 10
3945.78001003046
 20
-9025.468858127253
 10
3945.78001003046
 20
-9023.209136127207
 10
3944.946676031542
 20
-9023.209136127207
 10
3944.946676031542
 20
-9025.468858127253
  0
HATCH
  5
2CD
330
1F
100
AcDbEntity
  8
Ech.1_5
 62
   252
440
 33554687
370
     5
100
AcDbHatch
 10
0.0
 20
0.0
 30
0.0
210
0.0
220
0.0
230
1.0
  2
SOLID
 70
     1
 71
     1
 91
        1
 92
        3
 72
     0
 73
     1
 93
        4
 10
3945.78001003046
 20
-9025.468858127253
 10
3946.613344029382
 20
-9025.468858127253
 10
3946.61334402938
 20
-9023.209136127207
 10
3945.78001003046
 20
-9023.209136127207
 97
        0
 75
     0
 76
     1
 98
        0
  0
LWPOLYLINE
  5
2CE
330
1F
100
AcDbEntity
  8
Ech.1_5
 62
     7
370
     9
100
AcDbPolyline
 90
        5
 70
     0
 43
0.0
 10
3945.78001003046
 20
-9025.468858127253
 10
3946.613344029382
 20
-9025.468858127253
 10
3946.61334402938
 20
-9023.209136127207
 10
3945.78001003046
 20
-9023.209136127207
 10
3945.78001003046
 20
-9025.468858127253
  0
HATCH
  5
2CF
330
1F
100
AcDbEntity
  8
Ech.1_5
 62
   252
440
 33554687
370
     5
100
AcDbHatch
 10
0.0
 20
0.0
 30
0.0
210
0.0
220
0.0
230
1.0
  2
SOLID
 70
     1
 71
     1
 91
        1
 92
        3
 72
     0
 73
     1
 93
        4
 10
3946.613344029382
 20
-9025.468858127253
 10
3947.446678028298
 20
-9025.468858127253
 10
3947.446678028298
 20
-9023.209136127207
 10
3946.61334402938
 20
-9023.209136127207
 97
        0
 75
     0
 76
     1
 98
        0
  0
LWPOLYLINE
  5
2D0
330
1F
100
AcDbEntity
  8
Ech.1_5
 62
     7
370
     9
100
AcDbPolyline
 90
        5
 70
     0
 43
0.0
 10
3946.613344029382
 20
-9025.468858127253
 10
3947.446678028298
 20
-9025.468858127253
 10
3947.446678028298
 20
-9023.209136127207
 10
3946.61334402938
 20
-9023.209136127207
 10
3946.613344029382
 20
-9025.468858127253
  0
HATCH
  5
2D1
330
1F
100
AcDbEntity
  8
Ech.1_5
 62
   252
440
 33554687
370
     5
100
AcDbHatch
 10
0.0
 20
0.0
 30
0.0
210
0.0
220
0.0
230
1.0
  2
SOLID
 70
     1
 71
     1
 91
        1
 92
        3
 72
     0
 73
     1
 93
        4
 10
3947.446676031543
 20
-9025.468858127253
 10
3948.280010030461
 20
-9025.468858127253
 10
3948.280010030461
 20
-9023.209136127207
 10
3947.446676031543
 20
-9023.209136127207
 97
        0
 75
     0
 76
     1
 98
        0
  0
LWPOLYLINE
  5
2D2
330
1F
100
AcDbEntity
  8
Ech.1_5
 62
     7
370
     9
100
AcDbPolyline
 90
        5
 70
     0
 43
0.0
 10
3947.446676031543
 20
-9025.468858127253
 10
3948.280010030461
 20
-9025.468858127253
 10
3948.280010030461
 20
-9023.209136127207
 10
3947.446676031543
 20
-9023.209136127207
 10
3947.446676031543
 20
-9025.468858127253
  0
HATCH
  5
2D3
330
1F
100
AcDbEntity
  8
Ech.1_5
 62
   252
440
 33554687
370
     5
100
AcDbHatch
 10
0.0
 20
0.0
 30
0.0
210
0.0
220
0.0
230
1.0
  2
SOLID
 70
     1
 71
     1
 91
        1
 92
        3
 72
     0
 73
     1
 93
        4
 10
3948.280009032083
 20
-9025.468858127253
 10
3949.113343031002
 20
-9025.468858127253
 10
3949.113343031002
 20
-9023.209136127207
 10
3948.280009032083
 20
-9023.209136127207
 97
        0
 75
     0
 76
     1
 98
        0
  0
LWPOLYLINE
  5
2D4
330
1F
100
AcDbEntity
  8
Ech.1_5
 62
     7
370
     9
100
AcDbPolyline
 90
        5
 70
     0
 43
0.0
 10
3948.280009032083
 20
-9025.468858127253
 10
3949.113343031002
 20
-9025.468858127253
 10
3949.113343031002
 20
-9023.209136127207
 10
3948.280009032083
 20
-9023.209136127207
 10
3948.280009032083
 20
-9025.468858127253
  0
HATCH
  5
2D5
330
1F
100
AcDbEntity
  8
Ech.1_5
 62
   252
440
 33554687
370
     5
100
AcDbHatch
 10
0.0
 20
0.0
 30
0.0
210
0.0
220
0.0
230
1.0
  2
SOLID
 70
     1
 71
     1
 91
        1
 92
        3
 72
     0
 73
     1
 93
        4
 10
3949.113343031002
 20
-9025.468858127253
 10
3949.94667702992
 20
-9025.468858127253
 10
3949.94667702992
 20
-9023.209136127207
 10
3949.113343031002
 20
-9023.209136127207
 97
        0
 75
     0
 76
     1
 98
        0
  0
LWPOLYLINE
  5
2D6
330
1F
100
AcDbEntity
  8
Ech.1_5
 62
     7
370
     9
100
AcDbPolyline
 90
        5
 70
     0
 43
0.0
 10
3949.113343031002
 20
-9025.468858127253
 10
3949.94667702992
 20
-9025.468858127253
 10
3949.94667702992
 20
-9023.209136127207
 10
3949.113343031002
 20
-9023.209136127207
 10
3949.113343031002
 20
-9025.468858127253
  0
HATCH
  5
2D7
330
1F
100
AcDbEntity
  8
Ech.1_5
 62
   252
440
 33554687
370
     5
100
AcDbHatch
 10
0.0
 20
0.0
 30
0.0
210
0.0
220
0.0
230
1.0
  2
SOLID
 70
     1
 71
     1
 91
        1
 92
        3
 72
     0
 73
     1
 93
        4
 10
3949.946676031543
 20
-9025.468858127253
 10
3950.780010030461
 20
-9025.468858127253
 10
3950.780010030461
 20
-9023.209136127207
 10
3949.946676031543
 20
-9023.209136127207
 97
        0
 75
     0
 76
     1
 98
        0
  0
LWPOLYLINE
  5
2D8
330
1F
100
AcDbEntity
  8
Ech.1_5
 62
     7
370
     9
100
AcDbPolyline
 90
        5
 70
     0
 43
0.0
 10
3949.946676031543
 20
-9025.468858127253
 10
3950.780010030461
 20
-9025.468858127253
 10
3950.780010030461
 20
-9023.209136127207
 10
3949.946676031543
 20
-9023.209136127207
 10
3949.946676031543
 20
-9025.468858127253
  0
HATCH
  5
2D9
330
1F
100
AcDbEntity
  8
Ech.1_5
 62
   252
440
 33554687
370
     5
100
AcDbHatch
 10
0.0
 20
0.0
 30
0.0
210
0.0
220
0.0
230
1.0
  2
SOLID
 70
     1
 71
     1
 91
        1
 92
        3
 72
     0
 73
     1
 93
        4
 10
3950.780010030461
 20
-9025.468858127253
 10
3951.61334402938
 20
-9025.468858127253
 10
3951.61334402938
 20
-9023.209136127207
 10
3950.780010030461
 20
-9023.209136127207
 97
        0
 75
     0
 76
     1
 98
        0
  0
LWPOLYLINE
  5
2DA
330
1F
100
AcDbEntity
  8
Ech.1_5
 62
     7
370
     9
100
AcDbPolyline
 90
        5
 70
     0
 43
0.0
 10
3950.780010030461
 20
-9025.468858127253
 10
3951.61334402938
 20
-9025.468858127253
 10
3951.61334402938
 20
-9023.209136127207
 10
3950.780010030461
 20
-9023.209136127207
 10
3950.780010030461
 20
-9025.468858127253
  0
HATCH
  5
2DB
330
1F
100
AcDbEntity
  8
Ech.1_5
 62
   252
440
 33554687
370
     5
100
AcDbHatch
 10
0.0
 20
0.0
 30
0.0
210
0.0
220
0.0
230
1.0
  2
SOLID
 70
     1
 71
     1
 91
        1
 92
        3
 72
     0
 73
     1
 93
        4
 10
3951.613342032624
 20
-9025.468858127253
 10
3952.446676031543
 20
-9025.468858127253
 10
3952.446676031543
 20
-9023.209136127207
 10
3951.613342032624
 20
-9023.209136127207
 97
        0
 75
     0
 76
     1
 98
        0
  0
LWPOLYLINE
  5
2DC
330
1F
100
AcDbEntity
  8
Ech.1_5
 62
     7
370
     9
100
AcDbPolyline
 90
        5
 70
     0
 43
0.0
 10
3951.613342032624
 20
-9025.468858127253
 10
3952.446676031543
 20
-9025.468858127253
 10
3952.446676031543
 20
-9023.209136127207
 10
3951.613342032624
 20
-9023.209136127207
 10
3951.613342032624
 20
-9025.468858127253
  0
HATCH
  5
2DD
330
1F
100
AcDbEntity
  8
Ech.1_5
 62
   252
440
 33554687
370
     5
100
AcDbHatch
 10
0.0
 20
0.0
 30
0.0
210
0.0
220
0.0
230
1.0
  2
SOLID
 70
     1
 71
     1
 91
        1
 92
        3
 72
     0
 73
     1
 93
        4
 10
3952.446674034787
 20
-9025.468858127253
 10
3953.280008033706
 20
-9025.468858127253
 10
3953.280008033706
 20
-9023.209136127207
 10
3952.446674034787
 20
-9023.209136127207
 97
        0
 75
     0
 76
     1
 98
        0
  0
LWPOLYLINE
  5
2DE
330
1F
100
AcDbEntity
  8
Ech.1_5
 62
     7
370
     9
100
AcDbPolyline
 90
        5
 70
     0
 43
0.0
 10
3952.446674034787
 20
-9025.468858127253
 10
3953.280008033706
 20
-9025.468858127253
 10
3953.280008033706
 20
-9023.209136127207
 10
3952.446674034787
 20
-9023.209136127207
 10
3952.446674034787
 20
-9025.468858127253
  0
HATCH
  5
2DF
330
1F
100
AcDbEntity
  8
Ech.1_5
 62
   252
440
 33554687
370
     5
100
AcDbHatch
 10
0.0
 20
0.0
 30
0.0
210
0.0
220
0.0
230
1.0
  2
SOLID
 70
     1
 71
     1
 91
        1
 92
        3
 72
     0
 73
     1
 93
        4
 10
3953.280008033706
 20
-9025.468858127253
 10
3954.113342032624
 20
-9025.468858127253
 10
3954.113342032624
 20
-9023.209136127207
 10
3953.280008033706
 20
-9023.209136127207
 97
        0
 75
     0
 76
     1
 98
        0
  0
LWPOLYLINE
  5
2E0
330
1F
100
AcDbEntity
  8
Ech.1_5
 62
     7
370
     9
100
AcDbPolyline
 90
        5
 70
     0
 43
0.0
 10
3953.280008033706
 20
-9025.468858127253
 10
3954.113342032624
 20
-9025.468858127253
 10
3954.113342032624
 20
-9023.209136127207
 10
3953.280008033706
 20
-9023.209136127207
 10
3953.280008033706
 20
-9025.468858127253
  0
HATCH
  5
2E1
330
1F
100
AcDbEntity
  8
Ech.1_5
 62
   252
440
 33554687
370
     5
100
AcDbHatch
 10
0.0
 20
0.0
 30
0.0
210
0.0
220
0.0
230
1.0
  2
SOLID
 70
     1
 71
     1
 91
        1
 92
        3
 72
     0
 73
     1
 93
        4
 10
3954.113342032624
 20
-9025.468858127253
 10
3954.946676031543
 20
-9025.468858127253
 10
3954.946676031543
 20
-9023.209136127207
 10
3954.113342032624
 20
-9023.209136127207
 97
        0
 75
     0
 76
     1
 98
        0
  0
LWPOLYLINE
  5
2E2
330
1F
100
AcDbEntity
  8
Ech.1_5
 62
     7
370
     9
100
AcDbPolyline
 90
        5
 70
     0
 43
0.0
 10
3954.113342032624
 20
-9025.468858127253
 10
3954.946676031543
 20
-9025.468858127253
 10
3954.946676031543
 20
-9023.209136127207
 10
3954.113342032624
 20
-9023.209136127207
 10
3954.113342032624
 20
-9025.468858127253
  0
HATCH
  5
2E3
330
1F
100
AcDbEntity
  8
Ech.1_5
 62
   252
440
 33554687
370
     5
100
AcDbHatch
 10
0.0
 20
0.0
 30
0.0
210
0.0
220
0.0
230
1.0
  2
SOLID
 70
     1
 71
     1
 91
        1
 92
        3
 72
     0
 73
     1
 93
        4
 10
3954.946676031543
 20
-9025.468858127253
 10
3955.780010030461
 20
-9025.468858127253
 10
3955.780010030461
 20
-9023.209136127207
 10
3954.946676031543
 20
-9023.209136127207
 97
        0
 75
     0
 76
     1
 98
        0
  0
LWPOLYLINE
  5
2E4
330
1F
100
AcDbEntity
  8
Ech.1_5
 62
     7
370
     9
100
AcDbPolyline
 90
        5
 70
     0
 43
0.0
 10
3954.946676031543
 20
-9025.468858127253
 10
3955.780010030461
 20
-9025.468858127253
 10
3955.780010030461
 20
-9023.209136127207
 10
3954.946676031543
 20
-9023.209136127207
 10
3954.946676031543
 20
-9025.468858127253
  0
HATCH
  5
2E5
330
1F
100
AcDbEntity
  8
Ech.1_5
 62
   252
440
 33554687
370
     5
100
AcDbHatch
 10
0.0
 20
0.0
 30
0.0
210
0.0
220
0.0
230
1.0
  2
SOLID
 70
     1
 71
     1
 91
        1
 92
        3
 72
     0
 73
     1
 93
        4
 10
3955.780008033706
 20
-9025.468858127253
 10
3956.613342032624
 20
-9025.468858127253
 10
3956.613342032624
 20
-9023.209136127207
 10
3955.780008033706
 20
-9023.209136127207
 97
        0
 75
     0
 76
     1
 98
        0
  0
LWPOLYLINE
  5
2E6
330
1F
100
AcDbEntity
  8
Ech.1_5
 62
     7
370
     9
100
AcDbPolyline
 90
        5
 70
     0
 43
0.0
 10
3955.780008033706
 20
-9025.468858127253
 10
3956.613342032624
 20
-9025.468858127253
 10
3956.613342032624
 20
-9023.209136127207
 10
3955.780008033706
 20
-9023.209136127207
 10
3955.780008033706
 20
-9025.468858127253
  0
HATCH
  5
2E7
330
1F
100
AcDbEntity
  8
Ech.1_5
 62
   252
440
 33554687
370
     5
100
AcDbHatch
 10
0.0
 20
0.0
 30
0.0
210
0.0
220
0.0
230
1.0
  2
SOLID
 70
     1
 71
     1
 91
        1
 92
        3
 72
     0
 73
     1
 93
        4
 10
3956.613341034246
 20
-9025.468858127253
 10
3957.446675033165
 20
-9025.468858127253
 10
3957.446675033165
 20
-9023.209136127207
 10
3956.613341034246
 20
-9023.209136127207
 97
        0
 75
     0
 76
     1
 98
        0
  0
LWPOLYLINE
  5
2E8
330
1F
100
AcDbEntity
  8
Ech.1_5
 62
     7
370
     9
100
AcDbPolyline
 90
        5
 70
     0
 43
0.0
 10
3956.613341034246
 20
-9025.468858127253
 10
3957.446675033165
 20
-9025.468858127253
 10
3957.446675033165
 20
-9023.209136127207
 10
3956.613341034246
 20
-9023.209136127207
 10
3956.613341034246
 20
-9025.468858127253
  0
HATCH
  5
2E9
330
1F
100
AcDbEntity
  8
Ech.1_5
 62
   252
440
 33554687
370
     5
100
AcDbHatch
 10
0.0
 20
0.0
 30
0.0
210
0.0
220
0.0
230
1.0
  2
SOLID
 70
     1
 71
     1
 91
        1
 92
        3
 72
     0
 73
     1
 93
        4
 10
3957.446675033165
 20
-9025.468858127253
 10
3958.280009032084
 20
-9025.468858127253
 10
3958.280009032084
 20
-9023.209136127207
 10
3957.446675033165
 20
-9023.209136127207
 97
        0
 75
     0
 76
     1
 98
        0
  0
LWPOLYLINE
  5
2EA
330
1F
100
AcDbEntity
  8
Ech.1_5
 62
     7
370
     9
100
AcDbPolyline
 90
        5
 70
     0
 43
0.0
 10
3957.446675033165
 20
-9025.468858127253
 10
3958.280009032084
 20
-9025.468858127253
 10
3958.280009032084
 20
-9023.209136127207
 10
3957.446675033165
 20
-9023.209136127207
 10
3957.446675033165
 20
-9025.468858127253
  0
HATCH
  5
2EB
330
1F
100
AcDbEntity
  8
Ech.1_5
 62
   252
440
 33554687
370
     5
100
AcDbHatch
 10
0.0
 20
0.0
 30
0.0
210
0.0
220
0.0
230
1.0
  2
SOLID
 70
     1
 71
     1
 91
        1
 92
        3
 72
     0
 73
     1
 93
        4
 10
3958.280008033706
 20
-9025.468858127253
 10
3959.113342032625
 20
-9025.468858127253
 10
3959.113342032625
 20
-9023.209136127207
 10
3958.280008033706
 20
-9023.209136127207
 97
        0
 75
     0
 76
     1
 98
        0
  0
LWPOLYLINE
  5
2EC
330
1F
100
AcDbEntity
  8
Ech.1_5
 62
     7
370
     9
100
AcDbPolyline
 90
        5
 70
     0
 43
0.0
 10
3958.280008033706
 20
-9025.468858127253
 10
3959.113342032625
 20
-9025.468858127253
 10
3959.113342032625
 20
-9023.209136127207
 10
3958.280008033706
 20
-9023.209136127207
 10
3958.280008033706
 20
-9025.468858127253
  0
HATCH
  5
2ED
330
1F
100
AcDbEntity
  8
Ech.1_5
 62
   252
440
 33554687
370
     5
100
AcDbHatch
 10
0.0
 20
0.0
 30
0.0
210
0.0
220
0.0
230
1.0
  2
SOLID
 70
     1
 71
     1
 91
        1
 92
        3
 72
     0
 73
     1
 93
        4
 10
3959.113342032625
 20
-9025.468858127253
 10
3959.946676031543
 20
-9025.468858127253
 10
3959.946676031543
 20
-9023.209136127207
 10
3959.113342032625
 20
-9023.209136127207
 97
        0
 75
     0
 76
     1
 98
        0
  0
LWPOLYLINE
  5
2EE
330
1F
100
AcDbEntity
  8
Ech.1_5
 62
     7
370
     9
100
AcDbPolyline
 90
        5
 70
     0
 43
0.0
 10
3959.113342032625
 20
-9025.468858127253
 10
3959.946676031543
 20
-9025.468858127253
 10
3959.946676031543
 20
-9023.209136127207
 10
3959.113342032625
 20
-9023.209136127207
 10
3959.113342032625
 20
-9025.468858127253
  0
HATCH
  5
2EF
330
1F
100
AcDbEntity
  8
Ech.1_5
 62
   252
440
 33554687
370
     5
100
AcDbHatch
 10
0.0
 20
0.0
 30
0.0
210
0.0
220
0.0
230
1.0
  2
SOLID
 70
     1
 71
     1
 91
        1
 92
        3
 72
     0
 73
     1
 93
        4
 10
3959.946674034788
 20
-9025.468858127253
 10
3960.780008033706
 20
-9025.468858127253
 10
3960.780008033706
 20
-9023.209136127207
 10
3959.946674034788
 20
-9023.209136127207
 97
        0
 75
     0
 76
     1
 98
        0
  0
LWPOLYLINE
  5
2F0
330
1F
100
AcDbEntity
  8
Ech.1_5
 62
     7
370
     9
100
AcDbPolyline
 90
        5
 70
     0
 43
0.0
 10
3959.946674034788
 20
-9025.468858127253
 10
3960.780008033706
 20
-9025.468858127253
 10
3960.780008033706
 20
-9023.209136127207
 10
3959.946674034788
 20
-9023.209136127207
 10
3959.946674034788
 20
-9025.468858127253
  0
HATCH
  5
2F1
330
1F
100
AcDbEntity
  8
Ech.1_5
 62
   252
440
 33554687
370
     5
100
AcDbHatch
 10
0.0
 20
0.0
 30
0.0
210
0.0
220
0.0
230
1.0
  2
SOLID
 70
     1
 71
     1
 91
        1
 92
        3
 72
     0
 73
     1
 93
        4
 10
3960.780008033706
 20
-9025.468858127253
 10
3961.613342032625
 20
-9025.468858127253
 10
3961.613342032625
 20
-9023.209136127207
 10
3960.780008033706
 20
-9023.209136127207
 97
        0
 75
     0
 76
     1
 98
        0
  0
LWPOLYLINE
  5
2F2
330
1F
100
AcDbEntity
  8
Ech.1_5
 62
     7
370
     9
100
AcDbPolyline
 90
        5
 70
     0
 43
0.0
 10
3960.780008033706
 20
-9025.468858127253
 10
3961.613342032625
 20
-9025.468858127253
 10
3961.613342032625
 20
-9023.209136127207
 10
3960.780008033706
 20
-9023.209136127207
 10
3960.780008033706
 20
-9025.468858127253
  0
HATCH
  5
2F3
330
1F
100
AcDbEntity
  8
Ech.1_5
 62
   252
440
 33554687
370
     5
100
AcDbHatch
 10
0.0
 20
0.0
 30
0.0
210
0.0
220
0.0
230
1.0
  2
SOLID
 70
     1
 71
     1
 91
        1
 92
        3
 72
     0
 73
     1
 93
        4
 10
3961.613342032625
 20
-9025.468858127253
 10
3962.446676031543
 20
-9025.468858127253
 10
3962.446676031543
 20
-9023.209136127207
 10
3961.613342032625
 20
-9023.209136127207
 97
        0
 75
     0
 76
     1
 98
        0
  0
LWPOLYLINE
  5
2F4
330
1F
100
AcDbEntity
  8
Ech.1_5
 62
     7
370
     9
100
AcDbPolyline
 90
        5
 70
     0
 43
0.0
 10
3961.613342032625
 20
-9025.468858127253
 10
3962.446676031543
 20
-9025.468858127253
 10
3962.446676031543
 20
-9023.209136127207
 10
3961.613342032625
 20
-9023.209136127207
 10
3961.613342032625
 20
-9025.468858127253
  0
HATCH
  5
2F5
330
1F
100
AcDbEntity
  8
Ech.1_5
 62
   252
440
 33554687
370
     5
100
AcDbHatch
 10
0.0
 20
0.0
 30
0.0
210
0.0
220
0.0
230
1.0
  2
SOLID
 70
     1
 71
     1
 91
        1
 92
        3
 72
     0
 73
     1
 93
        4
 10
3962.446676031543
 20
-9025.468858127253
 10
3963.280010030462
 20
-9025.468858127253
 10
3963.280010030462
 20
-9023.209136127207
 10
3962.446676031543
 20
-9023.209136127207
 97
        0
 75
     0
 76
     1
 98
        0
  0
LWPOLYLINE
  5
2F6
330
1F
100
AcDbEntity
  8
Ech.1_5
 62
     7
370
     9
100
AcDbPolyline
 90
        5
 70
     0
 43
0.0
 10
3962.446676031543
 20
-9025.468858127253
 10
3963.280010030462
 20
-9025.468858127253
 10
3963.280010030462
 20
-9023.209136127207
 10
3962.446676031543
 20
-9023.209136127207
 10
3962.446676031543
 20
-9025.468858127253
  0
HATCH
  5
2F7
330
1F
100
AcDbEntity
  8
Ech.1_5
 62
   252
440
 33554687
370
     5
100
AcDbHatch
 10
0.0
 20
0.0
 30
0.0
210
0.0
220
0.0
230
1.0
  2
SOLID
 70
     1
 71
     1
 91
        1
 92
        3
 72
     1
 73
     1
 93
        4
 10
3967.979092032211
 20
-9023.209136127207
 42
0.0
 10
3966.613340035869
 20
-9023.209136127207
 42
0.0
 10
3966.613340035869
 20
-9025.468858127253
 42
0.0
 10
3967.979092032211
 20
-9025.468858127253
 42
-0.3513591548518968
 97
        0
 75
     0
 76
     1
 98
        0
  0
LWPOLYLINE
  5
2F8
330
1F
100
AcDbEntity
  8
Ech.1_5
 62
     7
370
     9
100
AcDbPolyline
 90
        5
 70
     0
 43
0.0
 10
3967.979092032211
 20
-9023.209136127207
 10
3966.613340035869
 20
-9023.209136127207
 10
3966.613340035869
 20
-9025.468858127253
 10
3967.979092032211
 20
-9025.468858127253
 42
-0.3513591548518972
 10
3967.979092032211
 20
-9023.209136127207
  0
HATCH
  5
2F9
330
1F
100
AcDbEntity
  8
Ech.1_5
 62
   252
440
 33554687
370
     5
100
AcDbHatch
 10
0.0
 20
0.0
 30
0.0
210
0.0
220
0.0
230
1.0
  2
SOLID
 70
     1
 71
     1
 91
        1
 92
        3
 72
     1
 73
     1
 93
        3
 10
3970.641119033592
 20
-9024.3389971272
 42
0.0
 10
3967.979092032211
 20
-9023.209136127207
 42
0.3513591548518968
 10
3967.979092032211
 20
-9025.468858127253
 42
0.0
 97
        0
 75
     0
 76
     1
 98
        0
  0
LWPOLYLINE
  5
2FA
330
1F
100
AcDbEntity
  8
Ech.1_5
 62
     7
370
     9
100
AcDbPolyline
 90
        4
 70
     0
 43
0.0
 10
3970.641119033592
 20
-9024.3389971272
 10
3967.979092032211
 20
-9023.209136127207
 42
0.3513591548518956
 10
3967.979092032211
 20
-9025.468858127253
 10
3970.641119033592
 20
-9024.3389971272
  0
HATCH
  5
2FB
330
1F
100
AcDbEntity
  8
Ech.1_5
 62
   252
440
 33554687
370
     5
100
AcDbHatch
 10
0.0
 20
0.0
 30
0.0
210
0.0
220
0.0
230
1.0
  2
SOLID
 70
     1
 71
     1
 91
        1
 92
        3
 72
     1
 73
     1
 93
        6
 10
3927.446674034785
 20
-9025.468858127246
 42
0.0
 10
3925.696675032868
 20
-9025.468858127253
 42
0.4142135727489641
 10
3925.141119033589
 20
-9026.02441412723
 42
0.0
 10
3925.141119033589
 20
-9022.653580127164
 42
0.4142135726680727
 10
3925.696675032868
 20
-9023.209136127207
 42
0.0
 10
3927.446674034785
 20
-9023.209136127207
 42
0.0
 97
        0
 75
     0
 76
     1
 98
        0
  0
LWPOLYLINE
  5
2FC
330
1F
100
AcDbEntity
  8
Ech.1_5
 62
     7
370
     9
100
AcDbPolyline
 90
        7
 70
     0
 43
0.0
 10
3927.446674034785
 20
-9025.468858127246
 10
3925.696675032868
 20
-9025.468858127253
 42
0.4142135727497837
 10
3925.141119033589
 20
-9026.02441412723
 10
3925.141119033589
 20
-9022.653580127164
 42
0.414213572666436
 10
3925.696675032868
 20
-9023.209136127207
 10
3927.446674034785
 20
-9023.209136127207
 10
3927.446674034785
 20
-9025.468858127246
  0
HATCH
  5
2FD
330
1F
100
AcDbEntity
  8
Ech.1_5
 62
   252
440
 33554687
370
     5
100
AcDbHatch
 10
0.0
 20
0.0
 30
0.0
210
0.0
220
0.0
230
1.0
  2
SOLID
 70
     1
 71
     1
 91
        1
 92
        1
 93
        2
 72
     1
 10
3924.835564032688
 20
-9026.857747153615
 11
3924.835564032688
 21
-9021.820247100844
 72
     2
 10
3937.398767423512
 20
-9024.33899712723
 40
12.81320339082451
 50
168.6632793503046
 51
191.3367206496955
 73
     1
 97
        0
 75
     0
 76
     1
 98
        0
  0
LWPOLYLINE
  5
2FE
330
1F
100
AcDbEntity
  8
Ech.1_5
 62
     7
370
     9
100
AcDbPolyline
 90
        3
 70
     0
 43
0.0
 10
3924.835564032688
 20
-9026.857747153615
 10
3924.835564032688
 20
-9021.820247100844
 42
0.0992555820868614
 10
3924.835564032688
 20
-9026.857747153615
  0
HATCH
  5
2FF
330
1F
100
AcDbEntity
  8
Ech.1_5
 62
   252
440
 33554687
370
     5
100
AcDbHatch
 10
0.0
 20
0.0
 30
0.0
210
0.0
220
0.0
230
1.0
  2
SOLID
 70
     1
 71
     1
 91
        1
 92
        3
 72
     0
 73
     1
 93
        6
 10
3925.141119033589
 20
-9026.85774712719
 10
3925.141119033589
 20
-9026.02441412723
 10
3925.141119033589
 20
-9022.653580127164
 10
3925.141119033591
 20
-9021.820247127212
 10
3924.835564032688
 20
-9021.820247100844
 10
3924.835564032688
 20
-9026.857747153615
 97
        0
 75
     0
 76
     1
 98
        0
  0
LWPOLYLINE
  5
300
330
1F
100
AcDbEntity
  8
Ech.1_5
 62
     7
370
     9
100
AcDbPolyline
 90
        7
 70
     0
 43
0.0
 10
3925.141119033589
 20
-9026.85774712719
 10
3925.141119033589
 20
-9026.02441412723
 10
3925.141119033589
 20
-9022.653580127164
 10
3925.141119033591
 20
-9021.820247127212
 10
3924.835564032688
 20
-9021.820247100844
 10
3924.835564032688
 20
-9026.857747153615
 10
3925.141119033589
 20
-9026.85774712719
  0
HATCH
  5
301
330
1F
100
AcDbEntity
  8
Ech.1_5
 62
   252
440
 33554687
370
     5
100
AcDbHatch
 10
0.0
 20
0.0
 30
0.0
210
0.0
220
0.0
230
1.0
  2
SOLID
 70
     1
 71
     1
 91
        1
 92
        3
 72
     0
 73
     1
 93
        4
 10
3963.280010030462
 20
-9025.468858127253
 10
3964.11334402938
 20
-9025.468858127253
 10
3964.11334402938
 20
-9023.209136127207
 10
3963.280010030462
 20
-9023.209136127207
 97
        0
 75
     0
 76
     1
 98
        0
  0
LWPOLYLINE
  5
302
330
1F
100
AcDbEntity
  8
Ech.1_5
 62
     7
370
     9
100
AcDbPolyline
 90
        5
 70
     0
 43
0.0
 10
3963.280010030462
 20
-9025.468858127253
 10
3964.11334402938
 20
-9025.468858127253
 10
3964.11334402938
 20
-9023.209136127207
 10
3963.280010030462
 20
-9023.209136127207
 10
3963.280010030462
 20
-9025.468858127253
  0
LINE
  5
303
330
1F
100
AcDbEntity
  8
Ech.1_5
 62
   190
370
     9
100
AcDbLine
 10
3964.946674034788
 20
-9023.209136127207
 30
0.0
 11
3964.946674034788
 21
-9025.468858127253
 31
0.0
  0
LINE
  5
304
330
1F
100
AcDbEntity
  8
Ech.1_5
 62
   190
370
     9
100
AcDbLine
 10
3965.780008033706
 20
-9023.209136127207
 30
0.0
 11
3965.780008033706
 21
-9025.468858127253
 31
0.0
  0
LINE
  5
305
330
1F
100
AcDbEntity
  8
Ech.1_5
 62
   190
370
     9
100
AcDbLine
 10
3966.613340035869
 20
-9023.209136127207
 30
0.0
 11
3966.613340035869
 21
-9025.468858127253
 31
0.0
  0
LINE
  5
306
330
1F
100
AcDbEntity
  8
Ech.1_5
 62
   190
370
     9
100
AcDbLine
 10
3964.113342032625
 20
-9023.209136127207
 30
0.0
 11
3964.113342032625
 21
-9025.468858127253
 31
0.0
  0
HATCH
  5
307
330
1F
100
AcDbEntity
  8
Ech.1_5
 62
   252
440
 33554687
370
     5
100
AcDbHatch
 10
0.0
 20
0.0
 30
0.0
210
0.0
220
0.0
230
1.0
  2
SOLID
 70
     1
 71
     1
 91
        1
 92
        3
 72
     0
 73
     1
 93
        4
 10
3964.113340035869
 20
-9025.468858127253
 10
3964.946674034788
 20
-9025.468858127253
 10
3964.946674034788
 20
-9023.209136127207
 10
3964.113340035869
 20
-9023.209136127207
 97
        0
 75
     0
 76
     1
 98
        0
  0
LWPOLYLINE
  5
308
330
1F
100
AcDbEntity
  8
Ech.1_5
 62
     7
370
     9
100
AcDbPolyline
 90
        5
 70
     0
 43
0.0
 10
3964.113340035869
 20
-9025.468858127253
 10
3964.946674034788
 20
-9025.468858127253
 10
3964.946674034788
 20
-9023.209136127207
 10
3964.113340035869
 20
-9023.209136127207
 10
3964.113340035869
 20
-9025.468858127253
  0
HATCH
  5
309
330
1F
100
AcDbEntity
  8
Ech.1_5
 62
   252
440
 33554687
370
     5
100
AcDbHatch
 10
0.0
 20
0.0
 30
0.0
210
0.0
220
0.0
230
1.0
  2
SOLID
 70
     1
 71
     1
 91
        1
 92
        3
 72
     0
 73
     1
 93
        4
 10
3965.78000603695
 20
-9025.468858127253
 10
3966.613340035869
 20
-9025.468858127253
 10
3966.613340035869
 20
-9023.209136127207
 10
3965.78000603695
 20
-9023.209136127207
 97
        0
 75
     0
 76
     1
 98
        0
  0
LWPOLYLINE
  5
30A
330
1F
100
AcDbEntity
  8
Ech.1_5
 62
     7
370
     9
100
AcDbPolyline
 90
        5
 70
     0
 43
0.0
 10
3965.78000603695
 20
-9025.468858127253
 10
3966.613340035869
 20
-9025.468858127253
 10
3966.613340035869
 20
-9023.209136127207
 10
3965.78000603695
 20
-9023.209136127207
 10
3965.78000603695
 20
-9025.468858127253
  0
HATCH
  5
30B
330
1F
100
AcDbEntity
  8
Ech.1_5
 62
    35
420
  9529928
440
 33554687
370
    20
100
AcDbHatch
 10
0.0
 20
0.0
 30
0.0
210
0.0
220
0.0
230
1.0
  2
SOLID
 70
     1
 71
     1
 91
        1
 92
        3
 72
     0
 73
     1
 93
        4
 10
3999.753761249332
 20
-9044.3389971272
 10
3999.753761249334
 20
-8644.893492199531
 10
3972.753761249262
 20
-8644.893492199531
 10
3972.753761249331
 20
-9044.3389971272
 97
        0
 75
     0
 76
     1
 98
        0
  0
LWPOLYLINE
  5
30C
330
1F
100
AcDbEntity
  8
Ech.1_5
 62
   190
370
    20
100
AcDbPolyline
 90
        5
 70
     0
 43
0.0
 10
3999.753761249332
 20
-9044.3389971272
 10
3999.753761249334
 20
-8644.893492199531
 10
3972.753761249262
 20
-8644.893492199531
 10
3972.753761249331
 20
-9044.3389971272
 10
3999.753761249332
 20
-9044.3389971272
  0
HATCH
  5
30D
330
1F
100
AcDbEntity
  8
Ech.1_5
 62
    35
420
  9529928
440
 33554687
370
    20
100
AcDbHatch
 10
0.0
 20
0.0
 30
0.0
210
0.0
220
0.0
230
1.0
  2
SOLID
 70
     1
 71
     1
 91
        1
 92
        3
 72
     0
 73
     1
 93
        4
 10
3999.785947435826
 20
-9066.33899808086
 10
3972.785947435825
 20
-9066.33899808086
 10
3972.785947435765
 20
-9447.783478261128
 10
3999.78594743583
 20
-9447.783478261128
 97
        0
 75
     0
 76
     1
 98
        0
  0
LWPOLYLINE
  5
30E
330
1F
100
AcDbEntity
  8
Ech.1_5
 62
   190
370
    20
100
AcDbPolyline
 90
        5
 70
     0
 43
0.0
 10
3999.785947435826
 20
-9066.33899808086
 10
3972.785947435825
 20
-9066.33899808086
 10
3972.785947435765
 20
-9447.783478261128
 10
3999.78594743583
 20
-9447.783478261128
 10
3999.785947435826
 20
-9066.33899808086
  0
LWPOLYLINE
  5
30F
330
1F
100
AcDbEntity
  8
Ech.1_5
 62
     7
370
    20
100
AcDbPolyline
 90
        3
 70
     0
 43
0.0
 10
3999.785947435826
 20
-9066.33899808086
 10
3972.785947435825
 20
-9066.33899808086
 10
3972.785947435825
 20
-9447.783478261128
  0
HATCH
  5
310
330
1F
100
AcDbEntity
  8
Ech.1_5
 62
    17
420
  8405056
440
 33554687
370
    20
100
AcDbHatch
 10
0.0
 20
0.0
 30
0.0
210
0.0
220
0.0
230
1.0
  2
SOLID
 70
     1
 71
     1
 91
        1
 92
        3
 72
     0
 73
     1
 93
        4
 10
3945.785947435824
 20
-9066.33899808086
 10
3925.728861219362
 20
-9066.33899808086
 10
3925.728861219362
 20
-9447.783454038505
 10
3945.735791782489
 20
-9447.783454038505
 97
        0
 75
     0
 76
     1
 98
        0
  0
LWPOLYLINE
  5
311
330
1F
100
AcDbEntity
  8
Ech.1_5
 62
     7
370
    20
100
AcDbPolyline
 90
        5
 70
     0
 43
0.0
 10
3945.785947435824
 20
-9066.33899808086
 10
3925.728861219362
 20
-9066.33899808086
 10
3925.728861219362
 20
-9447.783454038505
 10
3945.735791782489
 20
-9447.783454038505
 10
3945.785947435824
 20
-9066.33899808086
  0
HATCH
  5
312
330
1F
100
AcDbEntity
  8
Ech.1_5
 62
    35
420
  9529928
440
 33554687
370
    20
100
AcDbHatch
 10
0.0
 20
0.0
 30
0.0
210
0.0
220
0.0
230
1.0
  2
SOLID
 70
     1
 71
     1
 91
        1
 92
        3
 72
     0
 73
     1
 93
        4
 10
3945.785947435826
 20
-9106.338998557992
 10
3945.785947435826
 20
-9066.33899808086
 10
3972.785947435827
 20
-9066.33899808086
 10
3972.785947435827
 20
-9106.33899808086
 97
        0
 75
     0
 76
     1
 98
        0
  0
LWPOLYLINE
  5
313
330
1F
100
AcDbEntity
  8
Ech.1_5
 62
   190
370
    20
100
AcDbPolyline
 90
        5
 70
     0
 43
0.0
 10
3945.785947435826
 20
-9106.338998557992
 10
3945.785947435826
 20
-9066.33899808086
 10
3972.785947435827
 20
-9066.33899808086
 10
3972.785947435827
 20
-9106.33899808086
 10
3945.785947435826
 20
-9106.338998557992
  0
LWPOLYLINE
  5
314
330
1F
100
AcDbEntity
  8
Ech.1_5
 62
   190
370
    20
100
AcDbPolyline
 90
        4
 70
     0
 43
0.0
 10
3972.785947435827
 20
-9106.33899808086
 10
3945.785947435826
 20
-9066.33899808086
 10
3972.785947435827
 20
-9066.33899808086
 10
3945.785947435826
 20
-9106.338885246809
  0
LWPOLYLINE
  5
315
330
1F
100
AcDbEntity
  8
Ech.1_5
 62
     5
370
    20
100
AcDbPolyline
 90
        5
 70
     0
 43
0.0
 10
3945.785947435826
 20
-9106.338885246809
 10
3945.785947435826
 20
-9066.33899808086
 10
3972.785947435827
 20
-9066.33899808086
 10
3972.785947435827
 20
-9106.33899808086
 10
3945.785947435826
 20
-9106.338885246809
  0
LWPOLYLINE
  5
316
330
1F
100
AcDbEntity
  8
Ech.1_5
 62
     7
370
    20
100
AcDbPolyline
 90
        4
 70
     0
 43
0.0
 10
3925.728861219362
 20
-9447.783454038505
 10
3925.728861219362
 20
-9066.33899808086
 10
3945.785947435824
 20
-9066.33899808086
 10
3945.735791782489
 20
-9447.783454038505
  0
LINE
  5
317
330
1F
100
AcDbEntity
  8
Ech.1_5
 62
   190
370
     9
100
AcDbLine
 10
3925.173305220087
 20
-9088.857748080849
 30
0.0
 11
3924.867750219184
 21
-9088.857748080849
 31
0.0
  0
LINE
  5
318
330
1F
100
AcDbEntity
  8
Ech.1_5
 62
   190
370
     9
100
AcDbLine
 10
3924.867750219184
 20
-9088.857748080849
 30
0.0
 11
3924.867750219184
 21
-9083.820248080872
 31
0.0
  0
LINE
  5
319
330
1F
100
AcDbEntity
  8
Ech.1_5
 62
   190
370
     9
100
AcDbLine
 10
3925.173305220085
 20
-9083.820248080872
 30
0.0
 11
3924.867750219184
 21
-9083.820248080872
 31
0.0
  0
HATCH
  5
31A
330
1F
100
AcDbEntity
  8
Ech.1_5
 62
   252
440
 33554687
370
     5
100
AcDbHatch
 10
0.0
 20
0.0
 30
0.0
210
0.0
220
0.0
230
1.0
  2
SOLID
 70
     1
 71
     1
 91
        1
 92
        3
 72
     0
 73
     1
 93
        4
 10
3964.978860221283
 20
-9085.209137080808
 10
3965.812194220202
 20
-9085.209137080808
 10
3965.812194220202
 20
-9087.468859080855
 10
3964.978860221283
 20
-9087.468859080855
 97
        0
 75
     0
 76
     1
 98
        0
  0
LWPOLYLINE
  5
31B
330
1F
100
AcDbEntity
  8
Ech.1_5
 62
     7
370
     9
100
AcDbPolyline
 90
        5
 70
     0
 43
0.0
 10
3964.978860221283
 20
-9085.209137080808
 10
3965.812194220202
 20
-9085.209137080808
 10
3965.812194220202
 20
-9087.468859080855
 10
3964.978860221283
 20
-9087.468859080855
 10
3964.978860221283
 20
-9085.209137080808
  0
LINE
  5
31C
330
1F
100
AcDbEntity
  8
Ech.1_5
 62
   190
370
     9
100
AcDbLine
 10
3968.011278218707
 20
-9087.468859080855
 30
0.0
 11
3925.728861219364
 21
-9087.468859080855
 31
0.0
  0
LINE
  5
31D
330
1F
100
AcDbEntity
  8
Ech.1_5
 62
   190
370
     9
100
AcDbLine
 10
3968.011278218707
 20
-9085.209137080808
 30
0.0
 11
3925.728861219364
 21
-9085.209137080808
 31
0.0
  0
ARC
  5
31E
330
1F
100
AcDbEntity
  8
Ech.1_5
 62
   190
370
     9
100
AcDbCircle
 10
3937.430953610018
 20
-9086.338998080832
 30
0.0
 40
12.81320339083424
100
AcDbArc
 50
168.6632793503132
 51
191.3367206496868
  0
LINE
  5
31F
330
1F
100
AcDbEntity
  8
Ech.1_5
 62
   190
370
     9
100
AcDbLine
 10
3925.173305220087
 20
-9088.857748080849
 30
0.0
 11
3925.173305220085
 21
-9088.024415080898
 31
0.0
  0
ARC
  5
320
330
1F
100
AcDbEntity
  8
Ech.1_5
 62
   190
370
     9
100
AcDbCircle
 10
3925.728861209984
 20
-9088.024415070753
 30
0.0
 40
0.5555559898988739
100
AcDbArc
 50
89.99999903261123
 51
180.0000010462262
  0
LINE
  5
321
330
1F
100
AcDbEntity
  8
Ech.1_5
 62
   190
370
     9
100
AcDbLine
 10
3925.173305220085
 20
-9088.024415080898
 30
0.0
 11
3925.173305220085
 21
-9084.653581080831
 31
0.0
  0
ARC
  5
322
330
1F
100
AcDbEntity
  8
Ech.1_5
 62
   190
370
     9
100
AcDbCircle
 10
3925.728861209872
 20
-9084.65358109102
 30
0.0
 40
0.5555559897870865
100
AcDbArc
 50
179.9999989490838
 51
270.000000978926
  0
LINE
  5
323
330
1F
100
AcDbEntity
  8
Ech.1_5
 62
   190
370
     9
100
AcDbLine
 10
3925.173305220085
 20
-9083.820248080872
 30
0.0
 11
3925.173305220085
 21
-9084.653581080831
 31
0.0
  0
LINE
  5
324
330
1F
100
AcDbEntity
  8
Ech.1_5
 62
   190
370
     9
100
AcDbLine
 10
3935.812194220201
 20
-9087.468859080855
 30
0.0
 11
3935.812194220201
 21
-9085.209137080808
 31
0.0
  0
LINE
  5
325
330
1F
100
AcDbEntity
  8
Ech.1_5
 62
   190
370
     9
100
AcDbLine
 10
3936.645527220741
 20
-9087.468859080855
 30
0.0
 11
3936.645527220741
 21
-9085.209137080808
 31
0.0
  0
LINE
  5
326
330
1F
100
AcDbEntity
  8
Ech.1_5
 62
   190
370
     9
100
AcDbLine
 10
3933.3121942202
 20
-9087.468859080855
 30
0.0
 11
3933.3121942202
 21
-9085.209137080808
 31
0.0
  0
LINE
  5
327
330
1F
100
AcDbEntity
  8
Ech.1_5
 62
   190
370
     9
100
AcDbLine
 10
3934.14552722074
 20
-9087.468859080855
 30
0.0
 11
3934.14552722074
 21
-9085.209137080808
 31
0.0
  0
LINE
  5
328
330
1F
100
AcDbEntity
  8
Ech.1_5
 62
   190
370
     9
100
AcDbLine
 10
3934.978860221281
 20
-9087.468859080855
 30
0.0
 11
3934.978860221281
 21
-9085.209137080808
 31
0.0
  0
LINE
  5
329
330
1F
100
AcDbEntity
  8
Ech.1_5
 62
   190
370
     9
100
AcDbLine
 10
3930.8121942202
 20
-9087.468859080855
 30
0.0
 11
3930.8121942202
 21
-9085.209137080808
 31
0.0
  0
LINE
  5
32A
330
1F
100
AcDbEntity
  8
Ech.1_5
 62
   190
370
     9
100
AcDbLine
 10
3931.645527220742
 20
-9087.468859080855
 30
0.0
 11
3931.645527220742
 21
-9085.209137080808
 31
0.0
  0
LINE
  5
32B
330
1F
100
AcDbEntity
  8
Ech.1_5
 62
   190
370
     9
100
AcDbLine
 10
3932.478860221283
 20
-9087.468859080855
 30
0.0
 11
3932.478860221283
 21
-9085.209137080808
 31
0.0
  0
LINE
  5
32C
330
1F
100
AcDbEntity
  8
Ech.1_5
 62
   190
370
     9
100
AcDbLine
 10
3929.978860221281
 20
-9087.468859080855
 30
0.0
 11
3929.978860221281
 21
-9085.209137080808
 31
0.0
  0
LINE
  5
32D
330
1F
100
AcDbEntity
  8
Ech.1_5
 62
   190
370
     9
100
AcDbLine
 10
3929.14552722074
 20
-9087.468859080855
 30
0.0
 11
3929.14552722074
 21
-9085.209137080808
 31
0.0
  0
LINE
  5
32E
330
1F
100
AcDbEntity
  8
Ech.1_5
 62
   190
370
     9
100
AcDbLine
 10
3928.3121942202
 20
-9087.468859080855
 30
0.0
 11
3928.3121942202
 21
-9085.209137080808
 31
0.0
  0
LINE
  5
32F
330
1F
100
AcDbEntity
  8
Ech.1_5
 62
   190
370
     9
100
AcDbLine
 10
3927.478860221281
 20
-9087.468859080855
 30
0.0
 11
3927.478860221281
 21
-9085.209137080816
 31
0.0
  0
LINE
  5
330
330
1F
100
AcDbEntity
  8
Ech.1_5
 62
   190
370
     9
100
AcDbLine
 10
3962.478860221283
 20
-9087.468859080855
 30
0.0
 11
3962.478860221283
 21
-9085.209137080808
 31
0.0
  0
LINE
  5
331
330
1F
100
AcDbEntity
  8
Ech.1_5
 62
   190
370
     9
100
AcDbLine
 10
3961.645527220743
 20
-9087.468859080855
 30
0.0
 11
3961.645527220743
 21
-9085.209137080808
 31
0.0
  0
LINE
  5
332
330
1F
100
AcDbEntity
  8
Ech.1_5
 62
   190
370
     9
100
AcDbLine
 10
3963.312194220202
 20
-9087.468859080855
 30
0.0
 11
3963.312194220202
 21
-9085.209137080808
 31
0.0
  0
LINE
  5
333
330
1F
100
AcDbEntity
  8
Ech.1_5
 62
   190
370
     9
100
AcDbLine
 10
3959.145527220743
 20
-9087.468859080855
 30
0.0
 11
3959.145527220743
 21
-9085.209137080808
 31
0.0
  0
LINE
  5
334
330
1F
100
AcDbEntity
  8
Ech.1_5
 62
   190
370
     9
100
AcDbLine
 10
3959.978860221283
 20
-9087.468859080855
 30
0.0
 11
3959.978860221283
 21
-9085.209137080808
 31
0.0
  0
LINE
  5
335
330
1F
100
AcDbEntity
  8
Ech.1_5
 62
   190
370
     9
100
AcDbLine
 10
3960.812194220202
 20
-9087.468859080855
 30
0.0
 11
3960.812194220202
 21
-9085.209137080808
 31
0.0
  0
LINE
  5
336
330
1F
100
AcDbEntity
  8
Ech.1_5
 62
   190
370
     9
100
AcDbLine
 10
3956.645527220742
 20
-9087.468859080855
 30
0.0
 11
3956.645527220742
 21
-9085.209137080808
 31
0.0
  0
LINE
  5
337
330
1F
100
AcDbEntity
  8
Ech.1_5
 62
   190
370
     9
100
AcDbLine
 10
3957.478860221283
 20
-9087.468859080855
 30
0.0
 11
3957.478860221283
 21
-9085.209137080808
 31
0.0
  0
LINE
  5
338
330
1F
100
AcDbEntity
  8
Ech.1_5
 62
   190
370
     9
100
AcDbLine
 10
3958.312194220202
 20
-9087.468859080855
 30
0.0
 11
3958.312194220202
 21
-9085.209137080808
 31
0.0
  0
LINE
  5
339
330
1F
100
AcDbEntity
  8
Ech.1_5
 62
   190
370
     9
100
AcDbLine
 10
3954.145527220742
 20
-9087.468859080855
 30
0.0
 11
3954.145527220742
 21
-9085.209137080808
 31
0.0
  0
LINE
  5
33A
330
1F
100
AcDbEntity
  8
Ech.1_5
 62
   190
370
     9
100
AcDbLine
 10
3954.978860221283
 20
-9087.468859080855
 30
0.0
 11
3954.978860221283
 21
-9085.209137080808
 31
0.0
  0
LINE
  5
33B
330
1F
100
AcDbEntity
  8
Ech.1_5
 62
   190
370
     9
100
AcDbLine
 10
3955.812194220201
 20
-9087.468859080855
 30
0.0
 11
3955.812194220201
 21
-9085.209137080808
 31
0.0
  0
LINE
  5
33C
330
1F
100
AcDbEntity
  8
Ech.1_5
 62
   190
370
     9
100
AcDbLine
 10
3953.312194220201
 20
-9087.468859080855
 30
0.0
 11
3953.312194220201
 21
-9085.209137080808
 31
0.0
  0
LINE
  5
33D
330
1F
100
AcDbEntity
  8
Ech.1_5
 62
   190
370
     9
100
AcDbLine
 10
3939.978860221282
 20
-9087.468859080855
 30
0.0
 11
3939.978860221282
 21
-9085.209137080808
 31
0.0
  0
LINE
  5
33E
330
1F
100
AcDbEntity
  8
Ech.1_5
 62
   190
370
     9
100
AcDbLine
 10
3940.812194220201
 20
-9087.468859080855
 30
0.0
 11
3940.812194220201
 21
-9085.209137080808
 31
0.0
  0
LINE
  5
33F
330
1F
100
AcDbEntity
  8
Ech.1_5
 62
   190
370
     9
100
AcDbLine
 10
3941.645527220741
 20
-9087.468859080855
 30
0.0
 11
3941.645527220741
 21
-9085.209137080808
 31
0.0
  0
LINE
  5
340
330
1F
100
AcDbEntity
  8
Ech.1_5
 62
   190
370
     9
100
AcDbLine
 10
3942.478860221282
 20
-9087.468859080855
 30
0.0
 11
3942.478860221282
 21
-9085.209137080808
 31
0.0
  0
LINE
  5
341
330
1F
100
AcDbEntity
  8
Ech.1_5
 62
   190
370
     9
100
AcDbLine
 10
3944.978860221282
 20
-9087.468859080855
 30
0.0
 11
3944.978860221282
 21
-9085.209137080808
 31
0.0
  0
LINE
  5
342
330
1F
100
AcDbEntity
  8
Ech.1_5
 62
   190
370
     9
100
AcDbLine
 10
3944.145527220741
 20
-9087.468859080855
 30
0.0
 11
3944.145527220741
 21
-9085.209137080808
 31
0.0
  0
LINE
  5
343
330
1F
100
AcDbEntity
  8
Ech.1_5
 62
   190
370
     9
100
AcDbLine
 10
3943.312194220201
 20
-9087.468859080855
 30
0.0
 11
3943.312194220201
 21
-9085.209137080808
 31
0.0
  0
LINE
  5
344
330
1F
100
AcDbEntity
  8
Ech.1_5
 62
   190
370
     9
100
AcDbLine
 10
3947.478860221283
 20
-9087.468859080855
 30
0.0
 11
3947.478860221283
 21
-9085.209137080808
 31
0.0
  0
LINE
  5
345
330
1F
100
AcDbEntity
  8
Ech.1_5
 62
   190
370
     9
100
AcDbLine
 10
3946.645527220742
 20
-9087.468859080855
 30
0.0
 11
3946.645527220742
 21
-9085.209137080808
 31
0.0
  0
LINE
  5
346
330
1F
100
AcDbEntity
  8
Ech.1_5
 62
   190
370
     9
100
AcDbLine
 10
3945.812194220201
 20
-9087.468859080855
 30
0.0
 11
3945.812194220201
 21
-9085.209137080808
 31
0.0
  0
LINE
  5
347
330
1F
100
AcDbEntity
  8
Ech.1_5
 62
   190
370
     9
100
AcDbLine
 10
3949.978860221283
 20
-9087.468859080855
 30
0.0
 11
3949.978860221283
 21
-9085.209137080808
 31
0.0
  0
LINE
  5
348
330
1F
100
AcDbEntity
  8
Ech.1_5
 62
   190
370
     9
100
AcDbLine
 10
3949.145527220742
 20
-9087.468859080855
 30
0.0
 11
3949.145527220742
 21
-9085.209137080808
 31
0.0
  0
LINE
  5
349
330
1F
100
AcDbEntity
  8
Ech.1_5
 62
   190
370
     9
100
AcDbLine
 10
3948.312194220201
 20
-9087.468859080855
 30
0.0
 11
3948.312194220201
 21
-9085.209137080808
 31
0.0
  0
LINE
  5
34A
330
1F
100
AcDbEntity
  8
Ech.1_5
 62
   190
370
     9
100
AcDbLine
 10
3952.478860221283
 20
-9087.468859080855
 30
0.0
 11
3952.478860221283
 21
-9085.209137080808
 31
0.0
  0
LINE
  5
34B
330
1F
100
AcDbEntity
  8
Ech.1_5
 62
   190
370
     9
100
AcDbLine
 10
3951.645527220742
 20
-9087.468859080855
 30
0.0
 11
3951.645527220742
 21
-9085.209137080808
 31
0.0
  0
LINE
  5
34C
330
1F
100
AcDbEntity
  8
Ech.1_5
 62
   190
370
     9
100
AcDbLine
 10
3950.812194220201
 20
-9087.468859080855
 30
0.0
 11
3950.812194220201
 21
-9085.209137080808
 31
0.0
  0
LINE
  5
34D
330
1F
100
AcDbEntity
  8
Ech.1_5
 62
   190
370
     9
100
AcDbLine
 10
3938.312194220201
 20
-9087.468859080855
 30
0.0
 11
3938.312194220201
 21
-9085.209137080808
 31
0.0
  0
LINE
  5
34E
330
1F
100
AcDbEntity
  8
Ech.1_5
 62
   190
370
     9
100
AcDbLine
 10
3939.145527220741
 20
-9087.468859080855
 30
0.0
 11
3939.145527220741
 21
-9085.209137080808
 31
0.0
  0
LINE
  5
34F
330
1F
100
AcDbEntity
  8
Ech.1_5
 62
   190
370
     9
100
AcDbLine
 10
3939.978860221282
 20
-9087.468859080855
 30
0.0
 11
3939.978860221282
 21
-9085.209137080808
 31
0.0
  0
LINE
  5
350
330
1F
100
AcDbEntity
  8
Ech.1_5
 62
   190
370
     9
100
AcDbLine
 10
3937.478860221282
 20
-9087.468859080855
 30
0.0
 11
3937.478860221282
 21
-9085.209137080808
 31
0.0
  0
LINE
  5
351
330
1F
100
AcDbEntity
  8
Ech.1_5
 62
   190
370
     9
100
AcDbLine
 10
3970.673305220088
 20
-9086.33899808086
 30
0.0
 11
3968.011278218707
 21
-9087.468859080855
 31
0.0
  0
ARC
  5
352
330
1F
100
AcDbEntity
  8
Ech.1_5
 62
   190
370
     9
100
AcDbCircle
 10
3969.420629209304
 20
-9086.338998080864
 30
0.0
 40
1.806337996665552
100
AcDbArc
 50
141.2812399141965
 51
218.7187600858035
  0
LINE
  5
353
330
1F
100
AcDbEntity
  8
Ech.1_5
 62
   190
370
     9
100
AcDbLine
 10
3970.673305220088
 20
-9086.33899808086
 30
0.0
 11
3968.011278218707
 21
-9085.209137080808
 31
0.0
  0
HATCH
  5
354
330
1F
100
AcDbEntity
  8
Ech.1_5
 62
   252
440
 33554687
370
     5
100
AcDbHatch
 10
0.0
 20
0.0
 30
0.0
210
0.0
220
0.0
230
1.0
  2
SOLID
 70
     1
 71
     1
 91
        1
 92
        3
 72
     0
 73
     1
 93
        4
 10
3927.478860221281
 20
-9085.209137080816
 10
3928.3121942202
 20
-9085.209137080808
 10
3928.3121942202
 20
-9087.468859080855
 10
3927.478860221281
 20
-9087.468859080855
 97
        0
 75
     0
 76
     1
 98
        0
  0
LWPOLYLINE
  5
355
330
1F
100
AcDbEntity
  8
Ech.1_5
 62
     7
370
     9
100
AcDbPolyline
 90
        5
 70
     0
 43
0.0
 10
3927.478860221281
 20
-9085.209137080816
 10
3928.3121942202
 20
-9085.209137080808
 10
3928.3121942202
 20
-9087.468859080855
 10
3927.478860221281
 20
-9087.468859080855
 10
3927.478860221281
 20
-9085.209137080816
  0
HATCH
  5
356
330
1F
100
AcDbEntity
  8
Ech.1_5
 62
   252
440
 33554687
370
     5
100
AcDbHatch
 10
0.0
 20
0.0
 30
0.0
210
0.0
220
0.0
230
1.0
  2
SOLID
 70
     1
 71
     1
 91
        1
 92
        3
 72
     0
 73
     1
 93
        4
 10
3928.3121942202
 20
-9085.209137080808
 10
3929.145528219118
 20
-9085.209137080808
 10
3929.145528219118
 20
-9087.468859080855
 10
3928.3121942202
 20
-9087.468859080855
 97
        0
 75
     0
 76
     1
 98
        0
  0
LWPOLYLINE
  5
357
330
1F
100
AcDbEntity
  8
Ech.1_5
 62
     7
370
     9
100
AcDbPolyline
 90
        5
 70
     0
 43
0.0
 10
3928.3121942202
 20
-9085.209137080808
 10
3929.145528219118
 20
-9085.209137080808
 10
3929.145528219118
 20
-9087.468859080855
 10
3928.3121942202
 20
-9087.468859080855
 10
3928.3121942202
 20
-9085.209137080808
  0
HATCH
  5
358
330
1F
100
AcDbEntity
  8
Ech.1_5
 62
   252
440
 33554687
370
     5
100
AcDbHatch
 10
0.0
 20
0.0
 30
0.0
210
0.0
220
0.0
230
1.0
  2
SOLID
 70
     1
 71
     1
 91
        1
 92
        3
 72
     0
 73
     1
 93
        4
 10
3929.145528219118
 20
-9085.209137080808
 10
3929.978862218037
 20
-9085.209137080808
 10
3929.978862218037
 20
-9087.468859080855
 10
3929.145528219118
 20
-9087.468859080855
 97
        0
 75
     0
 76
     1
 98
        0
  0
LWPOLYLINE
  5
359
330
1F
100
AcDbEntity
  8
Ech.1_5
 62
     7
370
     9
100
AcDbPolyline
 90
        5
 70
     0
 43
0.0
 10
3929.145528219118
 20
-9085.209137080808
 10
3929.978862218037
 20
-9085.209137080808
 10
3929.978862218037
 20
-9087.468859080855
 10
3929.145528219118
 20
-9087.468859080855
 10
3929.145528219118
 20
-9085.209137080808
  0
HATCH
  5
35A
330
1F
100
AcDbEntity
  8
Ech.1_5
 62
   252
440
 33554687
370
     5
100
AcDbHatch
 10
0.0
 20
0.0
 30
0.0
210
0.0
220
0.0
230
1.0
  2
SOLID
 70
     1
 71
     1
 91
        1
 92
        3
 72
     0
 73
     1
 93
        4
 10
3929.978862218037
 20
-9085.209137080808
 10
3930.812196216955
 20
-9085.209137080808
 10
3930.812196216955
 20
-9087.468859080855
 10
3929.978862218037
 20
-9087.468859080855
 97
        0
 75
     0
 76
     1
 98
        0
  0
LWPOLYLINE
  5
35B
330
1F
100
AcDbEntity
  8
Ech.1_5
 62
     7
370
     9
100
AcDbPolyline
 90
        5
 70
     0
 43
0.0
 10
3929.978862218037
 20
-9085.209137080808
 10
3930.812196216955
 20
-9085.209137080808
 10
3930.812196216955
 20
-9087.468859080855
 10
3929.978862218037
 20
-9087.468859080855
 10
3929.978862218037
 20
-9085.209137080808
  0
HATCH
  5
35C
330
1F
100
AcDbEntity
  8
Ech.1_5
 62
   252
440
 33554687
370
     5
100
AcDbHatch
 10
0.0
 20
0.0
 30
0.0
210
0.0
220
0.0
230
1.0
  2
SOLID
 70
     1
 71
     1
 91
        1
 92
        3
 72
     0
 73
     1
 93
        4
 10
3930.8121942202
 20
-9085.209137080808
 10
3931.64552821912
 20
-9085.209137080808
 10
3931.64552821912
 20
-9087.468859080855
 10
3930.8121942202
 20
-9087.468859080855
 97
        0
 75
     0
 76
     1
 98
        0
  0
LWPOLYLINE
  5
35D
330
1F
100
AcDbEntity
  8
Ech.1_5
 62
     7
370
     9
100
AcDbPolyline
 90
        5
 70
     0
 43
0.0
 10
3930.8121942202
 20
-9085.209137080808
 10
3931.64552821912
 20
-9085.209137080808
 10
3931.64552821912
 20
-9087.468859080855
 10
3930.8121942202
 20
-9087.468859080855
 10
3930.8121942202
 20
-9085.209137080808
  0
HATCH
  5
35E
330
1F
100
AcDbEntity
  8
Ech.1_5
 62
   252
440
 33554687
370
     5
100
AcDbHatch
 10
0.0
 20
0.0
 30
0.0
210
0.0
220
0.0
230
1.0
  2
SOLID
 70
     1
 71
     1
 91
        1
 92
        3
 72
     0
 73
     1
 93
        4
 10
3931.645527220742
 20
-9085.209137080808
 10
3932.478861219661
 20
-9085.209137080808
 10
3932.478861219661
 20
-9087.468859080862
 10
3931.645527220742
 20
-9087.468859080855
 97
        0
 75
     0
 76
     1
 98
        0
  0
LWPOLYLINE
  5
35F
330
1F
100
AcDbEntity
  8
Ech.1_5
 62
     7
370
     9
100
AcDbPolyline
 90
        5
 70
     0
 43
0.0
 10
3931.645527220742
 20
-9085.209137080808
 10
3932.478861219661
 20
-9085.209137080808
 10
3932.478861219661
 20
-9087.468859080862
 10
3931.645527220742
 20
-9087.468859080855
 10
3931.645527220742
 20
-9085.209137080808
  0
HATCH
  5
360
330
1F
100
AcDbEntity
  8
Ech.1_5
 62
   252
440
 33554687
370
     5
100
AcDbHatch
 10
0.0
 20
0.0
 30
0.0
210
0.0
220
0.0
230
1.0
  2
SOLID
 70
     1
 71
     1
 91
        1
 92
        3
 72
     0
 73
     1
 93
        4
 10
3932.478861219661
 20
-9085.209137080808
 10
3933.312195218577
 20
-9085.209137080808
 10
3933.312195218577
 20
-9087.468859080855
 10
3932.478861219661
 20
-9087.468859080862
 97
        0
 75
     0
 76
     1
 98
        0
  0
LWPOLYLINE
  5
361
330
1F
100
AcDbEntity
  8
Ech.1_5
 62
     7
370
     9
100
AcDbPolyline
 90
        5
 70
     0
 43
0.0
 10
3932.478861219661
 20
-9085.209137080808
 10
3933.312195218577
 20
-9085.209137080808
 10
3933.312195218577
 20
-9087.468859080855
 10
3932.478861219661
 20
-9087.468859080862
 10
3932.478861219661
 20
-9085.209137080808
  0
HATCH
  5
362
330
1F
100
AcDbEntity
  8
Ech.1_5
 62
   252
440
 33554687
370
     5
100
AcDbHatch
 10
0.0
 20
0.0
 30
0.0
210
0.0
220
0.0
230
1.0
  2
SOLID
 70
     1
 71
     1
 91
        1
 92
        3
 72
     0
 73
     1
 93
        4
 10
3933.3121942202
 20
-9085.209137080808
 10
3934.145528219118
 20
-9085.209137080808
 10
3934.145528219118
 20
-9087.468859080855
 10
3933.3121942202
 20
-9087.468859080855
 97
        0
 75
     0
 76
     1
 98
        0
  0
LWPOLYLINE
  5
363
330
1F
100
AcDbEntity
  8
Ech.1_5
 62
     7
370
     9
100
AcDbPolyline
 90
        5
 70
     0
 43
0.0
 10
3933.3121942202
 20
-9085.209137080808
 10
3934.145528219118
 20
-9085.209137080808
 10
3934.145528219118
 20
-9087.468859080855
 10
3933.3121942202
 20
-9087.468859080855
 10
3933.3121942202
 20
-9085.209137080808
  0
HATCH
  5
364
330
1F
100
AcDbEntity
  8
Ech.1_5
 62
   252
440
 33554687
370
     5
100
AcDbHatch
 10
0.0
 20
0.0
 30
0.0
210
0.0
220
0.0
230
1.0
  2
SOLID
 70
     1
 71
     1
 91
        1
 92
        3
 72
     0
 73
     1
 93
        4
 10
3934.145528219118
 20
-9085.209137080808
 10
3934.978862218037
 20
-9085.209137080808
 10
3934.978862218037
 20
-9087.468859080855
 10
3934.145528219118
 20
-9087.468859080855
 97
        0
 75
     0
 76
     1
 98
        0
  0
LWPOLYLINE
  5
365
330
1F
100
AcDbEntity
  8
Ech.1_5
 62
     7
370
     9
100
AcDbPolyline
 90
        5
 70
     0
 43
0.0
 10
3934.145528219118
 20
-9085.209137080808
 10
3934.978862218037
 20
-9085.209137080808
 10
3934.978862218037
 20
-9087.468859080855
 10
3934.145528219118
 20
-9087.468859080855
 10
3934.145528219118
 20
-9085.209137080808
  0
HATCH
  5
366
330
1F
100
AcDbEntity
  8
Ech.1_5
 62
   252
440
 33554687
370
     5
100
AcDbHatch
 10
0.0
 20
0.0
 30
0.0
210
0.0
220
0.0
230
1.0
  2
SOLID
 70
     1
 71
     1
 91
        1
 92
        3
 72
     0
 73
     1
 93
        4
 10
3934.978860221281
 20
-9085.209137080808
 10
3935.812194220201
 20
-9085.209137080808
 10
3935.812194220201
 20
-9087.468859080855
 10
3934.978860221281
 20
-9087.468859080855
 97
        0
 75
     0
 76
     1
 98
        0
  0
LWPOLYLINE
  5
367
330
1F
100
AcDbEntity
  8
Ech.1_5
 62
     7
370
     9
100
AcDbPolyline
 90
        5
 70
     0
 43
0.0
 10
3934.978860221281
 20
-9085.209137080808
 10
3935.812194220201
 20
-9085.209137080808
 10
3935.812194220201
 20
-9087.468859080855
 10
3934.978860221281
 20
-9087.468859080855
 10
3934.978860221281
 20
-9085.209137080808
  0
HATCH
  5
368
330
1F
100
AcDbEntity
  8
Ech.1_5
 62
   252
440
 33554687
370
     5
100
AcDbHatch
 10
0.0
 20
0.0
 30
0.0
210
0.0
220
0.0
230
1.0
  2
SOLID
 70
     1
 71
     1
 91
        1
 92
        3
 72
     0
 73
     1
 93
        4
 10
3935.812194220201
 20
-9085.209137080808
 10
3936.645528219119
 20
-9085.209137080808
 10
3936.645528219119
 20
-9087.468859080855
 10
3935.812194220201
 20
-9087.468859080855
 97
        0
 75
     0
 76
     1
 98
        0
  0
LWPOLYLINE
  5
369
330
1F
100
AcDbEntity
  8
Ech.1_5
 62
     7
370
     9
100
AcDbPolyline
 90
        5
 70
     0
 43
0.0
 10
3935.812194220201
 20
-9085.209137080808
 10
3936.645528219119
 20
-9085.209137080808
 10
3936.645528219119
 20
-9087.468859080855
 10
3935.812194220201
 20
-9087.468859080855
 10
3935.812194220201
 20
-9085.209137080808
  0
HATCH
  5
36A
330
1F
100
AcDbEntity
  8
Ech.1_5
 62
   252
440
 33554687
370
     5
100
AcDbHatch
 10
0.0
 20
0.0
 30
0.0
210
0.0
220
0.0
230
1.0
  2
SOLID
 70
     1
 71
     1
 91
        1
 92
        3
 72
     0
 73
     1
 93
        4
 10
3936.645528219119
 20
-9085.209137080808
 10
3937.478862218038
 20
-9085.209137080808
 10
3937.478862218039
 20
-9087.468859080855
 10
3936.645528219119
 20
-9087.468859080855
 97
        0
 75
     0
 76
     1
 98
        0
  0
LWPOLYLINE
  5
36B
330
1F
100
AcDbEntity
  8
Ech.1_5
 62
     7
370
     9
100
AcDbPolyline
 90
        5
 70
     0
 43
0.0
 10
3936.645528219119
 20
-9085.209137080808
 10
3937.478862218038
 20
-9085.209137080808
 10
3937.478862218039
 20
-9087.468859080855
 10
3936.645528219119
 20
-9087.468859080855
 10
3936.645528219119
 20
-9085.209137080808
  0
HATCH
  5
36C
330
1F
100
AcDbEntity
  8
Ech.1_5
 62
   252
440
 33554687
370
     5
100
AcDbHatch
 10
0.0
 20
0.0
 30
0.0
210
0.0
220
0.0
230
1.0
  2
SOLID
 70
     1
 71
     1
 91
        1
 92
        3
 72
     0
 73
     1
 93
        4
 10
3937.478862218038
 20
-9085.209137080808
 10
3938.312196216956
 20
-9085.209137080808
 10
3938.312196216956
 20
-9087.468859080855
 10
3937.478862218039
 20
-9087.468859080855
 97
        0
 75
     0
 76
     1
 98
        0
  0
LWPOLYLINE
  5
36D
330
1F
100
AcDbEntity
  8
Ech.1_5
 62
     7
370
     9
100
AcDbPolyline
 90
        5
 70
     0
 43
0.0
 10
3937.478862218038
 20
-9085.209137080808
 10
3938.312196216956
 20
-9085.209137080808
 10
3938.312196216956
 20
-9087.468859080855
 10
3937.478862218039
 20
-9087.468859080855
 10
3937.478862218038
 20
-9085.209137080808
  0
HATCH
  5
36E
330
1F
100
AcDbEntity
  8
Ech.1_5
 62
   252
440
 33554687
370
     5
100
AcDbHatch
 10
0.0
 20
0.0
 30
0.0
210
0.0
220
0.0
230
1.0
  2
SOLID
 70
     1
 71
     1
 91
        1
 92
        3
 72
     0
 73
     1
 93
        4
 10
3938.312196216956
 20
-9085.209137080808
 10
3939.145530215875
 20
-9085.209137080808
 10
3939.145530215875
 20
-9087.468859080855
 10
3938.312196216956
 20
-9087.468859080855
 97
        0
 75
     0
 76
     1
 98
        0
  0
LWPOLYLINE
  5
36F
330
1F
100
AcDbEntity
  8
Ech.1_5
 62
     7
370
     9
100
AcDbPolyline
 90
        5
 70
     0
 43
0.0
 10
3938.312196216956
 20
-9085.209137080808
 10
3939.145530215875
 20
-9085.209137080808
 10
3939.145530215875
 20
-9087.468859080855
 10
3938.312196216956
 20
-9087.468859080855
 10
3938.312196216956
 20
-9085.209137080808
  0
HATCH
  5
370
330
1F
100
AcDbEntity
  8
Ech.1_5
 62
   252
440
 33554687
370
     5
100
AcDbHatch
 10
0.0
 20
0.0
 30
0.0
210
0.0
220
0.0
230
1.0
  2
SOLID
 70
     1
 71
     1
 91
        1
 92
        3
 72
     0
 73
     1
 93
        4
 10
3939.145528219119
 20
-9085.209137080808
 10
3939.978862218038
 20
-9085.209137080808
 10
3939.978862218038
 20
-9087.468859080855
 10
3939.145528219119
 20
-9087.468859080855
 97
        0
 75
     0
 76
     1
 98
        0
  0
LWPOLYLINE
  5
371
330
1F
100
AcDbEntity
  8
Ech.1_5
 62
     7
370
     9
100
AcDbPolyline
 90
        5
 70
     0
 43
0.0
 10
3939.145528219119
 20
-9085.209137080808
 10
3939.978862218038
 20
-9085.209137080808
 10
3939.978862218038
 20
-9087.468859080855
 10
3939.145528219119
 20
-9087.468859080855
 10
3939.145528219119
 20
-9085.209137080808
  0
HATCH
  5
372
330
1F
100
AcDbEntity
  8
Ech.1_5
 62
   252
440
 33554687
370
     5
100
AcDbHatch
 10
0.0
 20
0.0
 30
0.0
210
0.0
220
0.0
230
1.0
  2
SOLID
 70
     1
 71
     1
 91
        1
 92
        3
 72
     0
 73
     1
 93
        4
 10
3939.97886121966
 20
-9085.209137080808
 10
3940.812195218578
 20
-9085.209137080808
 10
3940.812195218578
 20
-9087.468859080855
 10
3939.97886121966
 20
-9087.468859080855
 97
        0
 75
     0
 76
     1
 98
        0
  0
LWPOLYLINE
  5
373
330
1F
100
AcDbEntity
  8
Ech.1_5
 62
     7
370
     9
100
AcDbPolyline
 90
        5
 70
     0
 43
0.0
 10
3939.97886121966
 20
-9085.209137080808
 10
3940.812195218578
 20
-9085.209137080808
 10
3940.812195218578
 20
-9087.468859080855
 10
3939.97886121966
 20
-9087.468859080855
 10
3939.97886121966
 20
-9085.209137080808
  0
HATCH
  5
374
330
1F
100
AcDbEntity
  8
Ech.1_5
 62
   252
440
 33554687
370
     5
100
AcDbHatch
 10
0.0
 20
0.0
 30
0.0
210
0.0
220
0.0
230
1.0
  2
SOLID
 70
     1
 71
     1
 91
        1
 92
        3
 72
     0
 73
     1
 93
        4
 10
3940.812195218578
 20
-9085.209137080808
 10
3941.645529217497
 20
-9085.209137080808
 10
3941.645529217497
 20
-9087.468859080855
 10
3940.812195218578
 20
-9087.468859080855
 97
        0
 75
     0
 76
     1
 98
        0
  0
LWPOLYLINE
  5
375
330
1F
100
AcDbEntity
  8
Ech.1_5
 62
     7
370
     9
100
AcDbPolyline
 90
        5
 70
     0
 43
0.0
 10
3940.812195218578
 20
-9085.209137080808
 10
3941.645529217497
 20
-9085.209137080808
 10
3941.645529217497
 20
-9087.468859080855
 10
3940.812195218578
 20
-9087.468859080855
 10
3940.812195218578
 20
-9085.209137080808
  0
HATCH
  5
376
330
1F
100
AcDbEntity
  8
Ech.1_5
 62
   252
440
 33554687
370
     5
100
AcDbHatch
 10
0.0
 20
0.0
 30
0.0
210
0.0
220
0.0
230
1.0
  2
SOLID
 70
     1
 71
     1
 91
        1
 92
        3
 72
     0
 73
     1
 93
        4
 10
3941.645528219119
 20
-9085.209137080808
 10
3942.478862218038
 20
-9085.209137080808
 10
3942.478862218038
 20
-9087.468859080855
 10
3941.645528219119
 20
-9087.468859080855
 97
        0
 75
     0
 76
     1
 98
        0
  0
LWPOLYLINE
  5
377
330
1F
100
AcDbEntity
  8
Ech.1_5
 62
     7
370
     9
100
AcDbPolyline
 90
        5
 70
     0
 43
0.0
 10
3941.645528219119
 20
-9085.209137080808
 10
3942.478862218038
 20
-9085.209137080808
 10
3942.478862218038
 20
-9087.468859080855
 10
3941.645528219119
 20
-9087.468859080855
 10
3941.645528219119
 20
-9085.209137080808
  0
HATCH
  5
378
330
1F
100
AcDbEntity
  8
Ech.1_5
 62
   252
440
 33554687
370
     5
100
AcDbHatch
 10
0.0
 20
0.0
 30
0.0
210
0.0
220
0.0
230
1.0
  2
SOLID
 70
     1
 71
     1
 91
        1
 92
        3
 72
     0
 73
     1
 93
        4
 10
3942.478862218038
 20
-9085.209137080808
 10
3943.312196216956
 20
-9085.209137080808
 10
3943.312196216956
 20
-9087.468859080855
 10
3942.478862218038
 20
-9087.468859080855
 97
        0
 75
     0
 76
     1
 98
        0
  0
LWPOLYLINE
  5
379
330
1F
100
AcDbEntity
  8
Ech.1_5
 62
     7
370
     9
100
AcDbPolyline
 90
        5
 70
     0
 43
0.0
 10
3942.478862218038
 20
-9085.209137080808
 10
3943.312196216956
 20
-9085.209137080808
 10
3943.312196216956
 20
-9087.468859080855
 10
3942.478862218038
 20
-9087.468859080855
 10
3942.478862218038
 20
-9085.209137080808
  0
HATCH
  5
37A
330
1F
100
AcDbEntity
  8
Ech.1_5
 62
   252
440
 33554687
370
     5
100
AcDbHatch
 10
0.0
 20
0.0
 30
0.0
210
0.0
220
0.0
230
1.0
  2
SOLID
 70
     1
 71
     1
 91
        1
 92
        3
 72
     0
 73
     1
 93
        4
 10
3943.312194220201
 20
-9085.209137080808
 10
3944.145528219119
 20
-9085.209137080808
 10
3944.145528219119
 20
-9087.468859080855
 10
3943.312194220201
 20
-9087.468859080855
 97
        0
 75
     0
 76
     1
 98
        0
  0
LWPOLYLINE
  5
37B
330
1F
100
AcDbEntity
  8
Ech.1_5
 62
     7
370
     9
100
AcDbPolyline
 90
        5
 70
     0
 43
0.0
 10
3943.312194220201
 20
-9085.209137080808
 10
3944.145528219119
 20
-9085.209137080808
 10
3944.145528219119
 20
-9087.468859080855
 10
3943.312194220201
 20
-9087.468859080855
 10
3943.312194220201
 20
-9085.209137080808
  0
HATCH
  5
37C
330
1F
100
AcDbEntity
  8
Ech.1_5
 62
   252
440
 33554687
370
     5
100
AcDbHatch
 10
0.0
 20
0.0
 30
0.0
210
0.0
220
0.0
230
1.0
  2
SOLID
 70
     1
 71
     1
 91
        1
 92
        3
 72
     0
 73
     1
 93
        4
 10
3944.145528219119
 20
-9085.209137080808
 10
3944.978862218038
 20
-9085.209137080808
 10
3944.978862218038
 20
-9087.468859080855
 10
3944.145528219119
 20
-9087.468859080855
 97
        0
 75
     0
 76
     1
 98
        0
  0
LWPOLYLINE
  5
37D
330
1F
100
AcDbEntity
  8
Ech.1_5
 62
     7
370
     9
100
AcDbPolyline
 90
        5
 70
     0
 43
0.0
 10
3944.145528219119
 20
-9085.209137080808
 10
3944.978862218038
 20
-9085.209137080808
 10
3944.978862218038
 20
-9087.468859080855
 10
3944.145528219119
 20
-9087.468859080855
 10
3944.145528219119
 20
-9085.209137080808
  0
HATCH
  5
37E
330
1F
100
AcDbEntity
  8
Ech.1_5
 62
   252
440
 33554687
370
     5
100
AcDbHatch
 10
0.0
 20
0.0
 30
0.0
210
0.0
220
0.0
230
1.0
  2
SOLID
 70
     1
 71
     1
 91
        1
 92
        3
 72
     0
 73
     1
 93
        4
 10
3944.978862218038
 20
-9085.209137080808
 10
3945.812196216956
 20
-9085.209137080808
 10
3945.812196216956
 20
-9087.468859080855
 10
3944.978862218038
 20
-9087.468859080855
 97
        0
 75
     0
 76
     1
 98
        0
  0
LWPOLYLINE
  5
37F
330
1F
100
AcDbEntity
  8
Ech.1_5
 62
     7
370
     9
100
AcDbPolyline
 90
        5
 70
     0
 43
0.0
 10
3944.978862218038
 20
-9085.209137080808
 10
3945.812196216956
 20
-9085.209137080808
 10
3945.812196216956
 20
-9087.468859080855
 10
3944.978862218038
 20
-9087.468859080855
 10
3944.978862218038
 20
-9085.209137080808
  0
HATCH
  5
380
330
1F
100
AcDbEntity
  8
Ech.1_5
 62
   252
440
 33554687
370
     5
100
AcDbHatch
 10
0.0
 20
0.0
 30
0.0
210
0.0
220
0.0
230
1.0
  2
SOLID
 70
     1
 71
     1
 91
        1
 92
        3
 72
     0
 73
     1
 93
        4
 10
3945.812196216956
 20
-9085.209137080808
 10
3946.645530215877
 20
-9085.209137080808
 10
3946.645530215876
 20
-9087.468859080855
 10
3945.812196216956
 20
-9087.468859080855
 97
        0
 75
     0
 76
     1
 98
        0
  0
LWPOLYLINE
  5
381
330
1F
100
AcDbEntity
  8
Ech.1_5
 62
     7
370
     9
100
AcDbPolyline
 90
        5
 70
     0
 43
0.0
 10
3945.812196216956
 20
-9085.209137080808
 10
3946.645530215877
 20
-9085.209137080808
 10
3946.645530215876
 20
-9087.468859080855
 10
3945.812196216956
 20
-9087.468859080855
 10
3945.812196216956
 20
-9085.209137080808
  0
HATCH
  5
382
330
1F
100
AcDbEntity
  8
Ech.1_5
 62
   252
440
 33554687
370
     5
100
AcDbHatch
 10
0.0
 20
0.0
 30
0.0
210
0.0
220
0.0
230
1.0
  2
SOLID
 70
     1
 71
     1
 91
        1
 92
        3
 72
     0
 73
     1
 93
        4
 10
3946.645530215877
 20
-9085.209137080808
 10
3947.478864214794
 20
-9085.209137080808
 10
3947.478864214794
 20
-9087.468859080855
 10
3946.645530215876
 20
-9087.468859080855
 97
        0
 75
     0
 76
     1
 98
        0
  0
LWPOLYLINE
  5
383
330
1F
100
AcDbEntity
  8
Ech.1_5
 62
     7
370
     9
100
AcDbPolyline
 90
        5
 70
     0
 43
0.0
 10
3946.645530215877
 20
-9085.209137080808
 10
3947.478864214794
 20
-9085.209137080808
 10
3947.478864214794
 20
-9087.468859080855
 10
3946.645530215876
 20
-9087.468859080855
 10
3946.645530215877
 20
-9085.209137080808
  0
HATCH
  5
384
330
1F
100
AcDbEntity
  8
Ech.1_5
 62
   252
440
 33554687
370
     5
100
AcDbHatch
 10
0.0
 20
0.0
 30
0.0
210
0.0
220
0.0
230
1.0
  2
SOLID
 70
     1
 71
     1
 91
        1
 92
        3
 72
     0
 73
     1
 93
        4
 10
3947.478862218039
 20
-9085.209137080808
 10
3948.312196216957
 20
-9085.209137080808
 10
3948.312196216957
 20
-9087.468859080855
 10
3947.478862218039
 20
-9087.468859080855
 97
        0
 75
     0
 76
     1
 98
        0
  0
LWPOLYLINE
  5
385
330
1F
100
AcDbEntity
  8
Ech.1_5
 62
     7
370
     9
100
AcDbPolyline
 90
        5
 70
     0
 43
0.0
 10
3947.478862218039
 20
-9085.209137080808
 10
3948.312196216957
 20
-9085.209137080808
 10
3948.312196216957
 20
-9087.468859080855
 10
3947.478862218039
 20
-9087.468859080855
 10
3947.478862218039
 20
-9085.209137080808
  0
HATCH
  5
386
330
1F
100
AcDbEntity
  8
Ech.1_5
 62
   252
440
 33554687
370
     5
100
AcDbHatch
 10
0.0
 20
0.0
 30
0.0
210
0.0
220
0.0
230
1.0
  2
SOLID
 70
     1
 71
     1
 91
        1
 92
        3
 72
     0
 73
     1
 93
        4
 10
3948.312195218579
 20
-9085.209137080808
 10
3949.145529217498
 20
-9085.209137080808
 10
3949.145529217498
 20
-9087.468859080855
 10
3948.312195218579
 20
-9087.468859080855
 97
        0
 75
     0
 76
     1
 98
        0
  0
LWPOLYLINE
  5
387
330
1F
100
AcDbEntity
  8
Ech.1_5
 62
     7
370
     9
100
AcDbPolyline
 90
        5
 70
     0
 43
0.0
 10
3948.312195218579
 20
-9085.209137080808
 10
3949.145529217498
 20
-9085.209137080808
 10
3949.145529217498
 20
-9087.468859080855
 10
3948.312195218579
 20
-9087.468859080855
 10
3948.312195218579
 20
-9085.209137080808
  0
HATCH
  5
388
330
1F
100
AcDbEntity
  8
Ech.1_5
 62
   252
440
 33554687
370
     5
100
AcDbHatch
 10
0.0
 20
0.0
 30
0.0
210
0.0
220
0.0
230
1.0
  2
SOLID
 70
     1
 71
     1
 91
        1
 92
        3
 72
     0
 73
     1
 93
        4
 10
3949.145529217498
 20
-9085.209137080808
 10
3949.978863216416
 20
-9085.209137080808
 10
3949.978863216416
 20
-9087.468859080855
 10
3949.145529217498
 20
-9087.468859080855
 97
        0
 75
     0
 76
     1
 98
        0
  0
LWPOLYLINE
  5
389
330
1F
100
AcDbEntity
  8
Ech.1_5
 62
     7
370
     9
100
AcDbPolyline
 90
        5
 70
     0
 43
0.0
 10
3949.145529217498
 20
-9085.209137080808
 10
3949.978863216416
 20
-9085.209137080808
 10
3949.978863216416
 20
-9087.468859080855
 10
3949.145529217498
 20
-9087.468859080855
 10
3949.145529217498
 20
-9085.209137080808
  0
HATCH
  5
38A
330
1F
100
AcDbEntity
  8
Ech.1_5
 62
   252
440
 33554687
370
     5
100
AcDbHatch
 10
0.0
 20
0.0
 30
0.0
210
0.0
220
0.0
230
1.0
  2
SOLID
 70
     1
 71
     1
 91
        1
 92
        3
 72
     0
 73
     1
 93
        4
 10
3949.978862218039
 20
-9085.209137080808
 10
3950.812196216957
 20
-9085.209137080808
 10
3950.812196216957
 20
-9087.468859080855
 10
3949.978862218039
 20
-9087.468859080855
 97
        0
 75
     0
 76
     1
 98
        0
  0
LWPOLYLINE
  5
38B
330
1F
100
AcDbEntity
  8
Ech.1_5
 62
     7
370
     9
100
AcDbPolyline
 90
        5
 70
     0
 43
0.0
 10
3949.978862218039
 20
-9085.209137080808
 10
3950.812196216957
 20
-9085.209137080808
 10
3950.812196216957
 20
-9087.468859080855
 10
3949.978862218039
 20
-9087.468859080855
 10
3949.978862218039
 20
-9085.209137080808
  0
HATCH
  5
38C
330
1F
100
AcDbEntity
  8
Ech.1_5
 62
   252
440
 33554687
370
     5
100
AcDbHatch
 10
0.0
 20
0.0
 30
0.0
210
0.0
220
0.0
230
1.0
  2
SOLID
 70
     1
 71
     1
 91
        1
 92
        3
 72
     0
 73
     1
 93
        4
 10
3950.812196216957
 20
-9085.209137080808
 10
3951.645530215876
 20
-9085.209137080808
 10
3951.645530215876
 20
-9087.468859080855
 10
3950.812196216957
 20
-9087.468859080855
 97
        0
 75
     0
 76
     1
 98
        0
  0
LWPOLYLINE
  5
38D
330
1F
100
AcDbEntity
  8
Ech.1_5
 62
     7
370
     9
100
AcDbPolyline
 90
        5
 70
     0
 43
0.0
 10
3950.812196216957
 20
-9085.209137080808
 10
3951.645530215876
 20
-9085.209137080808
 10
3951.645530215876
 20
-9087.468859080855
 10
3950.812196216957
 20
-9087.468859080855
 10
3950.812196216957
 20
-9085.209137080808
  0
HATCH
  5
38E
330
1F
100
AcDbEntity
  8
Ech.1_5
 62
   252
440
 33554687
370
     5
100
AcDbHatch
 10
0.0
 20
0.0
 30
0.0
210
0.0
220
0.0
230
1.0
  2
SOLID
 70
     1
 71
     1
 91
        1
 92
        3
 72
     0
 73
     1
 93
        4
 10
3951.64552821912
 20
-9085.209137080808
 10
3952.478862218039
 20
-9085.209137080808
 10
3952.478862218039
 20
-9087.468859080855
 10
3951.64552821912
 20
-9087.468859080855
 97
        0
 75
     0
 76
     1
 98
        0
  0
LWPOLYLINE
  5
38F
330
1F
100
AcDbEntity
  8
Ech.1_5
 62
     7
370
     9
100
AcDbPolyline
 90
        5
 70
     0
 43
0.0
 10
3951.64552821912
 20
-9085.209137080808
 10
3952.478862218039
 20
-9085.209137080808
 10
3952.478862218039
 20
-9087.468859080855
 10
3951.64552821912
 20
-9087.468859080855
 10
3951.64552821912
 20
-9085.209137080808
  0
HATCH
  5
390
330
1F
100
AcDbEntity
  8
Ech.1_5
 62
   252
440
 33554687
370
     5
100
AcDbHatch
 10
0.0
 20
0.0
 30
0.0
210
0.0
220
0.0
230
1.0
  2
SOLID
 70
     1
 71
     1
 91
        1
 92
        3
 72
     0
 73
     1
 93
        4
 10
3952.478860221283
 20
-9085.209137080808
 10
3953.312194220201
 20
-9085.209137080808
 10
3953.312194220201
 20
-9087.468859080855
 10
3952.478860221283
 20
-9087.468859080855
 97
        0
 75
     0
 76
     1
 98
        0
  0
LWPOLYLINE
  5
391
330
1F
100
AcDbEntity
  8
Ech.1_5
 62
     7
370
     9
100
AcDbPolyline
 90
        5
 70
     0
 43
0.0
 10
3952.478860221283
 20
-9085.209137080808
 10
3953.312194220201
 20
-9085.209137080808
 10
3953.312194220201
 20
-9087.468859080855
 10
3952.478860221283
 20
-9087.468859080855
 10
3952.478860221283
 20
-9085.209137080808
  0
HATCH
  5
392
330
1F
100
AcDbEntity
  8
Ech.1_5
 62
   252
440
 33554687
370
     5
100
AcDbHatch
 10
0.0
 20
0.0
 30
0.0
210
0.0
220
0.0
230
1.0
  2
SOLID
 70
     1
 71
     1
 91
        1
 92
        3
 72
     0
 73
     1
 93
        4
 10
3953.312194220201
 20
-9085.209137080808
 10
3954.14552821912
 20
-9085.209137080808
 10
3954.14552821912
 20
-9087.468859080855
 10
3953.312194220201
 20
-9087.468859080855
 97
        0
 75
     0
 76
     1
 98
        0
  0
LWPOLYLINE
  5
393
330
1F
100
AcDbEntity
  8
Ech.1_5
 62
     7
370
     9
100
AcDbPolyline
 90
        5
 70
     0
 43
0.0
 10
3953.312194220201
 20
-9085.209137080808
 10
3954.14552821912
 20
-9085.209137080808
 10
3954.14552821912
 20
-9087.468859080855
 10
3953.312194220201
 20
-9087.468859080855
 10
3953.312194220201
 20
-9085.209137080808
  0
HATCH
  5
394
330
1F
100
AcDbEntity
  8
Ech.1_5
 62
   252
440
 33554687
370
     5
100
AcDbHatch
 10
0.0
 20
0.0
 30
0.0
210
0.0
220
0.0
230
1.0
  2
SOLID
 70
     1
 71
     1
 91
        1
 92
        3
 72
     0
 73
     1
 93
        4
 10
3954.14552821912
 20
-9085.209137080808
 10
3954.978862218039
 20
-9085.209137080808
 10
3954.978862218039
 20
-9087.468859080855
 10
3954.14552821912
 20
-9087.468859080855
 97
        0
 75
     0
 76
     1
 98
        0
  0
LWPOLYLINE
  5
395
330
1F
100
AcDbEntity
  8
Ech.1_5
 62
     7
370
     9
100
AcDbPolyline
 90
        5
 70
     0
 43
0.0
 10
3954.14552821912
 20
-9085.209137080808
 10
3954.978862218039
 20
-9085.209137080808
 10
3954.978862218039
 20
-9087.468859080855
 10
3954.14552821912
 20
-9087.468859080855
 10
3954.14552821912
 20
-9085.209137080808
  0
HATCH
  5
396
330
1F
100
AcDbEntity
  8
Ech.1_5
 62
   252
440
 33554687
370
     5
100
AcDbHatch
 10
0.0
 20
0.0
 30
0.0
210
0.0
220
0.0
230
1.0
  2
SOLID
 70
     1
 71
     1
 91
        1
 92
        3
 72
     0
 73
     1
 93
        4
 10
3954.978862218039
 20
-9085.209137080808
 10
3955.812196216957
 20
-9085.209137080808
 10
3955.812196216957
 20
-9087.468859080855
 10
3954.978862218039
 20
-9087.468859080855
 97
        0
 75
     0
 76
     1
 98
        0
  0
LWPOLYLINE
  5
397
330
1F
100
AcDbEntity
  8
Ech.1_5
 62
     7
370
     9
100
AcDbPolyline
 90
        5
 70
     0
 43
0.0
 10
3954.978862218039
 20
-9085.209137080808
 10
3955.812196216957
 20
-9085.209137080808
 10
3955.812196216957
 20
-9087.468859080855
 10
3954.978862218039
 20
-9087.468859080855
 10
3954.978862218039
 20
-9085.209137080808
  0
HATCH
  5
398
330
1F
100
AcDbEntity
  8
Ech.1_5
 62
   252
440
 33554687
370
     5
100
AcDbHatch
 10
0.0
 20
0.0
 30
0.0
210
0.0
220
0.0
230
1.0
  2
SOLID
 70
     1
 71
     1
 91
        1
 92
        3
 72
     0
 73
     1
 93
        4
 10
3955.812194220201
 20
-9085.209137080808
 10
3956.64552821912
 20
-9085.209137080808
 10
3956.64552821912
 20
-9087.468859080855
 10
3955.812194220201
 20
-9087.468859080855
 97
        0
 75
     0
 76
     1
 98
        0
  0
LWPOLYLINE
  5
399
330
1F
100
AcDbEntity
  8
Ech.1_5
 62
     7
370
     9
100
AcDbPolyline
 90
        5
 70
     0
 43
0.0
 10
3955.812194220201
 20
-9085.209137080808
 10
3956.64552821912
 20
-9085.209137080808
 10
3956.64552821912
 20
-9087.468859080855
 10
3955.812194220201
 20
-9087.468859080855
 10
3955.812194220201
 20
-9085.209137080808
  0
HATCH
  5
39A
330
1F
100
AcDbEntity
  8
Ech.1_5
 62
   252
440
 33554687
370
     5
100
AcDbHatch
 10
0.0
 20
0.0
 30
0.0
210
0.0
220
0.0
230
1.0
  2
SOLID
 70
     1
 71
     1
 91
        1
 92
        3
 72
     0
 73
     1
 93
        4
 10
3956.645527220742
 20
-9085.209137080808
 10
3957.478861219661
 20
-9085.209137080808
 10
3957.478861219661
 20
-9087.468859080855
 10
3956.645527220742
 20
-9087.468859080855
 97
        0
 75
     0
 76
     1
 98
        0
  0
LWPOLYLINE
  5
39B
330
1F
100
AcDbEntity
  8
Ech.1_5
 62
     7
370
     9
100
AcDbPolyline
 90
        5
 70
     0
 43
0.0
 10
3956.645527220742
 20
-9085.209137080808
 10
3957.478861219661
 20
-9085.209137080808
 10
3957.478861219661
 20
-9087.468859080855
 10
3956.645527220742
 20
-9087.468859080855
 10
3956.645527220742
 20
-9085.209137080808
  0
HATCH
  5
39C
330
1F
100
AcDbEntity
  8
Ech.1_5
 62
   252
440
 33554687
370
     5
100
AcDbHatch
 10
0.0
 20
0.0
 30
0.0
210
0.0
220
0.0
230
1.0
  2
SOLID
 70
     1
 71
     1
 91
        1
 92
        3
 72
     0
 73
     1
 93
        4
 10
3957.478861219661
 20
-9085.209137080808
 10
3958.31219521858
 20
-9085.209137080808
 10
3958.31219521858
 20
-9087.468859080855
 10
3957.478861219661
 20
-9087.468859080855
 97
        0
 75
     0
 76
     1
 98
        0
  0
LWPOLYLINE
  5
39D
330
1F
100
AcDbEntity
  8
Ech.1_5
 62
     7
370
     9
100
AcDbPolyline
 90
        5
 70
     0
 43
0.0
 10
3957.478861219661
 20
-9085.209137080808
 10
3958.31219521858
 20
-9085.209137080808
 10
3958.31219521858
 20
-9087.468859080855
 10
3957.478861219661
 20
-9087.468859080855
 10
3957.478861219661
 20
-9085.209137080808
  0
HATCH
  5
39E
330
1F
100
AcDbEntity
  8
Ech.1_5
 62
   252
440
 33554687
370
     5
100
AcDbHatch
 10
0.0
 20
0.0
 30
0.0
210
0.0
220
0.0
230
1.0
  2
SOLID
 70
     1
 71
     1
 91
        1
 92
        3
 72
     0
 73
     1
 93
        4
 10
3958.312194220202
 20
-9085.209137080808
 10
3959.14552821912
 20
-9085.209137080808
 10
3959.14552821912
 20
-9087.468859080855
 10
3958.312194220202
 20
-9087.468859080855
 97
        0
 75
     0
 76
     1
 98
        0
  0
LWPOLYLINE
  5
39F
330
1F
100
AcDbEntity
  8
Ech.1_5
 62
     7
370
     9
100
AcDbPolyline
 90
        5
 70
     0
 43
0.0
 10
3958.312194220202
 20
-9085.209137080808
 10
3959.14552821912
 20
-9085.209137080808
 10
3959.14552821912
 20
-9087.468859080855
 10
3958.312194220202
 20
-9087.468859080855
 10
3958.312194220202
 20
-9085.209137080808
  0
HATCH
  5
3A0
330
1F
100
AcDbEntity
  8
Ech.1_5
 62
   252
440
 33554687
370
     5
100
AcDbHatch
 10
0.0
 20
0.0
 30
0.0
210
0.0
220
0.0
230
1.0
  2
SOLID
 70
     1
 71
     1
 91
        1
 92
        3
 72
     0
 73
     1
 93
        4
 10
3959.14552821912
 20
-9085.209137080808
 10
3959.978862218039
 20
-9085.209137080808
 10
3959.978862218039
 20
-9087.468859080855
 10
3959.14552821912
 20
-9087.468859080855
 97
        0
 75
     0
 76
     1
 98
        0
  0
LWPOLYLINE
  5
3A1
330
1F
100
AcDbEntity
  8
Ech.1_5
 62
     7
370
     9
100
AcDbPolyline
 90
        5
 70
     0
 43
0.0
 10
3959.14552821912
 20
-9085.209137080808
 10
3959.978862218039
 20
-9085.209137080808
 10
3959.978862218039
 20
-9087.468859080855
 10
3959.14552821912
 20
-9087.468859080855
 10
3959.14552821912
 20
-9085.209137080808
  0
HATCH
  5
3A2
330
1F
100
AcDbEntity
  8
Ech.1_5
 62
   252
440
 33554687
370
     5
100
AcDbHatch
 10
0.0
 20
0.0
 30
0.0
210
0.0
220
0.0
230
1.0
  2
SOLID
 70
     1
 71
     1
 91
        1
 92
        3
 72
     0
 73
     1
 93
        4
 10
3959.978860221283
 20
-9085.209137080808
 10
3960.812194220202
 20
-9085.209137080808
 10
3960.812194220202
 20
-9087.468859080855
 10
3959.978860221283
 20
-9087.468859080855
 97
        0
 75
     0
 76
     1
 98
        0
  0
LWPOLYLINE
  5
3A3
330
1F
100
AcDbEntity
  8
Ech.1_5
 62
     7
370
     9
100
AcDbPolyline
 90
        5
 70
     0
 43
0.0
 10
3959.978860221283
 20
-9085.209137080808
 10
3960.812194220202
 20
-9085.209137080808
 10
3960.812194220202
 20
-9087.468859080855
 10
3959.978860221283
 20
-9087.468859080855
 10
3959.978860221283
 20
-9085.209137080808
  0
HATCH
  5
3A4
330
1F
100
AcDbEntity
  8
Ech.1_5
 62
   252
440
 33554687
370
     5
100
AcDbHatch
 10
0.0
 20
0.0
 30
0.0
210
0.0
220
0.0
230
1.0
  2
SOLID
 70
     1
 71
     1
 91
        1
 92
        3
 72
     0
 73
     1
 93
        4
 10
3960.812194220202
 20
-9085.209137080808
 10
3961.64552821912
 20
-9085.209137080808
 10
3961.64552821912
 20
-9087.468859080855
 10
3960.812194220202
 20
-9087.468859080855
 97
        0
 75
     0
 76
     1
 98
        0
  0
LWPOLYLINE
  5
3A5
330
1F
100
AcDbEntity
  8
Ech.1_5
 62
     7
370
     9
100
AcDbPolyline
 90
        5
 70
     0
 43
0.0
 10
3960.812194220202
 20
-9085.209137080808
 10
3961.64552821912
 20
-9085.209137080808
 10
3961.64552821912
 20
-9087.468859080855
 10
3960.812194220202
 20
-9087.468859080855
 10
3960.812194220202
 20
-9085.209137080808
  0
HATCH
  5
3A6
330
1F
100
AcDbEntity
  8
Ech.1_5
 62
   252
440
 33554687
370
     5
100
AcDbHatch
 10
0.0
 20
0.0
 30
0.0
210
0.0
220
0.0
230
1.0
  2
SOLID
 70
     1
 71
     1
 91
        1
 92
        3
 72
     0
 73
     1
 93
        4
 10
3961.64552821912
 20
-9085.209137080808
 10
3962.478862218039
 20
-9085.209137080808
 10
3962.478862218039
 20
-9087.468859080855
 10
3961.64552821912
 20
-9087.468859080855
 97
        0
 75
     0
 76
     1
 98
        0
  0
LWPOLYLINE
  5
3A7
330
1F
100
AcDbEntity
  8
Ech.1_5
 62
     7
370
     9
100
AcDbPolyline
 90
        5
 70
     0
 43
0.0
 10
3961.64552821912
 20
-9085.209137080808
 10
3962.478862218039
 20
-9085.209137080808
 10
3962.478862218039
 20
-9087.468859080855
 10
3961.64552821912
 20
-9087.468859080855
 10
3961.64552821912
 20
-9085.209137080808
  0
HATCH
  5
3A8
330
1F
100
AcDbEntity
  8
Ech.1_5
 62
   252
440
 33554687
370
     5
100
AcDbHatch
 10
0.0
 20
0.0
 30
0.0
210
0.0
220
0.0
230
1.0
  2
SOLID
 70
     1
 71
     1
 91
        1
 92
        3
 72
     0
 73
     1
 93
        4
 10
3962.478862218039
 20
-9085.209137080808
 10
3963.312196216958
 20
-9085.209137080808
 10
3963.312196216958
 20
-9087.468859080855
 10
3962.478862218039
 20
-9087.468859080855
 97
        0
 75
     0
 76
     1
 98
        0
  0
LWPOLYLINE
  5
3A9
330
1F
100
AcDbEntity
  8
Ech.1_5
 62
     7
370
     9
100
AcDbPolyline
 90
        5
 70
     0
 43
0.0
 10
3962.478862218039
 20
-9085.209137080808
 10
3963.312196216958
 20
-9085.209137080808
 10
3963.312196216958
 20
-9087.468859080855
 10
3962.478862218039
 20
-9087.468859080855
 10
3962.478862218039
 20
-9085.209137080808
  0
HATCH
  5
3AA
330
1F
100
AcDbEntity
  8
Ech.1_5
 62
   252
440
 33554687
370
     5
100
AcDbHatch
 10
0.0
 20
0.0
 30
0.0
210
0.0
220
0.0
230
1.0
  2
SOLID
 70
     1
 71
     1
 91
        1
 92
        3
 72
     1
 73
     1
 93
        4
 10
3968.011278218707
 20
-9087.468859080855
 42
0.0
 10
3966.645526222365
 20
-9087.468859080855
 42
0.0
 10
3966.645526222365
 20
-9085.209137080808
 42
0.0
 10
3968.011278218707
 20
-9085.209137080808
 42
0.3513591548518968
 97
        0
 75
     0
 76
     1
 98
        0
  0
LWPOLYLINE
  5
3AB
330
1F
100
AcDbEntity
  8
Ech.1_5
 62
     7
370
     9
100
AcDbPolyline
 90
        5
 70
     0
 43
0.0
 10
3968.011278218707
 20
-9087.468859080855
 10
3966.645526222365
 20
-9087.468859080855
 10
3966.645526222365
 20
-9085.209137080808
 10
3968.011278218707
 20
-9085.209137080808
 42
0.3513591548518972
 10
3968.011278218707
 20
-9087.468859080855
  0
HATCH
  5
3AC
330
1F
100
AcDbEntity
  8
Ech.1_5
 62
   252
440
 33554687
370
     5
100
AcDbHatch
 10
0.0
 20
0.0
 30
0.0
210
0.0
220
0.0
230
1.0
  2
SOLID
 70
     1
 71
     1
 91
        1
 92
        3
 72
     1
 73
     1
 93
        3
 10
3970.673305220088
 20
-9086.33899808086
 42
0.0
 10
3968.011278218707
 20
-9087.468859080855
 42
-0.3513591548518968
 10
3968.011278218707
 20
-9085.209137080808
 42
0.0
 97
        0
 75
     0
 76
     1
 98
        0
  0
LWPOLYLINE
  5
3AD
330
1F
100
AcDbEntity
  8
Ech.1_5
 62
     7
370
     9
100
AcDbPolyline
 90
        4
 70
     0
 43
0.0
 10
3970.673305220088
 20
-9086.33899808086
 10
3968.011278218707
 20
-9087.468859080855
 42
-0.3513591548518956
 10
3968.011278218707
 20
-9085.209137080808
 10
3970.673305220088
 20
-9086.33899808086
  0
HATCH
  5
3AE
330
1F
100
AcDbEntity
  8
Ech.1_5
 62
   252
440
 33554687
370
     5
100
AcDbHatch
 10
0.0
 20
0.0
 30
0.0
210
0.0
220
0.0
230
1.0
  2
SOLID
 70
     1
 71
     1
 91
        1
 92
        3
 72
     1
 73
     1
 93
        6
 10
3927.478860221281
 20
-9085.209137080816
 42
0.0
 10
3925.728861219364
 20
-9085.209137080808
 42
-0.4142135727489641
 10
3925.173305220085
 20
-9084.653581080831
 42
0.0
 10
3925.173305220085
 20
-9088.024415080898
 42
-0.4142135726680727
 10
3925.728861219364
 20
-9087.468859080855
 42
0.0
 10
3927.478860221281
 20
-9087.468859080855
 42
0.0
 97
        0
 75
     0
 76
     1
 98
        0
  0
LWPOLYLINE
  5
3AF
330
1F
100
AcDbEntity
  8
Ech.1_5
 62
     7
370
     9
100
AcDbPolyline
 90
        7
 70
     0
 43
0.0
 10
3927.478860221281
 20
-9085.209137080816
 10
3925.728861219364
 20
-9085.209137080808
 42
-0.4142135727497837
 10
3925.173305220085
 20
-9084.653581080831
 10
3925.173305220085
 20
-9088.024415080898
 42
-0.414213572666436
 10
3925.728861219364
 20
-9087.468859080855
 10
3927.478860221281
 20
-9087.468859080855
 10
3927.478860221281
 20
-9085.209137080816
  0
HATCH
  5
3B0
330
1F
100
AcDbEntity
  8
Ech.1_5
 62
   252
440
 33554687
370
     5
100
AcDbHatch
 10
0.0
 20
0.0
 30
0.0
210
0.0
220
0.0
230
1.0
  2
SOLID
 70
     1
 71
     1
 91
        1
 92
        1
 93
        2
 72
     1
 10
3924.867750219184
 20
-9083.820248054446
 11
3924.867750219184
 21
-9088.857748107217
 72
     2
 10
3937.430953610008
 20
-9086.338998080832
 40
12.81320339082451
 50
168.6632793503046
 51
191.3367206496955
 73
     0
 97
        0
 75
     0
 76
     1
 98
        0
  0
LWPOLYLINE
  5
3B1
330
1F
100
AcDbEntity
  8
Ech.1_5
 62
     7
370
     9
100
AcDbPolyline
 90
        3
 70
     0
 43
0.0
 10
3924.867750219184
 20
-9083.820248054446
 10
3924.867750219184
 20
-9088.857748107217
 42
-0.0992555820868614
 10
3924.867750219184
 20
-9083.820248054446
  0
HATCH
  5
3B2
330
1F
100
AcDbEntity
  8
Ech.1_5
 62
   252
440
 33554687
370
     5
100
AcDbHatch
 10
0.0
 20
0.0
 30
0.0
210
0.0
220
0.0
230
1.0
  2
SOLID
 70
     1
 71
     1
 91
        1
 92
        3
 72
     0
 73
     1
 93
        6
 10
3925.173305220085
 20
-9083.820248080872
 10
3925.173305220085
 20
-9084.653581080831
 10
3925.173305220085
 20
-9088.024415080898
 10
3925.173305220087
 20
-9088.857748080849
 10
3924.867750219184
 20
-9088.857748107217
 10
3924.867750219184
 20
-9083.820248054446
 97
        0
 75
     0
 76
     1
 98
        0
  0
LWPOLYLINE
  5
3B3
330
1F
100
AcDbEntity
  8
Ech.1_5
 62
     7
370
     9
100
AcDbPolyline
 90
        7
 70
     0
 43
0.0
 10
3925.173305220085
 20
-9083.820248080872
 10
3925.173305220085
 20
-9084.653581080831
 10
3925.173305220085
 20
-9088.024415080898
 10
3925.173305220087
 20
-9088.857748080849
 10
3924.867750219184
 20
-9088.857748107217
 10
3924.867750219184
 20
-9083.820248054446
 10
3925.173305220085
 20
-9083.820248080872
  0
HATCH
  5
3B4
330
1F
100
AcDbEntity
  8
Ech.1_5
 62
   252
440
 33554687
370
     5
100
AcDbHatch
 10
0.0
 20
0.0
 30
0.0
210
0.0
220
0.0
230
1.0
  2
SOLID
 70
     1
 71
     1
 91
        1
 92
        3
 72
     0
 73
     1
 93
        4
 10
3963.312196216958
 20
-9085.209137080808
 10
3964.145530215876
 20
-9085.209137080808
 10
3964.145530215876
 20
-9087.468859080855
 10
3963.312196216958
 20
-9087.468859080855
 97
        0
 75
     0
 76
     1
 98
        0
  0
LWPOLYLINE
  5
3B5
330
1F
100
AcDbEntity
  8
Ech.1_5
 62
     7
370
     9
100
AcDbPolyline
 90
        5
 70
     0
 43
0.0
 10
3963.312196216958
 20
-9085.209137080808
 10
3964.145530215876
 20
-9085.209137080808
 10
3964.145530215876
 20
-9087.468859080855
 10
3963.312196216958
 20
-9087.468859080855
 10
3963.312196216958
 20
-9085.209137080808
  0
LINE
  5
3B6
330
1F
100
AcDbEntity
  8
Ech.1_5
 62
   190
370
     9
100
AcDbLine
 10
3964.978860221283
 20
-9087.468859080855
 30
0.0
 11
3964.978860221283
 21
-9085.209137080808
 31
0.0
  0
LINE
  5
3B7
330
1F
100
AcDbEntity
  8
Ech.1_5
 62
   190
370
     9
100
AcDbLine
 10
3965.812194220202
 20
-9087.468859080855
 30
0.0
 11
3965.812194220202
 21
-9085.209137080808
 31
0.0
  0
LINE
  5
3B8
330
1F
100
AcDbEntity
  8
Ech.1_5
 62
   190
370
     9
100
AcDbLine
 10
3966.645526222365
 20
-9087.468859080855
 30
0.0
 11
3966.645526222365
 21
-9085.209137080808
 31
0.0
  0
LINE
  5
3B9
330
1F
100
AcDbEntity
  8
Ech.1_5
 62
   190
370
     9
100
AcDbLine
 10
3964.14552821912
 20
-9087.468859080855
 30
0.0
 11
3964.14552821912
 21
-9085.209137080808
 31
0.0
  0
HATCH
  5
3BA
330
1F
100
AcDbEntity
  8
Ech.1_5
 62
   252
440
 33554687
370
     5
100
AcDbHatch
 10
0.0
 20
0.0
 30
0.0
210
0.0
220
0.0
230
1.0
  2
SOLID
 70
     1
 71
     1
 91
        1
 92
        3
 72
     0
 73
     1
 93
        4
 10
3964.145526222365
 20
-9085.209137080808
 10
3964.978860221283
 20
-9085.209137080808
 10
3964.978860221283
 20
-9087.468859080855
 10
3964.145526222365
 20
-9087.468859080855
 97
        0
 75
     0
 76
     1
 98
        0
  0
LWPOLYLINE
  5
3BB
330
1F
100
AcDbEntity
  8
Ech.1_5
 62
     7
370
     9
100
AcDbPolyline
 90
        5
 70
     0
 43
0.0
 10
3964.145526222365
 20
-9085.209137080808
 10
3964.978860221283
 20
-9085.209137080808
 10
3964.978860221283
 20
-9087.468859080855
 10
3964.145526222365
 20
-9087.468859080855
 10
3964.145526222365
 20
-9085.209137080808
  0
HATCH
  5
3BC
330
1F
100
AcDbEntity
  8
Ech.1_5
 62
   252
440
 33554687
370
     5
100
AcDbHatch
 10
0.0
 20
0.0
 30
0.0
210
0.0
220
0.0
230
1.0
  2
SOLID
 70
     1
 71
     1
 91
        1
 92
        3
 72
     0
 73
     1
 93
        4
 10
3965.812192223446
 20
-9085.209137080808
 10
3966.645526222365
 20
-9085.209137080808
 10
3966.645526222365
 20
-9087.468859080855
 10
3965.812192223446
 20
-9087.468859080855
 97
        0
 75
     0
 76
     1
 98
        0
  0
LWPOLYLINE
  5
3BD
330
1F
100
AcDbEntity
  8
Ech.1_5
 62
     7
370
     9
100
AcDbPolyline
 90
        5
 70
     0
 43
0.0
 10
3965.812192223446
 20
-9085.209137080808
 10
3966.645526222365
 20
-9085.209137080808
 10
3966.645526222365
 20
-9087.468859080855
 10
3965.812192223446
 20
-9087.468859080855
 10
3965.812192223446
 20
-9085.209137080808
  0
LWPOLYLINE
  5
3BE
330
1F
100
AcDbEntity
  8
Ech.1_5
 62
   190
370
    20
100
AcDbPolyline
 90
        3
 70
     0
 43
0.0
 10
4094.342954814785
 20
-8789.26885855067
 10
3897.218445766375
 20
-8789.26885855067
 10
3877.218445766373
 20
-8789.26885855067
  0
INSERT
  5
3BF
330
1F
100
AcDbEntity
  8
Ech.1_5
 62
   190
370
    20
100
AcDbBlockReference
  2
cw-line-extremity4
 10
4094.342954814785
 20
-8789.26885855067
 30
0.0
 50
180.0
  0
LWPOLYLINE
  5
3C0
330
1F
100
AcDbEntity
  8
Ech.1_5
 62
   190
370
    20
100
AcDbPolyline
 90
        3
 70
     0
 43
0.0
 10
3935.711791772977
 20
-8867.65301984139
 10
3897.218445766375
 20
-8867.65301984139
 10
3877.218445766373
 20
-8867.65301984139
  0
INSERT
  5
3C1
330
1F
100
AcDbEntity
  8
Ech.1_5
 62
   190
370
    20
100
AcDbBlockReference
  2
cw-line-extremity4
 10
3935.711791772977
 20
-8867.65301984139
 30
0.0
 50
180.0
  0
LWPOLYLINE
  5
3C2
330
1F
100
AcDbEntity
  8
Ech.1_5
 62
   190
370
    20
100
AcDbPolyline
 90
        3
 70
     0
 43
0.0
 10
3987.260913061344
 20
-8728.851054024737
 10
3897.218445766375
 20
-8728.851054024737
 10
3877.218445766373
 20
-8728.851054024737
  0
INSERT
  5
3C3
330
1F
100
AcDbEntity
  8
Ech.1_5
 62
   190
370
    20
100
AcDbBlockReference
  2
cw-line-extremity4
 10
3987.260913061344
 20
-8728.851054024737
 30
0.0
 50
180.0
  0
HATCH
  5
3C4
330
1F
100
AcDbEntity
  8
Ech.1_5
 62
    33
420
 12426362
440
 33554687
370
    20
100
AcDbHatch
 10
0.0
 20
0.0
 30
0.0
210
0.0
220
0.0
230
1.0
  2
SOLID
 70
     1
 71
     1
 91
        1
 92
        3
 72
     0
 73
     1
 93
        4
 10
3974.753761249136
 20
-9103.514999071853
 10
3999.787812370888
 20
-9103.514999071853
 10
3999.782344382993
 20
-8994.514998118178
 10
3974.753761249136
 20
-8994.514998118178
 97
        0
 75
     0
 76
     1
 98
        0
  0
LWPOLYLINE
  5
3C5
330
1F
100
AcDbEntity
  8
Ech.1_5
 62
     7
370
    20
100
AcDbPolyline
 90
        5
 70
     0
 43
0.0
 10
3974.753761249136
 20
-9103.514999071853
 10
3999.787812370888
 20
-9103.514999071853
 10
3999.782344382993
 20
-8994.514998118178
 10
3974.753761249136
 20
-8994.514998118178
 10
3974.753761249136
 20
-9103.514999071853
  0
LWPOLYLINE
  5
3C6
330
1F
100
AcDbEntity
  8
Ech.1_5
 62
   202
420
  8519880
370
    50
100
AcDbPolyline
 90
        4
 70
     0
 43
0.0
 10
3999.753761249288
 20
-9137.825981563416
 10
3999.753761249288
 20
-9122.836848143415
 10
3994.073148289287
 20
-9118.902116003417
 10
3994.073148289287
 20
-9100.423685993417
  0
LWPOLYLINE
  5
3C7
330
1F
100
AcDbEntity
  8
Ech.1_5
 62
   202
420
  8519880
370
    50
100
AcDbPolyline
 90
        4
 70
     0
 43
0.0
 10
3999.753761249285
 20
-8971.138305813729
 10
3999.753761249285
 20
-8984.12743923373
 10
3994.073148289284
 20
-8988.062171373727
 10
3994.073148289284
 20
-9001.54060137373
  0
LWPOLYLINE
  5
3C8
330
1F
100
AcDbEntity
  8
Ech.1_5
 62
   202
420
  8519880
370
    50
100
AcDbPolyline
 90
        4
 70
     0
 43
0.0
 10
3959.582431579287
 20
-9065.413956964621
 10
3987.172459169286
 20
-9065.413956964621
 42
-0.351643470000312
 10
3997.649367639289
 20
-9075.329265374618
 10
3997.649367639289
 20
-9119.32921764462
  0
LWPOLYLINE
  5
3C9
330
1F
100
AcDbEntity
  8
Ech.1_5
 62
   202
420
  8519880
370
    50
100
AcDbPolyline
 90
        4
 70
     0
 43
0.0
 10
3959.926207269282
 20
-9045.013198551424
 10
3987.559221249287
 20
-9045.013198551424
 42
0.3516434700005543
 10
3998.03612971929
 20
-9035.09789014142
 10
3998.03612971929
 20
-8986.754748871419
  0
LINE
  5
3CA
330
1F
100
AcDbEntity
  8
Ech.1_5
 62
     7
370
    20
100
AcDbLine
 10
3974.753761248836
 20
-9029.154435797413
 30
0.0
 11
3999.753761249288
 21
-9029.154435797413
 31
0.0
  0
LWPOLYLINE
  5
3CB
330
1F
100
AcDbEntity
  8
Ech.1_5
 62
     7
370
    20
100
AcDbPolyline
 90
        7
 70
     0
 43
0.0
 10
3974.753761249136
 20
-8994.514998118178
 10
3999.782344382993
 20
-8994.514998118178
 10
3999.787812370888
 20
-9103.514999071853
 10
3974.753761249136
 20
-9103.514999071853
 10
3974.753761249136
 20
-8994.514998118178
 10
3974.724714726945
 20
-8994.514998118178
 10
3999.753761249588
 20
-8994.514998118178
  0
LWPOLYLINE
  5
3CC
330
1F
100
AcDbEntity
  8
Ech.1_5
 62
     1
370
    20
100
AcDbPolyline
 90
        3
 70
     0
 43
0.0
 10
4148.845125184884
 20
-9046.3389971272
 10
4094.55134878488
 20
-9046.3389971272
 10
4093.635020748028
 20
-9045.338997127186
  0
WIPEOUT
  5
3CD
330
1F
100
AcDbEntity
  8
Ech.1_5
160
               200
310
C8000000040000000C0000000E000000120000000C00000016000000000000C20C00000014000000010000009C000000070000000600000071BC9764F147AE4063034264ABAAC1C0000000000000000093D2535AD833B04063034264ABAAC1C000000000000000001BC61F5AD834B040630342642BABC1C000000000000000
310
00AAF1AA56D834B04063034A64ABB3C1C0000000000000000032E57656D833B04062034A642BB4C1C0000000000000000081BC9764F147AE405A034A642BB4C1C00000000000000000
100
AcDbWipeout
 90
        0
 10
3875.971470586541
 20
-9064.338998080875
 30
0.0
 11
272.8736545983429
 21
0.0
 31
0.0
 12
0.0
 22
272.8736545983429
 32
0.0
 13
1.0
 23
1.0
340
0
 70
     4
280
     1
281
    50
282
    50
283
     0
360
0
 71
     2
 91
        7
 14
-0.4999999999999982
 24
0.4303707022151286
 14
0.4963353116696929
 24
0.4303707022151286
 14
0.5000000000000018
 24
0.4340354019145991
 14
0.4999998067238565
 24
0.4963353003005295
 14
0.4963350956552244
 24
0.5
 14
-0.4999999999999716
 24
0.4999999999999432
 14
-0.4999999999999982
 24
0.4303707022151286
290
     0
  0
LWPOLYLINE
  5
3CE
330
1F
100
AcDbEntity
  8
Ech.1_5
 62
   190
370
    20
100
AcDbPolyline
 90
        7
 70
     0
 43
0.0
 10
3875.971470586541
 20
-9045.3389971272
 10
4147.845128287228
 20
-9045.3389971272
 10
4148.845125184884
 20
-9046.3389971272
 10
4148.845072444916
 20
-9063.338998080875
 10
4147.845069342571
 20
-9064.338998080875
 10
3875.971470586548
 20
-9064.33899808086
 10
3875.971470586541
 20
-9045.3389971272
  0
LINE
  5
3CF
330
1F
100
AcDbEntity
  8
Ech.1_5
 62
   190
370
    20
100
AcDbLine
 10
4147.845128287228
 20
-9045.3389971272
 30
0.0
 11
4147.845069342571
 21
-9064.338998080875
 31
0.0
  0
LINE
  5
3D0
330
1F
100
AcDbEntity
  8
Ech.1_5
 62
   190
370
    20
100
AcDbLine
 10
3874.971470586541
 20
-9063.338998080875
 30
0.0
 11
4148.845072444916
 21
-9063.33899808086
 31
0.0
  0
LINE
  5
3D1
330
1F
100
AcDbEntity
  8
Ech.1_5
 62
   190
370
    20
100
AcDbLine
 10
3874.971523326494
 20
-9046.3389971272
 30
0.0
 11
4148.845125184884
 21
-9046.3389971272
 31
0.0
  0
LWPOLYLINE
  5
3D2
330
1F
100
AcDbEntity
  8
Ech.1_5
 62
   190
370
    20
100
AcDbPolyline
 90
        4
 70
     0
 43
0.0
 10
3875.971470586541
 20
-9045.3389971272
 10
3874.971523326494
 20
-9046.3389971272
 10
3874.971470586541
 20
-9063.338998080875
 10
3875.971470586548
 20
-9064.33899808086
  0
LWPOLYLINE
  5
3D3
330
1F
100
AcDbEntity
  8
Ech.1_5
 62
   190
370
    20
100
AcDbPolyline
 90
        3
 70
     0
 43
0.0
 10
3987.746640846186
 20
-9089.321398977481
 10
3897.218445766375
 20
-9263.166966690616
 10
3877.218445766373
 20
-9263.166966690616
  0
INSERT
  5
3D4
330
1F
100
AcDbEntity
  8
Ech.1_5
 62
   190
370
    20
100
AcDbBlockReference
  2
cw-line-extremity4
 10
3987.746640846186
 20
-9089.321398977481
 30
0.0
 50
242.4922418677779
  0
LWPOLYLINE
  5
3D5
330
1F
100
AcDbEntity
  8
Ech.1_5
 62
   190
370
    20
100
AcDbPolyline
 90
        3
 70
     0
 43
0.0
 10
3951.708455257396
 20
-9053.769591566936
 10
3897.218445766375
 20
-9108.611630408923
 10
3877.218445766373
 20
-9108.611630408923
  0
INSERT
  5
3D6
330
1F
100
AcDbEntity
  8
Ech.1_5
 62
   190
370
    20
100
AcDbBlockReference
  2
cw-line-extremity4
 10
3951.708455257396
 20
-9053.769591566936
 30
0.0
 50
225.1844813728583
  0
LWPOLYLINE
  5
3D7
330
1F
100
AcDbEntity
  8
Ech.1_5
 62
   190
370
    20
100
AcDbPolyline
 90
        3
 70
     0
 43
0.0
 10
3935.7252181411
 20
-9043.3389971272
 10
3897.218445766375
 20
-9013.892997539577
 10
3877.218445766373
 20
-9013.892997539577
  0
INSERT
  5
3D8
330
1F
100
AcDbEntity
  8
Ech.1_5
 62
   190
370
    20
100
AcDbBlockReference
  2
cw-line-extremity4
 10
3935.7252181411
 20
-9043.3389971272
 30
0.0
 50
142.5949773899125
  0
LWPOLYLINE
  5
3D9
330
1F
100
AcDbEntity
  8
Ech.1_5
 62
   190
370
    20
100
AcDbPolyline
 90
        3
 70
     0
 43
0.0
 10
3998.03612971929
 20
-9030.855157193924
 10
3897.218445766073
 20
-8956.969985092164
 10
3877.218445766071
 20
-8956.969985092164
  0
INSERT
  5
3DA
330
1F
100
AcDbEntity
  8
Ech.1_5
 62
   190
370
    20
100
AcDbBlockReference
  2
cw-line-extremity4
 10
3998.03612971929
 20
-9030.855157193924
 30
0.0
 50
143.7638300944154
  0
LWPOLYLINE
  5
3DB
330
1F
100
AcDbEntity
  8
Ech.1_5
 62
   190
370
    20
100
AcDbPolyline
 90
        3
 70
     0
 43
0.0
 10
3965.593633674511
 20
-9095.683718434466
 10
3897.218445766375
 20
-9192.829649344982
 10
3877.218445766373
 20
-9192.829649344982
  0
INSERT
  5
3DC
330
1F
100
AcDbEntity
  8
Ech.1_5
 62
   190
370
    20
100
AcDbBlockReference
  2
cw-line-extremity4
 10
3965.593633674511
 20
-9095.683718434466
 30
0.0
 50
234.8605860447424
  0
MTEXT
  5
3DD
330
1F
100
AcDbEntity
  8
Ech.1_5
 62
     4
420
    65535
100
AcDbMText
 10
4148.69903662959
 20
-9643.788109370496
 30
0.0
 40
12.5
 41
488.3428846351885
 46
0.0
 71
     2
 72
     1
  1
{\fArial|b0|i0;\W1.000000;\H12.500000;\c16711848;Vue en coupe verticale}
 73
     1
 44
1.07999975538982
  0
MTEXT
  5
3DE
330
1F
100
AcDbEntity
  8
Ech.1_5
 62
     4
420
    65535
100
AcDbMText
 10
4469.019146650433
 20
-9643.620932877846
 30
0.0
 40
12.5
 41
127.2973354064961
 46
0.0
 71
     2
 72
     1
  1
{\fArial|b0|i0;\W1.000000;\H12.500000;\c16711848;Ech 1/5 }
 73
     1
 44
1.07999975538982
  0
MTEXT
  5
3DF
330
1F
100
AcDbEntity
  8
Ech.1_5
 62
     4
420
    65535
100
AcDbMText
 10
3820.199985314318
 20
-9643.349176575364
 30
0.0
 40
12.5
 41
143.655217995356
 46
0.0
 71
     2
 72
     1
  1
{\fArial|b0|i0;\W1.000000;\H12.500000;\c16711848;BLEVT90-05}
 73
     1
 44
1.07999975538982
  0
MTEXT
  5
3E0
330
1F
100
AcDbEntity
  8
Ech.1_5
 62
   200
420
 11010303
100
AcDbMText
 10
4046.417814353681
 20
-9664.8057939122
 30
0.0
 40
5.625
 41
979.3749999999991
 46
0.0
 71
     2
 72
     1
  3
{\fArial|b0|i1;\W1.000000;\H5.625000;\c16711848; Il est rappelé à l'utilisateur qui consulte le site et utilise les informations qu'il contient, qu'il doit les utiliser sous sa seule responsabilité en vérifiant leur pertinence, leur cohérence et leur
  1
 non obsolescence.}
 73
     1
 44
1.07999975538982
  0
MTEXT
  5
3E1
330
1F
100
AcDbEntity
  8
Ech.1_5
 62
   200
420
 11010303
100
AcDbMText
 10
4046.417814353681
 20
-9698.657821805707
 30
0.0
 40
6.875
 41
978.1249999999991
 46
0.0
 71
     2
 72
     1
  1
{\fArial|b0|i1;\W1.000000;\H6.875000;\c16711848;www.catalogue-bois-construction.fr}
 73
     1
 44
1.07999975538982
  0
MTEXT
  5
3E2
330
1F
100
AcDbEntity
  8
Ech.1_5
 62
     4
420
    65535
100
AcDbMText
 10
4046.417814353681
 20
-8493.109721063473
 30
0.0
 40
14.375
 41
970.6249999999991
 46
0.0
 71
     2
 72
     1
  1
{\fArial|b0|i0;\W1.000000;\H14.375000;\c16711848;Traversée de paroi - Elément pesant en façade fixé de façon ponctuelle - Compatible niveau étanchéité Ee2}
 73
     1
 44
1.07999975538982
  0
MTEXT
  5
3E3
330
1F
100
AcDbEntity
  8
Ech.1_5
 62
     4
420
    65535
100
AcDbMText
 10
4362.597280312934
 20
-9122.973952079501
 30
0.0
 40
13.75
 41
247.3679902167769
 46
0.0
 71
     2
 72
     1
  1
{\fArial|b0|i0;\W1.000000;\H13.750000;\c16711848;Vue de face de la cale réalisée en panneau contreplaqué ou plastique dur}
 73
     1
 44
1.07999975538982
  0
MTEXT
  5
3E4
330
1F
100
AcDbEntity
  8
Ech.1_5
 62
     4
420
    65535
100
AcDbMText
 10
3870.343445766373
 20
-8721.976054024737
 30
0.0
 40
13.75
 41
295.060696434336
 46
0.0
 71
     3
 72
     1
  1
{\fArial|b0|i0;\W1.000000;\H13.750000;\c16711848;Double-tasseautage bois support de bardage}
 73
     1
 44
1.07999975538982
  0
MTEXT
  5
3E5
330
1F
100
AcDbEntity
  8
Ech.1_5
 62
     4
420
    65535
100
AcDbMText
 10
3870.343445766373
 20
-8782.39385855067
 30
0.0
 40
13.75
 41
183.731258777857
 46
0.0
 71
     3
 72
     1
  1
{\fArial|b0|i0;\W1.000000;\H13.750000;\c16711848;Paroi support}
 73
     1
 44
1.07999975538982
  0
MTEXT
  5
3E6
330
1F
100
AcDbEntity
  8
Ech.1_5
 62
     4
420
    65535
100
AcDbMText
 10
3870.343445766373
 20
-8836.02802049704
 30
0.0
 40
13.75
 41
290.4011591512035
 46
0.0
 71
     3
 72
     1
  1
{\fArial|b0|i0;\W1.000000;\H13.750000;\c16711848;Bardage bois en lames à emboitement en pose verticale - épaisseur 20-22 mm}
 73
     1
 44
1.07999975538982
  0
MTEXT
  5
3E7
330
1F
100
AcDbEntity
  8
Ech.1_5
 62
     4
420
    65535
100
AcDbMText
 10
3877.218445766373
 20
-9256.291966690616
 30
0.0
 40
13.75
 41
168.2045259690494
 46
0.0
 71
     3
 72
     1
  1
{\fArial|b0|i0;\W1.000000;\H13.750000;\c16711848;Cale bisautée}
 73
     1
 44
1.07999975538982
  0
MTEXT
  5
3E8
330
1F
100
AcDbEntity
  8
Ech.1_5
 62
     4
420
    65535
100
AcDbMText
 10
3877.218445766373
 20
-9089.361630736748
 30
0.0
 40
13.75
 41
260.4709540425215
 46
0.0
 71
     3
 72
     1
  1
{\fArial|b0|i0;\W1.000000;\H13.750000;\c16711848;Ancrage dans la paroi support}\P{\fArial|b0|i0;\W1.000000;\H13.750000;\c16711848;Ø<16 mm}
 73
     1
 44
1.07999975538982
  0
MTEXT
  5
3E9
330
1F
100
AcDbEntity
  8
Ech.1_5
 62
     4
420
    65535
100
AcDbMText
 10
3877.218445766373
 20
-9007.017997539577
 30
0.0
 40
13.75
 41
260.4709540425215
 46
0.0
 71
     3
 72
     1
  1
{\fArial|b0|i0;\W1.000000;\H13.750000;\c16711848;jeu < 2mm}
 73
     1
 44
1.07999975538982
  0
MTEXT
  5
3EA
330
1F
100
AcDbEntity
  8
Ech.1_5
 62
     4
420
    65535
100
AcDbMText
 10
3877.21844576607
 20
-8925.344985747815
 30
0.0
 40
13.75
 41
307.4987576580329
 46
0.0
 71
     3
 72
     1
  1
{\fArial|b0|i0;\W1.000000;\H13.750000;\c16711848;Manchon ou manchette élastique en caoutchouc EPDM - diamètre fonction de l'ancrage}
 73
     1
 44
1.07999975538982
  0
MTEXT
  5
3EB
330
1F
100
AcDbEntity
  8
Ech.1_5
 62
     4
420
    65535
100
AcDbMText
 10
3877.218445766373
 20
-9161.204650000633
 30
0.0
 40
13.75
 41
265.4705079197888
 46
0.0
 71
     3
 72
     1
  1
{\fArial|b0|i0;\W1.000000;\H13.750000;\c16711848;Tasseaux à prévoir de part et d'autre du percement pour fixation des lames de bardage}
 73
     1
 44
1.07999975538982
  0
MTEXT
  5
3EC
330
1F
100
AcDbEntity
  8
Ech.1_5
 62
   200
420
 11010303
100
AcDbMText
 10
4046.417814353684
 20
-8430.012248640422
 30
0.0
 40
15.0
 41
970.0000000000045
 46
0.0
 71
     2
 72
     1
  1
{\fArial|b1|i0;\W1.000000;\H15.000000;\c16711848;BARDAGES EN LAMES : lames à emboitement - pose verticale (épaisseur 20-22 mm)}
 73
     1
 44
1.07999975538982
1001
ACAD
1000
ACAD_MTEXT_TEXT_BORDERS_BEGIN
1070
    80
1070
    16
1070
    46
1040
1.5
1070
    81
1070
     1
1070
     5
1005
40A
1000
ACAD_MTEXT_TEXT_BORDERS_END
  0
TEXT
  5
3EE
330
1F
100
AcDbEntity
  8
Ech.1_5
 62
   190
100
AcDbText
 10
3605.739945055975
 20
-9655.780075925075
 30
0.0
 40
12.5
  1
15/10/2020
  7
arial-
100
AcDbText
  0
TEXT
  5
3EF
330
1F
100
AcDbEntity
  8
Ech.1_5
 62
   190
100
AcDbText
 10
3912.722608665214
 20
-8478.145716431125
 30
0.0
 40
16.5
  1
avec exigences feu façade
  7
arial-
100
AcDbText
  0
TEXT
  5
3F1
330
1F
100
AcDbEntity
  8
Ech.1_5
 62
   154
420
    21156
100
AcDbText
 10
4392.525921942761
 20
-8580.643275473252
 30
0.0
 40
15.0
  1
m
 50
8.97565990439374
 41
0.8
  7
tahoma-b
100
AcDbText
  0
TEXT
  5
3F2
330
1F
100
AcDbEntity
  8
Ech.1_5
 62
   154
420
    21156
100
AcDbText
 10
4375.397225898932
 20
-8586.261267328424
 30
0.0
 40
15.0
  1
C
 50
20.66888961044324
 41
0.8
  7
tahoma-b
100
AcDbText
  0
TEXT
  5
3F3
330
1F
100
AcDbEntity
  8
Ech.1_5
 62
   154
420
    21156
100
AcDbText
 10
4384.278198561697
 20
-8582.910936987577
 30
0.0
 40
15.0
  1
o
 50
15.37326472327513
 41
0.8
  7
tahoma-b
100
AcDbText
  0
TEXT
  5
3F4
330
1F
100
AcDbEntity
  8
Ech.1_5
 62
   154
420
    21156
100
AcDbText
 10
4405.605778156923
 20
-8578.577325289712
 30
0.0
 40
15.0
  1
p
 50
2.54744455369725
 41
0.7999999999999999
  7
tahoma-b
100
AcDbText
  0
TEXT
  5
3F5
330
1F
100
AcDbEntity
  8
Ech.1_5
 62
   154
420
    21156
100
AcDbText
 10
4414.255252887993
 20
-8578.19250483701
 30
0.0
 40
15.0
  1
a
 50
357.5885357786794
 41
0.7999999999999999
  7
tahoma-b
100
AcDbText
  0
TEXT
  5
3F6
330
1F
100
AcDbEntity
  8
Ech.1_5
 62
   154
420
    21156
100
AcDbText
 10
4422.488985616883
 20
-8578.539250867558
 30
0.0
 40
15.0
  1
t
 50
353.6091644148265
 41
0.8
  7
tahoma-b
100
AcDbText
  0
TEXT
  5
3F7
330
1F
100
AcDbEntity
  8
Ech.1_5
 62
   154
420
    21156
100
AcDbText
 10
4427.776999731395
 20
-8579.13154024702
 30
0.0
 40
15.0
  1
i
 50
350.9766571715704
 41
0.8
  7
tahoma-b
100
AcDbText
  0
TEXT
  5
3F8
330
1F
100
AcDbEntity
  8
Ech.1_5
 62
   154
420
    21156
100
AcDbText
 10
4431.383765958293
 20
-8579.704302285903
 30
0.0
 40
15.0
  1
b
 50
347.3646125172274
 41
0.7999999999999999
  7
tahoma-b
100
AcDbText
  0
TEXT
  5
3F9
330
1F
100
AcDbEntity
  8
Ech.1_5
 62
   154
420
    21156
100
AcDbText
 10
4439.832115366167
 20
-8581.5982115199
 30
0.0
 40
15.0
  1
l
 50
343.752567862825
 41
0.7999999999999999
  7
tahoma-b
100
AcDbText
  0
TEXT
  5
3FA
330
1F
100
AcDbEntity
  8
Ech.1_5
 62
   154
420
    21156
100
AcDbText
 10
4443.338225765943
 20
-8582.619979024388
 30
0.0
 40
15.0
  1
e
 50
340.2629653356145
 41
0.8
  7
tahoma-b
100
AcDbText
  0
TEXT
  5
3FB
330
1F
100
AcDbEntity
  8
Ech.1_5
 62
   154
420
    21156
100
AcDbText
 10
4360.233401940714
 20
-8711.264457902755
 30
0.0
 40
15.0
  1
s
 50
329.3124952401201
 41
0.8
  7
tahoma-b
100
AcDbText
  0
TEXT
  5
3FC
330
1F
100
AcDbEntity
  8
Ech.1_5
 62
   154
420
    21156
100
AcDbText
 10
4367.23076363964
 20
-8715.417123513442
 30
0.0
 40
15.0
  1
u
 50
334.6276163794146
 41
0.8000000000000002
  7
tahoma-b
100
AcDbText
  0
TEXT
  5
3FD
330
1F
100
AcDbEntity
  8
Ech.1_5
 62
   154
420
    21156
100
AcDbText
 10
4376.372149756726
 20
-8719.75237445406
 30
0.0
 40
15.0
  1
r
 50
339.5478999136904
 41
0.7999999999999999
  7
tahoma-b
100
AcDbText
  0
TEXT
  5
3FE
330
1F
100
AcDbEntity
  8
Ech.1_5
 62
   154
420
    21156
100
AcDbText
 10
4386.544453816146
 20
-8723.312240294501
 30
0.0
 40
15.0
  1
p
 50
346.7359685598499
 41
0.8000000000000002
  7
tahoma-b
100
AcDbText
  0
TEXT
  5
3FF
330
1F
100
AcDbEntity
  8
Ech.1_5
 62
   154
420
    21156
100
AcDbText
 10
4396.188970272302
 20
-8725.585715458321
 30
0.0
 40
15.0
  1
a
 50
352.3548109071116
 41
0.7999999999999999
  7
tahoma-b
100
AcDbText
  0
TEXT
  5
400
330
1F
100
AcDbEntity
  8
Ech.1_5
 62
   154
420
    21156
100
AcDbText
 10
4405.493263976323
 20
-8726.83464300822
 30
0.0
 40
15.0
  1
r
 50
357.0624896304997
 41
0.8
  7
tahoma-b
100
AcDbText
  0
TEXT
  5
401
330
1F
100
AcDbEntity
  8
Ech.1_5
 62
   154
420
    21156
100
AcDbText
 10
4412.265620166057
 20
-8727.182161021155
 30
0.0
 40
15.0
  1
o
 50
1.86128475093792
 41
0.8
  7
tahoma-b
100
AcDbText
  0
TEXT
  5
402
330
1F
100
AcDbEntity
  8
Ech.1_5
 62
   154
420
    21156
100
AcDbText
 10
4421.960919619552
 20
-8726.867093073604
 30
0.0
 40
15.0
  1
i
 50
6.083009645690649
 41
0.8
  7
tahoma-b
100
AcDbText
  0
TEXT
  5
403
330
1F
100
AcDbEntity
  8
Ech.1_5
 62
   154
420
    21156
100
AcDbText
 10
4430.687708824915
 20
-8725.757327134765
 30
0.0
 40
15.0
  1
b
 50
12.69400806611987
 41
0.7999999999999999
  7
tahoma-b
100
AcDbText
  0
TEXT
  5
404
330
1F
100
AcDbEntity
  8
Ech.1_5
 62
   154
420
    21156
100
AcDbText
 10
4440.354365927788
 20
-8723.57991411721
 30
0.0
 40
15.0
  1
o
 50
18.40396681045067
 41
0.7999999999999998
  7
tahoma-b
100
AcDbText
  0
TEXT
  5
405
330
1F
100
AcDbEntity
  8
Ech.1_5
 62
   154
420
    21156
100
AcDbText
 10
4449.558647367139
 20
-8720.517349425696
 30
0.0
 40
15.0
  1
i
 50
22.62569170521065
 41
0.8
  7
tahoma-b
100
AcDbText
  0
TEXT
  5
406
330
1F
100
AcDbEntity
  8
Ech.1_5
 62
   154
420
    21156
100
AcDbText
 10
4453.988789951098
 20
-8718.67092791506
 30
0.0
 40
15.0
  1
s
 50
26.39183478797387
 41
0.8
  7
tahoma-b
100
AcDbText
  0
TEXT
  5
407
330
1F
100
AcDbEntity
  8
Ech.1_5
 62
   154
420
    21156
100
AcDbText
 10
4389.659490273843
 20
-8689.117049869546
 30
0.0
 40
25.0
  1
E
 50
345.2222144971008
 41
0.8000000000000002
  7
tahoma-b
100
AcDbText
  0
TEXT
  5
408
330
1F
100
AcDbEntity
  8
Ech.1_5
 62
   154
420
    21156
100
AcDbText
 10
4405.258142761253
 20
-8693.231922258252
 30
0.0
 40
25.0
  1
e
 50
359.2406769519227
 41
0.8
  7
tahoma-b
100
AcDbText
  0
TEXT
  5
409
330
1F
100
AcDbEntity
  8
Ech.1_5
 62
   154
420
    21156
100
AcDbText
 10
4420.871201381018
 20
-8693.43884935615
 30
0.0
 40
25.0
  1
2
 50
13.48894999980801
 41
0.8
  7
tahoma-b
100
AcDbText
  0
LWPOLYLINE
  5
40A
330
1F
100
AcDbEntity
  8
Ech.1_5
 62
   200
420
 11010303
100
AcDbPolyline
 90
        4
 70
     1
 43
0.0
 10
3553.917814353682
 20
-8422.512248640422
 10
4538.917814353686
 20
-8422.512248640422
 10
4538.917814353686
 20
-8457.252248640421
 10
3553.917814353682
 20
-8457.252248640421
  0
VIEWPORT
  5
233
330
22D
100
AcDbEntity
 67
     1
  8
0
100
AcDbViewport
 10
98.79999999999991
 20
135.8
 30
0.0
 40
209.0607999999998
 41
287.3528000000001
 68
     1
 69
     1
 12
128.5
 22
97.5
 13
0.0
 23
0.0
 14
10.0
 24
10.0
 15
10.0
 25
10.0
 16
0.0
 26
0.0
 36
1.0
 17
0.0
 27
0.0
 37
0.0
 42
50.0
 43
0.0
 44
0.0
 45
222.18
 50
0.0
 51
0.0
 72
   100
 90
   557152
  1

281
     0
 71
     1
 74
     0
110
0.0
120
0.0
130
0.0
111
1.0
121
0.0
131
0.0
112
0.0
122
1.0
132
0.0
 79
     0
146
0.0
170
     0
 61
     5
348
2F
292
     1
282
     1
141
0.0
142
0.0
 63
   256
361
234
  0
VIEWPORT
  5
235
330
22D
100
AcDbEntity
 67
     1
  8
0
 60
     1
100
AcDbViewport
 10
98.79999999999991
 20
135.8
 30
0.0
 40
197.5999999999998
 41
271.6
 68
     2
 69
     2
 12
4046.417814353681
 22
-9100.012248640422
 13
0.0
 23
0.0
 14
10.0
 24
10.0
 15
10.0
 25
10.0
 16
0.0
 26
0.0
 36
1.0
 17
0.0
 27
0.0
 37
0.0
 42
50.0
 43
0.0
 44
0.0
 45
1358.0
 50
0.0
 51
0.0
 72
   100
 90
   557152
  1

281
     0
 71
     1
 74
     0
110
0.0
120
0.0
130
0.0
111
1.0
121
0.0
131
0.0
112
0.0
122
1.0
132
0.0
 79
     0
146
0.0
170
     0
 61
     5
348
2F
292
     1
282
     1
141
0.0
142
0.0
 63
   256
  0
ENDSEC
  0
SECTION
  2
OBJECTS
  0
DICTIONARY
  5
C
330
0
100
AcDbDictionary
281
     1
  3
ACAD_DETAILVIEWSTYLE
350
412
  3
ACAD_GROUP
350
D
  3
ACAD_IMAGE_DICT
350
242
  3
ACAD_IMAGE_VARS
350
6F
  3
ACAD_LAYOUT
350
1A
  3
ACAD_MATERIAL
350
43
  3
ACAD_MLEADERSTYLE
350
6B
  3
ACAD_MLINESTYLE
350
17
  3
ACAD_PLOTSETTINGS
350
19
  3
ACAD_PLOTSTYLENAME
350
E
  3
ACAD_SCALELIST
350
47
  3
ACAD_SECTIONVIEWSTYLE
350
413
  3
ACAD_TABLESTYLE
350
69
  3
ACAD_VISUALSTYLE
350
2A
  3
ACDB_RECOMPOSE_DATA
350
40F
  3
AcDbVariableDictionary
350
40B
  0
SUN
  5
6D
330
29
100
AcDbSun
 90
        1
290
     0
 63
     7
421
 16777215
 40
1.0
291
     1
 91
  2455826
 92
 54000000
292
     0
 70
     2
 71
   256
280
     1
  0
IMAGEDEF_REACTOR
  5
245
330
244
100
AcDbRasterImageDefReactor
 90
        2
330
244
  0
IMAGEDEF_REACTOR
  5
248
330
247
100
AcDbRasterImageDefReactor
 90
        2
330
247
  0
IMAGEDEF_REACTOR
  5
24B
330
24A
100
AcDbRasterImageDefReactor
 90
        2
330
24A
  0
SUN
  5
234
330
233
100
AcDbSun
 90
        1
290
     0
 63
     7
421
 16777215
 40
1.0
291
     1
 91
  2455826
 92
 54000000
292
     0
 70
     2
 71
   256
280
     1
  0
DICTIONARY
  5
412
102
{ACAD_REACTORS
330
C
102
}
330
C
100
AcDbDictionary
281
     1
  0
DICTIONARY
  5
D
102
{ACAD_REACTORS
330
C
102
}
330
C
100
AcDbDictionary
281
     1
  0
DICTIONARY
  5
242
102
{ACAD_REACTORS
330
C
102
}
330
C
100
AcDbDictionary
281
     1
  3
C:\Users\MAIFFR~1\AppData\Local\Temp\EXE_LOGO_FBF_soutien_Q_L.jpg1
350
246
  3
C:\Users\MAIFFR~1\AppData\Local\Temp\fcba.jpg0
350
243
  3
C:\Users\MAIFFR~1\AppData\Local\Temp\logo_codifab_baseline_soutien.jpg2
350
249
  0
RASTERVARIABLES
  5
6F
102
{ACAD_REACTORS
330
C
102
}
330
C
100
AcDbRasterVariables
 90
        0
 70
     0
 71
     1
 72
     1
  0
DICTIONARY
  5
1A
102
{ACAD_REACTORS
330
C
102
}
330
C
100
AcDbDictionary
281
     1
  3
CompleteLayout
350
1E
  3
Model
350
22
  3
PrintFrame_95
350
22E
  0
DICTIONARY
  5
43
102
{ACAD_REACTORS
330
C
102
}
330
C
100
AcDbDictionary
281
     1
  3
ByBlock
350
45
  3
ByLayer
350
44
  3
Global
350
46
  0
DICTIONARY
  5
6B
102
{ACAD_REACTORS
330
C
102
}
330
C
100
AcDbDictionary
281
     1
  3
Standard
350
6C
  0
DICTIONARY
  5
17
102
{ACAD_REACTORS
330
C
102
}
330
C
100
AcDbDictionary
281
     1
  3
Standard
350
18
  0
DICTIONARY
  5
19
102
{ACAD_REACTORS
330
C
102
}
330
C
100
AcDbDictionary
281
     1
  3
PlotSettings_
350
231
  0
ACDBDICTIONARYWDFLT
  5
E
102
{ACAD_REACTORS
330
C
102
}
330
C
100
AcDbDictionary
281
     1
  3
Normal
350
F
100
AcDbDictionaryWithDefault
340
F
  0
DICTIONARY
  5
47
102
{ACAD_REACTORS
330
C
102
}
330
C
100
AcDbDictionary
281
     1
  3
A0
350
48
  3
A1
350
49
  3
A2
350
4A
  3
A3
350
4B
  3
A4
350
4C
  3
A5
350
4D
  3
A6
350
4E
  3
A7
350
4F
  3
A8
350
50
  3
A9
350
51
  3
B0
350
52
  3
B1
350
53
  3
B2
350
54
  3
B3
350
55
  3
B4
350
56
  3
B5
350
57
  3
B6
350
58
  3
B7
350
59
  3
B8
350
5A
  3
B9
350
5B
  3
C0
350
5C
  3
C1
350
5D
  3
C2
350
5E
  3
C3
350
5F
  3
C4
350
60
  3
C5
350
61
  3
C6
350
62
  3
C7
350
63
  3
C8
350
64
  3
C9
350
65
  3
D0
350
66
  3
D1
350
67
  3
D2
350
68
  0
DICTIONARY
  5
413
102
{ACAD_REACTORS
330
C
102
}
330
C
100
AcDbDictionary
281
     1
  0
DICTIONARY
  5
69
102
{ACAD_REACTORS
330
C
102
}
330
C
100
AcDbDictionary
281
     1
  3
Standard
350
6A
  0
DICTIONARY
  5
2A
102
{ACAD_REACTORS
330
C
102
}
330
C
100
AcDbDictionary
281
     1
  3
2dWireframe
350
2F
  3
Basic
350
32
  3
Brighten
350
36
  3
ColorChange
350
3A
  3
Conceptual
350
34
  3
Dim
350
35
  3
EdgeColorOff
350
3D
  3
Facepattern
350
39
  3
Flat
350
2B
  3
FlatWithEdges
350
2C
  3
Gouraud
350
2D
  3
GouraudWithEdges
350
2E
  3
Hidden
350
31
  3
JitterOff
350
3B
  3
Linepattern
350
38
  3
OverhangOff
350
3C
  3
Realistic
350
33
  3
Shaded
350
42
  3
Shaded with edges
350
41
  3
Shades of Gray
350
3E
  3
Sketchy
350
3F
  3
Thicken
350
37
  3
Wireframe
350
30
  3
X-Ray
350
40
  0
XRECORD
  5
40F
102
{ACAD_REACTORS
330
C
102
}
330
C
100
AcDbXrecord
280
     1
 90
        1
330
6A
  0
DICTIONARY
  5
40B
102
{ACAD_REACTORS
330
C
102
}
330
C
100
AcDbDictionary
281
     1
  3
CANNOSCALE
350
40C
  3
CMLEADERSTYLE
350
411
  3
CTABLESTYLE
350
410
  3
WIPEOUTFRAME
350
414
  0
IMAGEDEF
  5
246
102
{ACAD_REACTORS
330
242
330
248
102
}
330
242
100
AcDbRasterImageDef
 90
        0
  1
EXE_LOGO_FBF_soutien_Q_L.jpg
 10
200.0
 20
133.0
 11
0.3527336860670194
 21
0.3527336860670194
280
     1
281
     3
  0
IMAGEDEF
  5
243
102
{ACAD_REACTORS
330
242
330
245
102
}
330
242
100
AcDbRasterImageDef
 90
        0
  1
fcba.jpg
 10
247.0
 20
171.0
 11
0.3527336860670194
 21
0.3527336860670194
280
     1
281
     3
  0
IMAGEDEF
  5
249
102
{ACAD_REACTORS
330
242
330
24B
102
}
330
242
100
AcDbRasterImageDef
 90
        0
  1
logo_codifab_baseline_soutien.jpg
 10
1326.0
 20
580.0
 11
0.08466683600033867
 21
0.08466683600033867
280
     1
281
     3
  0
LAYOUT
  5
1E
102
{ACAD_REACTORS
330
1A
102
}
330
1A
100
AcDbPlotSettings
  1

  2
none_device
  4

  6

 40
0.0
 41
0.0
 42
0.0
 43
0.0
 44
0.0
 45
0.0
 46
0.0
 47
0.0
 48
0.0
 49
0.0
140
0.0
141
0.0
142
1.0
143
1.0
 70
   688
 72
     0
 73
     0
 74
     5
  7

 75
    16
 76
     0
 77
     2
 78
   300
147
1.0
148
0.0
149
0.0
100
AcDbLayout
  1
CompleteLayout
 70
     1
 71
     1
 10
0.0
 20
0.0
 11
12.0
 21
9.0
 12
0.0
 22
0.0
 32
0.0
 14
1.000000000000000E+20
 24
1.000000000000000E+20
 34
1.000000000000000E+20
 15
-1.000000000000000E+20
 25
-1.000000000000000E+20
 35
-1.000000000000000E+20
146
0.0
 13
0.0
 23
0.0
 33
0.0
 16
1.0
 26
0.0
 36
0.0
 17
0.0
 27
1.0
 37
0.0
 76
     0
330
1B
  0
LAYOUT
  5
22
102
{ACAD_REACTORS
330
1A
102
}
330
1A
100
AcDbPlotSettings
  1

  2
none_device
  4
Letter_(8.50_x_11.00_Inches)
  6

 40
6.35
 41
6.35
 42
6.35000508
 43
6.35000508
 44
215.9
 45
279.4
 46
0.0
 47
0.0
 48
0.0
 49
0.0
140
0.0
141
0.0
142
1.0
143
1.0
 70
  1712
 72
     0
 73
     0
 74
     0
  7

 75
     0
 76
     0
 77
     2
 78
   300
147
1.0
148
0.0
149
0.0
100
AcDbLayout
  1
Model
 70
     1
 71
     0
 10
0.0
 20
0.0
 11
12.0
 21
9.0
 12
0.0
 22
0.0
 32
0.0
 14
3553.917814353682
 24
-9777.512248640422
 34
0.0
 15
4538.91781435369
 25
-8422.512248640422
 35
0.0
146
0.0
 13
0.0
 23
0.0
 33
0.0
 16
1.0
 26
0.0
 36
0.0
 17
0.0
 27
1.0
 37
0.0
 76
     0
330
1F
331
29
  0
LAYOUT
  5
22E
102
{ACAD_REACTORS
330
1A
102
}
330
1A
100
AcDbPlotSettings
  1
PlotSettings_
  2
Custom Device
  4
Custom_210.000000x297.000000_12.700000_12.700000_6.200000_6.200000
  6

 40
6.2
 41
12.7
 42
6.2
 43
12.7
 44
209.9999999999998
 45
297.0
 46
0.0
 47
0.0
 48
0.0
 49
0.0
140
0.0
141
0.0
142
1.0
143
1.0
 70
   752
 72
     1
 73
     0
 74
     5
  7

 75
    16
 76
     0
 77
     2
 78
   300
147
1.0
148
0.0
149
0.0
100
AcDbLayout
  1
PrintFrame_95
 70
     0
 71
     2
 10
-20.0
 20
-7.5
 11
277.0
 21
202.5
 12
0.0
 22
0.0
 32
0.0
 14
0.0
 24
0.0
 34
0.0
 15
197.5999999999998
 25
271.6
 35
0.0
146
0.0
 13
0.0
 23
0.0
 33
0.0
 16
1.0
 26
0.0
 36
0.0
 17
0.0
 27
1.0
 37
0.0
 76
     0
330
22D
331
233
1001
PLOTTRANSPARENCY
1071
        1
1000
layout-user-created
1070
     1
1000
layout-line-weight-scale
1042
1.0
  0
MATERIAL
  5
45
102
{ACAD_REACTORS
330
43
102
}
330
43
100
AcDbMaterial
  1
ByBlock
 72
     1
 94
      127
  0
MATERIAL
  5
44
102
{ACAD_REACTORS
330
43
102
}
330
43
100
AcDbMaterial
  1
ByLayer
 72
     1
 94
      127
  0
MATERIAL
  5
46
102
{ACAD_REACTORS
330
43
102
}
330
43
100
AcDbMaterial
  1
Global
 72
     1
 94
      127
  0
MLEADERSTYLE
  5
6C
102
{ACAD_REACTORS
330
6B
102
}
330
6B
100
AcDbMLeaderStyle
179
     2
170
     2
171
     1
172
     0
 90
        2
 40
0.0
 41
0.0
173
     1
 91
-1056964608
340
14
 92
       -2
290
     1
 42
0.09
291
     1
 43
0.36
  3
Standard
341
0
 44
0.18
300

342
11
174
     1
178
     6
175
     1
176
     0
 93
-1056964608
 45
0.18
292
     0
297
     0
 46
0.18
343
0
 94
-1056964608
 47
1.0
 49
1.0
140
1.0
293
     1
141
0.0
294
     1
177
     0
142
1.0
295
     0
296
     0
143
0.125
271
     0
272
     9
273
     9
298
     0
  0
MLINESTYLE
  5
18
102
{ACAD_REACTORS
330
17
102
}
330
17
100
AcDbMlineStyle
  2
Standard
 70
     0
  3

 62
   256
 51
90.0
 52
90.0
 71
     2
 49
0.5
 62
   256
  6
BYLAYER
 49
-0.5
 62
   256
  6
BYLAYER
  0
PLOTSETTINGS
  5
231
102
{ACAD_REACTORS
330
19
102
}
330
19
100
AcDbPlotSettings
  1
PlotSettings_
  2
Custom Device
  4
Custom_210.000000x297.000000_12.700000_12.700000_6.200000_6.200000
  6

 40
6.2
 41
12.7
 42
6.2
 43
12.7
 44
209.9999999999998
 45
297.0
 46
0.0
 47
0.0
 48
0.0
 49
0.0
140
0.0
141
0.0
142
1.0
143
1.0
 70
   752
 72
     1
 73
     0
 74
     5
  7

 75
    16
 76
     0
 77
     2
 78
   300
147
1.0
148
0.0
149
0.0
1001
PLOTTRANSPARENCY
1071
        1
1000
layout-user-created
1070
     1
1000
layout-line-weight-scale
1042
1.0
  0
ACDBPLACEHOLDER
  5
F
102
{ACAD_REACTORS
330
E
102
}
330
E
  0
SCALE
  5
48
102
{ACAD_REACTORS
330
47
102
}
330
47
100
AcDbScale
 70
     0
300
1:1
140
1.0
141
1.0
290
     1
  0
SCALE
  5
49
102
{ACAD_REACTORS
330
47
102
}
330
47
100
AcDbScale
 70
     0
300
1:2
140
1.0
141
2.0
290
     0
  0
SCALE
  5
4A
102
{ACAD_REACTORS
330
47
102
}
330
47
100
AcDbScale
 70
     0
300
1:4
140
1.0
141
4.0
290
     0
  0
SCALE
  5
4B
102
{ACAD_REACTORS
330
47
102
}
330
47
100
AcDbScale
 70
     0
300
1:5
140
1.0
141
5.0
290
     0
  0
SCALE
  5
4C
102
{ACAD_REACTORS
330
47
102
}
330
47
100
AcDbScale
 70
     0
300
1:8
140
1.0
141
8.0
290
     0
  0
SCALE
  5
4D
102
{ACAD_REACTORS
330
47
102
}
330
47
100
AcDbScale
 70
     0
300
1:10
140
1.0
141
10.0
290
     0
  0
SCALE
  5
4E
102
{ACAD_REACTORS
330
47
102
}
330
47
100
AcDbScale
 70
     0
300
1:16
140
1.0
141
16.0
290
     0
  0
SCALE
  5
4F
102
{ACAD_REACTORS
330
47
102
}
330
47
100
AcDbScale
 70
     0
300
1:20
140
1.0
141
20.0
290
     0
  0
SCALE
  5
50
102
{ACAD_REACTORS
330
47
102
}
330
47
100
AcDbScale
 70
     0
300
1:30
140
1.0
141
30.0
290
     0
  0
SCALE
  5
51
102
{ACAD_REACTORS
330
47
102
}
330
47
100
AcDbScale
 70
     0
300
1:40
140
1.0
141
40.0
290
     0
  0
SCALE
  5
52
102
{ACAD_REACTORS
330
47
102
}
330
47
100
AcDbScale
 70
     0
300
1:50
140
1.0
141
50.0
290
     0
  0
SCALE
  5
53
102
{ACAD_REACTORS
330
47
102
}
330
47
100
AcDbScale
 70
     0
300
1:100
140
1.0
141
100.0
290
     0
  0
SCALE
  5
54
102
{ACAD_REACTORS
330
47
102
}
330
47
100
AcDbScale
 70
     0
300
2:1
140
2.0
141
1.0
290
     0
  0
SCALE
  5
55
102
{ACAD_REACTORS
330
47
102
}
330
47
100
AcDbScale
 70
     0
300
4:1
140
4.0
141
1.0
290
     0
  0
SCALE
  5
56
102
{ACAD_REACTORS
330
47
102
}
330
47
100
AcDbScale
 70
     0
300
8:1
140
8.0
141
1.0
290
     0
  0
SCALE
  5
57
102
{ACAD_REACTORS
330
47
102
}
330
47
100
AcDbScale
 70
     0
300
10:1
140
10.0
141
1.0
290
     0
  0
SCALE
  5
58
102
{ACAD_REACTORS
330
47
102
}
330
47
100
AcDbScale
 70
     0
300
100:1
140
100.0
141
1.0
290
     0
  0
SCALE
  5
59
102
{ACAD_REACTORS
330
47
102
}
330
47
100
AcDbScale
 70
     0
300
1/128" = 1'-0"
140
0.0078125
141
12.0
290
     0
  0
SCALE
  5
5A
102
{ACAD_REACTORS
330
47
102
}
330
47
100
AcDbScale
 70
     0
300
1/64" = 1'-0"
140
0.015625
141
12.0
290
     0
  0
SCALE
  5
5B
102
{ACAD_REACTORS
330
47
102
}
330
47
100
AcDbScale
 70
     0
300
1/32" = 1'-0"
140
0.03125
141
12.0
290
     0
  0
SCALE
  5
5C
102
{ACAD_REACTORS
330
47
102
}
330
47
100
AcDbScale
 70
     0
300
1/16" = 1'-0"
140
0.0625
141
12.0
290
     0
  0
SCALE
  5
5D
102
{ACAD_REACTORS
330
47
102
}
330
47
100
AcDbScale
 70
     0
300
3/32" = 1'-0"
140
0.09375
141
12.0
290
     0
  0
SCALE
  5
5E
102
{ACAD_REACTORS
330
47
102
}
330
47
100
AcDbScale
 70
     0
300
1/8" = 1'-0"
140
0.125
141
12.0
290
     0
  0
SCALE
  5
5F
102
{ACAD_REACTORS
330
47
102
}
330
47
100
AcDbScale
 70
     0
300
3/16" = 1'-0"
140
0.1875
141
12.0
290
     0
  0
SCALE
  5
60
102
{ACAD_REACTORS
330
47
102
}
330
47
100
AcDbScale
 70
     0
300
1/4" = 1'-0"
140
0.25
141
12.0
290
     0
  0
SCALE
  5
61
102
{ACAD_REACTORS
330
47
102
}
330
47
100
AcDbScale
 70
     0
300
3/8" = 1'-0"
140
0.375
141
12.0
290
     0
  0
SCALE
  5
62
102
{ACAD_REACTORS
330
47
102
}
330
47
100
AcDbScale
 70
     0
300
1/2" = 1'-0"
140
0.5
141
12.0
290
     0
  0
SCALE
  5
63
102
{ACAD_REACTORS
330
47
102
}
330
47
100
AcDbScale
 70
     0
300
3/4" = 1'-0"
140
0.75
141
12.0
290
     0
  0
SCALE
  5
64
102
{ACAD_REACTORS
330
47
102
}
330
47
100
AcDbScale
 70
     0
300
1" = 1'-0"
140
1.0
141
12.0
290
     0
  0
SCALE
  5
65
102
{ACAD_REACTORS
330
47
102
}
330
47
100
AcDbScale
 70
     0
300
1-1/2" = 1'-0"
140
1.5
141
12.0
290
     0
  0
SCALE
  5
66
102
{ACAD_REACTORS
330
47
102
}
330
47
100
AcDbScale
 70
     0
300
3" = 1'-0"
140
3.0
141
12.0
290
     0
  0
SCALE
  5
67
102
{ACAD_REACTORS
330
47
102
}
330
47
100
AcDbScale
 70
     0
300
6" = 1'-0"
140
6.0
141
12.0
290
     0
  0
SCALE
  5
68
102
{ACAD_REACTORS
330
47
102
}
330
47
100
AcDbScale
 70
     0
300
1'-0" = 1'-0"
140
12.0
141
12.0
290
     0
  0
TABLESTYLE
  5
6A
102
{ACAD_REACTORS
330
69
102
}
102
{ACAD_XDICTIONARY
360
40D
102
}
330
69
100
AcDbTableStyle
  3
Standard
 70
     0
 71
     0
 40
0.06
 41
0.06
280
     0
281
     0
  7
Standard
140
0.18
170
     2
 62
     0
 63
   257
283
     0
 90
        4
 91
        0
  1

274
    -2
284
     1
 64
     0
275
    -2
285
     1
 65
     0
276
    -2
286
     1
 66
     0
277
    -2
287
     1
 67
     0
278
    -2
288
     1
 68
     0
279
    -2
289
     1
 69
     0
  7
Standard
140
0.25
170
     5
 62
     0
 63
   257
283
     0
 90
        4
 91
        0
  1

274
    -2
284
     1
 64
     0
275
    -2
285
     1
 65
     0
276
    -2
286
     1
 66
     0
277
    -2
287
     1
 67
     0
278
    -2
288
     1
 68
     0
279
    -2
289
     1
 69
     0
  7
Standard
140
0.18
170
     5
 62
     0
 63
   257
283
     0
 90
        4
 91
        0
  1

274
    -2
284
     1
 64
     0
275
    -2
285
     1
 65
     0
276
    -2
286
     1
 66
     0
277
    -2
287
     1
 67
     0
278
    -2
288
     1
 68
     0
279
    -2
289
     1
 69
     0
  0
VISUALSTYLE
  5
2F
102
{ACAD_REACTORS
330
2A
102
}
330
2A
100
AcDbVisualStyle
  2
2dWireframe
 70
     4
177
     3
291
     0
 70
    58
 90
        0
176
     1
 90
        2
176
     1
 90
        0
176
     1
 90
        0
176
     1
 40
0.6
176
     1
 40
30.0
176
     1
 62
     7
420
 16777215
176
     1
 90
        1
176
     1
 90
        4
176
     1
 62
     7
176
     1
 62
   257
176
     1
 90
        1
176
     1
 90
        1
176
     1
 40
1.0
176
     1
 90
        0
176
     1
 62
   257
176
     1
 40
1.0
176
     1
 90
        1
176
     1
 90
        6
176
     1
 90
        2
176
     1
 62
     7
176
     1
 90
        5
176
     1
 90
        0
176
     1
 90
        0
176
     1
290
     0
176
     1
 90
        1
176
     1
 40
0.0
176
     1
 90
        0
176
     1
290
     1
176
     1
290
     1
176
     1
290
     0
176
     1
290
     0
176
     1
290
     0
176
     1
290
     0
176
     1
290
     0
176
     1
290
     0
176
     1
290
     0
176
     1
 90
       50
176
     1
 40
0.0
176
     1
 40
1.0
176
     1
 90
        0
176
     1
 62
    18
420
        0
176
     1
 90
       50
176
     1
 90
        3
176
     1
 62
     5
420
      255
176
     1
290
     0
176
     1
 90
       50
176
     1
 90
       50
176
     1
 90
       50
176
     1
290
     0
176
     1
 90
       50
176
     1
 62
   256
176
     0
 40
1.0
176
     0
 90
        2
176
     1
  1
strokes_ogs.tif
176
     1
290
     0
176
     1
 40
1.0
176
     1
 40
1.0
176
     1
  0
VISUALSTYLE
  5
32
102
{ACAD_REACTORS
330
2A
102
}
330
2A
100
AcDbVisualStyle
  2
Basic
 70
     7
177
     3
291
     1
 70
    58
 90
        1
176
     1
 90
        0
176
     1
 90
        1
176
     1
 90
        0
176
     1
 40
0.6
176
     1
 40
30.0
176
     1
 62
     7
420
 16777215
176
     1
 90
        0
176
     1
 90
        4
176
     1
 62
     7
176
     1
 62
   257
176
     1
 90
        1
176
     1
 90
        1
176
     1
 40
1.0
176
     1
 90
        8
176
     1
 62
     7
176
     1
 40
1.0
176
     1
 90
        1
176
     1
 90
        6
176
     1
 90
        2
176
     1
 62
     7
176
     1
 90
        5
176
     1
 90
        0
176
     1
 90
        0
176
     1
290
     0
176
     1
 90
        1
176
     1
 40
0.0
176
     1
 90
        0
176
     1
290
     0
176
     1
290
     1
176
     1
290
     1
176
     1
290
     0
176
     1
290
     0
176
     1
290
     0
176
     1
290
     0
176
     1
290
     0
176
     1
290
     0
176
     1
 90
       50
176
     1
 40
0.0
176
     1
 40
1.0
176
     1
 90
        0
176
     1
 62
    18
420
        0
176
     1
 90
       50
176
     1
 90
        3
176
     1
 62
     5
420
      255
176
     1
290
     0
176
     1
 90
       50
176
     1
 90
       50
176
     1
 90
       50
176
     1
290
     0
176
     1
 90
       50
176
     1
 62
   256
176
     0
 40
1.0
176
     0
 90
        2
176
     1
  1
strokes_ogs.tif
176
     1
290
     0
176
     1
 40
1.0
176
     1
 40
1.0
176
     1
  0
VISUALSTYLE
  5
36
102
{ACAD_REACTORS
330
2A
102
}
330
2A
100
AcDbVisualStyle
  2
Brighten
 70
    12
177
     3
291
     1
 70
    58
 90
        2
176
     1
 90
        2
176
     1
 90
        0
176
     1
 90
        0
176
     1
 40
0.6
176
     1
 40
30.0
176
     1
 62
     7
420
 16777215
176
     1
 90
        1
176
     1
 90
        4
176
     1
 62
     7
176
     1
 62
   257
176
     1
 90
        1
176
     1
 90
        1
176
     1
 40
1.0
176
     1
 90
        8
176
     1
 62
     7
176
     1
 40
1.0
176
     1
 90
        1
176
     1
 90
        6
176
     1
 90
        2
176
     1
 62
     7
176
     1
 90
        5
176
     1
 90
        0
176
     1
 90
        0
176
     1
290
     0
176
     1
 90
        1
176
     1
 40
50.0
176
     1
 90
        0
176
     1
290
     0
176
     1
290
     1
176
     1
290
     1
176
     1
290
     0
176
     1
290
     0
176
     1
290
     0
176
     1
290
     0
176
     1
290
     0
176
     1
290
     0
176
     1
 90
       50
176
     1
 40
0.0
176
     1
 40
1.0
176
     1
 90
        0
176
     1
 62
    18
420
        0
176
     1
 90
       50
176
     1
 90
        3
176
     1
 62
     5
420
      255
176
     1
290
     0
176
     1
 90
       50
176
     1
 90
       50
176
     1
 90
       50
176
     1
290
     0
176
     1
 90
       50
176
     1
 62
   256
176
     0
 40
1.0
176
     0
 90
        2
176
     1
  1
strokes_ogs.tif
176
     1
290
     0
176
     1
 40
1.0
176
     1
 40
1.0
176
     1
  0
VISUALSTYLE
  5
3A
102
{ACAD_REACTORS
330
2A
102
}
330
2A
100
AcDbVisualStyle
  2
ColorChange
 70
    16
177
     3
291
     1
 70
    58
 90
        2
176
     1
 90
        2
176
     1
 90
        3
176
     1
 90
        0
176
     1
 40
0.6
176
     1
 40
30.0
176
     1
 62
     8
420
  8421504
176
     1
 90
        1
176
     1
 90
        4
176
     1
 62
     7
176
     1
 62
   257
176
     1
 90
        1
176
     1
 90
        1
176
     1
 40
1.0
176
     1
 90
        8
176
     1
 62
     8
420
  8421504
176
     1
 40
1.0
176
     1
 90
        1
176
     1
 90
        6
176
     1
 90
        2
176
     1
 62
     7
176
     1
 90
        5
176
     1
 90
        0
176
     1
 90
        0
176
     1
290
     0
176
     1
 90
        1
176
     1
 40
0.0
176
     1
 90
        0
176
     1
290
     0
176
     1
290
     1
176
     1
290
     1
176
     1
290
     0
176
     1
290
     0
176
     1
290
     0
176
     1
290
     0
176
     1
290
     0
176
     1
290
     0
176
     1
 90
       50
176
     1
 40
0.0
176
     1
 40
1.0
176
     1
 90
        0
176
     1
 62
    18
420
        0
176
     1
 90
       50
176
     1
 90
        3
176
     1
 62
     5
420
      255
176
     1
290
     0
176
     1
 90
       50
176
     1
 90
       50
176
     1
 90
       50
176
     1
290
     0
176
     1
 90
       50
176
     1
 62
   256
176
     0
 40
1.0
176
     0
 90
        2
176
     1
  1
strokes_ogs.tif
176
     1
290
     0
176
     1
 40
1.0
176
     1
 40
1.0
176
     1
  0
VISUALSTYLE
  5
34
102
{ACAD_REACTORS
330
2A
102
}
330
2A
100
AcDbVisualStyle
  2
Conceptual
 70
     9
177
     3
291
     0
 70
    58
 90
        3
176
     1
 90
        2
176
     1
 90
        0
176
     1
 90
        0
176
     1
 40
0.6
176
     1
 40
30.0
176
     1
 62
     7
420
 16777215
176
     1
 90
        2
176
     1
 90
        2
176
     1
 62
     7
176
     1
 62
   257
176
     1
 90
        1
176
     1
 90
        1
176
     1
 40
179.0
176
     1
 90
        8
176
     1
 62
     7
176
     1
 40
1.0
176
     1
 90
        1
176
     1
 90
        6
176
     1
 90
        2
176
     1
 62
     7
176
     1
 90
        3
176
     1
 90
        0
176
     1
 90
        0
176
     1
290
     0
176
     1
 90
        1
176
     1
 40
0.0
176
     1
 90
        0
176
     1
290
     0
176
     1
290
     1
176
     1
290
     1
176
     1
290
     0
176
     1
290
     0
176
     1
290
     0
176
     1
290
     0
176
     1
290
     0
176
     1
290
     0
176
     1
 90
       50
176
     1
 40
0.0
176
     1
 40
1.0
176
     1
 90
        0
176
     1
 62
    18
420
        0
176
     1
 90
       50
176
     1
 90
        3
176
     1
 62
     5
420
      255
176
     1
290
     0
176
     1
 90
       50
176
     1
 90
       50
176
     1
 90
       50
176
     1
290
     0
176
     1
 90
       50
176
     1
 62
   256
176
     0
 40
1.0
176
     0
 90
        2
176
     1
  1
strokes_ogs.tif
176
     1
290
     0
176
     1
 40
1.0
176
     1
 40
1.0
176
     1
  0
VISUALSTYLE
  5
35
102
{ACAD_REACTORS
330
2A
102
}
330
2A
100
AcDbVisualStyle
  2
Dim
 70
    11
177
     3
291
     1
 70
    58
 90
        2
176
     1
 90
        2
176
     1
 90
        0
176
     1
 90
        0
176
     1
 40
0.6
176
     1
 40
30.0
176
     1
 62
     7
420
 16777215
176
     1
 90
        1
176
     1
 90
        4
176
     1
 62
     7
176
     1
 62
   257
176
     1
 90
        1
176
     1
 90
        1
176
     1
 40
1.0
176
     1
 90
        8
176
     1
 62
     7
176
     1
 40
1.0
176
     1
 90
        1
176
     1
 90
        6
176
     1
 90
        2
176
     1
 62
     7
176
     1
 90
        5
176
     1
 90
        0
176
     1
 90
        0
176
     1
290
     0
176
     1
 90
        1
176
     1
 40
-50.0
176
     1
 90
        0
176
     1
290
     0
176
     1
290
     1
176
     1
290
     1
176
     1
290
     0
176
     1
290
     0
176
     1
290
     0
176
     1
290
     0
176
     1
290
     0
176
     1
290
     0
176
     1
 90
       50
176
     1
 40
0.0
176
     1
 40
1.0
176
     1
 90
        0
176
     1
 62
    18
420
        0
176
     1
 90
       50
176
     1
 90
        3
176
     1
 62
     5
420
      255
176
     1
290
     0
176
     1
 90
       50
176
     1
 90
       50
176
     1
 90
       50
176
     1
290
     0
176
     1
 90
       50
176
     1
 62
   256
176
     0
 40
1.0
176
     0
 90
        2
176
     1
  1
strokes_ogs.tif
176
     1
290
     0
176
     1
 40
1.0
176
     1
 40
1.0
176
     1
  0
VISUALSTYLE
  5
3D
102
{ACAD_REACTORS
330
2A
102
}
330
2A
100
AcDbVisualStyle
  2
EdgeColorOff
 70
    22
177
     3
291
     1
 70
    58
 90
        2
176
     0
 90
        2
176
     0
 90
        0
176
     0
 90
        0
176
     0
 40
0.6
176
     0
 40
30.0
176
     0
 62
     7
420
 16777215
176
     0
 90
        1
176
     0
 90
        4
176
     0
 62
     7
176
     0
 62
   257
176
     0
 90
        1
176
     0
 90
        1
176
     0
 40
1.0
176
     0
 90
        8
176
     2
 62
     7
176
     0
 40
1.0
176
     0
 90
        1
176
     0
 90
        6
176
     0
 90
        2
176
     0
 62
     7
176
     0
 90
        5
176
     0
 90
        0
176
     0
 90
        0
176
     0
290
     0
176
     0
 90
        1
176
     0
 40
0.0
176
     0
 90
        0
176
     0
290
     0
176
     0
290
     1
176
     0
290
     1
176
     0
290
     0
176
     0
290
     0
176
     0
290
     0
176
     0
290
     0
176
     0
290
     0
176
     0
290
     0
176
     0
 90
       50
176
     0
 40
0.0
176
     0
 40
1.0
176
     0
 90
        0
176
     0
 62
    18
420
        0
176
     0
 90
       50
176
     0
 90
        3
176
     0
 62
     5
420
      255
176
     0
290
     0
176
     0
 90
       50
176
     0
 90
       50
176
     0
 90
       50
176
     0
290
     0
176
     0
 90
       50
176
     0
 62
   256
176
     0
 40
1.0
176
     0
 90
        2
176
     0
  1
strokes_ogs.tif
176
     0
290
     0
176
     0
 40
1.0
176
     0
 40
1.0
176
     0
  0
VISUALSTYLE
  5
39
102
{ACAD_REACTORS
330
2A
102
}
330
2A
100
AcDbVisualStyle
  2
Facepattern
 70
    15
177
     3
291
     1
 70
    58
 90
        2
176
     1
 90
        2
176
     1
 90
        0
176
     1
 90
        0
176
     1
 40
0.6
176
     1
 40
30.0
176
     1
 62
     7
420
 16777215
176
     1
 90
        1
176
     1
 90
        4
176
     1
 62
     7
176
     1
 62
   257
176
     1
 90
        1
176
     1
 90
        1
176
     1
 40
1.0
176
     1
 90
        8
176
     1
 62
     7
176
     1
 40
1.0
176
     1
 90
        1
176
     1
 90
        6
176
     1
 90
        2
176
     1
 62
     7
176
     1
 90
        5
176
     1
 90
        0
176
     1
 90
        0
176
     1
290
     0
176
     1
 90
        1
176
     1
 40
0.0
176
     1
 90
        0
176
     1
290
     0
176
     1
290
     1
176
     1
290
     1
176
     1
290
     0
176
     1
290
     0
176
     1
290
     0
176
     1
290
     0
176
     1
290
     0
176
     1
290
     0
176
     1
 90
       50
176
     1
 40
0.0
176
     1
 40
1.0
176
     1
 90
        0
176
     1
 62
    18
420
        0
176
     1
 90
       50
176
     1
 90
        3
176
     1
 62
     5
420
      255
176
     1
290
     0
176
     1
 90
       50
176
     1
 90
       50
176
     1
 90
       50
176
     1
290
     0
176
     1
 90
       50
176
     1
 62
   256
176
     0
 40
1.0
176
     0
 90
        2
176
     1
  1
strokes_ogs.tif
176
     1
290
     0
176
     1
 40
1.0
176
     1
 40
1.0
176
     1
  0
VISUALSTYLE
  5
2B
102
{ACAD_REACTORS
330
2A
102
}
330
2A
100
AcDbVisualStyle
  2
Flat
 70
     0
177
     3
291
     1
 70
    58
 90
        2
176
     1
 90
        1
176
     1
 90
        1
176
     1
 90
        2
176
     1
 40
0.6
176
     1
 40
30.0
176
     1
 62
     7
420
 16777215
176
     1
 90
        0
176
     1
 90
        0
176
     1
 62
     7
176
     1
 62
   257
176
     1
 90
        1
176
     1
 90
        1
176
     1
 40
1.0
176
     1
 90
        8
176
     1
 62
     7
176
     1
 40
1.0
176
     1
 90
        1
176
     1
 90
        6
176
     1
 90
        2
176
     1
 62
     7
176
     1
 90
        5
176
     1
 90
        0
176
     1
 90
        0
176
     1
290
     0
176
     1
 90
       13
176
     1
 40
0.0
176
     1
 90
        0
176
     1
290
     0
176
     1
290
     1
176
     1
290
     1
176
     1
290
     0
176
     1
290
     0
176
     1
290
     0
176
     1
290
     0
176
     1
290
     0
176
     1
290
     0
176
     1
 90
       50
176
     1
 40
0.0
176
     1
 40
1.0
176
     1
 90
        0
176
     1
 62
    18
420
        0
176
     1
 90
       50
176
     1
 90
        3
176
     1
 62
     5
420
      255
176
     1
290
     0
176
     1
 90
       50
176
     1
 90
       50
176
     1
 90
       50
176
     1
290
     0
176
     1
 90
       50
176
     1
 62
   256
176
     0
 40
1.0
176
     0
 90
        2
176
     1
  1
strokes_ogs.tif
176
     1
290
     0
176
     1
 40
1.0
176
     1
 40
1.0
176
     1
  0
VISUALSTYLE
  5
2C
102
{ACAD_REACTORS
330
2A
102
}
330
2A
100
AcDbVisualStyle
  2
FlatWithEdges
 70
     1
177
     3
291
     1
 70
    58
 90
        2
176
     1
 90
        1
176
     1
 90
        1
176
     1
 90
        2
176
     1
 40
0.6
176
     1
 40
30.0
176
     1
 62
     7
420
 16777215
176
     1
 90
        1
176
     1
 90
        0
176
     1
 62
     7
176
     1
 62
   257
176
     1
 90
        1
176
     1
 90
        1
176
     1
 40
1.0
176
     1
 90
        0
176
     1
 62
   257
176
     1
 40
1.0
176
     1
 90
        1
176
     1
 90
        6
176
     1
 90
        2
176
     1
 62
     7
176
     1
 90
        5
176
     1
 90
        0
176
     1
 90
        0
176
     1
290
     0
176
     1
 90
       13
176
     1
 40
0.0
176
     1
 90
        0
176
     1
290
     0
176
     1
290
     1
176
     1
290
     1
176
     1
290
     0
176
     1
290
     0
176
     1
290
     0
176
     1
290
     0
176
     1
290
     0
176
     1
290
     0
176
     1
 90
       50
176
     1
 40
0.0
176
     1
 40
1.0
176
     1
 90
        0
176
     1
 62
    18
420
        0
176
     1
 90
       50
176
     1
 90
        3
176
     1
 62
     5
420
      255
176
     1
290
     0
176
     1
 90
       50
176
     1
 90
       50
176
     1
 90
       50
176
     1
290
     0
176
     1
 90
       50
176
     1
 62
   256
176
     0
 40
1.0
176
     0
 90
        2
176
     1
  1
strokes_ogs.tif
176
     1
290
     0
176
     1
 40
1.0
176
     1
 40
1.0
176
     1
  0
VISUALSTYLE
  5
2D
102
{ACAD_REACTORS
330
2A
102
}
330
2A
100
AcDbVisualStyle
  2
Gouraud
 70
     2
177
     3
291
     1
 70
    58
 90
        2
176
     1
 90
        2
176
     1
 90
        1
176
     1
 90
        2
176
     1
 40
0.6
176
     1
 40
30.0
176
     1
 62
     7
420
 16777215
176
     1
 90
        0
176
     1
 90
        0
176
     1
 62
     7
176
     1
 62
   257
176
     1
 90
        1
176
     1
 90
        1
176
     1
 40
1.0
176
     1
 90
        0
176
     1
 62
     7
176
     1
 40
1.0
176
     1
 90
        1
176
     1
 90
        6
176
     1
 90
        2
176
     1
 62
     7
176
     1
 90
        5
176
     1
 90
        0
176
     1
 90
        0
176
     1
290
     0
176
     1
 90
       13
176
     1
 40
0.0
176
     1
 90
        0
176
     1
290
     0
176
     1
290
     1
176
     1
290
     1
176
     1
290
     0
176
     1
290
     0
176
     1
290
     0
176
     1
290
     0
176
     1
290
     0
176
     1
290
     0
176
     1
 90
       50
176
     1
 40
0.0
176
     1
 40
1.0
176
     1
 90
        0
176
     1
 62
    18
420
        0
176
     1
 90
       50
176
     1
 90
        3
176
     1
 62
     5
420
      255
176
     1
290
     0
176
     1
 90
       50
176
     1
 90
       50
176
     1
 90
       50
176
     1
290
     0
176
     1
 90
       50
176
     1
 62
   256
176
     0
 40
1.0
176
     0
 90
        2
176
     1
  1
strokes_ogs.tif
176
     1
290
     0
176
     1
 40
1.0
176
     1
 40
1.0
176
     1
  0
VISUALSTYLE
  5
2E
102
{ACAD_REACTORS
330
2A
102
}
330
2A
100
AcDbVisualStyle
  2
GouraudWithEdges
 70
     3
177
     3
291
     1
 70
    58
 90
        2
176
     1
 90
        2
176
     1
 90
        1
176
     1
 90
        2
176
     1
 40
0.6
176
     1
 40
30.0
176
     1
 62
     7
420
 16777215
176
     1
 90
        1
176
     1
 90
        0
176
     1
 62
     7
176
     1
 62
   257
176
     1
 90
        1
176
     1
 90
        1
176
     1
 40
1.0
176
     1
 90
        0
176
     1
 62
   257
176
     1
 40
1.0
176
     1
 90
        1
176
     1
 90
        6
176
     1
 90
        2
176
     1
 62
     7
176
     1
 90
        5
176
     1
 90
        0
176
     1
 90
        0
176
     1
290
     0
176
     1
 90
       13
176
     1
 40
0.0
176
     1
 90
        0
176
     1
290
     0
176
     1
290
     1
176
     1
290
     1
176
     1
290
     0
176
     1
290
     0
176
     1
290
     0
176
     1
290
     0
176
     1
290
     0
176
     1
290
     0
176
     1
 90
       50
176
     1
 40
0.0
176
     1
 40
1.0
176
     1
 90
        0
176
     1
 62
    18
420
        0
176
     1
 90
       50
176
     1
 90
        3
176
     1
 62
     5
420
      255
176
     1
290
     0
176
     1
 90
       50
176
     1
 90
       50
176
     1
 90
       50
176
     1
290
     0
176
     1
 90
       50
176
     1
 62
   256
176
     0
 40
1.0
176
     0
 90
        2
176
     1
  1
strokes_ogs.tif
176
     1
290
     0
176
     1
 40
1.0
176
     1
 40
1.0
176
     1
  0
VISUALSTYLE
  5
31
102
{ACAD_REACTORS
330
2A
102
}
330
2A
100
AcDbVisualStyle
  2
Hidden
 70
     6
177
     3
291
     0
 70
    58
 90
        1
176
     1
 90
        2
176
     1
 90
        2
176
     1
 90
        0
176
     1
 40
0.6
176
     1
 40
30.0
176
     1
 62
     7
420
 16777215
176
     1
 90
        2
176
     1
 90
        2
176
     1
 62
     7
176
     1
 62
   257
176
     1
 90
        2
176
     1
 90
        1
176
     1
 40
40.0
176
     1
 90
        0
176
     1
 62
   257
176
     1
 40
1.0
176
     1
 90
        1
176
     1
 90
        6
176
     1
 90
        2
176
     1
 62
     7
176
     1
 90
        3
176
     1
 90
        0
176
     1
 90
        0
176
     1
290
     0
176
     1
 90
        1
176
     1
 40
0.0
176
     1
 90
        0
176
     1
290
     0
176
     1
290
     1
176
     1
290
     1
176
     1
290
     0
176
     1
290
     0
176
     1
290
     0
176
     1
290
     0
176
     1
290
     0
176
     1
290
     0
176
     1
 90
       50
176
     1
 40
0.0
176
     1
 40
1.0
176
     1
 90
        0
176
     1
 62
    18
420
        0
176
     1
 90
       50
176
     1
 90
        3
176
     1
 62
     5
420
      255
176
     1
290
     0
176
     1
 90
       50
176
     1
 90
       50
176
     1
 90
       50
176
     1
290
     0
176
     1
 90
       50
176
     1
 62
   256
176
     0
 40
1.0
176
     0
 90
        2
176
     1
  1
strokes_ogs.tif
176
     1
290
     0
176
     1
 40
1.0
176
     1
 40
1.0
176
     1
  0
VISUALSTYLE
  5
3B
102
{ACAD_REACTORS
330
2A
102
}
330
2A
100
AcDbVisualStyle
  2
JitterOff
 70
    20
177
     3
291
     1
 70
    58
 90
        2
176
     0
 90
        2
176
     0
 90
        0
176
     0
 90
        0
176
     0
 40
0.6
176
     0
 40
30.0
176
     0
 62
     7
420
 16777215
176
     0
 90
        1
176
     0
 90
        4
176
     0
 62
     7
176
     0
 62
   257
176
     0
 90
        1
176
     0
 90
        1
176
     0
 40
1.0
176
     0
 90
       10
176
     2
 62
     7
176
     0
 40
1.0
176
     0
 90
        1
176
     0
 90
        6
176
     0
 90
        2
176
     0
 62
     7
176
     0
 90
        5
176
     0
 90
        0
176
     0
 90
        0
176
     0
290
     0
176
     0
 90
        1
176
     0
 40
0.0
176
     0
 90
        0
176
     0
290
     0
176
     0
290
     1
176
     0
290
     1
176
     0
290
     0
176
     0
290
     0
176
     0
290
     0
176
     0
290
     0
176
     0
290
     0
176
     0
290
     0
176
     0
 90
       50
176
     0
 40
0.0
176
     0
 40
1.0
176
     0
 90
        0
176
     0
 62
    18
420
        0
176
     0
 90
       50
176
     0
 90
        3
176
     0
 62
     5
420
      255
176
     0
290
     0
176
     0
 90
       50
176
     0
 90
       50
176
     0
 90
       50
176
     0
290
     0
176
     0
 90
       50
176
     0
 62
   256
176
     0
 40
1.0
176
     0
 90
        2
176
     0
  1
strokes_ogs.tif
176
     0
290
     0
176
     0
 40
1.0
176
     0
 40
1.0
176
     0
  0
VISUALSTYLE
  5
38
102
{ACAD_REACTORS
330
2A
102
}
330
2A
100
AcDbVisualStyle
  2
Linepattern
 70
    14
177
     3
291
     1
 70
    58
 90
        2
176
     1
 90
        2
176
     1
 90
        0
176
     1
 90
        0
176
     1
 40
0.6
176
     1
 40
30.0
176
     1
 62
     7
420
 16777215
176
     1
 90
        1
176
     1
 90
        4
176
     1
 62
     7
176
     1
 62
   257
176
     1
 90
        7
176
     1
 90
        7
176
     1
 40
1.0
176
     1
 90
        8
176
     1
 62
     7
176
     1
 40
1.0
176
     1
 90
        1
176
     1
 90
        6
176
     1
 90
        2
176
     1
 62
     7
176
     1
 90
        5
176
     1
 90
        0
176
     1
 90
        0
176
     1
290
     0
176
     1
 90
        1
176
     1
 40
0.0
176
     1
 90
        0
176
     1
290
     0
176
     1
290
     1
176
     1
290
     1
176
     1
290
     0
176
     1
290
     0
176
     1
290
     0
176
     1
290
     0
176
     1
290
     0
176
     1
290
     0
176
     1
 90
       50
176
     1
 40
0.0
176
     1
 40
1.0
176
     1
 90
        0
176
     1
 62
    18
420
        0
176
     1
 90
       50
176
     1
 90
        3
176
     1
 62
     5
420
      255
176
     1
290
     0
176
     1
 90
       50
176
     1
 90
       50
176
     1
 90
       50
176
     1
290
     0
176
     1
 90
       50
176
     1
 62
   256
176
     0
 40
1.0
176
     0
 90
        2
176
     1
  1
strokes_ogs.tif
176
     1
290
     0
176
     1
 40
1.0
176
     1
 40
1.0
176
     1
  0
VISUALSTYLE
  5
3C
102
{ACAD_REACTORS
330
2A
102
}
330
2A
100
AcDbVisualStyle
  2
OverhangOff
 70
    21
177
     3
291
     1
 70
    58
 90
        2
176
     0
 90
        2
176
     0
 90
        0
176
     0
 90
        0
176
     0
 40
0.6
176
     0
 40
30.0
176
     0
 62
     7
420
 16777215
176
     0
 90
        1
176
     0
 90
        4
176
     0
 62
     7
176
     0
 62
   257
176
     0
 90
        1
176
     0
 90
        1
176
     0
 40
1.0
176
     0
 90
        9
176
     2
 62
     7
176
     0
 40
1.0
176
     0
 90
        1
176
     0
 90
        6
176
     0
 90
        2
176
     0
 62
     7
176
     0
 90
        5
176
     0
 90
        0
176
     0
 90
        0
176
     0
290
     0
176
     0
 90
        1
176
     0
 40
0.0
176
     0
 90
        0
176
     0
290
     0
176
     0
290
     1
176
     0
290
     1
176
     0
290
     0
176
     0
290
     0
176
     0
290
     0
176
     0
290
     0
176
     0
290
     0
176
     0
290
     0
176
     0
 90
       50
176
     0
 40
0.0
176
     0
 40
1.0
176
     0
 90
        0
176
     0
 62
    18
420
        0
176
     0
 90
       50
176
     0
 90
        3
176
     0
 62
     5
420
      255
176
     0
290
     0
176
     0
 90
       50
176
     0
 90
       50
176
     0
 90
       50
176
     0
290
     0
176
     0
 90
       50
176
     0
 62
   256
176
     0
 40
1.0
176
     0
 90
        2
176
     0
  1
strokes_ogs.tif
176
     0
290
     0
176
     0
 40
1.0
176
     0
 40
1.0
176
     0
  0
VISUALSTYLE
  5
33
102
{ACAD_REACTORS
330
2A
102
}
330
2A
100
AcDbVisualStyle
  2
Realistic
 70
     8
177
     3
291
     0
 70
    58
 90
        2
176
     1
 90
        3
176
     1
 90
        0
176
     1
 90
        2
176
     1
 40
0.6
176
     1
 40
30.0
176
     1
 62
     7
420
 16777215
176
     1
 90
        0
176
     1
 90
        0
176
     1
 62
     7
176
     1
 62
   257
176
     1
 90
        1
176
     1
 90
        1
176
     1
 40
1.0
176
     1
 90
        8
176
     1
 62
   257
176
     1
 40
1.0
176
     1
 90
        1
176
     1
 90
        6
176
     1
 90
        2
176
     1
 62
     7
176
     1
 90
        3
176
     1
 90
        0
176
     1
 90
        0
176
     1
290
     0
176
     1
 90
       13
176
     1
 40
0.0
176
     1
 90
        0
176
     1
290
     0
176
     1
290
     1
176
     1
290
     1
176
     1
290
     0
176
     1
290
     0
176
     1
290
     0
176
     1
290
     0
176
     1
290
     0
176
     1
290
     0
176
     1
 90
       50
176
     1
 40
0.0
176
     1
 40
1.0
176
     1
 90
        0
176
     1
 62
    18
420
        0
176
     1
 90
       50
176
     1
 90
        3
176
     1
 62
     5
420
      255
176
     1
290
     0
176
     1
 90
       50
176
     1
 90
       50
176
     1
 90
       50
176
     1
290
     0
176
     1
 90
       50
176
     1
 62
   256
176
     0
 40
1.0
176
     0
 90
        2
176
     1
  1
strokes_ogs.tif
176
     1
290
     0
176
     1
 40
1.0
176
     1
 40
1.0
176
     1
  0
VISUALSTYLE
  5
42
102
{ACAD_REACTORS
330
2A
102
}
330
2A
100
AcDbVisualStyle
  2
Shaded
 70
    27
177
     3
291
     0
 70
    58
 90
        2
176
     1
 90
        2
176
     1
 90
        1
176
     1
 90
        2
176
     1
 40
0.6
176
     1
 40
30.0
176
     1
 62
     7
420
 16777215
176
     1
 90
        0
176
     1
 90
        4
176
     1
 62
     7
176
     1
 62
   257
176
     1
 90
        1
176
     1
 90
        1
176
     1
 40
1.0
176
     1
 90
        8
176
     1
 62
   257
176
     1
 40
1.0
176
     1
 90
        1
176
     1
 90
        6
176
     1
 90
        2
176
     1
 62
     8
420
  7895160
176
     1
 90
        3
176
     1
 90
        0
176
     1
 90
        0
176
     1
290
     0
176
     1
 90
        5
176
     1
 40
0.0
176
     1
 90
        0
176
     1
290
     0
176
     1
290
     1
176
     1
290
     1
176
     1
290
     0
176
     1
290
     0
176
     1
290
     0
176
     1
290
     0
176
     1
290
     0
176
     1
290
     0
176
     1
 90
       50
176
     1
 40
0.0
176
     1
 40
1.0
176
     1
 90
        0
176
     1
 62
    18
420
        0
176
     1
 90
       50
176
     1
 90
        3
176
     1
 62
     5
420
      255
176
     1
290
     0
176
     1
 90
       50
176
     1
 90
       50
176
     1
 90
       50
176
     1
290
     0
176
     1
 90
       50
176
     1
 62
   256
176
     0
 40
1.0
176
     0
 90
        2
176
     1
  1
strokes_ogs.tif
176
     1
290
     0
176
     1
 40
1.0
176
     1
 40
1.0
176
     1
  0
VISUALSTYLE
  5
41
102
{ACAD_REACTORS
330
2A
102
}
330
2A
100
AcDbVisualStyle
  2
Shaded with edges
 70
    26
177
     3
291
     0
 70
    58
 90
        2
176
     1
 90
        2
176
     1
 90
        1
176
     1
 90
        2
176
     1
 40
0.6
176
     1
 40
30.0
176
     1
 62
     7
420
 16777215
176
     1
 90
        1
176
     1
 90
       10
176
     1
 62
     7
176
     1
 62
   257
176
     1
 90
        2
176
     1
 90
        1
176
     1
 40
1.0
176
     1
 90
        8
176
     1
 62
   257
176
     1
 40
1.0
176
     1
 90
        1
176
     1
 90
        6
176
     1
 90
        2
176
     1
 62
     7
176
     1
 90
        3
176
     1
 90
        0
176
     1
 90
        0
176
     1
290
     0
176
     1
 90
        5
176
     1
 40
0.0
176
     1
 90
        0
176
     1
290
     0
176
     1
290
     1
176
     1
290
     1
176
     1
290
     0
176
     1
290
     0
176
     1
290
     0
176
     1
290
     0
176
     1
290
     0
176
     1
290
     0
176
     1
 90
       50
176
     1
 40
0.0
176
     1
 40
1.0
176
     1
 90
        0
176
     1
 62
    18
420
        0
176
     1
 90
       50
176
     1
 90
        3
176
     1
 62
     5
420
      255
176
     1
290
     0
176
     1
 90
       50
176
     1
 90
       50
176
     1
 90
       50
176
     1
290
     0
176
     1
 90
       50
176
     1
 62
   256
176
     0
 40
1.0
176
     0
 90
        2
176
     1
  1
strokes_ogs.tif
176
     1
290
     0
176
     1
 40
1.0
176
     1
 40
1.0
176
     1
  0
VISUALSTYLE
  5
3E
102
{ACAD_REACTORS
330
2A
102
}
330
2A
100
AcDbVisualStyle
  2
Shades of Gray
 70
    23
177
     3
291
     0
 70
    58
 90
        2
176
     1
 90
        2
176
     1
 90
        3
176
     1
 90
        0
176
     1
 40
0.6
176
     1
 40
30.0
176
     1
 62
     7
420
 16777215
176
     1
 90
        2
176
     1
 90
        2
176
     1
 62
     7
176
     1
 62
     7
176
     1
 90
        1
176
     1
 90
        1
176
     1
 40
40.0
176
     1
 90
        8
176
     1
 62
     7
176
     1
 40
1.0
176
     1
 90
        1
176
     1
 90
        6
176
     1
 90
        2
176
     1
 62
     7
176
     1
 90
        3
176
     1
 90
        0
176
     1
 90
        0
176
     1
290
     0
176
     1
 90
        1
176
     1
 40
0.0
176
     1
 90
        0
176
     1
290
     0
176
     1
290
     1
176
     1
290
     1
176
     1
290
     0
176
     1
290
     0
176
     1
290
     0
176
     1
290
     0
176
     1
290
     0
176
     1
290
     0
176
     1
 90
       50
176
     1
 40
0.0
176
     1
 40
1.0
176
     1
 90
        0
176
     1
 62
    18
420
        0
176
     1
 90
       50
176
     1
 90
        3
176
     1
 62
     5
420
      255
176
     1
290
     0
176
     1
 90
       50
176
     1
 90
       50
176
     1
 90
       50
176
     1
290
     0
176
     1
 90
       50
176
     1
 62
   256
176
     0
 40
1.0
176
     0
 90
        2
176
     1
  1
strokes_ogs.tif
176
     1
290
     0
176
     1
 40
1.0
176
     1
 40
1.0
176
     1
  0
VISUALSTYLE
  5
3F
102
{ACAD_REACTORS
330
2A
102
}
330
2A
100
AcDbVisualStyle
  2
Sketchy
 70
    24
177
     3
291
     0
 70
    58
 90
        1
176
     1
 90
        2
176
     1
 90
        2
176
     1
 90
        0
176
     1
 40
0.6
176
     1
 40
30.0
176
     1
 62
     7
420
 16777215
176
     1
 90
        2
176
     1
 90
        2
176
     1
 62
     7
176
     1
 62
     7
176
     1
 90
        1
176
     1
 90
        1
176
     1
 40
40.0
176
     1
 90
       11
176
     1
 62
     7
176
     1
 40
1.0
176
     1
 90
        1
176
     1
 90
        6
176
     1
 90
        2
176
     1
 62
     7
176
     1
 90
        6
176
     1
 90
        0
176
     1
 90
        0
176
     1
290
     0
176
     1
 90
        1
176
     1
 40
0.0
176
     1
 90
        0
176
     1
290
     0
176
     1
290
     1
176
     1
290
     1
176
     1
290
     0
176
     1
290
     0
176
     1
290
     0
176
     1
290
     0
176
     1
290
     0
176
     1
290
     0
176
     1
 90
       50
176
     1
 40
0.0
176
     1
 40
1.0
176
     1
 90
        0
176
     1
 62
    18
420
        0
176
     1
 90
       50
176
     1
 90
        3
176
     1
 62
     5
420
      255
176
     1
290
     0
176
     1
 90
       50
176
     1
 90
       50
176
     1
 90
       50
176
     1
290
     0
176
     1
 90
       50
176
     1
 62
   256
176
     0
 40
1.0
176
     0
 90
        2
176
     1
  1
strokes_ogs.tif
176
     1
290
     0
176
     1
 40
1.0
176
     1
 40
1.0
176
     1
  0
VISUALSTYLE
  5
37
102
{ACAD_REACTORS
330
2A
102
}
330
2A
100
AcDbVisualStyle
  2
Thicken
 70
    13
177
     3
291
     1
 70
    58
 90
        2
176
     1
 90
        2
176
     1
 90
        0
176
     1
 90
        0
176
     1
 40
0.6
176
     1
 40
30.0
176
     1
 62
     7
420
 16777215
176
     1
 90
        1
176
     1
 90
        4
176
     1
 62
     7
176
     1
 62
   257
176
     1
 90
        1
176
     1
 90
        1
176
     1
 40
1.0
176
     1
 90
       12
176
     1
 62
     7
176
     1
 40
1.0
176
     1
 90
        1
176
     1
 90
        6
176
     1
 90
        2
176
     1
 62
     7
176
     1
 90
        5
176
     1
 90
        0
176
     1
 90
        0
176
     1
290
     0
176
     1
 90
        1
176
     1
 40
0.0
176
     1
 90
        0
176
     1
290
     0
176
     1
290
     1
176
     1
290
     1
176
     1
290
     0
176
     1
290
     0
176
     1
290
     0
176
     1
290
     0
176
     1
290
     0
176
     1
290
     0
176
     1
 90
       50
176
     1
 40
0.0
176
     1
 40
1.0
176
     1
 90
        0
176
     1
 62
    18
420
        0
176
     1
 90
       50
176
     1
 90
        3
176
     1
 62
     5
420
      255
176
     1
290
     0
176
     1
 90
       50
176
     1
 90
       50
176
     1
 90
       50
176
     1
290
     0
176
     1
 90
       50
176
     1
 62
   256
176
     0
 40
1.0
176
     0
 90
        2
176
     1
  1
strokes_ogs.tif
176
     1
290
     0
176
     1
 40
1.0
176
     1
 40
1.0
176
     1
  0
VISUALSTYLE
  5
30
102
{ACAD_REACTORS
330
2A
102
}
330
2A
100
AcDbVisualStyle
  2
Wireframe
 70
     5
177
     3
291
     0
 70
    58
 90
        0
176
     1
 90
        2
176
     1
 90
        0
176
     1
 90
        0
176
     1
 40
0.6
176
     1
 40
30.0
176
     1
 62
     7
420
 16777215
176
     1
 90
        1
176
     1
 90
        4
176
     1
 62
     7
176
     1
 62
   257
176
     1
 90
        1
176
     1
 90
        1
176
     1
 40
1.0
176
     1
 90
        0
176
     1
 62
   257
176
     1
 40
1.0
176
     1
 90
        1
176
     1
 90
        6
176
     1
 90
        2
176
     1
 62
     7
176
     1
 90
        3
176
     1
 90
        0
176
     1
 90
        0
176
     1
290
     0
176
     1
 90
        1
176
     1
 40
0.0
176
     1
 90
        0
176
     1
290
     0
176
     1
290
     1
176
     1
290
     1
176
     1
290
     0
176
     1
290
     0
176
     1
290
     0
176
     1
290
     0
176
     1
290
     0
176
     1
290
     0
176
     1
 90
       50
176
     1
 40
0.0
176
     1
 40
1.0
176
     1
 90
        0
176
     1
 62
    18
420
        0
176
     1
 90
       50
176
     1
 90
        3
176
     1
 62
     5
420
      255
176
     1
290
     0
176
     1
 90
       50
176
     1
 90
       50
176
     1
 90
       50
176
     1
290
     0
176
     1
 90
       50
176
     1
 62
   256
176
     0
 40
1.0
176
     0
 90
        2
176
     1
  1
strokes_ogs.tif
176
     1
290
     0
176
     1
 40
1.0
176
     1
 40
1.0
176
     1
  0
VISUALSTYLE
  5
40
102
{ACAD_REACTORS
330
2A
102
}
330
2A
100
AcDbVisualStyle
  2
X-Ray
 70
    25
177
     3
291
     0
 70
    58
 90
        2
176
     1
 90
        2
176
     1
 90
        1
176
     1
 90
        1
176
     1
 40
0.5
176
     1
 40
30.0
176
     1
 62
     7
420
 16777215
176
     1
 90
        1
176
     1
 90
        0
176
     1
 62
     7
176
     1
 62
   257
176
     1
 90
        1
176
     1
 90
        1
176
     1
 40
1.0
176
     1
 90
        8
176
     1
 62
     7
176
     1
 40
1.0
176
     1
 90
        1
176
     1
 90
        6
176
     1
 90
        2
176
     1
 62
     7
176
     1
 90
        3
176
     1
 90
        0
176
     1
 90
        0
176
     1
290
     0
176
     1
 90
       13
176
     1
 40
0.0
176
     1
 90
        0
176
     1
290
     0
176
     1
290
     1
176
     1
290
     1
176
     1
290
     0
176
     1
290
     0
176
     1
290
     0
176
     1
290
     0
176
     1
290
     0
176
     1
290
     0
176
     1
 90
       50
176
     1
 40
0.0
176
     1
 40
1.0
176
     1
 90
        0
176
     1
 62
    18
420
        0
176
     1
 90
       50
176
     1
 90
        3
176
     1
 62
     5
420
      255
176
     1
290
     0
176
     1
 90
       50
176
     1
 90
       50
176
     1
 90
       50
176
     1
290
     0
176
     1
 90
       50
176
     1
 62
   256
176
     0
 40
1.0
176
     0
 90
        2
176
     1
  1
strokes_ogs.tif
176
     1
290
     0
176
     1
 40
1.0
176
     1
 40
1.0
176
     1
  0
DICTIONARYVAR
  5
40C
102
{ACAD_REACTORS
330
40B
102
}
330
40B
100
DictionaryVariables
280
     0
  1
1:1
  0
DICTIONARYVAR
  5
411
102
{ACAD_REACTORS
330
40B
102
}
330
40B
100
DictionaryVariables
280
     0
  1
Standard
  0
DICTIONARYVAR
  5
410
102
{ACAD_REACTORS
330
40B
102
}
330
40B
100
DictionaryVariables
280
     0
  1
Standard
  0
DICTIONARYVAR
  5
414
102
{ACAD_REACTORS
330
40B
102
}
330
40B
100
DictionaryVariables
280
     0
  1
0
  0
DICTIONARY
  5
40D
330
6A
100
AcDbDictionary
280
     1
281
     1
  3
ACAD_ROUNDTRIP_2008_TABLESTYLE_CELLSTYLEMAP
360
40E
  0
CELLSTYLEMAP
  5
40E
102
{ACAD_REACTORS
330
40D
102
}
330
40D
100
AcDbCellStyleMap
 90
        3
300
CELLSTYLE
  1
TABLEFORMAT_BEGIN
 90
        5
170
     1
 91
        0
 92
    32768
 62
   257
 93
        1
300
CONTENTFORMAT
  1
CONTENTFORMAT_BEGIN
 90
        0
 91
        0
 92
        4
 93
        0
300

 40
0.0
140
1.0
 94
        5
 62
     0
340
11
144
0.25
309
CONTENTFORMAT_END
171
     1
301
MARGIN
  1
CELLMARGIN_BEGIN
 40
0.06
 40
0.06
 40
0.06
 40
0.06
 40
0.06
 40
0.06
309
CELLMARGIN_END
 94
        6
 95
        1
302
GRIDFORMAT
  1
GRIDFORMAT_BEGIN
 90
        0
 91
        1
 62
     0
 92
       -2
340
14
 93
        0
 40
0.045
309
GRIDFORMAT_END
 95
        2
302
GRIDFORMAT
  1
GRIDFORMAT_BEGIN
 90
        0
 91
        1
 62
     0
 92
       -2
340
14
 93
        0
 40
0.045
309
GRIDFORMAT_END
 95
        4
302
GRIDFORMAT
  1
GRIDFORMAT_BEGIN
 90
        0
 91
        1
 62
     0
 92
       -2
340
14
 93
        0
 40
0.045
309
GRIDFORMAT_END
 95
        8
302
GRIDFORMAT
  1
GRIDFORMAT_BEGIN
 90
        0
 91
        1
 62
     0
 92
       -2
340
14
 93
        0
 40
0.045
309
GRIDFORMAT_END
 95
       16
302
GRIDFORMAT
  1
GRIDFORMAT_BEGIN
 90
        0
 91
        1
 62
     0
 92
       -2
340
14
 93
        0
 40
0.045
309
GRIDFORMAT_END
 95
       32
302
GRIDFORMAT
  1
GRIDFORMAT_BEGIN
 90
        0
 91
        1
 62
     0
 92
       -2
340
14
 93
        0
 40
0.045
309
GRIDFORMAT_END
309
TABLEFORMAT_END
  1
CELLSTYLE_BEGIN
 90
        1
 91
        1
300
_TITLE
309
CELLSTYLE_END
300
CELLSTYLE
  1
TABLEFORMAT_BEGIN
 90
        5
170
     1
 91
        0
 92
        0
 62
   257
 93
        1
300
CONTENTFORMAT
  1
CONTENTFORMAT_BEGIN
 90
        0
 91
        0
 92
        4
 93
        0
300

 40
0.0
140
1.0
 94
        5
 62
     0
340
11
144
0.18
309
CONTENTFORMAT_END
171
     1
301
MARGIN
  1
CELLMARGIN_BEGIN
 40
0.06
 40
0.06
 40
0.06
 40
0.06
 40
0.06
 40
0.06
309
CELLMARGIN_END
 94
        6
 95
        1
302
GRIDFORMAT
  1
GRIDFORMAT_BEGIN
 90
        0
 91
        1
 62
     0
 92
       -2
340
14
 93
        0
 40
0.045
309
GRIDFORMAT_END
 95
        2
302
GRIDFORMAT
  1
GRIDFORMAT_BEGIN
 90
        0
 91
        1
 62
     0
 92
       -2
340
14
 93
        0
 40
0.045
309
GRIDFORMAT_END
 95
        4
302
GRIDFORMAT
  1
GRIDFORMAT_BEGIN
 90
        0
 91
        1
 62
     0
 92
       -2
340
14
 93
        0
 40
0.045
309
GRIDFORMAT_END
 95
        8
302
GRIDFORMAT
  1
GRIDFORMAT_BEGIN
 90
        0
 91
        1
 62
     0
 92
       -2
340
14
 93
        0
 40
0.045
309
GRIDFORMAT_END
 95
       16
302
GRIDFORMAT
  1
GRIDFORMAT_BEGIN
 90
        0
 91
        1
 62
     0
 92
       -2
340
14
 93
        0
 40
0.045
309
GRIDFORMAT_END
 95
       32
302
GRIDFORMAT
  1
GRIDFORMAT_BEGIN
 90
        0
 91
        1
 62
     0
 92
       -2
340
14
 93
        0
 40
0.045
309
GRIDFORMAT_END
309
TABLEFORMAT_END
  1
CELLSTYLE_BEGIN
 90
        2
 91
        1
300
_HEADER
309
CELLSTYLE_END
300
CELLSTYLE
  1
TABLEFORMAT_BEGIN
 90
        5
170
     1
 91
        0
 92
        0
 62
   257
 93
        1
300
CONTENTFORMAT
  1
CONTENTFORMAT_BEGIN
 90
        0
 91
        0
 92
        4
 93
        0
300

 40
0.0
140
1.0
 94
        2
 62
     0
340
11
144
0.18
309
CONTENTFORMAT_END
171
     1
301
MARGIN
  1
CELLMARGIN_BEGIN
 40
0.06
 40
0.06
 40
0.06
 40
0.06
 40
0.06
 40
0.06
309
CELLMARGIN_END
 94
        6
 95
        1
302
GRIDFORMAT
  1
GRIDFORMAT_BEGIN
 90
        0
 91
        1
 62
     0
 92
       -2
340
14
 93
        0
 40
0.045
309
GRIDFORMAT_END
 95
        2
302
GRIDFORMAT
  1
GRIDFORMAT_BEGIN
 90
        0
 91
        1
 62
     0
 92
       -2
340
14
 93
        0
 40
0.045
309
GRIDFORMAT_END
 95
        4
302
GRIDFORMAT
  1
GRIDFORMAT_BEGIN
 90
        0
 91
        1
 62
     0
 92
       -2
340
14
 93
        0
 40
0.045
309
GRIDFORMAT_END
 95
        8
302
GRIDFORMAT
  1
GRIDFORMAT_BEGIN
 90
        0
 91
        1
 62
     0
 92
       -2
340
14
 93
        0
 40
0.045
309
GRIDFORMAT_END
 95
       16
302
GRIDFORMAT
  1
GRIDFORMAT_BEGIN
 90
        0
 91
        1
 62
     0
 92
       -2
340
14
 93
        0
 40
0.045
309
GRIDFORMAT_END
 95
       32
302
GRIDFORMAT
  1
GRIDFORMAT_BEGIN
 90
        0
 91
        1
 62
     0
 92
       -2
340
14
 93
        0
 40
0.045
309
GRIDFORMAT_END
309
TABLEFORMAT_END
  1
CELLSTYLE_BEGIN
 90
        3
 91
        2
300
_DATA
309
CELLSTYLE_END
  0
ENDSEC
  0
EOF
