  0
SECTION
  2
HEADER
  9
$ACADVER
  1
AC1027
  9
$ACADMAINTVER
 70
   105
  9
$DWGCODEPAGE
  3
ANSI_1252
  9
$REQUIREDVERSIONS
160
                 0
  9
$INSBASE
 10
0.0
 20
0.0
 30
0.0
  9
$EXTMIN
 10
2331.591546818028
 20
-9777.512248640422
 30
0.0
  9
$EXTMAX
 10
3316.591546818038
 20
-8422.512248640422
 30
0.0
  9
$LIMMIN
 10
0.0
 20
0.0
  9
$LIMMAX
 10
12.0
 20
9.0
  9
$ORTHOMODE
 70
     0
  9
$REGENMODE
 70
     1
  9
$FILLMODE
 70
     1
  9
$QTEXTMODE
 70
     0
  9
$MIRRTEXT
 70
     1
  9
$LTSCALE
 40
5.0
  9
$ATTMODE
 70
     1
  9
$TEXTSIZE
 40
0.2
  9
$TRACEWID
 40
0.05
  9
$TEXTSTYLE
  7
Standard
  9
$CLAYER
  8
0
  9
$CELTYPE
  6
ByLayer
  9
$CECOLOR
 62
   256
  9
$CELTSCALE
 40
1.0
  9
$DISPSILH
 70
     0
  9
$DIMSCALE
 40
1.0
  9
$DIMASZ
 40
0.18
  9
$DIMEXO
 40
0.0625
  9
$DIMDLI
 40
0.38
  9
$DIMRND
 40
0.0
  9
$DIMDLE
 40
0.0
  9
$DIMEXE
 40
0.18
  9
$DIMTP
 40
0.0
  9
$DIMTM
 40
0.0
  9
$DIMTXT
 40
0.18
  9
$DIMCEN
 40
0.09
  9
$DIMTSZ
 40
0.0
  9
$DIMTOL
 70
     0
  9
$DIMLIM
 70
     0
  9
$DIMTIH
 70
     1
  9
$DIMTOH
 70
     1
  9
$DIMSE1
 70
     0
  9
$DIMSE2
 70
     0
  9
$DIMTAD
 70
     0
  9
$DIMZIN
 70
     0
  9
$DIMBLK
  1

  9
$DIMASO
 70
     1
  9
$DIMSHO
 70
     1
  9
$DIMPOST
  1

  9
$DIMAPOST
  1

  9
$DIMALT
 70
     0
  9
$DIMALTD
 70
     2
  9
$DIMALTF
 40
25.4
  9
$DIMLFAC
 40
1.0
  9
$DIMTOFL
 70
     1
  9
$DIMTVP
 40
0.0
  9
$DIMTIX
 70
     0
  9
$DIMSOXD
 70
     1
  9
$DIMSAH
 70
     0
  9
$DIMBLK1
  1

  9
$DIMBLK2
  1

  9
$DIMSTYLE
  2
Standard
  9
$DIMCLRD
 70
     0
  9
$DIMCLRE
 70
     0
  9
$DIMCLRT
 70
     0
  9
$DIMTFAC
 40
1.0
  9
$DIMGAP
 40
0.09
  9
$DIMJUST
 70
     0
  9
$DIMSD1
 70
     0
  9
$DIMSD2
 70
     0
  9
$DIMTOLJ
 70
     1
  9
$DIMTZIN
 70
     0
  9
$DIMALTZ
 70
     0
  9
$DIMALTTZ
 70
     0
  9
$DIMUPT
 70
     0
  9
$DIMDEC
 70
     4
  9
$DIMTDEC
 70
     4
  9
$DIMALTU
 70
     2
  9
$DIMALTTD
 70
     2
  9
$DIMTXSTY
  7
Standard
  9
$DIMAUNIT
 70
     0
  9
$DIMADEC
 70
     0
  9
$DIMALTRND
 40
0.0
  9
$DIMAZIN
 70
     0
  9
$DIMDSEP
 70
    46
  9
$DIMATFIT
 70
     3
  9
$DIMFRAC
 70
     0
  9
$DIMLDRBLK
  1

  9
$DIMLUNIT
 70
     2
  9
$DIMLWD
 70
    -2
  9
$DIMLWE
 70
    -2
  9
$DIMTMOVE
 70
     2
  9
$DIMFXL
 40
1.0
  9
$DIMFXLON
 70
     0
  9
$DIMJOGANG
 40
0.7853981633974483
  9
$DIMTFILL
 70
     0
  9
$DIMTFILLCLR
 70
     0
  9
$DIMARCSYM
 70
     0
  9
$DIMLTYPE
  6

  9
$DIMLTEX1
  6

  9
$DIMLTEX2
  6

  9
$DIMTXTDIRECTION
 70
     0
  9
$LUNITS
 70
     2
  9
$LUPREC
 70
     4
  9
$SKETCHINC
 40
0.1
  9
$FILLETRAD
 40
0.5
  9
$AUNITS
 70
     0
  9
$AUPREC
 70
     0
  9
$MENU
  1
.
  9
$ELEVATION
 40
0.0
  9
$PELEVATION
 40
0.0
  9
$THICKNESS
 40
0.0
  9
$LIMCHECK
 70
     0
  9
$CHAMFERA
 40
0.0
  9
$CHAMFERB
 40
0.0
  9
$CHAMFERC
 40
0.0
  9
$CHAMFERD
 40
0.0
  9
$SKPOLY
 70
     0
  9
$TDCREATE
 40
2459184.49089912
  9
$TDUCREATE
 40
2459184.449232453
  9
$TDUPDATE
 40
2459184.490901227
  9
$TDUUPDATE
 40
2459184.44923456
  9
$TDINDWG
 40
0.0000000116
  9
$TDUSRTIMER
 40
0.0000000116
  9
$USRTIMER
 70
     1
  9
$ANGBASE
 50
0.0
  9
$ANGDIR
 70
     0
  9
$PDMODE
 70
     0
  9
$PDSIZE
 40
0.0
  9
$PLINEWID
 40
0.0
  9
$SPLFRAME
 70
     0
  9
$SPLINETYPE
 70
     6
  9
$SPLINESEGS
 70
     8
  9
$HANDSEED
  5
411
  9
$SURFTAB1
 70
     6
  9
$SURFTAB2
 70
     6
  9
$SURFTYPE
 70
     6
  9
$SURFU
 70
     6
  9
$SURFV
 70
     6
  9
$UCSBASE
  2

  9
$UCSNAME
  2

  9
$UCSORG
 10
0.0
 20
0.0
 30
0.0
  9
$UCSXDIR
 10
1.0
 20
0.0
 30
0.0
  9
$UCSYDIR
 10
0.0
 20
1.0
 30
0.0
  9
$UCSORTHOREF
  2

  9
$UCSORTHOVIEW
 70
     0
  9
$UCSORGTOP
 10
0.0
 20
0.0
 30
0.0
  9
$UCSORGBOTTOM
 10
0.0
 20
0.0
 30
0.0
  9
$UCSORGLEFT
 10
0.0
 20
0.0
 30
0.0
  9
$UCSORGRIGHT
 10
0.0
 20
0.0
 30
0.0
  9
$UCSORGFRONT
 10
0.0
 20
0.0
 30
0.0
  9
$UCSORGBACK
 10
0.0
 20
0.0
 30
0.0
  9
$PUCSBASE
  2

  9
$PUCSNAME
  2

  9
$PUCSORG
 10
0.0
 20
0.0
 30
0.0
  9
$PUCSXDIR
 10
1.0
 20
0.0
 30
0.0
  9
$PUCSYDIR
 10
0.0
 20
1.0
 30
0.0
  9
$PUCSORTHOREF
  2

  9
$PUCSORTHOVIEW
 70
     0
  9
$PUCSORGTOP
 10
0.0
 20
0.0
 30
0.0
  9
$PUCSORGBOTTOM
 10
0.0
 20
0.0
 30
0.0
  9
$PUCSORGLEFT
 10
0.0
 20
0.0
 30
0.0
  9
$PUCSORGRIGHT
 10
0.0
 20
0.0
 30
0.0
  9
$PUCSORGFRONT
 10
0.0
 20
0.0
 30
0.0
  9
$PUCSORGBACK
 10
0.0
 20
0.0
 30
0.0
  9
$USERI1
 70
     0
  9
$USERI2
 70
     0
  9
$USERI3
 70
     0
  9
$USERI4
 70
     0
  9
$USERI5
 70
     0
  9
$USERR1
 40
0.0
  9
$USERR2
 40
0.0
  9
$USERR3
 40
0.0
  9
$USERR4
 40
0.0
  9
$USERR5
 40
0.0
  9
$WORLDVIEW
 70
     1
  9
$SHADEDGE
 70
     3
  9
$SHADEDIF
 70
    70
  9
$TILEMODE
 70
     1
  9
$MAXACTVP
 70
    64
  9
$PINSBASE
 10
0.0
 20
0.0
 30
0.0
  9
$PLIMCHECK
 70
     0
  9
$PEXTMIN
 10
0.0
 20
0.0
 30
0.0
  9
$PEXTMAX
 10
197.6000000000002
 20
271.6
 30
0.0
  9
$PLIMMIN
 10
-20.0
 20
-7.5
  9
$PLIMMAX
 10
277.0
 20
202.5
  9
$UNITMODE
 70
     0
  9
$VISRETAIN
 70
     1
  9
$PLINEGEN
 70
     0
  9
$PSLTSCALE
 70
     0
  9
$TREEDEPTH
 70
  3020
  9
$CMLSTYLE
  2
Standard
  9
$CMLJUST
 70
     0
  9
$CMLSCALE
 40
1.0
  9
$PROXYGRAPHICS
 70
     1
  9
$MEASUREMENT
 70
     1
  9
$CELWEIGHT
370
    -1
  9
$ENDCAPS
280
     0
  9
$JOINSTYLE
280
     0
  9
$LWDISPLAY
290
     0
  9
$INSUNITS
 70
     4
  9
$HYPERLINKBASE
  1

  9
$STYLESHEET
  1

  9
$XEDIT
290
     1
  9
$CEPSNTYPE
380
     0
  9
$PSTYLEMODE
290
     0
  9
$FINGERPRINTGUID
  2
{F9FAC640-7A41-432A-85BC-89461EC29949}
  9
$VERSIONGUID
  2
{FAEB1C32-E019-11D5-929B-00C0DF256EC4}
  9
$EXTNAMES
290
     1
  9
$PSVPSCALE
 40
0.0
  9
$OLESTARTUP
290
     0
  9
$SORTENTS
280
   127
  9
$INDEXCTL
280
     0
  9
$HIDETEXT
280
     1
  9
$XCLIPFRAME
280
     2
  9
$HALOGAP
280
     0
  9
$OBSCOLOR
 70
   257
  9
$OBSLTYPE
280
     0
  9
$INTERSECTIONDISPLAY
280
     0
  9
$INTERSECTIONCOLOR
 70
   257
  9
$DIMASSOC
280
     2
  9
$PROJECTNAME
  1

  9
$CAMERADISPLAY
290
     0
  9
$LENSLENGTH
 40
50.0
  9
$CAMERAHEIGHT
 40
0.0
  9
$STEPSPERSEC
 40
2.0
  9
$STEPSIZE
 40
6.0
  9
$3DDWFPREC
 40
2.0
  9
$PSOLWIDTH
 40
0.25
  9
$PSOLHEIGHT
 40
4.0
  9
$LOFTANG1
 40
1.570796326794897
  9
$LOFTANG2
 40
1.570796326794897
  9
$LOFTMAG1
 40
0.0
  9
$LOFTMAG2
 40
0.0
  9
$LOFTPARAM
 70
     7
  9
$LOFTNORMALS
280
     1
  9
$LATITUDE
 40
37.795
  9
$LONGITUDE
 40
-122.394
  9
$NORTHDIRECTION
 40
0.0
  9
$TIMEZONE
 70
 -8000
  9
$LIGHTGLYPHDISPLAY
280
     1
  9
$TILEMODELIGHTSYNCH
280
     1
  9
$CMATERIAL
347
44
  9
$SOLIDHIST
280
     0
  9
$SHOWHIST
280
     1
  9
$DWFFRAME
280
     2
  9
$DGNFRAME
280
     2
  9
$REALWORLDSCALE
290
     1
  9
$INTERFERECOLOR
 62
   256
  9
$CSHADOW
280
     0
  9
$SHADOWPLANELOCATION
 40
0.0
  0
ENDSEC
  0
SECTION
  2
CLASSES
  0
CLASS
  1
ACDBDICTIONARYWDFLT
  2
AcDbDictionaryWithDefault
  3
ObjectDBX Classes
 90
        0
 91
        3
280
     0
281
     0
  0
CLASS
  1
VISUALSTYLE
  2
AcDbVisualStyle
  3
ObjectDBX Classes
 90
     4095
 91
        3
280
     0
281
     0
  0
CLASS
  1
MATERIAL
  2
AcDbMaterial
  3
ObjectDBX Classes
 90
     1153
 91
        3
280
     0
281
     0
  0
CLASS
  1
SCALE
  2
AcDbScale
  3
ObjectDBX Classes
 90
     1153
 91
        3
280
     0
281
     0
  0
CLASS
  1
TABLESTYLE
  2
AcDbTableStyle
  3
ObjectDBX Classes
 90
     4095
 91
        3
280
     0
281
     0
  0
CLASS
  1
MLEADERSTYLE
  2
AcDbMLeaderStyle
  3
ACDB_MLEADERSTYLE_CLASS
 90
     4095
 91
        3
280
     0
281
     0
  0
CLASS
  1
SUN
  2
AcDbSun
  3
SCENEOE
 90
     1153
 91
        3
280
     0
281
     0
  0
CLASS
  1
RASTERVARIABLES
  2
AcDbRasterVariables
  3
ISM
 90
        0
 91
        3
280
     0
281
     0
  0
CLASS
  1
PLOTSETTINGS
  2
AcDbPlotSettings
  3
ObjectDBX Classes
 90
        0
 91
        3
280
     0
281
     0
  0
CLASS
  1
IMAGEDEF
  2
AcDbRasterImageDef
  3
ISM
 90
        0
 91
        3
280
     0
281
     0
  0
CLASS
  1
IMAGE
  2
AcDbRasterImage
  3
ISM
 90
      127
 91
        4
280
     0
281
     1
  0
CLASS
  1
IMAGEDEF_REACTOR
  2
AcDbRasterImageDefReactor
  3
ISM
 90
        1
 91
        3
280
     0
281
     0
  0
CLASS
  1
DICTIONARYVAR
  2
AcDbDictionaryVar
  3
ObjectDBX Classes
 90
        0
 91
        3
280
     0
281
     0
  0
CLASS
  1
CELLSTYLEMAP
  2
AcDbCellStyleMap
  3
ObjectDBX Classes
 90
     1152
 91
        3
280
     0
281
     0
  0
ENDSEC
  0
SECTION
  2
TABLES
  0
TABLE
  2
VPORT
  5
8
330
0
100
AcDbSymbolTable
 70
     1
  0
VPORT
  5
29
330
8
100
AcDbSymbolTableRecord
100
AcDbViewportTableRecord
  2
*Active
 70
     0
 10
0.0
 20
0.0
 11
1.0
 21
1.0
 12
10.42990654205607
 22
4.5
 13
0.0
 23
0.0
 14
0.5
 24
0.5
 15
0.5
 25
0.5
 16
0.0
 26
0.0
 36
1.0
 17
0.0
 27
0.0
 37
0.0
 40
9.0
 41
1.972972972850329
 42
50.0
 43
0.0
 44
0.0
 50
0.0
 51
0.0
 71
     0
 72
   100
 73
     1
 74
     3
 75
     0
 76
     0
 77
     0
 78
     0
281
     0
 65
     1
110
0.0
120
0.0
130
0.0
111
1.0
121
0.0
131
0.0
112
0.0
122
1.0
132
0.0
 79
     0
146
0.0
348
2F
 60
     3
 61
     5
292
     1
282
     1
141
0.0
142
0.0
 63
   250
361
6D
  0
ENDTAB
  0
TABLE
  2
LTYPE
  5
5
330
0
100
AcDbSymbolTable
 70
     2
  0
LTYPE
  5
14
330
5
100
AcDbSymbolTableRecord
100
AcDbLinetypeTableRecord
  2
ByBlock
 70
     0
  3

 72
    65
 73
     0
 40
0.0
  0
LTYPE
  5
15
330
5
100
AcDbSymbolTableRecord
100
AcDbLinetypeTableRecord
  2
ByLayer
 70
     0
  3

 72
    65
 73
     0
 40
0.0
  0
LTYPE
  5
16
330
5
100
AcDbSymbolTableRecord
100
AcDbLinetypeTableRecord
  2
Continuous
 70
     0
  3
Solid line
 72
    65
 73
     0
 40
0.0
  0
LTYPE
  5
182
330
5
100
AcDbSymbolTableRecord
100
AcDbLinetypeTableRecord
  2
CADWORK_3
 70
     0
  3

 72
    65
 73
     2
 40
4.0
 49
2.0
 74
     0
 49
-2.0
 74
     0
  0
ENDTAB
  0
TABLE
  2
LAYER
  5
2
330
0
100
AcDbSymbolTable
 70
    18
  0
LAYER
  5
10
330
2
100
AcDbSymbolTableRecord
100
AcDbLayerTableRecord
  2
0
 70
     0
 62
     7
  6
Continuous
370
    -3
390
F
347
46
348
0
  0
LAYER
  5
70
330
2
100
AcDbSymbolTableRecord
100
AcDbLayerTableRecord
  2
Standard
 70
     0
 62
     7
  6
Continuous
370
    -3
390
F
347
46
348
0
  0
LAYER
  5
71
330
2
100
AcDbSymbolTableRecord
100
AcDbLayerTableRecord
  2
Ech.1_1
 70
     0
 62
     7
  6
Continuous
370
    -3
390
F
347
46
348
0
  0
LAYER
  5
72
330
2
100
AcDbSymbolTableRecord
100
AcDbLayerTableRecord
  2
Ech.1_2
 70
     0
 62
     7
  6
Continuous
370
    -3
390
F
347
46
348
0
  0
LAYER
  5
73
330
2
100
AcDbSymbolTableRecord
100
AcDbLayerTableRecord
  2
Ech.1_5
 70
     0
 62
     7
  6
Continuous
370
    -3
390
F
347
46
348
0
  0
LAYER
  5
74
330
2
100
AcDbSymbolTableRecord
100
AcDbLayerTableRecord
  2
Ech.1_10
 70
     0
 62
     7
  6
Continuous
370
    -3
390
F
347
46
348
0
  0
LAYER
  5
75
330
2
100
AcDbSymbolTableRecord
100
AcDbLayerTableRecord
  2
Ech.1_20
 70
     0
 62
     7
  6
Continuous
370
    -3
390
F
347
46
348
0
  0
LAYER
  5
76
330
2
100
AcDbSymbolTableRecord
100
AcDbLayerTableRecord
  2
Ech.1_25
 70
     0
 62
     7
  6
Continuous
370
    -3
390
F
347
46
348
0
  0
LAYER
  5
77
330
2
100
AcDbSymbolTableRecord
100
AcDbLayerTableRecord
  2
Ech.1_33
 70
     0
 62
     7
  6
Continuous
370
    -3
390
F
347
46
348
0
  0
LAYER
  5
78
330
2
100
AcDbSymbolTableRecord
100
AcDbLayerTableRecord
  2
Ech.1_50
 70
     0
 62
     7
  6
Continuous
370
    -3
390
F
347
46
348
0
  0
LAYER
  5
79
330
2
100
AcDbSymbolTableRecord
100
AcDbLayerTableRecord
  2
Ech.1_75
 70
     0
 62
     7
  6
Continuous
370
    -3
390
F
347
46
348
0
  0
LAYER
  5
7A
330
2
100
AcDbSymbolTableRecord
100
AcDbLayerTableRecord
  2
Ech.1_100
 70
     0
 62
     7
  6
Continuous
370
    -3
390
F
347
46
348
0
  0
LAYER
  5
7B
330
2
100
AcDbSymbolTableRecord
100
AcDbLayerTableRecord
  2
Ech.1_200
 70
     0
 62
     7
  6
Continuous
370
    -3
390
F
347
46
348
0
  0
LAYER
  5
7C
330
2
100
AcDbSymbolTableRecord
100
AcDbLayerTableRecord
  2
Ech.1_500
 70
     0
 62
     7
  6
Continuous
370
    -3
390
F
347
46
348
0
  0
LAYER
  5
7D
330
2
100
AcDbSymbolTableRecord
100
AcDbLayerTableRecord
  2
Ech.1_1000
 70
     0
 62
     7
  6
Continuous
370
    -3
390
F
347
46
348
0
  0
LAYER
  5
7E
330
2
100
AcDbSymbolTableRecord
100
AcDbLayerTableRecord
  2
Cadres traceur
 70
     0
 62
     7
  6
Continuous
370
    -3
390
F
347
46
348
0
  0
LAYER
  5
7F
330
2
100
AcDbSymbolTableRecord
100
AcDbLayerTableRecord
  2
Cadres laser
 70
     0
 62
     7
  6
Continuous
370
    -3
390
F
347
46
348
0
  0
LAYER
  5
80
330
2
100
AcDbSymbolTableRecord
100
AcDbLayerTableRecord
  2
Légende d_aide
 70
     0
 62
     7
  6
Continuous
370
    -3
390
F
347
46
348
0
  0
ENDTAB
  0
TABLE
  2
STYLE
  5
3
330
0
100
AcDbSymbolTable
 70
     8
  0
STYLE
  5
11
330
3
100
AcDbSymbolTableRecord
100
AcDbTextStyleTableRecord
  2
Standard
 70
     0
 40
0.0
 41
1.0
 50
0.0
 71
     0
 42
0.2
  3
txt
  4

  0
STYLE
  5
81
330
3
100
AcDbSymbolTableRecord
100
AcDbTextStyleTableRecord
  2
CwStyleShx
 70
     0
 40
1.0
 41
1.0
 50
0.0
 71
     0
 42
0.2
  3

  4

  0
STYLE
  5
82
330
3
100
AcDbSymbolTableRecord
100
AcDbTextStyleTableRecord
  2
CwStyleShx16
 70
     0
 40
1.0
 41
1.0
 50
0.0
 71
     0
 42
0.2
  3

  4

  0
STYLE
  5
83
330
3
100
AcDbSymbolTableRecord
100
AcDbTextStyleTableRecord
  2
MONOTXT
 70
     0
 40
0.0
 41
1.0
 50
0.0
 71
     0
 42
0.2
  3
MONOTXT
  4

  0
STYLE
  5
84
330
3
100
AcDbSymbolTableRecord
100
AcDbTextStyleTableRecord
  2
SYMAP
 70
     0
 40
1.0
 41
1.0
 50
0.0
 71
     0
 42
0.2
  3
SYMAP
  4

  0
STYLE
  5
85
330
3
100
AcDbSymbolTableRecord
100
AcDbTextStyleTableRecord
  2
CwStyleTtf
 70
     0
 40
1.0
 41
1.0
 50
0.0
 71
     0
 42
0.2
  3
arial.ttf
  4

  0
STYLE
  5
3E8
330
3
100
AcDbSymbolTableRecord
100
AcDbTextStyleTableRecord
  2
arial-
 70
     0
 40
1.0
 41
1.0
 50
0.0
 71
     0
 42
0.2
  3
arial.ttf
  4

1001
ACAD
1000
Arial
1071
        0
  0
STYLE
  5
3EC
330
3
100
AcDbSymbolTableRecord
100
AcDbTextStyleTableRecord
  2
tahoma-b
 70
     0
 40
1.0
 41
1.0
 50
0.0
 71
     0
 42
0.2
  3
tahomabd.ttf
  4

1001
ACAD
1000
Tahoma
1071
 33554432
  0
ENDTAB
  0
TABLE
  2
VIEW
  5
6
330
0
100
AcDbSymbolTable
 70
     0
  0
ENDTAB
  0
TABLE
  2
UCS
  5
7
330
0
100
AcDbSymbolTable
 70
     0
  0
ENDTAB
  0
TABLE
  2
APPID
  5
9
330
0
100
AcDbSymbolTable
 70
     3
  0
APPID
  5
12
330
9
100
AcDbSymbolTableRecord
100
AcDbRegAppTableRecord
  2
ACAD
 70
     0
  0
APPID
  5
6E
330
9
100
AcDbSymbolTableRecord
100
AcDbRegAppTableRecord
  2
Cadwork
 70
     0
  0
APPID
  5
232
330
9
100
AcDbSymbolTableRecord
100
AcDbRegAppTableRecord
  2
PLOTTRANSPARENCY
 70
     0
  0
ENDTAB
  0
TABLE
  2
DIMSTYLE
  5
A
330
0
100
AcDbSymbolTable
 70
     1
100
AcDbDimStyleTable
  0
DIMSTYLE
105
27
330
A
100
AcDbSymbolTableRecord
100
AcDbDimStyleTableRecord
  2
Standard
 70
     0
178
     0
340
11
  0
ENDTAB
  0
TABLE
  2
BLOCK_RECORD
  5
1
330
0
100
AcDbSymbolTable
 70
    69
  0
BLOCK_RECORD
  5
1F
330
1
100
AcDbSymbolTableRecord
100
AcDbBlockTableRecord
  2
*Model_Space
340
22
 70
     0
280
     1
281
     0
  0
BLOCK_RECORD
  5
22D
330
1
100
AcDbSymbolTableRecord
100
AcDbBlockTableRecord
  2
*Paper_Space
340
22E
 70
     0
280
     1
281
     0
  0
BLOCK_RECORD
  5
86
330
1
100
AcDbSymbolTableRecord
100
AcDbBlockTableRecord
  2
CDWK_PTTYP1
340
0
 70
     0
280
     1
281
     1
  0
BLOCK_RECORD
  5
8D
330
1
100
AcDbSymbolTableRecord
100
AcDbBlockTableRecord
  2
CDWK_PTTYP2
340
0
 70
     0
280
     1
281
     1
  0
BLOCK_RECORD
  5
92
330
1
100
AcDbSymbolTableRecord
100
AcDbBlockTableRecord
  2
CDWK_PTTYP4
340
0
 70
     0
280
     1
281
     1
  0
BLOCK_RECORD
  5
96
330
1
100
AcDbSymbolTableRecord
100
AcDbBlockTableRecord
  2
CDWK_PTTYP5
340
0
 70
     0
280
     1
281
     1
  0
BLOCK_RECORD
  5
9F
330
1
100
AcDbSymbolTableRecord
100
AcDbBlockTableRecord
  2
CDWK_PTTYP6
340
0
 70
     0
280
     1
281
     1
  0
BLOCK_RECORD
  5
A7
330
1
100
AcDbSymbolTableRecord
100
AcDbBlockTableRecord
  2
CDWK_PTTYP7
340
0
 70
     0
280
     1
281
     1
  0
BLOCK_RECORD
  5
B0
330
1
100
AcDbSymbolTableRecord
100
AcDbBlockTableRecord
  2
CDWK_PTTYP8
340
0
 70
     0
280
     1
281
     1
  0
BLOCK_RECORD
  5
B4
330
1
100
AcDbSymbolTableRecord
100
AcDbBlockTableRecord
  2
CDWK_PTTYP9
340
0
 70
     0
280
     1
281
     1
  0
BLOCK_RECORD
  5
B9
330
1
100
AcDbSymbolTableRecord
100
AcDbBlockTableRecord
  2
CDWK_PTTYP10
340
0
 70
     0
280
     1
281
     1
  0
BLOCK_RECORD
  5
BD
330
1
100
AcDbSymbolTableRecord
100
AcDbBlockTableRecord
  2
CDWK_PTTYP11
340
0
 70
     0
280
     1
281
     1
  0
BLOCK_RECORD
  5
C2
330
1
100
AcDbSymbolTableRecord
100
AcDbBlockTableRecord
  2
CDWK_PTTYP12
340
0
 70
     0
280
     1
281
     1
  0
BLOCK_RECORD
  5
C7
330
1
100
AcDbSymbolTableRecord
100
AcDbBlockTableRecord
  2
CDWK_PTTYP13
340
0
 70
     0
280
     1
281
     1
  0
BLOCK_RECORD
  5
CD
330
1
100
AcDbSymbolTableRecord
100
AcDbBlockTableRecord
  2
CDWK_PTTYP16
340
0
 70
     0
280
     1
281
     1
  0
BLOCK_RECORD
  5
D4
330
1
100
AcDbSymbolTableRecord
100
AcDbBlockTableRecord
  2
CDWK_PTTYP17
340
0
 70
     0
280
     1
281
     1
  0
BLOCK_RECORD
  5
D9
330
1
100
AcDbSymbolTableRecord
100
AcDbBlockTableRecord
  2
CDWK_PTTYP18
340
0
 70
     0
280
     1
281
     1
  0
BLOCK_RECORD
  5
DE
330
1
100
AcDbSymbolTableRecord
100
AcDbBlockTableRecord
  2
CDWK_PTTYP19
340
0
 70
     0
280
     1
281
     1
  0
BLOCK_RECORD
  5
E4
330
1
100
AcDbSymbolTableRecord
100
AcDbBlockTableRecord
  2
CDWK_PTTYP20
340
0
 70
     0
280
     1
281
     1
  0
BLOCK_RECORD
  5
E9
330
1
100
AcDbSymbolTableRecord
100
AcDbBlockTableRecord
  2
CDWK_PTTYP21
340
0
 70
     0
280
     1
281
     1
  0
BLOCK_RECORD
  5
EE
330
1
100
AcDbSymbolTableRecord
100
AcDbBlockTableRecord
  2
CDWK_PTTYP25
340
0
 70
     0
280
     1
281
     1
  0
BLOCK_RECORD
  5
F5
330
1
100
AcDbSymbolTableRecord
100
AcDbBlockTableRecord
  2
CDWK_PTTYP26
340
0
 70
     0
280
     1
281
     1
  0
BLOCK_RECORD
  5
FC
330
1
100
AcDbSymbolTableRecord
100
AcDbBlockTableRecord
  2
CDWK_PTTYP27
340
0
 70
     0
280
     1
281
     1
  0
BLOCK_RECORD
  5
104
330
1
100
AcDbSymbolTableRecord
100
AcDbBlockTableRecord
  2
CDWK_PTTYP28
340
0
 70
     0
280
     1
281
     1
  0
BLOCK_RECORD
  5
10B
330
1
100
AcDbSymbolTableRecord
100
AcDbBlockTableRecord
  2
CDWK_PTTYP29
340
0
 70
     0
280
     1
281
     1
  0
BLOCK_RECORD
  5
111
330
1
100
AcDbSymbolTableRecord
100
AcDbBlockTableRecord
  2
CDWK_PTTYP30
340
0
 70
     0
280
     1
281
     1
  0
BLOCK_RECORD
  5
118
330
1
100
AcDbSymbolTableRecord
100
AcDbBlockTableRecord
  2
CDWK_PTTYP31
340
0
 70
     0
280
     1
281
     1
  0
BLOCK_RECORD
  5
120
330
1
100
AcDbSymbolTableRecord
100
AcDbBlockTableRecord
  2
CDWK_PTTYP32
340
0
 70
     0
280
     1
281
     1
  0
BLOCK_RECORD
  5
129
330
1
100
AcDbSymbolTableRecord
100
AcDbBlockTableRecord
  2
CDWK_PTTYP33
340
0
 70
     0
280
     1
281
     1
  0
BLOCK_RECORD
  5
12F
330
1
100
AcDbSymbolTableRecord
100
AcDbBlockTableRecord
  2
CDWK_PTTYP34
340
0
 70
     0
280
     1
281
     1
  0
BLOCK_RECORD
  5
135
330
1
100
AcDbSymbolTableRecord
100
AcDbBlockTableRecord
  2
CDWK_PTTYP35
340
0
 70
     0
280
     1
281
     1
  0
BLOCK_RECORD
  5
13B
330
1
100
AcDbSymbolTableRecord
100
AcDbBlockTableRecord
  2
CDWK_PTTYP36
340
0
 70
     0
280
     1
281
     1
  0
BLOCK_RECORD
  5
143
330
1
100
AcDbSymbolTableRecord
100
AcDbBlockTableRecord
  2
CDWK_PTTYP37
340
0
 70
     0
280
     1
281
     1
  0
BLOCK_RECORD
  5
148
330
1
100
AcDbSymbolTableRecord
100
AcDbBlockTableRecord
  2
CDWK_PTTYP38
340
0
 70
     0
280
     1
281
     1
  0
BLOCK_RECORD
  5
14E
330
1
100
AcDbSymbolTableRecord
100
AcDbBlockTableRecord
  2
CDWK_PTTYP41
340
0
 70
     0
280
     1
281
     1
  0
BLOCK_RECORD
  5
158
330
1
100
AcDbSymbolTableRecord
100
AcDbBlockTableRecord
  2
CDWK_PTTYP42
340
0
 70
     0
280
     1
281
     1
  0
BLOCK_RECORD
  5
161
330
1
100
AcDbSymbolTableRecord
100
AcDbBlockTableRecord
  2
CDWK_PTTYP43
340
0
 70
     0
280
     1
281
     1
  0
BLOCK_RECORD
  5
167
330
1
100
AcDbSymbolTableRecord
100
AcDbBlockTableRecord
  2
CDWK_PTTYP44
340
0
 70
     0
280
     1
281
     1
  0
BLOCK_RECORD
  5
170
330
1
100
AcDbSymbolTableRecord
100
AcDbBlockTableRecord
  2
CDWK_PTTYP45
340
0
 70
     0
280
     1
281
     1
  0
BLOCK_RECORD
  5
175
330
1
100
AcDbSymbolTableRecord
100
AcDbBlockTableRecord
  2
CDWK_PTTYP46
340
0
 70
     0
280
     1
281
     1
  0
BLOCK_RECORD
  5
17A
330
1
100
AcDbSymbolTableRecord
100
AcDbBlockTableRecord
  2
CDWK_PTTYP47
340
0
 70
     0
280
     1
281
     1
  0
BLOCK_RECORD
  5
183
330
1
100
AcDbSymbolTableRecord
100
AcDbBlockTableRecord
  2
CDWK_PTTYP48
340
0
 70
     0
280
     1
281
     1
  0
BLOCK_RECORD
  5
188
330
1
100
AcDbSymbolTableRecord
100
AcDbBlockTableRecord
  2
CDWK_PTTYP49
340
0
 70
     0
280
     1
281
     1
  0
BLOCK_RECORD
  5
18F
330
1
100
AcDbSymbolTableRecord
100
AcDbBlockTableRecord
  2
CDWK_PTTYP50
340
0
 70
     0
280
     1
281
     1
  0
BLOCK_RECORD
  5
199
330
1
100
AcDbSymbolTableRecord
100
AcDbBlockTableRecord
  2
CDWK_PTTYP51
340
0
 70
     0
280
     1
281
     1
  0
BLOCK_RECORD
  5
19E
330
1
100
AcDbSymbolTableRecord
100
AcDbBlockTableRecord
  2
CDWK_PTTYP52
340
0
 70
     0
280
     1
281
     1
  0
BLOCK_RECORD
  5
1A4
330
1
100
AcDbSymbolTableRecord
100
AcDbBlockTableRecord
  2
cw-dimension-symbol1
340
0
 70
     0
280
     1
281
     0
  0
BLOCK_RECORD
  5
1AB
330
1
100
AcDbSymbolTableRecord
100
AcDbBlockTableRecord
  2
cw-dimension-symbol2
340
0
 70
     0
280
     1
281
     0
  0
BLOCK_RECORD
  5
1B0
330
1
100
AcDbSymbolTableRecord
100
AcDbBlockTableRecord
  2
cw-dimension-symbol3
340
0
 70
     0
280
     1
281
     0
  0
BLOCK_RECORD
  5
1B5
330
1
100
AcDbSymbolTableRecord
100
AcDbBlockTableRecord
  2
cw-dimension-symbol5
340
0
 70
     0
280
     1
281
     0
  0
BLOCK_RECORD
  5
1BC
330
1
100
AcDbSymbolTableRecord
100
AcDbBlockTableRecord
  2
cw-dimension-symbol6
340
0
 70
     0
280
     1
281
     0
  0
BLOCK_RECORD
  5
1C2
330
1
100
AcDbSymbolTableRecord
100
AcDbBlockTableRecord
  2
cw-dimension-symbol11
340
0
 70
     0
280
     1
281
     0
  0
BLOCK_RECORD
  5
1C8
330
1
100
AcDbSymbolTableRecord
100
AcDbBlockTableRecord
  2
cw-dimension-symbol13
340
0
 70
     0
280
     1
281
     0
  0
BLOCK_RECORD
  5
1CE
330
1
100
AcDbSymbolTableRecord
100
AcDbBlockTableRecord
  2
cw-dimension-symbol15
340
0
 70
     0
280
     1
281
     0
  0
BLOCK_RECORD
  5
1D5
330
1
100
AcDbSymbolTableRecord
100
AcDbBlockTableRecord
  2
cw-dimension-symbol16
340
0
 70
     0
280
     1
281
     0
  0
BLOCK_RECORD
  5
1DC
330
1
100
AcDbSymbolTableRecord
100
AcDbBlockTableRecord
  2
cw-dimension-symbol17
340
0
 70
     0
280
     1
281
     0
  0
BLOCK_RECORD
  5
1E3
330
1
100
AcDbSymbolTableRecord
100
AcDbBlockTableRecord
  2
cw-dimension-symbol18
340
0
 70
     0
280
     1
281
     0
  0
BLOCK_RECORD
  5
1EA
330
1
100
AcDbSymbolTableRecord
100
AcDbBlockTableRecord
  2
cw-dimension-symbol19
340
0
 70
     0
280
     1
281
     0
  0
BLOCK_RECORD
  5
1ED
330
1
100
AcDbSymbolTableRecord
100
AcDbBlockTableRecord
  2
cw-dimension-symbol20
340
0
 70
     0
280
     1
281
     0
  0
BLOCK_RECORD
  5
1F4
330
1
100
AcDbSymbolTableRecord
100
AcDbBlockTableRecord
  2
cw-dimension-symbol21
340
0
 70
     0
280
     1
281
     0
  0
BLOCK_RECORD
  5
1FB
330
1
100
AcDbSymbolTableRecord
100
AcDbBlockTableRecord
  2
cw-line-extremity0
340
0
 70
     0
280
     1
281
     0
  0
BLOCK_RECORD
  5
1FF
330
1
100
AcDbSymbolTableRecord
100
AcDbBlockTableRecord
  2
cw-line-extremity2
340
0
 70
     0
280
     1
281
     0
  0
BLOCK_RECORD
  5
204
330
1
100
AcDbSymbolTableRecord
100
AcDbBlockTableRecord
  2
cw-line-extremity3
340
0
 70
     0
280
     1
281
     0
  0
BLOCK_RECORD
  5
209
330
1
100
AcDbSymbolTableRecord
100
AcDbBlockTableRecord
  2
cw-line-extremity301
340
0
 70
     0
280
     1
281
     0
  0
BLOCK_RECORD
  5
20B
330
1
100
AcDbSymbolTableRecord
100
AcDbBlockTableRecord
  2
cw-line-extremity4
340
0
102
{BLKREFS
331
23C
331
31E
331
320
331
322
331
324
331
3DA
102
}
 70
     0
280
     1
281
     0
  0
BLOCK_RECORD
  5
20D
330
1
100
AcDbSymbolTableRecord
100
AcDbBlockTableRecord
  2
cw-line-extremity5
340
0
 70
     0
280
     1
281
     0
  0
BLOCK_RECORD
  5
20F
330
1
100
AcDbSymbolTableRecord
100
AcDbBlockTableRecord
  2
cw-line-extremity6
340
0
 70
     0
280
     1
281
     0
  0
BLOCK_RECORD
  5
211
330
1
100
AcDbSymbolTableRecord
100
AcDbBlockTableRecord
  2
cw-line-extremity9
340
0
 70
     0
280
     1
281
     0
  0
BLOCK_RECORD
  5
213
330
1
100
AcDbSymbolTableRecord
100
AcDbBlockTableRecord
  2
cw-line-extremity10
340
0
 70
     0
280
     1
281
     0
  0
BLOCK_RECORD
  5
215
330
1
100
AcDbSymbolTableRecord
100
AcDbBlockTableRecord
  2
cw-line-extremity1
340
0
 70
     0
280
     1
281
     0
  0
BLOCK_RECORD
  5
1B
330
1
100
AcDbSymbolTableRecord
100
AcDbBlockTableRecord
  2
*Paper_Space69
340
1E
 70
     0
280
     1
281
     0
  0
ENDTAB
  0
ENDSEC
  0
SECTION
  2
BLOCKS
  0
BLOCK
  5
20
330
1F
100
AcDbEntity
  8
0
100
AcDbBlockBegin
  2
*Model_Space
 70
     0
 10
0.0
 20
0.0
 30
0.0
  3
*Model_Space
  1

  0
ENDBLK
  5
21
330
1F
100
AcDbEntity
  8
0
100
AcDbBlockEnd
  0
BLOCK
  5
22F
330
22D
100
AcDbEntity
 67
     1
  8
0
100
AcDbBlockBegin
  2
*Paper_Space
 70
     0
 10
0.0
 20
0.0
 30
0.0
  3
*Paper_Space
  1

  0
ENDBLK
  5
230
330
22D
100
AcDbEntity
 67
     1
  8
0
100
AcDbBlockEnd
  0
BLOCK
  5
8B
330
86
100
AcDbEntity
  8
0
100
AcDbBlockBegin
  2
CDWK_PTTYP1
 70
     0
 10
0.0
 20
0.0
 30
0.0
  3
CDWK_PTTYP1
  1

  0
LINE
  5
87
330
86
100
AcDbEntity
  8
0
 62
     0
370
    -2
100
AcDbLine
 10
-0.5
 20
0.5
 30
0.0
 11
0.5
 21
0.5
 31
0.0
  0
LINE
  5
88
330
86
100
AcDbEntity
  8
0
 62
     0
370
    -2
100
AcDbLine
 10
0.5
 20
0.5
 30
0.0
 11
0.5
 21
-0.5
 31
0.0
  0
LINE
  5
89
330
86
100
AcDbEntity
  8
0
 62
     0
370
    -2
100
AcDbLine
 10
0.5
 20
-0.5
 30
0.0
 11
-0.5
 21
-0.5
 31
0.0
  0
LINE
  5
8A
330
86
100
AcDbEntity
  8
0
 62
     0
370
    -2
100
AcDbLine
 10
-0.5
 20
-0.5
 30
0.0
 11
-0.5
 21
0.5
 31
0.0
  0
ENDBLK
  5
8C
330
86
100
AcDbEntity
  8
0
100
AcDbBlockEnd
  0
BLOCK
  5
90
330
8D
100
AcDbEntity
  8
0
100
AcDbBlockBegin
  2
CDWK_PTTYP2
 70
     0
 10
0.0
 20
0.0
 30
0.0
  3
CDWK_PTTYP2
  1

  0
LINE
  5
8E
330
8D
100
AcDbEntity
  8
0
 62
     0
370
    -2
100
AcDbLine
 10
0.0
 20
0.5
 30
0.0
 11
0.0
 21
-0.5
 31
0.0
  0
LINE
  5
8F
330
8D
100
AcDbEntity
  8
0
 62
     0
370
    -2
100
AcDbLine
 10
0.5
 20
0.0
 30
0.0
 11
-0.5
 21
0.0
 31
0.0
  0
ENDBLK
  5
91
330
8D
100
AcDbEntity
  8
0
100
AcDbBlockEnd
  0
BLOCK
  5
94
330
92
100
AcDbEntity
  8
0
100
AcDbBlockBegin
  2
CDWK_PTTYP4
 70
     0
 10
0.0
 20
0.0
 30
0.0
  3
CDWK_PTTYP4
  1

  0
HATCH
  5
93
330
92
100
AcDbEntity
  8
0
 62
     0
370
    -2
100
AcDbHatch
 10
0.0
 20
0.0
 30
0.0
210
0.0
220
0.0
230
1.0
  2
SOLID
 70
     1
 71
     1
 91
        1
 92
        1
 93
        1
 72
     2
 10
0.0
 20
0.0
 40
0.5
 50
0.0
 51
360.0
 73
     1
 97
        0
 75
     0
 76
     1
 98
        0
  0
ENDBLK
  5
95
330
92
100
AcDbEntity
  8
0
100
AcDbBlockEnd
  0
BLOCK
  5
9D
330
96
100
AcDbEntity
  8
0
100
AcDbBlockBegin
  2
CDWK_PTTYP5
 70
     0
 10
0.0
 20
0.0
 30
0.0
  3
CDWK_PTTYP5
  1

  0
LINE
  5
97
330
96
100
AcDbEntity
  8
0
 62
     0
370
    -2
100
AcDbLine
 10
-0.5
 20
0.5
 30
0.0
 11
0.5
 21
0.5
 31
0.0
  0
LINE
  5
98
330
96
100
AcDbEntity
  8
0
 62
     0
370
    -2
100
AcDbLine
 10
0.5
 20
0.5
 30
0.0
 11
0.5
 21
-0.5
 31
0.0
  0
LINE
  5
99
330
96
100
AcDbEntity
  8
0
 62
     0
370
    -2
100
AcDbLine
 10
0.5
 20
-0.5
 30
0.0
 11
-0.5
 21
-0.5
 31
0.0
  0
LINE
  5
9A
330
96
100
AcDbEntity
  8
0
 62
     0
370
    -2
100
AcDbLine
 10
-0.5
 20
-0.5
 30
0.0
 11
-0.5
 21
0.5
 31
0.0
  0
HATCH
  5
9B
330
96
100
AcDbEntity
  8
0
 62
     0
370
    -2
100
AcDbHatch
 10
0.0
 20
0.0
 30
0.0
210
0.0
220
0.0
230
1.0
  2
SOLID
 70
     1
 71
     1
 91
        1
 92
        3
 72
     0
 73
     1
 93
        4
 10
-0.5
 20
0.0
 10
0.0
 20
0.0
 10
0.0
 20
-0.5
 10
-0.5
 20
-0.5
 97
        0
 75
     0
 76
     1
 98
        0
  0
HATCH
  5
9C
330
96
100
AcDbEntity
  8
0
 62
     0
370
    -2
100
AcDbHatch
 10
0.0
 20
0.0
 30
0.0
210
0.0
220
0.0
230
1.0
  2
SOLID
 70
     1
 71
     1
 91
        1
 92
        3
 72
     0
 73
     1
 93
        4
 10
0.0
 20
0.0
 10
0.5
 20
0.0
 10
0.5
 20
0.5
 10
0.0
 20
0.5
 97
        0
 75
     0
 76
     1
 98
        0
  0
ENDBLK
  5
9E
330
96
100
AcDbEntity
  8
0
100
AcDbBlockEnd
  0
BLOCK
  5
A5
330
9F
100
AcDbEntity
  8
0
100
AcDbBlockBegin
  2
CDWK_PTTYP6
 70
     0
 10
0.0
 20
0.0
 30
0.0
  3
CDWK_PTTYP6
  1

  0
LINE
  5
A0
330
9F
100
AcDbEntity
  8
0
 62
     0
370
    -2
100
AcDbLine
 10
-0.5
 20
0.5
 30
0.0
 11
0.5
 21
0.5
 31
0.0
  0
LINE
  5
A1
330
9F
100
AcDbEntity
  8
0
 62
     0
370
    -2
100
AcDbLine
 10
0.5
 20
0.5
 30
0.0
 11
0.5
 21
-0.5
 31
0.0
  0
LINE
  5
A2
330
9F
100
AcDbEntity
  8
0
 62
     0
370
    -2
100
AcDbLine
 10
0.5
 20
-0.5
 30
0.0
 11
-0.5
 21
-0.5
 31
0.0
  0
LINE
  5
A3
330
9F
100
AcDbEntity
  8
0
 62
     0
370
    -2
100
AcDbLine
 10
-0.5
 20
-0.5
 30
0.0
 11
-0.5
 21
0.5
 31
0.0
  0
HATCH
  5
A4
330
9F
100
AcDbEntity
  8
0
 62
     0
370
    -2
100
AcDbHatch
 10
0.0
 20
0.0
 30
0.0
210
0.0
220
0.0
230
1.0
  2
SOLID
 70
     1
 71
     1
 91
        1
 92
        3
 72
     0
 73
     1
 93
        3
 10
-0.5
 20
-0.5
 10
-0.5
 20
0.5
 10
0.5
 20
0.5
 97
        0
 75
     0
 76
     1
 98
        0
  0
ENDBLK
  5
A6
330
9F
100
AcDbEntity
  8
0
100
AcDbBlockEnd
  0
BLOCK
  5
AE
330
A7
100
AcDbEntity
  8
0
100
AcDbBlockBegin
  2
CDWK_PTTYP7
 70
     0
 10
0.0
 20
0.0
 30
0.0
  3
CDWK_PTTYP7
  1

  0
LINE
  5
A8
330
A7
100
AcDbEntity
  8
0
 62
     0
370
    -2
100
AcDbLine
 10
-0.5
 20
0.5
 30
0.0
 11
0.5
 21
0.5
 31
0.0
  0
LINE
  5
A9
330
A7
100
AcDbEntity
  8
0
 62
     0
370
    -2
100
AcDbLine
 10
0.5
 20
0.5
 30
0.0
 11
0.5
 21
-0.5
 31
0.0
  0
LINE
  5
AA
330
A7
100
AcDbEntity
  8
0
 62
     0
370
    -2
100
AcDbLine
 10
0.5
 20
-0.5
 30
0.0
 11
-0.5
 21
-0.5
 31
0.0
  0
LINE
  5
AB
330
A7
100
AcDbEntity
  8
0
 62
     0
370
    -2
100
AcDbLine
 10
-0.5
 20
-0.5
 30
0.0
 11
-0.5
 21
0.5
 31
0.0
  0
LINE
  5
AC
330
A7
100
AcDbEntity
  8
0
 62
     0
370
    -2
100
AcDbLine
 10
0.0
 20
0.5
 30
0.0
 11
0.0
 21
-0.5
 31
0.0
  0
LINE
  5
AD
330
A7
100
AcDbEntity
  8
0
 62
     0
370
    -2
100
AcDbLine
 10
0.5
 20
0.0
 30
0.0
 11
-0.5
 21
0.0
 31
0.0
  0
ENDBLK
  5
AF
330
A7
100
AcDbEntity
  8
0
100
AcDbBlockEnd
  0
BLOCK
  5
B2
330
B0
100
AcDbEntity
  8
0
100
AcDbBlockBegin
  2
CDWK_PTTYP8
 70
     0
 10
0.0
 20
0.0
 30
0.0
  3
CDWK_PTTYP8
  1

  0
HATCH
  5
B1
330
B0
100
AcDbEntity
  8
0
 62
     0
370
    -2
100
AcDbHatch
 10
0.0
 20
0.0
 30
0.0
210
0.0
220
0.0
230
1.0
  2
SOLID
 70
     1
 71
     1
 91
        1
 92
        3
 72
     0
 73
     1
 93
        4
 10
0.5
 20
0.5
 10
0.5
 20
-0.5
 10
-0.5
 20
-0.5
 10
-0.5
 20
0.5
 97
        0
 75
     0
 76
     1
 98
        0
  0
ENDBLK
  5
B3
330
B0
100
AcDbEntity
  8
0
100
AcDbBlockEnd
  0
BLOCK
  5
B7
330
B4
100
AcDbEntity
  8
0
100
AcDbBlockBegin
  2
CDWK_PTTYP9
 70
     0
 10
0.0
 20
0.0
 30
0.0
  3
CDWK_PTTYP9
  1

  0
CIRCLE
  5
B5
330
B4
100
AcDbEntity
  8
0
 62
     0
370
    -2
100
AcDbCircle
 10
0.0
 20
0.0
 30
0.0
 40
0.1666666666666667
  0
CIRCLE
  5
B6
330
B4
100
AcDbEntity
  8
0
 62
     0
370
    -2
100
AcDbCircle
 10
0.0
 20
0.0
 30
0.0
 40
0.5
  0
ENDBLK
  5
B8
330
B4
100
AcDbEntity
  8
0
100
AcDbBlockEnd
  0
BLOCK
  5
BB
330
B9
100
AcDbEntity
  8
0
100
AcDbBlockBegin
  2
CDWK_PTTYP10
 70
     0
 10
0.0
 20
0.0
 30
0.0
  3
CDWK_PTTYP10
  1

  0
CIRCLE
  5
BA
330
B9
100
AcDbEntity
  8
0
 62
     0
370
    -2
100
AcDbCircle
 10
0.0
 20
0.0
 30
0.0
 40
0.5
  0
ENDBLK
  5
BC
330
B9
100
AcDbEntity
  8
0
100
AcDbBlockEnd
  0
BLOCK
  5
C0
330
BD
100
AcDbEntity
  8
0
100
AcDbBlockBegin
  2
CDWK_PTTYP11
 70
     0
 10
0.0
 20
0.0
 30
0.0
  3
CDWK_PTTYP11
  1

  0
CIRCLE
  5
BE
330
BD
100
AcDbEntity
  8
0
 62
     0
370
    -2
100
AcDbCircle
 10
0.0
 20
0.0
 30
0.0
 40
0.25
  0
CIRCLE
  5
BF
330
BD
100
AcDbEntity
  8
0
 62
     0
370
    -2
100
AcDbCircle
 10
0.0
 20
0.0
 30
0.0
 40
0.5
  0
ENDBLK
  5
C1
330
BD
100
AcDbEntity
  8
0
100
AcDbBlockEnd
  0
BLOCK
  5
C5
330
C2
100
AcDbEntity
  8
0
100
AcDbBlockBegin
  2
CDWK_PTTYP12
 70
     0
 10
0.0
 20
0.0
 30
0.0
  3
CDWK_PTTYP12
  1

  0
CIRCLE
  5
C3
330
C2
100
AcDbEntity
  8
0
 62
     0
370
    -2
100
AcDbCircle
 10
0.25
 20
0.0
 30
0.0
 40
0.25
  0
CIRCLE
  5
C4
330
C2
100
AcDbEntity
  8
0
 62
     0
370
    -2
100
AcDbCircle
 10
0.0
 20
0.0
 30
0.0
 40
0.5
  0
ENDBLK
  5
C6
330
C2
100
AcDbEntity
  8
0
100
AcDbBlockEnd
  0
BLOCK
  5
CB
330
C7
100
AcDbEntity
  8
0
100
AcDbBlockBegin
  2
CDWK_PTTYP13
 70
     0
 10
0.0
 20
0.0
 30
0.0
  3
CDWK_PTTYP13
  1

  0
CIRCLE
  5
C8
330
C7
100
AcDbEntity
  8
0
 62
     0
370
    -2
100
AcDbCircle
 10
-0.25
 20
0.0
 30
0.0
 40
0.25
  0
CIRCLE
  5
C9
330
C7
100
AcDbEntity
  8
0
 62
     0
370
    -2
100
AcDbCircle
 10
0.25
 20
0.0
 30
0.0
 40
0.25
  0
CIRCLE
  5
CA
330
C7
100
AcDbEntity
  8
0
 62
     0
370
    -2
100
AcDbCircle
 10
0.0
 20
0.0
 30
0.0
 40
0.5
  0
ENDBLK
  5
CC
330
C7
100
AcDbEntity
  8
0
100
AcDbBlockEnd
  0
BLOCK
  5
D2
330
CD
100
AcDbEntity
  8
0
100
AcDbBlockBegin
  2
CDWK_PTTYP16
 70
     0
 10
0.0
 20
0.0
 30
0.0
  3
CDWK_PTTYP16
  1

  0
LINE
  5
CE
330
CD
100
AcDbEntity
  8
0
 62
     0
370
    -2
100
AcDbLine
 10
-0.5
 20
-0.289
 30
0.0
 11
0.5
 21
-0.289
 31
0.0
  0
LINE
  5
CF
330
CD
100
AcDbEntity
  8
0
 62
     0
370
    -2
100
AcDbLine
 10
0.5
 20
-0.289
 30
0.0
 11
0.0
 21
0.577
 31
0.0
  0
LINE
  5
D0
330
CD
100
AcDbEntity
  8
0
 62
     0
370
    -2
100
AcDbLine
 10
0.0
 20
0.577
 30
0.0
 11
-0.5
 21
-0.289
 31
0.0
  0
CIRCLE
  5
D1
330
CD
100
AcDbEntity
  8
0
 62
     0
370
    -2
100
AcDbCircle
 10
0.0
 20
0.0
 30
0.0
 40
0.289
  0
ENDBLK
  5
D3
330
CD
100
AcDbEntity
  8
0
100
AcDbBlockEnd
  0
BLOCK
  5
D7
330
D4
100
AcDbEntity
  8
0
100
AcDbBlockBegin
  2
CDWK_PTTYP17
 70
     0
 10
0.0
 20
0.0
 30
0.0
  3
CDWK_PTTYP17
  1

  0
CIRCLE
  5
D5
330
D4
100
AcDbEntity
  8
0
 62
     0
370
    -2
100
AcDbCircle
 10
0.0
 20
0.0
 30
0.0
 40
0.5
  0
HATCH
  5
D6
330
D4
100
AcDbEntity
  8
0
 62
     0
370
    -2
100
AcDbHatch
 10
0.0
 20
0.0
 30
0.0
210
0.0
220
0.0
230
1.0
  2
SOLID
 70
     1
 71
     1
 91
        1
 92
        1
 93
        1
 72
     2
 10
0.0
 20
0.0
 40
0.25
 50
0.0
 51
360.0
 73
     1
 97
        0
 75
     0
 76
     1
 98
        0
  0
ENDBLK
  5
D8
330
D4
100
AcDbEntity
  8
0
100
AcDbBlockEnd
  0
BLOCK
  5
DC
330
D9
100
AcDbEntity
  8
0
100
AcDbBlockBegin
  2
CDWK_PTTYP18
 70
     0
 10
0.0
 20
0.0
 30
0.0
  3
CDWK_PTTYP18
  1

  0
CIRCLE
  5
DA
330
D9
100
AcDbEntity
  8
0
 62
     0
370
    -2
100
AcDbCircle
 10
0.0
 20
0.0
 30
0.0
 40
0.5
  0
CIRCLE
  5
DB
330
D9
100
AcDbEntity
  8
0
 62
     0
370
    -2
100
AcDbCircle
 10
0.0
 20
0.0
 30
0.0
 40
0.208
  0
ENDBLK
  5
DD
330
D9
100
AcDbEntity
  8
0
100
AcDbBlockEnd
  0
BLOCK
  5
E2
330
DE
100
AcDbEntity
  8
0
100
AcDbBlockBegin
  2
CDWK_PTTYP19
 70
     0
 10
0.0
 20
0.0
 30
0.0
  3
CDWK_PTTYP19
  1

  0
CIRCLE
  5
DF
330
DE
100
AcDbEntity
  8
0
 62
     0
370
    -2
100
AcDbCircle
 10
0.0
 20
0.0
 30
0.0
 40
0.25
  0
CIRCLE
  5
E0
330
DE
100
AcDbEntity
  8
0
 62
     0
370
    -2
100
AcDbCircle
 10
0.0
 20
0.0
 30
0.0
 40
0.35
  0
LINE
  5
E1
330
DE
100
AcDbEntity
  8
0
 62
     0
370
    -2
100
AcDbLine
 10
-0.25
 20
0.0
 30
0.0
 11
0.25
 21
0.0
 31
0.0
  0
ENDBLK
  5
E3
330
DE
100
AcDbEntity
  8
0
100
AcDbBlockEnd
  0
BLOCK
  5
E7
330
E4
100
AcDbEntity
  8
0
100
AcDbBlockBegin
  2
CDWK_PTTYP20
 70
     0
 10
0.0
 20
0.0
 30
0.0
  3
CDWK_PTTYP20
  1

  0
CIRCLE
  5
E5
330
E4
100
AcDbEntity
  8
0
 62
     0
370
    -2
100
AcDbCircle
 10
0.0
 20
0.0
 30
0.0
 40
0.3333333333333333
  0
CIRCLE
  5
E6
330
E4
100
AcDbEntity
  8
0
 62
     0
370
    -2
100
AcDbCircle
 10
0.0
 20
0.0
 30
0.0
 40
0.5
  0
ENDBLK
  5
E8
330
E4
100
AcDbEntity
  8
0
100
AcDbBlockEnd
  0
BLOCK
  5
EC
330
E9
100
AcDbEntity
  8
0
100
AcDbBlockBegin
  2
CDWK_PTTYP21
 70
     0
 10
0.0
 20
0.0
 30
0.0
  3
CDWK_PTTYP21
  1

  0
CIRCLE
  5
EA
330
E9
100
AcDbEntity
  8
0
 62
     0
370
    -2
100
AcDbCircle
 10
0.0
 20
0.0
 30
0.0
 40
0.5
  0
LINE
  5
EB
330
E9
100
AcDbEntity
  8
0
 62
     0
370
    -2
100
AcDbLine
 10
-0.5
 20
0.0
 30
0.0
 11
0.5
 21
0.0
 31
0.0
  0
ENDBLK
  5
ED
330
E9
100
AcDbEntity
  8
0
100
AcDbBlockEnd
  0
BLOCK
  5
F3
330
EE
100
AcDbEntity
  8
0
100
AcDbBlockBegin
  2
CDWK_PTTYP25
 70
     0
 10
0.0
 20
0.0
 30
0.0
  3
CDWK_PTTYP25
  1

  0
LINE
  5
EF
330
EE
100
AcDbEntity
  8
0
 62
     0
370
    -2
100
AcDbLine
 10
0.0
 20
0.5
 30
0.0
 11
-0.4330127018922193
 21
-0.25
 31
0.0
  0
LINE
  5
F0
330
EE
100
AcDbEntity
  8
0
 62
     0
370
    -2
100
AcDbLine
 10
-0.4330127018922193
 20
-0.25
 30
0.0
 11
0.4330127018922193
 21
-0.25
 31
0.0
  0
LINE
  5
F1
330
EE
100
AcDbEntity
  8
0
 62
     0
370
    -2
100
AcDbLine
 10
0.4330127018922193
 20
-0.25
 30
0.0
 11
0.0
 21
0.5
 31
0.0
  0
CIRCLE
  5
F2
330
EE
100
AcDbEntity
  8
0
 62
     0
370
    -2
100
AcDbCircle
 10
0.0
 20
0.0
 30
0.0
 40
0.5
  0
ENDBLK
  5
F4
330
EE
100
AcDbEntity
  8
0
100
AcDbBlockEnd
  0
BLOCK
  5
FA
330
F5
100
AcDbEntity
  8
0
100
AcDbBlockBegin
  2
CDWK_PTTYP26
 70
     0
 10
0.0
 20
0.0
 30
0.0
  3
CDWK_PTTYP26
  1

  0
LINE
  5
F6
330
F5
100
AcDbEntity
  8
0
 62
     0
370
    -2
100
AcDbLine
 10
-0.5
 20
-0.289
 30
0.0
 11
0.5
 21
-0.289
 31
0.0
  0
LINE
  5
F7
330
F5
100
AcDbEntity
  8
0
 62
     0
370
    -2
100
AcDbLine
 10
0.5
 20
-0.289
 30
0.0
 11
0.0
 21
0.577
 31
0.0
  0
LINE
  5
F8
330
F5
100
AcDbEntity
  8
0
 62
     0
370
    -2
100
AcDbLine
 10
0.0
 20
0.577
 30
0.0
 11
-0.5
 21
-0.289
 31
0.0
  0
CIRCLE
  5
F9
330
F5
100
AcDbEntity
  8
0
 62
     0
370
    -2
100
AcDbCircle
 10
0.0
 20
0.0
 30
0.0
 40
0.125
  0
ENDBLK
  5
FB
330
F5
100
AcDbEntity
  8
0
100
AcDbBlockEnd
  0
BLOCK
  5
102
330
FC
100
AcDbEntity
  8
0
100
AcDbBlockBegin
  2
CDWK_PTTYP27
 70
     0
 10
0.0
 20
0.0
 30
0.0
  3
CDWK_PTTYP27
  1

  0
LINE
  5
FD
330
FC
100
AcDbEntity
  8
0
 62
     0
370
    -2
100
AcDbLine
 10
0.0
 20
0.5
 30
0.0
 11
-0.4330127018922193
 21
-0.25
 31
0.0
  0
LINE
  5
FE
330
FC
100
AcDbEntity
  8
0
 62
     0
370
    -2
100
AcDbLine
 10
-0.4330127018922193
 20
-0.25
 30
0.0
 11
0.4330127018922193
 21
-0.25
 31
0.0
  0
LINE
  5
FF
330
FC
100
AcDbEntity
  8
0
 62
     0
370
    -2
100
AcDbLine
 10
0.4330127018922193
 20
-0.25
 30
0.0
 11
0.0
 21
0.5
 31
0.0
  0
CIRCLE
  5
100
330
FC
100
AcDbEntity
  8
0
 62
     0
370
    -2
100
AcDbCircle
 10
0.0
 20
0.0
 30
0.0
 40
0.125
  0
CIRCLE
  5
101
330
FC
100
AcDbEntity
  8
0
 62
     0
370
    -2
100
AcDbCircle
 10
0.0
 20
0.0
 30
0.0
 40
0.5
  0
ENDBLK
  5
103
330
FC
100
AcDbEntity
  8
0
100
AcDbBlockEnd
  0
BLOCK
  5
109
330
104
100
AcDbEntity
  8
0
100
AcDbBlockBegin
  2
CDWK_PTTYP28
 70
     0
 10
0.0
 20
0.0
 30
0.0
  3
CDWK_PTTYP28
  1

  0
LINE
  5
105
330
104
100
AcDbEntity
  8
0
 62
     0
370
    -2
100
AcDbLine
 10
-0.5
 20
0.5
 30
0.0
 11
0.5
 21
0.5
 31
0.0
  0
LINE
  5
106
330
104
100
AcDbEntity
  8
0
 62
     0
370
    -2
100
AcDbLine
 10
0.5
 20
0.5
 30
0.0
 11
-0.5
 21
-0.5
 31
0.0
  0
LINE
  5
107
330
104
100
AcDbEntity
  8
0
 62
     0
370
    -2
100
AcDbLine
 10
0.5
 20
-0.5
 30
0.0
 11
-0.5
 21
-0.5
 31
0.0
  0
LINE
  5
108
330
104
100
AcDbEntity
  8
0
 62
     0
370
    -2
100
AcDbLine
 10
-0.5
 20
0.5
 30
0.0
 11
0.5
 21
-0.5
 31
0.0
  0
ENDBLK
  5
10A
330
104
100
AcDbEntity
  8
0
100
AcDbBlockEnd
  0
BLOCK
  5
10F
330
10B
100
AcDbEntity
  8
0
100
AcDbBlockBegin
  2
CDWK_PTTYP29
 70
     0
 10
0.0
 20
0.0
 30
0.0
  3
CDWK_PTTYP29
  1

  0
CIRCLE
  5
10C
330
10B
100
AcDbEntity
  8
0
 62
     0
370
    -2
100
AcDbCircle
 10
0.0
 20
0.0
 30
0.0
 40
0.2
  0
CIRCLE
  5
10D
330
10B
100
AcDbEntity
  8
0
 62
     0
370
    -2
100
AcDbCircle
 10
0.0
 20
0.0
 30
0.0
 40
0.35
  0
CIRCLE
  5
10E
330
10B
100
AcDbEntity
  8
0
 62
     0
370
    -2
100
AcDbCircle
 10
0.0
 20
0.0
 30
0.0
 40
0.5
  0
ENDBLK
  5
110
330
10B
100
AcDbEntity
  8
0
100
AcDbBlockEnd
  0
BLOCK
  5
116
330
111
100
AcDbEntity
  8
0
100
AcDbBlockBegin
  2
CDWK_PTTYP30
 70
     0
 10
0.0
 20
0.0
 30
0.0
  3
CDWK_PTTYP30
  1

  0
LINE
  5
112
330
111
100
AcDbEntity
  8
0
 62
     0
370
    -2
100
AcDbLine
 10
-0.5
 20
0.5
 30
0.0
 11
-0.1
 21
0.1
 31
0.0
  0
LINE
  5
113
330
111
100
AcDbEntity
  8
0
 62
     0
370
    -2
100
AcDbLine
 10
0.5
 20
0.5
 30
0.0
 11
0.1
 21
0.1
 31
0.0
  0
LINE
  5
114
330
111
100
AcDbEntity
  8
0
 62
     0
370
    -2
100
AcDbLine
 10
0.5
 20
-0.5
 30
0.0
 11
0.1
 21
-0.1
 31
0.0
  0
LINE
  5
115
330
111
100
AcDbEntity
  8
0
 62
     0
370
    -2
100
AcDbLine
 10
-0.5
 20
-0.5
 30
0.0
 11
-0.1
 21
-0.1
 31
0.0
  0
ENDBLK
  5
117
330
111
100
AcDbEntity
  8
0
100
AcDbBlockEnd
  0
BLOCK
  5
11E
330
118
100
AcDbEntity
  8
0
100
AcDbBlockBegin
  2
CDWK_PTTYP31
 70
     0
 10
0.0
 20
0.0
 30
0.0
  3
CDWK_PTTYP31
  1

  0
LINE
  5
119
330
118
100
AcDbEntity
  8
0
 62
     0
370
    -2
100
AcDbLine
 10
-0.5
 20
0.0
 30
0.0
 11
-0.1
 21
0.0
 31
0.0
  0
LINE
  5
11A
330
118
100
AcDbEntity
  8
0
 62
     0
370
    -2
100
AcDbLine
 10
0.1
 20
0.0
 30
0.0
 11
0.5
 21
0.0
 31
0.0
  0
LINE
  5
11B
330
118
100
AcDbEntity
  8
0
 62
     0
370
    -2
100
AcDbLine
 10
0.0
 20
0.5
 30
0.0
 11
0.0
 21
0.1
 31
0.0
  0
LINE
  5
11C
330
118
100
AcDbEntity
  8
0
 62
     0
370
    -2
100
AcDbLine
 10
0.0
 20
-0.1
 30
0.0
 11
0.0
 21
-0.5
 31
0.0
  0
CIRCLE
  5
11D
330
118
100
AcDbEntity
  8
0
 62
     0
370
    -2
100
AcDbCircle
 10
0.0
 20
0.0
 30
0.0
 40
0.1
  0
ENDBLK
  5
11F
330
118
100
AcDbEntity
  8
0
100
AcDbBlockEnd
  0
BLOCK
  5
127
330
120
100
AcDbEntity
  8
0
100
AcDbBlockBegin
  2
CDWK_PTTYP32
 70
     0
 10
0.0
 20
0.0
 30
0.0
  3
CDWK_PTTYP32
  1

  0
CIRCLE
  5
121
330
120
100
AcDbEntity
  8
0
 62
     0
370
    -2
100
AcDbCircle
 10
0.0
 20
0.0
 30
0.0
 40
0.2
  0
CIRCLE
  5
122
330
120
100
AcDbEntity
  8
0
 62
     0
370
    -2
100
AcDbCircle
 10
0.0
 20
0.0
 30
0.0
 40
0.5
  0
LINE
  5
123
330
120
100
AcDbEntity
  8
0
 62
     0
370
    -2
100
AcDbLine
 10
0.1414213562373095
 20
0.1414213562373095
 30
0.0
 11
0.3535533905932738
 21
0.3535533905932738
 31
0.0
  0
LINE
  5
124
330
120
100
AcDbEntity
  8
0
 62
     0
370
    -2
100
AcDbLine
 10
-0.1414213562373095
 20
0.1414213562373095
 30
0.0
 11
-0.3535533905932738
 21
0.3535533905932738
 31
0.0
  0
LINE
  5
125
330
120
100
AcDbEntity
  8
0
 62
     0
370
    -2
100
AcDbLine
 10
0.1414213562373095
 20
-0.1414213562373095
 30
0.0
 11
0.3535533905932738
 21
-0.3535533905932738
 31
0.0
  0
LINE
  5
126
330
120
100
AcDbEntity
  8
0
 62
     0
370
    -2
100
AcDbLine
 10
-0.1414213562373095
 20
-0.1414213562373095
 30
0.0
 11
-0.3535533905932738
 21
-0.3535533905932738
 31
0.0
  0
ENDBLK
  5
128
330
120
100
AcDbEntity
  8
0
100
AcDbBlockEnd
  0
BLOCK
  5
12D
330
129
100
AcDbEntity
  8
0
100
AcDbBlockBegin
  2
CDWK_PTTYP33
 70
     0
 10
0.0
 20
0.0
 30
0.0
  3
CDWK_PTTYP33
  1

  0
LINE
  5
12A
330
129
100
AcDbEntity
  8
0
 62
     0
370
    -2
100
AcDbLine
 10
0.0
 20
-0.5
 30
0.0
 11
0.0
 21
0.5
 31
0.0
  0
LINE
  5
12B
330
129
100
AcDbEntity
  8
0
 62
     0
370
    -2
100
AcDbLine
 10
0.5
 20
0.0
 30
0.0
 11
-0.5
 21
0.0
 31
0.0
  0
CIRCLE
  5
12C
330
129
100
AcDbEntity
  8
0
 62
     0
370
    -2
100
AcDbCircle
 10
0.0
 20
0.0
 30
0.0
 40
0.5
  0
ENDBLK
  5
12E
330
129
100
AcDbEntity
  8
0
100
AcDbBlockEnd
  0
BLOCK
  5
133
330
12F
100
AcDbEntity
  8
0
100
AcDbBlockBegin
  2
CDWK_PTTYP34
 70
     0
 10
0.0
 20
0.0
 30
0.0
  3
CDWK_PTTYP34
  1

  0
CIRCLE
  5
130
330
12F
100
AcDbEntity
  8
0
 62
     0
370
    -2
100
AcDbCircle
 10
0.0
 20
0.0
 30
0.0
 40
0.5
  0
LINE
  5
131
330
12F
100
AcDbEntity
  8
0
 62
     0
370
    -2
100
AcDbLine
 10
-0.4
 20
-0.3
 30
0.0
 11
0.3
 21
0.4
 31
0.0
  0
LINE
  5
132
330
12F
100
AcDbEntity
  8
0
 62
     0
370
    -2
100
AcDbLine
 10
-0.3
 20
-0.4
 30
0.0
 11
0.4
 21
0.3
 31
0.0
  0
ENDBLK
  5
134
330
12F
100
AcDbEntity
  8
0
100
AcDbBlockEnd
  0
BLOCK
  5
139
330
135
100
AcDbEntity
  8
0
100
AcDbBlockBegin
  2
CDWK_PTTYP35
 70
     0
 10
0.0
 20
0.0
 30
0.0
  3
CDWK_PTTYP35
  1

  0
LINE
  5
136
330
135
100
AcDbEntity
  8
0
 62
     0
370
    -2
100
AcDbLine
 10
0.0
 20
0.2
 30
0.0
 11
0.0
 21
0.5
 31
0.0
  0
LINE
  5
137
330
135
100
AcDbEntity
  8
0
 62
     0
370
    -2
100
AcDbLine
 10
0.0
 20
-0.2
 30
0.0
 11
0.0
 21
-0.5
 31
0.0
  0
CIRCLE
  5
138
330
135
100
AcDbEntity
  8
0
 62
     0
370
    -2
100
AcDbCircle
 10
0.0
 20
0.0
 30
0.0
 40
0.2
  0
ENDBLK
  5
13A
330
135
100
AcDbEntity
  8
0
100
AcDbBlockEnd
  0
BLOCK
  5
141
330
13B
100
AcDbEntity
  8
0
100
AcDbBlockBegin
  2
CDWK_PTTYP36
 70
     0
 10
0.0
 20
0.0
 30
0.0
  3
CDWK_PTTYP36
  1

  0
LINE
  5
13C
330
13B
100
AcDbEntity
  8
0
 62
     0
370
    -2
100
AcDbLine
 10
-0.5
 20
0.2
 30
0.0
 11
0.5
 21
0.2
 31
0.0
  0
LINE
  5
13D
330
13B
100
AcDbEntity
  8
0
 62
     0
370
    -2
100
AcDbLine
 10
0.5
 20
0.2
 30
0.0
 11
0.5
 21
-0.2
 31
0.0
  0
LINE
  5
13E
330
13B
100
AcDbEntity
  8
0
 62
     0
370
    -2
100
AcDbLine
 10
0.5
 20
-0.2
 30
0.0
 11
-0.5
 21
-0.2
 31
0.0
  0
LINE
  5
13F
330
13B
100
AcDbEntity
  8
0
 62
     0
370
    -2
100
AcDbLine
 10
-0.5
 20
-0.2
 30
0.0
 11
-0.5
 21
0.2
 31
0.0
  0
HATCH
  5
140
330
13B
100
AcDbEntity
  8
0
 62
     0
370
    -2
100
AcDbHatch
 10
0.0
 20
0.0
 30
0.0
210
0.0
220
0.0
230
1.0
  2
SOLID
 70
     1
 71
     1
 91
        1
 92
        3
 72
     0
 73
     1
 93
        3
 10
-0.5
 20
-0.2
 10
0.5
 20
-0.2
 10
0.5
 20
0.2
 97
        0
 75
     0
 76
     1
 98
        0
  0
ENDBLK
  5
142
330
13B
100
AcDbEntity
  8
0
100
AcDbBlockEnd
  0
BLOCK
  5
146
330
143
100
AcDbEntity
  8
0
100
AcDbBlockBegin
  2
CDWK_PTTYP37
 70
     0
 10
0.0
 20
0.0
 30
0.0
  3
CDWK_PTTYP37
  1

  0
HATCH
  5
144
330
143
100
AcDbEntity
  8
0
 62
     0
370
    -2
100
AcDbHatch
 10
0.0
 20
0.0
 30
0.0
210
0.0
220
0.0
230
1.0
  2
SOLID
 70
     1
 71
     1
 91
        1
 92
        3
 72
     0
 73
     1
 93
      202
 10
-0.3535533905932738
 20
-0.3535533905932738
 10
-0.3485533905932738
 20
-0.3535533905932737
 10
-0.3435533905932738
 20
-0.3584836591895546
 10
-0.3385533905932738
 20
-0.3632782236961988
 10
-0.3335533905932738
 20
-0.367942389128785
 10
-0.3285533905932738
 20
-0.372481054046687
 10
-0.3235533905932738
 20
-0.3768987523588579
 10
-0.3185533905932738
 20
-0.3811996897107819
 10
-0.3135533905932738
 20
-0.3853877752881235
 10
-0.3085533905932737
 20
-0.3894666497242888
 10
-0.3035533905932737
 20
-0.3934397096803965
 10
-0.2985533905932737
 20
-0.3973101295704999
 10
-0.2935533905932737
 20
-0.4010808808273714
 10
-0.2885533905932737
 20
-0.4047547490409382
 10
-0.2835533905932737
 20
-0.4083343492496384
 10
-0.2785533905932737
 20
-0.4118221396222626
 10
-0.2735533905932737
 20
-0.4152204337324827
 10
-0.2685533905932737
 20
-0.4185314115988474
 10
-0.2635533905932737
 20
-0.4217571296384408
 10
-0.2585533905932737
 20
-0.4248995296617653
 10
-0.2535533905932737
 20
-0.4279604470190231
 10
-0.2485533905932737
 20
-0.4309416179932669
 10
-0.2435533905932737
 20
-0.4338446865234004
 10
-0.2385533905932737
 20
-0.4366712103293738
 10
-0.2335533905932737
 20
-0.439422666502825
 10
-0.2285533905932737
 20
-0.4421004566186126
 10
-0.2235533905932737
 20
-0.4447059114159811
 10
-0.2185533905932737
 20
-0.4472402950923041
 10
-0.2135533905932737
 20
-0.4497048092473372
 10
-0.2085533905932737
 20
-0.4521005965115692
 10
-0.2035533905932737
 20
-0.4544287438884664
 10
-0.1985533905932736
 20
-0.456690285837111
 10
-0.1935533905932736
 20
-0.45888620711884
 10
-0.1885533905932736
 20
-0.4610174454289638
 10
-0.1835533905932736
 20
-0.4630848938324164
 10
-0.1785533905932736
 20
-0.4650894030202291
 10
-0.1735533905932736
 20
-0.4670317834019928
 10
-0.1685533905932736
 20
-0.46891280704794
 10
-0.1635533905932736
 20
-0.4707332094929264
 10
-0.1585533905932736
 20
-0.4724936914133818
 10
-0.1535533905932736
 20
-0.4741949201872336
 10
-0.1485533905932736
 20
-0.4758375313458466
 10
-0.1435533905932736
 20
-0.4774221299261716
 10
-0.1385533905932736
 20
-0.4789492917305286
 10
-0.1335533905932736
 20
-0.4804195645007682
 10
-0.1285533905932736
 20
-0.4818334690129366
 10
-0.1235533905932736
 20
-0.4831915000980183
 10
-0.1185533905932736
 20
-0.4844941275938295
 10
-0.1135533905932736
 20
-0.4857417972326848
 10
-0.1085533905932736
 20
-0.4869349314690531
 10
-0.1035533905932736
 20
-0.4880739302510473
 10
-0.0985533905932736
 20
-0.489159171739258
 10
-0.0935533905932736
 20
-0.4901910129761353
 10
-0.0885533905932736
 20
-0.4911697905088447
 10
-0.0835533905932735
 20
-0.4920958209682695
 10
-0.0785533905932735
 20
-0.4929694016065986
 10
-0.0735533905932735
 20
-0.4937908107957261
 10
-0.0685533905932735
 20
-0.494560308488493
 10
-0.0635533905932735
 20
-0.4952781366446192
 10
-0.0585533905932735
 20
-0.4959445196230107
 10
-0.0535533905932735
 20
-0.4965596645419678
 10
-0.0485533905932735
 20
-0.4971237616086806
 10
-0.0435533905932735
 20
-0.4976369844192622
 10
-0.0385533905932735
 20
-0.4980994902304456
 10
-0.0335533905932735
 20
-0.4985114202039533
 10
-0.0285533905932735
 20
-0.4988728996244386
 10
-0.0235533905932735
 20
-0.4991840380917923
 10
-0.0185533905932735
 20
-0.49944492968851
 10
-0.0135533905932735
 20
-0.4996556531227215
 10
-0.0085533905932735
 20
-0.4998162718473921
 10
-0.0035533905932735
 20
-0.4999268341561182
 10
0.0014466094067265
 20
-0.499987373255857
 10
0.0064466094067265
 20
-0.4999979073168451
 10
0.0114466094067265
 20
-0.4999584394998819
 10
0.0164466094067265
 20
-0.4998689579610739
 10
0.0214466094067265
 20
-0.4997294358340547
 10
0.0264466094067265
 20
-0.4995398311896213
 10
0.0314466094067265
 20
-0.4993000869726422
 10
0.0364466094067265
 20
-0.4990101309160174
 10
0.0414466094067265
 20
-0.4986698754313855
 10
0.0464466094067265
 20
-0.498279217476192
 10
0.0514466094067265
 20
-0.4978380383966446
 10
0.0564466094067265
 20
-0.497346203745994
 10
0.0614466094067265
 20
-0.4968035630774849
 10
0.0664466094067264
 20
-0.4962099497112257
 10
0.0714466094067265
 20
-0.4955651804741228
 10
0.0764466094067265
 20
-0.4948690554119167
 10
0.0814466094067265
 20
-0.4941213574722463
 10
0.0864466094067265
 20
-0.4933218521575424
 10
0.0914466094067265
 20
-0.4924702871464235
 10
0.0964466094067265
 20
-0.4915663918821278
 10
0.1014466094067265
 20
-0.4906098771263643
 10
0.1064466094067265
 20
-0.4896004344768079
 10
0.1114466094067265
 20
-0.4885377358462822
 10
0.1164466094067265
 20
-0.4874214329014929
 10
0.1214466094067265
 20
-0.4862511564589613
 10
0.1264466094067265
 20
-0.4850265158355881
 10
0.1314466094067265
 20
-0.4837470981510305
 10
0.1364466094067265
 20
-0.482412467578809
 10
0.1414466094067265
 20
-0.4810221645427664
 10
0.1464466094067265
 20
-0.4795757048551781
 10
0.1514466094067265
 20
-0.4780725787924608
 10
0.1564466094067265
 20
-0.4765122501040308
 10
0.1614466094067265
 20
-0.4748941549494363
 10
0.1664466094067265
 20
-0.4732177007584056
 10
0.1714466094067265
 20
-0.4714822650079264
 10
0.1764466094067265
 20
-0.4696871939098801
 10
0.1814466094067266
 20
-0.4678318010021017
 10
0.1864466094067266
 20
-0.4659153656350076
 10
0.1914466094067266
 20
-0.4639371313451162
 10
0.1964466094067266
 20
-0.4618963041058764
 10
0.2014466094067266
 20
-0.4597920504451997
 10
0.2064466094067266
 20
-0.4576234954179405
 10
0.2114466094067266
 20
-0.4553897204202862
 10
0.2164466094067266
 20
-0.4530897608315588
 10
0.2214466094067266
 20
-0.45072260346729
 10
0.2264466094067266
 20
-0.4482871838255748
 10
0.2314466094067266
 20
-0.4457823831065977
 10
0.2364466094067266
 20
-0.4432070249828292
 10
0.2414466094067266
 20
-0.4405598720946596
 10
0.2464466094067266
 20
-0.4378396222431172
 10
0.2514466094067266
 20
-0.4350449042477435
 10
0.2564466094067266
 20
-0.4321742734336012
 10
0.2614466094067266
 20
-0.4292262067066663
 10
0.2664466094067266
 20
-0.4261990971714118
 10
0.2714466094067266
 20
-0.4230912482380831
 10
0.2764466094067266
 20
-0.4199008671598476
 10
0.2814466094067266
 20
-0.4166260579314797
 10
0.2864466094067266
 20
-0.4132648134712868
 10
0.2914466094067266
 20
-0.4098150069963156
 10
0.2964466094067266
 20
-0.4062743824871597
 10
0.3014466094067266
 20
-0.4026405441224911
 10
0.3064466094067266
 20
-0.3989109445442534
 10
0.3114466094067266
 20
-0.3950828717916294
 10
0.3164466094067266
 20
-0.391153434714632
 10
0.3214466094067266
 20
-0.3871195466454601
 10
0.3264466094067267
 20
-0.3829779070663467
 10
0.3314466094067267
 20
-0.3787249809648844
 10
0.3364466094067267
 20
-0.3743569755097196
 10
0.3414466094067267
 20
-0.3698698136084067
 10
0.3464466094067267
 20
-0.3652591038217257
 10
0.3514466094067267
 20
-0.3605201060004601
 10
0.3564466094067267
 20
-0.3556476918757041
 10
0.3614466094067267
 20
-0.3506362996645505
 10
0.3664466094067267
 20
-0.34547988153926
 10
0.3714466094067267
 20
-0.3401718425359658
 10
0.3764466094067267
 20
-0.334704969129899
 10
0.3814466094067267
 20
-0.3290713452523318
 10
0.3864466094067267
 20
-0.3232622529342269
 10
0.3914466094067267
 20
-0.3172680539828188
 10
0.3964466094067267
 20
-0.3110780480586465
 10
0.4014466094067267
 20
-0.304680301118911
 10
0.4064466094067267
 20
-0.2980614362775617
 10
0.4114466094067267
 20
-0.291206376478565
 10
0.4164466094067267
 20
-0.2840980246459106
 10
0.4214466094067267
 20
-0.276716861635935
 10
0.4264466094067267
 20
-0.2690404345439063
 10
0.4314466094067267
 20
-0.2610426963649944
 10
0.4364466094067267
 20
-0.2526931404518915
 10
0.4414466094067268
 20
-0.2439556458403291
 10
0.4464466094067268
 20
-0.2347869056044327
 10
0.4514466094067268
 20
-0.2251342376211081
 10
0.4564466094067268
 20
-0.2149324518428296
 10
0.4614466094067268
 20
-0.2040992228331676
 10
0.4664466094067268
 20
-0.1925279893081412
 10
0.4714466094067268
 20
-0.1800765408735088
 10
0.4764466094067268
 20
-0.1665475742210051
 10
0.4814466094067268
 20
-0.1516529867323223
 10
0.4864466094067268
 20
-0.1349413290684758
 10
0.4914466094067268
 20
-0.1156274024472547
 10
0.4964466094067268
 20
-0.0920881648347501
 10
0.5
 20
0.0
 10
0.495
 20
0.0
 10
0.49
 20
0.0705336798983295
 10
0.485
 20
0.0994987437106621
 10
0.48
 20
0.1215524578114322
 10
0.475
 20
0.14
 10
0.47
 20
0.15612494995996
 10
0.465
 20
0.1705872210923199
 10
0.46
 20
0.1837797594948911
 10
0.455
 20
0.1959591794226544
 10
0.45
 20
0.2073041244162789
 10
0.445
 20
0.2179449471770338
 10
0.4399999999999999
 20
0.2279802623035601
 10
0.4349999999999999
 20
0.2374868417407584
 10
0.4299999999999999
 20
0.2465258607124211
 10
0.4249999999999999
 20
0.2551470164434615
 10
0.4199999999999999
 20
0.2633913438213186
 10
0.4149999999999999
 20
0.2712931993250108
 10
0.4099999999999999
 20
0.2788816953476869
 10
0.4049999999999999
 20
0.2861817604250838
 10
0.3999999999999999
 20
0.2932149382279151
 10
0.3949999999999999
 20
0.3000000000000002
 10
0.3899999999999999
 20
0.3065534211193868
 10
0.3849999999999999
 20
0.3128897569432404
 10
0.3799999999999999
 20
0.3190219428189855
 10
0.3749999999999999
 20
0.3249615361854385
 10
0.3699999999999999
 20
0.330718913883074
 10
0.3649999999999999
 20
0.3363034344160049
 10
0.3599999999999999
 20
0.3417235724968357
 10
0.3549999999999999
 20
0.3469870314579496
 10
0.3535533905932738
 20
0.3535533905932738
 97
        0
 75
     0
 76
     1
 98
        0
  0
CIRCLE
  5
145
330
143
100
AcDbEntity
  8
0
 62
     0
370
    -2
100
AcDbCircle
 10
0.0
 20
0.0
 30
0.0
 40
0.5
  0
ENDBLK
  5
147
330
143
100
AcDbEntity
  8
0
100
AcDbBlockEnd
  0
BLOCK
  5
14C
330
148
100
AcDbEntity
  8
0
100
AcDbBlockBegin
  2
CDWK_PTTYP38
 70
     0
 10
0.0
 20
0.0
 30
0.0
  3
CDWK_PTTYP38
  1

  0
HATCH
  5
149
330
148
100
AcDbEntity
  8
0
 62
     0
370
    -2
100
AcDbHatch
 10
0.0
 20
0.0
 30
0.0
210
0.0
220
0.0
230
1.0
  2
SOLID
 70
     1
 71
     1
 91
        1
 92
        3
 72
     0
 73
     1
 93
      102
 10
0.0
 20
0.0
 10
0.0
 20
0.5
 10
0.005
 20
0.5
 10
0.01
 20
0.4999749993749688
 10
0.015
 20
0.4998999899979995
 10
0.02
 20
0.4997749493522059
 10
0.025
 20
0.4995998398718718
 10
0.03
 20
0.4993746088859545
 10
0.035
 20
0.4990991885387112
 10
0.04
 20
0.4987734956871706
 10
0.045
 20
0.4983974317750845
 10
0.05
 20
0.4979708826829135
 10
0.055
 20
0.49749371855331
 10
0.06
 20
0.4969657935914704
 10
0.065
 20
0.4963869458396343
 10
0.07
 20
0.4957569969249047
 10
0.075
 20
0.4950757517794626
 10
0.08
 20
0.4943429983321297
 10
0.085
 20
0.4935585071701227
 10
0.09
 20
0.4927220311697053
 10
0.095
 20
0.4918333050943175
 10
0.1
 20
0.4908920451586071
 10
0.105
 20
0.4898979485566356
 10
0.11
 20
0.4888506929523574
 10
0.115
 20
0.4877499359302879
 10
0.12
 20
0.4865953144040744
 10
0.125
 20
0.4853864439804639
 10
0.13
 20
0.4841229182759271
 10
0.135
 20
0.4828043081829325
 10
0.14
 20
0.4814301610825811
 10
0.145
 20
0.48
 10
0.15
 20
0.478513322698543
 10
0.1550000000000001
 20
0.4769696007084728
 10
0.1600000000000001
 20
0.4753682782853731
 10
0.1650000000000001
 20
0.4737087712930804
 10
0.1700000000000001
 20
0.4719904660054056
 10
0.1750000000000001
 20
0.4702127178203498
 10
0.1800000000000001
 20
0.4683748498798799
 10
0.1850000000000001
 20
0.466476151587624
 10
0.1900000000000001
 20
0.4645158770160606
 10
0.1950000000000001
 20
0.4624932431938871
 10
0.2000000000000001
 20
0.460407428263272
 10
0.2050000000000001
 20
0.4582575694955839
 10
0.2100000000000001
 20
0.4560427611529427
 10
0.2150000000000001
 20
0.4537620521815371
 10
0.2200000000000001
 20
0.4514144437210665
 10
0.2250000000000001
 20
0.4489988864128729
 10
0.2300000000000001
 20
0.4465142774872937
 10
0.2350000000000001
 20
0.4439594576084622
 10
0.2400000000000001
 20
0.4413332074521472
 10
0.2450000000000001
 20
0.4386342439892261
 10
0.2500000000000001
 20
0.4358612164439502
 10
0.2550000000000001
 20
0.4330127018922192
 10
0.2600000000000001
 20
0.4300872004605577
 10
0.2650000000000001
 20
0.4270831300812524
 10
0.2700000000000001
 20
0.423998820753077
 10
0.2750000000000001
 20
0.4208325082500162
 10
0.2800000000000001
 20
0.4175823272122516
 10
0.2850000000000001
 20
0.4142463035441595
 10
0.2900000000000001
 20
0.4108223460329293
 10
0.2950000000000002
 20
0.4073082370883259
 10
0.3000000000000002
 20
0.403701622488689
 10
0.3050000000000002
 20
0.3999999999999999
 10
0.3100000000000002
 20
0.3962007067131506
 10
0.3150000000000002
 20
0.3923009049186605
 10
0.3200000000000002
 20
0.3882975663070783
 10
0.3250000000000002
 20
0.3841874542459708
 10
0.3300000000000002
 20
0.3799671038392664
 10
0.3350000000000002
 20
0.3756327994198588
 10
0.3400000000000002
 20
0.3711805490593491
 10
0.3450000000000002
 20
0.366606055596467
 10
0.3500000000000002
 20
0.3619046835839512
 10
0.3550000000000002
 20
0.3570714214271423
 10
0.3600000000000002
 20
0.3521008378291649
 10
0.3650000000000002
 20
0.3469870314579492
 10
0.3700000000000002
 20
0.3417235724968353
 10
0.3750000000000002
 20
0.3363034344160045
 10
0.3800000000000002
 20
0.3307189138830736
 10
0.3850000000000002
 20
0.3249615361854382
 10
0.3900000000000002
 20
0.3190219428189851
 10
0.3950000000000002
 20
0.31288975694324
 10
0.4000000000000002
 20
0.3065534211193863
 10
0.4050000000000002
 20
0.2999999999999997
 10
0.4100000000000003
 20
0.2932149382279147
 10
0.4150000000000003
 20
0.2861817604250834
 10
0.4200000000000003
 20
0.2788816953476864
 10
0.4250000000000003
 20
0.2712931993250103
 10
0.4300000000000003
 20
0.263391343821318
 10
0.4350000000000003
 20
0.255147016443461
 10
0.4400000000000003
 20
0.2465258607124206
 10
0.4450000000000003
 20
0.2374868417407578
 10
0.4500000000000003
 20
0.2279802623035594
 10
0.4550000000000003
 20
0.2179449471770331
 10
0.4600000000000003
 20
0.2073041244162782
 10
0.4650000000000003
 20
0.1959591794226536
 10
0.4700000000000003
 20
0.1837797594948903
 10
0.4750000000000003
 20
0.170587221092319
 10
0.4800000000000003
 20
0.156124949959959
 10
0.4850000000000003
 20
0.1399999999999989
 10
0.4900000000000003
 20
0.1215524578114309
 10
0.4950000000000003
 20
0.0994987437106604
 10
0.5
 20
0.0
 97
        0
 75
     0
 76
     1
 98
        0
  0
HATCH
  5
14A
330
148
100
AcDbEntity
  8
0
 62
     0
370
    -2
100
AcDbHatch
 10
0.0
 20
0.0
 30
0.0
210
0.0
220
0.0
230
1.0
  2
SOLID
 70
     1
 71
     1
 91
        1
 92
        3
 72
     0
 73
     1
 93
      102
 10
0.0
 20
0.0
 10
-0.5
 20
0.0
 10
-0.495
 20
0.0
 10
-0.49
 20
-0.0705336798983295
 10
-0.485
 20
-0.0994987437106621
 10
-0.48
 20
-0.1215524578114322
 10
-0.475
 20
-0.14
 10
-0.47
 20
-0.15612494995996
 10
-0.465
 20
-0.1705872210923199
 10
-0.46
 20
-0.1837797594948911
 10
-0.455
 20
-0.1959591794226544
 10
-0.45
 20
-0.2073041244162789
 10
-0.445
 20
-0.2179449471770338
 10
-0.4399999999999999
 20
-0.2279802623035601
 10
-0.4349999999999999
 20
-0.2374868417407584
 10
-0.4299999999999999
 20
-0.2465258607124211
 10
-0.4249999999999999
 20
-0.2551470164434615
 10
-0.4199999999999999
 20
-0.2633913438213186
 10
-0.4149999999999999
 20
-0.2712931993250108
 10
-0.4099999999999999
 20
-0.2788816953476869
 10
-0.4049999999999999
 20
-0.2861817604250838
 10
-0.3999999999999999
 20
-0.2932149382279151
 10
-0.3949999999999999
 20
-0.3000000000000002
 10
-0.3899999999999999
 20
-0.3065534211193868
 10
-0.3849999999999999
 20
-0.3128897569432404
 10
-0.3799999999999999
 20
-0.3190219428189855
 10
-0.3749999999999999
 20
-0.3249615361854385
 10
-0.3699999999999999
 20
-0.330718913883074
 10
-0.3649999999999999
 20
-0.3363034344160049
 10
-0.3599999999999999
 20
-0.3417235724968357
 10
-0.3549999999999999
 20
-0.3469870314579496
 10
-0.3499999999999999
 20
-0.3521008378291652
 10
-0.3449999999999999
 20
-0.3570714214271427
 10
-0.3399999999999999
 20
-0.3619046835839516
 10
-0.3349999999999999
 20
-0.3666060555964674
 10
-0.3299999999999998
 20
-0.3711805490593494
 10
-0.3249999999999998
 20
-0.3756327994198591
 10
-0.3199999999999998
 20
-0.3799671038392667
 10
-0.3149999999999998
 20
-0.3841874542459711
 10
-0.3099999999999998
 20
-0.3882975663070786
 10
-0.3049999999999998
 20
-0.3923009049186608
 10
-0.2999999999999998
 20
-0.3962007067131507
 10
-0.2949999999999998
 20
-0.4000000000000001
 10
-0.2899999999999998
 20
-0.4037016224886891
 10
-0.2849999999999998
 20
-0.4073082370883261
 10
-0.2799999999999998
 20
-0.4108223460329296
 10
-0.2749999999999998
 20
-0.4142463035441597
 10
-0.2699999999999998
 20
-0.4175823272122518
 10
-0.2649999999999998
 20
-0.4208325082500164
 10
-0.2599999999999998
 20
-0.4239988207530773
 10
-0.2549999999999998
 20
-0.4270831300812526
 10
-0.2499999999999998
 20
-0.4300872004605579
 10
-0.2449999999999998
 20
-0.4330127018922195
 10
-0.2399999999999998
 20
-0.4358612164439503
 10
-0.2349999999999998
 20
-0.4386342439892263
 10
-0.2299999999999998
 20
-0.4413332074521473
 10
-0.2249999999999998
 20
-0.4439594576084624
 10
-0.2199999999999998
 20
-0.4465142774872939
 10
-0.2149999999999997
 20
-0.4489988864128731
 10
-0.2099999999999997
 20
-0.4514144437210667
 10
-0.2049999999999997
 20
-0.4537620521815372
 10
-0.1999999999999997
 20
-0.4560427611529429
 10
-0.1949999999999997
 20
-0.4582575694955841
 10
-0.1899999999999997
 20
-0.4604074282632722
 10
-0.1849999999999997
 20
-0.4624932431938872
 10
-0.1799999999999997
 20
-0.4645158770160608
 10
-0.1749999999999997
 20
-0.4664761515876241
 10
-0.1699999999999997
 20
-0.46837484987988
 10
-0.1649999999999997
 20
-0.47021271782035
 10
-0.1599999999999997
 20
-0.4719904660054058
 10
-0.1549999999999997
 20
-0.4737087712930805
 10
-0.1499999999999997
 20
-0.4753682782853733
 10
-0.1449999999999997
 20
-0.4769696007084729
 10
-0.1399999999999997
 20
-0.4785133226985431
 10
-0.1349999999999997
 20
-0.4800000000000001
 10
-0.1299999999999997
 20
-0.4814301610825812
 10
-0.1249999999999997
 20
-0.4828043081829325
 10
-0.1199999999999997
 20
-0.4841229182759272
 10
-0.1149999999999997
 20
-0.485386443980464
 10
-0.1099999999999997
 20
-0.4865953144040744
 10
-0.1049999999999996
 20
-0.487749935930288
 10
-0.0999999999999996
 20
-0.4888506929523574
 10
-0.0949999999999996
 20
-0.4898979485566357
 10
-0.0899999999999996
 20
-0.4908920451586072
 10
-0.0849999999999996
 20
-0.4918333050943176
 10
-0.0799999999999996
 20
-0.4927220311697053
 10
-0.0749999999999996
 20
-0.4935585071701227
 10
-0.0699999999999996
 20
-0.4943429983321298
 10
-0.0649999999999996
 20
-0.4950757517794626
 10
-0.0599999999999996
 20
-0.4957569969249048
 10
-0.0549999999999996
 20
-0.4963869458396343
 10
-0.0499999999999996
 20
-0.4969657935914705
 10
-0.0449999999999996
 20
-0.49749371855331
 10
-0.0399999999999996
 20
-0.4979708826829135
 10
-0.0349999999999996
 20
-0.4983974317750846
 10
-0.0299999999999996
 20
-0.4987734956871706
 10
-0.0249999999999996
 20
-0.4990991885387112
 10
-0.0199999999999996
 20
-0.4993746088859545
 10
-0.0149999999999996
 20
-0.4995998398718719
 10
-0.0099999999999996
 20
-0.499774949352206
 10
-0.0049999999999996
 20
-0.4998999899979995
 10
0.0
 20
-0.5
 97
        0
 75
     0
 76
     1
 98
        0
  0
CIRCLE
  5
14B
330
148
100
AcDbEntity
  8
0
 62
     0
370
    -2
100
AcDbCircle
 10
0.0
 20
0.0
 30
0.0
 40
0.5
  0
ENDBLK
  5
14D
330
148
100
AcDbEntity
  8
0
100
AcDbBlockEnd
  0
BLOCK
  5
156
330
14E
100
AcDbEntity
  8
0
100
AcDbBlockBegin
  2
CDWK_PTTYP41
 70
     0
 10
0.0
 20
0.0
 30
0.0
  3
CDWK_PTTYP41
  1

  0
LINE
  5
14F
330
14E
100
AcDbEntity
  8
0
 62
     0
370
    -2
100
AcDbLine
 10
-0.5
 20
0.5
 30
0.0
 11
0.5
 21
0.5
 31
0.0
  0
LINE
  5
150
330
14E
100
AcDbEntity
  8
0
 62
     0
370
    -2
100
AcDbLine
 10
0.5
 20
0.5
 30
0.0
 11
0.5
 21
-0.5
 31
0.0
  0
LINE
  5
151
330
14E
100
AcDbEntity
  8
0
 62
     0
370
    -2
100
AcDbLine
 10
0.5
 20
-0.5
 30
0.0
 11
-0.5
 21
-0.5
 31
0.0
  0
LINE
  5
152
330
14E
100
AcDbEntity
  8
0
 62
     0
370
    -2
100
AcDbLine
 10
-0.5
 20
-0.5
 30
0.0
 11
-0.5
 21
0.5
 31
0.0
  0
LINE
  5
153
330
14E
100
AcDbEntity
  8
0
 62
     0
370
    -2
100
AcDbLine
 10
-0.375
 20
0.25
 30
0.0
 11
0.375
 21
0.25
 31
0.0
  0
LINE
  5
154
330
14E
100
AcDbEntity
  8
0
 62
     0
370
    -2
100
AcDbLine
 10
-0.375
 20
0.0
 30
0.0
 11
0.375
 21
0.0
 31
0.0
  0
LINE
  5
155
330
14E
100
AcDbEntity
  8
0
 62
     0
370
    -2
100
AcDbLine
 10
-0.375
 20
-0.25
 30
0.0
 11
0.375
 21
-0.25
 31
0.0
  0
ENDBLK
  5
157
330
14E
100
AcDbEntity
  8
0
100
AcDbBlockEnd
  0
BLOCK
  5
15F
330
158
100
AcDbEntity
  8
0
100
AcDbBlockBegin
  2
CDWK_PTTYP42
 70
     0
 10
0.0
 20
0.0
 30
0.0
  3
CDWK_PTTYP42
  1

  0
LINE
  5
159
330
158
100
AcDbEntity
  8
0
 62
     0
370
    -2
100
AcDbLine
 10
-0.5
 20
0.5
 30
0.0
 11
0.5
 21
0.5
 31
0.0
  0
LINE
  5
15A
330
158
100
AcDbEntity
  8
0
 62
     0
370
    -2
100
AcDbLine
 10
0.5
 20
0.5
 30
0.0
 11
0.5
 21
-0.5
 31
0.0
  0
LINE
  5
15B
330
158
100
AcDbEntity
  8
0
 62
     0
370
    -2
100
AcDbLine
 10
0.5
 20
-0.5
 30
0.0
 11
-0.5
 21
-0.5
 31
0.0
  0
LINE
  5
15C
330
158
100
AcDbEntity
  8
0
 62
     0
370
    -2
100
AcDbLine
 10
-0.5
 20
-0.5
 30
0.0
 11
-0.5
 21
0.5
 31
0.0
  0
LINE
  5
15D
330
158
100
AcDbEntity
  8
0
 62
     0
370
    -2
100
AcDbLine
 10
-0.375
 20
0.125
 30
0.0
 11
0.375
 21
0.125
 31
0.0
  0
LINE
  5
15E
330
158
100
AcDbEntity
  8
0
 62
     0
370
    -2
100
AcDbLine
 10
-0.375
 20
-0.125
 30
0.0
 11
0.375
 21
-0.125
 31
0.0
  0
ENDBLK
  5
160
330
158
100
AcDbEntity
  8
0
100
AcDbBlockEnd
  0
BLOCK
  5
165
330
161
100
AcDbEntity
  8
0
100
AcDbBlockBegin
  2
CDWK_PTTYP43
 70
     0
 10
0.0
 20
0.0
 30
0.0
  3
CDWK_PTTYP43
  1

  0
CIRCLE
  5
162
330
161
100
AcDbEntity
  8
0
 62
     0
370
    -2
100
AcDbCircle
 10
0.0
 20
0.0
 30
0.0
 40
0.5
  0
LINE
  5
163
330
161
100
AcDbEntity
  8
0
 62
     0
370
    -2
100
AcDbLine
 10
-0.375
 20
0.166
 30
0.0
 11
0.375
 21
0.166
 31
0.0
  0
LINE
  5
164
330
161
100
AcDbEntity
  8
0
 62
     0
370
    -2
100
AcDbLine
 10
-0.375
 20
-0.166
 30
0.0
 11
0.375
 21
-0.166
 31
0.0
  0
ENDBLK
  5
166
330
161
100
AcDbEntity
  8
0
100
AcDbBlockEnd
  0
BLOCK
  5
16E
330
167
100
AcDbEntity
  8
0
100
AcDbBlockBegin
  2
CDWK_PTTYP44
 70
     0
 10
0.0
 20
0.0
 30
0.0
  3
CDWK_PTTYP44
  1

  0
CIRCLE
  5
168
330
167
100
AcDbEntity
  8
0
 62
     0
370
    -2
100
AcDbCircle
 10
0.0
 20
0.0
 30
0.0
 40
0.5
  0
LINE
  5
169
330
167
100
AcDbEntity
  8
0
 62
     0
370
    -2
100
AcDbLine
 10
-0.375
 20
0.333
 30
0.0
 11
0.375
 21
0.333
 31
0.0
  0
LINE
  5
16A
330
167
100
AcDbEntity
  8
0
 62
     0
370
    -2
100
AcDbLine
 10
-0.375
 20
0.166
 30
0.0
 11
0.375
 21
0.166
 31
0.0
  0
LINE
  5
16B
330
167
100
AcDbEntity
  8
0
 62
     0
370
    -2
100
AcDbLine
 10
-0.375
 20
0.0
 30
0.0
 11
0.375
 21
0.0
 31
0.0
  0
LINE
  5
16C
330
167
100
AcDbEntity
  8
0
 62
     0
370
    -2
100
AcDbLine
 10
-0.375
 20
-0.166
 30
0.0
 11
0.375
 21
-0.166
 31
0.0
  0
LINE
  5
16D
330
167
100
AcDbEntity
  8
0
 62
     0
370
    -2
100
AcDbLine
 10
-0.375
 20
-0.333
 30
0.0
 11
0.375
 21
-0.333
 31
0.0
  0
ENDBLK
  5
16F
330
167
100
AcDbEntity
  8
0
100
AcDbBlockEnd
  0
BLOCK
  5
173
330
170
100
AcDbEntity
  8
0
100
AcDbBlockBegin
  2
CDWK_PTTYP45
 70
     0
 10
0.0
 20
0.0
 30
0.0
  3
CDWK_PTTYP45
  1

  0
ELLIPSE
  5
171
330
170
100
AcDbEntity
  8
0
 62
     0
370
    -2
100
AcDbEllipse
 10
0.0
 20
0.0
 30
0.0
 11
0.5
 21
0.0
 31
0.0
210
0.0
220
0.0
230
1.0
 40
0.82
 41
0.0
 42
6.283185307179586
  0
CIRCLE
  5
172
330
170
100
AcDbEntity
  8
0
 62
     0
370
    -2
100
AcDbCircle
 10
-0.235
 20
0.0
 30
0.0
 40
0.26
  0
ENDBLK
  5
174
330
170
100
AcDbEntity
  8
0
100
AcDbBlockEnd
  0
BLOCK
  5
178
330
175
100
AcDbEntity
  8
0
100
AcDbBlockBegin
  2
CDWK_PTTYP46
 70
     0
 10
0.0
 20
0.0
 30
0.0
  3
CDWK_PTTYP46
  1

  0
ELLIPSE
  5
176
330
175
100
AcDbEntity
  8
0
 62
     0
370
    -2
100
AcDbEllipse
 10
0.0
 20
0.0
 30
0.0
 11
0.5
 21
0.0
 31
0.0
210
0.0
220
0.0
230
1.0
 40
0.82
 41
0.0
 42
6.283185307179586
  0
CIRCLE
  5
177
330
175
100
AcDbEntity
  8
0
 62
     0
370
    -2
100
AcDbCircle
 10
0.0
 20
0.15
 30
0.0
 40
0.26
  0
ENDBLK
  5
179
330
175
100
AcDbEntity
  8
0
100
AcDbBlockEnd
  0
BLOCK
  5
180
330
17A
100
AcDbEntity
  8
0
100
AcDbBlockBegin
  2
CDWK_PTTYP47
 70
     0
 10
0.0
 20
0.0
 30
0.0
  3
CDWK_PTTYP47
  1

  0
LINE
  5
17B
330
17A
100
AcDbEntity
  8
0
 62
     0
370
    -2
100
AcDbLine
 10
-0.5
 20
0.166
 30
0.0
 11
0.5
 21
0.166
 31
0.0
  0
LINE
  5
17C
330
17A
100
AcDbEntity
  8
0
 62
     0
370
    -2
100
AcDbLine
 10
0.5
 20
0.166
 30
0.0
 11
0.5
 21
-0.166
 31
0.0
  0
LINE
  5
17D
330
17A
100
AcDbEntity
  8
0
 62
     0
370
    -2
100
AcDbLine
 10
0.5
 20
-0.166
 30
0.0
 11
-0.5
 21
-0.166
 31
0.0
  0
LINE
  5
17E
330
17A
100
AcDbEntity
  8
0
 62
     0
370
    -2
100
AcDbLine
 10
-0.5
 20
-0.166
 30
0.0
 11
-0.5
 21
0.166
 31
0.0
  0
CIRCLE
  5
17F
330
17A
100
AcDbEntity
  8
0
 62
     0
370
    -2
100
AcDbCircle
 10
0.0
 20
-0.313
 30
0.0
 40
0.4
  0
ENDBLK
  5
181
330
17A
100
AcDbEntity
  8
0
100
AcDbBlockEnd
  0
BLOCK
  5
186
330
183
100
AcDbEntity
  8
0
100
AcDbBlockBegin
  2
CDWK_PTTYP48
 70
     0
 10
0.0
 20
0.0
 30
0.0
  3
CDWK_PTTYP48
  1

  0
CIRCLE
  5
184
330
183
100
AcDbEntity
  8
0
  6
CADWORK_3
 62
     0
 48
0.1
370
    -2
100
AcDbCircle
 10
0.0
 20
0.0
 30
0.0
 40
0.5
  0
CIRCLE
  5
185
330
183
100
AcDbEntity
  8
0
 62
     0
370
    -2
100
AcDbCircle
 10
0.0
 20
0.0
 30
0.0
 40
0.25
  0
ENDBLK
  5
187
330
183
100
AcDbEntity
  8
0
100
AcDbBlockEnd
  0
BLOCK
  5
18D
330
188
100
AcDbEntity
  8
0
100
AcDbBlockBegin
  2
CDWK_PTTYP49
 70
     0
 10
0.0
 20
0.0
 30
0.0
  3
CDWK_PTTYP49
  1

  0
LINE
  5
189
330
188
100
AcDbEntity
  8
0
 62
     0
370
    -2
100
AcDbLine
 10
-0.5
 20
0.166
 30
0.0
 11
0.5
 21
0.166
 31
0.0
  0
LINE
  5
18A
330
188
100
AcDbEntity
  8
0
 62
     0
370
    -2
100
AcDbLine
 10
0.5
 20
0.166
 30
0.0
 11
0.5
 21
-0.166
 31
0.0
  0
LINE
  5
18B
330
188
100
AcDbEntity
  8
0
 62
     0
370
    -2
100
AcDbLine
 10
0.5
 20
-0.166
 30
0.0
 11
-0.5
 21
-0.166
 31
0.0
  0
LINE
  5
18C
330
188
100
AcDbEntity
  8
0
 62
     0
370
    -2
100
AcDbLine
 10
-0.5
 20
-0.166
 30
0.0
 11
-0.5
 21
0.166
 31
0.0
  0
ENDBLK
  5
18E
330
188
100
AcDbEntity
  8
0
100
AcDbBlockEnd
  0
BLOCK
  5
197
330
18F
100
AcDbEntity
  8
0
100
AcDbBlockBegin
  2
CDWK_PTTYP50
 70
     0
 10
0.0
 20
0.0
 30
0.0
  3
CDWK_PTTYP50
  1

  0
LINE
  5
190
330
18F
100
AcDbEntity
  8
0
 62
     0
370
    -2
100
AcDbLine
 10
-0.5
 20
0.166
 30
0.0
 11
0.5
 21
0.166
 31
0.0
  0
LINE
  5
191
330
18F
100
AcDbEntity
  8
0
 62
     0
370
    -2
100
AcDbLine
 10
0.5
 20
0.166
 30
0.0
 11
0.5
 21
-0.166
 31
0.0
  0
LINE
  5
192
330
18F
100
AcDbEntity
  8
0
 62
     0
370
    -2
100
AcDbLine
 10
0.5
 20
-0.166
 30
0.0
 11
-0.5
 21
-0.166
 31
0.0
  0
LINE
  5
193
330
18F
100
AcDbEntity
  8
0
 62
     0
370
    -2
100
AcDbLine
 10
-0.5
 20
-0.166
 30
0.0
 11
-0.5
 21
0.166
 31
0.0
  0
LINE
  5
194
330
18F
100
AcDbEntity
  8
0
 62
     0
370
    -2
100
AcDbLine
 10
-0.25
 20
-0.166
 30
0.0
 11
-0.25
 21
0.166
 31
0.0
  0
LINE
  5
195
330
18F
100
AcDbEntity
  8
0
 62
     0
370
    -2
100
AcDbLine
 10
0.0
 20
-0.166
 30
0.0
 11
0.0
 21
0.166
 31
0.0
  0
LINE
  5
196
330
18F
100
AcDbEntity
  8
0
 62
     0
370
    -2
100
AcDbLine
 10
0.25
 20
-0.166
 30
0.0
 11
0.25
 21
0.166
 31
0.0
  0
ENDBLK
  5
198
330
18F
100
AcDbEntity
  8
0
100
AcDbBlockEnd
  0
BLOCK
  5
19C
330
199
100
AcDbEntity
  8
0
100
AcDbBlockBegin
  2
CDWK_PTTYP51
 70
     0
 10
0.0
 20
0.0
 30
0.0
  3
CDWK_PTTYP51
  1

  0
SPLINE
  5
19A
330
199
100
AcDbEntity
  8
0
 62
     0
370
    -2
100
AcDbSpline
210
0.0
220
0.0
230
1.0
 70
  1064
 71
     3
 72
    12
 73
     8
 74
     6
 42
0.000000001
 43
0.0000000001
 44
0.0000000001
 40
0.0
 40
0.0
 40
0.0
 40
0.0
 40
0.1690118339052032
 40
0.5175774661755118
 40
0.8011704844252565
 40
0.9154070810132151
 40
0.975822310881188
 40
0.975822310881188
 40
0.975822310881188
 40
0.975822310881188
 10
-0.5
 20
-0.077
 30
0.0
 10
-0.443824324006723
 20
-0.0900581618560981
 30
0.0
 10
-0.2717933876546281
 20
-0.1300471387828842
 30
0.0
 10
-0.0276699186086479
 20
-0.0006977790990417
 30
0.0
 10
0.2303349729129116
 20
0.0817803270207037
 30
0.0
 10
0.3686157174766292
 20
0.0066250198607167
 30
0.0
 10
0.4216533294581816
 20
-0.0168719667726145
 30
0.0
 10
0.44
 20
-0.025
 30
0.0
 11
-0.5
 21
-0.077
 31
0.0
 11
-0.333
 21
-0.103
 31
0.0
 11
0.0
 21
0.0
 31
0.0
 11
0.28
 21
0.045
 31
0.0
 11
0.385
 21
0.0
 31
0.0
 11
0.44
 21
-0.025
 31
0.0
  0
HATCH
  5
19B
330
199
100
AcDbEntity
  8
0
 62
     0
370
    -2
100
AcDbHatch
 10
0.0
 20
0.0
 30
0.0
210
0.0
220
0.0
230
1.0
  2
SOLID
 70
     1
 71
     1
 91
        1
 92
        3
 72
     0
 73
     1
 93
        3
 10
0.365
 20
-0.05
 10
0.5
 20
-0.042
 10
0.395
 20
0.045
 97
        0
 75
     0
 76
     1
 98
        0
  0
ENDBLK
  5
19D
330
199
100
AcDbEntity
  8
0
100
AcDbBlockEnd
  0
BLOCK
  5
1A2
330
19E
100
AcDbEntity
  8
0
100
AcDbBlockBegin
  2
CDWK_PTTYP52
 70
     0
 10
0.0
 20
0.0
 30
0.0
  3
CDWK_PTTYP52
  1

  0
LINE
  5
19F
330
19E
100
AcDbEntity
  8
0
 62
     0
370
    -2
100
AcDbLine
 10
-0.5
 20
-0.289
 30
0.0
 11
0.5
 21
-0.289
 31
0.0
  0
LINE
  5
1A0
330
19E
100
AcDbEntity
  8
0
 62
     0
370
    -2
100
AcDbLine
 10
0.5
 20
-0.289
 30
0.0
 11
0.0
 21
0.577
 31
0.0
  0
LINE
  5
1A1
330
19E
100
AcDbEntity
  8
0
 62
     0
370
    -2
100
AcDbLine
 10
0.0
 20
0.577
 30
0.0
 11
-0.5
 21
-0.289
 31
0.0
  0
ENDBLK
  5
1A3
330
19E
100
AcDbEntity
  8
0
100
AcDbBlockEnd
  0
BLOCK
  5
1A9
330
1A4
100
AcDbEntity
  8
0
100
AcDbBlockBegin
  2
cw-dimension-symbol1
 70
     0
 10
0.0
 20
0.0
 30
0.0
  3
cw-dimension-symbol1
  1

  0
LINE
  5
1A5
330
1A4
100
AcDbEntity
  8
0
 62
     0
370
    -2
100
AcDbLine
 10
0.0
 20
0.0
 30
0.0
 11
-1.0
 21
0.25
 31
0.0
  0
LINE
  5
1A6
330
1A4
100
AcDbEntity
  8
0
 62
     0
370
    -2
100
AcDbLine
 10
0.0
 20
0.0
 30
0.0
 11
-1.0
 21
-0.25
 31
0.0
  0
LINE
  5
1A7
330
1A4
100
AcDbEntity
  8
0
 62
     0
370
    -2
100
AcDbLine
 10
-1.0
 20
0.25
 30
0.0
 11
-1.0
 21
-0.25
 31
0.0
  0
LINE
  5
1A8
330
1A4
100
AcDbEntity
  8
0
 62
     0
370
    -2
100
AcDbLine
 10
0.0
 20
0.0
 30
0.0
 11
-1.0
 21
0.0
 31
0.0
  0
ENDBLK
  5
1AA
330
1A4
100
AcDbEntity
  8
0
100
AcDbBlockEnd
  0
BLOCK
  5
1AE
330
1AB
100
AcDbEntity
  8
0
100
AcDbBlockBegin
  2
cw-dimension-symbol2
 70
     0
 10
0.0
 20
0.0
 30
0.0
  3
cw-dimension-symbol2
  1

  0
LINE
  5
1AC
330
1AB
100
AcDbEntity
  8
0
 62
     0
370
    -2
100
AcDbLine
 10
-1.0
 20
0.0
 30
0.0
 11
1.0
 21
0.0
 31
0.0
  0
LINE
  5
1AD
330
1AB
100
AcDbEntity
  8
0
 62
     0
370
    -2
100
AcDbLine
 10
-0.5
 20
-0.5
 30
0.0
 11
0.5
 21
0.5
 31
0.0
  0
ENDBLK
  5
1AF
330
1AB
100
AcDbEntity
  8
0
100
AcDbBlockEnd
  0
BLOCK
  5
1B3
330
1B0
100
AcDbEntity
  8
0
100
AcDbBlockBegin
  2
cw-dimension-symbol3
 70
     0
 10
0.0
 20
0.0
 30
0.0
  3
cw-dimension-symbol3
  1

  0
LINE
  5
1B1
330
1B0
100
AcDbEntity
  8
0
 62
     0
370
    -2
100
AcDbLine
 10
-1.0
 20
0.0
 30
0.0
 11
1.0
 21
0.0
 31
0.0
  0
CIRCLE
  5
1B2
330
1B0
100
AcDbEntity
  8
0
 62
     0
370
    -2
100
AcDbCircle
 10
0.0
 20
0.0
 30
0.0
 40
0.25
  0
ENDBLK
  5
1B4
330
1B0
100
AcDbEntity
  8
0
100
AcDbBlockEnd
  0
BLOCK
  5
1BA
330
1B5
100
AcDbEntity
  8
0
100
AcDbBlockBegin
  2
cw-dimension-symbol5
 70
     0
 10
0.0
 20
0.0
 30
0.0
  3
cw-dimension-symbol5
  1

  0
HATCH
  5
1B6
330
1B5
100
AcDbEntity
  8
0
 62
     0
370
    -2
100
AcDbHatch
 10
0.0
 20
0.0
 30
0.0
210
0.0
220
0.0
230
1.0
  2
SOLID
 70
     1
 71
     1
 91
        1
 92
        3
 72
     0
 73
     1
 93
        3
 10
0.0
 20
0.0
 10
-1.0
 20
0.25
 10
-1.0
 20
-0.25
 97
        0
 75
     0
 76
     1
 98
        0
  0
LINE
  5
1B7
330
1B5
100
AcDbEntity
  8
0
 62
     0
370
    -2
100
AcDbLine
 10
0.0
 20
0.0
 30
0.0
 11
-1.0
 21
0.25
 31
0.0
  0
LINE
  5
1B8
330
1B5
100
AcDbEntity
  8
0
 62
     0
370
    -2
100
AcDbLine
 10
-1.0
 20
0.25
 30
0.0
 11
-1.0
 21
-0.25
 31
0.0
  0
LINE
  5
1B9
330
1B5
100
AcDbEntity
  8
0
 62
     0
370
    -2
100
AcDbLine
 10
-1.0
 20
-0.25
 30
0.0
 11
0.0
 21
0.0
 31
0.0
  0
ENDBLK
  5
1BB
330
1B5
100
AcDbEntity
  8
0
100
AcDbBlockEnd
  0
BLOCK
  5
1C0
330
1BC
100
AcDbEntity
  8
0
100
AcDbBlockBegin
  2
cw-dimension-symbol6
 70
     0
 10
0.0
 20
0.0
 30
0.0
  3
cw-dimension-symbol6
  1

  0
LINE
  5
1BD
330
1BC
100
AcDbEntity
  8
0
 62
     0
370
    -2
100
AcDbLine
 10
0.0
 20
0.0
 30
0.0
 11
-1.0
 21
0.25
 31
0.0
  0
LINE
  5
1BE
330
1BC
100
AcDbEntity
  8
0
 62
     0
370
    -2
100
AcDbLine
 10
0.0
 20
0.0
 30
0.0
 11
-1.0
 21
-0.25
 31
0.0
  0
LINE
  5
1BF
330
1BC
100
AcDbEntity
  8
0
 62
     0
370
    -2
100
AcDbLine
 10
0.0
 20
0.0
 30
0.0
 11
-1.0
 21
0.0
 31
0.0
  0
ENDBLK
  5
1C1
330
1BC
100
AcDbEntity
  8
0
100
AcDbBlockEnd
  0
BLOCK
  5
1C6
330
1C2
100
AcDbEntity
  8
0
100
AcDbBlockBegin
  2
cw-dimension-symbol11
 70
     0
 10
0.0
 20
0.0
 30
0.0
  3
cw-dimension-symbol11
  1

  0
LINE
  5
1C3
330
1C2
100
AcDbEntity
  8
0
 62
     0
370
    -2
100
AcDbLine
 10
-1.0
 20
1.0
 30
0.0
 11
1.0
 21
1.0
 31
0.0
  0
LINE
  5
1C4
330
1C2
100
AcDbEntity
  8
0
 62
     0
370
    -2
100
AcDbLine
 10
0.0
 20
0.0
 30
0.0
 11
-1.0
 21
1.0
 31
0.0
  0
LINE
  5
1C5
330
1C2
100
AcDbEntity
  8
0
 62
     0
370
    -2
100
AcDbLine
 10
0.0
 20
0.0
 30
0.0
 11
1.0
 21
1.0
 31
0.0
  0
ENDBLK
  5
1C7
330
1C2
100
AcDbEntity
  8
0
100
AcDbBlockEnd
  0
BLOCK
  5
1CC
330
1C8
100
AcDbEntity
  8
0
100
AcDbBlockBegin
  2
cw-dimension-symbol13
 70
     0
 10
0.0
 20
0.0
 30
0.0
  3
cw-dimension-symbol13
  1

  0
LINE
  5
1C9
330
1C8
100
AcDbEntity
  8
0
 62
     0
370
    -2
100
AcDbLine
 10
-1.0
 20
-1.0
 30
0.0
 11
1.0
 21
-1.0
 31
0.0
  0
LINE
  5
1CA
330
1C8
100
AcDbEntity
  8
0
 62
     0
370
    -2
100
AcDbLine
 10
0.0
 20
0.0
 30
0.0
 11
-1.0
 21
-1.0
 31
0.0
  0
LINE
  5
1CB
330
1C8
100
AcDbEntity
  8
0
 62
     0
370
    -2
100
AcDbLine
 10
0.0
 20
0.0
 30
0.0
 11
1.0
 21
-1.0
 31
0.0
  0
ENDBLK
  5
1CD
330
1C8
100
AcDbEntity
  8
0
100
AcDbBlockEnd
  0
BLOCK
  5
1D3
330
1CE
100
AcDbEntity
  8
0
100
AcDbBlockBegin
  2
cw-dimension-symbol15
 70
     0
 10
0.0
 20
0.0
 30
0.0
  3
cw-dimension-symbol15
  1

  0
HATCH
  5
1CF
330
1CE
100
AcDbEntity
  8
0
 62
     0
370
    -2
100
AcDbHatch
 10
0.0
 20
0.0
 30
0.0
210
0.0
220
0.0
230
1.0
  2
SOLID
 70
     1
 71
     1
 91
        1
 92
        3
 72
     0
 73
     1
 93
        3
 10
0.0
 20
0.0
 10
-1.0
 20
1.0
 10
1.0
 20
1.0
 97
        0
 75
     0
 76
     1
 98
        0
  0
LINE
  5
1D0
330
1CE
100
AcDbEntity
  8
0
 62
     0
370
    -2
100
AcDbLine
 10
0.0
 20
0.0
 30
0.0
 11
-1.0
 21
1.0
 31
0.0
  0
LINE
  5
1D1
330
1CE
100
AcDbEntity
  8
0
 62
     0
370
    -2
100
AcDbLine
 10
-1.0
 20
1.0
 30
0.0
 11
1.0
 21
1.0
 31
0.0
  0
LINE
  5
1D2
330
1CE
100
AcDbEntity
  8
0
 62
     0
370
    -2
100
AcDbLine
 10
1.0
 20
1.0
 30
0.0
 11
0.0
 21
0.0
 31
0.0
  0
ENDBLK
  5
1D4
330
1CE
100
AcDbEntity
  8
0
100
AcDbBlockEnd
  0
BLOCK
  5
1DA
330
1D5
100
AcDbEntity
  8
0
100
AcDbBlockBegin
  2
cw-dimension-symbol16
 70
     0
 10
0.0
 20
0.0
 30
0.0
  3
cw-dimension-symbol16
  1

  0
HATCH
  5
1D6
330
1D5
100
AcDbEntity
  8
0
 62
     0
370
    -2
100
AcDbHatch
 10
0.0
 20
0.0
 30
0.0
210
0.0
220
0.0
230
1.0
  2
SOLID
 70
     1
 71
     1
 91
        1
 92
        3
 72
     0
 73
     1
 93
        3
 10
0.0
 20
0.0
 10
-1.0
 20
-1.0
 10
1.0
 20
-1.0
 97
        0
 75
     0
 76
     1
 98
        0
  0
LINE
  5
1D7
330
1D5
100
AcDbEntity
  8
0
 62
     0
370
    -2
100
AcDbLine
 10
0.0
 20
0.0
 30
0.0
 11
-1.0
 21
-1.0
 31
0.0
  0
LINE
  5
1D8
330
1D5
100
AcDbEntity
  8
0
 62
     0
370
    -2
100
AcDbLine
 10
-1.0
 20
-1.0
 30
0.0
 11
1.0
 21
-1.0
 31
0.0
  0
LINE
  5
1D9
330
1D5
100
AcDbEntity
  8
0
 62
     0
370
    -2
100
AcDbLine
 10
1.0
 20
-1.0
 30
0.0
 11
0.0
 21
0.0
 31
0.0
  0
ENDBLK
  5
1DB
330
1D5
100
AcDbEntity
  8
0
100
AcDbBlockEnd
  0
BLOCK
  5
1E1
330
1DC
100
AcDbEntity
  8
0
100
AcDbBlockBegin
  2
cw-dimension-symbol17
 70
     0
 10
0.0
 20
0.0
 30
0.0
  3
cw-dimension-symbol17
  1

  0
LINE
  5
1DD
330
1DC
100
AcDbEntity
  8
0
 62
     0
370
    -2
100
AcDbLine
 10
0.0
 20
0.0
 30
0.0
 11
1.0
 21
1.0
 31
0.0
  0
LINE
  5
1DE
330
1DC
100
AcDbEntity
  8
0
 62
     0
370
    -2
100
AcDbLine
 10
1.0
 20
1.0
 30
0.0
 11
-1.0
 21
1.0
 31
0.0
  0
LINE
  5
1DF
330
1DC
100
AcDbEntity
  8
0
 62
     0
370
    -2
100
AcDbLine
 10
-1.0
 20
1.0
 30
0.0
 11
0.0
 21
0.0
 31
0.0
  0
HATCH
  5
1E0
330
1DC
100
AcDbEntity
  8
0
 62
     0
370
    -2
100
AcDbHatch
 10
0.0
 20
0.0
 30
0.0
210
0.0
220
0.0
230
1.0
  2
SOLID
 70
     1
 71
     1
 91
        1
 92
        3
 72
     0
 73
     1
 93
        3
 10
0.0
 20
0.0
 10
-1.0
 20
1.0
 10
0.0
 20
1.0
 97
        0
 75
     0
 76
     1
 98
        0
  0
ENDBLK
  5
1E2
330
1DC
100
AcDbEntity
  8
0
100
AcDbBlockEnd
  0
BLOCK
  5
1E8
330
1E3
100
AcDbEntity
  8
0
100
AcDbBlockBegin
  2
cw-dimension-symbol18
 70
     0
 10
0.0
 20
0.0
 30
0.0
  3
cw-dimension-symbol18
  1

  0
LINE
  5
1E4
330
1E3
100
AcDbEntity
  8
0
 62
     0
370
    -2
100
AcDbLine
 10
0.0
 20
0.0
 30
0.0
 11
1.0
 21
-1.0
 31
0.0
  0
LINE
  5
1E5
330
1E3
100
AcDbEntity
  8
0
 62
     0
370
    -2
100
AcDbLine
 10
1.0
 20
-1.0
 30
0.0
 11
-1.0
 21
-1.0
 31
0.0
  0
LINE
  5
1E6
330
1E3
100
AcDbEntity
  8
0
 62
     0
370
    -2
100
AcDbLine
 10
-1.0
 20
-1.0
 30
0.0
 11
0.0
 21
0.0
 31
0.0
  0
HATCH
  5
1E7
330
1E3
100
AcDbEntity
  8
0
 62
     0
370
    -2
100
AcDbHatch
 10
0.0
 20
0.0
 30
0.0
210
0.0
220
0.0
230
1.0
  2
SOLID
 70
     1
 71
     1
 91
        1
 92
        3
 72
     0
 73
     1
 93
        3
 10
0.0
 20
0.0
 10
-1.0
 20
-1.0
 10
0.0
 20
-1.0
 97
        0
 75
     0
 76
     1
 98
        0
  0
ENDBLK
  5
1E9
330
1E3
100
AcDbEntity
  8
0
100
AcDbBlockEnd
  0
BLOCK
  5
1EB
330
1EA
100
AcDbEntity
  8
0
100
AcDbBlockBegin
  2
cw-dimension-symbol19
 70
     0
 10
0.0
 20
0.0
 30
0.0
  3
cw-dimension-symbol19
  1

  0
ENDBLK
  5
1EC
330
1EA
100
AcDbEntity
  8
0
100
AcDbBlockEnd
  0
BLOCK
  5
1F2
330
1ED
100
AcDbEntity
  8
0
100
AcDbBlockBegin
  2
cw-dimension-symbol20
 70
     0
 10
0.0
 20
0.0
 30
0.0
  3
cw-dimension-symbol20
  1

  0
LINE
  5
1EE
330
1ED
100
AcDbEntity
  8
0
 62
     0
370
    -2
100
AcDbLine
 10
0.0
 20
0.0
 30
0.0
 11
0.0
 21
2.0
 31
0.0
  0
LINE
  5
1EF
330
1ED
100
AcDbEntity
  8
0
 62
     0
370
    -2
100
AcDbLine
 10
0.0
 20
0.0
 30
0.0
 11
-1.0
 21
0.33
 31
0.0
  0
LINE
  5
1F0
330
1ED
100
AcDbEntity
  8
0
 62
     0
370
    -2
100
AcDbLine
 10
0.0
 20
0.0
 30
0.0
 11
1.0
 21
0.33
 31
0.0
  0
LINE
  5
1F1
330
1ED
100
AcDbEntity
  8
0
 62
     0
370
    -2
100
AcDbLine
 10
0.0
 20
2.0
 30
0.0
 11
4.15
 21
2.0
 31
0.0
  0
ENDBLK
  5
1F3
330
1ED
100
AcDbEntity
  8
0
100
AcDbBlockEnd
  0
BLOCK
  5
1F9
330
1F4
100
AcDbEntity
  8
0
100
AcDbBlockBegin
  2
cw-dimension-symbol21
 70
     0
 10
0.0
 20
0.0
 30
0.0
  3
cw-dimension-symbol21
  1

  0
LINE
  5
1F5
330
1F4
100
AcDbEntity
  8
0
 62
     0
370
    -2
100
AcDbLine
 10
0.0
 20
0.0
 30
0.0
 11
0.0
 21
-2.0
 31
0.0
  0
LINE
  5
1F6
330
1F4
100
AcDbEntity
  8
0
 62
     0
370
    -2
100
AcDbLine
 10
0.0
 20
0.0
 30
0.0
 11
-1.0
 21
-0.33
 31
0.0
  0
LINE
  5
1F7
330
1F4
100
AcDbEntity
  8
0
 62
     0
370
    -2
100
AcDbLine
 10
0.0
 20
0.0
 30
0.0
 11
1.0
 21
-0.33
 31
0.0
  0
LINE
  5
1F8
330
1F4
100
AcDbEntity
  8
0
 62
     0
370
    -2
100
AcDbLine
 10
0.0
 20
-2.0
 30
0.0
 11
4.15
 21
-2.0
 31
0.0
  0
ENDBLK
  5
1FA
330
1F4
100
AcDbEntity
  8
0
100
AcDbBlockEnd
  0
BLOCK
  5
22B
330
1FB
100
AcDbEntity
  8
0
100
AcDbBlockBegin
  2
cw-line-extremity0
 70
     0
 10
0.0
 20
0.0
 30
0.0
  3
cw-line-extremity0
  1

  0
LINE
  5
1FC
330
1FB
100
AcDbEntity
  8
0
 62
     0
370
    -2
100
AcDbLine
 10
0.0
 20
0.0
 30
0.0
 11
10.0
 21
2.5
 31
0.0
  0
LINE
  5
1FD
330
1FB
100
AcDbEntity
  8
0
 62
     0
370
    -2
100
AcDbLine
 10
0.0
 20
0.0
 30
0.0
 11
10.0
 21
-2.5
 31
0.0
  0
LINE
  5
1FE
330
1FB
100
AcDbEntity
  8
0
 62
     0
370
    -2
100
AcDbLine
 10
10.0
 20
2.5
 30
0.0
 11
10.0
 21
-2.5
 31
0.0
  0
ENDBLK
  5
22C
330
1FB
100
AcDbEntity
  8
0
100
AcDbBlockEnd
  0
BLOCK
  5
229
330
1FF
100
AcDbEntity
  8
0
100
AcDbBlockBegin
  2
cw-line-extremity2
 70
     0
 10
0.0
 20
0.0
 30
0.0
  3
cw-line-extremity2
  1

  0
HATCH
  5
200
330
1FF
100
AcDbEntity
  8
0
 62
     0
370
     0
100
AcDbHatch
 10
0.0
 20
0.0
 30
0.0
210
0.0
220
0.0
230
1.0
  2
SOLID
 70
     1
 71
     1
 91
        1
 92
        3
 72
     0
 73
     1
 93
        3
 10
0.0
 20
0.0
 10
10.0
 20
2.5
 10
10.0
 20
-2.5
 97
        0
 75
     0
 76
     1
 98
        0
  0
LINE
  5
201
330
1FF
100
AcDbEntity
  8
0
 62
     0
370
    -2
100
AcDbLine
 10
0.0
 20
0.0
 30
0.0
 11
10.0
 21
2.5
 31
0.0
  0
LINE
  5
202
330
1FF
100
AcDbEntity
  8
0
 62
     0
370
    -2
100
AcDbLine
 10
10.0
 20
2.5
 30
0.0
 11
10.0
 21
-2.5
 31
0.0
  0
LINE
  5
203
330
1FF
100
AcDbEntity
  8
0
 62
     0
370
    -2
100
AcDbLine
 10
10.0
 20
-2.5
 30
0.0
 11
0.0
 21
0.0
 31
0.0
  0
ENDBLK
  5
22A
330
1FF
100
AcDbEntity
  8
0
100
AcDbBlockEnd
  0
BLOCK
  5
227
330
204
100
AcDbEntity
  8
0
100
AcDbBlockBegin
  2
cw-line-extremity3
 70
     0
 10
0.0
 20
0.0
 30
0.0
  3
cw-line-extremity3
  1

  0
HATCH
  5
205
330
204
100
AcDbEntity
  8
0
 62
     0
370
     0
100
AcDbHatch
 10
0.0
 20
0.0
 30
0.0
210
0.0
220
0.0
230
1.0
  2
SOLID
 70
     1
 71
     1
 91
        1
 92
        3
 72
     0
 73
     1
 93
        3
 10
0.0
 20
0.0
 10
10.0
 20
2.5
 10
10.0
 20
-2.5
 97
        0
 75
     0
 76
     1
 98
        0
  0
LINE
  5
206
330
204
100
AcDbEntity
  8
0
 62
     0
370
    -2
100
AcDbLine
 10
0.0
 20
0.0
 30
0.0
 11
10.0
 21
2.5
 31
0.0
  0
LINE
  5
207
330
204
100
AcDbEntity
  8
0
 62
     0
370
    -2
100
AcDbLine
 10
10.0
 20
2.5
 30
0.0
 11
10.0
 21
-2.5
 31
0.0
  0
LINE
  5
208
330
204
100
AcDbEntity
  8
0
 62
     0
370
    -2
100
AcDbLine
 10
10.0
 20
-2.5
 30
0.0
 11
0.0
 21
0.0
 31
0.0
  0
ENDBLK
  5
228
330
204
100
AcDbEntity
  8
0
100
AcDbBlockEnd
  0
BLOCK
  5
225
330
209
100
AcDbEntity
  8
0
100
AcDbBlockBegin
  2
cw-line-extremity301
 70
     0
 10
0.0
 20
0.0
 30
0.0
  3
cw-line-extremity301
  1

  0
LINE
  5
20A
330
209
100
AcDbEntity
  8
0
 62
     0
370
    -2
100
AcDbLine
 10
0.0
 20
6.66665
 30
0.0
 11
0.0
 21
-6.66665
 31
0.0
  0
ENDBLK
  5
226
330
209
100
AcDbEntity
  8
0
100
AcDbBlockEnd
  0
BLOCK
  5
223
330
20B
100
AcDbEntity
  8
0
100
AcDbBlockBegin
  2
cw-line-extremity4
 70
     0
 10
0.0
 20
0.0
 30
0.0
  3
cw-line-extremity4
  1

  0
HATCH
  5
20C
330
20B
100
AcDbEntity
  8
0
 62
     0
370
     5
100
AcDbHatch
 10
0.0
 20
0.0
 30
0.0
210
0.0
220
0.0
230
1.0
  2
SOLID
 70
     1
 71
     1
 91
        1
 92
        1
 93
        1
 72
     2
 10
0.0
 20
0.0
 40
2.5
 50
0.0
 51
360.0
 73
     1
 97
        0
 75
     0
 76
     1
 98
        0
  0
ENDBLK
  5
224
330
20B
100
AcDbEntity
  8
0
100
AcDbBlockEnd
  0
BLOCK
  5
221
330
20D
100
AcDbEntity
  8
0
100
AcDbBlockBegin
  2
cw-line-extremity5
 70
     0
 10
0.0
 20
0.0
 30
0.0
  3
cw-line-extremity5
  1

  0
LINE
  5
20E
330
20D
100
AcDbEntity
  8
0
 62
     0
370
    -2
100
AcDbLine
 10
0.0
 20
0.0
 30
0.0
 11
-2.5
 21
0.0
 31
0.0
  0
ENDBLK
  5
222
330
20D
100
AcDbEntity
  8
0
100
AcDbBlockEnd
  0
BLOCK
  5
21F
330
20F
100
AcDbEntity
  8
0
100
AcDbBlockBegin
  2
cw-line-extremity6
 70
     0
 10
0.0
 20
0.0
 30
0.0
  3
cw-line-extremity6
  1

  0
LINE
  5
210
330
20F
100
AcDbEntity
  8
0
 62
     0
370
    18
100
AcDbLine
 10
0.0
 20
2.5
 30
0.0
 11
0.0
 21
-2.5
 31
0.0
  0
ENDBLK
  5
220
330
20F
100
AcDbEntity
  8
0
100
AcDbBlockEnd
  0
BLOCK
  5
21D
330
211
100
AcDbEntity
  8
0
100
AcDbBlockBegin
  2
cw-line-extremity9
 70
     0
 10
0.0
 20
0.0
 30
0.0
  3
cw-line-extremity9
  1

  0
LINE
  5
212
330
211
100
AcDbEntity
  8
0
 62
     0
370
    18
100
AcDbLine
 10
-2.5
 20
-2.5
 30
0.0
 11
2.5
 21
2.5
 31
0.0
  0
ENDBLK
  5
21E
330
211
100
AcDbEntity
  8
0
100
AcDbBlockEnd
  0
BLOCK
  5
21B
330
213
100
AcDbEntity
  8
0
100
AcDbBlockBegin
  2
cw-line-extremity10
 70
     0
 10
0.0
 20
0.0
 30
0.0
  3
cw-line-extremity10
  1

  0
CIRCLE
  5
214
330
213
100
AcDbEntity
  8
0
 62
     0
370
    -2
100
AcDbCircle
 10
0.0
 20
0.0
 30
0.0
 40
2.5
  0
ENDBLK
  5
21C
330
213
100
AcDbEntity
  8
0
100
AcDbBlockEnd
  0
BLOCK
  5
219
330
215
100
AcDbEntity
  8
0
100
AcDbBlockBegin
  2
cw-line-extremity1
 70
     0
 10
0.0
 20
0.0
 30
0.0
  3
cw-line-extremity1
  1

  0
LINE
  5
216
330
215
100
AcDbEntity
  8
0
 62
     0
370
    -2
100
AcDbLine
 10
0.0
 20
0.0
 30
0.0
 11
0.0
 21
2.5
 31
0.0
  0
LINE
  5
217
330
215
100
AcDbEntity
  8
0
 62
     0
370
    -2
100
AcDbLine
 10
0.0
 20
2.5
 30
0.0
 11
1.25
 21
3.75
 31
0.0
  0
LINE
  5
218
330
215
100
AcDbEntity
  8
0
 62
     0
370
    -2
100
AcDbLine
 10
1.25
 20
3.75
 30
0.0
 11
3.75
 21
3.75
 31
0.0
  0
ENDBLK
  5
21A
330
215
100
AcDbEntity
  8
0
100
AcDbBlockEnd
  0
BLOCK
  5
1C
330
1B
100
AcDbEntity
  8
0
100
AcDbBlockBegin
  2
*Paper_Space69
 70
     0
 10
0.0
 20
0.0
 30
0.0
  3
*Paper_Space69
  1

  0
ENDBLK
  5
1D
330
1B
100
AcDbEntity
  8
0
100
AcDbBlockEnd
  0
ENDSEC
  0
SECTION
  2
ENTITIES
  0
LINE
  5
236
330
1F
100
AcDbEntity
  8
Ech.1_5
 62
   190
370
    20
100
AcDbLine
 10
3025.999395234635
 20
-9015.232014383902
 30
0.0
 11
2618.012305711633
 21
-9028.187662488963
 31
0.0
  0
LINE
  5
237
330
1F
100
AcDbEntity
  8
Ech.1_5
 62
   190
370
    20
100
AcDbLine
 10
3026.286958794634
 20
-9027.2289315639
 30
0.0
 11
2618.012305711633
 21
-9040.193711268963
 31
0.0
  0
LINE
  5
238
330
1F
100
AcDbEntity
  8
Ech.1_5
370
    20
100
AcDbLine
 10
2734.309725621632
 20
-9185.862237478963
 30
0.0
 11
2734.309725621632
 21
-9046.765360178964
 31
0.0
  0
LINE
  5
239
330
1F
100
AcDbEntity
  8
Ech.1_5
 62
   190
370
    20
100
AcDbLine
 10
2948.809725621632
 20
-8935.273412628965
 30
0.0
 11
2948.809725621632
 21
-8644.895293913643
 31
0.0
  0
LINE
  5
23A
330
1F
100
AcDbEntity
  8
Ech.1_5
 62
   190
370
    20
100
AcDbLine
 10
2948.809725621632
 20
-9140.752123538965
 30
0.0
 11
2948.809725621632
 21
-9337.572463218963
 31
0.0
  0
LWPOLYLINE
  5
23B
330
1F
100
AcDbEntity
  8
Ech.1_5
 62
   190
370
    20
100
AcDbPolyline
 90
        3
 70
     0
 43
0.0
 10
3001.137093745228
 20
-9020.595712448965
 10
3068.889853865226
 20
-9079.659147568964
 10
3088.889853865226
 20
-9079.659147568964
  0
INSERT
  5
23C
330
1F
100
AcDbEntity
  8
Ech.1_5
 62
   190
370
    20
100
AcDbBlockReference
  2
cw-line-extremity4
 10
3001.137093745228
 20
-9020.595712448965
 30
0.0
 50
318.9197257538351
  0
LWPOLYLINE
  5
23D
330
1F
100
AcDbEntity
  8
Ech.1_5
 62
   190
370
    20
100
AcDbPolyline
 90
        6
 70
     0
 43
0.0
 10
2963.809725621636
 20
-9447.783454038505
 10
2877.921642841638
 20
-9447.784426731469
 10
2861.436139681636
 20
-9465.761775141465
 10
2875.546079701632
 20
-9429.806075131466
 10
2859.059725621632
 20
-9447.784426731469
 10
2672.252639405172
 20
-9447.783662518592
  0
HATCH
  5
23E
330
1F
100
AcDbEntity
  8
Ech.1_5
 62
    21
420
 16756102
440
 33554687
370
     5
100
AcDbHatch
 10
0.0
 20
0.0
 30
0.0
210
0.0
220
0.0
230
1.0
  2
SOLID
 70
     1
 71
     1
 91
        1
 92
        3
 72
     0
 73
     1
 93
        8
 10
2875.546079701632
 20
-9429.806075131466
 10
2861.436139681636
 20
-9465.761775141465
 10
2877.921642841638
 20
-9447.784426731469
 10
2948.809725621632
 20
-9447.782797181466
 10
2948.809725621632
 20
-9033.302902678963
 10
2761.309725621632
 20
-9039.054648898964
 10
2761.309725621632
 20
-9447.782233211467
 10
2859.059725621632
 20
-9447.784426731469
 97
        0
 75
     0
 76
     1
 98
        0
  0
LWPOLYLINE
  5
23F
330
1F
100
AcDbEntity
  8
Ech.1_5
 62
   190
370
    20
100
AcDbPolyline
 90
        9
 70
     0
 43
0.0
 10
2875.546079701632
 20
-9429.806075131466
 10
2861.436139681636
 20
-9465.761775141465
 10
2877.921642841638
 20
-9447.784426731469
 10
2948.809725621632
 20
-9447.782797181466
 10
2948.809725621632
 20
-9033.302902678963
 10
2761.309725621632
 20
-9039.054648898964
 10
2761.309725621632
 20
-9447.782233211467
 10
2859.059725621632
 20
-9447.784426731469
 10
2875.546079701632
 20
-9429.806075131466
  0
LWPOLYLINE
  5
240
330
1F
100
AcDbEntity
  8
Ech.1_5
 62
   190
370
    20
100
AcDbPolyline
 90
        9
 70
     0
 43
0.0
 10
2877.921642841638
 20
-8644.894049383642
 10
2861.435288761638
 20
-8662.872400993641
 10
2875.545228781634
 20
-8626.916700983642
 10
2859.059725621632
 20
-8644.894049383642
 10
2761.309725621632
 20
-8644.894620153642
 10
2761.309725621632
 20
-9020.511741428967
 10
2948.809725621632
 20
-9013.763970888966
 10
2948.809725621632
 20
-8644.89444943364
 10
2877.921642841638
 20
-8644.894049383642
  0
HATCH
  5
241
330
1F
100
AcDbEntity
  8
Ech.1_5
 62
    21
420
 16756102
440
 33554687
370
     5
100
AcDbHatch
 10
0.0
 20
0.0
 30
0.0
210
0.0
220
0.0
230
1.0
  2
SOLID
 70
     1
 71
     1
 91
        1
 92
        3
 72
     0
 73
     1
 93
        8
 10
2877.921642841638
 20
-8644.894049383642
 10
2861.435288761638
 20
-8662.872400993641
 10
2875.545228781634
 20
-8626.916700983642
 10
2859.059725621632
 20
-8644.894049383642
 10
2761.309725621632
 20
-8644.894620153642
 10
2761.309725621632
 20
-9020.511741428967
 10
2948.809725621632
 20
-9013.763970888966
 10
2948.809725621632
 20
-8644.89444943364
 97
        0
 75
     0
 76
     1
 98
        0
  0
LWPOLYLINE
  5
242
330
1F
100
AcDbEntity
  8
Ech.1_5
 62
   190
370
    20
100
AcDbPolyline
 90
        9
 70
     0
 43
0.0
 10
2877.921642841638
 20
-8644.894049383642
 10
2861.435288761638
 20
-8662.872400993641
 10
2875.545228781634
 20
-8626.916700983642
 10
2859.059725621632
 20
-8644.894049383642
 10
2761.309725621632
 20
-8644.894620153642
 10
2761.309725621632
 20
-9020.511741428967
 10
2948.809725621632
 20
-9013.763970888966
 10
2948.809725621632
 20
-8644.89444943364
 10
2877.921642841638
 20
-8644.894049383642
  0
LWPOLYLINE
  5
243
330
1F
100
AcDbEntity
  8
Ech.1_5
 62
   190
370
    20
100
AcDbPolyline
 90
       21
 70
     0
 43
0.0
 10
3026.286958794634
 20
-9027.2289315639
 10
3026.919087164629
 20
-9027.134779333901
 10
3027.530950424633
 20
-9026.8949367739
 10
3028.107482454631
 20
-9026.515309593902
 10
3028.634487134631
 20
-9026.005245483902
 10
3029.098987844635
 20
-9025.377303913901
 10
3029.489547044629
 20
-9024.646946883899
 10
3029.796547884632
 20
-9023.832158213903
 10
3030.012430954631
 20
-9022.953000693902
 10
3030.131880524635
 20
-9022.031122113898
 10
3030.151955334631
 20
-9021.089222183902
 10
3030.072161084631
 20
-9020.150493593901
 10
3029.894462564634
 20
-9019.2380509539
 10
3029.62323530463
 20
-9018.3743616539
 10
3029.265157834635
 20
-9017.580692573902
 10
3028.829047184635
 20
-9016.8765864839
 10
3028.325641864635
 20
-9016.279380803899
 10
3027.767337384635
 20
-9015.803780733899
 10
3027.167881044633
 20
-9015.461497123899
 10
3026.54203345463
 20
-9015.260958123901
 10
3025.905205054632
 20
-9015.2071016739
  0
LWPOLYLINE
  5
244
330
1F
100
AcDbEntity
  8
Ech.1_5
 62
   190
370
    20
100
AcDbPolyline
 90
       21
 70
     0
 43
0.0
 10
3025.905205054632
 20
-9015.2071016739
 10
3025.273076674633
 20
-9015.301253903901
 10
3024.661213414635
 20
-9015.541096463901
 10
3024.08468138463
 20
-9015.920723643903
 10
3023.557676714635
 20
-9016.430787753903
 10
3023.093175994633
 20
-9017.0587293239
 10
3022.702616794632
 20
-9017.7890863539
 10
3022.395615964634
 20
-9018.603875023902
 10
3022.179732884631
 20
-9019.483032543903
 10
3022.060283324631
 20
-9020.4049111239
 10
3022.040208504631
 20
-9021.3468110639
 10
3022.120002764635
 20
-9022.285539653902
 10
3022.297701284632
 20
-9023.197982283898
 10
3022.568928534632
 20
-9024.061671583899
 10
3022.927006014631
 20
-9024.8553406639
 10
3023.363116654634
 20
-9025.559446753901
 10
3023.866521974634
 20
-9026.1566524339
 10
3024.424826464631
 20
-9026.6322525039
 10
3025.024282804633
 20
-9026.9745361139
 10
3025.650130394629
 20
-9027.1750751139
 10
3026.286958794634
 20
-9027.2289315639
  0
LWPOLYLINE
  5
245
330
1F
100
AcDbEntity
  8
Ech.1_5
 62
   190
370
    20
100
AcDbPolyline
 90
       21
 70
     0
 43
0.0
 10
2618.012305711633
 20
-9040.193711268963
 10
2618.644434091632
 20
-9040.099559038965
 10
2619.256297341632
 20
-9039.859716478964
 10
2619.83282937163
 20
-9039.480089298966
 10
2620.359834051637
 20
-9038.970025188963
 10
2620.824334761634
 20
-9038.342083618965
 10
2621.214893971633
 20
-9037.611726588966
 10
2621.521894801631
 20
-9036.796937918964
 10
2621.737777871637
 20
-9035.917780398966
 10
2621.857227441634
 20
-9034.995901818966
 10
2621.877302251637
 20
-9034.054001878965
 10
2621.79750800163
 20
-9033.115273288964
 10
2621.619809481633
 20
-9032.202830658964
 10
2621.348582231633
 20
-9031.339141358963
 10
2620.990504751634
 20
-9030.545472278965
 10
2620.554394101634
 20
-9029.841366178964
 10
2620.050988781634
 20
-9029.244160508963
 10
2619.492684301634
 20
-9028.768560438963
 10
2618.893227961632
 20
-9028.426276828963
 10
2618.267380371636
 20
-9028.225737828965
 10
2617.630551971631
 20
-9028.171881378963
  0
LWPOLYLINE
  5
246
330
1F
100
AcDbEntity
  8
Ech.1_5
 62
   190
370
    20
100
AcDbPolyline
 90
       21
 70
     0
 43
0.0
 10
2617.630551971631
 20
-9028.171881378963
 10
2616.998423591632
 20
-9028.266033608965
 10
2616.386560341632
 20
-9028.505876168965
 10
2615.810028301637
 20
-9028.885503338963
 10
2615.283023631634
 20
-9029.395567448963
 10
2614.818522921637
 20
-9030.023509028964
 10
2614.427963711631
 20
-9030.753866058963
 10
2614.120962881633
 20
-9031.568654728966
 10
2613.905079801637
 20
-9032.447812248964
 10
2613.785630241638
 20
-9033.369690828964
 10
2613.765555431634
 20
-9034.311590758964
 10
2613.845349681634
 20
-9035.250319348965
 10
2614.023048201631
 20
-9036.162761978965
 10
2614.294275451631
 20
-9037.026451288963
 10
2614.652352931637
 20
-9037.820120368964
 10
2615.088463571633
 20
-9038.524226458965
 10
2615.591868891633
 20
-9039.121432138963
 10
2616.15017338163
 20
-9039.597032208963
 10
2616.749629721632
 20
-9039.939315818963
 10
2617.375477311635
 20
-9040.139854818965
 10
2618.012305711633
 20
-9040.193711268963
  0
LINE
  5
247
330
1F
100
AcDbEntity
  8
Ech.1_5
 62
   190
370
    20
100
AcDbLine
 10
2683.310445151435
 20
-9025.066223568963
 30
0.0
 11
2677.874044741436
 21
-9025.066223568963
 31
0.0
  0
LINE
  5
248
330
1F
100
AcDbEntity
  8
Ech.1_5
 62
   190
370
    20
100
AcDbLine
 10
2683.310445151435
 20
-9020.511262438966
 30
0.0
 11
2677.874044741436
 21
-9020.511262438966
 31
0.0
  0
LINE
  5
249
330
1F
100
AcDbEntity
  8
Ech.1_5
 62
   190
370
    20
100
AcDbLine
 10
2678.310445151435
 20
-9030.066223568963
 30
0.0
 11
2678.310445151435
 21
-9015.511262438966
 31
0.0
  0
LINE
  5
24A
330
1F
100
AcDbEntity
  8
Ech.1_5
 62
   190
370
    20
100
AcDbLine
 10
2680.810445151435
 20
-9027.566223568963
 30
0.0
 11
2675.810445151435
 21
-9022.566223568967
 31
0.0
  0
LINE
  5
24B
330
1F
100
AcDbEntity
  8
Ech.1_5
 62
   190
370
    20
100
AcDbLine
 10
2680.810445151435
 20
-9023.011262438966
 30
0.0
 11
2675.810445151435
 21
-9018.011262438966
 31
0.0
  0
LWPOLYLINE
  5
24C
330
1F
100
AcDbEntity
  8
Ech.1_5
 62
   190
370
    20
100
AcDbPolyline
 90
        9
 70
     0
 43
0.0
 10
2877.921642841641
 20
-8644.894049383642
 10
2861.435288761641
 20
-8662.872400993641
 10
2875.545228781638
 20
-8626.916700983642
 10
2859.059725621636
 20
-8644.894049383642
 10
2761.309725621636
 20
-8644.894620153642
 10
2761.309725621636
 20
-9020.511741428967
 10
2948.809725621636
 20
-9013.763970888966
 10
2948.809725621636
 20
-8644.89444943364
 10
2877.921642841641
 20
-8644.894049383642
  0
LWPOLYLINE
  5
24D
330
1F
100
AcDbEntity
  8
Ech.1_5
 62
   190
370
    20
100
AcDbPolyline
 90
        9
 70
     0
 43
0.0
 10
2875.546079701632
 20
-9429.806075131466
 10
2861.436139681636
 20
-9465.761775141465
 10
2877.921642841638
 20
-9447.784426731469
 10
2948.809725621636
 20
-9447.782797181466
 10
2948.809725621636
 20
-9033.302902678963
 10
2761.309725621636
 20
-9039.054648898964
 10
2761.309725621636
 20
-9447.782233211467
 10
2859.059725621632
 20
-9447.784426731469
 10
2875.546079701632
 20
-9429.806075131466
  0
LWPOLYLINE
  5
24E
330
1F
100
AcDbEntity
  8
Ech.1_5
 62
   190
370
    20
100
AcDbPolyline
 90
        5
 70
     0
 43
0.0
 10
2331.591546818028
 20
-9640.099176575368
 10
3316.591546818029
 20
-9640.099176575368
 10
3316.591546818029
 20
-9777.512248640422
 10
2331.591546818028
 20
-9777.512248640422
 10
2331.591546818028
 20
-9640.099176575368
  0
LWPOLYLINE
  5
24F
330
1F
100
AcDbEntity
  8
Ech.1_5
 62
   190
370
    20
100
AcDbPolyline
 90
        5
 70
     0
 43
0.0
 10
3316.591546818029
 20
-8518.02921164619
 10
2331.591546818028
 20
-8518.02921164619
 10
2331.591546818028
 20
-8422.512248640542
 10
3316.591546818029
 20
-8422.512248640542
 10
3316.591546818029
 20
-8518.02921164619
  0
LWPOLYLINE
  5
250
330
1F
100
AcDbEntity
  8
Ech.1_5
 62
   190
370
    20
100
AcDbPolyline
 90
        5
 70
     0
 43
0.0
 10
3316.591546818029
 20
-9662.099176575364
 10
2331.591546818028
 20
-9662.099176575364
 10
2331.591546818028
 20
-9640.099176575368
 10
3316.591546818029
 20
-9640.099176575368
 10
3316.591546818029
 20
-9662.099176575364
  0
LWPOLYLINE
  5
251
330
1F
100
AcDbEntity
  8
Ech.1_5
 62
   190
370
    20
100
AcDbPolyline
 90
        5
 70
     0
 43
0.0
 10
3316.591546818029
 20
-9718.970321805707
 10
2331.591546818028
 20
-9718.970321805707
 10
2331.591546818028
 20
-9695.243293494968
 10
3316.591546818029
 20
-9695.243293494968
 10
3316.591546818029
 20
-9718.970321805707
  0
LINE
  5
252
330
1F
100
AcDbEntity
  8
Ech.1_5
 62
   190
370
    20
100
AcDbLine
 10
2519.796108780986
 20
-9640.099176575368
 30
0.0
 11
2519.796108780986
 21
-9662.099176575364
 31
0.0
  0
LINE
  5
253
330
1F
100
AcDbEntity
  8
Ech.1_5
 62
   190
370
    20
100
AcDbLine
 10
3176.794211411533
 20
-9640.099176575368
 30
0.0
 11
3176.794211411533
 21
-9662.099176575364
 31
0.0
  0
LINE
  5
254
330
1F
100
AcDbEntity
  8
Ech.1_5
 62
   190
370
    20
100
AcDbLine
 10
2675.95132677634
 20
-9640.099176575368
 30
0.0
 11
2675.95132677634
 21
-9662.099176575364
 31
0.0
  0
IMAGE
  5
257
330
1F
100
AcDbEntity
  8
Ech.1_5
160
                 8
310
0800000000000000
100
AcDbRasterImage
 90
        0
 10
2522.655795558911
 20
-9772.476701159376
 30
0.0
 11
0.2834008097165992
 21
0.0
 31
0.0
 12
0.0
 22
0.2807017543859649
 32
0.0
 13
247.0
 23
171.0
340
256
 70
     3
280
     0
281
    50
282
    50
283
     0
360
258
 71
     1
 91
        2
 14
-0.5
 24
-0.5
 14
246.5
 24
170.5
290
     0
  0
IMAGE
  5
25A
330
1F
100
AcDbEntity
  8
Ech.1_5
160
                 8
310
0800000000000000
100
AcDbRasterImage
 90
        0
 10
2783.733466800889
 20
-9775.031313463158
 30
0.0
 11
0.4
 21
0.0
 31
0.0
 12
0.0
 22
0.3984962406015037
 32
0.0
 13
200.0
 23
133.0
340
259
 70
     3
280
     0
281
    50
282
    50
283
     0
360
25B
 71
     1
 91
        2
 14
-0.5
 24
-0.5
 14
199.5
 24
132.5
290
     0
  0
IMAGE
  5
25D
330
1F
100
AcDbEntity
  8
Ech.1_5
160
                 8
310
0800000000000000
100
AcDbRasterImage
 90
        0
 10
3027.108133180036
 20
-9776.236291378107
 30
0.0
 11
0.09502262443438914
 21
0.0
 31
0.0
 12
0.0
 22
0.09482758620689655
 32
0.0
 13
1326.0
 23
580.0
340
25C
 70
     3
280
     0
281
    50
282
    50
283
     0
360
25E
 71
     1
 91
        2
 14
-0.5
 24
-0.5
 14
1325.5
 24
579.5
290
     0
  0
LINE
  5
25F
330
1F
100
AcDbEntity
  8
Ech.1_5
 62
   190
370
    20
100
AcDbLine
 10
3316.591546818038
 20
-8452.512248640433
 30
0.0
 11
2331.591546818039
 21
-8452.512248640433
 31
0.0
  0
LWPOLYLINE
  5
260
330
1F
100
AcDbEntity
  8
Ech.1_5
 62
   190
370
    20
100
AcDbPolyline
 90
        5
 70
     0
 43
0.0
 10
3316.591546818029
 20
-9777.512248640422
 10
3316.591546818029
 20
-8422.512248640422
 10
2331.591546818028
 20
-8422.512248640422
 10
2331.591546818028
 20
-9777.512248640422
 10
3316.591546818029
 20
-9777.512248640422
  0
CIRCLE
  5
261
330
1F
100
AcDbEntity
  8
Ech.1_5
 62
   154
420
    21156
370
    50
100
AcDbCircle
 10
3191.594091764376
 20
-8628.772092741796
 30
0.0
 40
74.99236516096971
  0
LWPOLYLINE
  5
262
330
1F
100
AcDbEntity
  8
Ech.1_5
 62
   154
420
    21156
370
    20
100
AcDbPolyline
 90
      194
 70
     0
 43
0.0
 10
3190.764814029696
 20
-8606.948280355686
 10
3191.691565083555
 20
-8609.623476827283
 10
3192.599440173544
 20
-8612.30222129668
 10
3193.040400493377
 20
-8613.644032779868
 10
3193.46956333579
 20
-8614.98806176168
 10
3193.884569205301
 20
-8616.334751741842
 10
3194.283058606424
 20
-8617.684546220082
 10
3194.662672043676
 20
-8619.03788869612
 10
3195.021050021574
 20
-8620.395222669687
 10
3195.355833044633
 20
-8621.756991640503
 10
3195.66466161737
 20
-8623.123639108298
 10
3195.9451762443
 20
-8624.49560857279
 10
3196.19501742994
 20
-8625.87334353371
 10
3196.411825678805
 20
-8627.257287490782
 10
3196.593241495414
 20
-8628.647883943731
 10
3196.73690538428
 20
-8630.045576392282
 10
3196.793843013471
 20
-8630.747222208573
 10
3196.84045784992
 20
-8631.450808336156
 10
3196.876454956692
 20
-8632.156390212507
 10
3196.901539396851
 20
-8632.864023275086
 10
3196.915416233462
 20
-8633.57376296136
 10
3196.917790529588
 20
-8634.28566470879
 10
3196.908435911587
 20
-8634.999769208072
 10
3196.887990694269
 20
-8635.715931170384
 10
3196.818760254705
 20
-8637.153334747381
 10
3196.720020315114
 20
-8638.59567759522
 10
3196.601703483344
 20
-8640.040759395091
 10
3196.346069574666
 20
-8642.930338575745
 10
3196.228617713458
 20
-8644.370435318919
 10
3196.131319391469
 20
-8645.804469738923
 10
3196.064107216548
 20
-8647.230241516956
 10
3196.044887374191
 20
-8647.939341315605
 10
3196.036913796545
 20
-8648.645550334213
 10
3196.04142805959
 20
-8649.348593532924
 10
3196.059671739308
 20
-8650.048195871892
 10
3196.092886411682
 20
-8650.744082311267
 10
3196.142313652689
 20
-8651.435977811194
 10
3196.209195038314
 20
-8652.123607331829
 10
3196.294772144537
 20
-8652.80669583332
 10
3196.400286547338
 20
-8653.484968275812
 10
3196.526979822699
 20
-8654.158149619461
 10
3196.676093546602
 20
-8654.825964824413
 10
3196.848869295026
 20
-8655.48813885082
 10
3197.046548643954
 20
-8656.144396658829
 10
3197.270373169368
 20
-8656.794463208595
 10
3197.521584447247
 20
-8657.43806346026
 10
3197.801417110396
 20
-8658.074921681948
 10
3198.110403994101
 20
-8658.70469219294
 10
3198.44778364512
 20
-8659.326900309543
 10
3198.812655065121
 20
-8659.941057439471
 10
3199.204117255778
 20
-8660.546674990437
 10
3199.621269218762
 20
-8661.143264370157
 10
3200.063209955747
 20
-8661.730336986342
 10
3200.529038468404
 20
-8662.30740424671
 10
3201.017853758405
 20
-8662.873977558971
 10
3201.528754827424
 20
-8663.429568330841
 10
3202.06084067713
 20
-8663.973687970034
 10
3202.613210309196
 20
-8664.505847884258
 10
3203.184962725296
 20
-8665.025559481237
 10
3203.775196927101
 20
-8665.53233416868
 10
3204.383011916283
 20
-8666.025683354295
 10
3205.007506694513
 20
-8666.505118445806
 10
3205.647780263466
 20
-8666.970150850922
 10
3206.302931624812
 20
-8667.420291977356
 10
3206.972059780224
 20
-8667.855053232826
 10
3207.654263731374
 20
-8668.273946025041
 10
3208.348642479933
 20
-8668.676481761715
 10
3209.054295027576
 20
-8669.062171850566
 10
3209.770320375972
 20
-8669.430527699307
 10
3210.495817526794
 20
-8669.781060715646
 10
3211.229885481716
 20
-8670.113282307306
 10
3211.971623242408
 20
-8670.426703881993
 10
3212.720129810542
 20
-8670.720836847424
 10
3213.474504187792
 20
-8670.995192611315
 10
3214.233845375829
 20
-8671.249282581379
 10
3214.997252376325
 20
-8671.482618165326
 10
3215.763824190954
 20
-8671.694710770871
 10
3216.532659821385
 20
-8671.885071805731
 10
3217.302858269292
 20
-8672.05321267762
 10
3218.073518536347
 20
-8672.198644794247
 10
3218.843739624223
 20
-8672.320879563335
 10
3219.61262053459
 20
-8672.419428392586
 10
3220.379260269122
 20
-8672.493802689723
 10
3221.142757829491
 20
-8672.543513862456
 10
3221.902212217367
 20
-8672.5680733185
 10
3222.656722434425
 20
-8672.566992465567
 10
3223.405387482336
 20
-8672.539782711372
 10
3224.147306362772
 20
-8672.485955463631
 10
3224.881578077405
 20
-8672.405022130055
 10
3225.607301627907
 20
-8672.29649411836
 10
3226.32357601595
 20
-8672.159882836257
 10
3227.029500243209
 20
-8671.994699691462
 10
3227.724173311352
 20
-8671.800456091689
 10
3228.406694222054
 20
-8671.576663444652
 10
3229.076161976986
 20
-8671.322833158065
 10
3229.731675577819
 20
-8671.038476639642
 10
3230.372361691841
 20
-8670.723160034544
 10
3230.997754039025
 20
-8670.37725485691
 10
3231.607696193957
 20
-8670.001745679816
 10
3232.202039502455
 20
-8669.597632452012
 10
3232.780635310338
 20
-8669.165915122248
 10
3233.343334963425
 20
-8668.70759363927
 10
3233.889989807531
 20
-8668.223667951828
 10
3234.420451188476
 20
-8667.715138008667
 10
3234.934570452077
 20
-8667.183003758542
 10
3235.432198944152
 20
-8666.6282651502
 10
3235.91318801052
 20
-8666.051922132388
 10
3236.377388996997
 20
-8665.454974653854
 10
3236.824653249403
 20
-8664.838422663348
 10
3237.254832113555
 20
-8664.203266109622
 10
3237.667776935271
 20
-8663.550504941419
 10
3238.063339060369
 20
-8662.88113910749
 10
3238.441369834668
 20
-8662.196168556588
 10
3238.801720603984
 20
-8661.496593237456
 10
3239.144242714135
 20
-8660.783413098845
 10
3239.468787510941
 20
-8660.057628089504
 10
3239.775206340219
 20
-8659.32023815818
 10
3240.063350547787
 20
-8658.572243253624
 10
3240.333071479462
 20
-8657.814643324582
 10
3240.584220481063
 20
-8657.04843831981
 10
3240.816648898408
 20
-8656.274628188048
 10
3241.030208077315
 20
-8655.49421287805
 10
3241.224749363601
 20
-8654.708192338561
 10
3241.400124103085
 20
-8653.917566518332
 10
3241.556183641583
 20
-8653.123335366114
 10
3241.692779324917
 20
-8652.326498830651
 10
3241.8097624989
 20
-8651.528056860698
 10
3241.906984509354
 20
-8650.729009404995
 10
3241.984296702095
 20
-8649.930356412297
 10
3242.041550422941
 20
-8649.133097831354
 10
3242.07859701771
 20
-8648.33823361091
 10
3242.095287832222
 20
-8647.546763699718
 10
3242.091474212292
 20
-8646.759688046524
 10
3242.067007503739
 20
-8645.978006600077
 10
3242.021739052381
 20
-8645.202719309127
 10
3241.955520204037
 20
-8644.434826122422
 10
3241.868202304523
 20
-8643.675326988712
 10
3241.759636699658
 20
-8642.925221856744
 10
3241.629674735261
 20
-8642.185510675266
 10
3241.478167757148
 20
-8641.457193393031
 10
3241.304967111138
 20
-8640.741269958784
 10
3241.109924143049
 20
-8640.038740321275
 10
3240.8928901987
 20
-8639.350604429254
 10
3240.653716623906
 20
-8638.677862231465
 10
3240.392254764488
 20
-8638.021513676662
 10
3240.108355966262
 20
-8637.38255871359
 10
3239.801871575047
 20
-8636.761997291003
 10
3239.472677892057
 20
-8636.160782293951
 10
3239.121090762134
 20
-8635.57903766668
 10
3238.747801768246
 20
-8635.016178744207
 10
3238.353514589168
 20
-8634.471598049928
 10
3237.93893290367
 20
-8633.944688107222
 10
3237.504760390531
 20
-8633.434841439492
 10
3237.051700728523
 20
-8632.941450570117
 10
3236.580457596419
 20
-8632.46390802249
 10
3236.091734672995
 20
-8632.001606320002
 10
3235.586235637024
 20
-8631.553937986037
 10
3235.064664167281
 20
-8631.120295543988
 10
3234.527723942539
 20
-8630.700071517243
 10
3233.976118641573
 20
-8630.292658429198
 10
3233.410551943157
 20
-8629.897448803233
 10
3232.831727526065
 20
-8629.513835162741
 10
3232.240349069071
 20
-8629.14121003111
 10
3231.637120250949
 20
-8628.778965931733
 10
3231.022744750474
 20
-8628.426495387996
 10
3230.397926246418
 20
-8628.083190923287
 10
3229.763368417558
 20
-8627.748445060999
 10
3229.119774942666
 20
-8627.42165032452
 10
3228.467849500516
 20
-8627.102199237239
 10
3227.141817429543
 20
-8626.48289810383
 10
3225.79090163483
 20
-8625.885681847883
 10
3224.42073154657
 20
-8625.305690656516
 10
3223.036936594957
 20
-8624.738064716841
 10
3220.250989822441
 20
-8623.62046934103
 10
3218.860096861924
 20
-8623.060780279122
 10
3217.478096758826
 20
-8622.494017217365
 10
3216.110618943338
 20
-8621.915320342874
 10
3214.762776687294
 20
-8621.32027318579
 10
3213.435542897811
 20
-8620.708015552687
 10
3212.127899209344
 20
-8620.079397610603
 10
3210.838814563944
 20
-8619.435280428426
 10
3209.567257903663
 20
-8618.776525075049
 10
3208.312198170554
 20
-8618.103992619373
 10
3207.072604306668
 20
-8617.418544130285
 10
3205.847445254058
 20
-8616.72104067668
 10
3204.635689954774
 20
-8616.012343327458
 10
3203.436307350868
 20
-8615.293313151506
 10
3202.248266384393
 20
-8614.56481121772
 10
3201.070535997398
 20
-8613.827698594992
 10
3199.902085131939
 20
-8613.082836352223
 10
3197.588897733828
 20
-8611.57330728212
 10
3195.300455726475
 20
-8610.043112558562
 10
3193.028510646292
 20
-8608.4991407327
 10
3190.764814029696
 20
-8606.948280355686
  0
LWPOLYLINE
  5
263
330
1F
100
AcDbEntity
  8
Ech.1_5
 62
   154
420
    21156
370
    20
100
AcDbPolyline
 90
       95
 70
     0
 43
0.0
 10
3234.653721952888
 20
-8636.160143261317
 10
3234.606781796839
 20
-8637.4971293693
 10
3234.55934489581
 20
-8638.857605152893
 10
3234.535284933123
 20
-8639.55399219668
 10
3234.510914504823
 20
-8640.265060287724
 10
3234.486171517789
 20
-8640.993745635482
 10
3234.460993878899
 20
-8641.742984449405
 10
3234.435319495029
 20
-8642.515712938944
 10
3234.409086273058
 20
-8643.31486731355
 10
3234.382232119863
 20
-8644.143383782677
 10
3234.354694942322
 20
-8645.00419855578
 10
3234.326412647312
 20
-8645.900247842306
 10
3234.297323141711
 20
-8646.83446785171
 10
3234.282456280839
 20
-8647.316809442942
 10
3234.267364332398
 20
-8647.809794793442
 10
3234.23673903364
 20
-8648.82730626692
 10
3234.207186974882
 20
-8649.877296760087
 10
3234.181000781266
 20
-8650.946181603374
 10
3234.160473806389
 20
-8652.020371016348
 10
3234.147899403847
 20
-8653.086275218555
 10
3234.145570927238
 20
-8654.130304429556
 10
3234.148965584159
 20
-8654.63986910697
 10
3234.15578173016
 20
-8655.138868868913
 10
3234.166306034444
 20
-8655.625604992836
 10
3234.180825166208
 20
-8656.098378756178
 10
3234.199625794653
 20
-8656.55549143639
 10
3234.222994588979
 20
-8656.995244310912
 10
3234.251218218385
 20
-8657.415938657186
 10
3234.284583352072
 20
-8657.815875752667
 10
3234.323376659237
 20
-8658.193356874792
 10
3234.367884809082
 20
-8658.546683301005
 10
3234.418394470805
 20
-8658.874156308755
 10
3234.475192313605
 20
-8659.174077175481
 10
3234.538565006684
 20
-8659.444747178632
 10
3234.608799219241
 20
-8659.684467595653
 10
3234.686181620473
 20
-8659.891539703985
 10
3234.770998879585
 20
-8660.064264781082
 10
3234.86353766577
 20
-8660.200944104374
 10
3234.964084648234
 20
-8660.299878951319
 10
3235.017450797192
 20
-8660.334661345358
 10
3235.072926496171
 20
-8660.35937059935
 10
3235.130547578819
 20
-8660.373794372981
 10
3235.190349878784
 20
-8660.377720325923
 10
3235.252367499972
 20
-8660.370941680712
 10
3235.31657409517
 20
-8660.353446070201
 10
3235.382868507245
 20
-8660.325461715378
 10
3235.451144936605
 20
-8660.287231767332
 10
3235.593220648813
 20
-8660.181007695952
 10
3235.741954835068
 20
-8660.036719064807
 10
3235.896501098637
 20
-8659.856311082634
 10
3236.056013042791
 20
-8659.641728958184
 10
3236.2196442708
 20
-8659.394917900196
 10
3236.386548385934
 20
-8659.117823117416
 10
3236.555878991465
 20
-8658.812389818586
 10
3236.72678969066
 20
-8658.480563212453
 10
3236.89843408679
 20
-8658.124288507755
 10
3237.069965783125
 20
-8657.745510913242
 10
3237.240538382936
 20
-8657.346175637655
 10
3237.409305489492
 20
-8656.928227889735
 10
3237.575420706064
 20
-8656.493612878232
 10
3237.738037635921
 20
-8656.044275811882
 10
3237.896309882333
 20
-8655.582161899436
 10
3238.049391048571
 20
-8655.10921634963
 10
3238.336594553603
 20
-8654.138611172932
 10
3238.592876977178
 20
-8653.148021951736
 10
3238.707306791593
 20
-8652.650096346308
 10
3238.811467145455
 20
-8652.153010355987
 10
3238.904511642032
 20
-8651.658709189518
 10
3238.985593884594
 20
-8651.16913805564
 10
3239.053869041389
 20
-8650.686239329794
 10
3239.108828064757
 20
-8650.211347468468
 10
3239.150713064149
 20
-8649.744436998795
 10
3239.179868092829
 20
-8649.285297884155
 10
3239.196637204057
 20
-8648.833720087925
 10
3239.201364451097
 20
-8648.38949357348
 10
3239.194393887212
 20
-8647.952408304203
 10
3239.176069565664
 20
-8647.522254243466
 10
3239.146735539715
 20
-8647.098821354655
 10
3239.106735862627
 20
-8646.681899601133
 10
3239.056414587665
 20
-8646.271278946291
 10
3238.996115768089
 20
-8645.8667493535
 10
3238.926183457162
 20
-8645.46810078614
 10
3238.846961708148
 20
-8645.075123207585
 10
3238.758794574308
 20
-8644.68760658122
 10
3238.662026108905
 20
-8644.305340870413
 10
3238.44406139646
 20
-8643.555722048999
 10
3238.195819996914
 20
-8642.824586450364
 10
3237.920054336365
 20
-8642.11025378153
 10
3237.619516840917
 20
-8641.411043749516
 10
3237.296959936666
 20
-8640.725276061343
 10
3236.955136049713
 20
-8640.051270424026
 10
3236.596797606161
 20
-8639.387346544592
 10
3236.224697032107
 20
-8638.731824130055
 10
3235.450219196898
 20
-8637.439262523767
 10
3234.653721952888
 20
-8636.160143261317
  0
LWPOLYLINE
  5
264
330
1F
100
AcDbEntity
  8
Ech.1_5
 62
   154
420
    21156
370
    20
100
AcDbPolyline
 90
      171
 70
     0
 43
0.0
 10
3159.806407514295
 20
-8622.014221610301
 10
3160.639839685139
 20
-8624.911436867185
 10
3161.039403883097
 20
-8626.363220920099
 10
3161.418385816097
 20
-8627.818816682382
 10
3161.769924729155
 20
-8629.27949472382
 10
3162.087159867283
 20
-8630.746525614202
 10
3162.230769534816
 20
-8631.482820430809
 10
3162.363230475497
 20
-8632.221179923321
 10
3162.483685094953
 20
-8632.961762912964
 10
3162.591275798811
 20
-8633.70472822096
 10
3162.685144992697
 20
-8634.450234668537
 10
3162.764435082239
 20
-8635.198441076911
 10
3162.828288473063
 20
-8635.949506267316
 10
3162.875847570795
 20
-8636.703589060966
 10
3162.906254781063
 20
-8637.460848279092
 10
3162.918652509493
 20
-8638.221442742912
 10
3162.912183161713
 20
-8638.98553127365
 10
3162.885989143349
 20
-8639.753272692535
 10
3162.839971000395
 20
-8640.524661102976
 10
3162.778245114293
 20
-8641.298774652443
 10
3162.629964624195
 20
-8642.850223320322
 10
3162.485743650373
 20
-8644.397709489003
 10
3162.429092159619
 20
-8645.166869914474
 10
3162.390179560994
 20
-8645.931323649138
 10
3162.374580525522
 20
-8646.689832004324
 10
3162.387869724223
 20
-8647.441156291372
 10
3162.435621828115
 20
-8648.184057821603
 10
3162.474163554202
 20
-8648.551962962705
 10
3162.52341150822
 20
-8648.917297906351
 10
3162.584062524046
 20
-8649.279907816463
 10
3162.656813435558
 20
-8649.63963785695
 10
3162.742361076635
 20
-8649.996333191735
 10
3162.841402281153
 20
-8650.349838984732
 10
3162.954633882989
 20
-8650.700000399855
 10
3163.082752716021
 20
-8651.046662601022
 10
3163.226455614127
 20
-8651.38967075215
 10
3163.386390778963
 20
-8651.72886407797
 10
3163.562527607969
 20
-8652.063998904607
 10
3163.754336875772
 20
-8652.394770664132
 10
3163.961277839489
 20
-8652.72087338205
 10
3164.182809756244
 20
-8653.042001083868
 10
3164.418391883154
 20
-8653.357847795083
 10
3164.667483477339
 20
-8653.668107541207
 10
3164.929543795922
 20
-8653.972474347742
 10
3165.204032096023
 20
-8654.270642240192
 10
3165.49040763476
 20
-8654.562305244059
 10
3165.788129669254
 20
-8654.84715738485
 10
3166.096657456626
 20
-8655.124892688069
 10
3166.415450253996
 20
-8655.395205179218
 10
3166.743967318484
 20
-8655.657788883804
 10
3167.081667907211
 20
-8655.912337827329
 10
3167.428011277295
 20
-8656.1585460353
 10
3167.782456685859
 20
-8656.396107533215
 10
3168.144463390022
 20
-8656.624716346587
 10
3168.513490646903
 20
-8656.844066500915
 10
3168.888997713625
 20
-8657.053852021703
 10
3169.270443847306
 20
-8657.253766934457
 10
3169.657288305067
 20
-8657.443505264682
 10
3170.048990344028
 20
-8657.622761037881
 10
3170.44500922131
 20
-8657.791228279557
 10
3170.844804194031
 20
-8657.948601015214
 10
3171.247834519314
 20
-8658.094573270359
 10
3171.653559454279
 20
-8658.228839070496
 10
3172.061438256044
 20
-8658.351092441126
 10
3172.470930181731
 20
-8658.461027407755
 10
3172.88149448846
 20
-8658.55833799589
 10
3173.292590433351
 20
-8658.64271823103
 10
3173.703677273524
 20
-8658.713862138684
 10
3174.1142142661
 20
-8658.771463744357
 10
3174.523660668198
 20
-8658.815217073547
 10
3174.931475736939
 20
-8658.844816151763
 10
3175.337118729443
 20
-8658.859955004506
 10
3175.740048902832
 20
-8658.860327657283
 10
3176.139725514224
 20
-8658.8456281356
 10
3176.535607820739
 20
-8658.815550464957
 10
3176.927155079499
 20
-8658.76978867086
 10
3177.313826547623
 20
-8658.708036778811
 10
3177.695081482231
 20
-8658.629988814318
 10
3178.070379140445
 20
-8658.535338802887
 10
3178.439178779384
 20
-8658.423780770016
 10
3178.800939656167
 20
-8658.29500874121
 10
3179.155121027917
 20
-8658.148716741978
 10
3179.501183210533
 20
-8657.984601060525
 10
3179.838722578407
 20
-8657.80264875357
 10
3180.167604137168
 20
-8657.603420965499
 10
3180.487724377431
 20
-8657.387546126798
 10
3180.798979789814
 20
-8657.155652667945
 10
3181.101266864936
 20
-8656.908369019427
 10
3181.394482093413
 20
-8656.646323611718
 10
3181.678521965861
 20
-8656.3701448753
 10
3181.953282972899
 20
-8656.080461240654
 10
3182.218661605144
 20
-8655.777901138259
 10
3182.474554353213
 20
-8655.463092998601
 10
3182.720857707722
 20
-8655.136665252161
 10
3182.957468159291
 20
-8654.79924632941
 10
3183.184282198536
 20
-8654.45146466084
 10
3183.401196316073
 20
-8654.093948676922
 10
3183.608107002521
 20
-8653.727326808146
 10
3183.804910748498
 20
-8653.35222748499
 10
3183.991504044618
 20
-8652.969279137928
 10
3184.167783381502
 20
-8652.579110197448
 10
3184.333645249763
 20
-8652.18234909403
 10
3184.488986140022
 20
-8651.779624258148
 10
3184.633702542896
 20
-8651.37156412029
 10
3184.767690949001
 20
-8650.958797110938
 10
3184.890847848954
 20
-8650.541951660569
 10
3185.003069733373
 20
-8650.12165619966
 10
3185.104253092876
 20
-8649.6985391587
 10
3185.194294418079
 20
-8649.273228968166
 10
3185.2730901996
 20
-8648.846354058536
 10
3185.340536928055
 20
-8648.418542860292
 10
3185.396531094063
 20
-8647.99042380392
 10
3185.440969188241
 20
-8647.562625319893
 10
3185.473747701206
 20
-8647.135775838697
 10
3185.494763123574
 20
-8646.71050379081
 10
3185.503911945965
 20
-8646.287437606714
 10
3185.501090658993
 20
-8645.86720571689
 10
3185.486195753278
 20
-8645.450436551819
 10
3185.459123719436
 20
-8645.037758541981
 10
3185.419771048084
 20
-8644.629800117853
 10
3185.36803422984
 20
-8644.227189709922
 10
3185.303809755322
 20
-8643.830555748667
 10
3185.226994115146
 20
-8643.440526664566
 10
3185.13748379993
 20
-8643.057730888104
 10
3185.03517530029
 20
-8642.682796849756
 10
3184.919965106844
 20
-8642.31635298001
 10
3184.791749710211
 20
-8641.959027709341
 10
3184.650425601005
 20
-8641.61144946823
 10
3184.495889269845
 20
-8641.274246687159
 10
3184.32803720735
 20
-8640.948047796612
 10
3184.146785187364
 20
-8640.633445939322
 10
3183.952359012281
 20
-8640.330466914938
 10
3183.74523463933
 20
-8640.038678747123
 10
3183.525895161115
 20
-8639.757636402019
 10
3183.29482367024
 20
-8639.486894845772
 10
3183.05250325931
 20
-8639.22600904452
 10
3182.799417020929
 20
-8638.974533964407
 10
3182.5360480477
 20
-8638.732024571575
 10
3182.262879432229
 20
-8638.498035832165
 10
3181.980394267119
 20
-8638.272122712317
 10
3181.689075644975
 20
-8638.053840178178
 10
3181.389406658401
 20
-8637.842743195886
 10
3181.0818704
 20
-8637.638386731582
 10
3180.445128438139
 20
-8637.248115221517
 10
3179.782714500225
 20
-8636.879465377118
 10
3179.098493327092
 20
-8636.528876927516
 10
3178.396329659573
 20
-8636.192789601848
 10
3177.680088238502
 20
-8635.86764312925
 10
3176.220831099041
 20
-8635.235931659814
 10
3174.751639835378
 20
-8634.605260352284
 10
3174.022980759056
 20
-8634.281414082076
 10
3173.303432374185
 20
-8633.947147039751
 10
3172.596859421597
 20
-8633.598898954446
 10
3171.906948596114
 20
-8633.233276989422
 10
3171.234838409956
 20
-8632.849284613847
 10
3170.579763422616
 20
-8632.4477157703
 10
3169.94091243415
 20
-8632.02940743345
 10
3169.317474244617
 20
-8631.595196577966
 10
3168.708637654069
 20
-8631.145920178504
 10
3168.113591462564
 20
-8630.682415209736
 10
3167.531524470158
 20
-8630.205518646322
 10
3166.96162547691
 20
-8629.716067462934
 10
3166.403083282872
 20
-8629.214898634229
 10
3165.855086688104
 20
-8628.702849134881
 10
3165.31682449266
 20
-8628.180755939546
 10
3164.787485496597
 20
-8627.6494560229
 10
3164.26625849997
 20
-8627.109786359595
 10
3163.752332302837
 20
-8626.562583924308
 10
3162.743137507277
 20
-8625.448928636431
 10
3161.753411510367
 20
-8624.315185956591
 10
3159.806407514295
 20
-8622.014221610301
  0
LWPOLYLINE
  5
265
330
1F
100
AcDbEntity
  8
Ech.1_5
 62
   154
420
    21156
370
    20
100
AcDbPolyline
 90
       70
 70
     0
 43
0.0
 10
3181.750860066838
 20
-8640.647674422147
 10
3181.642941581695
 20
-8641.325942993959
 10
3181.5350548055
 20
-8642.015542140005
 10
3181.427231447205
 20
-8642.727802434516
 10
3181.319503215758
 20
-8643.47405445172
 10
3181.265684681651
 20
-8643.863468160784
 10
3181.211901820111
 20
-8644.265628765857
 10
3181.158158594758
 20
-8644.681952588722
 10
3181.104458969211
 20
-8645.113855951155
 10
3181.050806907088
 20
-8645.562755174937
 10
3180.997206372009
 20
-8646.030066581847
 10
3180.943661327592
 20
-8646.517206493663
 10
3180.89029969549
 20
-8647.024991491555
 10
3180.838299016255
 20
-8647.549159832612
 10
3180.789365109574
 20
-8648.082893824656
 10
3180.707536955439
 20
-8649.15171027694
 10
3180.678062378768
 20
-8649.673118494802
 10
3180.658493916218
 20
-8650.176743878894
 10
3180.650541403181
 20
-8650.655749308025
 10
3180.655914675048
 20
-8651.103297661008
 10
3180.66413280388
 20
-8651.31313883357
 10
3180.676323567211
 20
-8651.512551816648
 10
3180.692700694464
 20
-8651.700681970098
 10
3180.713477915062
 20
-8651.876674653764
 10
3180.738868958431
 20
-8652.039675227501
 10
3180.769087553994
 20
-8652.18882905116
 10
3180.804347431175
 20
-8652.323281484594
 10
3180.844862319398
 20
-8652.442177887651
 10
3180.890845948086
 20
-8652.544663620185
 10
3180.942512046664
 20
-8652.629884042044
 10
3181.000074344557
 20
-8652.696984513084
 10
3181.063746571187
 20
-8652.745110393153
 10
3181.133742455979
 20
-8652.773407042103
 10
3181.210257117909
 20
-8652.781062832235
 10
3181.293112004733
 20
-8652.768129764418
 10
3181.381782813164
 20
-8652.73545893899
 10
3181.475732224065
 20
-8652.683931538524
 10
3181.574422918299
 20
-8652.614428745577
 10
3181.67731757673
 20
-8652.527831742716
 10
3181.783878880221
 20
-8652.425021712505
 10
3181.893569509634
 20
-8652.306879837508
 10
3182.005852145833
 20
-8652.174287300295
 10
3182.120189469681
 20
-8652.028125283423
 10
3182.23604416204
 20
-8651.869274969464
 10
3182.352878903773
 20
-8651.698617540978
 10
3182.470156375747
 20
-8651.517034180533
 10
3182.703890233855
 20
-8651.124614394017
 10
3182.932947183273
 20
-8650.699065070436
 10
3183.153028670901
 20
-8650.247435670306
 10
3183.359836143647
 20
-8649.776775654149
 10
3183.549071048413
 20
-8649.294134482478
 10
3183.716434832105
 20
-8648.806561615813
 10
3183.857628941625
 20
-8648.321106514675
 10
3183.968368973742
 20
-8647.844800392359
 10
3184.046242441327
 20
-8647.382260498176
 10
3184.09256167172
 20
-8646.933300678127
 10
3184.109079678099
 20
-8646.497166483647
 10
3184.097549473639
 20
-8646.073103466177
 10
3184.05972407152
 20
-8645.660357177148
 10
3183.997356484917
 20
-8645.258173168002
 10
3183.912199727009
 20
-8644.865796990174
 10
3183.806006810973
 20
-8644.4824741951
 10
3183.680530749986
 20
-8644.10745033422
 10
3183.537524557226
 20
-8643.739970958968
 10
3183.37874124587
 20
-8643.379281620784
 10
3183.205933829094
 20
-8643.024627871102
 10
3183.020855320077
 20
-8642.675255261362
 10
3182.620897078029
 20
-8641.989335667451
 10
3182.192890625142
 20
-8641.315487250546
 10
3181.750860066838
 20
-8640.647674422147
  0
LWPOLYLINE
  5
266
330
1F
100
AcDbEntity
  8
Ech.1_5
 62
   154
420
    21156
370
    20
100
AcDbPolyline
 90
      170
 70
     0
 43
0.0
 10
3206.684856958717
 20
-8584.337506208562
 10
3207.388927851442
 20
-8585.656858042801
 10
3208.08094743536
 20
-8586.978752569174
 10
3208.748864401666
 20
-8588.305732479812
 10
3209.070018369213
 20
-8588.971924045522
 10
3209.380627441556
 20
-8589.640340466847
 10
3209.679185205091
 20
-8590.311299580304
 10
3209.96418524622
 20
-8590.98511922241
 10
3210.234121151343
 20
-8591.66211722968
 10
3210.487486506856
 20
-8592.342611438635
 10
3210.722774899162
 20
-8593.026919685788
 10
3210.938479914657
 20
-8593.715359807657
 10
3211.133095139743
 20
-8594.408249640757
 10
3211.305114160818
 20
-8595.105907021605
 10
3211.45303056428
 20
-8595.808649786719
 10
3211.575337936531
 20
-8596.516795772612
 10
3211.670529863968
 20
-8597.230662815806
 10
3211.737099932991
 20
-8597.95056875281
 10
3211.773541734939
 20
-8598.67683141904
 10
3211.779653685454
 20
-8599.409475085731
 10
3211.760211474118
 20
-8600.14740421878
 10
3211.721177383909
 20
-8600.889256319948
 10
3211.608182698782
 20
-8602.379279433659
 10
3211.488367893885
 20
-8603.86864444092
 10
3211.440808653968
 20
-8604.609673909024
 10
3211.409431233041
 20
-8605.346451355788
 10
3211.400197914081
 20
-8606.077614282969
 10
3211.419070980066
 20
-8606.801800192325
 10
3211.472012713972
 20
-8607.517646585611
 10
3211.513122544825
 20
-8607.872016683026
 10
3211.564985398777
 20
-8608.223790964585
 10
3211.628346561197
 20
-8608.572799118005
 10
3211.703951317458
 20
-8608.918870831003
 10
3211.792544952933
 20
-8609.261835791305
 10
3211.894872752992
 20
-8609.601523686626
 10
3212.01168000301
 20
-8609.937764204687
 10
3212.143711988359
 20
-8610.270387033208
 10
3212.291620259051
 20
-8610.599214655322
 10
3212.455281532406
 20
-8610.924009999819
 10
3212.634190310196
 20
-8611.24450661804
 10
3212.827838402308
 20
-8611.560437854441
 10
3213.035717618635
 20
-8611.87153705347
 10
3213.257319769065
 20
-8612.177537559572
 10
3213.492136663489
 20
-8612.478172717198
 10
3213.739660111796
 20
-8612.773175870796
 10
3213.999381923878
 20
-8613.062280364818
 10
3214.270793909621
 20
-8613.345219543708
 10
3214.553387878918
 20
-8613.621726751919
 10
3214.846655641658
 20
-8613.891535333896
 10
3215.150089007732
 20
-8614.15437863409
 10
3215.463179787028
 20
-8614.409989996953
 10
3215.785419789437
 20
-8614.658102766927
 10
3216.11630082485
 20
-8614.898450288465
 10
3216.455314703155
 20
-8615.130765906015
 10
3216.801953234242
 20
-8615.354782964027
 10
3217.155708228002
 20
-8615.570234806946
 10
3217.516071494324
 20
-8615.776854779224
 10
3217.882534843099
 20
-8615.974376225307
 10
3218.254590084216
 20
-8616.16253248965
 10
3218.631729027565
 20
-8616.341056916697
 10
3219.013443483036
 20
-8616.509682850896
 10
3219.399225260519
 20
-8616.668143636698
 10
3219.788566169904
 20
-8616.816172618554
 10
3220.180958021082
 20
-8616.953503140905
 10
3220.57589262394
 20
-8617.079868548208
 10
3220.972861788371
 20
-8617.195002184906
 10
3221.371357324263
 20
-8617.298637395454
 10
3221.770871041507
 20
-8617.390507524293
 10
3222.170894749992
 20
-8617.470345915879
 10
3222.570920259609
 20
-8617.537885914657
 10
3222.970439380246
 20
-8617.592860865076
 10
3223.368943921795
 20
-8617.635004111584
 10
3223.765925694144
 20
-8617.664048998631
 10
3224.160876507186
 20
-8617.67972887067
 10
3224.553288170807
 20
-8617.681777072143
 10
3224.9426524949
 20
-8617.669926947501
 10
3225.328461289354
 20
-8617.643911841193
 10
3225.710206364058
 20
-8617.60346509767
 10
3226.087379528902
 20
-8617.548320061376
 10
3226.459472593778
 20
-8617.478210076768
 10
3226.825977368573
 20
-8617.392868488285
 10
3227.186385663179
 20
-8617.292028640382
 10
3227.540189287484
 20
-8617.175423877503
 10
3227.886880051381
 20
-8617.042787544106
 10
3228.225949764757
 20
-8616.89385298463
 10
3228.556920772053
 20
-8616.728411348186
 10
3228.879579469025
 20
-8616.546753656843
 10
3229.19384748732
 20
-8616.349426946425
 10
3229.499647554864
 20
-8616.136980328098
 10
3229.796902399577
 20
-8615.90996291302
 10
3230.08553474938
 20
-8615.66892381236
 10
3230.365467332198
 20
-8615.414412137281
 10
3230.636622875951
 20
-8615.146976998944
 10
3230.898924108562
 20
-8614.867167508519
 10
3231.152293757953
 20
-8614.575532777162
 10
3231.396654552046
 20
-8614.272621916045
 10
3231.631929218763
 20
-8613.958984036324
 10
3231.858040486026
 20
-8613.635168249171
 10
3232.074911081757
 20
-8613.301723665742
 10
3232.282463733879
 20
-8612.959199397206
 10
3232.480621170313
 20
-8612.608144554726
 10
3232.669306118982
 20
-8612.249108249465
 10
3232.848441307807
 20
-8611.882639592586
 10
3233.01794946471
 20
-8611.509287695257
 10
3233.177753317615
 20
-8611.129601668637
 10
3233.327775594444
 20
-8610.744130623894
 10
3233.467939023116
 20
-8610.353423672188
 10
3233.598166331556
 20
-8609.958029924685
 10
3233.718380247685
 20
-8609.55849849255
 10
3233.828503499426
 20
-8609.155378486943
 10
3233.9284588147
 20
-8608.749219019031
 10
3234.018168921429
 20
-8608.34056919998
 10
3234.097556547536
 20
-8607.92997814095
 10
3234.166544420943
 20
-8607.517994953107
 10
3234.225055269572
 20
-8607.105168747612
 10
3234.273011821344
 20
-8606.692048635632
 10
3234.310336804183
 20
-8606.279183728331
 10
3234.336952946009
 20
-8605.867123136872
 10
3234.352782974746
 20
-8605.456415972416
 10
3234.357749618314
 20
-8605.04761134613
 10
3234.351775604639
 20
-8604.64125836918
 10
3234.334783661638
 20
-8604.237906152724
 10
3234.306696517237
 20
-8603.838103807931
 10
3234.267436899356
 20
-8603.442400445963
 10
3234.216927535919
 20
-8603.051345177988
 10
3234.155091154846
 20
-8602.665487115162
 10
3234.081850484059
 20
-8602.285375368654
 10
3233.997128251483
 20
-8601.911559049626
 10
3233.900847185037
 20
-8601.544587269243
 10
3233.792930012644
 20
-8601.18500913867
 10
3233.673299462227
 20
-8600.833373769066
 10
3233.541878261707
 20
-8600.490230271602
 10
3233.398589139007
 20
-8600.156127757438
 10
3233.243354822048
 20
-8599.831615337736
 10
3233.076103029538
 20
-8599.51723255507
 10
3232.89695030718
 20
-8599.213156922942
 10
3232.706255532806
 20
-8598.919101342926
 10
3232.50439348528
 20
-8598.63474823031
 10
3232.291738943466
 20
-8598.359780000379
 10
3232.068666686226
 20
-8598.093879068423
 10
3231.835551492422
 20
-8597.836727849723
 10
3231.592768140918
 20
-8597.588008759569
 10
3231.340691410579
 20
-8597.347404213246
 10
3231.079696080264
 20
-8597.114596626041
 10
3230.810156928838
 20
-8596.889268413239
 10
3230.532448735163
 20
-8596.671101990127
 10
3230.246946278103
 20
-8596.459779771987
 10
3229.654057689278
 20
-8596.05639761179
 10
3229.034489393266
 20
-8595.676581254933
 10
3228.391239620967
 20
-8595.317790023702
 10
3227.72730660329
 20
-8594.977483240393
 10
3227.045688571134
 20
-8594.653120227293
 10
3226.349383755403
 20
-8594.342160306693
 10
3225.641390387001
 20
-8594.042062800883
 10
3224.924706696831
 20
-8593.750287032153
 10
3222.031033336532
 20
-8592.615587773842
 10
3221.315871501069
 20
-8592.327310524866
 10
3220.609643266857
 20
-8592.032416164664
 10
3219.912760014532
 20
-8591.730524437913
 10
3219.224798402226
 20
-8591.421952212422
 10
3218.545333589939
 20
-8591.107017607184
 10
3217.873940737668
 20
-8590.786038741184
 10
3216.553671553176
 20
-8590.127220702845
 10
3215.260592128741
 20
-8589.44804304931
 10
3213.991303744358
 20
-8588.751050732473
 10
3212.742407680018
 20
-8588.038788704236
 10
3211.510505215714
 20
-8587.313801916502
 10
3210.292197631439
 20
-8586.578635321164
 10
3209.084086207186
 20
-8585.835833870133
 10
3206.684856958717
 20
-8584.337506208562
  0
LWPOLYLINE
  5
267
330
1F
100
AcDbEntity
  8
Ech.1_5
 62
   154
420
    21156
370
    20
100
AcDbPolyline
 90
      167
 70
     0
 43
0.0
 10
3157.774594443029
 20
-8592.858968223376
 10
3158.575504608224
 20
-8594.090811012771
 10
3159.360702714617
 20
-8595.326345630738
 10
3159.74249972739
 20
-8595.946651071867
 10
3160.114476703411
 20
-8596.56926390585
 10
3160.474669635333
 20
-8597.194645611264
 10
3160.821114515803
 20
-8597.82325766668
 10
3161.151847337473
 20
-8598.455561550667
 10
3161.464904092993
 20
-8599.092018741798
 10
3161.758320775013
 20
-8599.733090718644
 10
3162.030133376181
 20
-8600.379238959777
 10
3162.278377889149
 20
-8601.030924943769
 10
3162.501090306566
 20
-8601.68861014919
 10
3162.696306621082
 20
-8602.35275605461
 10
3162.862062825348
 20
-8603.023824138607
 10
3162.996394912012
 20
-8603.702275879745
 10
3163.097338873727
 20
-8604.388572756601
 10
3163.162945149952
 20
-8605.083172810018
 10
3163.193621714237
 20
-8605.78597308831
 10
3163.194726333627
 20
-8606.495692800101
 10
3163.172240937989
 20
-8607.210902629891
 10
3163.132147457187
 20
-8607.930173262184
 10
3163.080427821091
 20
-8608.652075381482
 10
3162.966037802476
 20
-8610.098056819095
 10
3162.91533127969
 20
-8610.819277506418
 10
3162.876926321075
 20
-8611.537412418753
 10
3162.856804856495
 20
-8612.2510322406
 10
3162.860948815818
 20
-8612.958707656462
 10
3162.89534012891
 20
-8613.659009350844
 10
3162.925747896203
 20
-8614.005948391386
 10
3162.965960725638
 20
-8614.350508008245
 10
3163.016726358448
 20
-8614.692509536984
 10
3163.078792535868
 20
-8615.031774313167
 10
3163.15290699913
 20
-8615.368123672357
 10
3163.239817489467
 20
-8615.701378950112
 10
3163.340271748112
 20
-8616.031361482
 10
3163.4550175163
 20
-8616.357892603584
 10
3163.584800440209
 20
-8616.680793548507
 10
3163.730006460759
 20
-8616.999868052091
 10
3163.890256937561
 20
-8617.31488265562
 10
3164.065075417055
 20
-8617.625599142128
 10
3164.25398544568
 20
-8617.931779294648
 10
3164.456510569873
 20
-8618.233184896213
 10
3164.672174336076
 20
-8618.529577729862
 10
3164.900500290725
 20
-8618.820719578622
 10
3165.141011980262
 20
-8619.10637222554
 10
3165.393232951124
 20
-8619.386297453635
 10
3165.65668674975
 20
-8619.660257045954
 10
3165.93089692258
 20
-8619.928012785525
 10
3166.215387016052
 20
-8620.18932645538
 10
3166.509680576607
 20
-8620.443959838563
 10
3166.813301150682
 20
-8620.691674718099
 10
3167.125772284718
 20
-8620.932232877027
 10
3167.44661752515
 20
-8621.165396098379
 10
3167.775360418422
 20
-8621.390926165193
 10
3168.11152451097
 20
-8621.6085848605
 10
3168.454633349235
 20
-8621.818133967336
 10
3168.804210479653
 20
-8622.019335268733
 10
3169.159779448667
 20
-8622.21195054773
 10
3169.520863802713
 20
-8622.395741587357
 10
3169.88698708823
 20
-8622.57047017065
 10
3170.257672851659
 20
-8622.735898080642
 10
3170.632444639438
 20
-8622.89178710037
 10
3171.010825998006
 20
-8623.037899012868
 10
3171.392340473803
 20
-8623.17399560117
 10
3171.776511613266
 20
-8623.29983864831
 10
3172.162862962835
 20
-8623.415189937323
 10
3172.55091806895
 20
-8623.51981125124
 10
3172.940200478048
 20
-8623.6134643731
 10
3173.330233736571
 20
-8623.695911085937
 10
3173.720541390955
 20
-8623.766913172783
 10
3174.11064698764
 20
-8623.826232416674
 10
3174.500074073067
 20
-8623.873630600643
 10
3174.888346193672
 20
-8623.908869507726
 10
3175.274986895895
 20
-8623.931710920955
 10
3175.659519726176
 20
-8623.941916623366
 10
3176.041468230954
 20
-8623.939248397995
 10
3176.420355956667
 20
-8623.923468027873
 10
3176.795706449755
 20
-8623.894337296038
 10
3177.167043256656
 20
-8623.851617985521
 10
3177.533889923809
 20
-8623.795071879358
 10
3177.895769997654
 20
-8623.724460760586
 10
3178.25220702463
 20
-8623.639546412236
 10
3178.602724551175
 20
-8623.54009061734
 10
3178.946846123729
 20
-8623.425855158937
 10
3179.284095288732
 20
-8623.296601820064
 10
3179.613995592621
 20
-8623.152092383749
 10
3179.93610258029
 20
-8622.992145347836
 10
3180.250228200523
 20
-8622.817033666386
 10
3180.556307606566
 20
-8622.627248663932
 10
3180.854276734141
 20
-8622.42328305187
 10
3181.144071518969
 20
-8622.205629541606
 10
3181.425627896771
 20
-8621.974780844543
 10
3181.69888180327
 20
-8621.731229672083
 10
3181.963769174185
 20
-8621.475468735627
 10
3182.220225945239
 20
-8621.207990746574
 10
3182.468188052156
 20
-8620.929288416337
 10
3182.707591430654
 20
-8620.63985445631
 10
3182.938372016455
 20
-8620.340181577903
 10
3183.160465745282
 20
-8620.03076249251
 10
3183.373808552855
 20
-8619.712089911538
 10
3183.578336374896
 20
-8619.384656546386
 10
3183.773985147127
 20
-8619.048955108465
 10
3183.960690805269
 20
-8618.705478309168
 10
3184.138389285044
 20
-8618.354718859902
 10
3184.307016522173
 20
-8617.997169472072
 10
3184.466508452378
 20
-8617.633322857075
 10
3184.61680101138
 20
-8617.263671726316
 10
3184.757830134901
 20
-8616.8887087912
 10
3184.889531758661
 20
-8616.508926763125
 10
3185.011841818384
 20
-8616.124818353499
 10
3185.12469624979
 20
-8615.736876273719
 10
3185.2280309886
 20
-8615.34559323519
 10
3185.405885131323
 20
-8614.554975127501
 10
3185.544891732321
 20
-8613.756905721646
 10
3185.64453827737
 20
-8612.955326708847
 10
3185.679441368216
 20
-8612.554452878348
 10
3185.704312252239
 20
-8612.154179780322
 10
3185.71908686516
 20
-8611.755000126172
 10
3185.723701142702
 20
-8611.357406627298
 10
3185.718091020585
 20
-8610.961891995104
 10
3185.702192434529
 20
-8610.568948940989
 10
3185.67594132026
 20
-8610.179070176362
 10
3185.639273613496
 20
-8609.792748412621
 10
3185.592125249959
 20
-8609.410476361169
 10
3185.534432165371
 20
-8609.03274673341
 10
3185.466130295453
 20
-8608.660052240746
 10
3185.387155575929
 20
-8608.29288559458
 10
3185.297443942517
 20
-8607.931739506314
 10
3185.196931330939
 20
-8607.577106687348
 10
3185.085553676919
 20
-8607.22947984909
 10
3184.963246916176
 20
-8606.889351702937
 10
3184.829946984433
 20
-8606.557214960298
 10
3184.685589817411
 20
-8606.233562332569
 10
3184.530111350831
 20
-8605.918886531155
 10
3184.36350418738
 20
-8605.613572127713
 10
3184.186017032141
 20
-8605.317514963857
 10
3183.997970905583
 20
-8605.030472878963
 10
3183.799686832493
 20
-8604.75220370418
 10
3183.591485837654
 20
-8604.48246527065
 10
3183.373688945851
 20
-8604.221015409526
 10
3183.14661718187
 20
-8603.96761195195
 10
3182.910591570494
 20
-8603.722012729066
 10
3182.665933136509
 20
-8603.483975572024
 10
3182.4129629047
 20
-8603.253258311968
 10
3182.15200189985
 20
-8603.029618780047
 10
3181.607391670173
 20
-8602.602604225189
 10
3181.034670645753
 20
-8602.20099455662
 10
3180.436407024871
 20
-8601.822852423507
 10
3179.815169005803
 20
-8601.46624047502
 10
3179.173524786829
 20
-8601.129221360334
 10
3178.514042566226
 20
-8600.809857728613
 10
3177.839290542273
 20
-8600.506212229031
 10
3177.151836913247
 20
-8600.216347510752
 10
3176.45424987743
 20
-8599.938326222955
 10
3175.038948378526
 20
-8599.410064535467
 10
3173.613931631786
 20
-8598.90592835992
 10
3172.199659996417
 20
-8598.410477619693
 10
3170.808924347813
 20
-8597.9135572862
 10
3169.440864714307
 20
-8597.414419141593
 10
3168.093213494388
 20
-8596.913284966986
 10
3166.763703086548
 20
-8596.410376543483
 10
3165.450065889276
 20
-8595.905915652203
 10
3164.150034301061
 20
-8595.400124074253
 10
3162.861340720397
 20
-8594.893223590749
 10
3160.308897175674
 20
-8593.876983031509
 10
3157.774594443029
 20
-8592.858968223376
  0
LWPOLYLINE
  5
268
330
1F
100
AcDbEntity
  8
Ech.1_5
 62
   154
420
    21156
370
    20
100
AcDbPolyline
 90
       70
 70
     0
 43
0.0
 10
3182.020492099416
 20
-8605.738825065542
 10
3181.912573614271
 20
-8606.417093637354
 10
3181.804686838076
 20
-8607.1066927834
 10
3181.69686347978
 20
-8607.81895307791
 10
3181.589135248334
 20
-8608.565205095114
 10
3181.535316714225
 20
-8608.954618804175
 10
3181.481533852685
 20
-8609.356779409249
 10
3181.427790627331
 20
-8609.773103232112
 10
3181.374091001785
 20
-8610.205006594548
 10
3181.320438939662
 20
-8610.653905818328
 10
3181.266838404582
 20
-8611.121217225234
 10
3181.213293360164
 20
-8611.608357137051
 10
3181.159931728062
 20
-8612.116142134944
 10
3181.107931048828
 20
-8612.640310476001
 10
3181.058997142146
 20
-8613.174044468042
 10
3180.977168988011
 20
-8614.242860920327
 10
3180.94769441134
 20
-8614.764269138188
 10
3180.92812594879
 20
-8615.267894522278
 10
3180.920173435753
 20
-8615.746899951411
 10
3180.92554670762
 20
-8616.194448304392
 10
3180.933764836453
 20
-8616.404289476955
 10
3180.945955599784
 20
-8616.603702460034
 10
3180.962332727036
 20
-8616.791832613482
 10
3180.983109947635
 20
-8616.967825297148
 10
3181.008500991004
 20
-8617.130825870885
 10
3181.038719586567
 20
-8617.279979694546
 10
3181.073979463747
 20
-8617.414432127976
 10
3181.11449435197
 20
-8617.533328531035
 10
3181.160477980658
 20
-8617.635814263567
 10
3181.212144079237
 20
-8617.721034685428
 10
3181.26970637713
 20
-8617.788135156468
 10
3181.33337860376
 20
-8617.836261036537
 10
3181.403374488552
 20
-8617.864557685489
 10
3181.479889150483
 20
-8617.87221347562
 10
3181.562744037305
 20
-8617.859280407803
 10
3181.651414845736
 20
-8617.826609582378
 10
3181.745364256637
 20
-8617.77508218191
 10
3181.844054950871
 20
-8617.705579388961
 10
3181.946949609302
 20
-8617.6189823861
 10
3182.053510912794
 20
-8617.51617235589
 10
3182.163201542206
 20
-8617.398030480892
 10
3182.275484178405
 20
-8617.265437943679
 10
3182.389821502253
 20
-8617.11927592681
 10
3182.505676194612
 20
-8616.960425612848
 10
3182.622510936346
 20
-8616.789768184364
 10
3182.739788408319
 20
-8616.60818482392
 10
3182.973522266427
 20
-8616.215765037403
 10
3183.202579215844
 20
-8615.790215713821
 10
3183.422660703473
 20
-8615.338586313694
 10
3183.62946817622
 20
-8614.867926297537
 10
3183.818703080985
 20
-8614.385285125863
 10
3183.986066864676
 20
-8613.8977122592
 10
3184.127260974197
 20
-8613.412257158061
 10
3184.238001006314
 20
-8612.935951035746
 10
3184.315874473899
 20
-8612.473411141566
 10
3184.362193704293
 20
-8612.024451321515
 10
3184.378711710671
 20
-8611.588317127036
 10
3184.367181506212
 20
-8611.164254109564
 10
3184.329356104092
 20
-8610.751507820536
 10
3184.26698851749
 20
-8610.34932381139
 10
3184.181831759582
 20
-8609.956947633562
 10
3184.075638843547
 20
-8609.573624838491
 10
3183.95016278256
 20
-8609.19860097761
 10
3183.807156589801
 20
-8608.831121602361
 10
3183.648373278444
 20
-8608.470432264176
 10
3183.475565861669
 20
-8608.115778514495
 10
3183.290487352652
 20
-8607.766405904753
 10
3182.890529110605
 20
-8607.080486310842
 10
3182.46252265772
 20
-8606.40663789394
 10
3182.020492099416
 20
-8605.738825065542
  0
LWPOLYLINE
  5
269
330
1F
100
AcDbEntity
  8
Ech.1_5
 62
   154
420
    21156
370
    20
100
AcDbPolyline
 90
       70
 70
     0
 43
0.0
 10
3228.101518131628
 20
-8598.327173999925
 10
3227.993599646484
 20
-8599.005442571739
 10
3227.88571287029
 20
-8599.695041717785
 10
3227.777889511995
 20
-8600.407302012294
 10
3227.670161280548
 20
-8601.153554029503
 10
3227.616342746439
 20
-8601.542967738564
 10
3227.5625598849
 20
-8601.94512834364
 10
3227.508816659547
 20
-8602.361452166504
 10
3227.455117034001
 20
-8602.793355528938
 10
3227.401464971877
 20
-8603.24225475272
 10
3227.347864436797
 20
-8603.709566159629
 10
3227.294319392379
 20
-8604.196706071445
 10
3227.240957760277
 20
-8604.704491069338
 10
3227.188957081042
 20
-8605.228659410395
 10
3227.140023174361
 20
-8605.762393402438
 10
3227.058195020225
 20
-8606.831209854725
 10
3227.028720443555
 20
-8607.35261807259
 10
3227.009151981005
 20
-8607.856243456681
 10
3227.001199467968
 20
-8608.335248885815
 10
3227.006572739835
 20
-8608.782797238795
 10
3227.014790868668
 20
-8608.992638411359
 10
3227.026981631998
 20
-8609.192051394437
 10
3227.043358759251
 20
-8609.380181547886
 10
3227.064135979849
 20
-8609.556174231551
 10
3227.089527023219
 20
-8609.719174805288
 10
3227.119745618781
 20
-8609.868328628949
 10
3227.155005495963
 20
-8610.002781062383
 10
3227.195520384184
 20
-8610.121677465439
 10
3227.241504012874
 20
-8610.224163197974
 10
3227.293170111453
 20
-8610.309383619833
 10
3227.350732409345
 20
-8610.376484090873
 10
3227.414404635975
 20
-8610.424609970942
 10
3227.484400520768
 20
-8610.452906619894
 10
3227.560915182698
 20
-8610.460562410022
 10
3227.643770069522
 20
-8610.447629342209
 10
3227.732440877952
 20
-8610.414958516782
 10
3227.826390288854
 20
-8610.363431116313
 10
3227.925080983088
 20
-8610.293928323365
 10
3228.027975641519
 20
-8610.207331320504
 10
3228.13453694501
 20
-8610.104521290294
 10
3228.244227574423
 20
-8609.986379415295
 10
3228.356510210624
 20
-8609.853786878082
 10
3228.470847534471
 20
-8609.70762486121
 10
3228.58670222683
 20
-8609.548774547251
 10
3228.703536968565
 20
-8609.378117118766
 10
3228.820814440537
 20
-8609.19653375832
 10
3229.054548298647
 20
-8608.804113971804
 10
3229.283605248064
 20
-8608.378564648221
 10
3229.503686735694
 20
-8607.926935248093
 10
3229.71049420844
 20
-8607.456275231933
 10
3229.899729113206
 20
-8606.973634060263
 10
3230.067092896898
 20
-8606.486061193598
 10
3230.208287006418
 20
-8606.000606092457
 10
3230.319027038535
 20
-8605.524299970144
 10
3230.396900506121
 20
-8605.061760075963
 10
3230.443219736513
 20
-8604.612800255913
 10
3230.45973774289
 20
-8604.176666061432
 10
3230.448207538432
 20
-8603.752603043959
 10
3230.410382136312
 20
-8603.339856754934
 10
3230.348014549709
 20
-8602.937672745786
 10
3230.262857791801
 20
-8602.545296567958
 10
3230.156664875765
 20
-8602.161973772885
 10
3230.031188814778
 20
-8601.786949912002
 10
3229.888182622018
 20
-8601.41947053675
 10
3229.729399310661
 20
-8601.058781198568
 10
3229.556591893885
 20
-8600.704127448884
 10
3229.371513384868
 20
-8600.354754839143
 10
3228.97155514282
 20
-8599.668835245233
 10
3228.543548689932
 20
-8598.994986828326
 10
3228.101518131628
 20
-8598.327173999925
  0
LWPOLYLINE
  5
26A
330
1F
100
AcDbEntity
  8
Ech.1_5
 62
     7
370
    20
100
AcDbPolyline
 90
        3
 70
     0
 43
0.0
 10
2761.309725621632
 20
-9020.511262438966
 10
2734.309725621632
 20
-9020.511262438966
 10
2734.309725621632
 20
-8644.894645496683
  0
HATCH
  5
26B
330
1F
100
AcDbEntity
  8
Ech.1_5
 62
    17
420
  8405056
440
 33554687
370
    20
100
AcDbHatch
 10
0.0
 20
0.0
 30
0.0
210
0.0
220
0.0
230
1.0
  2
SOLID
 70
     1
 71
     1
 91
        1
 92
        3
 72
     0
 73
     1
 93
        4
 10
2707.309725621632
 20
-9020.511262438966
 10
2707.252639405172
 20
-8644.894645496683
 10
2687.252639405172
 20
-8644.894645496683
 10
2687.252639405172
 20
-9020.511262438966
 97
        0
 75
     0
 76
     1
 98
        0
  0
LWPOLYLINE
  5
26C
330
1F
100
AcDbEntity
  8
Ech.1_5
 62
     7
370
    20
100
AcDbPolyline
 90
        5
 70
     0
 43
0.0
 10
2707.309725621632
 20
-9020.511262438966
 10
2707.252639405172
 20
-8644.894645496683
 10
2687.252639405172
 20
-8644.894645496683
 10
2687.252639405172
 20
-9020.511262438966
 10
2707.309725621632
 20
-9020.511262438966
  0
HATCH
  5
26D
330
1F
100
AcDbEntity
  8
Ech.1_5
 62
    35
420
  9529928
440
 33554687
370
    20
100
AcDbHatch
 10
0.0
 20
0.0
 30
0.0
210
0.0
220
0.0
230
1.0
  2
SOLID
 70
     1
 71
     1
 91
        1
 92
        3
 72
     0
 73
     1
 93
        4
 10
2707.309725621632
 20
-8980.511261961834
 10
2707.309725621632
 20
-9020.511262438966
 10
2734.309725621632
 20
-9020.511262438966
 10
2734.309725621632
 20
-8980.511262438966
 97
        0
 75
     0
 76
     1
 98
        0
  0
LWPOLYLINE
  5
26E
330
1F
100
AcDbEntity
  8
Ech.1_5
 62
   190
370
    20
100
AcDbPolyline
 90
        5
 70
     0
 43
0.0
 10
2707.309725621632
 20
-8980.511261961834
 10
2707.309725621632
 20
-9020.511262438966
 10
2734.309725621632
 20
-9020.511262438966
 10
2734.309725621632
 20
-8980.511262438966
 10
2707.309725621632
 20
-8980.511261961834
  0
LWPOLYLINE
  5
26F
330
1F
100
AcDbEntity
  8
Ech.1_5
 62
   190
370
    20
100
AcDbPolyline
 90
        4
 70
     0
 43
0.0
 10
2734.309725621632
 20
-8980.511262438966
 10
2707.309725621632
 20
-9020.511262438966
 10
2734.309725621632
 20
-9020.511262438966
 10
2707.309725621632
 20
-8980.511375273018
  0
LWPOLYLINE
  5
270
330
1F
100
AcDbEntity
  8
Ech.1_5
 62
     5
370
    20
100
AcDbPolyline
 90
        5
 70
     0
 43
0.0
 10
2707.309725621632
 20
-8980.511375273018
 10
2707.309725621632
 20
-9020.511262438966
 10
2734.309725621632
 20
-9020.511262438966
 10
2734.309725621632
 20
-8980.511262438966
 10
2707.309725621632
 20
-8980.511375273018
  0
LWPOLYLINE
  5
271
330
1F
100
AcDbEntity
  8
Ech.1_5
 62
     7
370
    20
100
AcDbPolyline
 90
        4
 70
     0
 43
0.0
 10
2687.252639405172
 20
-8644.894645496683
 10
2687.252639405172
 20
-9020.511262438966
 10
2707.309725621632
 20
-9020.511262438966
 10
2707.252639405172
 20
-8644.894645496683
  0
LINE
  5
272
330
1F
100
AcDbEntity
  8
Ech.1_5
 62
   190
370
     9
100
AcDbLine
 10
2686.697083405895
 20
-8997.992512438977
 30
0.0
 11
2686.391528404992
 21
-8997.992512438977
 31
0.0
  0
LINE
  5
273
330
1F
100
AcDbEntity
  8
Ech.1_5
 62
   190
370
     9
100
AcDbLine
 10
2686.391528404992
 20
-8997.992512438977
 30
0.0
 11
2686.391528404992
 21
-9003.030012438954
 31
0.0
  0
LINE
  5
274
330
1F
100
AcDbEntity
  8
Ech.1_5
 62
   190
370
     9
100
AcDbLine
 10
2686.697083405893
 20
-9003.030012438954
 30
0.0
 11
2686.391528404992
 21
-9003.030012438954
 31
0.0
  0
HATCH
  5
275
330
1F
100
AcDbEntity
  8
Ech.1_5
 62
   252
440
 33554687
370
     5
100
AcDbHatch
 10
0.0
 20
0.0
 30
0.0
210
0.0
220
0.0
230
1.0
  2
SOLID
 70
     1
 71
     1
 91
        1
 92
        3
 72
     0
 73
     1
 93
        4
 10
2726.502638407089
 20
-9001.641123439018
 10
2727.335972406007
 20
-9001.641123439018
 10
2727.335972406007
 20
-8999.381401438972
 10
2726.502638407089
 20
-8999.381401438972
 97
        0
 75
     0
 76
     1
 98
        0
  0
LWPOLYLINE
  5
276
330
1F
100
AcDbEntity
  8
Ech.1_5
 62
     7
370
     9
100
AcDbPolyline
 90
        5
 70
     0
 43
0.0
 10
2726.502638407089
 20
-9001.641123439018
 10
2727.335972406007
 20
-9001.641123439018
 10
2727.335972406007
 20
-8999.381401438972
 10
2726.502638407089
 20
-8999.381401438972
 10
2726.502638407089
 20
-9001.641123439018
  0
LINE
  5
277
330
1F
100
AcDbEntity
  8
Ech.1_5
 62
   190
370
     9
100
AcDbLine
 10
2729.535056404512
 20
-8999.381401438972
 30
0.0
 11
2687.252639405172
 21
-8999.381401438972
 31
0.0
  0
LINE
  5
278
330
1F
100
AcDbEntity
  8
Ech.1_5
 62
   190
370
     9
100
AcDbLine
 10
2729.535056404512
 20
-9001.641123439018
 30
0.0
 11
2687.252639405172
 21
-9001.641123439018
 31
0.0
  0
ARC
  5
279
330
1F
100
AcDbEntity
  8
Ech.1_5
 62
   190
370
     9
100
AcDbCircle
 10
2698.954731795826
 20
-9000.511262438995
 30
0.0
 40
12.81320339083424
100
AcDbArc
 50
168.6632793503132
 51
191.3367206496868
  0
LINE
  5
27A
330
1F
100
AcDbEntity
  8
Ech.1_5
 62
   190
370
     9
100
AcDbLine
 10
2686.697083405895
 20
-8997.992512438977
 30
0.0
 11
2686.697083405893
 21
-8998.825845438929
 31
0.0
  0
ARC
  5
27B
330
1F
100
AcDbEntity
  8
Ech.1_5
 62
   190
370
     9
100
AcDbCircle
 10
2687.252639395792
 20
-8998.825845449073
 30
0.0
 40
0.5555559898988737
100
AcDbArc
 50
179.9999989537737
 51
270.0000009673888
  0
LINE
  5
27C
330
1F
100
AcDbEntity
  8
Ech.1_5
 62
   190
370
     9
100
AcDbLine
 10
2686.697083405893
 20
-8998.825845438929
 30
0.0
 11
2686.697083405893
 21
-9002.196679438995
 31
0.0
  0
ARC
  5
27D
330
1F
100
AcDbEntity
  8
Ech.1_5
 62
   190
370
     9
100
AcDbCircle
 10
2687.25263939568
 20
-9002.196679428806
 30
0.0
 40
0.5555559897870862
100
AcDbArc
 50
89.99999902107403
 51
180.0000010509162
  0
LINE
  5
27E
330
1F
100
AcDbEntity
  8
Ech.1_5
 62
   190
370
     9
100
AcDbLine
 10
2686.697083405893
 20
-9003.030012438954
 30
0.0
 11
2686.697083405893
 21
-9002.196679438995
 31
0.0
  0
LINE
  5
27F
330
1F
100
AcDbEntity
  8
Ech.1_5
 62
   190
370
     9
100
AcDbLine
 10
2697.335972406007
 20
-8999.381401438972
 30
0.0
 11
2697.335972406007
 21
-9001.641123439018
 31
0.0
  0
LINE
  5
280
330
1F
100
AcDbEntity
  8
Ech.1_5
 62
   190
370
     9
100
AcDbLine
 10
2698.169305406548
 20
-8999.381401438972
 30
0.0
 11
2698.169305406548
 21
-9001.641123439018
 31
0.0
  0
LINE
  5
281
330
1F
100
AcDbEntity
  8
Ech.1_5
 62
   190
370
     9
100
AcDbLine
 10
2694.835972406007
 20
-8999.381401438972
 30
0.0
 11
2694.835972406007
 21
-9001.641123439018
 31
0.0
  0
LINE
  5
282
330
1F
100
AcDbEntity
  8
Ech.1_5
 62
   190
370
     9
100
AcDbLine
 10
2695.669305406548
 20
-8999.381401438972
 30
0.0
 11
2695.669305406548
 21
-9001.641123439018
 31
0.0
  0
LINE
  5
283
330
1F
100
AcDbEntity
  8
Ech.1_5
 62
   190
370
     9
100
AcDbLine
 10
2696.502638407089
 20
-8999.381401438972
 30
0.0
 11
2696.502638407089
 21
-9001.641123439018
 31
0.0
  0
LINE
  5
284
330
1F
100
AcDbEntity
  8
Ech.1_5
 62
   190
370
     9
100
AcDbLine
 10
2692.335972406007
 20
-8999.381401438972
 30
0.0
 11
2692.335972406007
 21
-9001.641123439018
 31
0.0
  0
LINE
  5
285
330
1F
100
AcDbEntity
  8
Ech.1_5
 62
   190
370
     9
100
AcDbLine
 10
2693.16930540655
 20
-8999.381401438972
 30
0.0
 11
2693.16930540655
 21
-9001.641123439018
 31
0.0
  0
LINE
  5
286
330
1F
100
AcDbEntity
  8
Ech.1_5
 62
   190
370
     9
100
AcDbLine
 10
2694.002638407091
 20
-8999.381401438972
 30
0.0
 11
2694.002638407091
 21
-9001.641123439018
 31
0.0
  0
LINE
  5
287
330
1F
100
AcDbEntity
  8
Ech.1_5
 62
   190
370
     9
100
AcDbLine
 10
2691.502638407089
 20
-8999.381401438972
 30
0.0
 11
2691.502638407089
 21
-9001.641123439018
 31
0.0
  0
LINE
  5
288
330
1F
100
AcDbEntity
  8
Ech.1_5
 62
   190
370
     9
100
AcDbLine
 10
2690.669305406548
 20
-8999.381401438972
 30
0.0
 11
2690.669305406548
 21
-9001.641123439018
 31
0.0
  0
LINE
  5
289
330
1F
100
AcDbEntity
  8
Ech.1_5
 62
   190
370
     9
100
AcDbLine
 10
2689.835972406007
 20
-8999.381401438972
 30
0.0
 11
2689.835972406007
 21
-9001.641123439018
 31
0.0
  0
LINE
  5
28A
330
1F
100
AcDbEntity
  8
Ech.1_5
 62
   190
370
     9
100
AcDbLine
 10
2689.002638407089
 20
-8999.381401438972
 30
0.0
 11
2689.002638407089
 21
-9001.64112343901
 31
0.0
  0
LINE
  5
28B
330
1F
100
AcDbEntity
  8
Ech.1_5
 62
   190
370
     9
100
AcDbLine
 10
2724.002638407089
 20
-8999.381401438972
 30
0.0
 11
2724.002638407089
 21
-9001.641123439018
 31
0.0
  0
LINE
  5
28C
330
1F
100
AcDbEntity
  8
Ech.1_5
 62
   190
370
     9
100
AcDbLine
 10
2723.169305406548
 20
-8999.381401438972
 30
0.0
 11
2723.169305406548
 21
-9001.641123439018
 31
0.0
  0
LINE
  5
28D
330
1F
100
AcDbEntity
  8
Ech.1_5
 62
   190
370
     9
100
AcDbLine
 10
2724.835972406007
 20
-8999.381401438972
 30
0.0
 11
2724.835972406007
 21
-9001.641123439018
 31
0.0
  0
LINE
  5
28E
330
1F
100
AcDbEntity
  8
Ech.1_5
 62
   190
370
     9
100
AcDbLine
 10
2720.669305406548
 20
-8999.381401438972
 30
0.0
 11
2720.669305406548
 21
-9001.641123439018
 31
0.0
  0
LINE
  5
28F
330
1F
100
AcDbEntity
  8
Ech.1_5
 62
   190
370
     9
100
AcDbLine
 10
2721.502638407089
 20
-8999.381401438972
 30
0.0
 11
2721.502638407089
 21
-9001.641123439018
 31
0.0
  0
LINE
  5
290
330
1F
100
AcDbEntity
  8
Ech.1_5
 62
   190
370
     9
100
AcDbLine
 10
2722.335972406007
 20
-8999.381401438972
 30
0.0
 11
2722.335972406007
 21
-9001.641123439018
 31
0.0
  0
LINE
  5
291
330
1F
100
AcDbEntity
  8
Ech.1_5
 62
   190
370
     9
100
AcDbLine
 10
2718.169305406548
 20
-8999.381401438972
 30
0.0
 11
2718.169305406548
 21
-9001.641123439018
 31
0.0
  0
LINE
  5
292
330
1F
100
AcDbEntity
  8
Ech.1_5
 62
   190
370
     9
100
AcDbLine
 10
2719.002638407089
 20
-8999.381401438972
 30
0.0
 11
2719.002638407089
 21
-9001.641123439018
 31
0.0
  0
LINE
  5
293
330
1F
100
AcDbEntity
  8
Ech.1_5
 62
   190
370
     9
100
AcDbLine
 10
2719.835972406007
 20
-8999.381401438972
 30
0.0
 11
2719.835972406007
 21
-9001.641123439018
 31
0.0
  0
LINE
  5
294
330
1F
100
AcDbEntity
  8
Ech.1_5
 62
   190
370
     9
100
AcDbLine
 10
2715.669305406548
 20
-8999.381401438972
 30
0.0
 11
2715.669305406548
 21
-9001.641123439018
 31
0.0
  0
LINE
  5
295
330
1F
100
AcDbEntity
  8
Ech.1_5
 62
   190
370
     9
100
AcDbLine
 10
2716.502638407089
 20
-8999.381401438972
 30
0.0
 11
2716.502638407089
 21
-9001.641123439018
 31
0.0
  0
LINE
  5
296
330
1F
100
AcDbEntity
  8
Ech.1_5
 62
   190
370
     9
100
AcDbLine
 10
2717.335972406007
 20
-8999.381401438972
 30
0.0
 11
2717.335972406007
 21
-9001.641123439018
 31
0.0
  0
LINE
  5
297
330
1F
100
AcDbEntity
  8
Ech.1_5
 62
   190
370
     9
100
AcDbLine
 10
2714.835972406007
 20
-8999.381401438972
 30
0.0
 11
2714.835972406007
 21
-9001.641123439018
 31
0.0
  0
LINE
  5
298
330
1F
100
AcDbEntity
  8
Ech.1_5
 62
   190
370
     9
100
AcDbLine
 10
2701.502638407089
 20
-8999.381401438972
 30
0.0
 11
2701.502638407089
 21
-9001.641123439018
 31
0.0
  0
LINE
  5
299
330
1F
100
AcDbEntity
  8
Ech.1_5
 62
   190
370
     9
100
AcDbLine
 10
2702.335972406007
 20
-8999.381401438972
 30
0.0
 11
2702.335972406007
 21
-9001.641123439018
 31
0.0
  0
LINE
  5
29A
330
1F
100
AcDbEntity
  8
Ech.1_5
 62
   190
370
     9
100
AcDbLine
 10
2703.169305406548
 20
-8999.381401438972
 30
0.0
 11
2703.169305406548
 21
-9001.641123439018
 31
0.0
  0
LINE
  5
29B
330
1F
100
AcDbEntity
  8
Ech.1_5
 62
   190
370
     9
100
AcDbLine
 10
2704.002638407089
 20
-8999.381401438972
 30
0.0
 11
2704.002638407089
 21
-9001.641123439018
 31
0.0
  0
LINE
  5
29C
330
1F
100
AcDbEntity
  8
Ech.1_5
 62
   190
370
     9
100
AcDbLine
 10
2706.502638407089
 20
-8999.381401438972
 30
0.0
 11
2706.502638407089
 21
-9001.641123439018
 31
0.0
  0
LINE
  5
29D
330
1F
100
AcDbEntity
  8
Ech.1_5
 62
   190
370
     9
100
AcDbLine
 10
2705.669305406548
 20
-8999.381401438972
 30
0.0
 11
2705.669305406548
 21
-9001.641123439018
 31
0.0
  0
LINE
  5
29E
330
1F
100
AcDbEntity
  8
Ech.1_5
 62
   190
370
     9
100
AcDbLine
 10
2704.835972406007
 20
-8999.381401438972
 30
0.0
 11
2704.835972406007
 21
-9001.641123439018
 31
0.0
  0
LINE
  5
29F
330
1F
100
AcDbEntity
  8
Ech.1_5
 62
   190
370
     9
100
AcDbLine
 10
2709.002638407089
 20
-8999.381401438972
 30
0.0
 11
2709.002638407089
 21
-9001.641123439018
 31
0.0
  0
LINE
  5
2A0
330
1F
100
AcDbEntity
  8
Ech.1_5
 62
   190
370
     9
100
AcDbLine
 10
2708.169305406548
 20
-8999.381401438972
 30
0.0
 11
2708.169305406548
 21
-9001.641123439018
 31
0.0
  0
LINE
  5
2A1
330
1F
100
AcDbEntity
  8
Ech.1_5
 62
   190
370
     9
100
AcDbLine
 10
2707.335972406007
 20
-8999.381401438972
 30
0.0
 11
2707.335972406007
 21
-9001.641123439018
 31
0.0
  0
LINE
  5
2A2
330
1F
100
AcDbEntity
  8
Ech.1_5
 62
   190
370
     9
100
AcDbLine
 10
2711.502638407089
 20
-8999.381401438972
 30
0.0
 11
2711.502638407089
 21
-9001.641123439018
 31
0.0
  0
LINE
  5
2A3
330
1F
100
AcDbEntity
  8
Ech.1_5
 62
   190
370
     9
100
AcDbLine
 10
2710.669305406548
 20
-8999.381401438972
 30
0.0
 11
2710.669305406548
 21
-9001.641123439018
 31
0.0
  0
LINE
  5
2A4
330
1F
100
AcDbEntity
  8
Ech.1_5
 62
   190
370
     9
100
AcDbLine
 10
2709.835972406007
 20
-8999.381401438972
 30
0.0
 11
2709.835972406007
 21
-9001.641123439018
 31
0.0
  0
LINE
  5
2A5
330
1F
100
AcDbEntity
  8
Ech.1_5
 62
   190
370
     9
100
AcDbLine
 10
2714.002638407089
 20
-8999.381401438972
 30
0.0
 11
2714.002638407089
 21
-9001.641123439018
 31
0.0
  0
LINE
  5
2A6
330
1F
100
AcDbEntity
  8
Ech.1_5
 62
   190
370
     9
100
AcDbLine
 10
2713.169305406548
 20
-8999.381401438972
 30
0.0
 11
2713.169305406548
 21
-9001.641123439018
 31
0.0
  0
LINE
  5
2A7
330
1F
100
AcDbEntity
  8
Ech.1_5
 62
   190
370
     9
100
AcDbLine
 10
2712.335972406007
 20
-8999.381401438972
 30
0.0
 11
2712.335972406007
 21
-9001.641123439018
 31
0.0
  0
LINE
  5
2A8
330
1F
100
AcDbEntity
  8
Ech.1_5
 62
   190
370
     9
100
AcDbLine
 10
2699.835972406007
 20
-8999.381401438972
 30
0.0
 11
2699.835972406007
 21
-9001.641123439018
 31
0.0
  0
LINE
  5
2A9
330
1F
100
AcDbEntity
  8
Ech.1_5
 62
   190
370
     9
100
AcDbLine
 10
2700.669305406548
 20
-8999.381401438972
 30
0.0
 11
2700.669305406548
 21
-9001.641123439018
 31
0.0
  0
LINE
  5
2AA
330
1F
100
AcDbEntity
  8
Ech.1_5
 62
   190
370
     9
100
AcDbLine
 10
2701.502638407089
 20
-8999.381401438972
 30
0.0
 11
2701.502638407089
 21
-9001.641123439018
 31
0.0
  0
LINE
  5
2AB
330
1F
100
AcDbEntity
  8
Ech.1_5
 62
   190
370
     9
100
AcDbLine
 10
2699.002638407089
 20
-8999.381401438972
 30
0.0
 11
2699.002638407089
 21
-9001.641123439018
 31
0.0
  0
LINE
  5
2AC
330
1F
100
AcDbEntity
  8
Ech.1_5
 62
   190
370
     9
100
AcDbLine
 10
2732.197083405893
 20
-9000.511262438966
 30
0.0
 11
2729.535056404512
 21
-8999.381401438972
 31
0.0
  0
ARC
  5
2AD
330
1F
100
AcDbEntity
  8
Ech.1_5
 62
   190
370
     9
100
AcDbCircle
 10
2730.944407395109
 20
-9000.511262438962
 30
0.0
 40
1.806337996665553
100
AcDbArc
 50
141.2812399141965
 51
218.7187600858035
  0
LINE
  5
2AE
330
1F
100
AcDbEntity
  8
Ech.1_5
 62
   190
370
     9
100
AcDbLine
 10
2732.197083405893
 20
-9000.511262438966
 30
0.0
 11
2729.535056404512
 21
-9001.641123439018
 31
0.0
  0
HATCH
  5
2AF
330
1F
100
AcDbEntity
  8
Ech.1_5
 62
   252
440
 33554687
370
     5
100
AcDbHatch
 10
0.0
 20
0.0
 30
0.0
210
0.0
220
0.0
230
1.0
  2
SOLID
 70
     1
 71
     1
 91
        1
 92
        3
 72
     0
 73
     1
 93
        4
 10
2689.002638407089
 20
-9001.64112343901
 10
2689.835972406007
 20
-9001.641123439018
 10
2689.835972406007
 20
-8999.381401438972
 10
2689.002638407089
 20
-8999.381401438972
 97
        0
 75
     0
 76
     1
 98
        0
  0
LWPOLYLINE
  5
2B0
330
1F
100
AcDbEntity
  8
Ech.1_5
 62
     7
370
     9
100
AcDbPolyline
 90
        5
 70
     0
 43
0.0
 10
2689.002638407089
 20
-9001.64112343901
 10
2689.835972406007
 20
-9001.641123439018
 10
2689.835972406007
 20
-8999.381401438972
 10
2689.002638407089
 20
-8999.381401438972
 10
2689.002638407089
 20
-9001.64112343901
  0
HATCH
  5
2B1
330
1F
100
AcDbEntity
  8
Ech.1_5
 62
   252
440
 33554687
370
     5
100
AcDbHatch
 10
0.0
 20
0.0
 30
0.0
210
0.0
220
0.0
230
1.0
  2
SOLID
 70
     1
 71
     1
 91
        1
 92
        3
 72
     0
 73
     1
 93
        4
 10
2689.835972406007
 20
-9001.641123439018
 10
2690.669306404926
 20
-9001.641123439018
 10
2690.669306404926
 20
-8999.381401438972
 10
2689.835972406007
 20
-8999.381401438972
 97
        0
 75
     0
 76
     1
 98
        0
  0
LWPOLYLINE
  5
2B2
330
1F
100
AcDbEntity
  8
Ech.1_5
 62
     7
370
     9
100
AcDbPolyline
 90
        5
 70
     0
 43
0.0
 10
2689.835972406007
 20
-9001.641123439018
 10
2690.669306404926
 20
-9001.641123439018
 10
2690.669306404926
 20
-8999.381401438972
 10
2689.835972406007
 20
-8999.381401438972
 10
2689.835972406007
 20
-9001.641123439018
  0
HATCH
  5
2B3
330
1F
100
AcDbEntity
  8
Ech.1_5
 62
   252
440
 33554687
370
     5
100
AcDbHatch
 10
0.0
 20
0.0
 30
0.0
210
0.0
220
0.0
230
1.0
  2
SOLID
 70
     1
 71
     1
 91
        1
 92
        3
 72
     0
 73
     1
 93
        4
 10
2690.669306404926
 20
-9001.641123439018
 10
2691.502640403844
 20
-9001.641123439018
 10
2691.502640403844
 20
-8999.381401438972
 10
2690.669306404926
 20
-8999.381401438972
 97
        0
 75
     0
 76
     1
 98
        0
  0
LWPOLYLINE
  5
2B4
330
1F
100
AcDbEntity
  8
Ech.1_5
 62
     7
370
     9
100
AcDbPolyline
 90
        5
 70
     0
 43
0.0
 10
2690.669306404926
 20
-9001.641123439018
 10
2691.502640403844
 20
-9001.641123439018
 10
2691.502640403844
 20
-8999.381401438972
 10
2690.669306404926
 20
-8999.381401438972
 10
2690.669306404926
 20
-9001.641123439018
  0
HATCH
  5
2B5
330
1F
100
AcDbEntity
  8
Ech.1_5
 62
   252
440
 33554687
370
     5
100
AcDbHatch
 10
0.0
 20
0.0
 30
0.0
210
0.0
220
0.0
230
1.0
  2
SOLID
 70
     1
 71
     1
 91
        1
 92
        3
 72
     0
 73
     1
 93
        4
 10
2691.502640403844
 20
-9001.641123439018
 10
2692.335974402763
 20
-9001.641123439018
 10
2692.335974402763
 20
-8999.381401438972
 10
2691.502640403844
 20
-8999.381401438972
 97
        0
 75
     0
 76
     1
 98
        0
  0
LWPOLYLINE
  5
2B6
330
1F
100
AcDbEntity
  8
Ech.1_5
 62
     7
370
     9
100
AcDbPolyline
 90
        5
 70
     0
 43
0.0
 10
2691.502640403844
 20
-9001.641123439018
 10
2692.335974402763
 20
-9001.641123439018
 10
2692.335974402763
 20
-8999.381401438972
 10
2691.502640403844
 20
-8999.381401438972
 10
2691.502640403844
 20
-9001.641123439018
  0
HATCH
  5
2B7
330
1F
100
AcDbEntity
  8
Ech.1_5
 62
   252
440
 33554687
370
     5
100
AcDbHatch
 10
0.0
 20
0.0
 30
0.0
210
0.0
220
0.0
230
1.0
  2
SOLID
 70
     1
 71
     1
 91
        1
 92
        3
 72
     0
 73
     1
 93
        4
 10
2692.335972406007
 20
-9001.641123439018
 10
2693.169306404928
 20
-9001.641123439018
 10
2693.169306404928
 20
-8999.381401438972
 10
2692.335972406007
 20
-8999.381401438972
 97
        0
 75
     0
 76
     1
 98
        0
  0
LWPOLYLINE
  5
2B8
330
1F
100
AcDbEntity
  8
Ech.1_5
 62
     7
370
     9
100
AcDbPolyline
 90
        5
 70
     0
 43
0.0
 10
2692.335972406007
 20
-9001.641123439018
 10
2693.169306404928
 20
-9001.641123439018
 10
2693.169306404928
 20
-8999.381401438972
 10
2692.335972406007
 20
-8999.381401438972
 10
2692.335972406007
 20
-9001.641123439018
  0
HATCH
  5
2B9
330
1F
100
AcDbEntity
  8
Ech.1_5
 62
   252
440
 33554687
370
     5
100
AcDbHatch
 10
0.0
 20
0.0
 30
0.0
210
0.0
220
0.0
230
1.0
  2
SOLID
 70
     1
 71
     1
 91
        1
 92
        3
 72
     0
 73
     1
 93
        4
 10
2693.16930540655
 20
-9001.641123439018
 10
2694.002639405468
 20
-9001.641123439018
 10
2694.002639405468
 20
-8999.381401438965
 10
2693.16930540655
 20
-8999.381401438972
 97
        0
 75
     0
 76
     1
 98
        0
  0
LWPOLYLINE
  5
2BA
330
1F
100
AcDbEntity
  8
Ech.1_5
 62
     7
370
     9
100
AcDbPolyline
 90
        5
 70
     0
 43
0.0
 10
2693.16930540655
 20
-9001.641123439018
 10
2694.002639405468
 20
-9001.641123439018
 10
2694.002639405468
 20
-8999.381401438965
 10
2693.16930540655
 20
-8999.381401438972
 10
2693.16930540655
 20
-9001.641123439018
  0
HATCH
  5
2BB
330
1F
100
AcDbEntity
  8
Ech.1_5
 62
   252
440
 33554687
370
     5
100
AcDbHatch
 10
0.0
 20
0.0
 30
0.0
210
0.0
220
0.0
230
1.0
  2
SOLID
 70
     1
 71
     1
 91
        1
 92
        3
 72
     0
 73
     1
 93
        4
 10
2694.002639405468
 20
-9001.641123439018
 10
2694.835973404385
 20
-9001.641123439018
 10
2694.835973404385
 20
-8999.381401438972
 10
2694.002639405468
 20
-8999.381401438965
 97
        0
 75
     0
 76
     1
 98
        0
  0
LWPOLYLINE
  5
2BC
330
1F
100
AcDbEntity
  8
Ech.1_5
 62
     7
370
     9
100
AcDbPolyline
 90
        5
 70
     0
 43
0.0
 10
2694.002639405468
 20
-9001.641123439018
 10
2694.835973404385
 20
-9001.641123439018
 10
2694.835973404385
 20
-8999.381401438972
 10
2694.002639405468
 20
-8999.381401438965
 10
2694.002639405468
 20
-9001.641123439018
  0
HATCH
  5
2BD
330
1F
100
AcDbEntity
  8
Ech.1_5
 62
   252
440
 33554687
370
     5
100
AcDbHatch
 10
0.0
 20
0.0
 30
0.0
210
0.0
220
0.0
230
1.0
  2
SOLID
 70
     1
 71
     1
 91
        1
 92
        3
 72
     0
 73
     1
 93
        4
 10
2694.835972406007
 20
-9001.641123439018
 10
2695.669306404926
 20
-9001.641123439018
 10
2695.669306404926
 20
-8999.381401438972
 10
2694.835972406007
 20
-8999.381401438972
 97
        0
 75
     0
 76
     1
 98
        0
  0
LWPOLYLINE
  5
2BE
330
1F
100
AcDbEntity
  8
Ech.1_5
 62
     7
370
     9
100
AcDbPolyline
 90
        5
 70
     0
 43
0.0
 10
2694.835972406007
 20
-9001.641123439018
 10
2695.669306404926
 20
-9001.641123439018
 10
2695.669306404926
 20
-8999.381401438972
 10
2694.835972406007
 20
-8999.381401438972
 10
2694.835972406007
 20
-9001.641123439018
  0
HATCH
  5
2BF
330
1F
100
AcDbEntity
  8
Ech.1_5
 62
   252
440
 33554687
370
     5
100
AcDbHatch
 10
0.0
 20
0.0
 30
0.0
210
0.0
220
0.0
230
1.0
  2
SOLID
 70
     1
 71
     1
 91
        1
 92
        3
 72
     0
 73
     1
 93
        4
 10
2695.669306404926
 20
-9001.641123439018
 10
2696.502640403844
 20
-9001.641123439018
 10
2696.502640403844
 20
-8999.381401438972
 10
2695.669306404926
 20
-8999.381401438972
 97
        0
 75
     0
 76
     1
 98
        0
  0
LWPOLYLINE
  5
2C0
330
1F
100
AcDbEntity
  8
Ech.1_5
 62
     7
370
     9
100
AcDbPolyline
 90
        5
 70
     0
 43
0.0
 10
2695.669306404926
 20
-9001.641123439018
 10
2696.502640403844
 20
-9001.641123439018
 10
2696.502640403844
 20
-8999.381401438972
 10
2695.669306404926
 20
-8999.381401438972
 10
2695.669306404926
 20
-9001.641123439018
  0
HATCH
  5
2C1
330
1F
100
AcDbEntity
  8
Ech.1_5
 62
   252
440
 33554687
370
     5
100
AcDbHatch
 10
0.0
 20
0.0
 30
0.0
210
0.0
220
0.0
230
1.0
  2
SOLID
 70
     1
 71
     1
 91
        1
 92
        3
 72
     0
 73
     1
 93
        4
 10
2696.502638407089
 20
-9001.641123439018
 10
2697.335972406007
 20
-9001.641123439018
 10
2697.335972406007
 20
-8999.381401438972
 10
2696.502638407089
 20
-8999.381401438972
 97
        0
 75
     0
 76
     1
 98
        0
  0
LWPOLYLINE
  5
2C2
330
1F
100
AcDbEntity
  8
Ech.1_5
 62
     7
370
     9
100
AcDbPolyline
 90
        5
 70
     0
 43
0.0
 10
2696.502638407089
 20
-9001.641123439018
 10
2697.335972406007
 20
-9001.641123439018
 10
2697.335972406007
 20
-8999.381401438972
 10
2696.502638407089
 20
-8999.381401438972
 10
2696.502638407089
 20
-9001.641123439018
  0
HATCH
  5
2C3
330
1F
100
AcDbEntity
  8
Ech.1_5
 62
   252
440
 33554687
370
     5
100
AcDbHatch
 10
0.0
 20
0.0
 30
0.0
210
0.0
220
0.0
230
1.0
  2
SOLID
 70
     1
 71
     1
 91
        1
 92
        3
 72
     0
 73
     1
 93
        4
 10
2697.335972406007
 20
-9001.641123439018
 10
2698.169306404926
 20
-9001.641123439018
 10
2698.169306404926
 20
-8999.381401438972
 10
2697.335972406007
 20
-8999.381401438972
 97
        0
 75
     0
 76
     1
 98
        0
  0
LWPOLYLINE
  5
2C4
330
1F
100
AcDbEntity
  8
Ech.1_5
 62
     7
370
     9
100
AcDbPolyline
 90
        5
 70
     0
 43
0.0
 10
2697.335972406007
 20
-9001.641123439018
 10
2698.169306404926
 20
-9001.641123439018
 10
2698.169306404926
 20
-8999.381401438972
 10
2697.335972406007
 20
-8999.381401438972
 10
2697.335972406007
 20
-9001.641123439018
  0
HATCH
  5
2C5
330
1F
100
AcDbEntity
  8
Ech.1_5
 62
   252
440
 33554687
370
     5
100
AcDbHatch
 10
0.0
 20
0.0
 30
0.0
210
0.0
220
0.0
230
1.0
  2
SOLID
 70
     1
 71
     1
 91
        1
 92
        3
 72
     0
 73
     1
 93
        4
 10
2698.169306404926
 20
-9001.641123439018
 10
2699.002640403844
 20
-9001.641123439018
 10
2699.002640403846
 20
-8999.381401438972
 10
2698.169306404926
 20
-8999.381401438972
 97
        0
 75
     0
 76
     1
 98
        0
  0
LWPOLYLINE
  5
2C6
330
1F
100
AcDbEntity
  8
Ech.1_5
 62
     7
370
     9
100
AcDbPolyline
 90
        5
 70
     0
 43
0.0
 10
2698.169306404926
 20
-9001.641123439018
 10
2699.002640403844
 20
-9001.641123439018
 10
2699.002640403846
 20
-8999.381401438972
 10
2698.169306404926
 20
-8999.381401438972
 10
2698.169306404926
 20
-9001.641123439018
  0
HATCH
  5
2C7
330
1F
100
AcDbEntity
  8
Ech.1_5
 62
   252
440
 33554687
370
     5
100
AcDbHatch
 10
0.0
 20
0.0
 30
0.0
210
0.0
220
0.0
230
1.0
  2
SOLID
 70
     1
 71
     1
 91
        1
 92
        3
 72
     0
 73
     1
 93
        4
 10
2699.002640403844
 20
-9001.641123439018
 10
2699.835974402763
 20
-9001.641123439018
 10
2699.835974402763
 20
-8999.381401438972
 10
2699.002640403846
 20
-8999.381401438972
 97
        0
 75
     0
 76
     1
 98
        0
  0
LWPOLYLINE
  5
2C8
330
1F
100
AcDbEntity
  8
Ech.1_5
 62
     7
370
     9
100
AcDbPolyline
 90
        5
 70
     0
 43
0.0
 10
2699.002640403844
 20
-9001.641123439018
 10
2699.835974402763
 20
-9001.641123439018
 10
2699.835974402763
 20
-8999.381401438972
 10
2699.002640403846
 20
-8999.381401438972
 10
2699.002640403844
 20
-9001.641123439018
  0
HATCH
  5
2C9
330
1F
100
AcDbEntity
  8
Ech.1_5
 62
   252
440
 33554687
370
     5
100
AcDbHatch
 10
0.0
 20
0.0
 30
0.0
210
0.0
220
0.0
230
1.0
  2
SOLID
 70
     1
 71
     1
 91
        1
 92
        3
 72
     0
 73
     1
 93
        4
 10
2699.835974402763
 20
-9001.641123439018
 10
2700.669308401682
 20
-9001.641123439018
 10
2700.669308401682
 20
-8999.381401438972
 10
2699.835974402763
 20
-8999.381401438972
 97
        0
 75
     0
 76
     1
 98
        0
  0
LWPOLYLINE
  5
2CA
330
1F
100
AcDbEntity
  8
Ech.1_5
 62
     7
370
     9
100
AcDbPolyline
 90
        5
 70
     0
 43
0.0
 10
2699.835974402763
 20
-9001.641123439018
 10
2700.669308401682
 20
-9001.641123439018
 10
2700.669308401682
 20
-8999.381401438972
 10
2699.835974402763
 20
-8999.381401438972
 10
2699.835974402763
 20
-9001.641123439018
  0
HATCH
  5
2CB
330
1F
100
AcDbEntity
  8
Ech.1_5
 62
   252
440
 33554687
370
     5
100
AcDbHatch
 10
0.0
 20
0.0
 30
0.0
210
0.0
220
0.0
230
1.0
  2
SOLID
 70
     1
 71
     1
 91
        1
 92
        3
 72
     0
 73
     1
 93
        4
 10
2700.669306404926
 20
-9001.641123439018
 10
2701.502640403844
 20
-9001.641123439018
 10
2701.502640403844
 20
-8999.381401438972
 10
2700.669306404926
 20
-8999.381401438972
 97
        0
 75
     0
 76
     1
 98
        0
  0
LWPOLYLINE
  5
2CC
330
1F
100
AcDbEntity
  8
Ech.1_5
 62
     7
370
     9
100
AcDbPolyline
 90
        5
 70
     0
 43
0.0
 10
2700.669306404926
 20
-9001.641123439018
 10
2701.502640403844
 20
-9001.641123439018
 10
2701.502640403844
 20
-8999.381401438972
 10
2700.669306404926
 20
-8999.381401438972
 10
2700.669306404926
 20
-9001.641123439018
  0
HATCH
  5
2CD
330
1F
100
AcDbEntity
  8
Ech.1_5
 62
   252
440
 33554687
370
     5
100
AcDbHatch
 10
0.0
 20
0.0
 30
0.0
210
0.0
220
0.0
230
1.0
  2
SOLID
 70
     1
 71
     1
 91
        1
 92
        3
 72
     0
 73
     1
 93
        4
 10
2701.502639405467
 20
-9001.641123439018
 10
2702.335973404385
 20
-9001.641123439018
 10
2702.335973404385
 20
-8999.381401438972
 10
2701.502639405467
 20
-8999.381401438972
 97
        0
 75
     0
 76
     1
 98
        0
  0
LWPOLYLINE
  5
2CE
330
1F
100
AcDbEntity
  8
Ech.1_5
 62
     7
370
     9
100
AcDbPolyline
 90
        5
 70
     0
 43
0.0
 10
2701.502639405467
 20
-9001.641123439018
 10
2702.335973404385
 20
-9001.641123439018
 10
2702.335973404385
 20
-8999.381401438972
 10
2701.502639405467
 20
-8999.381401438972
 10
2701.502639405467
 20
-9001.641123439018
  0
HATCH
  5
2CF
330
1F
100
AcDbEntity
  8
Ech.1_5
 62
   252
440
 33554687
370
     5
100
AcDbHatch
 10
0.0
 20
0.0
 30
0.0
210
0.0
220
0.0
230
1.0
  2
SOLID
 70
     1
 71
     1
 91
        1
 92
        3
 72
     0
 73
     1
 93
        4
 10
2702.335973404385
 20
-9001.641123439018
 10
2703.169307403304
 20
-9001.641123439018
 10
2703.169307403304
 20
-8999.381401438972
 10
2702.335973404385
 20
-8999.381401438972
 97
        0
 75
     0
 76
     1
 98
        0
  0
LWPOLYLINE
  5
2D0
330
1F
100
AcDbEntity
  8
Ech.1_5
 62
     7
370
     9
100
AcDbPolyline
 90
        5
 70
     0
 43
0.0
 10
2702.335973404385
 20
-9001.641123439018
 10
2703.169307403304
 20
-9001.641123439018
 10
2703.169307403304
 20
-8999.381401438972
 10
2702.335973404385
 20
-8999.381401438972
 10
2702.335973404385
 20
-9001.641123439018
  0
HATCH
  5
2D1
330
1F
100
AcDbEntity
  8
Ech.1_5
 62
   252
440
 33554687
370
     5
100
AcDbHatch
 10
0.0
 20
0.0
 30
0.0
210
0.0
220
0.0
230
1.0
  2
SOLID
 70
     1
 71
     1
 91
        1
 92
        3
 72
     0
 73
     1
 93
        4
 10
2703.169306404926
 20
-9001.641123439018
 10
2704.002640403844
 20
-9001.641123439018
 10
2704.002640403844
 20
-8999.381401438972
 10
2703.169306404926
 20
-8999.381401438972
 97
        0
 75
     0
 76
     1
 98
        0
  0
LWPOLYLINE
  5
2D2
330
1F
100
AcDbEntity
  8
Ech.1_5
 62
     7
370
     9
100
AcDbPolyline
 90
        5
 70
     0
 43
0.0
 10
2703.169306404926
 20
-9001.641123439018
 10
2704.002640403844
 20
-9001.641123439018
 10
2704.002640403844
 20
-8999.381401438972
 10
2703.169306404926
 20
-8999.381401438972
 10
2703.169306404926
 20
-9001.641123439018
  0
HATCH
  5
2D3
330
1F
100
AcDbEntity
  8
Ech.1_5
 62
   252
440
 33554687
370
     5
100
AcDbHatch
 10
0.0
 20
0.0
 30
0.0
210
0.0
220
0.0
230
1.0
  2
SOLID
 70
     1
 71
     1
 91
        1
 92
        3
 72
     0
 73
     1
 93
        4
 10
2704.002640403844
 20
-9001.641123439018
 10
2704.835974402763
 20
-9001.641123439018
 10
2704.835974402763
 20
-8999.381401438972
 10
2704.002640403844
 20
-8999.381401438972
 97
        0
 75
     0
 76
     1
 98
        0
  0
LWPOLYLINE
  5
2D4
330
1F
100
AcDbEntity
  8
Ech.1_5
 62
     7
370
     9
100
AcDbPolyline
 90
        5
 70
     0
 43
0.0
 10
2704.002640403844
 20
-9001.641123439018
 10
2704.835974402763
 20
-9001.641123439018
 10
2704.835974402763
 20
-8999.381401438972
 10
2704.002640403844
 20
-8999.381401438972
 10
2704.002640403844
 20
-9001.641123439018
  0
HATCH
  5
2D5
330
1F
100
AcDbEntity
  8
Ech.1_5
 62
   252
440
 33554687
370
     5
100
AcDbHatch
 10
0.0
 20
0.0
 30
0.0
210
0.0
220
0.0
230
1.0
  2
SOLID
 70
     1
 71
     1
 91
        1
 92
        3
 72
     0
 73
     1
 93
        4
 10
2704.835972406007
 20
-9001.641123439018
 10
2705.669306404926
 20
-9001.641123439018
 10
2705.669306404926
 20
-8999.381401438972
 10
2704.835972406007
 20
-8999.381401438972
 97
        0
 75
     0
 76
     1
 98
        0
  0
LWPOLYLINE
  5
2D6
330
1F
100
AcDbEntity
  8
Ech.1_5
 62
     7
370
     9
100
AcDbPolyline
 90
        5
 70
     0
 43
0.0
 10
2704.835972406007
 20
-9001.641123439018
 10
2705.669306404926
 20
-9001.641123439018
 10
2705.669306404926
 20
-8999.381401438972
 10
2704.835972406007
 20
-8999.381401438972
 10
2704.835972406007
 20
-9001.641123439018
  0
HATCH
  5
2D7
330
1F
100
AcDbEntity
  8
Ech.1_5
 62
   252
440
 33554687
370
     5
100
AcDbHatch
 10
0.0
 20
0.0
 30
0.0
210
0.0
220
0.0
230
1.0
  2
SOLID
 70
     1
 71
     1
 91
        1
 92
        3
 72
     0
 73
     1
 93
        4
 10
2705.669306404926
 20
-9001.641123439018
 10
2706.502640403844
 20
-9001.641123439018
 10
2706.502640403844
 20
-8999.381401438972
 10
2705.669306404926
 20
-8999.381401438972
 97
        0
 75
     0
 76
     1
 98
        0
  0
LWPOLYLINE
  5
2D8
330
1F
100
AcDbEntity
  8
Ech.1_5
 62
     7
370
     9
100
AcDbPolyline
 90
        5
 70
     0
 43
0.0
 10
2705.669306404926
 20
-9001.641123439018
 10
2706.502640403844
 20
-9001.641123439018
 10
2706.502640403844
 20
-8999.381401438972
 10
2705.669306404926
 20
-8999.381401438972
 10
2705.669306404926
 20
-9001.641123439018
  0
HATCH
  5
2D9
330
1F
100
AcDbEntity
  8
Ech.1_5
 62
   252
440
 33554687
370
     5
100
AcDbHatch
 10
0.0
 20
0.0
 30
0.0
210
0.0
220
0.0
230
1.0
  2
SOLID
 70
     1
 71
     1
 91
        1
 92
        3
 72
     0
 73
     1
 93
        4
 10
2706.502640403844
 20
-9001.641123439018
 10
2707.335974402763
 20
-9001.641123439018
 10
2707.335974402763
 20
-8999.381401438972
 10
2706.502640403844
 20
-8999.381401438972
 97
        0
 75
     0
 76
     1
 98
        0
  0
LWPOLYLINE
  5
2DA
330
1F
100
AcDbEntity
  8
Ech.1_5
 62
     7
370
     9
100
AcDbPolyline
 90
        5
 70
     0
 43
0.0
 10
2706.502640403844
 20
-9001.641123439018
 10
2707.335974402763
 20
-9001.641123439018
 10
2707.335974402763
 20
-8999.381401438972
 10
2706.502640403844
 20
-8999.381401438972
 10
2706.502640403844
 20
-9001.641123439018
  0
HATCH
  5
2DB
330
1F
100
AcDbEntity
  8
Ech.1_5
 62
   252
440
 33554687
370
     5
100
AcDbHatch
 10
0.0
 20
0.0
 30
0.0
210
0.0
220
0.0
230
1.0
  2
SOLID
 70
     1
 71
     1
 91
        1
 92
        3
 72
     0
 73
     1
 93
        4
 10
2707.335974402763
 20
-9001.641123439018
 10
2708.169308401683
 20
-9001.641123439018
 10
2708.169308401682
 20
-8999.381401438972
 10
2707.335974402763
 20
-8999.381401438972
 97
        0
 75
     0
 76
     1
 98
        0
  0
LWPOLYLINE
  5
2DC
330
1F
100
AcDbEntity
  8
Ech.1_5
 62
     7
370
     9
100
AcDbPolyline
 90
        5
 70
     0
 43
0.0
 10
2707.335974402763
 20
-9001.641123439018
 10
2708.169308401683
 20
-9001.641123439018
 10
2708.169308401682
 20
-8999.381401438972
 10
2707.335974402763
 20
-8999.381401438972
 10
2707.335974402763
 20
-9001.641123439018
  0
HATCH
  5
2DD
330
1F
100
AcDbEntity
  8
Ech.1_5
 62
   252
440
 33554687
370
     5
100
AcDbHatch
 10
0.0
 20
0.0
 30
0.0
210
0.0
220
0.0
230
1.0
  2
SOLID
 70
     1
 71
     1
 91
        1
 92
        3
 72
     0
 73
     1
 93
        4
 10
2708.169308401683
 20
-9001.641123439018
 10
2709.0026424006
 20
-9001.641123439018
 10
2709.0026424006
 20
-8999.381401438972
 10
2708.169308401682
 20
-8999.381401438972
 97
        0
 75
     0
 76
     1
 98
        0
  0
LWPOLYLINE
  5
2DE
330
1F
100
AcDbEntity
  8
Ech.1_5
 62
     7
370
     9
100
AcDbPolyline
 90
        5
 70
     0
 43
0.0
 10
2708.169308401683
 20
-9001.641123439018
 10
2709.0026424006
 20
-9001.641123439018
 10
2709.0026424006
 20
-8999.381401438972
 10
2708.169308401682
 20
-8999.381401438972
 10
2708.169308401683
 20
-9001.641123439018
  0
HATCH
  5
2DF
330
1F
100
AcDbEntity
  8
Ech.1_5
 62
   252
440
 33554687
370
     5
100
AcDbHatch
 10
0.0
 20
0.0
 30
0.0
210
0.0
220
0.0
230
1.0
  2
SOLID
 70
     1
 71
     1
 91
        1
 92
        3
 72
     0
 73
     1
 93
        4
 10
2709.002640403844
 20
-9001.641123439018
 10
2709.835974402763
 20
-9001.641123439018
 10
2709.835974402763
 20
-8999.381401438972
 10
2709.002640403844
 20
-8999.381401438972
 97
        0
 75
     0
 76
     1
 98
        0
  0
LWPOLYLINE
  5
2E0
330
1F
100
AcDbEntity
  8
Ech.1_5
 62
     7
370
     9
100
AcDbPolyline
 90
        5
 70
     0
 43
0.0
 10
2709.002640403844
 20
-9001.641123439018
 10
2709.835974402763
 20
-9001.641123439018
 10
2709.835974402763
 20
-8999.381401438972
 10
2709.002640403844
 20
-8999.381401438972
 10
2709.002640403844
 20
-9001.641123439018
  0
HATCH
  5
2E1
330
1F
100
AcDbEntity
  8
Ech.1_5
 62
   252
440
 33554687
370
     5
100
AcDbHatch
 10
0.0
 20
0.0
 30
0.0
210
0.0
220
0.0
230
1.0
  2
SOLID
 70
     1
 71
     1
 91
        1
 92
        3
 72
     0
 73
     1
 93
        4
 10
2709.835973404385
 20
-9001.641123439018
 10
2710.669307403304
 20
-9001.641123439018
 10
2710.669307403304
 20
-8999.381401438972
 10
2709.835973404385
 20
-8999.381401438972
 97
        0
 75
     0
 76
     1
 98
        0
  0
LWPOLYLINE
  5
2E2
330
1F
100
AcDbEntity
  8
Ech.1_5
 62
     7
370
     9
100
AcDbPolyline
 90
        5
 70
     0
 43
0.0
 10
2709.835973404385
 20
-9001.641123439018
 10
2710.669307403304
 20
-9001.641123439018
 10
2710.669307403304
 20
-8999.381401438972
 10
2709.835973404385
 20
-8999.381401438972
 10
2709.835973404385
 20
-9001.641123439018
  0
HATCH
  5
2E3
330
1F
100
AcDbEntity
  8
Ech.1_5
 62
   252
440
 33554687
370
     5
100
AcDbHatch
 10
0.0
 20
0.0
 30
0.0
210
0.0
220
0.0
230
1.0
  2
SOLID
 70
     1
 71
     1
 91
        1
 92
        3
 72
     0
 73
     1
 93
        4
 10
2710.669307403304
 20
-9001.641123439018
 10
2711.502641402222
 20
-9001.641123439018
 10
2711.502641402222
 20
-8999.381401438972
 10
2710.669307403304
 20
-8999.381401438972
 97
        0
 75
     0
 76
     1
 98
        0
  0
LWPOLYLINE
  5
2E4
330
1F
100
AcDbEntity
  8
Ech.1_5
 62
     7
370
     9
100
AcDbPolyline
 90
        5
 70
     0
 43
0.0
 10
2710.669307403304
 20
-9001.641123439018
 10
2711.502641402222
 20
-9001.641123439018
 10
2711.502641402222
 20
-8999.381401438972
 10
2710.669307403304
 20
-8999.381401438972
 10
2710.669307403304
 20
-9001.641123439018
  0
HATCH
  5
2E5
330
1F
100
AcDbEntity
  8
Ech.1_5
 62
   252
440
 33554687
370
     5
100
AcDbHatch
 10
0.0
 20
0.0
 30
0.0
210
0.0
220
0.0
230
1.0
  2
SOLID
 70
     1
 71
     1
 91
        1
 92
        3
 72
     0
 73
     1
 93
        4
 10
2711.502640403844
 20
-9001.641123439018
 10
2712.335974402763
 20
-9001.641123439018
 10
2712.335974402763
 20
-8999.381401438972
 10
2711.502640403844
 20
-8999.381401438972
 97
        0
 75
     0
 76
     1
 98
        0
  0
LWPOLYLINE
  5
2E6
330
1F
100
AcDbEntity
  8
Ech.1_5
 62
     7
370
     9
100
AcDbPolyline
 90
        5
 70
     0
 43
0.0
 10
2711.502640403844
 20
-9001.641123439018
 10
2712.335974402763
 20
-9001.641123439018
 10
2712.335974402763
 20
-8999.381401438972
 10
2711.502640403844
 20
-8999.381401438972
 10
2711.502640403844
 20
-9001.641123439018
  0
HATCH
  5
2E7
330
1F
100
AcDbEntity
  8
Ech.1_5
 62
   252
440
 33554687
370
     5
100
AcDbHatch
 10
0.0
 20
0.0
 30
0.0
210
0.0
220
0.0
230
1.0
  2
SOLID
 70
     1
 71
     1
 91
        1
 92
        3
 72
     0
 73
     1
 93
        4
 10
2712.335974402763
 20
-9001.641123439018
 10
2713.169308401682
 20
-9001.641123439018
 10
2713.169308401682
 20
-8999.381401438972
 10
2712.335974402763
 20
-8999.381401438972
 97
        0
 75
     0
 76
     1
 98
        0
  0
LWPOLYLINE
  5
2E8
330
1F
100
AcDbEntity
  8
Ech.1_5
 62
     7
370
     9
100
AcDbPolyline
 90
        5
 70
     0
 43
0.0
 10
2712.335974402763
 20
-9001.641123439018
 10
2713.169308401682
 20
-9001.641123439018
 10
2713.169308401682
 20
-8999.381401438972
 10
2712.335974402763
 20
-8999.381401438972
 10
2712.335974402763
 20
-9001.641123439018
  0
HATCH
  5
2E9
330
1F
100
AcDbEntity
  8
Ech.1_5
 62
   252
440
 33554687
370
     5
100
AcDbHatch
 10
0.0
 20
0.0
 30
0.0
210
0.0
220
0.0
230
1.0
  2
SOLID
 70
     1
 71
     1
 91
        1
 92
        3
 72
     0
 73
     1
 93
        4
 10
2713.169306404926
 20
-9001.641123439018
 10
2714.002640403844
 20
-9001.641123439018
 10
2714.002640403844
 20
-8999.381401438972
 10
2713.169306404926
 20
-8999.381401438972
 97
        0
 75
     0
 76
     1
 98
        0
  0
LWPOLYLINE
  5
2EA
330
1F
100
AcDbEntity
  8
Ech.1_5
 62
     7
370
     9
100
AcDbPolyline
 90
        5
 70
     0
 43
0.0
 10
2713.169306404926
 20
-9001.641123439018
 10
2714.002640403844
 20
-9001.641123439018
 10
2714.002640403844
 20
-8999.381401438972
 10
2713.169306404926
 20
-8999.381401438972
 10
2713.169306404926
 20
-9001.641123439018
  0
HATCH
  5
2EB
330
1F
100
AcDbEntity
  8
Ech.1_5
 62
   252
440
 33554687
370
     5
100
AcDbHatch
 10
0.0
 20
0.0
 30
0.0
210
0.0
220
0.0
230
1.0
  2
SOLID
 70
     1
 71
     1
 91
        1
 92
        3
 72
     0
 73
     1
 93
        4
 10
2714.002638407089
 20
-9001.641123439018
 10
2714.835972406007
 20
-9001.641123439018
 10
2714.835972406007
 20
-8999.381401438972
 10
2714.002638407089
 20
-8999.381401438972
 97
        0
 75
     0
 76
     1
 98
        0
  0
LWPOLYLINE
  5
2EC
330
1F
100
AcDbEntity
  8
Ech.1_5
 62
     7
370
     9
100
AcDbPolyline
 90
        5
 70
     0
 43
0.0
 10
2714.002638407089
 20
-9001.641123439018
 10
2714.835972406007
 20
-9001.641123439018
 10
2714.835972406007
 20
-8999.381401438972
 10
2714.002638407089
 20
-8999.381401438972
 10
2714.002638407089
 20
-9001.641123439018
  0
HATCH
  5
2ED
330
1F
100
AcDbEntity
  8
Ech.1_5
 62
   252
440
 33554687
370
     5
100
AcDbHatch
 10
0.0
 20
0.0
 30
0.0
210
0.0
220
0.0
230
1.0
  2
SOLID
 70
     1
 71
     1
 91
        1
 92
        3
 72
     0
 73
     1
 93
        4
 10
2714.835972406007
 20
-9001.641123439018
 10
2715.669306404926
 20
-9001.641123439018
 10
2715.669306404926
 20
-8999.381401438972
 10
2714.835972406007
 20
-8999.381401438972
 97
        0
 75
     0
 76
     1
 98
        0
  0
LWPOLYLINE
  5
2EE
330
1F
100
AcDbEntity
  8
Ech.1_5
 62
     7
370
     9
100
AcDbPolyline
 90
        5
 70
     0
 43
0.0
 10
2714.835972406007
 20
-9001.641123439018
 10
2715.669306404926
 20
-9001.641123439018
 10
2715.669306404926
 20
-8999.381401438972
 10
2714.835972406007
 20
-8999.381401438972
 10
2714.835972406007
 20
-9001.641123439018
  0
HATCH
  5
2EF
330
1F
100
AcDbEntity
  8
Ech.1_5
 62
   252
440
 33554687
370
     5
100
AcDbHatch
 10
0.0
 20
0.0
 30
0.0
210
0.0
220
0.0
230
1.0
  2
SOLID
 70
     1
 71
     1
 91
        1
 92
        3
 72
     0
 73
     1
 93
        4
 10
2715.669306404926
 20
-9001.641123439018
 10
2716.502640403844
 20
-9001.641123439018
 10
2716.502640403844
 20
-8999.381401438972
 10
2715.669306404926
 20
-8999.381401438972
 97
        0
 75
     0
 76
     1
 98
        0
  0
LWPOLYLINE
  5
2F0
330
1F
100
AcDbEntity
  8
Ech.1_5
 62
     7
370
     9
100
AcDbPolyline
 90
        5
 70
     0
 43
0.0
 10
2715.669306404926
 20
-9001.641123439018
 10
2716.502640403844
 20
-9001.641123439018
 10
2716.502640403844
 20
-8999.381401438972
 10
2715.669306404926
 20
-8999.381401438972
 10
2715.669306404926
 20
-9001.641123439018
  0
HATCH
  5
2F1
330
1F
100
AcDbEntity
  8
Ech.1_5
 62
   252
440
 33554687
370
     5
100
AcDbHatch
 10
0.0
 20
0.0
 30
0.0
210
0.0
220
0.0
230
1.0
  2
SOLID
 70
     1
 71
     1
 91
        1
 92
        3
 72
     0
 73
     1
 93
        4
 10
2716.502640403844
 20
-9001.641123439018
 10
2717.335974402763
 20
-9001.641123439018
 10
2717.335974402763
 20
-8999.381401438972
 10
2716.502640403844
 20
-8999.381401438972
 97
        0
 75
     0
 76
     1
 98
        0
  0
LWPOLYLINE
  5
2F2
330
1F
100
AcDbEntity
  8
Ech.1_5
 62
     7
370
     9
100
AcDbPolyline
 90
        5
 70
     0
 43
0.0
 10
2716.502640403844
 20
-9001.641123439018
 10
2717.335974402763
 20
-9001.641123439018
 10
2717.335974402763
 20
-8999.381401438972
 10
2716.502640403844
 20
-8999.381401438972
 10
2716.502640403844
 20
-9001.641123439018
  0
HATCH
  5
2F3
330
1F
100
AcDbEntity
  8
Ech.1_5
 62
   252
440
 33554687
370
     5
100
AcDbHatch
 10
0.0
 20
0.0
 30
0.0
210
0.0
220
0.0
230
1.0
  2
SOLID
 70
     1
 71
     1
 91
        1
 92
        3
 72
     0
 73
     1
 93
        4
 10
2717.335972406007
 20
-9001.641123439018
 10
2718.169306404926
 20
-9001.641123439018
 10
2718.169306404926
 20
-8999.381401438972
 10
2717.335972406007
 20
-8999.381401438972
 97
        0
 75
     0
 76
     1
 98
        0
  0
LWPOLYLINE
  5
2F4
330
1F
100
AcDbEntity
  8
Ech.1_5
 62
     7
370
     9
100
AcDbPolyline
 90
        5
 70
     0
 43
0.0
 10
2717.335972406007
 20
-9001.641123439018
 10
2718.169306404926
 20
-9001.641123439018
 10
2718.169306404926
 20
-8999.381401438972
 10
2717.335972406007
 20
-8999.381401438972
 10
2717.335972406007
 20
-9001.641123439018
  0
HATCH
  5
2F5
330
1F
100
AcDbEntity
  8
Ech.1_5
 62
   252
440
 33554687
370
     5
100
AcDbHatch
 10
0.0
 20
0.0
 30
0.0
210
0.0
220
0.0
230
1.0
  2
SOLID
 70
     1
 71
     1
 91
        1
 92
        3
 72
     0
 73
     1
 93
        4
 10
2718.169305406548
 20
-9001.641123439018
 10
2719.002639405467
 20
-9001.641123439018
 10
2719.002639405467
 20
-8999.381401438972
 10
2718.169305406548
 20
-8999.381401438972
 97
        0
 75
     0
 76
     1
 98
        0
  0
LWPOLYLINE
  5
2F6
330
1F
100
AcDbEntity
  8
Ech.1_5
 62
     7
370
     9
100
AcDbPolyline
 90
        5
 70
     0
 43
0.0
 10
2718.169305406548
 20
-9001.641123439018
 10
2719.002639405467
 20
-9001.641123439018
 10
2719.002639405467
 20
-8999.381401438972
 10
2718.169305406548
 20
-8999.381401438972
 10
2718.169305406548
 20
-9001.641123439018
  0
HATCH
  5
2F7
330
1F
100
AcDbEntity
  8
Ech.1_5
 62
   252
440
 33554687
370
     5
100
AcDbHatch
 10
0.0
 20
0.0
 30
0.0
210
0.0
220
0.0
230
1.0
  2
SOLID
 70
     1
 71
     1
 91
        1
 92
        3
 72
     0
 73
     1
 93
        4
 10
2719.002639405467
 20
-9001.641123439018
 10
2719.835973404385
 20
-9001.641123439018
 10
2719.835973404385
 20
-8999.381401438972
 10
2719.002639405467
 20
-8999.381401438972
 97
        0
 75
     0
 76
     1
 98
        0
  0
LWPOLYLINE
  5
2F8
330
1F
100
AcDbEntity
  8
Ech.1_5
 62
     7
370
     9
100
AcDbPolyline
 90
        5
 70
     0
 43
0.0
 10
2719.002639405467
 20
-9001.641123439018
 10
2719.835973404385
 20
-9001.641123439018
 10
2719.835973404385
 20
-8999.381401438972
 10
2719.002639405467
 20
-8999.381401438972
 10
2719.002639405467
 20
-9001.641123439018
  0
HATCH
  5
2F9
330
1F
100
AcDbEntity
  8
Ech.1_5
 62
   252
440
 33554687
370
     5
100
AcDbHatch
 10
0.0
 20
0.0
 30
0.0
210
0.0
220
0.0
230
1.0
  2
SOLID
 70
     1
 71
     1
 91
        1
 92
        3
 72
     0
 73
     1
 93
        4
 10
2719.835972406007
 20
-9001.641123439018
 10
2720.669306404926
 20
-9001.641123439018
 10
2720.669306404926
 20
-8999.381401438972
 10
2719.835972406007
 20
-8999.381401438972
 97
        0
 75
     0
 76
     1
 98
        0
  0
LWPOLYLINE
  5
2FA
330
1F
100
AcDbEntity
  8
Ech.1_5
 62
     7
370
     9
100
AcDbPolyline
 90
        5
 70
     0
 43
0.0
 10
2719.835972406007
 20
-9001.641123439018
 10
2720.669306404926
 20
-9001.641123439018
 10
2720.669306404926
 20
-8999.381401438972
 10
2719.835972406007
 20
-8999.381401438972
 10
2719.835972406007
 20
-9001.641123439018
  0
HATCH
  5
2FB
330
1F
100
AcDbEntity
  8
Ech.1_5
 62
   252
440
 33554687
370
     5
100
AcDbHatch
 10
0.0
 20
0.0
 30
0.0
210
0.0
220
0.0
230
1.0
  2
SOLID
 70
     1
 71
     1
 91
        1
 92
        3
 72
     0
 73
     1
 93
        4
 10
2720.669306404926
 20
-9001.641123439018
 10
2721.502640403844
 20
-9001.641123439018
 10
2721.502640403844
 20
-8999.381401438972
 10
2720.669306404926
 20
-8999.381401438972
 97
        0
 75
     0
 76
     1
 98
        0
  0
LWPOLYLINE
  5
2FC
330
1F
100
AcDbEntity
  8
Ech.1_5
 62
     7
370
     9
100
AcDbPolyline
 90
        5
 70
     0
 43
0.0
 10
2720.669306404926
 20
-9001.641123439018
 10
2721.502640403844
 20
-9001.641123439018
 10
2721.502640403844
 20
-8999.381401438972
 10
2720.669306404926
 20
-8999.381401438972
 10
2720.669306404926
 20
-9001.641123439018
  0
HATCH
  5
2FD
330
1F
100
AcDbEntity
  8
Ech.1_5
 62
   252
440
 33554687
370
     5
100
AcDbHatch
 10
0.0
 20
0.0
 30
0.0
210
0.0
220
0.0
230
1.0
  2
SOLID
 70
     1
 71
     1
 91
        1
 92
        3
 72
     0
 73
     1
 93
        4
 10
2721.502638407089
 20
-9001.641123439018
 10
2722.335972406007
 20
-9001.641123439018
 10
2722.335972406007
 20
-8999.381401438972
 10
2721.502638407089
 20
-8999.381401438972
 97
        0
 75
     0
 76
     1
 98
        0
  0
LWPOLYLINE
  5
2FE
330
1F
100
AcDbEntity
  8
Ech.1_5
 62
     7
370
     9
100
AcDbPolyline
 90
        5
 70
     0
 43
0.0
 10
2721.502638407089
 20
-9001.641123439018
 10
2722.335972406007
 20
-9001.641123439018
 10
2722.335972406007
 20
-8999.381401438972
 10
2721.502638407089
 20
-8999.381401438972
 10
2721.502638407089
 20
-9001.641123439018
  0
HATCH
  5
2FF
330
1F
100
AcDbEntity
  8
Ech.1_5
 62
   252
440
 33554687
370
     5
100
AcDbHatch
 10
0.0
 20
0.0
 30
0.0
210
0.0
220
0.0
230
1.0
  2
SOLID
 70
     1
 71
     1
 91
        1
 92
        3
 72
     0
 73
     1
 93
        4
 10
2722.335972406007
 20
-9001.641123439018
 10
2723.169306404926
 20
-9001.641123439018
 10
2723.169306404926
 20
-8999.381401438972
 10
2722.335972406007
 20
-8999.381401438972
 97
        0
 75
     0
 76
     1
 98
        0
  0
LWPOLYLINE
  5
300
330
1F
100
AcDbEntity
  8
Ech.1_5
 62
     7
370
     9
100
AcDbPolyline
 90
        5
 70
     0
 43
0.0
 10
2722.335972406007
 20
-9001.641123439018
 10
2723.169306404926
 20
-9001.641123439018
 10
2723.169306404926
 20
-8999.381401438972
 10
2722.335972406007
 20
-8999.381401438972
 10
2722.335972406007
 20
-9001.641123439018
  0
HATCH
  5
301
330
1F
100
AcDbEntity
  8
Ech.1_5
 62
   252
440
 33554687
370
     5
100
AcDbHatch
 10
0.0
 20
0.0
 30
0.0
210
0.0
220
0.0
230
1.0
  2
SOLID
 70
     1
 71
     1
 91
        1
 92
        3
 72
     0
 73
     1
 93
        4
 10
2723.169306404926
 20
-9001.641123439018
 10
2724.002640403844
 20
-9001.641123439018
 10
2724.002640403844
 20
-8999.381401438972
 10
2723.169306404926
 20
-8999.381401438972
 97
        0
 75
     0
 76
     1
 98
        0
  0
LWPOLYLINE
  5
302
330
1F
100
AcDbEntity
  8
Ech.1_5
 62
     7
370
     9
100
AcDbPolyline
 90
        5
 70
     0
 43
0.0
 10
2723.169306404926
 20
-9001.641123439018
 10
2724.002640403844
 20
-9001.641123439018
 10
2724.002640403844
 20
-8999.381401438972
 10
2723.169306404926
 20
-8999.381401438972
 10
2723.169306404926
 20
-9001.641123439018
  0
HATCH
  5
303
330
1F
100
AcDbEntity
  8
Ech.1_5
 62
   252
440
 33554687
370
     5
100
AcDbHatch
 10
0.0
 20
0.0
 30
0.0
210
0.0
220
0.0
230
1.0
  2
SOLID
 70
     1
 71
     1
 91
        1
 92
        3
 72
     0
 73
     1
 93
        4
 10
2724.002640403844
 20
-9001.641123439018
 10
2724.835974402763
 20
-9001.641123439018
 10
2724.835974402763
 20
-8999.381401438972
 10
2724.002640403844
 20
-8999.381401438972
 97
        0
 75
     0
 76
     1
 98
        0
  0
LWPOLYLINE
  5
304
330
1F
100
AcDbEntity
  8
Ech.1_5
 62
     7
370
     9
100
AcDbPolyline
 90
        5
 70
     0
 43
0.0
 10
2724.002640403844
 20
-9001.641123439018
 10
2724.835974402763
 20
-9001.641123439018
 10
2724.835974402763
 20
-8999.381401438972
 10
2724.002640403844
 20
-8999.381401438972
 10
2724.002640403844
 20
-9001.641123439018
  0
HATCH
  5
305
330
1F
100
AcDbEntity
  8
Ech.1_5
 62
   252
440
 33554687
370
     5
100
AcDbHatch
 10
0.0
 20
0.0
 30
0.0
210
0.0
220
0.0
230
1.0
  2
SOLID
 70
     1
 71
     1
 91
        1
 92
        3
 72
     1
 73
     1
 93
        4
 10
2729.535056404512
 20
-8999.381401438972
 42
0.0
 10
2728.16930440817
 20
-8999.381401438972
 42
0.0
 10
2728.16930440817
 20
-9001.641123439018
 42
0.0
 10
2729.535056404512
 20
-9001.641123439018
 42
-0.3513591548518968
 97
        0
 75
     0
 76
     1
 98
        0
  0
LWPOLYLINE
  5
306
330
1F
100
AcDbEntity
  8
Ech.1_5
 62
     7
370
     9
100
AcDbPolyline
 90
        5
 70
     0
 43
0.0
 10
2729.535056404512
 20
-8999.381401438972
 10
2728.16930440817
 20
-8999.381401438972
 10
2728.16930440817
 20
-9001.641123439018
 10
2729.535056404512
 20
-9001.641123439018
 42
-0.3513591548518972
 10
2729.535056404512
 20
-8999.381401438972
  0
HATCH
  5
307
330
1F
100
AcDbEntity
  8
Ech.1_5
 62
   252
440
 33554687
370
     5
100
AcDbHatch
 10
0.0
 20
0.0
 30
0.0
210
0.0
220
0.0
230
1.0
  2
SOLID
 70
     1
 71
     1
 91
        1
 92
        3
 72
     1
 73
     1
 93
        3
 10
2732.197083405893
 20
-9000.511262438966
 42
0.0
 10
2729.535056404512
 20
-8999.381401438972
 42
0.3513591548518968
 10
2729.535056404512
 20
-9001.641123439018
 42
0.0
 97
        0
 75
     0
 76
     1
 98
        0
  0
LWPOLYLINE
  5
308
330
1F
100
AcDbEntity
  8
Ech.1_5
 62
     7
370
     9
100
AcDbPolyline
 90
        4
 70
     0
 43
0.0
 10
2732.197083405893
 20
-9000.511262438966
 10
2729.535056404512
 20
-8999.381401438972
 42
0.3513591548518956
 10
2729.535056404512
 20
-9001.641123439018
 10
2732.197083405893
 20
-9000.511262438966
  0
HATCH
  5
309
330
1F
100
AcDbEntity
  8
Ech.1_5
 62
   252
440
 33554687
370
     5
100
AcDbHatch
 10
0.0
 20
0.0
 30
0.0
210
0.0
220
0.0
230
1.0
  2
SOLID
 70
     1
 71
     1
 91
        1
 92
        3
 72
     1
 73
     1
 93
        6
 10
2689.002638407089
 20
-9001.64112343901
 42
0.0
 10
2687.252639405172
 20
-9001.641123439018
 42
0.4142135727489641
 10
2686.697083405893
 20
-9002.196679438995
 42
0.0
 10
2686.697083405893
 20
-8998.825845438929
 42
0.4142135726680727
 10
2687.252639405172
 20
-8999.381401438972
 42
0.0
 10
2689.002638407089
 20
-8999.381401438972
 42
0.0
 97
        0
 75
     0
 76
     1
 98
        0
  0
LWPOLYLINE
  5
30A
330
1F
100
AcDbEntity
  8
Ech.1_5
 62
     7
370
     9
100
AcDbPolyline
 90
        7
 70
     0
 43
0.0
 10
2689.002638407089
 20
-9001.64112343901
 10
2687.252639405172
 20
-9001.641123439018
 42
0.4142135727497837
 10
2686.697083405893
 20
-9002.196679438995
 10
2686.697083405893
 20
-8998.825845438929
 42
0.414213572666436
 10
2687.252639405172
 20
-8999.381401438972
 10
2689.002638407089
 20
-8999.381401438972
 10
2689.002638407089
 20
-9001.64112343901
  0
HATCH
  5
30B
330
1F
100
AcDbEntity
  8
Ech.1_5
 62
   252
440
 33554687
370
     5
100
AcDbHatch
 10
0.0
 20
0.0
 30
0.0
210
0.0
220
0.0
230
1.0
  2
SOLID
 70
     1
 71
     1
 91
        1
 92
        1
 93
        2
 72
     1
 10
2686.391528404992
 20
-9003.03001246538
 11
2686.391528404992
 21
-8997.99251241261
 72
     2
 10
2698.954731795816
 20
-9000.511262438995
 40
12.81320339082451
 50
168.6632793503046
 51
191.3367206496955
 73
     1
 97
        0
 75
     0
 76
     1
 98
        0
  0
LWPOLYLINE
  5
30C
330
1F
100
AcDbEntity
  8
Ech.1_5
 62
     7
370
     9
100
AcDbPolyline
 90
        3
 70
     0
 43
0.0
 10
2686.391528404992
 20
-9003.03001246538
 10
2686.391528404992
 20
-8997.99251241261
 42
0.0992555820868614
 10
2686.391528404992
 20
-9003.03001246538
  0
HATCH
  5
30D
330
1F
100
AcDbEntity
  8
Ech.1_5
 62
   252
440
 33554687
370
     5
100
AcDbHatch
 10
0.0
 20
0.0
 30
0.0
210
0.0
220
0.0
230
1.0
  2
SOLID
 70
     1
 71
     1
 91
        1
 92
        3
 72
     0
 73
     1
 93
        6
 10
2686.697083405893
 20
-9003.030012438954
 10
2686.697083405893
 20
-9002.196679438995
 10
2686.697083405893
 20
-8998.825845438929
 10
2686.697083405895
 20
-8997.992512438977
 10
2686.391528404992
 20
-8997.99251241261
 10
2686.391528404992
 20
-9003.03001246538
 97
        0
 75
     0
 76
     1
 98
        0
  0
LWPOLYLINE
  5
30E
330
1F
100
AcDbEntity
  8
Ech.1_5
 62
     7
370
     9
100
AcDbPolyline
 90
        7
 70
     0
 43
0.0
 10
2686.697083405893
 20
-9003.030012438954
 10
2686.697083405893
 20
-9002.196679438995
 10
2686.697083405893
 20
-8998.825845438929
 10
2686.697083405895
 20
-8997.992512438977
 10
2686.391528404992
 20
-8997.99251241261
 10
2686.391528404992
 20
-9003.03001246538
 10
2686.697083405893
 20
-9003.030012438954
  0
HATCH
  5
30F
330
1F
100
AcDbEntity
  8
Ech.1_5
 62
   252
440
 33554687
370
     5
100
AcDbHatch
 10
0.0
 20
0.0
 30
0.0
210
0.0
220
0.0
230
1.0
  2
SOLID
 70
     1
 71
     1
 91
        1
 92
        3
 72
     0
 73
     1
 93
        4
 10
2724.835974402763
 20
-9001.641123439018
 10
2725.669308401682
 20
-9001.641123439018
 10
2725.669308401682
 20
-8999.381401438972
 10
2724.835974402763
 20
-8999.381401438972
 97
        0
 75
     0
 76
     1
 98
        0
  0
LWPOLYLINE
  5
310
330
1F
100
AcDbEntity
  8
Ech.1_5
 62
     7
370
     9
100
AcDbPolyline
 90
        5
 70
     0
 43
0.0
 10
2724.835974402763
 20
-9001.641123439018
 10
2725.669308401682
 20
-9001.641123439018
 10
2725.669308401682
 20
-8999.381401438972
 10
2724.835974402763
 20
-8999.381401438972
 10
2724.835974402763
 20
-9001.641123439018
  0
LINE
  5
311
330
1F
100
AcDbEntity
  8
Ech.1_5
 62
   190
370
     9
100
AcDbLine
 10
2726.502638407089
 20
-8999.381401438972
 30
0.0
 11
2726.502638407089
 21
-9001.641123439018
 31
0.0
  0
LINE
  5
312
330
1F
100
AcDbEntity
  8
Ech.1_5
 62
   190
370
     9
100
AcDbLine
 10
2727.335972406007
 20
-8999.381401438972
 30
0.0
 11
2727.335972406007
 21
-9001.641123439018
 31
0.0
  0
LINE
  5
313
330
1F
100
AcDbEntity
  8
Ech.1_5
 62
   190
370
     9
100
AcDbLine
 10
2728.16930440817
 20
-8999.381401438972
 30
0.0
 11
2728.16930440817
 21
-9001.641123439018
 31
0.0
  0
LINE
  5
314
330
1F
100
AcDbEntity
  8
Ech.1_5
 62
   190
370
     9
100
AcDbLine
 10
2725.669306404926
 20
-8999.381401438972
 30
0.0
 11
2725.669306404926
 21
-9001.641123439018
 31
0.0
  0
HATCH
  5
315
330
1F
100
AcDbEntity
  8
Ech.1_5
 62
   252
440
 33554687
370
     5
100
AcDbHatch
 10
0.0
 20
0.0
 30
0.0
210
0.0
220
0.0
230
1.0
  2
SOLID
 70
     1
 71
     1
 91
        1
 92
        3
 72
     0
 73
     1
 93
        4
 10
2725.66930440817
 20
-9001.641123439018
 10
2726.502638407089
 20
-9001.641123439018
 10
2726.502638407089
 20
-8999.381401438972
 10
2725.66930440817
 20
-8999.381401438972
 97
        0
 75
     0
 76
     1
 98
        0
  0
LWPOLYLINE
  5
316
330
1F
100
AcDbEntity
  8
Ech.1_5
 62
     7
370
     9
100
AcDbPolyline
 90
        5
 70
     0
 43
0.0
 10
2725.66930440817
 20
-9001.641123439018
 10
2726.502638407089
 20
-9001.641123439018
 10
2726.502638407089
 20
-8999.381401438972
 10
2725.66930440817
 20
-8999.381401438972
 10
2725.66930440817
 20
-9001.641123439018
  0
HATCH
  5
317
330
1F
100
AcDbEntity
  8
Ech.1_5
 62
   252
440
 33554687
370
     5
100
AcDbHatch
 10
0.0
 20
0.0
 30
0.0
210
0.0
220
0.0
230
1.0
  2
SOLID
 70
     1
 71
     1
 91
        1
 92
        3
 72
     0
 73
     1
 93
        4
 10
2727.335970409252
 20
-9001.641123439018
 10
2728.16930440817
 20
-9001.641123439018
 10
2728.16930440817
 20
-8999.381401438972
 10
2727.335970409252
 20
-8999.381401438972
 97
        0
 75
     0
 76
     1
 98
        0
  0
LWPOLYLINE
  5
318
330
1F
100
AcDbEntity
  8
Ech.1_5
 62
     7
370
     9
100
AcDbPolyline
 90
        5
 70
     0
 43
0.0
 10
2727.335970409252
 20
-9001.641123439018
 10
2728.16930440817
 20
-9001.641123439018
 10
2728.16930440817
 20
-8999.381401438972
 10
2727.335970409252
 20
-8999.381401438972
 10
2727.335970409252
 20
-9001.641123439018
  0
HATCH
  5
319
330
1F
100
AcDbEntity
  8
Ech.1_5
 62
    35
420
  9529928
440
 33554687
370
    20
100
AcDbHatch
 10
0.0
 20
0.0
 30
0.0
210
0.0
220
0.0
230
1.0
  2
SOLID
 70
     1
 71
     1
 91
        1
 92
        3
 72
     0
 73
     1
 93
        4
 10
2761.309725621632
 20
-9020.511262438966
 10
2761.309725621634
 20
-8644.894645496683
 10
2734.309725621563
 20
-8644.894645496683
 10
2734.309725621632
 20
-9020.511262438966
 97
        0
 75
     0
 76
     1
 98
        0
  0
LWPOLYLINE
  5
31A
330
1F
100
AcDbEntity
  8
Ech.1_5
 62
   190
370
    20
100
AcDbPolyline
 90
        5
 70
     0
 43
0.0
 10
2761.309725621632
 20
-9020.511262438966
 10
2761.309725621634
 20
-8644.894645496683
 10
2734.309725621563
 20
-8644.894645496683
 10
2734.309725621632
 20
-9020.511262438966
 10
2761.309725621632
 20
-9020.511262438966
  0
LWPOLYLINE
  5
31B
330
1F
100
AcDbEntity
  8
Ech.1_5
 62
   202
420
  8519880
370
    50
100
AcDbPolyline
 90
        4
 70
     0
 43
0.0
 10
2721.482171641631
 20
-9023.523811808966
 10
2749.115185621636
 20
-9022.419529428968
 42
0.351643470000531
 10
2759.592094091638
 20
-9012.504221018964
 10
2759.592094091638
 20
-8964.161079748963
  0
LWPOLYLINE
  5
31C
330
1F
100
AcDbEntity
  8
Ech.1_5
 62
   202
420
  8519880
370
    50
100
AcDbPolyline
 90
        4
 70
     0
 43
0.0
 10
2761.309725621632
 20
-8948.54463669127
 10
2761.309725621632
 20
-8961.53377011127
 10
2755.629112661632
 20
-8965.468502251268
 10
2755.629112661632
 20
-8978.94693225127
  0
LWPOLYLINE
  5
31D
330
1F
100
AcDbEntity
  8
Ech.1_5
 62
   190
370
    20
100
AcDbPolyline
 90
        3
 70
     0
 43
0.0
 10
2759.592094091638
 20
-8997.83486107457
 10
2656.760106514609
 20
-8959.706474771934
 10
2636.760106514609
 20
-8959.706474771934
  0
INSERT
  5
31E
330
1F
100
AcDbEntity
  8
Ech.1_5
 62
   190
370
    20
100
AcDbBlockReference
  2
cw-line-extremity4
 10
2759.592094091638
 20
-8997.83486107457
 30
0.0
 50
159.6560595042135
  0
LWPOLYLINE
  5
31F
330
1F
100
AcDbEntity
  8
Ech.1_5
 62
   190
370
    20
100
AcDbPolyline
 90
        3
 70
     0
 43
0.0
 10
2853.88461556301
 20
-8738.0245133243
 10
2656.760106514609
 20
-8738.0245133243
 10
2636.760106514609
 20
-8738.0245133243
  0
INSERT
  5
320
330
1F
100
AcDbEntity
  8
Ech.1_5
 62
   190
370
    20
100
AcDbBlockReference
  2
cw-line-extremity4
 10
2853.88461556301
 20
-8738.0245133243
 30
0.0
 50
180.0
  0
LWPOLYLINE
  5
321
330
1F
100
AcDbEntity
  8
Ech.1_5
 62
   190
370
    20
100
AcDbPolyline
 90
        3
 70
     0
 43
0.0
 10
2695.76672576269
 20
-8816.40867461502
 10
2656.760106514609
 20
-8816.40867461502
 10
2636.760106514609
 20
-8816.40867461502
  0
INSERT
  5
322
330
1F
100
AcDbEntity
  8
Ech.1_5
 62
   190
370
    20
100
AcDbBlockReference
  2
cw-line-extremity4
 10
2695.76672576269
 20
-8816.40867461502
 30
0.0
 50
180.0
  0
LWPOLYLINE
  5
323
330
1F
100
AcDbEntity
  8
Ech.1_5
 62
   190
370
    20
100
AcDbPolyline
 90
        3
 70
     0
 43
0.0
 10
2746.802573809576
 20
-8677.606708798368
 10
2656.760106514609
 20
-8677.606708798368
 10
2636.760106514609
 20
-8677.606708798368
  0
INSERT
  5
324
330
1F
100
AcDbEntity
  8
Ech.1_5
 62
   190
370
    20
100
AcDbBlockReference
  2
cw-line-extremity4
 10
2746.802573809576
 20
-8677.606708798368
 30
0.0
 50
180.0
  0
LWPOLYLINE
  5
325
330
1F
100
AcDbEntity
  8
Ech.1_5
 62
   190
370
    20
100
AcDbPolyline
 90
        6
 70
     0
 43
0.0
 10
2672.252639405172
 20
-8644.894697541658
 10
2859.059725621632
 20
-8644.894049383642
 10
2875.545228781634
 20
-8626.916700983642
 10
2861.435288761638
 20
-8662.872400993641
 10
2877.921642841638
 20
-8644.894049383642
 10
2963.809725621636
 20
-8644.894540215893
  0
HATCH
  5
326
330
1F
100
AcDbEntity
  8
Ech.1_5
 62
    35
420
  9529928
440
 33554687
370
    20
100
AcDbHatch
 10
0.0
 20
0.0
 30
0.0
210
0.0
220
0.0
230
1.0
  2
SOLID
 70
     1
 71
     1
 91
        1
 92
        3
 72
     0
 73
     1
 93
        4
 10
2761.309725621632
 20
-9039.054648898964
 10
2734.309725621632
 20
-9039.054648898964
 10
2734.309725621572
 20
-9447.783829951772
 10
2761.309725621636
 20
-9447.783829951772
 97
        0
 75
     0
 76
     1
 98
        0
  0
LWPOLYLINE
  5
327
330
1F
100
AcDbEntity
  8
Ech.1_5
 62
   190
370
    20
100
AcDbPolyline
 90
        5
 70
     0
 43
0.0
 10
2761.309725621632
 20
-9039.054648898964
 10
2734.309725621632
 20
-9039.054648898964
 10
2734.309725621572
 20
-9447.783829951772
 10
2761.309725621636
 20
-9447.783829951772
 10
2761.309725621632
 20
-9039.054648898964
  0
LWPOLYLINE
  5
328
330
1F
100
AcDbEntity
  8
Ech.1_5
 62
     7
370
    20
100
AcDbPolyline
 90
        3
 70
     0
 43
0.0
 10
2761.309725621632
 20
-9039.054648898964
 10
2734.309725621632
 20
-9039.054648898964
 10
2734.309725621632
 20
-9447.783829951772
  0
HATCH
  5
329
330
1F
100
AcDbEntity
  8
Ech.1_5
 62
    17
420
  8405056
440
 33554687
370
    20
100
AcDbHatch
 10
0.0
 20
0.0
 30
0.0
210
0.0
220
0.0
230
1.0
  2
SOLID
 70
     1
 71
     1
 91
        1
 92
        3
 72
     0
 73
     1
 93
        4
 10
2707.309725621632
 20
-9039.054648898964
 10
2687.252639405172
 20
-9039.054648898964
 10
2687.252639405172
 20
-9447.783805729148
 10
2707.259569968298
 20
-9447.783805729148
 97
        0
 75
     0
 76
     1
 98
        0
  0
LWPOLYLINE
  5
32A
330
1F
100
AcDbEntity
  8
Ech.1_5
 62
     7
370
    20
100
AcDbPolyline
 90
        5
 70
     0
 43
0.0
 10
2707.309725621632
 20
-9039.054648898964
 10
2687.252639405172
 20
-9039.054648898964
 10
2687.252639405172
 20
-9447.783805729148
 10
2707.259569968298
 20
-9447.783805729148
 10
2707.309725621632
 20
-9039.054648898964
  0
HATCH
  5
32B
330
1F
100
AcDbEntity
  8
Ech.1_5
 62
    35
420
  9529928
440
 33554687
370
    20
100
AcDbHatch
 10
0.0
 20
0.0
 30
0.0
210
0.0
220
0.0
230
1.0
  2
SOLID
 70
     1
 71
     1
 91
        1
 92
        3
 72
     0
 73
     1
 93
        4
 10
2707.309725621633
 20
-9079.054649376096
 10
2707.309725621633
 20
-9039.054648898964
 10
2734.309725621633
 20
-9039.054648898964
 10
2734.309725621633
 20
-9079.054648898964
 97
        0
 75
     0
 76
     1
 98
        0
  0
LWPOLYLINE
  5
32C
330
1F
100
AcDbEntity
  8
Ech.1_5
 62
   190
370
    20
100
AcDbPolyline
 90
        5
 70
     0
 43
0.0
 10
2707.309725621633
 20
-9079.054649376096
 10
2707.309725621633
 20
-9039.054648898964
 10
2734.309725621633
 20
-9039.054648898964
 10
2734.309725621633
 20
-9079.054648898964
 10
2707.309725621633
 20
-9079.054649376096
  0
LWPOLYLINE
  5
32D
330
1F
100
AcDbEntity
  8
Ech.1_5
 62
   190
370
    20
100
AcDbPolyline
 90
        4
 70
     0
 43
0.0
 10
2734.309725621633
 20
-9079.054648898964
 10
2707.309725621633
 20
-9039.054648898964
 10
2734.309725621633
 20
-9039.054648898964
 10
2707.309725621633
 20
-9079.054536064912
  0
LWPOLYLINE
  5
32E
330
1F
100
AcDbEntity
  8
Ech.1_5
 62
     5
370
    20
100
AcDbPolyline
 90
        5
 70
     0
 43
0.0
 10
2707.309725621633
 20
-9079.054536064912
 10
2707.309725621633
 20
-9039.054648898964
 10
2734.309725621633
 20
-9039.054648898964
 10
2734.309725621633
 20
-9079.054648898964
 10
2707.309725621633
 20
-9079.054536064912
  0
LWPOLYLINE
  5
32F
330
1F
100
AcDbEntity
  8
Ech.1_5
 62
     7
370
    20
100
AcDbPolyline
 90
        4
 70
     0
 43
0.0
 10
2687.252639405172
 20
-9447.783805729148
 10
2687.252639405172
 20
-9039.054648898964
 10
2707.309725621632
 20
-9039.054648898964
 10
2707.259569968298
 20
-9447.783805729148
  0
LINE
  5
330
330
1F
100
AcDbEntity
  8
Ech.1_5
 62
   190
370
     9
100
AcDbLine
 10
2686.697083405896
 20
-9061.573398898952
 30
0.0
 11
2686.391528404993
 21
-9061.573398898952
 31
0.0
  0
LINE
  5
331
330
1F
100
AcDbEntity
  8
Ech.1_5
 62
   190
370
     9
100
AcDbLine
 10
2686.391528404993
 20
-9061.573398898952
 30
0.0
 11
2686.391528404993
 21
-9056.535898898976
 31
0.0
  0
LINE
  5
332
330
1F
100
AcDbEntity
  8
Ech.1_5
 62
   190
370
     9
100
AcDbLine
 10
2686.697083405894
 20
-9056.535898898976
 30
0.0
 11
2686.391528404993
 21
-9056.535898898976
 31
0.0
  0
HATCH
  5
333
330
1F
100
AcDbEntity
  8
Ech.1_5
 62
   252
440
 33554687
370
     5
100
AcDbHatch
 10
0.0
 20
0.0
 30
0.0
210
0.0
220
0.0
230
1.0
  2
SOLID
 70
     1
 71
     1
 91
        1
 92
        3
 72
     0
 73
     1
 93
        4
 10
2726.50263840709
 20
-9057.924787898912
 10
2727.335972406008
 20
-9057.924787898912
 10
2727.335972406008
 20
-9060.184509898958
 10
2726.50263840709
 20
-9060.184509898958
 97
        0
 75
     0
 76
     1
 98
        0
  0
LWPOLYLINE
  5
334
330
1F
100
AcDbEntity
  8
Ech.1_5
 62
     7
370
     9
100
AcDbPolyline
 90
        5
 70
     0
 43
0.0
 10
2726.50263840709
 20
-9057.924787898912
 10
2727.335972406008
 20
-9057.924787898912
 10
2727.335972406008
 20
-9060.184509898958
 10
2726.50263840709
 20
-9060.184509898958
 10
2726.50263840709
 20
-9057.924787898912
  0
LINE
  5
335
330
1F
100
AcDbEntity
  8
Ech.1_5
 62
   190
370
     9
100
AcDbLine
 10
2729.535056404513
 20
-9060.184509898958
 30
0.0
 11
2687.252639405173
 21
-9060.184509898958
 31
0.0
  0
LINE
  5
336
330
1F
100
AcDbEntity
  8
Ech.1_5
 62
   190
370
     9
100
AcDbLine
 10
2729.535056404513
 20
-9057.924787898912
 30
0.0
 11
2687.252639405173
 21
-9057.924787898912
 31
0.0
  0
ARC
  5
337
330
1F
100
AcDbEntity
  8
Ech.1_5
 62
   190
370
     9
100
AcDbCircle
 10
2698.954731795827
 20
-9059.054648898935
 30
0.0
 40
12.81320339083424
100
AcDbArc
 50
168.6632793503132
 51
191.3367206496868
  0
LINE
  5
338
330
1F
100
AcDbEntity
  8
Ech.1_5
 62
   190
370
     9
100
AcDbLine
 10
2686.697083405896
 20
-9061.573398898952
 30
0.0
 11
2686.697083405894
 21
-9060.740065899001
 31
0.0
  0
ARC
  5
339
330
1F
100
AcDbEntity
  8
Ech.1_5
 62
   190
370
     9
100
AcDbCircle
 10
2687.252639395793
 20
-9060.740065888856
 30
0.0
 40
0.5555559898988739
100
AcDbArc
 50
89.99999903261123
 51
180.0000010462262
  0
LINE
  5
33A
330
1F
100
AcDbEntity
  8
Ech.1_5
 62
   190
370
     9
100
AcDbLine
 10
2686.697083405894
 20
-9060.740065899001
 30
0.0
 11
2686.697083405894
 21
-9057.369231898934
 31
0.0
  0
ARC
  5
33B
330
1F
100
AcDbEntity
  8
Ech.1_5
 62
   190
370
     9
100
AcDbCircle
 10
2687.252639395681
 20
-9057.369231909124
 30
0.0
 40
0.5555559897870865
100
AcDbArc
 50
179.9999989490838
 51
270.000000978926
  0
LINE
  5
33C
330
1F
100
AcDbEntity
  8
Ech.1_5
 62
   190
370
     9
100
AcDbLine
 10
2686.697083405894
 20
-9056.535898898976
 30
0.0
 11
2686.697083405894
 21
-9057.369231898934
 31
0.0
  0
LINE
  5
33D
330
1F
100
AcDbEntity
  8
Ech.1_5
 62
   190
370
     9
100
AcDbLine
 10
2697.335972406008
 20
-9060.184509898958
 30
0.0
 11
2697.335972406008
 21
-9057.924787898912
 31
0.0
  0
LINE
  5
33E
330
1F
100
AcDbEntity
  8
Ech.1_5
 62
   190
370
     9
100
AcDbLine
 10
2698.169305406549
 20
-9060.184509898958
 30
0.0
 11
2698.169305406549
 21
-9057.924787898912
 31
0.0
  0
LINE
  5
33F
330
1F
100
AcDbEntity
  8
Ech.1_5
 62
   190
370
     9
100
AcDbLine
 10
2694.835972406008
 20
-9060.184509898958
 30
0.0
 11
2694.835972406008
 21
-9057.924787898912
 31
0.0
  0
LINE
  5
340
330
1F
100
AcDbEntity
  8
Ech.1_5
 62
   190
370
     9
100
AcDbLine
 10
2695.669305406549
 20
-9060.184509898958
 30
0.0
 11
2695.669305406549
 21
-9057.924787898912
 31
0.0
  0
LINE
  5
341
330
1F
100
AcDbEntity
  8
Ech.1_5
 62
   190
370
     9
100
AcDbLine
 10
2696.50263840709
 20
-9060.184509898958
 30
0.0
 11
2696.50263840709
 21
-9057.924787898912
 31
0.0
  0
LINE
  5
342
330
1F
100
AcDbEntity
  8
Ech.1_5
 62
   190
370
     9
100
AcDbLine
 10
2692.335972406008
 20
-9060.184509898958
 30
0.0
 11
2692.335972406008
 21
-9057.924787898912
 31
0.0
  0
LINE
  5
343
330
1F
100
AcDbEntity
  8
Ech.1_5
 62
   190
370
     9
100
AcDbLine
 10
2693.169305406551
 20
-9060.184509898958
 30
0.0
 11
2693.169305406551
 21
-9057.924787898912
 31
0.0
  0
LINE
  5
344
330
1F
100
AcDbEntity
  8
Ech.1_5
 62
   190
370
     9
100
AcDbLine
 10
2694.002638407092
 20
-9060.184509898958
 30
0.0
 11
2694.002638407092
 21
-9057.924787898912
 31
0.0
  0
LINE
  5
345
330
1F
100
AcDbEntity
  8
Ech.1_5
 62
   190
370
     9
100
AcDbLine
 10
2691.50263840709
 20
-9060.184509898958
 30
0.0
 11
2691.50263840709
 21
-9057.924787898912
 31
0.0
  0
LINE
  5
346
330
1F
100
AcDbEntity
  8
Ech.1_5
 62
   190
370
     9
100
AcDbLine
 10
2690.669305406549
 20
-9060.184509898958
 30
0.0
 11
2690.669305406549
 21
-9057.924787898912
 31
0.0
  0
LINE
  5
347
330
1F
100
AcDbEntity
  8
Ech.1_5
 62
   190
370
     9
100
AcDbLine
 10
2689.835972406008
 20
-9060.184509898958
 30
0.0
 11
2689.835972406008
 21
-9057.924787898912
 31
0.0
  0
LINE
  5
348
330
1F
100
AcDbEntity
  8
Ech.1_5
 62
   190
370
     9
100
AcDbLine
 10
2689.00263840709
 20
-9060.184509898958
 30
0.0
 11
2689.00263840709
 21
-9057.924787898919
 31
0.0
  0
LINE
  5
349
330
1F
100
AcDbEntity
  8
Ech.1_5
 62
   190
370
     9
100
AcDbLine
 10
2724.00263840709
 20
-9060.184509898958
 30
0.0
 11
2724.00263840709
 21
-9057.924787898912
 31
0.0
  0
LINE
  5
34A
330
1F
100
AcDbEntity
  8
Ech.1_5
 62
   190
370
     9
100
AcDbLine
 10
2723.169305406549
 20
-9060.184509898958
 30
0.0
 11
2723.169305406549
 21
-9057.924787898912
 31
0.0
  0
LINE
  5
34B
330
1F
100
AcDbEntity
  8
Ech.1_5
 62
   190
370
     9
100
AcDbLine
 10
2724.835972406008
 20
-9060.184509898958
 30
0.0
 11
2724.835972406008
 21
-9057.924787898912
 31
0.0
  0
LINE
  5
34C
330
1F
100
AcDbEntity
  8
Ech.1_5
 62
   190
370
     9
100
AcDbLine
 10
2720.669305406549
 20
-9060.184509898958
 30
0.0
 11
2720.669305406549
 21
-9057.924787898912
 31
0.0
  0
LINE
  5
34D
330
1F
100
AcDbEntity
  8
Ech.1_5
 62
   190
370
     9
100
AcDbLine
 10
2721.50263840709
 20
-9060.184509898958
 30
0.0
 11
2721.50263840709
 21
-9057.924787898912
 31
0.0
  0
LINE
  5
34E
330
1F
100
AcDbEntity
  8
Ech.1_5
 62
   190
370
     9
100
AcDbLine
 10
2722.335972406008
 20
-9060.184509898958
 30
0.0
 11
2722.335972406008
 21
-9057.924787898912
 31
0.0
  0
LINE
  5
34F
330
1F
100
AcDbEntity
  8
Ech.1_5
 62
   190
370
     9
100
AcDbLine
 10
2718.169305406549
 20
-9060.184509898958
 30
0.0
 11
2718.169305406549
 21
-9057.924787898912
 31
0.0
  0
LINE
  5
350
330
1F
100
AcDbEntity
  8
Ech.1_5
 62
   190
370
     9
100
AcDbLine
 10
2719.00263840709
 20
-9060.184509898958
 30
0.0
 11
2719.00263840709
 21
-9057.924787898912
 31
0.0
  0
LINE
  5
351
330
1F
100
AcDbEntity
  8
Ech.1_5
 62
   190
370
     9
100
AcDbLine
 10
2719.835972406008
 20
-9060.184509898958
 30
0.0
 11
2719.835972406008
 21
-9057.924787898912
 31
0.0
  0
LINE
  5
352
330
1F
100
AcDbEntity
  8
Ech.1_5
 62
   190
370
     9
100
AcDbLine
 10
2715.669305406549
 20
-9060.184509898958
 30
0.0
 11
2715.669305406549
 21
-9057.924787898912
 31
0.0
  0
LINE
  5
353
330
1F
100
AcDbEntity
  8
Ech.1_5
 62
   190
370
     9
100
AcDbLine
 10
2716.50263840709
 20
-9060.184509898958
 30
0.0
 11
2716.50263840709
 21
-9057.924787898912
 31
0.0
  0
LINE
  5
354
330
1F
100
AcDbEntity
  8
Ech.1_5
 62
   190
370
     9
100
AcDbLine
 10
2717.335972406008
 20
-9060.184509898958
 30
0.0
 11
2717.335972406008
 21
-9057.924787898912
 31
0.0
  0
LINE
  5
355
330
1F
100
AcDbEntity
  8
Ech.1_5
 62
   190
370
     9
100
AcDbLine
 10
2714.835972406008
 20
-9060.184509898958
 30
0.0
 11
2714.835972406008
 21
-9057.924787898912
 31
0.0
  0
LINE
  5
356
330
1F
100
AcDbEntity
  8
Ech.1_5
 62
   190
370
     9
100
AcDbLine
 10
2701.50263840709
 20
-9060.184509898958
 30
0.0
 11
2701.50263840709
 21
-9057.924787898912
 31
0.0
  0
LINE
  5
357
330
1F
100
AcDbEntity
  8
Ech.1_5
 62
   190
370
     9
100
AcDbLine
 10
2702.335972406008
 20
-9060.184509898958
 30
0.0
 11
2702.335972406008
 21
-9057.924787898912
 31
0.0
  0
LINE
  5
358
330
1F
100
AcDbEntity
  8
Ech.1_5
 62
   190
370
     9
100
AcDbLine
 10
2703.169305406549
 20
-9060.184509898958
 30
0.0
 11
2703.169305406549
 21
-9057.924787898912
 31
0.0
  0
LINE
  5
359
330
1F
100
AcDbEntity
  8
Ech.1_5
 62
   190
370
     9
100
AcDbLine
 10
2704.00263840709
 20
-9060.184509898958
 30
0.0
 11
2704.00263840709
 21
-9057.924787898912
 31
0.0
  0
LINE
  5
35A
330
1F
100
AcDbEntity
  8
Ech.1_5
 62
   190
370
     9
100
AcDbLine
 10
2706.50263840709
 20
-9060.184509898958
 30
0.0
 11
2706.50263840709
 21
-9057.924787898912
 31
0.0
  0
LINE
  5
35B
330
1F
100
AcDbEntity
  8
Ech.1_5
 62
   190
370
     9
100
AcDbLine
 10
2705.669305406549
 20
-9060.184509898958
 30
0.0
 11
2705.669305406549
 21
-9057.924787898912
 31
0.0
  0
LINE
  5
35C
330
1F
100
AcDbEntity
  8
Ech.1_5
 62
   190
370
     9
100
AcDbLine
 10
2704.835972406008
 20
-9060.184509898958
 30
0.0
 11
2704.835972406008
 21
-9057.924787898912
 31
0.0
  0
LINE
  5
35D
330
1F
100
AcDbEntity
  8
Ech.1_5
 62
   190
370
     9
100
AcDbLine
 10
2709.00263840709
 20
-9060.184509898958
 30
0.0
 11
2709.00263840709
 21
-9057.924787898912
 31
0.0
  0
LINE
  5
35E
330
1F
100
AcDbEntity
  8
Ech.1_5
 62
   190
370
     9
100
AcDbLine
 10
2708.169305406549
 20
-9060.184509898958
 30
0.0
 11
2708.169305406549
 21
-9057.924787898912
 31
0.0
  0
LINE
  5
35F
330
1F
100
AcDbEntity
  8
Ech.1_5
 62
   190
370
     9
100
AcDbLine
 10
2707.335972406008
 20
-9060.184509898958
 30
0.0
 11
2707.335972406008
 21
-9057.924787898912
 31
0.0
  0
LINE
  5
360
330
1F
100
AcDbEntity
  8
Ech.1_5
 62
   190
370
     9
100
AcDbLine
 10
2711.50263840709
 20
-9060.184509898958
 30
0.0
 11
2711.50263840709
 21
-9057.924787898912
 31
0.0
  0
LINE
  5
361
330
1F
100
AcDbEntity
  8
Ech.1_5
 62
   190
370
     9
100
AcDbLine
 10
2710.669305406549
 20
-9060.184509898958
 30
0.0
 11
2710.669305406549
 21
-9057.924787898912
 31
0.0
  0
LINE
  5
362
330
1F
100
AcDbEntity
  8
Ech.1_5
 62
   190
370
     9
100
AcDbLine
 10
2709.835972406008
 20
-9060.184509898958
 30
0.0
 11
2709.835972406008
 21
-9057.924787898912
 31
0.0
  0
LINE
  5
363
330
1F
100
AcDbEntity
  8
Ech.1_5
 62
   190
370
     9
100
AcDbLine
 10
2714.00263840709
 20
-9060.184509898958
 30
0.0
 11
2714.00263840709
 21
-9057.924787898912
 31
0.0
  0
LINE
  5
364
330
1F
100
AcDbEntity
  8
Ech.1_5
 62
   190
370
     9
100
AcDbLine
 10
2713.169305406549
 20
-9060.184509898958
 30
0.0
 11
2713.169305406549
 21
-9057.924787898912
 31
0.0
  0
LINE
  5
365
330
1F
100
AcDbEntity
  8
Ech.1_5
 62
   190
370
     9
100
AcDbLine
 10
2712.335972406008
 20
-9060.184509898958
 30
0.0
 11
2712.335972406008
 21
-9057.924787898912
 31
0.0
  0
LINE
  5
366
330
1F
100
AcDbEntity
  8
Ech.1_5
 62
   190
370
     9
100
AcDbLine
 10
2699.835972406008
 20
-9060.184509898958
 30
0.0
 11
2699.835972406008
 21
-9057.924787898912
 31
0.0
  0
LINE
  5
367
330
1F
100
AcDbEntity
  8
Ech.1_5
 62
   190
370
     9
100
AcDbLine
 10
2700.669305406549
 20
-9060.184509898958
 30
0.0
 11
2700.669305406549
 21
-9057.924787898912
 31
0.0
  0
LINE
  5
368
330
1F
100
AcDbEntity
  8
Ech.1_5
 62
   190
370
     9
100
AcDbLine
 10
2701.50263840709
 20
-9060.184509898958
 30
0.0
 11
2701.50263840709
 21
-9057.924787898912
 31
0.0
  0
LINE
  5
369
330
1F
100
AcDbEntity
  8
Ech.1_5
 62
   190
370
     9
100
AcDbLine
 10
2699.00263840709
 20
-9060.184509898958
 30
0.0
 11
2699.00263840709
 21
-9057.924787898912
 31
0.0
  0
LINE
  5
36A
330
1F
100
AcDbEntity
  8
Ech.1_5
 62
   190
370
     9
100
AcDbLine
 10
2732.197083405894
 20
-9059.054648898964
 30
0.0
 11
2729.535056404513
 21
-9060.184509898958
 31
0.0
  0
ARC
  5
36B
330
1F
100
AcDbEntity
  8
Ech.1_5
 62
   190
370
     9
100
AcDbCircle
 10
2730.94440739511
 20
-9059.054648898968
 30
0.0
 40
1.806337996665552
100
AcDbArc
 50
141.2812399141965
 51
218.7187600858035
  0
LINE
  5
36C
330
1F
100
AcDbEntity
  8
Ech.1_5
 62
   190
370
     9
100
AcDbLine
 10
2732.197083405894
 20
-9059.054648898964
 30
0.0
 11
2729.535056404513
 21
-9057.924787898912
 31
0.0
  0
HATCH
  5
36D
330
1F
100
AcDbEntity
  8
Ech.1_5
 62
   252
440
 33554687
370
     5
100
AcDbHatch
 10
0.0
 20
0.0
 30
0.0
210
0.0
220
0.0
230
1.0
  2
SOLID
 70
     1
 71
     1
 91
        1
 92
        3
 72
     0
 73
     1
 93
        4
 10
2689.00263840709
 20
-9057.924787898919
 10
2689.835972406008
 20
-9057.924787898912
 10
2689.835972406008
 20
-9060.184509898958
 10
2689.00263840709
 20
-9060.184509898958
 97
        0
 75
     0
 76
     1
 98
        0
  0
LWPOLYLINE
  5
36E
330
1F
100
AcDbEntity
  8
Ech.1_5
 62
     7
370
     9
100
AcDbPolyline
 90
        5
 70
     0
 43
0.0
 10
2689.00263840709
 20
-9057.924787898919
 10
2689.835972406008
 20
-9057.924787898912
 10
2689.835972406008
 20
-9060.184509898958
 10
2689.00263840709
 20
-9060.184509898958
 10
2689.00263840709
 20
-9057.924787898919
  0
HATCH
  5
36F
330
1F
100
AcDbEntity
  8
Ech.1_5
 62
   252
440
 33554687
370
     5
100
AcDbHatch
 10
0.0
 20
0.0
 30
0.0
210
0.0
220
0.0
230
1.0
  2
SOLID
 70
     1
 71
     1
 91
        1
 92
        3
 72
     0
 73
     1
 93
        4
 10
2689.835972406008
 20
-9057.924787898912
 10
2690.669306404927
 20
-9057.924787898912
 10
2690.669306404927
 20
-9060.184509898958
 10
2689.835972406008
 20
-9060.184509898958
 97
        0
 75
     0
 76
     1
 98
        0
  0
LWPOLYLINE
  5
370
330
1F
100
AcDbEntity
  8
Ech.1_5
 62
     7
370
     9
100
AcDbPolyline
 90
        5
 70
     0
 43
0.0
 10
2689.835972406008
 20
-9057.924787898912
 10
2690.669306404927
 20
-9057.924787898912
 10
2690.669306404927
 20
-9060.184509898958
 10
2689.835972406008
 20
-9060.184509898958
 10
2689.835972406008
 20
-9057.924787898912
  0
HATCH
  5
371
330
1F
100
AcDbEntity
  8
Ech.1_5
 62
   252
440
 33554687
370
     5
100
AcDbHatch
 10
0.0
 20
0.0
 30
0.0
210
0.0
220
0.0
230
1.0
  2
SOLID
 70
     1
 71
     1
 91
        1
 92
        3
 72
     0
 73
     1
 93
        4
 10
2690.669306404927
 20
-9057.924787898912
 10
2691.502640403845
 20
-9057.924787898912
 10
2691.502640403845
 20
-9060.184509898958
 10
2690.669306404927
 20
-9060.184509898958
 97
        0
 75
     0
 76
     1
 98
        0
  0
LWPOLYLINE
  5
372
330
1F
100
AcDbEntity
  8
Ech.1_5
 62
     7
370
     9
100
AcDbPolyline
 90
        5
 70
     0
 43
0.0
 10
2690.669306404927
 20
-9057.924787898912
 10
2691.502640403845
 20
-9057.924787898912
 10
2691.502640403845
 20
-9060.184509898958
 10
2690.669306404927
 20
-9060.184509898958
 10
2690.669306404927
 20
-9057.924787898912
  0
HATCH
  5
373
330
1F
100
AcDbEntity
  8
Ech.1_5
 62
   252
440
 33554687
370
     5
100
AcDbHatch
 10
0.0
 20
0.0
 30
0.0
210
0.0
220
0.0
230
1.0
  2
SOLID
 70
     1
 71
     1
 91
        1
 92
        3
 72
     0
 73
     1
 93
        4
 10
2691.502640403845
 20
-9057.924787898912
 10
2692.335974402764
 20
-9057.924787898912
 10
2692.335974402764
 20
-9060.184509898958
 10
2691.502640403845
 20
-9060.184509898958
 97
        0
 75
     0
 76
     1
 98
        0
  0
LWPOLYLINE
  5
374
330
1F
100
AcDbEntity
  8
Ech.1_5
 62
     7
370
     9
100
AcDbPolyline
 90
        5
 70
     0
 43
0.0
 10
2691.502640403845
 20
-9057.924787898912
 10
2692.335974402764
 20
-9057.924787898912
 10
2692.335974402764
 20
-9060.184509898958
 10
2691.502640403845
 20
-9060.184509898958
 10
2691.502640403845
 20
-9057.924787898912
  0
HATCH
  5
375
330
1F
100
AcDbEntity
  8
Ech.1_5
 62
   252
440
 33554687
370
     5
100
AcDbHatch
 10
0.0
 20
0.0
 30
0.0
210
0.0
220
0.0
230
1.0
  2
SOLID
 70
     1
 71
     1
 91
        1
 92
        3
 72
     0
 73
     1
 93
        4
 10
2692.335972406008
 20
-9057.924787898912
 10
2693.169306404929
 20
-9057.924787898912
 10
2693.169306404929
 20
-9060.184509898958
 10
2692.335972406008
 20
-9060.184509898958
 97
        0
 75
     0
 76
     1
 98
        0
  0
LWPOLYLINE
  5
376
330
1F
100
AcDbEntity
  8
Ech.1_5
 62
     7
370
     9
100
AcDbPolyline
 90
        5
 70
     0
 43
0.0
 10
2692.335972406008
 20
-9057.924787898912
 10
2693.169306404929
 20
-9057.924787898912
 10
2693.169306404929
 20
-9060.184509898958
 10
2692.335972406008
 20
-9060.184509898958
 10
2692.335972406008
 20
-9057.924787898912
  0
HATCH
  5
377
330
1F
100
AcDbEntity
  8
Ech.1_5
 62
   252
440
 33554687
370
     5
100
AcDbHatch
 10
0.0
 20
0.0
 30
0.0
210
0.0
220
0.0
230
1.0
  2
SOLID
 70
     1
 71
     1
 91
        1
 92
        3
 72
     0
 73
     1
 93
        4
 10
2693.169305406551
 20
-9057.924787898912
 10
2694.002639405469
 20
-9057.924787898912
 10
2694.002639405469
 20
-9060.184509898965
 10
2693.169305406551
 20
-9060.184509898958
 97
        0
 75
     0
 76
     1
 98
        0
  0
LWPOLYLINE
  5
378
330
1F
100
AcDbEntity
  8
Ech.1_5
 62
     7
370
     9
100
AcDbPolyline
 90
        5
 70
     0
 43
0.0
 10
2693.169305406551
 20
-9057.924787898912
 10
2694.002639405469
 20
-9057.924787898912
 10
2694.002639405469
 20
-9060.184509898965
 10
2693.169305406551
 20
-9060.184509898958
 10
2693.169305406551
 20
-9057.924787898912
  0
HATCH
  5
379
330
1F
100
AcDbEntity
  8
Ech.1_5
 62
   252
440
 33554687
370
     5
100
AcDbHatch
 10
0.0
 20
0.0
 30
0.0
210
0.0
220
0.0
230
1.0
  2
SOLID
 70
     1
 71
     1
 91
        1
 92
        3
 72
     0
 73
     1
 93
        4
 10
2694.002639405469
 20
-9057.924787898912
 10
2694.835973404386
 20
-9057.924787898912
 10
2694.835973404386
 20
-9060.184509898958
 10
2694.002639405469
 20
-9060.184509898965
 97
        0
 75
     0
 76
     1
 98
        0
  0
LWPOLYLINE
  5
37A
330
1F
100
AcDbEntity
  8
Ech.1_5
 62
     7
370
     9
100
AcDbPolyline
 90
        5
 70
     0
 43
0.0
 10
2694.002639405469
 20
-9057.924787898912
 10
2694.835973404386
 20
-9057.924787898912
 10
2694.835973404386
 20
-9060.184509898958
 10
2694.002639405469
 20
-9060.184509898965
 10
2694.002639405469
 20
-9057.924787898912
  0
HATCH
  5
37B
330
1F
100
AcDbEntity
  8
Ech.1_5
 62
   252
440
 33554687
370
     5
100
AcDbHatch
 10
0.0
 20
0.0
 30
0.0
210
0.0
220
0.0
230
1.0
  2
SOLID
 70
     1
 71
     1
 91
        1
 92
        3
 72
     0
 73
     1
 93
        4
 10
2694.835972406008
 20
-9057.924787898912
 10
2695.669306404927
 20
-9057.924787898912
 10
2695.669306404927
 20
-9060.184509898958
 10
2694.835972406008
 20
-9060.184509898958
 97
        0
 75
     0
 76
     1
 98
        0
  0
LWPOLYLINE
  5
37C
330
1F
100
AcDbEntity
  8
Ech.1_5
 62
     7
370
     9
100
AcDbPolyline
 90
        5
 70
     0
 43
0.0
 10
2694.835972406008
 20
-9057.924787898912
 10
2695.669306404927
 20
-9057.924787898912
 10
2695.669306404927
 20
-9060.184509898958
 10
2694.835972406008
 20
-9060.184509898958
 10
2694.835972406008
 20
-9057.924787898912
  0
HATCH
  5
37D
330
1F
100
AcDbEntity
  8
Ech.1_5
 62
   252
440
 33554687
370
     5
100
AcDbHatch
 10
0.0
 20
0.0
 30
0.0
210
0.0
220
0.0
230
1.0
  2
SOLID
 70
     1
 71
     1
 91
        1
 92
        3
 72
     0
 73
     1
 93
        4
 10
2695.669306404927
 20
-9057.924787898912
 10
2696.502640403845
 20
-9057.924787898912
 10
2696.502640403845
 20
-9060.184509898958
 10
2695.669306404927
 20
-9060.184509898958
 97
        0
 75
     0
 76
     1
 98
        0
  0
LWPOLYLINE
  5
37E
330
1F
100
AcDbEntity
  8
Ech.1_5
 62
     7
370
     9
100
AcDbPolyline
 90
        5
 70
     0
 43
0.0
 10
2695.669306404927
 20
-9057.924787898912
 10
2696.502640403845
 20
-9057.924787898912
 10
2696.502640403845
 20
-9060.184509898958
 10
2695.669306404927
 20
-9060.184509898958
 10
2695.669306404927
 20
-9057.924787898912
  0
HATCH
  5
37F
330
1F
100
AcDbEntity
  8
Ech.1_5
 62
   252
440
 33554687
370
     5
100
AcDbHatch
 10
0.0
 20
0.0
 30
0.0
210
0.0
220
0.0
230
1.0
  2
SOLID
 70
     1
 71
     1
 91
        1
 92
        3
 72
     0
 73
     1
 93
        4
 10
2696.50263840709
 20
-9057.924787898912
 10
2697.335972406008
 20
-9057.924787898912
 10
2697.335972406008
 20
-9060.184509898958
 10
2696.50263840709
 20
-9060.184509898958
 97
        0
 75
     0
 76
     1
 98
        0
  0
LWPOLYLINE
  5
380
330
1F
100
AcDbEntity
  8
Ech.1_5
 62
     7
370
     9
100
AcDbPolyline
 90
        5
 70
     0
 43
0.0
 10
2696.50263840709
 20
-9057.924787898912
 10
2697.335972406008
 20
-9057.924787898912
 10
2697.335972406008
 20
-9060.184509898958
 10
2696.50263840709
 20
-9060.184509898958
 10
2696.50263840709
 20
-9057.924787898912
  0
HATCH
  5
381
330
1F
100
AcDbEntity
  8
Ech.1_5
 62
   252
440
 33554687
370
     5
100
AcDbHatch
 10
0.0
 20
0.0
 30
0.0
210
0.0
220
0.0
230
1.0
  2
SOLID
 70
     1
 71
     1
 91
        1
 92
        3
 72
     0
 73
     1
 93
        4
 10
2697.335972406008
 20
-9057.924787898912
 10
2698.169306404927
 20
-9057.924787898912
 10
2698.169306404927
 20
-9060.184509898958
 10
2697.335972406008
 20
-9060.184509898958
 97
        0
 75
     0
 76
     1
 98
        0
  0
LWPOLYLINE
  5
382
330
1F
100
AcDbEntity
  8
Ech.1_5
 62
     7
370
     9
100
AcDbPolyline
 90
        5
 70
     0
 43
0.0
 10
2697.335972406008
 20
-9057.924787898912
 10
2698.169306404927
 20
-9057.924787898912
 10
2698.169306404927
 20
-9060.184509898958
 10
2697.335972406008
 20
-9060.184509898958
 10
2697.335972406008
 20
-9057.924787898912
  0
HATCH
  5
383
330
1F
100
AcDbEntity
  8
Ech.1_5
 62
   252
440
 33554687
370
     5
100
AcDbHatch
 10
0.0
 20
0.0
 30
0.0
210
0.0
220
0.0
230
1.0
  2
SOLID
 70
     1
 71
     1
 91
        1
 92
        3
 72
     0
 73
     1
 93
        4
 10
2698.169306404927
 20
-9057.924787898912
 10
2699.002640403845
 20
-9057.924787898912
 10
2699.002640403847
 20
-9060.184509898958
 10
2698.169306404927
 20
-9060.184509898958
 97
        0
 75
     0
 76
     1
 98
        0
  0
LWPOLYLINE
  5
384
330
1F
100
AcDbEntity
  8
Ech.1_5
 62
     7
370
     9
100
AcDbPolyline
 90
        5
 70
     0
 43
0.0
 10
2698.169306404927
 20
-9057.924787898912
 10
2699.002640403845
 20
-9057.924787898912
 10
2699.002640403847
 20
-9060.184509898958
 10
2698.169306404927
 20
-9060.184509898958
 10
2698.169306404927
 20
-9057.924787898912
  0
HATCH
  5
385
330
1F
100
AcDbEntity
  8
Ech.1_5
 62
   252
440
 33554687
370
     5
100
AcDbHatch
 10
0.0
 20
0.0
 30
0.0
210
0.0
220
0.0
230
1.0
  2
SOLID
 70
     1
 71
     1
 91
        1
 92
        3
 72
     0
 73
     1
 93
        4
 10
2699.002640403845
 20
-9057.924787898912
 10
2699.835974402764
 20
-9057.924787898912
 10
2699.835974402764
 20
-9060.184509898958
 10
2699.002640403847
 20
-9060.184509898958
 97
        0
 75
     0
 76
     1
 98
        0
  0
LWPOLYLINE
  5
386
330
1F
100
AcDbEntity
  8
Ech.1_5
 62
     7
370
     9
100
AcDbPolyline
 90
        5
 70
     0
 43
0.0
 10
2699.002640403845
 20
-9057.924787898912
 10
2699.835974402764
 20
-9057.924787898912
 10
2699.835974402764
 20
-9060.184509898958
 10
2699.002640403847
 20
-9060.184509898958
 10
2699.002640403845
 20
-9057.924787898912
  0
HATCH
  5
387
330
1F
100
AcDbEntity
  8
Ech.1_5
 62
   252
440
 33554687
370
     5
100
AcDbHatch
 10
0.0
 20
0.0
 30
0.0
210
0.0
220
0.0
230
1.0
  2
SOLID
 70
     1
 71
     1
 91
        1
 92
        3
 72
     0
 73
     1
 93
        4
 10
2699.835974402764
 20
-9057.924787898912
 10
2700.669308401682
 20
-9057.924787898912
 10
2700.669308401682
 20
-9060.184509898958
 10
2699.835974402764
 20
-9060.184509898958
 97
        0
 75
     0
 76
     1
 98
        0
  0
LWPOLYLINE
  5
388
330
1F
100
AcDbEntity
  8
Ech.1_5
 62
     7
370
     9
100
AcDbPolyline
 90
        5
 70
     0
 43
0.0
 10
2699.835974402764
 20
-9057.924787898912
 10
2700.669308401682
 20
-9057.924787898912
 10
2700.669308401682
 20
-9060.184509898958
 10
2699.835974402764
 20
-9060.184509898958
 10
2699.835974402764
 20
-9057.924787898912
  0
HATCH
  5
389
330
1F
100
AcDbEntity
  8
Ech.1_5
 62
   252
440
 33554687
370
     5
100
AcDbHatch
 10
0.0
 20
0.0
 30
0.0
210
0.0
220
0.0
230
1.0
  2
SOLID
 70
     1
 71
     1
 91
        1
 92
        3
 72
     0
 73
     1
 93
        4
 10
2700.669306404927
 20
-9057.924787898912
 10
2701.502640403845
 20
-9057.924787898912
 10
2701.502640403845
 20
-9060.184509898958
 10
2700.669306404927
 20
-9060.184509898958
 97
        0
 75
     0
 76
     1
 98
        0
  0
LWPOLYLINE
  5
38A
330
1F
100
AcDbEntity
  8
Ech.1_5
 62
     7
370
     9
100
AcDbPolyline
 90
        5
 70
     0
 43
0.0
 10
2700.669306404927
 20
-9057.924787898912
 10
2701.502640403845
 20
-9057.924787898912
 10
2701.502640403845
 20
-9060.184509898958
 10
2700.669306404927
 20
-9060.184509898958
 10
2700.669306404927
 20
-9057.924787898912
  0
HATCH
  5
38B
330
1F
100
AcDbEntity
  8
Ech.1_5
 62
   252
440
 33554687
370
     5
100
AcDbHatch
 10
0.0
 20
0.0
 30
0.0
210
0.0
220
0.0
230
1.0
  2
SOLID
 70
     1
 71
     1
 91
        1
 92
        3
 72
     0
 73
     1
 93
        4
 10
2701.502639405468
 20
-9057.924787898912
 10
2702.335973404386
 20
-9057.924787898912
 10
2702.335973404386
 20
-9060.184509898958
 10
2701.502639405468
 20
-9060.184509898958
 97
        0
 75
     0
 76
     1
 98
        0
  0
LWPOLYLINE
  5
38C
330
1F
100
AcDbEntity
  8
Ech.1_5
 62
     7
370
     9
100
AcDbPolyline
 90
        5
 70
     0
 43
0.0
 10
2701.502639405468
 20
-9057.924787898912
 10
2702.335973404386
 20
-9057.924787898912
 10
2702.335973404386
 20
-9060.184509898958
 10
2701.502639405468
 20
-9060.184509898958
 10
2701.502639405468
 20
-9057.924787898912
  0
HATCH
  5
38D
330
1F
100
AcDbEntity
  8
Ech.1_5
 62
   252
440
 33554687
370
     5
100
AcDbHatch
 10
0.0
 20
0.0
 30
0.0
210
0.0
220
0.0
230
1.0
  2
SOLID
 70
     1
 71
     1
 91
        1
 92
        3
 72
     0
 73
     1
 93
        4
 10
2702.335973404386
 20
-9057.924787898912
 10
2703.169307403305
 20
-9057.924787898912
 10
2703.169307403305
 20
-9060.184509898958
 10
2702.335973404386
 20
-9060.184509898958
 97
        0
 75
     0
 76
     1
 98
        0
  0
LWPOLYLINE
  5
38E
330
1F
100
AcDbEntity
  8
Ech.1_5
 62
     7
370
     9
100
AcDbPolyline
 90
        5
 70
     0
 43
0.0
 10
2702.335973404386
 20
-9057.924787898912
 10
2703.169307403305
 20
-9057.924787898912
 10
2703.169307403305
 20
-9060.184509898958
 10
2702.335973404386
 20
-9060.184509898958
 10
2702.335973404386
 20
-9057.924787898912
  0
HATCH
  5
38F
330
1F
100
AcDbEntity
  8
Ech.1_5
 62
   252
440
 33554687
370
     5
100
AcDbHatch
 10
0.0
 20
0.0
 30
0.0
210
0.0
220
0.0
230
1.0
  2
SOLID
 70
     1
 71
     1
 91
        1
 92
        3
 72
     0
 73
     1
 93
        4
 10
2703.169306404927
 20
-9057.924787898912
 10
2704.002640403845
 20
-9057.924787898912
 10
2704.002640403845
 20
-9060.184509898958
 10
2703.169306404927
 20
-9060.184509898958
 97
        0
 75
     0
 76
     1
 98
        0
  0
LWPOLYLINE
  5
390
330
1F
100
AcDbEntity
  8
Ech.1_5
 62
     7
370
     9
100
AcDbPolyline
 90
        5
 70
     0
 43
0.0
 10
2703.169306404927
 20
-9057.924787898912
 10
2704.002640403845
 20
-9057.924787898912
 10
2704.002640403845
 20
-9060.184509898958
 10
2703.169306404927
 20
-9060.184509898958
 10
2703.169306404927
 20
-9057.924787898912
  0
HATCH
  5
391
330
1F
100
AcDbEntity
  8
Ech.1_5
 62
   252
440
 33554687
370
     5
100
AcDbHatch
 10
0.0
 20
0.0
 30
0.0
210
0.0
220
0.0
230
1.0
  2
SOLID
 70
     1
 71
     1
 91
        1
 92
        3
 72
     0
 73
     1
 93
        4
 10
2704.002640403845
 20
-9057.924787898912
 10
2704.835974402764
 20
-9057.924787898912
 10
2704.835974402764
 20
-9060.184509898958
 10
2704.002640403845
 20
-9060.184509898958
 97
        0
 75
     0
 76
     1
 98
        0
  0
LWPOLYLINE
  5
392
330
1F
100
AcDbEntity
  8
Ech.1_5
 62
     7
370
     9
100
AcDbPolyline
 90
        5
 70
     0
 43
0.0
 10
2704.002640403845
 20
-9057.924787898912
 10
2704.835974402764
 20
-9057.924787898912
 10
2704.835974402764
 20
-9060.184509898958
 10
2704.002640403845
 20
-9060.184509898958
 10
2704.002640403845
 20
-9057.924787898912
  0
HATCH
  5
393
330
1F
100
AcDbEntity
  8
Ech.1_5
 62
   252
440
 33554687
370
     5
100
AcDbHatch
 10
0.0
 20
0.0
 30
0.0
210
0.0
220
0.0
230
1.0
  2
SOLID
 70
     1
 71
     1
 91
        1
 92
        3
 72
     0
 73
     1
 93
        4
 10
2704.835972406008
 20
-9057.924787898912
 10
2705.669306404927
 20
-9057.924787898912
 10
2705.669306404927
 20
-9060.184509898958
 10
2704.835972406008
 20
-9060.184509898958
 97
        0
 75
     0
 76
     1
 98
        0
  0
LWPOLYLINE
  5
394
330
1F
100
AcDbEntity
  8
Ech.1_5
 62
     7
370
     9
100
AcDbPolyline
 90
        5
 70
     0
 43
0.0
 10
2704.835972406008
 20
-9057.924787898912
 10
2705.669306404927
 20
-9057.924787898912
 10
2705.669306404927
 20
-9060.184509898958
 10
2704.835972406008
 20
-9060.184509898958
 10
2704.835972406008
 20
-9057.924787898912
  0
HATCH
  5
395
330
1F
100
AcDbEntity
  8
Ech.1_5
 62
   252
440
 33554687
370
     5
100
AcDbHatch
 10
0.0
 20
0.0
 30
0.0
210
0.0
220
0.0
230
1.0
  2
SOLID
 70
     1
 71
     1
 91
        1
 92
        3
 72
     0
 73
     1
 93
        4
 10
2705.669306404927
 20
-9057.924787898912
 10
2706.502640403845
 20
-9057.924787898912
 10
2706.502640403845
 20
-9060.184509898958
 10
2705.669306404927
 20
-9060.184509898958
 97
        0
 75
     0
 76
     1
 98
        0
  0
LWPOLYLINE
  5
396
330
1F
100
AcDbEntity
  8
Ech.1_5
 62
     7
370
     9
100
AcDbPolyline
 90
        5
 70
     0
 43
0.0
 10
2705.669306404927
 20
-9057.924787898912
 10
2706.502640403845
 20
-9057.924787898912
 10
2706.502640403845
 20
-9060.184509898958
 10
2705.669306404927
 20
-9060.184509898958
 10
2705.669306404927
 20
-9057.924787898912
  0
HATCH
  5
397
330
1F
100
AcDbEntity
  8
Ech.1_5
 62
   252
440
 33554687
370
     5
100
AcDbHatch
 10
0.0
 20
0.0
 30
0.0
210
0.0
220
0.0
230
1.0
  2
SOLID
 70
     1
 71
     1
 91
        1
 92
        3
 72
     0
 73
     1
 93
        4
 10
2706.502640403845
 20
-9057.924787898912
 10
2707.335974402764
 20
-9057.924787898912
 10
2707.335974402764
 20
-9060.184509898958
 10
2706.502640403845
 20
-9060.184509898958
 97
        0
 75
     0
 76
     1
 98
        0
  0
LWPOLYLINE
  5
398
330
1F
100
AcDbEntity
  8
Ech.1_5
 62
     7
370
     9
100
AcDbPolyline
 90
        5
 70
     0
 43
0.0
 10
2706.502640403845
 20
-9057.924787898912
 10
2707.335974402764
 20
-9057.924787898912
 10
2707.335974402764
 20
-9060.184509898958
 10
2706.502640403845
 20
-9060.184509898958
 10
2706.502640403845
 20
-9057.924787898912
  0
HATCH
  5
399
330
1F
100
AcDbEntity
  8
Ech.1_5
 62
   252
440
 33554687
370
     5
100
AcDbHatch
 10
0.0
 20
0.0
 30
0.0
210
0.0
220
0.0
230
1.0
  2
SOLID
 70
     1
 71
     1
 91
        1
 92
        3
 72
     0
 73
     1
 93
        4
 10
2707.335974402764
 20
-9057.924787898912
 10
2708.169308401684
 20
-9057.924787898912
 10
2708.169308401682
 20
-9060.184509898958
 10
2707.335974402764
 20
-9060.184509898958
 97
        0
 75
     0
 76
     1
 98
        0
  0
LWPOLYLINE
  5
39A
330
1F
100
AcDbEntity
  8
Ech.1_5
 62
     7
370
     9
100
AcDbPolyline
 90
        5
 70
     0
 43
0.0
 10
2707.335974402764
 20
-9057.924787898912
 10
2708.169308401684
 20
-9057.924787898912
 10
2708.169308401682
 20
-9060.184509898958
 10
2707.335974402764
 20
-9060.184509898958
 10
2707.335974402764
 20
-9057.924787898912
  0
HATCH
  5
39B
330
1F
100
AcDbEntity
  8
Ech.1_5
 62
   252
440
 33554687
370
     5
100
AcDbHatch
 10
0.0
 20
0.0
 30
0.0
210
0.0
220
0.0
230
1.0
  2
SOLID
 70
     1
 71
     1
 91
        1
 92
        3
 72
     0
 73
     1
 93
        4
 10
2708.169308401684
 20
-9057.924787898912
 10
2709.002642400601
 20
-9057.924787898912
 10
2709.002642400601
 20
-9060.184509898958
 10
2708.169308401682
 20
-9060.184509898958
 97
        0
 75
     0
 76
     1
 98
        0
  0
LWPOLYLINE
  5
39C
330
1F
100
AcDbEntity
  8
Ech.1_5
 62
     7
370
     9
100
AcDbPolyline
 90
        5
 70
     0
 43
0.0
 10
2708.169308401684
 20
-9057.924787898912
 10
2709.002642400601
 20
-9057.924787898912
 10
2709.002642400601
 20
-9060.184509898958
 10
2708.169308401682
 20
-9060.184509898958
 10
2708.169308401684
 20
-9057.924787898912
  0
HATCH
  5
39D
330
1F
100
AcDbEntity
  8
Ech.1_5
 62
   252
440
 33554687
370
     5
100
AcDbHatch
 10
0.0
 20
0.0
 30
0.0
210
0.0
220
0.0
230
1.0
  2
SOLID
 70
     1
 71
     1
 91
        1
 92
        3
 72
     0
 73
     1
 93
        4
 10
2709.002640403845
 20
-9057.924787898912
 10
2709.835974402764
 20
-9057.924787898912
 10
2709.835974402764
 20
-9060.184509898958
 10
2709.002640403845
 20
-9060.184509898958
 97
        0
 75
     0
 76
     1
 98
        0
  0
LWPOLYLINE
  5
39E
330
1F
100
AcDbEntity
  8
Ech.1_5
 62
     7
370
     9
100
AcDbPolyline
 90
        5
 70
     0
 43
0.0
 10
2709.002640403845
 20
-9057.924787898912
 10
2709.835974402764
 20
-9057.924787898912
 10
2709.835974402764
 20
-9060.184509898958
 10
2709.002640403845
 20
-9060.184509898958
 10
2709.002640403845
 20
-9057.924787898912
  0
HATCH
  5
39F
330
1F
100
AcDbEntity
  8
Ech.1_5
 62
   252
440
 33554687
370
     5
100
AcDbHatch
 10
0.0
 20
0.0
 30
0.0
210
0.0
220
0.0
230
1.0
  2
SOLID
 70
     1
 71
     1
 91
        1
 92
        3
 72
     0
 73
     1
 93
        4
 10
2709.835973404386
 20
-9057.924787898912
 10
2710.669307403305
 20
-9057.924787898912
 10
2710.669307403305
 20
-9060.184509898958
 10
2709.835973404386
 20
-9060.184509898958
 97
        0
 75
     0
 76
     1
 98
        0
  0
LWPOLYLINE
  5
3A0
330
1F
100
AcDbEntity
  8
Ech.1_5
 62
     7
370
     9
100
AcDbPolyline
 90
        5
 70
     0
 43
0.0
 10
2709.835973404386
 20
-9057.924787898912
 10
2710.669307403305
 20
-9057.924787898912
 10
2710.669307403305
 20
-9060.184509898958
 10
2709.835973404386
 20
-9060.184509898958
 10
2709.835973404386
 20
-9057.924787898912
  0
HATCH
  5
3A1
330
1F
100
AcDbEntity
  8
Ech.1_5
 62
   252
440
 33554687
370
     5
100
AcDbHatch
 10
0.0
 20
0.0
 30
0.0
210
0.0
220
0.0
230
1.0
  2
SOLID
 70
     1
 71
     1
 91
        1
 92
        3
 72
     0
 73
     1
 93
        4
 10
2710.669307403305
 20
-9057.924787898912
 10
2711.502641402223
 20
-9057.924787898912
 10
2711.502641402223
 20
-9060.184509898958
 10
2710.669307403305
 20
-9060.184509898958
 97
        0
 75
     0
 76
     1
 98
        0
  0
LWPOLYLINE
  5
3A2
330
1F
100
AcDbEntity
  8
Ech.1_5
 62
     7
370
     9
100
AcDbPolyline
 90
        5
 70
     0
 43
0.0
 10
2710.669307403305
 20
-9057.924787898912
 10
2711.502641402223
 20
-9057.924787898912
 10
2711.502641402223
 20
-9060.184509898958
 10
2710.669307403305
 20
-9060.184509898958
 10
2710.669307403305
 20
-9057.924787898912
  0
HATCH
  5
3A3
330
1F
100
AcDbEntity
  8
Ech.1_5
 62
   252
440
 33554687
370
     5
100
AcDbHatch
 10
0.0
 20
0.0
 30
0.0
210
0.0
220
0.0
230
1.0
  2
SOLID
 70
     1
 71
     1
 91
        1
 92
        3
 72
     0
 73
     1
 93
        4
 10
2711.502640403845
 20
-9057.924787898912
 10
2712.335974402764
 20
-9057.924787898912
 10
2712.335974402764
 20
-9060.184509898958
 10
2711.502640403845
 20
-9060.184509898958
 97
        0
 75
     0
 76
     1
 98
        0
  0
LWPOLYLINE
  5
3A4
330
1F
100
AcDbEntity
  8
Ech.1_5
 62
     7
370
     9
100
AcDbPolyline
 90
        5
 70
     0
 43
0.0
 10
2711.502640403845
 20
-9057.924787898912
 10
2712.335974402764
 20
-9057.924787898912
 10
2712.335974402764
 20
-9060.184509898958
 10
2711.502640403845
 20
-9060.184509898958
 10
2711.502640403845
 20
-9057.924787898912
  0
HATCH
  5
3A5
330
1F
100
AcDbEntity
  8
Ech.1_5
 62
   252
440
 33554687
370
     5
100
AcDbHatch
 10
0.0
 20
0.0
 30
0.0
210
0.0
220
0.0
230
1.0
  2
SOLID
 70
     1
 71
     1
 91
        1
 92
        3
 72
     0
 73
     1
 93
        4
 10
2712.335974402764
 20
-9057.924787898912
 10
2713.169308401682
 20
-9057.924787898912
 10
2713.169308401682
 20
-9060.184509898958
 10
2712.335974402764
 20
-9060.184509898958
 97
        0
 75
     0
 76
     1
 98
        0
  0
LWPOLYLINE
  5
3A6
330
1F
100
AcDbEntity
  8
Ech.1_5
 62
     7
370
     9
100
AcDbPolyline
 90
        5
 70
     0
 43
0.0
 10
2712.335974402764
 20
-9057.924787898912
 10
2713.169308401682
 20
-9057.924787898912
 10
2713.169308401682
 20
-9060.184509898958
 10
2712.335974402764
 20
-9060.184509898958
 10
2712.335974402764
 20
-9057.924787898912
  0
HATCH
  5
3A7
330
1F
100
AcDbEntity
  8
Ech.1_5
 62
   252
440
 33554687
370
     5
100
AcDbHatch
 10
0.0
 20
0.0
 30
0.0
210
0.0
220
0.0
230
1.0
  2
SOLID
 70
     1
 71
     1
 91
        1
 92
        3
 72
     0
 73
     1
 93
        4
 10
2713.169306404927
 20
-9057.924787898912
 10
2714.002640403845
 20
-9057.924787898912
 10
2714.002640403845
 20
-9060.184509898958
 10
2713.169306404927
 20
-9060.184509898958
 97
        0
 75
     0
 76
     1
 98
        0
  0
LWPOLYLINE
  5
3A8
330
1F
100
AcDbEntity
  8
Ech.1_5
 62
     7
370
     9
100
AcDbPolyline
 90
        5
 70
     0
 43
0.0
 10
2713.169306404927
 20
-9057.924787898912
 10
2714.002640403845
 20
-9057.924787898912
 10
2714.002640403845
 20
-9060.184509898958
 10
2713.169306404927
 20
-9060.184509898958
 10
2713.169306404927
 20
-9057.924787898912
  0
HATCH
  5
3A9
330
1F
100
AcDbEntity
  8
Ech.1_5
 62
   252
440
 33554687
370
     5
100
AcDbHatch
 10
0.0
 20
0.0
 30
0.0
210
0.0
220
0.0
230
1.0
  2
SOLID
 70
     1
 71
     1
 91
        1
 92
        3
 72
     0
 73
     1
 93
        4
 10
2714.00263840709
 20
-9057.924787898912
 10
2714.835972406008
 20
-9057.924787898912
 10
2714.835972406008
 20
-9060.184509898958
 10
2714.00263840709
 20
-9060.184509898958
 97
        0
 75
     0
 76
     1
 98
        0
  0
LWPOLYLINE
  5
3AA
330
1F
100
AcDbEntity
  8
Ech.1_5
 62
     7
370
     9
100
AcDbPolyline
 90
        5
 70
     0
 43
0.0
 10
2714.00263840709
 20
-9057.924787898912
 10
2714.835972406008
 20
-9057.924787898912
 10
2714.835972406008
 20
-9060.184509898958
 10
2714.00263840709
 20
-9060.184509898958
 10
2714.00263840709
 20
-9057.924787898912
  0
HATCH
  5
3AB
330
1F
100
AcDbEntity
  8
Ech.1_5
 62
   252
440
 33554687
370
     5
100
AcDbHatch
 10
0.0
 20
0.0
 30
0.0
210
0.0
220
0.0
230
1.0
  2
SOLID
 70
     1
 71
     1
 91
        1
 92
        3
 72
     0
 73
     1
 93
        4
 10
2714.835972406008
 20
-9057.924787898912
 10
2715.669306404927
 20
-9057.924787898912
 10
2715.669306404927
 20
-9060.184509898958
 10
2714.835972406008
 20
-9060.184509898958
 97
        0
 75
     0
 76
     1
 98
        0
  0
LWPOLYLINE
  5
3AC
330
1F
100
AcDbEntity
  8
Ech.1_5
 62
     7
370
     9
100
AcDbPolyline
 90
        5
 70
     0
 43
0.0
 10
2714.835972406008
 20
-9057.924787898912
 10
2715.669306404927
 20
-9057.924787898912
 10
2715.669306404927
 20
-9060.184509898958
 10
2714.835972406008
 20
-9060.184509898958
 10
2714.835972406008
 20
-9057.924787898912
  0
HATCH
  5
3AD
330
1F
100
AcDbEntity
  8
Ech.1_5
 62
   252
440
 33554687
370
     5
100
AcDbHatch
 10
0.0
 20
0.0
 30
0.0
210
0.0
220
0.0
230
1.0
  2
SOLID
 70
     1
 71
     1
 91
        1
 92
        3
 72
     0
 73
     1
 93
        4
 10
2715.669306404927
 20
-9057.924787898912
 10
2716.502640403845
 20
-9057.924787898912
 10
2716.502640403845
 20
-9060.184509898958
 10
2715.669306404927
 20
-9060.184509898958
 97
        0
 75
     0
 76
     1
 98
        0
  0
LWPOLYLINE
  5
3AE
330
1F
100
AcDbEntity
  8
Ech.1_5
 62
     7
370
     9
100
AcDbPolyline
 90
        5
 70
     0
 43
0.0
 10
2715.669306404927
 20
-9057.924787898912
 10
2716.502640403845
 20
-9057.924787898912
 10
2716.502640403845
 20
-9060.184509898958
 10
2715.669306404927
 20
-9060.184509898958
 10
2715.669306404927
 20
-9057.924787898912
  0
HATCH
  5
3AF
330
1F
100
AcDbEntity
  8
Ech.1_5
 62
   252
440
 33554687
370
     5
100
AcDbHatch
 10
0.0
 20
0.0
 30
0.0
210
0.0
220
0.0
230
1.0
  2
SOLID
 70
     1
 71
     1
 91
        1
 92
        3
 72
     0
 73
     1
 93
        4
 10
2716.502640403845
 20
-9057.924787898912
 10
2717.335974402764
 20
-9057.924787898912
 10
2717.335974402764
 20
-9060.184509898958
 10
2716.502640403845
 20
-9060.184509898958
 97
        0
 75
     0
 76
     1
 98
        0
  0
LWPOLYLINE
  5
3B0
330
1F
100
AcDbEntity
  8
Ech.1_5
 62
     7
370
     9
100
AcDbPolyline
 90
        5
 70
     0
 43
0.0
 10
2716.502640403845
 20
-9057.924787898912
 10
2717.335974402764
 20
-9057.924787898912
 10
2717.335974402764
 20
-9060.184509898958
 10
2716.502640403845
 20
-9060.184509898958
 10
2716.502640403845
 20
-9057.924787898912
  0
HATCH
  5
3B1
330
1F
100
AcDbEntity
  8
Ech.1_5
 62
   252
440
 33554687
370
     5
100
AcDbHatch
 10
0.0
 20
0.0
 30
0.0
210
0.0
220
0.0
230
1.0
  2
SOLID
 70
     1
 71
     1
 91
        1
 92
        3
 72
     0
 73
     1
 93
        4
 10
2717.335972406008
 20
-9057.924787898912
 10
2718.169306404927
 20
-9057.924787898912
 10
2718.169306404927
 20
-9060.184509898958
 10
2717.335972406008
 20
-9060.184509898958
 97
        0
 75
     0
 76
     1
 98
        0
  0
LWPOLYLINE
  5
3B2
330
1F
100
AcDbEntity
  8
Ech.1_5
 62
     7
370
     9
100
AcDbPolyline
 90
        5
 70
     0
 43
0.0
 10
2717.335972406008
 20
-9057.924787898912
 10
2718.169306404927
 20
-9057.924787898912
 10
2718.169306404927
 20
-9060.184509898958
 10
2717.335972406008
 20
-9060.184509898958
 10
2717.335972406008
 20
-9057.924787898912
  0
HATCH
  5
3B3
330
1F
100
AcDbEntity
  8
Ech.1_5
 62
   252
440
 33554687
370
     5
100
AcDbHatch
 10
0.0
 20
0.0
 30
0.0
210
0.0
220
0.0
230
1.0
  2
SOLID
 70
     1
 71
     1
 91
        1
 92
        3
 72
     0
 73
     1
 93
        4
 10
2718.169305406549
 20
-9057.924787898912
 10
2719.002639405468
 20
-9057.924787898912
 10
2719.002639405468
 20
-9060.184509898958
 10
2718.169305406549
 20
-9060.184509898958
 97
        0
 75
     0
 76
     1
 98
        0
  0
LWPOLYLINE
  5
3B4
330
1F
100
AcDbEntity
  8
Ech.1_5
 62
     7
370
     9
100
AcDbPolyline
 90
        5
 70
     0
 43
0.0
 10
2718.169305406549
 20
-9057.924787898912
 10
2719.002639405468
 20
-9057.924787898912
 10
2719.002639405468
 20
-9060.184509898958
 10
2718.169305406549
 20
-9060.184509898958
 10
2718.169305406549
 20
-9057.924787898912
  0
HATCH
  5
3B5
330
1F
100
AcDbEntity
  8
Ech.1_5
 62
   252
440
 33554687
370
     5
100
AcDbHatch
 10
0.0
 20
0.0
 30
0.0
210
0.0
220
0.0
230
1.0
  2
SOLID
 70
     1
 71
     1
 91
        1
 92
        3
 72
     0
 73
     1
 93
        4
 10
2719.002639405468
 20
-9057.924787898912
 10
2719.835973404386
 20
-9057.924787898912
 10
2719.835973404386
 20
-9060.184509898958
 10
2719.002639405468
 20
-9060.184509898958
 97
        0
 75
     0
 76
     1
 98
        0
  0
LWPOLYLINE
  5
3B6
330
1F
100
AcDbEntity
  8
Ech.1_5
 62
     7
370
     9
100
AcDbPolyline
 90
        5
 70
     0
 43
0.0
 10
2719.002639405468
 20
-9057.924787898912
 10
2719.835973404386
 20
-9057.924787898912
 10
2719.835973404386
 20
-9060.184509898958
 10
2719.002639405468
 20
-9060.184509898958
 10
2719.002639405468
 20
-9057.924787898912
  0
HATCH
  5
3B7
330
1F
100
AcDbEntity
  8
Ech.1_5
 62
   252
440
 33554687
370
     5
100
AcDbHatch
 10
0.0
 20
0.0
 30
0.0
210
0.0
220
0.0
230
1.0
  2
SOLID
 70
     1
 71
     1
 91
        1
 92
        3
 72
     0
 73
     1
 93
        4
 10
2719.835972406008
 20
-9057.924787898912
 10
2720.669306404927
 20
-9057.924787898912
 10
2720.669306404927
 20
-9060.184509898958
 10
2719.835972406008
 20
-9060.184509898958
 97
        0
 75
     0
 76
     1
 98
        0
  0
LWPOLYLINE
  5
3B8
330
1F
100
AcDbEntity
  8
Ech.1_5
 62
     7
370
     9
100
AcDbPolyline
 90
        5
 70
     0
 43
0.0
 10
2719.835972406008
 20
-9057.924787898912
 10
2720.669306404927
 20
-9057.924787898912
 10
2720.669306404927
 20
-9060.184509898958
 10
2719.835972406008
 20
-9060.184509898958
 10
2719.835972406008
 20
-9057.924787898912
  0
HATCH
  5
3B9
330
1F
100
AcDbEntity
  8
Ech.1_5
 62
   252
440
 33554687
370
     5
100
AcDbHatch
 10
0.0
 20
0.0
 30
0.0
210
0.0
220
0.0
230
1.0
  2
SOLID
 70
     1
 71
     1
 91
        1
 92
        3
 72
     0
 73
     1
 93
        4
 10
2720.669306404927
 20
-9057.924787898912
 10
2721.502640403845
 20
-9057.924787898912
 10
2721.502640403845
 20
-9060.184509898958
 10
2720.669306404927
 20
-9060.184509898958
 97
        0
 75
     0
 76
     1
 98
        0
  0
LWPOLYLINE
  5
3BA
330
1F
100
AcDbEntity
  8
Ech.1_5
 62
     7
370
     9
100
AcDbPolyline
 90
        5
 70
     0
 43
0.0
 10
2720.669306404927
 20
-9057.924787898912
 10
2721.502640403845
 20
-9057.924787898912
 10
2721.502640403845
 20
-9060.184509898958
 10
2720.669306404927
 20
-9060.184509898958
 10
2720.669306404927
 20
-9057.924787898912
  0
HATCH
  5
3BB
330
1F
100
AcDbEntity
  8
Ech.1_5
 62
   252
440
 33554687
370
     5
100
AcDbHatch
 10
0.0
 20
0.0
 30
0.0
210
0.0
220
0.0
230
1.0
  2
SOLID
 70
     1
 71
     1
 91
        1
 92
        3
 72
     0
 73
     1
 93
        4
 10
2721.50263840709
 20
-9057.924787898912
 10
2722.335972406008
 20
-9057.924787898912
 10
2722.335972406008
 20
-9060.184509898958
 10
2721.50263840709
 20
-9060.184509898958
 97
        0
 75
     0
 76
     1
 98
        0
  0
LWPOLYLINE
  5
3BC
330
1F
100
AcDbEntity
  8
Ech.1_5
 62
     7
370
     9
100
AcDbPolyline
 90
        5
 70
     0
 43
0.0
 10
2721.50263840709
 20
-9057.924787898912
 10
2722.335972406008
 20
-9057.924787898912
 10
2722.335972406008
 20
-9060.184509898958
 10
2721.50263840709
 20
-9060.184509898958
 10
2721.50263840709
 20
-9057.924787898912
  0
HATCH
  5
3BD
330
1F
100
AcDbEntity
  8
Ech.1_5
 62
   252
440
 33554687
370
     5
100
AcDbHatch
 10
0.0
 20
0.0
 30
0.0
210
0.0
220
0.0
230
1.0
  2
SOLID
 70
     1
 71
     1
 91
        1
 92
        3
 72
     0
 73
     1
 93
        4
 10
2722.335972406008
 20
-9057.924787898912
 10
2723.169306404927
 20
-9057.924787898912
 10
2723.169306404927
 20
-9060.184509898958
 10
2722.335972406008
 20
-9060.184509898958
 97
        0
 75
     0
 76
     1
 98
        0
  0
LWPOLYLINE
  5
3BE
330
1F
100
AcDbEntity
  8
Ech.1_5
 62
     7
370
     9
100
AcDbPolyline
 90
        5
 70
     0
 43
0.0
 10
2722.335972406008
 20
-9057.924787898912
 10
2723.169306404927
 20
-9057.924787898912
 10
2723.169306404927
 20
-9060.184509898958
 10
2722.335972406008
 20
-9060.184509898958
 10
2722.335972406008
 20
-9057.924787898912
  0
HATCH
  5
3BF
330
1F
100
AcDbEntity
  8
Ech.1_5
 62
   252
440
 33554687
370
     5
100
AcDbHatch
 10
0.0
 20
0.0
 30
0.0
210
0.0
220
0.0
230
1.0
  2
SOLID
 70
     1
 71
     1
 91
        1
 92
        3
 72
     0
 73
     1
 93
        4
 10
2723.169306404927
 20
-9057.924787898912
 10
2724.002640403845
 20
-9057.924787898912
 10
2724.002640403845
 20
-9060.184509898958
 10
2723.169306404927
 20
-9060.184509898958
 97
        0
 75
     0
 76
     1
 98
        0
  0
LWPOLYLINE
  5
3C0
330
1F
100
AcDbEntity
  8
Ech.1_5
 62
     7
370
     9
100
AcDbPolyline
 90
        5
 70
     0
 43
0.0
 10
2723.169306404927
 20
-9057.924787898912
 10
2724.002640403845
 20
-9057.924787898912
 10
2724.002640403845
 20
-9060.184509898958
 10
2723.169306404927
 20
-9060.184509898958
 10
2723.169306404927
 20
-9057.924787898912
  0
HATCH
  5
3C1
330
1F
100
AcDbEntity
  8
Ech.1_5
 62
   252
440
 33554687
370
     5
100
AcDbHatch
 10
0.0
 20
0.0
 30
0.0
210
0.0
220
0.0
230
1.0
  2
SOLID
 70
     1
 71
     1
 91
        1
 92
        3
 72
     0
 73
     1
 93
        4
 10
2724.002640403845
 20
-9057.924787898912
 10
2724.835974402764
 20
-9057.924787898912
 10
2724.835974402764
 20
-9060.184509898958
 10
2724.002640403845
 20
-9060.184509898958
 97
        0
 75
     0
 76
     1
 98
        0
  0
LWPOLYLINE
  5
3C2
330
1F
100
AcDbEntity
  8
Ech.1_5
 62
     7
370
     9
100
AcDbPolyline
 90
        5
 70
     0
 43
0.0
 10
2724.002640403845
 20
-9057.924787898912
 10
2724.835974402764
 20
-9057.924787898912
 10
2724.835974402764
 20
-9060.184509898958
 10
2724.002640403845
 20
-9060.184509898958
 10
2724.002640403845
 20
-9057.924787898912
  0
HATCH
  5
3C3
330
1F
100
AcDbEntity
  8
Ech.1_5
 62
   252
440
 33554687
370
     5
100
AcDbHatch
 10
0.0
 20
0.0
 30
0.0
210
0.0
220
0.0
230
1.0
  2
SOLID
 70
     1
 71
     1
 91
        1
 92
        3
 72
     1
 73
     1
 93
        4
 10
2729.535056404513
 20
-9060.184509898958
 42
0.0
 10
2728.169304408171
 20
-9060.184509898958
 42
0.0
 10
2728.169304408171
 20
-9057.924787898912
 42
0.0
 10
2729.535056404513
 20
-9057.924787898912
 42
0.3513591548518968
 97
        0
 75
     0
 76
     1
 98
        0
  0
LWPOLYLINE
  5
3C4
330
1F
100
AcDbEntity
  8
Ech.1_5
 62
     7
370
     9
100
AcDbPolyline
 90
        5
 70
     0
 43
0.0
 10
2729.535056404513
 20
-9060.184509898958
 10
2728.169304408171
 20
-9060.184509898958
 10
2728.169304408171
 20
-9057.924787898912
 10
2729.535056404513
 20
-9057.924787898912
 42
0.3513591548518972
 10
2729.535056404513
 20
-9060.184509898958
  0
HATCH
  5
3C5
330
1F
100
AcDbEntity
  8
Ech.1_5
 62
   252
440
 33554687
370
     5
100
AcDbHatch
 10
0.0
 20
0.0
 30
0.0
210
0.0
220
0.0
230
1.0
  2
SOLID
 70
     1
 71
     1
 91
        1
 92
        3
 72
     1
 73
     1
 93
        3
 10
2732.197083405894
 20
-9059.054648898964
 42
0.0
 10
2729.535056404513
 20
-9060.184509898958
 42
-0.3513591548518968
 10
2729.535056404513
 20
-9057.924787898912
 42
0.0
 97
        0
 75
     0
 76
     1
 98
        0
  0
LWPOLYLINE
  5
3C6
330
1F
100
AcDbEntity
  8
Ech.1_5
 62
     7
370
     9
100
AcDbPolyline
 90
        4
 70
     0
 43
0.0
 10
2732.197083405894
 20
-9059.054648898964
 10
2729.535056404513
 20
-9060.184509898958
 42
-0.3513591548518956
 10
2729.535056404513
 20
-9057.924787898912
 10
2732.197083405894
 20
-9059.054648898964
  0
HATCH
  5
3C7
330
1F
100
AcDbEntity
  8
Ech.1_5
 62
   252
440
 33554687
370
     5
100
AcDbHatch
 10
0.0
 20
0.0
 30
0.0
210
0.0
220
0.0
230
1.0
  2
SOLID
 70
     1
 71
     1
 91
        1
 92
        3
 72
     1
 73
     1
 93
        6
 10
2689.00263840709
 20
-9057.924787898919
 42
0.0
 10
2687.252639405173
 20
-9057.924787898912
 42
-0.4142135727489641
 10
2686.697083405894
 20
-9057.369231898934
 42
0.0
 10
2686.697083405894
 20
-9060.740065899001
 42
-0.4142135726680727
 10
2687.252639405173
 20
-9060.184509898958
 42
0.0
 10
2689.00263840709
 20
-9060.184509898958
 42
0.0
 97
        0
 75
     0
 76
     1
 98
        0
  0
LWPOLYLINE
  5
3C8
330
1F
100
AcDbEntity
  8
Ech.1_5
 62
     7
370
     9
100
AcDbPolyline
 90
        7
 70
     0
 43
0.0
 10
2689.00263840709
 20
-9057.924787898919
 10
2687.252639405173
 20
-9057.924787898912
 42
-0.4142135727497837
 10
2686.697083405894
 20
-9057.369231898934
 10
2686.697083405894
 20
-9060.740065899001
 42
-0.414213572666436
 10
2687.252639405173
 20
-9060.184509898958
 10
2689.00263840709
 20
-9060.184509898958
 10
2689.00263840709
 20
-9057.924787898919
  0
HATCH
  5
3C9
330
1F
100
AcDbEntity
  8
Ech.1_5
 62
   252
440
 33554687
370
     5
100
AcDbHatch
 10
0.0
 20
0.0
 30
0.0
210
0.0
220
0.0
230
1.0
  2
SOLID
 70
     1
 71
     1
 91
        1
 92
        1
 93
        2
 72
     1
 10
2686.391528404993
 20
-9056.53589887255
 11
2686.391528404993
 21
-9061.57339892532
 72
     2
 10
2698.954731795817
 20
-9059.054648898935
 40
12.81320339082451
 50
168.6632793503046
 51
191.3367206496955
 73
     0
 97
        0
 75
     0
 76
     1
 98
        0
  0
LWPOLYLINE
  5
3CA
330
1F
100
AcDbEntity
  8
Ech.1_5
 62
     7
370
     9
100
AcDbPolyline
 90
        3
 70
     0
 43
0.0
 10
2686.391528404993
 20
-9056.53589887255
 10
2686.391528404993
 20
-9061.57339892532
 42
-0.0992555820868614
 10
2686.391528404993
 20
-9056.53589887255
  0
HATCH
  5
3CB
330
1F
100
AcDbEntity
  8
Ech.1_5
 62
   252
440
 33554687
370
     5
100
AcDbHatch
 10
0.0
 20
0.0
 30
0.0
210
0.0
220
0.0
230
1.0
  2
SOLID
 70
     1
 71
     1
 91
        1
 92
        3
 72
     0
 73
     1
 93
        6
 10
2686.697083405894
 20
-9056.535898898976
 10
2686.697083405894
 20
-9057.369231898934
 10
2686.697083405894
 20
-9060.740065899001
 10
2686.697083405896
 20
-9061.573398898952
 10
2686.391528404993
 20
-9061.57339892532
 10
2686.391528404993
 20
-9056.53589887255
 97
        0
 75
     0
 76
     1
 98
        0
  0
LWPOLYLINE
  5
3CC
330
1F
100
AcDbEntity
  8
Ech.1_5
 62
     7
370
     9
100
AcDbPolyline
 90
        7
 70
     0
 43
0.0
 10
2686.697083405894
 20
-9056.535898898976
 10
2686.697083405894
 20
-9057.369231898934
 10
2686.697083405894
 20
-9060.740065899001
 10
2686.697083405896
 20
-9061.573398898952
 10
2686.391528404993
 20
-9061.57339892532
 10
2686.391528404993
 20
-9056.53589887255
 10
2686.697083405894
 20
-9056.535898898976
  0
HATCH
  5
3CD
330
1F
100
AcDbEntity
  8
Ech.1_5
 62
   252
440
 33554687
370
     5
100
AcDbHatch
 10
0.0
 20
0.0
 30
0.0
210
0.0
220
0.0
230
1.0
  2
SOLID
 70
     1
 71
     1
 91
        1
 92
        3
 72
     0
 73
     1
 93
        4
 10
2724.835974402764
 20
-9057.924787898912
 10
2725.669308401682
 20
-9057.924787898912
 10
2725.669308401682
 20
-9060.184509898958
 10
2724.835974402764
 20
-9060.184509898958
 97
        0
 75
     0
 76
     1
 98
        0
  0
LWPOLYLINE
  5
3CE
330
1F
100
AcDbEntity
  8
Ech.1_5
 62
     7
370
     9
100
AcDbPolyline
 90
        5
 70
     0
 43
0.0
 10
2724.835974402764
 20
-9057.924787898912
 10
2725.669308401682
 20
-9057.924787898912
 10
2725.669308401682
 20
-9060.184509898958
 10
2724.835974402764
 20
-9060.184509898958
 10
2724.835974402764
 20
-9057.924787898912
  0
LINE
  5
3CF
330
1F
100
AcDbEntity
  8
Ech.1_5
 62
   190
370
     9
100
AcDbLine
 10
2726.50263840709
 20
-9060.184509898958
 30
0.0
 11
2726.50263840709
 21
-9057.924787898912
 31
0.0
  0
LINE
  5
3D0
330
1F
100
AcDbEntity
  8
Ech.1_5
 62
   190
370
     9
100
AcDbLine
 10
2727.335972406008
 20
-9060.184509898958
 30
0.0
 11
2727.335972406008
 21
-9057.924787898912
 31
0.0
  0
LINE
  5
3D1
330
1F
100
AcDbEntity
  8
Ech.1_5
 62
   190
370
     9
100
AcDbLine
 10
2728.169304408171
 20
-9060.184509898958
 30
0.0
 11
2728.169304408171
 21
-9057.924787898912
 31
0.0
  0
LINE
  5
3D2
330
1F
100
AcDbEntity
  8
Ech.1_5
 62
   190
370
     9
100
AcDbLine
 10
2725.669306404927
 20
-9060.184509898958
 30
0.0
 11
2725.669306404927
 21
-9057.924787898912
 31
0.0
  0
HATCH
  5
3D3
330
1F
100
AcDbEntity
  8
Ech.1_5
 62
   252
440
 33554687
370
     5
100
AcDbHatch
 10
0.0
 20
0.0
 30
0.0
210
0.0
220
0.0
230
1.0
  2
SOLID
 70
     1
 71
     1
 91
        1
 92
        3
 72
     0
 73
     1
 93
        4
 10
2725.669304408171
 20
-9057.924787898912
 10
2726.50263840709
 20
-9057.924787898912
 10
2726.50263840709
 20
-9060.184509898958
 10
2725.669304408171
 20
-9060.184509898958
 97
        0
 75
     0
 76
     1
 98
        0
  0
LWPOLYLINE
  5
3D4
330
1F
100
AcDbEntity
  8
Ech.1_5
 62
     7
370
     9
100
AcDbPolyline
 90
        5
 70
     0
 43
0.0
 10
2725.669304408171
 20
-9057.924787898912
 10
2726.50263840709
 20
-9057.924787898912
 10
2726.50263840709
 20
-9060.184509898958
 10
2725.669304408171
 20
-9060.184509898958
 10
2725.669304408171
 20
-9057.924787898912
  0
HATCH
  5
3D5
330
1F
100
AcDbEntity
  8
Ech.1_5
 62
   252
440
 33554687
370
     5
100
AcDbHatch
 10
0.0
 20
0.0
 30
0.0
210
0.0
220
0.0
230
1.0
  2
SOLID
 70
     1
 71
     1
 91
        1
 92
        3
 72
     0
 73
     1
 93
        4
 10
2727.335970409253
 20
-9057.924787898912
 10
2728.169304408171
 20
-9057.924787898912
 10
2728.169304408171
 20
-9060.184509898958
 10
2727.335970409253
 20
-9060.184509898958
 97
        0
 75
     0
 76
     1
 98
        0
  0
LWPOLYLINE
  5
3D6
330
1F
100
AcDbEntity
  8
Ech.1_5
 62
     7
370
     9
100
AcDbPolyline
 90
        5
 70
     0
 43
0.0
 10
2727.335970409253
 20
-9057.924787898912
 10
2728.169304408171
 20
-9057.924787898912
 10
2728.169304408171
 20
-9060.184509898958
 10
2727.335970409253
 20
-9060.184509898958
 10
2727.335970409253
 20
-9057.924787898912
  0
LWPOLYLINE
  5
3D7
330
1F
100
AcDbEntity
  8
Ech.1_5
 62
   202
420
  8519880
370
    50
100
AcDbPolyline
 90
        4
 70
     0
 43
0.0
 10
2761.309725621636
 20
-9108.974013757761
 10
2761.309725621636
 20
-9093.98488033776
 10
2755.629112661635
 20
-9090.050148197759
 10
2755.629112661635
 20
-9071.571718187759
  0
LWPOLYLINE
  5
3D8
330
1F
100
AcDbEntity
  8
Ech.1_5
 62
   202
420
  8519880
370
    50
100
AcDbPolyline
 90
        4
 70
     0
 43
0.0
 10
2721.138395951636
 20
-9037.523139778965
 10
2748.728423541635
 20
-9036.561989158963
 42
-0.3516434700004065
 10
2759.205332011637
 20
-9046.477297568963
 10
2759.205332011637
 20
-9090.477249838965
  0
LWPOLYLINE
  5
3D9
330
1F
100
AcDbEntity
  8
Ech.1_5
 62
   190
370
    20
100
AcDbPolyline
 90
        3
 70
     0
 43
0.0
 10
2725.135294422744
 20
-9068.884279885882
 10
2656.760106514609
 20
-9141.177209553105
 10
2636.760106514609
 20
-9141.177209553105
  0
INSERT
  5
3DA
330
1F
100
AcDbEntity
  8
Ech.1_5
 62
   190
370
    20
100
AcDbBlockReference
  2
cw-line-extremity4
 10
2725.135294422744
 20
-9068.884279885882
 30
0.0
 50
226.5953299170677
  0
MTEXT
  5
3DB
330
1F
100
AcDbEntity
  8
Ech.1_5
 62
     7
100
AcDbMText
 10
3095.764853865226
 20
-9072.784147568964
 30
0.0
 40
13.75
 41
153.6904582824791
 46
0.0
 71
     1
 72
     1
  1
{\fArial|b0|i0;\W1.000000;\H13.750000;\c16711848;Gaine Ø < 16mm}
 73
     1
 44
1.07999975538982
  0
MTEXT
  5
3DC
330
1F
100
AcDbEntity
  8
Ech.1_5
 62
     4
420
    65535
100
AcDbMText
 10
2926.372769093937
 20
-9643.788109370496
 30
0.0
 40
12.5
 41
488.3428846351931
 46
0.0
 71
     2
 72
     1
  1
{\fArial|b0|i0;\W1.000000;\H12.500000;\c16711848;Vue en coupe verticale}
 73
     1
 44
1.07999975538982
  0
MTEXT
  5
3DD
330
1F
100
AcDbEntity
  8
Ech.1_5
 62
     4
420
    65535
100
AcDbMText
 10
3246.692879114781
 20
-9643.620932877846
 30
0.0
 40
12.5
 41
127.2973354064957
 46
0.0
 71
     2
 72
     1
  1
{\fArial|b0|i0;\W1.000000;\H12.500000;\c16711848;Ech 1/5 }
 73
     1
 44
1.07999975538982
  0
MTEXT
  5
3DE
330
1F
100
AcDbEntity
  8
Ech.1_5
 62
     4
420
    65535
100
AcDbMText
 10
2597.873717778663
 20
-9643.349176575364
 30
0.0
 40
12.5
 41
143.6552179953542
 46
0.0
 71
     2
 72
     1
  1
{\fArial|b0|i0;\W1.000000;\H12.500000;\c16711848;BLEVT90-04}
 73
     1
 44
1.07999975538982
  0
MTEXT
  5
3DF
330
1F
100
AcDbEntity
  8
Ech.1_5
 62
   200
420
 11010303
100
AcDbMText
 10
2824.091546818029
 20
-9664.8057939122
 30
0.0
 40
5.625
 41
979.3750000000009
 46
0.0
 71
     2
 72
     1
  3
{\fArial|b0|i1;\W1.000000;\H5.625000;\c16711848; Il est rappelé à l'utilisateur qui consulte le site et utilise les informations qu'il contient, qu'il doit les utiliser sous sa seule responsabilité en vérifiant leur pertinence, leur cohérence et leur
  1
 non obsolescence.}
 73
     1
 44
1.07999975538982
  0
MTEXT
  5
3E0
330
1F
100
AcDbEntity
  8
Ech.1_5
 62
   200
420
 11010303
100
AcDbMText
 10
2824.091546818029
 20
-9698.657821805707
 30
0.0
 40
6.875
 41
978.1250000000009
 46
0.0
 71
     2
 72
     1
  1
{\fArial|b0|i1;\W1.000000;\H6.875000;\c16711848;www.catalogue-bois-construction.fr}
 73
     1
 44
1.07999975538982
  0
MTEXT
  5
3E1
330
1F
100
AcDbEntity
  8
Ech.1_5
 62
     4
420
    65535
100
AcDbMText
 10
2824.091546818029
 20
-8493.422221063473
 30
0.0
 40
15.0
 41
970.0000000000009
 46
0.0
 71
     2
 72
     1
  1
{\fArial|b0|i0;\W1.000000;\H15.000000;\c16711848;Traversée de paroi - Détail sur Fourreau - Compatible niveau étanchéité Ee2}
 73
     1
 44
1.07999975538982
  0
MTEXT
  5
3E2
330
1F
100
AcDbEntity
  8
Ech.1_5
 62
     4
420
    65535
100
AcDbMText
 10
2636.760106514609
 20
-8928.081475427585
 30
0.0
 40
13.75
 41
278.8197094414436
 46
0.0
 71
     3
 72
     1
  1
{\fArial|b0|i0;\W1.000000;\H13.750000;\c16711848;Manchon ou manchette élastique en caoutchouc EPDM - diamètre fonction du fourreau}
 73
     1
 44
1.07999975538982
  0
MTEXT
  5
3E3
330
1F
100
AcDbEntity
  8
Ech.1_5
 62
     4
420
    65535
100
AcDbMText
 10
2629.885106514609
 20
-8658.452353318171
 30
0.0
 40
13.75
 41
227.3370112427338
 46
0.0
 71
     3
 72
     1
  1
{\fArial|b0|i0;\W1.000000;\H13.750000;\c16711848;Doube-tasseautage bois support de bardage}
 73
     1
 44
1.07999975538982
  0
MTEXT
  5
3E4
330
1F
100
AcDbEntity
  8
Ech.1_5
 62
     4
420
    65535
100
AcDbMText
 10
2629.885106514609
 20
-8731.1495133243
 30
0.0
 40
13.75
 41
183.7312587778579
 46
0.0
 71
     3
 72
     1
  1
{\fArial|b0|i0;\W1.000000;\H13.750000;\c16711848;Paroi support}
 73
     1
 44
1.07999975538982
  0
MTEXT
  5
3E5
330
1F
100
AcDbEntity
  8
Ech.1_5
 62
     4
420
    65535
100
AcDbMText
 10
2629.885106514609
 20
-8784.783675270672
 30
0.0
 40
13.75
 41
279.5546139680491
 46
0.0
 71
     3
 72
     1
  1
{\fArial|b0|i0;\W1.000000;\H13.750000;\c16711848;Bardage bois en lames à emboitement en pose verticale - épaisseur 20-22 mm}
 73
     1
 44
1.07999975538982
  0
MTEXT
  5
3E6
330
1F
100
AcDbEntity
  8
Ech.1_5
 62
     4
420
    65535
100
AcDbMText
 10
2636.760106514609
 20
-9109.552210208756
 30
0.0
 40
13.75
 41
265.4705079197893
 46
0.0
 71
     3
 72
     1
  1
{\fArial|b0|i0;\W1.000000;\H13.750000;\c16711848;Tasseaux à prévoir de part et d'autre du percement pour fixation des lames de bardage}
 73
     1
 44
1.07999975538982
  0
MTEXT
  5
3E7
330
1F
100
AcDbEntity
  8
Ech.1_5
 62
   200
420
 11010303
100
AcDbMText
 10
2824.091546818031
 20
-8430.012248640422
 30
0.0
 40
15.0
 41
970.000000000005
 46
0.0
 71
     2
 72
     1
  1
{\fArial|b1|i0;\W1.000000;\H15.000000;\c16711848;BARDAGES EN LAMES : lames à emboitement - pose verticale (épaisseur 20-22 mm)}
 73
     1
 44
1.07999975538982
1001
ACAD
1000
ACAD_MTEXT_TEXT_BORDERS_BEGIN
1070
    80
1070
    16
1070
    46
1040
1.5
1070
    81
1070
     1
1070
     5
1005
406
1000
ACAD_MTEXT_TEXT_BORDERS_END
  0
TEXT
  5
3E9
330
1F
100
AcDbEntity
  8
Ech.1_5
 62
   190
100
AcDbText
 10
2673.310445151435
 20
-9020.866037308966
 30
0.0
 40
12.5
  1
2 mm
 50
89.99999749996337
  7
arial-
100
AcDbText
  0
TEXT
  5
3EA
330
1F
100
AcDbEntity
  8
Ech.1_5
 62
   190
100
AcDbText
 10
2383.413677520321
 20
-9655.780075925075
 30
0.0
 40
12.5
  1
15/10/2020
  7
arial-
100
AcDbText
  0
TEXT
  5
3EB
330
1F
100
AcDbEntity
  8
Ech.1_5
 62
   190
100
AcDbText
 10
2690.396341129558
 20
-8478.145716431125
 30
0.0
 40
16.5
  1
avec exigences feu façade
  7
arial-
100
AcDbText
  0
TEXT
  5
3ED
330
1F
100
AcDbEntity
  8
Ech.1_5
 62
   154
420
    21156
100
AcDbText
 10
3170.199654407109
 20
-8580.643275473252
 30
0.0
 40
15.0
  1
m
 50
8.97565990439347
 41
0.8
  7
tahoma-b
100
AcDbText
  0
TEXT
  5
3EE
330
1F
100
AcDbEntity
  8
Ech.1_5
 62
   154
420
    21156
100
AcDbText
 10
3153.070958363281
 20
-8586.261267328424
 30
0.0
 40
15.0
  1
C
 50
20.66888961044237
 41
0.7999999999999999
  7
tahoma-b
100
AcDbText
  0
TEXT
  5
3EF
330
1F
100
AcDbEntity
  8
Ech.1_5
 62
   154
420
    21156
100
AcDbText
 10
3161.951931026045
 20
-8582.910936987577
 30
0.0
 40
15.0
  1
o
 50
15.37326472327513
 41
0.8
  7
tahoma-b
100
AcDbText
  0
TEXT
  5
3F0
330
1F
100
AcDbEntity
  8
Ech.1_5
 62
   154
420
    21156
100
AcDbText
 10
3183.279510621272
 20
-8578.577325289712
 30
0.0
 40
15.0
  1
p
 50
2.547444553697133
 41
0.7999999999999999
  7
tahoma-b
100
AcDbText
  0
TEXT
  5
3F1
330
1F
100
AcDbEntity
  8
Ech.1_5
 62
   154
420
    21156
100
AcDbText
 10
3191.928985352342
 20
-8578.19250483701
 30
0.0
 40
15.0
  1
a
 50
357.5885357786793
 41
0.7999999999999999
  7
tahoma-b
100
AcDbText
  0
TEXT
  5
3F2
330
1F
100
AcDbEntity
  8
Ech.1_5
 62
   154
420
    21156
100
AcDbText
 10
3200.162718081231
 20
-8578.539250867558
 30
0.0
 40
15.0
  1
t
 50
353.6091644148265
 41
0.8
  7
tahoma-b
100
AcDbText
  0
TEXT
  5
3F3
330
1F
100
AcDbEntity
  8
Ech.1_5
 62
   154
420
    21156
100
AcDbText
 10
3205.450732195744
 20
-8579.13154024702
 30
0.0
 40
15.0
  1
i
 50
350.9766571715704
 41
0.8
  7
tahoma-b
100
AcDbText
  0
TEXT
  5
3F4
330
1F
100
AcDbEntity
  8
Ech.1_5
 62
   154
420
    21156
100
AcDbText
 10
3209.057498422642
 20
-8579.704302285903
 30
0.0
 40
15.0
  1
b
 50
347.3646125172285
 41
0.8
  7
tahoma-b
100
AcDbText
  0
TEXT
  5
3F5
330
1F
100
AcDbEntity
  8
Ech.1_5
 62
   154
420
    21156
100
AcDbText
 10
3217.505847830516
 20
-8581.5982115199
 30
0.0
 40
15.0
  1
l
 50
343.7525678628235
 41
0.7999999999999999
  7
tahoma-b
100
AcDbText
  0
TEXT
  5
3F6
330
1F
100
AcDbEntity
  8
Ech.1_5
 62
   154
420
    21156
100
AcDbText
 10
3221.011958230292
 20
-8582.619979024388
 30
0.0
 40
15.0
  1
e
 50
340.2629653356154
 41
0.8
  7
tahoma-b
100
AcDbText
  0
TEXT
  5
3F7
330
1F
100
AcDbEntity
  8
Ech.1_5
 62
   154
420
    21156
100
AcDbText
 10
3137.907134405062
 20
-8711.264457902755
 30
0.0
 40
15.0
  1
s
 50
329.3124952401218
 41
0.8
  7
tahoma-b
100
AcDbText
  0
TEXT
  5
3F8
330
1F
100
AcDbEntity
  8
Ech.1_5
 62
   154
420
    21156
100
AcDbText
 10
3144.904496103989
 20
-8715.417123513442
 30
0.0
 40
15.0
  1
u
 50
334.6276163794134
 41
0.8
  7
tahoma-b
100
AcDbText
  0
TEXT
  5
3F9
330
1F
100
AcDbEntity
  8
Ech.1_5
 62
   154
420
    21156
100
AcDbText
 10
3154.045882221074
 20
-8719.75237445406
 30
0.0
 40
15.0
  1
r
 50
339.5478999136904
 41
0.7999999999999999
  7
tahoma-b
100
AcDbText
  0
TEXT
  5
3FA
330
1F
100
AcDbEntity
  8
Ech.1_5
 62
   154
420
    21156
100
AcDbText
 10
3164.218186280495
 20
-8723.312240294501
 30
0.0
 40
15.0
  1
p
 50
346.7359685598494
 41
0.7999999999999999
  7
tahoma-b
100
AcDbText
  0
TEXT
  5
3FB
330
1F
100
AcDbEntity
  8
Ech.1_5
 62
   154
420
    21156
100
AcDbText
 10
3173.862702736651
 20
-8725.585715458321
 30
0.0
 40
15.0
  1
a
 50
352.3548109071116
 41
0.7999999999999999
  7
tahoma-b
100
AcDbText
  0
TEXT
  5
3FC
330
1F
100
AcDbEntity
  8
Ech.1_5
 62
   154
420
    21156
100
AcDbText
 10
3183.166996440671
 20
-8726.83464300822
 30
0.0
 40
15.0
  1
r
 50
357.0624896304997
 41
0.8
  7
tahoma-b
100
AcDbText
  0
TEXT
  5
3FD
330
1F
100
AcDbEntity
  8
Ech.1_5
 62
   154
420
    21156
100
AcDbText
 10
3189.939352630406
 20
-8727.182161021155
 30
0.0
 40
15.0
  1
o
 50
1.861284750938007
 41
0.8
  7
tahoma-b
100
AcDbText
  0
TEXT
  5
3FE
330
1F
100
AcDbEntity
  8
Ech.1_5
 62
   154
420
    21156
100
AcDbText
 10
3199.634652083901
 20
-8726.867093073604
 30
0.0
 40
15.0
  1
i
 50
6.083009645690649
 41
0.8
  7
tahoma-b
100
AcDbText
  0
TEXT
  5
3FF
330
1F
100
AcDbEntity
  8
Ech.1_5
 62
   154
420
    21156
100
AcDbText
 10
3208.361441289263
 20
-8725.757327134765
 30
0.0
 40
15.0
  1
b
 50
12.69400806611928
 41
0.8
  7
tahoma-b
100
AcDbText
  0
TEXT
  5
400
330
1F
100
AcDbEntity
  8
Ech.1_5
 62
   154
420
    21156
100
AcDbText
 10
3218.028098392136
 20
-8723.57991411721
 30
0.0
 40
15.0
  1
o
 50
18.40396681045067
 41
0.7999999999999998
  7
tahoma-b
100
AcDbText
  0
TEXT
  5
401
330
1F
100
AcDbEntity
  8
Ech.1_5
 62
   154
420
    21156
100
AcDbText
 10
3227.232379831487
 20
-8720.517349425696
 30
0.0
 40
15.0
  1
i
 50
22.62569170521065
 41
0.8
  7
tahoma-b
100
AcDbText
  0
TEXT
  5
402
330
1F
100
AcDbEntity
  8
Ech.1_5
 62
   154
420
    21156
100
AcDbText
 10
3231.662522415446
 20
-8718.67092791506
 30
0.0
 40
15.0
  1
s
 50
26.39183478797387
 41
0.8
  7
tahoma-b
100
AcDbText
  0
TEXT
  5
403
330
1F
100
AcDbEntity
  8
Ech.1_5
 62
   154
420
    21156
100
AcDbText
 10
3167.333222738192
 20
-8689.117049869546
 30
0.0
 40
25.0
  1
E
 50
345.222214497102
 41
0.7999999999999999
  7
tahoma-b
100
AcDbText
  0
TEXT
  5
404
330
1F
100
AcDbEntity
  8
Ech.1_5
 62
   154
420
    21156
100
AcDbText
 10
3182.931875225602
 20
-8693.231922258252
 30
0.0
 40
25.0
  1
e
 50
359.2406769519227
 41
0.8
  7
tahoma-b
100
AcDbText
  0
TEXT
  5
405
330
1F
100
AcDbEntity
  8
Ech.1_5
 62
   154
420
    21156
100
AcDbText
 10
3198.544933845367
 20
-8693.43884935615
 30
0.0
 40
25.0
  1
2
 50
13.48894999980837
 41
0.7999999999999999
  7
tahoma-b
100
AcDbText
  0
LWPOLYLINE
  5
406
330
1F
100
AcDbEntity
  8
Ech.1_5
 62
   200
420
 11010303
100
AcDbPolyline
 90
        4
 70
     1
 43
0.0
 10
2331.591546818028
 20
-8422.512248640422
 10
3316.591546818034
 20
-8422.512248640422
 10
3316.591546818034
 20
-8457.252248640421
 10
2331.591546818028
 20
-8457.252248640421
  0
VIEWPORT
  5
233
330
22D
100
AcDbEntity
 67
     1
  8
0
100
AcDbViewport
 10
98.8000000000001
 20
135.8
 30
0.0
 40
209.0608000000002
 41
287.3528000000001
 68
     1
 69
     1
 12
128.5
 22
97.5
 13
0.0
 23
0.0
 14
10.0
 24
10.0
 15
10.0
 25
10.0
 16
0.0
 26
0.0
 36
1.0
 17
0.0
 27
0.0
 37
0.0
 42
50.0
 43
0.0
 44
0.0
 45
222.18
 50
0.0
 51
0.0
 72
   100
 90
   557152
  1

281
     0
 71
     1
 74
     0
110
0.0
120
0.0
130
0.0
111
1.0
121
0.0
131
0.0
112
0.0
122
1.0
132
0.0
 79
     0
146
0.0
170
     0
 61
     5
348
2F
292
     1
282
     1
141
0.0
142
0.0
 63
   256
361
234
  0
VIEWPORT
  5
235
330
22D
100
AcDbEntity
 67
     1
  8
0
 60
     1
100
AcDbViewport
 10
98.8000000000001
 20
135.8
 30
0.0
 40
197.6000000000002
 41
271.6
 68
     2
 69
     2
 12
2824.091546818029
 22
-9100.012248640422
 13
0.0
 23
0.0
 14
10.0
 24
10.0
 15
10.0
 25
10.0
 16
0.0
 26
0.0
 36
1.0
 17
0.0
 27
0.0
 37
0.0
 42
50.0
 43
0.0
 44
0.0
 45
1358.0
 50
0.0
 51
0.0
 72
   100
 90
   557152
  1

281
     0
 71
     1
 74
     0
110
0.0
120
0.0
130
0.0
111
1.0
121
0.0
131
0.0
112
0.0
122
1.0
132
0.0
 79
     0
146
0.0
170
     0
 61
     5
348
2F
292
     1
282
     1
141
0.0
142
0.0
 63
   256
  0
ENDSEC
  0
SECTION
  2
OBJECTS
  0
DICTIONARY
  5
C
330
0
100
AcDbDictionary
281
     1
  3
ACAD_DETAILVIEWSTYLE
350
40E
  3
ACAD_GROUP
350
D
  3
ACAD_IMAGE_DICT
350
255
  3
ACAD_IMAGE_VARS
350
6F
  3
ACAD_LAYOUT
350
1A
  3
ACAD_MATERIAL
350
43
  3
ACAD_MLEADERSTYLE
350
6B
  3
ACAD_MLINESTYLE
350
17
  3
ACAD_PLOTSETTINGS
350
19
  3
ACAD_PLOTSTYLENAME
350
E
  3
ACAD_SCALELIST
350
47
  3
ACAD_SECTIONVIEWSTYLE
350
40F
  3
ACAD_TABLESTYLE
350
69
  3
ACAD_VISUALSTYLE
350
2A
  3
ACDB_RECOMPOSE_DATA
350
40B
  3
AcDbVariableDictionary
350
407
  0
SUN
  5
6D
330
29
100
AcDbSun
 90
        1
290
     0
 63
     7
421
 16777215
 40
1.0
291
     1
 91
  2455826
 92
 54000000
292
     0
 70
     2
 71
   256
280
     1
  0
IMAGEDEF_REACTOR
  5
258
330
257
100
AcDbRasterImageDefReactor
 90
        2
330
257
  0
IMAGEDEF_REACTOR
  5
25B
330
25A
100
AcDbRasterImageDefReactor
 90
        2
330
25A
  0
IMAGEDEF_REACTOR
  5
25E
330
25D
100
AcDbRasterImageDefReactor
 90
        2
330
25D
  0
SUN
  5
234
330
233
100
AcDbSun
 90
        1
290
     0
 63
     7
421
 16777215
 40
1.0
291
     1
 91
  2455826
 92
 54000000
292
     0
 70
     2
 71
   256
280
     1
  0
DICTIONARY
  5
40E
102
{ACAD_REACTORS
330
C
102
}
330
C
100
AcDbDictionary
281
     1
  0
DICTIONARY
  5
D
102
{ACAD_REACTORS
330
C
102
}
330
C
100
AcDbDictionary
281
     1
  0
DICTIONARY
  5
255
102
{ACAD_REACTORS
330
C
102
}
330
C
100
AcDbDictionary
281
     1
  3
C:\Users\MAIFFR~1\AppData\Local\Temp\EXE_LOGO_FBF_soutien_Q_L.jpg1
350
259
  3
C:\Users\MAIFFR~1\AppData\Local\Temp\fcba.jpg0
350
256
  3
C:\Users\MAIFFR~1\AppData\Local\Temp\logo_codifab_baseline_soutien.jpg2
350
25C
  0
RASTERVARIABLES
  5
6F
102
{ACAD_REACTORS
330
C
102
}
330
C
100
AcDbRasterVariables
 90
        0
 70
     0
 71
     1
 72
     1
  0
DICTIONARY
  5
1A
102
{ACAD_REACTORS
330
C
102
}
330
C
100
AcDbDictionary
281
     1
  3
CompleteLayout
350
1E
  3
Model
350
22
  3
PrintFrame_94
350
22E
  0
DICTIONARY
  5
43
102
{ACAD_REACTORS
330
C
102
}
330
C
100
AcDbDictionary
281
     1
  3
ByBlock
350
45
  3
ByLayer
350
44
  3
Global
350
46
  0
DICTIONARY
  5
6B
102
{ACAD_REACTORS
330
C
102
}
330
C
100
AcDbDictionary
281
     1
  3
Standard
350
6C
  0
DICTIONARY
  5
17
102
{ACAD_REACTORS
330
C
102
}
330
C
100
AcDbDictionary
281
     1
  3
Standard
350
18
  0
DICTIONARY
  5
19
102
{ACAD_REACTORS
330
C
102
}
330
C
100
AcDbDictionary
281
     1
  3
PlotSettings_
350
231
  0
ACDBDICTIONARYWDFLT
  5
E
102
{ACAD_REACTORS
330
C
102
}
330
C
100
AcDbDictionary
281
     1
  3
Normal
350
F
100
AcDbDictionaryWithDefault
340
F
  0
DICTIONARY
  5
47
102
{ACAD_REACTORS
330
C
102
}
330
C
100
AcDbDictionary
281
     1
  3
A0
350
48
  3
A1
350
49
  3
A2
350
4A
  3
A3
350
4B
  3
A4
350
4C
  3
A5
350
4D
  3
A6
350
4E
  3
A7
350
4F
  3
A8
350
50
  3
A9
350
51
  3
B0
350
52
  3
B1
350
53
  3
B2
350
54
  3
B3
350
55
  3
B4
350
56
  3
B5
350
57
  3
B6
350
58
  3
B7
350
59
  3
B8
350
5A
  3
B9
350
5B
  3
C0
350
5C
  3
C1
350
5D
  3
C2
350
5E
  3
C3
350
5F
  3
C4
350
60
  3
C5
350
61
  3
C6
350
62
  3
C7
350
63
  3
C8
350
64
  3
C9
350
65
  3
D0
350
66
  3
D1
350
67
  3
D2
350
68
  0
DICTIONARY
  5
40F
102
{ACAD_REACTORS
330
C
102
}
330
C
100
AcDbDictionary
281
     1
  0
DICTIONARY
  5
69
102
{ACAD_REACTORS
330
C
102
}
330
C
100
AcDbDictionary
281
     1
  3
Standard
350
6A
  0
DICTIONARY
  5
2A
102
{ACAD_REACTORS
330
C
102
}
330
C
100
AcDbDictionary
281
     1
  3
2dWireframe
350
2F
  3
Basic
350
32
  3
Brighten
350
36
  3
ColorChange
350
3A
  3
Conceptual
350
34
  3
Dim
350
35
  3
EdgeColorOff
350
3D
  3
Facepattern
350
39
  3
Flat
350
2B
  3
FlatWithEdges
350
2C
  3
Gouraud
350
2D
  3
GouraudWithEdges
350
2E
  3
Hidden
350
31
  3
JitterOff
350
3B
  3
Linepattern
350
38
  3
OverhangOff
350
3C
  3
Realistic
350
33
  3
Shaded
350
42
  3
Shaded with edges
350
41
  3
Shades of Gray
350
3E
  3
Sketchy
350
3F
  3
Thicken
350
37
  3
Wireframe
350
30
  3
X-Ray
350
40
  0
XRECORD
  5
40B
102
{ACAD_REACTORS
330
C
102
}
330
C
100
AcDbXrecord
280
     1
 90
        1
330
6A
  0
DICTIONARY
  5
407
102
{ACAD_REACTORS
330
C
102
}
330
C
100
AcDbDictionary
281
     1
  3
CANNOSCALE
350
408
  3
CMLEADERSTYLE
350
40D
  3
CTABLESTYLE
350
40C
  3
WIPEOUTFRAME
350
410
  0
IMAGEDEF
  5
259
102
{ACAD_REACTORS
330
255
330
25B
102
}
330
255
100
AcDbRasterImageDef
 90
        0
  1
EXE_LOGO_FBF_soutien_Q_L.jpg
 10
200.0
 20
133.0
 11
0.3527336860670194
 21
0.3527336860670194
280
     1
281
     3
  0
IMAGEDEF
  5
256
102
{ACAD_REACTORS
330
255
330
258
102
}
330
255
100
AcDbRasterImageDef
 90
        0
  1
fcba.jpg
 10
247.0
 20
171.0
 11
0.3527336860670194
 21
0.3527336860670194
280
     1
281
     3
  0
IMAGEDEF
  5
25C
102
{ACAD_REACTORS
330
255
330
25E
102
}
330
255
100
AcDbRasterImageDef
 90
        0
  1
logo_codifab_baseline_soutien.jpg
 10
1326.0
 20
580.0
 11
0.08466683600033867
 21
0.08466683600033867
280
     1
281
     3
  0
LAYOUT
  5
1E
102
{ACAD_REACTORS
330
1A
102
}
330
1A
100
AcDbPlotSettings
  1

  2
none_device
  4

  6

 40
0.0
 41
0.0
 42
0.0
 43
0.0
 44
0.0
 45
0.0
 46
0.0
 47
0.0
 48
0.0
 49
0.0
140
0.0
141
0.0
142
1.0
143
1.0
 70
   688
 72
     0
 73
     0
 74
     5
  7

 75
    16
 76
     0
 77
     2
 78
   300
147
1.0
148
0.0
149
0.0
100
AcDbLayout
  1
CompleteLayout
 70
     1
 71
     1
 10
0.0
 20
0.0
 11
12.0
 21
9.0
 12
0.0
 22
0.0
 32
0.0
 14
1.000000000000000E+20
 24
1.000000000000000E+20
 34
1.000000000000000E+20
 15
-1.000000000000000E+20
 25
-1.000000000000000E+20
 35
-1.000000000000000E+20
146
0.0
 13
0.0
 23
0.0
 33
0.0
 16
1.0
 26
0.0
 36
0.0
 17
0.0
 27
1.0
 37
0.0
 76
     0
330
1B
  0
LAYOUT
  5
22
102
{ACAD_REACTORS
330
1A
102
}
330
1A
100
AcDbPlotSettings
  1

  2
none_device
  4
Letter_(8.50_x_11.00_Inches)
  6

 40
6.35
 41
6.35
 42
6.35000508
 43
6.35000508
 44
215.9
 45
279.4
 46
0.0
 47
0.0
 48
0.0
 49
0.0
140
0.0
141
0.0
142
1.0
143
1.0
 70
  1712
 72
     0
 73
     0
 74
     0
  7

 75
     0
 76
     0
 77
     2
 78
   300
147
1.0
148
0.0
149
0.0
100
AcDbLayout
  1
Model
 70
     1
 71
     0
 10
0.0
 20
0.0
 11
12.0
 21
9.0
 12
0.0
 22
0.0
 32
0.0
 14
2331.591546818028
 24
-9777.512248640422
 34
0.0
 15
3316.591546818038
 25
-8422.512248640422
 35
0.0
146
0.0
 13
0.0
 23
0.0
 33
0.0
 16
1.0
 26
0.0
 36
0.0
 17
0.0
 27
1.0
 37
0.0
 76
     0
330
1F
331
29
  0
LAYOUT
  5
22E
102
{ACAD_REACTORS
330
1A
102
}
330
1A
100
AcDbPlotSettings
  1
PlotSettings_
  2
Custom Device
  4
Custom_210.000000x297.000000_12.700000_12.700000_6.200000_6.200000
  6

 40
6.2
 41
12.7
 42
6.2
 43
12.7
 44
210.0000000000002
 45
297.0
 46
0.0
 47
0.0
 48
0.0
 49
0.0
140
0.0
141
0.0
142
1.0
143
1.0
 70
   752
 72
     1
 73
     0
 74
     5
  7

 75
    16
 76
     0
 77
     2
 78
   300
147
1.0
148
0.0
149
0.0
100
AcDbLayout
  1
PrintFrame_94
 70
     0
 71
     2
 10
-20.0
 20
-7.5
 11
277.0
 21
202.5
 12
0.0
 22
0.0
 32
0.0
 14
0.0
 24
0.0
 34
0.0
 15
197.6000000000002
 25
271.6
 35
0.0
146
0.0
 13
0.0
 23
0.0
 33
0.0
 16
1.0
 26
0.0
 36
0.0
 17
0.0
 27
1.0
 37
0.0
 76
     0
330
22D
331
233
1001
PLOTTRANSPARENCY
1071
        1
1000
layout-user-created
1070
     1
1000
layout-line-weight-scale
1042
1.0
  0
MATERIAL
  5
45
102
{ACAD_REACTORS
330
43
102
}
330
43
100
AcDbMaterial
  1
ByBlock
 72
     1
 94
      127
  0
MATERIAL
  5
44
102
{ACAD_REACTORS
330
43
102
}
330
43
100
AcDbMaterial
  1
ByLayer
 72
     1
 94
      127
  0
MATERIAL
  5
46
102
{ACAD_REACTORS
330
43
102
}
330
43
100
AcDbMaterial
  1
Global
 72
     1
 94
      127
  0
MLEADERSTYLE
  5
6C
102
{ACAD_REACTORS
330
6B
102
}
330
6B
100
AcDbMLeaderStyle
179
     2
170
     2
171
     1
172
     0
 90
        2
 40
0.0
 41
0.0
173
     1
 91
-1056964608
340
14
 92
       -2
290
     1
 42
0.09
291
     1
 43
0.36
  3
Standard
341
0
 44
0.18
300

342
11
174
     1
178
     6
175
     1
176
     0
 93
-1056964608
 45
0.18
292
     0
297
     0
 46
0.18
343
0
 94
-1056964608
 47
1.0
 49
1.0
140
1.0
293
     1
141
0.0
294
     1
177
     0
142
1.0
295
     0
296
     0
143
0.125
271
     0
272
     9
273
     9
298
     0
  0
MLINESTYLE
  5
18
102
{ACAD_REACTORS
330
17
102
}
330
17
100
AcDbMlineStyle
  2
Standard
 70
     0
  3

 62
   256
 51
90.0
 52
90.0
 71
     2
 49
0.5
 62
   256
  6
BYLAYER
 49
-0.5
 62
   256
  6
BYLAYER
  0
PLOTSETTINGS
  5
231
102
{ACAD_REACTORS
330
19
102
}
330
19
100
AcDbPlotSettings
  1
PlotSettings_
  2
Custom Device
  4
Custom_210.000000x297.000000_12.700000_12.700000_6.200000_6.200000
  6

 40
6.2
 41
12.7
 42
6.2
 43
12.7
 44
210.0000000000002
 45
297.0
 46
0.0
 47
0.0
 48
0.0
 49
0.0
140
0.0
141
0.0
142
1.0
143
1.0
 70
   752
 72
     1
 73
     0
 74
     5
  7

 75
    16
 76
     0
 77
     2
 78
   300
147
1.0
148
0.0
149
0.0
1001
PLOTTRANSPARENCY
1071
        1
1000
layout-user-created
1070
     1
1000
layout-line-weight-scale
1042
1.0
  0
ACDBPLACEHOLDER
  5
F
102
{ACAD_REACTORS
330
E
102
}
330
E
  0
SCALE
  5
48
102
{ACAD_REACTORS
330
47
102
}
330
47
100
AcDbScale
 70
     0
300
1:1
140
1.0
141
1.0
290
     1
  0
SCALE
  5
49
102
{ACAD_REACTORS
330
47
102
}
330
47
100
AcDbScale
 70
     0
300
1:2
140
1.0
141
2.0
290
     0
  0
SCALE
  5
4A
102
{ACAD_REACTORS
330
47
102
}
330
47
100
AcDbScale
 70
     0
300
1:4
140
1.0
141
4.0
290
     0
  0
SCALE
  5
4B
102
{ACAD_REACTORS
330
47
102
}
330
47
100
AcDbScale
 70
     0
300
1:5
140
1.0
141
5.0
290
     0
  0
SCALE
  5
4C
102
{ACAD_REACTORS
330
47
102
}
330
47
100
AcDbScale
 70
     0
300
1:8
140
1.0
141
8.0
290
     0
  0
SCALE
  5
4D
102
{ACAD_REACTORS
330
47
102
}
330
47
100
AcDbScale
 70
     0
300
1:10
140
1.0
141
10.0
290
     0
  0
SCALE
  5
4E
102
{ACAD_REACTORS
330
47
102
}
330
47
100
AcDbScale
 70
     0
300
1:16
140
1.0
141
16.0
290
     0
  0
SCALE
  5
4F
102
{ACAD_REACTORS
330
47
102
}
330
47
100
AcDbScale
 70
     0
300
1:20
140
1.0
141
20.0
290
     0
  0
SCALE
  5
50
102
{ACAD_REACTORS
330
47
102
}
330
47
100
AcDbScale
 70
     0
300
1:30
140
1.0
141
30.0
290
     0
  0
SCALE
  5
51
102
{ACAD_REACTORS
330
47
102
}
330
47
100
AcDbScale
 70
     0
300
1:40
140
1.0
141
40.0
290
     0
  0
SCALE
  5
52
102
{ACAD_REACTORS
330
47
102
}
330
47
100
AcDbScale
 70
     0
300
1:50
140
1.0
141
50.0
290
     0
  0
SCALE
  5
53
102
{ACAD_REACTORS
330
47
102
}
330
47
100
AcDbScale
 70
     0
300
1:100
140
1.0
141
100.0
290
     0
  0
SCALE
  5
54
102
{ACAD_REACTORS
330
47
102
}
330
47
100
AcDbScale
 70
     0
300
2:1
140
2.0
141
1.0
290
     0
  0
SCALE
  5
55
102
{ACAD_REACTORS
330
47
102
}
330
47
100
AcDbScale
 70
     0
300
4:1
140
4.0
141
1.0
290
     0
  0
SCALE
  5
56
102
{ACAD_REACTORS
330
47
102
}
330
47
100
AcDbScale
 70
     0
300
8:1
140
8.0
141
1.0
290
     0
  0
SCALE
  5
57
102
{ACAD_REACTORS
330
47
102
}
330
47
100
AcDbScale
 70
     0
300
10:1
140
10.0
141
1.0
290
     0
  0
SCALE
  5
58
102
{ACAD_REACTORS
330
47
102
}
330
47
100
AcDbScale
 70
     0
300
100:1
140
100.0
141
1.0
290
     0
  0
SCALE
  5
59
102
{ACAD_REACTORS
330
47
102
}
330
47
100
AcDbScale
 70
     0
300
1/128" = 1'-0"
140
0.0078125
141
12.0
290
     0
  0
SCALE
  5
5A
102
{ACAD_REACTORS
330
47
102
}
330
47
100
AcDbScale
 70
     0
300
1/64" = 1'-0"
140
0.015625
141
12.0
290
     0
  0
SCALE
  5
5B
102
{ACAD_REACTORS
330
47
102
}
330
47
100
AcDbScale
 70
     0
300
1/32" = 1'-0"
140
0.03125
141
12.0
290
     0
  0
SCALE
  5
5C
102
{ACAD_REACTORS
330
47
102
}
330
47
100
AcDbScale
 70
     0
300
1/16" = 1'-0"
140
0.0625
141
12.0
290
     0
  0
SCALE
  5
5D
102
{ACAD_REACTORS
330
47
102
}
330
47
100
AcDbScale
 70
     0
300
3/32" = 1'-0"
140
0.09375
141
12.0
290
     0
  0
SCALE
  5
5E
102
{ACAD_REACTORS
330
47
102
}
330
47
100
AcDbScale
 70
     0
300
1/8" = 1'-0"
140
0.125
141
12.0
290
     0
  0
SCALE
  5
5F
102
{ACAD_REACTORS
330
47
102
}
330
47
100
AcDbScale
 70
     0
300
3/16" = 1'-0"
140
0.1875
141
12.0
290
     0
  0
SCALE
  5
60
102
{ACAD_REACTORS
330
47
102
}
330
47
100
AcDbScale
 70
     0
300
1/4" = 1'-0"
140
0.25
141
12.0
290
     0
  0
SCALE
  5
61
102
{ACAD_REACTORS
330
47
102
}
330
47
100
AcDbScale
 70
     0
300
3/8" = 1'-0"
140
0.375
141
12.0
290
     0
  0
SCALE
  5
62
102
{ACAD_REACTORS
330
47
102
}
330
47
100
AcDbScale
 70
     0
300
1/2" = 1'-0"
140
0.5
141
12.0
290
     0
  0
SCALE
  5
63
102
{ACAD_REACTORS
330
47
102
}
330
47
100
AcDbScale
 70
     0
300
3/4" = 1'-0"
140
0.75
141
12.0
290
     0
  0
SCALE
  5
64
102
{ACAD_REACTORS
330
47
102
}
330
47
100
AcDbScale
 70
     0
300
1" = 1'-0"
140
1.0
141
12.0
290
     0
  0
SCALE
  5
65
102
{ACAD_REACTORS
330
47
102
}
330
47
100
AcDbScale
 70
     0
300
1-1/2" = 1'-0"
140
1.5
141
12.0
290
     0
  0
SCALE
  5
66
102
{ACAD_REACTORS
330
47
102
}
330
47
100
AcDbScale
 70
     0
300
3" = 1'-0"
140
3.0
141
12.0
290
     0
  0
SCALE
  5
67
102
{ACAD_REACTORS
330
47
102
}
330
47
100
AcDbScale
 70
     0
300
6" = 1'-0"
140
6.0
141
12.0
290
     0
  0
SCALE
  5
68
102
{ACAD_REACTORS
330
47
102
}
330
47
100
AcDbScale
 70
     0
300
1'-0" = 1'-0"
140
12.0
141
12.0
290
     0
  0
TABLESTYLE
  5
6A
102
{ACAD_REACTORS
330
69
102
}
102
{ACAD_XDICTIONARY
360
409
102
}
330
69
100
AcDbTableStyle
  3
Standard
 70
     0
 71
     0
 40
0.06
 41
0.06
280
     0
281
     0
  7
Standard
140
0.18
170
     2
 62
     0
 63
   257
283
     0
 90
        4
 91
        0
  1

274
    -2
284
     1
 64
     0
275
    -2
285
     1
 65
     0
276
    -2
286
     1
 66
     0
277
    -2
287
     1
 67
     0
278
    -2
288
     1
 68
     0
279
    -2
289
     1
 69
     0
  7
Standard
140
0.25
170
     5
 62
     0
 63
   257
283
     0
 90
        4
 91
        0
  1

274
    -2
284
     1
 64
     0
275
    -2
285
     1
 65
     0
276
    -2
286
     1
 66
     0
277
    -2
287
     1
 67
     0
278
    -2
288
     1
 68
     0
279
    -2
289
     1
 69
     0
  7
Standard
140
0.18
170
     5
 62
     0
 63
   257
283
     0
 90
        4
 91
        0
  1

274
    -2
284
     1
 64
     0
275
    -2
285
     1
 65
     0
276
    -2
286
     1
 66
     0
277
    -2
287
     1
 67
     0
278
    -2
288
     1
 68
     0
279
    -2
289
     1
 69
     0
  0
VISUALSTYLE
  5
2F
102
{ACAD_REACTORS
330
2A
102
}
330
2A
100
AcDbVisualStyle
  2
2dWireframe
 70
     4
177
     3
291
     0
 70
    58
 90
        0
176
     1
 90
        2
176
     1
 90
        0
176
     1
 90
        0
176
     1
 40
0.6
176
     1
 40
30.0
176
     1
 62
     7
420
 16777215
176
     1
 90
        1
176
     1
 90
        4
176
     1
 62
     7
176
     1
 62
   257
176
     1
 90
        1
176
     1
 90
        1
176
     1
 40
1.0
176
     1
 90
        0
176
     1
 62
   257
176
     1
 40
1.0
176
     1
 90
        1
176
     1
 90
        6
176
     1
 90
        2
176
     1
 62
     7
176
     1
 90
        5
176
     1
 90
        0
176
     1
 90
        0
176
     1
290
     0
176
     1
 90
        1
176
     1
 40
0.0
176
     1
 90
        0
176
     1
290
     1
176
     1
290
     1
176
     1
290
     0
176
     1
290
     0
176
     1
290
     0
176
     1
290
     0
176
     1
290
     0
176
     1
290
     0
176
     1
290
     0
176
     1
 90
       50
176
     1
 40
0.0
176
     1
 40
1.0
176
     1
 90
        0
176
     1
 62
    18
420
        0
176
     1
 90
       50
176
     1
 90
        3
176
     1
 62
     5
420
      255
176
     1
290
     0
176
     1
 90
       50
176
     1
 90
       50
176
     1
 90
       50
176
     1
290
     0
176
     1
 90
       50
176
     1
 62
   256
176
     0
 40
1.0
176
     0
 90
        2
176
     1
  1
strokes_ogs.tif
176
     1
290
     0
176
     1
 40
1.0
176
     1
 40
1.0
176
     1
  0
VISUALSTYLE
  5
32
102
{ACAD_REACTORS
330
2A
102
}
330
2A
100
AcDbVisualStyle
  2
Basic
 70
     7
177
     3
291
     1
 70
    58
 90
        1
176
     1
 90
        0
176
     1
 90
        1
176
     1
 90
        0
176
     1
 40
0.6
176
     1
 40
30.0
176
     1
 62
     7
420
 16777215
176
     1
 90
        0
176
     1
 90
        4
176
     1
 62
     7
176
     1
 62
   257
176
     1
 90
        1
176
     1
 90
        1
176
     1
 40
1.0
176
     1
 90
        8
176
     1
 62
     7
176
     1
 40
1.0
176
     1
 90
        1
176
     1
 90
        6
176
     1
 90
        2
176
     1
 62
     7
176
     1
 90
        5
176
     1
 90
        0
176
     1
 90
        0
176
     1
290
     0
176
     1
 90
        1
176
     1
 40
0.0
176
     1
 90
        0
176
     1
290
     0
176
     1
290
     1
176
     1
290
     1
176
     1
290
     0
176
     1
290
     0
176
     1
290
     0
176
     1
290
     0
176
     1
290
     0
176
     1
290
     0
176
     1
 90
       50
176
     1
 40
0.0
176
     1
 40
1.0
176
     1
 90
        0
176
     1
 62
    18
420
        0
176
     1
 90
       50
176
     1
 90
        3
176
     1
 62
     5
420
      255
176
     1
290
     0
176
     1
 90
       50
176
     1
 90
       50
176
     1
 90
       50
176
     1
290
     0
176
     1
 90
       50
176
     1
 62
   256
176
     0
 40
1.0
176
     0
 90
        2
176
     1
  1
strokes_ogs.tif
176
     1
290
     0
176
     1
 40
1.0
176
     1
 40
1.0
176
     1
  0
VISUALSTYLE
  5
36
102
{ACAD_REACTORS
330
2A
102
}
330
2A
100
AcDbVisualStyle
  2
Brighten
 70
    12
177
     3
291
     1
 70
    58
 90
        2
176
     1
 90
        2
176
     1
 90
        0
176
     1
 90
        0
176
     1
 40
0.6
176
     1
 40
30.0
176
     1
 62
     7
420
 16777215
176
     1
 90
        1
176
     1
 90
        4
176
     1
 62
     7
176
     1
 62
   257
176
     1
 90
        1
176
     1
 90
        1
176
     1
 40
1.0
176
     1
 90
        8
176
     1
 62
     7
176
     1
 40
1.0
176
     1
 90
        1
176
     1
 90
        6
176
     1
 90
        2
176
     1
 62
     7
176
     1
 90
        5
176
     1
 90
        0
176
     1
 90
        0
176
     1
290
     0
176
     1
 90
        1
176
     1
 40
50.0
176
     1
 90
        0
176
     1
290
     0
176
     1
290
     1
176
     1
290
     1
176
     1
290
     0
176
     1
290
     0
176
     1
290
     0
176
     1
290
     0
176
     1
290
     0
176
     1
290
     0
176
     1
 90
       50
176
     1
 40
0.0
176
     1
 40
1.0
176
     1
 90
        0
176
     1
 62
    18
420
        0
176
     1
 90
       50
176
     1
 90
        3
176
     1
 62
     5
420
      255
176
     1
290
     0
176
     1
 90
       50
176
     1
 90
       50
176
     1
 90
       50
176
     1
290
     0
176
     1
 90
       50
176
     1
 62
   256
176
     0
 40
1.0
176
     0
 90
        2
176
     1
  1
strokes_ogs.tif
176
     1
290
     0
176
     1
 40
1.0
176
     1
 40
1.0
176
     1
  0
VISUALSTYLE
  5
3A
102
{ACAD_REACTORS
330
2A
102
}
330
2A
100
AcDbVisualStyle
  2
ColorChange
 70
    16
177
     3
291
     1
 70
    58
 90
        2
176
     1
 90
        2
176
     1
 90
        3
176
     1
 90
        0
176
     1
 40
0.6
176
     1
 40
30.0
176
     1
 62
     8
420
  8421504
176
     1
 90
        1
176
     1
 90
        4
176
     1
 62
     7
176
     1
 62
   257
176
     1
 90
        1
176
     1
 90
        1
176
     1
 40
1.0
176
     1
 90
        8
176
     1
 62
     8
420
  8421504
176
     1
 40
1.0
176
     1
 90
        1
176
     1
 90
        6
176
     1
 90
        2
176
     1
 62
     7
176
     1
 90
        5
176
     1
 90
        0
176
     1
 90
        0
176
     1
290
     0
176
     1
 90
        1
176
     1
 40
0.0
176
     1
 90
        0
176
     1
290
     0
176
     1
290
     1
176
     1
290
     1
176
     1
290
     0
176
     1
290
     0
176
     1
290
     0
176
     1
290
     0
176
     1
290
     0
176
     1
290
     0
176
     1
 90
       50
176
     1
 40
0.0
176
     1
 40
1.0
176
     1
 90
        0
176
     1
 62
    18
420
        0
176
     1
 90
       50
176
     1
 90
        3
176
     1
 62
     5
420
      255
176
     1
290
     0
176
     1
 90
       50
176
     1
 90
       50
176
     1
 90
       50
176
     1
290
     0
176
     1
 90
       50
176
     1
 62
   256
176
     0
 40
1.0
176
     0
 90
        2
176
     1
  1
strokes_ogs.tif
176
     1
290
     0
176
     1
 40
1.0
176
     1
 40
1.0
176
     1
  0
VISUALSTYLE
  5
34
102
{ACAD_REACTORS
330
2A
102
}
330
2A
100
AcDbVisualStyle
  2
Conceptual
 70
     9
177
     3
291
     0
 70
    58
 90
        3
176
     1
 90
        2
176
     1
 90
        0
176
     1
 90
        0
176
     1
 40
0.6
176
     1
 40
30.0
176
     1
 62
     7
420
 16777215
176
     1
 90
        2
176
     1
 90
        2
176
     1
 62
     7
176
     1
 62
   257
176
     1
 90
        1
176
     1
 90
        1
176
     1
 40
179.0
176
     1
 90
        8
176
     1
 62
     7
176
     1
 40
1.0
176
     1
 90
        1
176
     1
 90
        6
176
     1
 90
        2
176
     1
 62
     7
176
     1
 90
        3
176
     1
 90
        0
176
     1
 90
        0
176
     1
290
     0
176
     1
 90
        1
176
     1
 40
0.0
176
     1
 90
        0
176
     1
290
     0
176
     1
290
     1
176
     1
290
     1
176
     1
290
     0
176
     1
290
     0
176
     1
290
     0
176
     1
290
     0
176
     1
290
     0
176
     1
290
     0
176
     1
 90
       50
176
     1
 40
0.0
176
     1
 40
1.0
176
     1
 90
        0
176
     1
 62
    18
420
        0
176
     1
 90
       50
176
     1
 90
        3
176
     1
 62
     5
420
      255
176
     1
290
     0
176
     1
 90
       50
176
     1
 90
       50
176
     1
 90
       50
176
     1
290
     0
176
     1
 90
       50
176
     1
 62
   256
176
     0
 40
1.0
176
     0
 90
        2
176
     1
  1
strokes_ogs.tif
176
     1
290
     0
176
     1
 40
1.0
176
     1
 40
1.0
176
     1
  0
VISUALSTYLE
  5
35
102
{ACAD_REACTORS
330
2A
102
}
330
2A
100
AcDbVisualStyle
  2
Dim
 70
    11
177
     3
291
     1
 70
    58
 90
        2
176
     1
 90
        2
176
     1
 90
        0
176
     1
 90
        0
176
     1
 40
0.6
176
     1
 40
30.0
176
     1
 62
     7
420
 16777215
176
     1
 90
        1
176
     1
 90
        4
176
     1
 62
     7
176
     1
 62
   257
176
     1
 90
        1
176
     1
 90
        1
176
     1
 40
1.0
176
     1
 90
        8
176
     1
 62
     7
176
     1
 40
1.0
176
     1
 90
        1
176
     1
 90
        6
176
     1
 90
        2
176
     1
 62
     7
176
     1
 90
        5
176
     1
 90
        0
176
     1
 90
        0
176
     1
290
     0
176
     1
 90
        1
176
     1
 40
-50.0
176
     1
 90
        0
176
     1
290
     0
176
     1
290
     1
176
     1
290
     1
176
     1
290
     0
176
     1
290
     0
176
     1
290
     0
176
     1
290
     0
176
     1
290
     0
176
     1
290
     0
176
     1
 90
       50
176
     1
 40
0.0
176
     1
 40
1.0
176
     1
 90
        0
176
     1
 62
    18
420
        0
176
     1
 90
       50
176
     1
 90
        3
176
     1
 62
     5
420
      255
176
     1
290
     0
176
     1
 90
       50
176
     1
 90
       50
176
     1
 90
       50
176
     1
290
     0
176
     1
 90
       50
176
     1
 62
   256
176
     0
 40
1.0
176
     0
 90
        2
176
     1
  1
strokes_ogs.tif
176
     1
290
     0
176
     1
 40
1.0
176
     1
 40
1.0
176
     1
  0
VISUALSTYLE
  5
3D
102
{ACAD_REACTORS
330
2A
102
}
330
2A
100
AcDbVisualStyle
  2
EdgeColorOff
 70
    22
177
     3
291
     1
 70
    58
 90
        2
176
     0
 90
        2
176
     0
 90
        0
176
     0
 90
        0
176
     0
 40
0.6
176
     0
 40
30.0
176
     0
 62
     7
420
 16777215
176
     0
 90
        1
176
     0
 90
        4
176
     0
 62
     7
176
     0
 62
   257
176
     0
 90
        1
176
     0
 90
        1
176
     0
 40
1.0
176
     0
 90
        8
176
     2
 62
     7
176
     0
 40
1.0
176
     0
 90
        1
176
     0
 90
        6
176
     0
 90
        2
176
     0
 62
     7
176
     0
 90
        5
176
     0
 90
        0
176
     0
 90
        0
176
     0
290
     0
176
     0
 90
        1
176
     0
 40
0.0
176
     0
 90
        0
176
     0
290
     0
176
     0
290
     1
176
     0
290
     1
176
     0
290
     0
176
     0
290
     0
176
     0
290
     0
176
     0
290
     0
176
     0
290
     0
176
     0
290
     0
176
     0
 90
       50
176
     0
 40
0.0
176
     0
 40
1.0
176
     0
 90
        0
176
     0
 62
    18
420
        0
176
     0
 90
       50
176
     0
 90
        3
176
     0
 62
     5
420
      255
176
     0
290
     0
176
     0
 90
       50
176
     0
 90
       50
176
     0
 90
       50
176
     0
290
     0
176
     0
 90
       50
176
     0
 62
   256
176
     0
 40
1.0
176
     0
 90
        2
176
     0
  1
strokes_ogs.tif
176
     0
290
     0
176
     0
 40
1.0
176
     0
 40
1.0
176
     0
  0
VISUALSTYLE
  5
39
102
{ACAD_REACTORS
330
2A
102
}
330
2A
100
AcDbVisualStyle
  2
Facepattern
 70
    15
177
     3
291
     1
 70
    58
 90
        2
176
     1
 90
        2
176
     1
 90
        0
176
     1
 90
        0
176
     1
 40
0.6
176
     1
 40
30.0
176
     1
 62
     7
420
 16777215
176
     1
 90
        1
176
     1
 90
        4
176
     1
 62
     7
176
     1
 62
   257
176
     1
 90
        1
176
     1
 90
        1
176
     1
 40
1.0
176
     1
 90
        8
176
     1
 62
     7
176
     1
 40
1.0
176
     1
 90
        1
176
     1
 90
        6
176
     1
 90
        2
176
     1
 62
     7
176
     1
 90
        5
176
     1
 90
        0
176
     1
 90
        0
176
     1
290
     0
176
     1
 90
        1
176
     1
 40
0.0
176
     1
 90
        0
176
     1
290
     0
176
     1
290
     1
176
     1
290
     1
176
     1
290
     0
176
     1
290
     0
176
     1
290
     0
176
     1
290
     0
176
     1
290
     0
176
     1
290
     0
176
     1
 90
       50
176
     1
 40
0.0
176
     1
 40
1.0
176
     1
 90
        0
176
     1
 62
    18
420
        0
176
     1
 90
       50
176
     1
 90
        3
176
     1
 62
     5
420
      255
176
     1
290
     0
176
     1
 90
       50
176
     1
 90
       50
176
     1
 90
       50
176
     1
290
     0
176
     1
 90
       50
176
     1
 62
   256
176
     0
 40
1.0
176
     0
 90
        2
176
     1
  1
strokes_ogs.tif
176
     1
290
     0
176
     1
 40
1.0
176
     1
 40
1.0
176
     1
  0
VISUALSTYLE
  5
2B
102
{ACAD_REACTORS
330
2A
102
}
330
2A
100
AcDbVisualStyle
  2
Flat
 70
     0
177
     3
291
     1
 70
    58
 90
        2
176
     1
 90
        1
176
     1
 90
        1
176
     1
 90
        2
176
     1
 40
0.6
176
     1
 40
30.0
176
     1
 62
     7
420
 16777215
176
     1
 90
        0
176
     1
 90
        0
176
     1
 62
     7
176
     1
 62
   257
176
     1
 90
        1
176
     1
 90
        1
176
     1
 40
1.0
176
     1
 90
        8
176
     1
 62
     7
176
     1
 40
1.0
176
     1
 90
        1
176
     1
 90
        6
176
     1
 90
        2
176
     1
 62
     7
176
     1
 90
        5
176
     1
 90
        0
176
     1
 90
        0
176
     1
290
     0
176
     1
 90
       13
176
     1
 40
0.0
176
     1
 90
        0
176
     1
290
     0
176
     1
290
     1
176
     1
290
     1
176
     1
290
     0
176
     1
290
     0
176
     1
290
     0
176
     1
290
     0
176
     1
290
     0
176
     1
290
     0
176
     1
 90
       50
176
     1
 40
0.0
176
     1
 40
1.0
176
     1
 90
        0
176
     1
 62
    18
420
        0
176
     1
 90
       50
176
     1
 90
        3
176
     1
 62
     5
420
      255
176
     1
290
     0
176
     1
 90
       50
176
     1
 90
       50
176
     1
 90
       50
176
     1
290
     0
176
     1
 90
       50
176
     1
 62
   256
176
     0
 40
1.0
176
     0
 90
        2
176
     1
  1
strokes_ogs.tif
176
     1
290
     0
176
     1
 40
1.0
176
     1
 40
1.0
176
     1
  0
VISUALSTYLE
  5
2C
102
{ACAD_REACTORS
330
2A
102
}
330
2A
100
AcDbVisualStyle
  2
FlatWithEdges
 70
     1
177
     3
291
     1
 70
    58
 90
        2
176
     1
 90
        1
176
     1
 90
        1
176
     1
 90
        2
176
     1
 40
0.6
176
     1
 40
30.0
176
     1
 62
     7
420
 16777215
176
     1
 90
        1
176
     1
 90
        0
176
     1
 62
     7
176
     1
 62
   257
176
     1
 90
        1
176
     1
 90
        1
176
     1
 40
1.0
176
     1
 90
        0
176
     1
 62
   257
176
     1
 40
1.0
176
     1
 90
        1
176
     1
 90
        6
176
     1
 90
        2
176
     1
 62
     7
176
     1
 90
        5
176
     1
 90
        0
176
     1
 90
        0
176
     1
290
     0
176
     1
 90
       13
176
     1
 40
0.0
176
     1
 90
        0
176
     1
290
     0
176
     1
290
     1
176
     1
290
     1
176
     1
290
     0
176
     1
290
     0
176
     1
290
     0
176
     1
290
     0
176
     1
290
     0
176
     1
290
     0
176
     1
 90
       50
176
     1
 40
0.0
176
     1
 40
1.0
176
     1
 90
        0
176
     1
 62
    18
420
        0
176
     1
 90
       50
176
     1
 90
        3
176
     1
 62
     5
420
      255
176
     1
290
     0
176
     1
 90
       50
176
     1
 90
       50
176
     1
 90
       50
176
     1
290
     0
176
     1
 90
       50
176
     1
 62
   256
176
     0
 40
1.0
176
     0
 90
        2
176
     1
  1
strokes_ogs.tif
176
     1
290
     0
176
     1
 40
1.0
176
     1
 40
1.0
176
     1
  0
VISUALSTYLE
  5
2D
102
{ACAD_REACTORS
330
2A
102
}
330
2A
100
AcDbVisualStyle
  2
Gouraud
 70
     2
177
     3
291
     1
 70
    58
 90
        2
176
     1
 90
        2
176
     1
 90
        1
176
     1
 90
        2
176
     1
 40
0.6
176
     1
 40
30.0
176
     1
 62
     7
420
 16777215
176
     1
 90
        0
176
     1
 90
        0
176
     1
 62
     7
176
     1
 62
   257
176
     1
 90
        1
176
     1
 90
        1
176
     1
 40
1.0
176
     1
 90
        0
176
     1
 62
     7
176
     1
 40
1.0
176
     1
 90
        1
176
     1
 90
        6
176
     1
 90
        2
176
     1
 62
     7
176
     1
 90
        5
176
     1
 90
        0
176
     1
 90
        0
176
     1
290
     0
176
     1
 90
       13
176
     1
 40
0.0
176
     1
 90
        0
176
     1
290
     0
176
     1
290
     1
176
     1
290
     1
176
     1
290
     0
176
     1
290
     0
176
     1
290
     0
176
     1
290
     0
176
     1
290
     0
176
     1
290
     0
176
     1
 90
       50
176
     1
 40
0.0
176
     1
 40
1.0
176
     1
 90
        0
176
     1
 62
    18
420
        0
176
     1
 90
       50
176
     1
 90
        3
176
     1
 62
     5
420
      255
176
     1
290
     0
176
     1
 90
       50
176
     1
 90
       50
176
     1
 90
       50
176
     1
290
     0
176
     1
 90
       50
176
     1
 62
   256
176
     0
 40
1.0
176
     0
 90
        2
176
     1
  1
strokes_ogs.tif
176
     1
290
     0
176
     1
 40
1.0
176
     1
 40
1.0
176
     1
  0
VISUALSTYLE
  5
2E
102
{ACAD_REACTORS
330
2A
102
}
330
2A
100
AcDbVisualStyle
  2
GouraudWithEdges
 70
     3
177
     3
291
     1
 70
    58
 90
        2
176
     1
 90
        2
176
     1
 90
        1
176
     1
 90
        2
176
     1
 40
0.6
176
     1
 40
30.0
176
     1
 62
     7
420
 16777215
176
     1
 90
        1
176
     1
 90
        0
176
     1
 62
     7
176
     1
 62
   257
176
     1
 90
        1
176
     1
 90
        1
176
     1
 40
1.0
176
     1
 90
        0
176
     1
 62
   257
176
     1
 40
1.0
176
     1
 90
        1
176
     1
 90
        6
176
     1
 90
        2
176
     1
 62
     7
176
     1
 90
        5
176
     1
 90
        0
176
     1
 90
        0
176
     1
290
     0
176
     1
 90
       13
176
     1
 40
0.0
176
     1
 90
        0
176
     1
290
     0
176
     1
290
     1
176
     1
290
     1
176
     1
290
     0
176
     1
290
     0
176
     1
290
     0
176
     1
290
     0
176
     1
290
     0
176
     1
290
     0
176
     1
 90
       50
176
     1
 40
0.0
176
     1
 40
1.0
176
     1
 90
        0
176
     1
 62
    18
420
        0
176
     1
 90
       50
176
     1
 90
        3
176
     1
 62
     5
420
      255
176
     1
290
     0
176
     1
 90
       50
176
     1
 90
       50
176
     1
 90
       50
176
     1
290
     0
176
     1
 90
       50
176
     1
 62
   256
176
     0
 40
1.0
176
     0
 90
        2
176
     1
  1
strokes_ogs.tif
176
     1
290
     0
176
     1
 40
1.0
176
     1
 40
1.0
176
     1
  0
VISUALSTYLE
  5
31
102
{ACAD_REACTORS
330
2A
102
}
330
2A
100
AcDbVisualStyle
  2
Hidden
 70
     6
177
     3
291
     0
 70
    58
 90
        1
176
     1
 90
        2
176
     1
 90
        2
176
     1
 90
        0
176
     1
 40
0.6
176
     1
 40
30.0
176
     1
 62
     7
420
 16777215
176
     1
 90
        2
176
     1
 90
        2
176
     1
 62
     7
176
     1
 62
   257
176
     1
 90
        2
176
     1
 90
        1
176
     1
 40
40.0
176
     1
 90
        0
176
     1
 62
   257
176
     1
 40
1.0
176
     1
 90
        1
176
     1
 90
        6
176
     1
 90
        2
176
     1
 62
     7
176
     1
 90
        3
176
     1
 90
        0
176
     1
 90
        0
176
     1
290
     0
176
     1
 90
        1
176
     1
 40
0.0
176
     1
 90
        0
176
     1
290
     0
176
     1
290
     1
176
     1
290
     1
176
     1
290
     0
176
     1
290
     0
176
     1
290
     0
176
     1
290
     0
176
     1
290
     0
176
     1
290
     0
176
     1
 90
       50
176
     1
 40
0.0
176
     1
 40
1.0
176
     1
 90
        0
176
     1
 62
    18
420
        0
176
     1
 90
       50
176
     1
 90
        3
176
     1
 62
     5
420
      255
176
     1
290
     0
176
     1
 90
       50
176
     1
 90
       50
176
     1
 90
       50
176
     1
290
     0
176
     1
 90
       50
176
     1
 62
   256
176
     0
 40
1.0
176
     0
 90
        2
176
     1
  1
strokes_ogs.tif
176
     1
290
     0
176
     1
 40
1.0
176
     1
 40
1.0
176
     1
  0
VISUALSTYLE
  5
3B
102
{ACAD_REACTORS
330
2A
102
}
330
2A
100
AcDbVisualStyle
  2
JitterOff
 70
    20
177
     3
291
     1
 70
    58
 90
        2
176
     0
 90
        2
176
     0
 90
        0
176
     0
 90
        0
176
     0
 40
0.6
176
     0
 40
30.0
176
     0
 62
     7
420
 16777215
176
     0
 90
        1
176
     0
 90
        4
176
     0
 62
     7
176
     0
 62
   257
176
     0
 90
        1
176
     0
 90
        1
176
     0
 40
1.0
176
     0
 90
       10
176
     2
 62
     7
176
     0
 40
1.0
176
     0
 90
        1
176
     0
 90
        6
176
     0
 90
        2
176
     0
 62
     7
176
     0
 90
        5
176
     0
 90
        0
176
     0
 90
        0
176
     0
290
     0
176
     0
 90
        1
176
     0
 40
0.0
176
     0
 90
        0
176
     0
290
     0
176
     0
290
     1
176
     0
290
     1
176
     0
290
     0
176
     0
290
     0
176
     0
290
     0
176
     0
290
     0
176
     0
290
     0
176
     0
290
     0
176
     0
 90
       50
176
     0
 40
0.0
176
     0
 40
1.0
176
     0
 90
        0
176
     0
 62
    18
420
        0
176
     0
 90
       50
176
     0
 90
        3
176
     0
 62
     5
420
      255
176
     0
290
     0
176
     0
 90
       50
176
     0
 90
       50
176
     0
 90
       50
176
     0
290
     0
176
     0
 90
       50
176
     0
 62
   256
176
     0
 40
1.0
176
     0
 90
        2
176
     0
  1
strokes_ogs.tif
176
     0
290
     0
176
     0
 40
1.0
176
     0
 40
1.0
176
     0
  0
VISUALSTYLE
  5
38
102
{ACAD_REACTORS
330
2A
102
}
330
2A
100
AcDbVisualStyle
  2
Linepattern
 70
    14
177
     3
291
     1
 70
    58
 90
        2
176
     1
 90
        2
176
     1
 90
        0
176
     1
 90
        0
176
     1
 40
0.6
176
     1
 40
30.0
176
     1
 62
     7
420
 16777215
176
     1
 90
        1
176
     1
 90
        4
176
     1
 62
     7
176
     1
 62
   257
176
     1
 90
        7
176
     1
 90
        7
176
     1
 40
1.0
176
     1
 90
        8
176
     1
 62
     7
176
     1
 40
1.0
176
     1
 90
        1
176
     1
 90
        6
176
     1
 90
        2
176
     1
 62
     7
176
     1
 90
        5
176
     1
 90
        0
176
     1
 90
        0
176
     1
290
     0
176
     1
 90
        1
176
     1
 40
0.0
176
     1
 90
        0
176
     1
290
     0
176
     1
290
     1
176
     1
290
     1
176
     1
290
     0
176
     1
290
     0
176
     1
290
     0
176
     1
290
     0
176
     1
290
     0
176
     1
290
     0
176
     1
 90
       50
176
     1
 40
0.0
176
     1
 40
1.0
176
     1
 90
        0
176
     1
 62
    18
420
        0
176
     1
 90
       50
176
     1
 90
        3
176
     1
 62
     5
420
      255
176
     1
290
     0
176
     1
 90
       50
176
     1
 90
       50
176
     1
 90
       50
176
     1
290
     0
176
     1
 90
       50
176
     1
 62
   256
176
     0
 40
1.0
176
     0
 90
        2
176
     1
  1
strokes_ogs.tif
176
     1
290
     0
176
     1
 40
1.0
176
     1
 40
1.0
176
     1
  0
VISUALSTYLE
  5
3C
102
{ACAD_REACTORS
330
2A
102
}
330
2A
100
AcDbVisualStyle
  2
OverhangOff
 70
    21
177
     3
291
     1
 70
    58
 90
        2
176
     0
 90
        2
176
     0
 90
        0
176
     0
 90
        0
176
     0
 40
0.6
176
     0
 40
30.0
176
     0
 62
     7
420
 16777215
176
     0
 90
        1
176
     0
 90
        4
176
     0
 62
     7
176
     0
 62
   257
176
     0
 90
        1
176
     0
 90
        1
176
     0
 40
1.0
176
     0
 90
        9
176
     2
 62
     7
176
     0
 40
1.0
176
     0
 90
        1
176
     0
 90
        6
176
     0
 90
        2
176
     0
 62
     7
176
     0
 90
        5
176
     0
 90
        0
176
     0
 90
        0
176
     0
290
     0
176
     0
 90
        1
176
     0
 40
0.0
176
     0
 90
        0
176
     0
290
     0
176
     0
290
     1
176
     0
290
     1
176
     0
290
     0
176
     0
290
     0
176
     0
290
     0
176
     0
290
     0
176
     0
290
     0
176
     0
290
     0
176
     0
 90
       50
176
     0
 40
0.0
176
     0
 40
1.0
176
     0
 90
        0
176
     0
 62
    18
420
        0
176
     0
 90
       50
176
     0
 90
        3
176
     0
 62
     5
420
      255
176
     0
290
     0
176
     0
 90
       50
176
     0
 90
       50
176
     0
 90
       50
176
     0
290
     0
176
     0
 90
       50
176
     0
 62
   256
176
     0
 40
1.0
176
     0
 90
        2
176
     0
  1
strokes_ogs.tif
176
     0
290
     0
176
     0
 40
1.0
176
     0
 40
1.0
176
     0
  0
VISUALSTYLE
  5
33
102
{ACAD_REACTORS
330
2A
102
}
330
2A
100
AcDbVisualStyle
  2
Realistic
 70
     8
177
     3
291
     0
 70
    58
 90
        2
176
     1
 90
        3
176
     1
 90
        0
176
     1
 90
        2
176
     1
 40
0.6
176
     1
 40
30.0
176
     1
 62
     7
420
 16777215
176
     1
 90
        0
176
     1
 90
        0
176
     1
 62
     7
176
     1
 62
   257
176
     1
 90
        1
176
     1
 90
        1
176
     1
 40
1.0
176
     1
 90
        8
176
     1
 62
   257
176
     1
 40
1.0
176
     1
 90
        1
176
     1
 90
        6
176
     1
 90
        2
176
     1
 62
     7
176
     1
 90
        3
176
     1
 90
        0
176
     1
 90
        0
176
     1
290
     0
176
     1
 90
       13
176
     1
 40
0.0
176
     1
 90
        0
176
     1
290
     0
176
     1
290
     1
176
     1
290
     1
176
     1
290
     0
176
     1
290
     0
176
     1
290
     0
176
     1
290
     0
176
     1
290
     0
176
     1
290
     0
176
     1
 90
       50
176
     1
 40
0.0
176
     1
 40
1.0
176
     1
 90
        0
176
     1
 62
    18
420
        0
176
     1
 90
       50
176
     1
 90
        3
176
     1
 62
     5
420
      255
176
     1
290
     0
176
     1
 90
       50
176
     1
 90
       50
176
     1
 90
       50
176
     1
290
     0
176
     1
 90
       50
176
     1
 62
   256
176
     0
 40
1.0
176
     0
 90
        2
176
     1
  1
strokes_ogs.tif
176
     1
290
     0
176
     1
 40
1.0
176
     1
 40
1.0
176
     1
  0
VISUALSTYLE
  5
42
102
{ACAD_REACTORS
330
2A
102
}
330
2A
100
AcDbVisualStyle
  2
Shaded
 70
    27
177
     3
291
     0
 70
    58
 90
        2
176
     1
 90
        2
176
     1
 90
        1
176
     1
 90
        2
176
     1
 40
0.6
176
     1
 40
30.0
176
     1
 62
     7
420
 16777215
176
     1
 90
        0
176
     1
 90
        4
176
     1
 62
     7
176
     1
 62
   257
176
     1
 90
        1
176
     1
 90
        1
176
     1
 40
1.0
176
     1
 90
        8
176
     1
 62
   257
176
     1
 40
1.0
176
     1
 90
        1
176
     1
 90
        6
176
     1
 90
        2
176
     1
 62
     8
420
  7895160
176
     1
 90
        3
176
     1
 90
        0
176
     1
 90
        0
176
     1
290
     0
176
     1
 90
        5
176
     1
 40
0.0
176
     1
 90
        0
176
     1
290
     0
176
     1
290
     1
176
     1
290
     1
176
     1
290
     0
176
     1
290
     0
176
     1
290
     0
176
     1
290
     0
176
     1
290
     0
176
     1
290
     0
176
     1
 90
       50
176
     1
 40
0.0
176
     1
 40
1.0
176
     1
 90
        0
176
     1
 62
    18
420
        0
176
     1
 90
       50
176
     1
 90
        3
176
     1
 62
     5
420
      255
176
     1
290
     0
176
     1
 90
       50
176
     1
 90
       50
176
     1
 90
       50
176
     1
290
     0
176
     1
 90
       50
176
     1
 62
   256
176
     0
 40
1.0
176
     0
 90
        2
176
     1
  1
strokes_ogs.tif
176
     1
290
     0
176
     1
 40
1.0
176
     1
 40
1.0
176
     1
  0
VISUALSTYLE
  5
41
102
{ACAD_REACTORS
330
2A
102
}
330
2A
100
AcDbVisualStyle
  2
Shaded with edges
 70
    26
177
     3
291
     0
 70
    58
 90
        2
176
     1
 90
        2
176
     1
 90
        1
176
     1
 90
        2
176
     1
 40
0.6
176
     1
 40
30.0
176
     1
 62
     7
420
 16777215
176
     1
 90
        1
176
     1
 90
       10
176
     1
 62
     7
176
     1
 62
   257
176
     1
 90
        2
176
     1
 90
        1
176
     1
 40
1.0
176
     1
 90
        8
176
     1
 62
   257
176
     1
 40
1.0
176
     1
 90
        1
176
     1
 90
        6
176
     1
 90
        2
176
     1
 62
     7
176
     1
 90
        3
176
     1
 90
        0
176
     1
 90
        0
176
     1
290
     0
176
     1
 90
        5
176
     1
 40
0.0
176
     1
 90
        0
176
     1
290
     0
176
     1
290
     1
176
     1
290
     1
176
     1
290
     0
176
     1
290
     0
176
     1
290
     0
176
     1
290
     0
176
     1
290
     0
176
     1
290
     0
176
     1
 90
       50
176
     1
 40
0.0
176
     1
 40
1.0
176
     1
 90
        0
176
     1
 62
    18
420
        0
176
     1
 90
       50
176
     1
 90
        3
176
     1
 62
     5
420
      255
176
     1
290
     0
176
     1
 90
       50
176
     1
 90
       50
176
     1
 90
       50
176
     1
290
     0
176
     1
 90
       50
176
     1
 62
   256
176
     0
 40
1.0
176
     0
 90
        2
176
     1
  1
strokes_ogs.tif
176
     1
290
     0
176
     1
 40
1.0
176
     1
 40
1.0
176
     1
  0
VISUALSTYLE
  5
3E
102
{ACAD_REACTORS
330
2A
102
}
330
2A
100
AcDbVisualStyle
  2
Shades of Gray
 70
    23
177
     3
291
     0
 70
    58
 90
        2
176
     1
 90
        2
176
     1
 90
        3
176
     1
 90
        0
176
     1
 40
0.6
176
     1
 40
30.0
176
     1
 62
     7
420
 16777215
176
     1
 90
        2
176
     1
 90
        2
176
     1
 62
     7
176
     1
 62
     7
176
     1
 90
        1
176
     1
 90
        1
176
     1
 40
40.0
176
     1
 90
        8
176
     1
 62
     7
176
     1
 40
1.0
176
     1
 90
        1
176
     1
 90
        6
176
     1
 90
        2
176
     1
 62
     7
176
     1
 90
        3
176
     1
 90
        0
176
     1
 90
        0
176
     1
290
     0
176
     1
 90
        1
176
     1
 40
0.0
176
     1
 90
        0
176
     1
290
     0
176
     1
290
     1
176
     1
290
     1
176
     1
290
     0
176
     1
290
     0
176
     1
290
     0
176
     1
290
     0
176
     1
290
     0
176
     1
290
     0
176
     1
 90
       50
176
     1
 40
0.0
176
     1
 40
1.0
176
     1
 90
        0
176
     1
 62
    18
420
        0
176
     1
 90
       50
176
     1
 90
        3
176
     1
 62
     5
420
      255
176
     1
290
     0
176
     1
 90
       50
176
     1
 90
       50
176
     1
 90
       50
176
     1
290
     0
176
     1
 90
       50
176
     1
 62
   256
176
     0
 40
1.0
176
     0
 90
        2
176
     1
  1
strokes_ogs.tif
176
     1
290
     0
176
     1
 40
1.0
176
     1
 40
1.0
176
     1
  0
VISUALSTYLE
  5
3F
102
{ACAD_REACTORS
330
2A
102
}
330
2A
100
AcDbVisualStyle
  2
Sketchy
 70
    24
177
     3
291
     0
 70
    58
 90
        1
176
     1
 90
        2
176
     1
 90
        2
176
     1
 90
        0
176
     1
 40
0.6
176
     1
 40
30.0
176
     1
 62
     7
420
 16777215
176
     1
 90
        2
176
     1
 90
        2
176
     1
 62
     7
176
     1
 62
     7
176
     1
 90
        1
176
     1
 90
        1
176
     1
 40
40.0
176
     1
 90
       11
176
     1
 62
     7
176
     1
 40
1.0
176
     1
 90
        1
176
     1
 90
        6
176
     1
 90
        2
176
     1
 62
     7
176
     1
 90
        6
176
     1
 90
        0
176
     1
 90
        0
176
     1
290
     0
176
     1
 90
        1
176
     1
 40
0.0
176
     1
 90
        0
176
     1
290
     0
176
     1
290
     1
176
     1
290
     1
176
     1
290
     0
176
     1
290
     0
176
     1
290
     0
176
     1
290
     0
176
     1
290
     0
176
     1
290
     0
176
     1
 90
       50
176
     1
 40
0.0
176
     1
 40
1.0
176
     1
 90
        0
176
     1
 62
    18
420
        0
176
     1
 90
       50
176
     1
 90
        3
176
     1
 62
     5
420
      255
176
     1
290
     0
176
     1
 90
       50
176
     1
 90
       50
176
     1
 90
       50
176
     1
290
     0
176
     1
 90
       50
176
     1
 62
   256
176
     0
 40
1.0
176
     0
 90
        2
176
     1
  1
strokes_ogs.tif
176
     1
290
     0
176
     1
 40
1.0
176
     1
 40
1.0
176
     1
  0
VISUALSTYLE
  5
37
102
{ACAD_REACTORS
330
2A
102
}
330
2A
100
AcDbVisualStyle
  2
Thicken
 70
    13
177
     3
291
     1
 70
    58
 90
        2
176
     1
 90
        2
176
     1
 90
        0
176
     1
 90
        0
176
     1
 40
0.6
176
     1
 40
30.0
176
     1
 62
     7
420
 16777215
176
     1
 90
        1
176
     1
 90
        4
176
     1
 62
     7
176
     1
 62
   257
176
     1
 90
        1
176
     1
 90
        1
176
     1
 40
1.0
176
     1
 90
       12
176
     1
 62
     7
176
     1
 40
1.0
176
     1
 90
        1
176
     1
 90
        6
176
     1
 90
        2
176
     1
 62
     7
176
     1
 90
        5
176
     1
 90
        0
176
     1
 90
        0
176
     1
290
     0
176
     1
 90
        1
176
     1
 40
0.0
176
     1
 90
        0
176
     1
290
     0
176
     1
290
     1
176
     1
290
     1
176
     1
290
     0
176
     1
290
     0
176
     1
290
     0
176
     1
290
     0
176
     1
290
     0
176
     1
290
     0
176
     1
 90
       50
176
     1
 40
0.0
176
     1
 40
1.0
176
     1
 90
        0
176
     1
 62
    18
420
        0
176
     1
 90
       50
176
     1
 90
        3
176
     1
 62
     5
420
      255
176
     1
290
     0
176
     1
 90
       50
176
     1
 90
       50
176
     1
 90
       50
176
     1
290
     0
176
     1
 90
       50
176
     1
 62
   256
176
     0
 40
1.0
176
     0
 90
        2
176
     1
  1
strokes_ogs.tif
176
     1
290
     0
176
     1
 40
1.0
176
     1
 40
1.0
176
     1
  0
VISUALSTYLE
  5
30
102
{ACAD_REACTORS
330
2A
102
}
330
2A
100
AcDbVisualStyle
  2
Wireframe
 70
     5
177
     3
291
     0
 70
    58
 90
        0
176
     1
 90
        2
176
     1
 90
        0
176
     1
 90
        0
176
     1
 40
0.6
176
     1
 40
30.0
176
     1
 62
     7
420
 16777215
176
     1
 90
        1
176
     1
 90
        4
176
     1
 62
     7
176
     1
 62
   257
176
     1
 90
        1
176
     1
 90
        1
176
     1
 40
1.0
176
     1
 90
        0
176
     1
 62
   257
176
     1
 40
1.0
176
     1
 90
        1
176
     1
 90
        6
176
     1
 90
        2
176
     1
 62
     7
176
     1
 90
        3
176
     1
 90
        0
176
     1
 90
        0
176
     1
290
     0
176
     1
 90
        1
176
     1
 40
0.0
176
     1
 90
        0
176
     1
290
     0
176
     1
290
     1
176
     1
290
     1
176
     1
290
     0
176
     1
290
     0
176
     1
290
     0
176
     1
290
     0
176
     1
290
     0
176
     1
290
     0
176
     1
 90
       50
176
     1
 40
0.0
176
     1
 40
1.0
176
     1
 90
        0
176
     1
 62
    18
420
        0
176
     1
 90
       50
176
     1
 90
        3
176
     1
 62
     5
420
      255
176
     1
290
     0
176
     1
 90
       50
176
     1
 90
       50
176
     1
 90
       50
176
     1
290
     0
176
     1
 90
       50
176
     1
 62
   256
176
     0
 40
1.0
176
     0
 90
        2
176
     1
  1
strokes_ogs.tif
176
     1
290
     0
176
     1
 40
1.0
176
     1
 40
1.0
176
     1
  0
VISUALSTYLE
  5
40
102
{ACAD_REACTORS
330
2A
102
}
330
2A
100
AcDbVisualStyle
  2
X-Ray
 70
    25
177
     3
291
     0
 70
    58
 90
        2
176
     1
 90
        2
176
     1
 90
        1
176
     1
 90
        1
176
     1
 40
0.5
176
     1
 40
30.0
176
     1
 62
     7
420
 16777215
176
     1
 90
        1
176
     1
 90
        0
176
     1
 62
     7
176
     1
 62
   257
176
     1
 90
        1
176
     1
 90
        1
176
     1
 40
1.0
176
     1
 90
        8
176
     1
 62
     7
176
     1
 40
1.0
176
     1
 90
        1
176
     1
 90
        6
176
     1
 90
        2
176
     1
 62
     7
176
     1
 90
        3
176
     1
 90
        0
176
     1
 90
        0
176
     1
290
     0
176
     1
 90
       13
176
     1
 40
0.0
176
     1
 90
        0
176
     1
290
     0
176
     1
290
     1
176
     1
290
     1
176
     1
290
     0
176
     1
290
     0
176
     1
290
     0
176
     1
290
     0
176
     1
290
     0
176
     1
290
     0
176
     1
 90
       50
176
     1
 40
0.0
176
     1
 40
1.0
176
     1
 90
        0
176
     1
 62
    18
420
        0
176
     1
 90
       50
176
     1
 90
        3
176
     1
 62
     5
420
      255
176
     1
290
     0
176
     1
 90
       50
176
     1
 90
       50
176
     1
 90
       50
176
     1
290
     0
176
     1
 90
       50
176
     1
 62
   256
176
     0
 40
1.0
176
     0
 90
        2
176
     1
  1
strokes_ogs.tif
176
     1
290
     0
176
     1
 40
1.0
176
     1
 40
1.0
176
     1
  0
DICTIONARYVAR
  5
408
102
{ACAD_REACTORS
330
407
102
}
330
407
100
DictionaryVariables
280
     0
  1
1:1
  0
DICTIONARYVAR
  5
40D
102
{ACAD_REACTORS
330
407
102
}
330
407
100
DictionaryVariables
280
     0
  1
Standard
  0
DICTIONARYVAR
  5
40C
102
{ACAD_REACTORS
330
407
102
}
330
407
100
DictionaryVariables
280
     0
  1
Standard
  0
DICTIONARYVAR
  5
410
102
{ACAD_REACTORS
330
407
102
}
330
407
100
DictionaryVariables
280
     0
  1
0
  0
DICTIONARY
  5
409
330
6A
100
AcDbDictionary
280
     1
281
     1
  3
ACAD_ROUNDTRIP_2008_TABLESTYLE_CELLSTYLEMAP
360
40A
  0
CELLSTYLEMAP
  5
40A
102
{ACAD_REACTORS
330
409
102
}
330
409
100
AcDbCellStyleMap
 90
        3
300
CELLSTYLE
  1
TABLEFORMAT_BEGIN
 90
        5
170
     1
 91
        0
 92
    32768
 62
   257
 93
        1
300
CONTENTFORMAT
  1
CONTENTFORMAT_BEGIN
 90
        0
 91
        0
 92
        4
 93
        0
300

 40
0.0
140
1.0
 94
        5
 62
     0
340
11
144
0.25
309
CONTENTFORMAT_END
171
     1
301
MARGIN
  1
CELLMARGIN_BEGIN
 40
0.06
 40
0.06
 40
0.06
 40
0.06
 40
0.06
 40
0.06
309
CELLMARGIN_END
 94
        6
 95
        1
302
GRIDFORMAT
  1
GRIDFORMAT_BEGIN
 90
        0
 91
        1
 62
     0
 92
       -2
340
14
 93
        0
 40
0.045
309
GRIDFORMAT_END
 95
        2
302
GRIDFORMAT
  1
GRIDFORMAT_BEGIN
 90
        0
 91
        1
 62
     0
 92
       -2
340
14
 93
        0
 40
0.045
309
GRIDFORMAT_END
 95
        4
302
GRIDFORMAT
  1
GRIDFORMAT_BEGIN
 90
        0
 91
        1
 62
     0
 92
       -2
340
14
 93
        0
 40
0.045
309
GRIDFORMAT_END
 95
        8
302
GRIDFORMAT
  1
GRIDFORMAT_BEGIN
 90
        0
 91
        1
 62
     0
 92
       -2
340
14
 93
        0
 40
0.045
309
GRIDFORMAT_END
 95
       16
302
GRIDFORMAT
  1
GRIDFORMAT_BEGIN
 90
        0
 91
        1
 62
     0
 92
       -2
340
14
 93
        0
 40
0.045
309
GRIDFORMAT_END
 95
       32
302
GRIDFORMAT
  1
GRIDFORMAT_BEGIN
 90
        0
 91
        1
 62
     0
 92
       -2
340
14
 93
        0
 40
0.045
309
GRIDFORMAT_END
309
TABLEFORMAT_END
  1
CELLSTYLE_BEGIN
 90
        1
 91
        1
300
_TITLE
309
CELLSTYLE_END
300
CELLSTYLE
  1
TABLEFORMAT_BEGIN
 90
        5
170
     1
 91
        0
 92
        0
 62
   257
 93
        1
300
CONTENTFORMAT
  1
CONTENTFORMAT_BEGIN
 90
        0
 91
        0
 92
        4
 93
        0
300

 40
0.0
140
1.0
 94
        5
 62
     0
340
11
144
0.18
309
CONTENTFORMAT_END
171
     1
301
MARGIN
  1
CELLMARGIN_BEGIN
 40
0.06
 40
0.06
 40
0.06
 40
0.06
 40
0.06
 40
0.06
309
CELLMARGIN_END
 94
        6
 95
        1
302
GRIDFORMAT
  1
GRIDFORMAT_BEGIN
 90
        0
 91
        1
 62
     0
 92
       -2
340
14
 93
        0
 40
0.045
309
GRIDFORMAT_END
 95
        2
302
GRIDFORMAT
  1
GRIDFORMAT_BEGIN
 90
        0
 91
        1
 62
     0
 92
       -2
340
14
 93
        0
 40
0.045
309
GRIDFORMAT_END
 95
        4
302
GRIDFORMAT
  1
GRIDFORMAT_BEGIN
 90
        0
 91
        1
 62
     0
 92
       -2
340
14
 93
        0
 40
0.045
309
GRIDFORMAT_END
 95
        8
302
GRIDFORMAT
  1
GRIDFORMAT_BEGIN
 90
        0
 91
        1
 62
     0
 92
       -2
340
14
 93
        0
 40
0.045
309
GRIDFORMAT_END
 95
       16
302
GRIDFORMAT
  1
GRIDFORMAT_BEGIN
 90
        0
 91
        1
 62
     0
 92
       -2
340
14
 93
        0
 40
0.045
309
GRIDFORMAT_END
 95
       32
302
GRIDFORMAT
  1
GRIDFORMAT_BEGIN
 90
        0
 91
        1
 62
     0
 92
       -2
340
14
 93
        0
 40
0.045
309
GRIDFORMAT_END
309
TABLEFORMAT_END
  1
CELLSTYLE_BEGIN
 90
        2
 91
        1
300
_HEADER
309
CELLSTYLE_END
300
CELLSTYLE
  1
TABLEFORMAT_BEGIN
 90
        5
170
     1
 91
        0
 92
        0
 62
   257
 93
        1
300
CONTENTFORMAT
  1
CONTENTFORMAT_BEGIN
 90
        0
 91
        0
 92
        4
 93
        0
300

 40
0.0
140
1.0
 94
        2
 62
     0
340
11
144
0.18
309
CONTENTFORMAT_END
171
     1
301
MARGIN
  1
CELLMARGIN_BEGIN
 40
0.06
 40
0.06
 40
0.06
 40
0.06
 40
0.06
 40
0.06
309
CELLMARGIN_END
 94
        6
 95
        1
302
GRIDFORMAT
  1
GRIDFORMAT_BEGIN
 90
        0
 91
        1
 62
     0
 92
       -2
340
14
 93
        0
 40
0.045
309
GRIDFORMAT_END
 95
        2
302
GRIDFORMAT
  1
GRIDFORMAT_BEGIN
 90
        0
 91
        1
 62
     0
 92
       -2
340
14
 93
        0
 40
0.045
309
GRIDFORMAT_END
 95
        4
302
GRIDFORMAT
  1
GRIDFORMAT_BEGIN
 90
        0
 91
        1
 62
     0
 92
       -2
340
14
 93
        0
 40
0.045
309
GRIDFORMAT_END
 95
        8
302
GRIDFORMAT
  1
GRIDFORMAT_BEGIN
 90
        0
 91
        1
 62
     0
 92
       -2
340
14
 93
        0
 40
0.045
309
GRIDFORMAT_END
 95
       16
302
GRIDFORMAT
  1
GRIDFORMAT_BEGIN
 90
        0
 91
        1
 62
     0
 92
       -2
340
14
 93
        0
 40
0.045
309
GRIDFORMAT_END
 95
       32
302
GRIDFORMAT
  1
GRIDFORMAT_BEGIN
 90
        0
 91
        1
 62
     0
 92
       -2
340
14
 93
        0
 40
0.045
309
GRIDFORMAT_END
309
TABLEFORMAT_END
  1
CELLSTYLE_BEGIN
 90
        3
 91
        2
300
_DATA
309
CELLSTYLE_END
  0
ENDSEC
  0
EOF
