  0
SECTION
  2
HEADER
  9
$ACADVER
  1
AC1027
  9
$ACADMAINTVER
 70
   105
  9
$DWGCODEPAGE
  3
ANSI_1252
  9
$REQUIREDVERSIONS
160
                 0
  9
$INSBASE
 10
0.0
 20
0.0
 30
0.0
  9
$EXTMIN
 10
1421.567125741473
 20
-3911.004899456169
 30
0.0
  9
$EXTMAX
 10
1815.567125741476
 20
-3369.004899456169
 30
0.0
  9
$LIMMIN
 10
0.0
 20
0.0
  9
$LIMMAX
 10
12.0
 20
9.0
  9
$ORTHOMODE
 70
     0
  9
$REGENMODE
 70
     1
  9
$FILLMODE
 70
     1
  9
$QTEXTMODE
 70
     0
  9
$MIRRTEXT
 70
     1
  9
$LTSCALE
 40
2.0
  9
$ATTMODE
 70
     1
  9
$TEXTSIZE
 40
0.2
  9
$TRACEWID
 40
0.05
  9
$TEXTSTYLE
  7
Standard
  9
$CLAYER
  8
0
  9
$CELTYPE
  6
ByLayer
  9
$CECOLOR
 62
   256
  9
$CELTSCALE
 40
1.0
  9
$DISPSILH
 70
     0
  9
$DIMSCALE
 40
1.0
  9
$DIMASZ
 40
0.18
  9
$DIMEXO
 40
0.0625
  9
$DIMDLI
 40
0.38
  9
$DIMRND
 40
0.0
  9
$DIMDLE
 40
0.0
  9
$DIMEXE
 40
0.18
  9
$DIMTP
 40
0.0
  9
$DIMTM
 40
0.0
  9
$DIMTXT
 40
0.18
  9
$DIMCEN
 40
0.09
  9
$DIMTSZ
 40
0.0
  9
$DIMTOL
 70
     0
  9
$DIMLIM
 70
     0
  9
$DIMTIH
 70
     1
  9
$DIMTOH
 70
     1
  9
$DIMSE1
 70
     0
  9
$DIMSE2
 70
     0
  9
$DIMTAD
 70
     0
  9
$DIMZIN
 70
     0
  9
$DIMBLK
  1

  9
$DIMASO
 70
     1
  9
$DIMSHO
 70
     1
  9
$DIMPOST
  1

  9
$DIMAPOST
  1

  9
$DIMALT
 70
     0
  9
$DIMALTD
 70
     2
  9
$DIMALTF
 40
25.4
  9
$DIMLFAC
 40
1.0
  9
$DIMTOFL
 70
     1
  9
$DIMTVP
 40
0.0
  9
$DIMTIX
 70
     0
  9
$DIMSOXD
 70
     1
  9
$DIMSAH
 70
     0
  9
$DIMBLK1
  1

  9
$DIMBLK2
  1

  9
$DIMSTYLE
  2
Standard
  9
$DIMCLRD
 70
     0
  9
$DIMCLRE
 70
     0
  9
$DIMCLRT
 70
     0
  9
$DIMTFAC
 40
1.0
  9
$DIMGAP
 40
0.09
  9
$DIMJUST
 70
     0
  9
$DIMSD1
 70
     0
  9
$DIMSD2
 70
     0
  9
$DIMTOLJ
 70
     1
  9
$DIMTZIN
 70
     0
  9
$DIMALTZ
 70
     0
  9
$DIMALTTZ
 70
     0
  9
$DIMUPT
 70
     0
  9
$DIMDEC
 70
     4
  9
$DIMTDEC
 70
     4
  9
$DIMALTU
 70
     2
  9
$DIMALTTD
 70
     2
  9
$DIMTXSTY
  7
Standard
  9
$DIMAUNIT
 70
     0
  9
$DIMADEC
 70
     0
  9
$DIMALTRND
 40
0.0
  9
$DIMAZIN
 70
     0
  9
$DIMDSEP
 70
    46
  9
$DIMATFIT
 70
     3
  9
$DIMFRAC
 70
     0
  9
$DIMLDRBLK
  1

  9
$DIMLUNIT
 70
     2
  9
$DIMLWD
 70
    -2
  9
$DIMLWE
 70
    -2
  9
$DIMTMOVE
 70
     2
  9
$DIMFXL
 40
1.0
  9
$DIMFXLON
 70
     0
  9
$DIMJOGANG
 40
0.7853981633974483
  9
$DIMTFILL
 70
     0
  9
$DIMTFILLCLR
 70
     0
  9
$DIMARCSYM
 70
     0
  9
$DIMLTYPE
  6

  9
$DIMLTEX1
  6

  9
$DIMLTEX2
  6

  9
$DIMTXTDIRECTION
 70
     0
  9
$LUNITS
 70
     2
  9
$LUPREC
 70
     4
  9
$SKETCHINC
 40
0.1
  9
$FILLETRAD
 40
0.5
  9
$AUNITS
 70
     0
  9
$AUPREC
 70
     0
  9
$MENU
  1
.
  9
$ELEVATION
 40
0.0
  9
$PELEVATION
 40
0.0
  9
$THICKNESS
 40
0.0
  9
$LIMCHECK
 70
     0
  9
$CHAMFERA
 40
0.0
  9
$CHAMFERB
 40
0.0
  9
$CHAMFERC
 40
0.0
  9
$CHAMFERD
 40
0.0
  9
$SKPOLY
 70
     0
  9
$TDCREATE
 40
2459184.529099097
  9
$TDUCREATE
 40
2459184.48743243
  9
$TDUPDATE
 40
2459184.529101342
  9
$TDUUPDATE
 40
2459184.487434676
  9
$TDINDWG
 40
0.0000000116
  9
$TDUSRTIMER
 40
0.0000000116
  9
$USRTIMER
 70
     1
  9
$ANGBASE
 50
0.0
  9
$ANGDIR
 70
     0
  9
$PDMODE
 70
     0
  9
$PDSIZE
 40
0.0
  9
$PLINEWID
 40
0.0
  9
$SPLFRAME
 70
     0
  9
$SPLINETYPE
 70
     6
  9
$SPLINESEGS
 70
     8
  9
$HANDSEED
  5
415
  9
$SURFTAB1
 70
     6
  9
$SURFTAB2
 70
     6
  9
$SURFTYPE
 70
     6
  9
$SURFU
 70
     6
  9
$SURFV
 70
     6
  9
$UCSBASE
  2

  9
$UCSNAME
  2

  9
$UCSORG
 10
0.0
 20
0.0
 30
0.0
  9
$UCSXDIR
 10
1.0
 20
0.0
 30
0.0
  9
$UCSYDIR
 10
0.0
 20
1.0
 30
0.0
  9
$UCSORTHOREF
  2

  9
$UCSORTHOVIEW
 70
     0
  9
$UCSORGTOP
 10
0.0
 20
0.0
 30
0.0
  9
$UCSORGBOTTOM
 10
0.0
 20
0.0
 30
0.0
  9
$UCSORGLEFT
 10
0.0
 20
0.0
 30
0.0
  9
$UCSORGRIGHT
 10
0.0
 20
0.0
 30
0.0
  9
$UCSORGFRONT
 10
0.0
 20
0.0
 30
0.0
  9
$UCSORGBACK
 10
0.0
 20
0.0
 30
0.0
  9
$PUCSBASE
  2

  9
$PUCSNAME
  2

  9
$PUCSORG
 10
0.0
 20
0.0
 30
0.0
  9
$PUCSXDIR
 10
1.0
 20
0.0
 30
0.0
  9
$PUCSYDIR
 10
0.0
 20
1.0
 30
0.0
  9
$PUCSORTHOREF
  2

  9
$PUCSORTHOVIEW
 70
     0
  9
$PUCSORGTOP
 10
0.0
 20
0.0
 30
0.0
  9
$PUCSORGBOTTOM
 10
0.0
 20
0.0
 30
0.0
  9
$PUCSORGLEFT
 10
0.0
 20
0.0
 30
0.0
  9
$PUCSORGRIGHT
 10
0.0
 20
0.0
 30
0.0
  9
$PUCSORGFRONT
 10
0.0
 20
0.0
 30
0.0
  9
$PUCSORGBACK
 10
0.0
 20
0.0
 30
0.0
  9
$USERI1
 70
     0
  9
$USERI2
 70
     0
  9
$USERI3
 70
     0
  9
$USERI4
 70
     0
  9
$USERI5
 70
     0
  9
$USERR1
 40
0.0
  9
$USERR2
 40
0.0
  9
$USERR3
 40
0.0
  9
$USERR4
 40
0.0
  9
$USERR5
 40
0.0
  9
$WORLDVIEW
 70
     1
  9
$SHADEDGE
 70
     3
  9
$SHADEDIF
 70
    70
  9
$TILEMODE
 70
     1
  9
$MAXACTVP
 70
    64
  9
$PINSBASE
 10
0.0
 20
0.0
 30
0.0
  9
$PLIMCHECK
 70
     0
  9
$PEXTMIN
 10
0.0
 20
0.0
 30
0.0
  9
$PEXTMAX
 10
197.5999999999998
 20
271.6
 30
0.0
  9
$PLIMMIN
 10
-20.0
 20
-7.5
  9
$PLIMMAX
 10
277.0
 20
202.5
  9
$UNITMODE
 70
     0
  9
$VISRETAIN
 70
     1
  9
$PLINEGEN
 70
     0
  9
$PSLTSCALE
 70
     0
  9
$TREEDEPTH
 70
  3020
  9
$CMLSTYLE
  2
Standard
  9
$CMLJUST
 70
     0
  9
$CMLSCALE
 40
1.0
  9
$PROXYGRAPHICS
 70
     1
  9
$MEASUREMENT
 70
     1
  9
$CELWEIGHT
370
    -1
  9
$ENDCAPS
280
     0
  9
$JOINSTYLE
280
     0
  9
$LWDISPLAY
290
     0
  9
$INSUNITS
 70
     4
  9
$HYPERLINKBASE
  1

  9
$STYLESHEET
  1

  9
$XEDIT
290
     1
  9
$CEPSNTYPE
380
     0
  9
$PSTYLEMODE
290
     0
  9
$FINGERPRINTGUID
  2
{6AE00880-4C92-4C17-BC99-B7DF79CC3C5F}
  9
$VERSIONGUID
  2
{FAEB1C32-E019-11D5-929B-00C0DF256EC4}
  9
$EXTNAMES
290
     1
  9
$PSVPSCALE
 40
0.0
  9
$OLESTARTUP
290
     0
  9
$SORTENTS
280
   127
  9
$INDEXCTL
280
     0
  9
$HIDETEXT
280
     1
  9
$XCLIPFRAME
280
     2
  9
$HALOGAP
280
     0
  9
$OBSCOLOR
 70
   257
  9
$OBSLTYPE
280
     0
  9
$INTERSECTIONDISPLAY
280
     0
  9
$INTERSECTIONCOLOR
 70
   257
  9
$DIMASSOC
280
     2
  9
$PROJECTNAME
  1

  9
$CAMERADISPLAY
290
     0
  9
$LENSLENGTH
 40
50.0
  9
$CAMERAHEIGHT
 40
0.0
  9
$STEPSPERSEC
 40
2.0
  9
$STEPSIZE
 40
6.0
  9
$3DDWFPREC
 40
2.0
  9
$PSOLWIDTH
 40
0.25
  9
$PSOLHEIGHT
 40
4.0
  9
$LOFTANG1
 40
1.570796326794897
  9
$LOFTANG2
 40
1.570796326794897
  9
$LOFTMAG1
 40
0.0
  9
$LOFTMAG2
 40
0.0
  9
$LOFTPARAM
 70
     7
  9
$LOFTNORMALS
280
     1
  9
$LATITUDE
 40
37.795
  9
$LONGITUDE
 40
-122.394
  9
$NORTHDIRECTION
 40
0.0
  9
$TIMEZONE
 70
 -8000
  9
$LIGHTGLYPHDISPLAY
280
     1
  9
$TILEMODELIGHTSYNCH
280
     1
  9
$CMATERIAL
347
44
  9
$SOLIDHIST
280
     0
  9
$SHOWHIST
280
     1
  9
$DWFFRAME
280
     2
  9
$DGNFRAME
280
     2
  9
$REALWORLDSCALE
290
     1
  9
$INTERFERECOLOR
 62
   256
  9
$CSHADOW
280
     0
  9
$SHADOWPLANELOCATION
 40
0.0
  0
ENDSEC
  0
SECTION
  2
CLASSES
  0
CLASS
  1
ACDBDICTIONARYWDFLT
  2
AcDbDictionaryWithDefault
  3
ObjectDBX Classes
 90
        0
 91
        3
280
     0
281
     0
  0
CLASS
  1
VISUALSTYLE
  2
AcDbVisualStyle
  3
ObjectDBX Classes
 90
     4095
 91
        3
280
     0
281
     0
  0
CLASS
  1
MATERIAL
  2
AcDbMaterial
  3
ObjectDBX Classes
 90
     1153
 91
        3
280
     0
281
     0
  0
CLASS
  1
SCALE
  2
AcDbScale
  3
ObjectDBX Classes
 90
     1153
 91
        3
280
     0
281
     0
  0
CLASS
  1
TABLESTYLE
  2
AcDbTableStyle
  3
ObjectDBX Classes
 90
     4095
 91
        3
280
     0
281
     0
  0
CLASS
  1
MLEADERSTYLE
  2
AcDbMLeaderStyle
  3
ACDB_MLEADERSTYLE_CLASS
 90
     4095
 91
        3
280
     0
281
     0
  0
CLASS
  1
SUN
  2
AcDbSun
  3
SCENEOE
 90
     1153
 91
        3
280
     0
281
     0
  0
CLASS
  1
RASTERVARIABLES
  2
AcDbRasterVariables
  3
ISM
 90
        0
 91
        3
280
     0
281
     0
  0
CLASS
  1
PLOTSETTINGS
  2
AcDbPlotSettings
  3
ObjectDBX Classes
 90
        0
 91
        3
280
     0
281
     0
  0
CLASS
  1
IMAGEDEF
  2
AcDbRasterImageDef
  3
ISM
 90
        0
 91
        3
280
     0
281
     0
  0
CLASS
  1
IMAGE
  2
AcDbRasterImage
  3
ISM
 90
      127
 91
        4
280
     0
281
     1
  0
CLASS
  1
IMAGEDEF_REACTOR
  2
AcDbRasterImageDefReactor
  3
ISM
 90
        1
 91
        3
280
     0
281
     0
  0
CLASS
  1
WIPEOUT
  2
AcDbWipeout
  3
WipeOut|AutoCAD Express Tool|expresstools@autodesk.com
 90
      127
 91
        3
280
     0
281
     1
  0
CLASS
  1
DICTIONARYVAR
  2
AcDbDictionaryVar
  3
ObjectDBX Classes
 90
        0
 91
        3
280
     0
281
     0
  0
CLASS
  1
CELLSTYLEMAP
  2
AcDbCellStyleMap
  3
ObjectDBX Classes
 90
     1152
 91
        3
280
     0
281
     0
  0
ENDSEC
  0
SECTION
  2
TABLES
  0
TABLE
  2
VPORT
  5
8
330
0
100
AcDbSymbolTable
 70
     1
  0
VPORT
  5
29
330
8
100
AcDbSymbolTableRecord
100
AcDbViewportTableRecord
  2
*Active
 70
     0
 10
0.0
 20
0.0
 11
1.0
 21
1.0
 12
10.42990654205607
 22
4.5
 13
0.0
 23
0.0
 14
0.5
 24
0.5
 15
0.5
 25
0.5
 16
0.0
 26
0.0
 36
1.0
 17
0.0
 27
0.0
 37
0.0
 40
9.0
 41
1.972972972850329
 42
50.0
 43
0.0
 44
0.0
 50
0.0
 51
0.0
 71
     0
 72
   100
 73
     1
 74
     3
 75
     0
 76
     0
 77
     0
 78
     0
281
     0
 65
     1
110
0.0
120
0.0
130
0.0
111
1.0
121
0.0
131
0.0
112
0.0
122
1.0
132
0.0
 79
     0
146
0.0
348
2F
 60
     3
 61
     5
292
     1
282
     1
141
0.0
142
0.0
 63
   250
361
6D
  0
ENDTAB
  0
TABLE
  2
LTYPE
  5
5
330
0
100
AcDbSymbolTable
 70
     2
  0
LTYPE
  5
14
330
5
100
AcDbSymbolTableRecord
100
AcDbLinetypeTableRecord
  2
ByBlock
 70
     0
  3

 72
    65
 73
     0
 40
0.0
  0
LTYPE
  5
15
330
5
100
AcDbSymbolTableRecord
100
AcDbLinetypeTableRecord
  2
ByLayer
 70
     0
  3

 72
    65
 73
     0
 40
0.0
  0
LTYPE
  5
16
330
5
100
AcDbSymbolTableRecord
100
AcDbLinetypeTableRecord
  2
Continuous
 70
     0
  3
Solid line
 72
    65
 73
     0
 40
0.0
  0
LTYPE
  5
182
330
5
100
AcDbSymbolTableRecord
100
AcDbLinetypeTableRecord
  2
CADWORK_3
 70
     0
  3

 72
    65
 73
     2
 40
4.0
 49
2.0
 74
     0
 49
-2.0
 74
     0
  0
ENDTAB
  0
TABLE
  2
LAYER
  5
2
330
0
100
AcDbSymbolTable
 70
    18
  0
LAYER
  5
10
330
2
100
AcDbSymbolTableRecord
100
AcDbLayerTableRecord
  2
0
 70
     0
 62
     7
  6
Continuous
370
    -3
390
F
347
46
348
0
  0
LAYER
  5
70
330
2
100
AcDbSymbolTableRecord
100
AcDbLayerTableRecord
  2
Standard
 70
     0
 62
     7
  6
Continuous
370
    -3
390
F
347
46
348
0
  0
LAYER
  5
71
330
2
100
AcDbSymbolTableRecord
100
AcDbLayerTableRecord
  2
Ech.1_1
 70
     0
 62
     7
  6
Continuous
370
    -3
390
F
347
46
348
0
  0
LAYER
  5
72
330
2
100
AcDbSymbolTableRecord
100
AcDbLayerTableRecord
  2
Ech.1_2
 70
     0
 62
     7
  6
Continuous
370
    -3
390
F
347
46
348
0
  0
LAYER
  5
73
330
2
100
AcDbSymbolTableRecord
100
AcDbLayerTableRecord
  2
Ech.1_5
 70
     0
 62
     7
  6
Continuous
370
    -3
390
F
347
46
348
0
  0
LAYER
  5
74
330
2
100
AcDbSymbolTableRecord
100
AcDbLayerTableRecord
  2
Ech.1_10
 70
     0
 62
     7
  6
Continuous
370
    -3
390
F
347
46
348
0
  0
LAYER
  5
75
330
2
100
AcDbSymbolTableRecord
100
AcDbLayerTableRecord
  2
Ech.1_20
 70
     0
 62
     7
  6
Continuous
370
    -3
390
F
347
46
348
0
  0
LAYER
  5
76
330
2
100
AcDbSymbolTableRecord
100
AcDbLayerTableRecord
  2
Ech.1_25
 70
     0
 62
     7
  6
Continuous
370
    -3
390
F
347
46
348
0
  0
LAYER
  5
77
330
2
100
AcDbSymbolTableRecord
100
AcDbLayerTableRecord
  2
Ech.1_33
 70
     0
 62
     7
  6
Continuous
370
    -3
390
F
347
46
348
0
  0
LAYER
  5
78
330
2
100
AcDbSymbolTableRecord
100
AcDbLayerTableRecord
  2
Ech.1_50
 70
     0
 62
     7
  6
Continuous
370
    -3
390
F
347
46
348
0
  0
LAYER
  5
79
330
2
100
AcDbSymbolTableRecord
100
AcDbLayerTableRecord
  2
Ech.1_75
 70
     0
 62
     7
  6
Continuous
370
    -3
390
F
347
46
348
0
  0
LAYER
  5
7A
330
2
100
AcDbSymbolTableRecord
100
AcDbLayerTableRecord
  2
Ech.1_100
 70
     0
 62
     7
  6
Continuous
370
    -3
390
F
347
46
348
0
  0
LAYER
  5
7B
330
2
100
AcDbSymbolTableRecord
100
AcDbLayerTableRecord
  2
Ech.1_200
 70
     0
 62
     7
  6
Continuous
370
    -3
390
F
347
46
348
0
  0
LAYER
  5
7C
330
2
100
AcDbSymbolTableRecord
100
AcDbLayerTableRecord
  2
Ech.1_500
 70
     0
 62
     7
  6
Continuous
370
    -3
390
F
347
46
348
0
  0
LAYER
  5
7D
330
2
100
AcDbSymbolTableRecord
100
AcDbLayerTableRecord
  2
Ech.1_1000
 70
     0
 62
     7
  6
Continuous
370
    -3
390
F
347
46
348
0
  0
LAYER
  5
7E
330
2
100
AcDbSymbolTableRecord
100
AcDbLayerTableRecord
  2
Cadres traceur
 70
     0
 62
     7
  6
Continuous
370
    -3
390
F
347
46
348
0
  0
LAYER
  5
7F
330
2
100
AcDbSymbolTableRecord
100
AcDbLayerTableRecord
  2
Cadres laser
 70
     0
 62
     7
  6
Continuous
370
    -3
390
F
347
46
348
0
  0
LAYER
  5
80
330
2
100
AcDbSymbolTableRecord
100
AcDbLayerTableRecord
  2
Légende d_aide
 70
     0
 62
     7
  6
Continuous
370
    -3
390
F
347
46
348
0
  0
ENDTAB
  0
TABLE
  2
STYLE
  5
3
330
0
100
AcDbSymbolTable
 70
     9
  0
STYLE
  5
11
330
3
100
AcDbSymbolTableRecord
100
AcDbTextStyleTableRecord
  2
Standard
 70
     0
 40
0.0
 41
1.0
 50
0.0
 71
     0
 42
0.2
  3
txt
  4

  0
STYLE
  5
81
330
3
100
AcDbSymbolTableRecord
100
AcDbTextStyleTableRecord
  2
CwStyleShx
 70
     0
 40
1.0
 41
1.0
 50
0.0
 71
     0
 42
0.2
  3

  4

  0
STYLE
  5
82
330
3
100
AcDbSymbolTableRecord
100
AcDbTextStyleTableRecord
  2
CwStyleShx16
 70
     0
 40
1.0
 41
1.0
 50
0.0
 71
     0
 42
0.2
  3

  4

  0
STYLE
  5
83
330
3
100
AcDbSymbolTableRecord
100
AcDbTextStyleTableRecord
  2
MONOTXT
 70
     0
 40
0.0
 41
1.0
 50
0.0
 71
     0
 42
0.2
  3
MONOTXT
  4

  0
STYLE
  5
84
330
3
100
AcDbSymbolTableRecord
100
AcDbTextStyleTableRecord
  2
SYMAP
 70
     0
 40
1.0
 41
1.0
 50
0.0
 71
     0
 42
0.2
  3
SYMAP
  4

  0
STYLE
  5
85
330
3
100
AcDbSymbolTableRecord
100
AcDbTextStyleTableRecord
  2
CwStyleTtf
 70
     0
 40
1.0
 41
1.0
 50
0.0
 71
     0
 42
0.2
  3
arial.ttf
  4

  0
STYLE
  5
3EC
330
3
100
AcDbSymbolTableRecord
100
AcDbTextStyleTableRecord
  2
arial-
 70
     0
 40
1.0
 41
1.0
 50
0.0
 71
     0
 42
0.2
  3
arial.ttf
  4

1001
ACAD
1000
Arial
1071
        0
  0
STYLE
  5
3EF
330
3
100
AcDbSymbolTableRecord
100
AcDbTextStyleTableRecord
  2
arial-b
 70
     0
 40
1.0
 41
1.0
 50
0.0
 71
     0
 42
0.2
  3
arialbd.ttf
  4

1001
ACAD
1000
Arial
1071
 33554432
  0
STYLE
  5
3F1
330
3
100
AcDbSymbolTableRecord
100
AcDbTextStyleTableRecord
  2
tahoma-b
 70
     0
 40
1.0
 41
1.0
 50
0.0
 71
     0
 42
0.2
  3
tahomabd.ttf
  4

1001
ACAD
1000
Tahoma
1071
 33554432
  0
ENDTAB
  0
TABLE
  2
VIEW
  5
6
330
0
100
AcDbSymbolTable
 70
     0
  0
ENDTAB
  0
TABLE
  2
UCS
  5
7
330
0
100
AcDbSymbolTable
 70
     0
  0
ENDTAB
  0
TABLE
  2
APPID
  5
9
330
0
100
AcDbSymbolTable
 70
     3
  0
APPID
  5
12
330
9
100
AcDbSymbolTableRecord
100
AcDbRegAppTableRecord
  2
ACAD
 70
     0
  0
APPID
  5
6E
330
9
100
AcDbSymbolTableRecord
100
AcDbRegAppTableRecord
  2
Cadwork
 70
     0
  0
APPID
  5
232
330
9
100
AcDbSymbolTableRecord
100
AcDbRegAppTableRecord
  2
PLOTTRANSPARENCY
 70
     0
  0
ENDTAB
  0
TABLE
  2
DIMSTYLE
  5
A
330
0
100
AcDbSymbolTable
 70
     1
100
AcDbDimStyleTable
  0
DIMSTYLE
105
27
330
A
100
AcDbSymbolTableRecord
100
AcDbDimStyleTableRecord
  2
Standard
 70
     0
178
     0
340
11
  0
ENDTAB
  0
TABLE
  2
BLOCK_RECORD
  5
1
330
0
100
AcDbSymbolTable
 70
    69
  0
BLOCK_RECORD
  5
1F
330
1
100
AcDbSymbolTableRecord
100
AcDbBlockTableRecord
  2
*Model_Space
340
22
 70
     0
280
     1
281
     0
  0
BLOCK_RECORD
  5
22D
330
1
100
AcDbSymbolTableRecord
100
AcDbBlockTableRecord
  2
*Paper_Space
340
22E
 70
     0
280
     1
281
     0
  0
BLOCK_RECORD
  5
86
330
1
100
AcDbSymbolTableRecord
100
AcDbBlockTableRecord
  2
CDWK_PTTYP1
340
0
 70
     0
280
     1
281
     1
  0
BLOCK_RECORD
  5
8D
330
1
100
AcDbSymbolTableRecord
100
AcDbBlockTableRecord
  2
CDWK_PTTYP2
340
0
 70
     0
280
     1
281
     1
  0
BLOCK_RECORD
  5
92
330
1
100
AcDbSymbolTableRecord
100
AcDbBlockTableRecord
  2
CDWK_PTTYP4
340
0
 70
     0
280
     1
281
     1
  0
BLOCK_RECORD
  5
96
330
1
100
AcDbSymbolTableRecord
100
AcDbBlockTableRecord
  2
CDWK_PTTYP5
340
0
 70
     0
280
     1
281
     1
  0
BLOCK_RECORD
  5
9F
330
1
100
AcDbSymbolTableRecord
100
AcDbBlockTableRecord
  2
CDWK_PTTYP6
340
0
 70
     0
280
     1
281
     1
  0
BLOCK_RECORD
  5
A7
330
1
100
AcDbSymbolTableRecord
100
AcDbBlockTableRecord
  2
CDWK_PTTYP7
340
0
 70
     0
280
     1
281
     1
  0
BLOCK_RECORD
  5
B0
330
1
100
AcDbSymbolTableRecord
100
AcDbBlockTableRecord
  2
CDWK_PTTYP8
340
0
 70
     0
280
     1
281
     1
  0
BLOCK_RECORD
  5
B4
330
1
100
AcDbSymbolTableRecord
100
AcDbBlockTableRecord
  2
CDWK_PTTYP9
340
0
 70
     0
280
     1
281
     1
  0
BLOCK_RECORD
  5
B9
330
1
100
AcDbSymbolTableRecord
100
AcDbBlockTableRecord
  2
CDWK_PTTYP10
340
0
 70
     0
280
     1
281
     1
  0
BLOCK_RECORD
  5
BD
330
1
100
AcDbSymbolTableRecord
100
AcDbBlockTableRecord
  2
CDWK_PTTYP11
340
0
 70
     0
280
     1
281
     1
  0
BLOCK_RECORD
  5
C2
330
1
100
AcDbSymbolTableRecord
100
AcDbBlockTableRecord
  2
CDWK_PTTYP12
340
0
 70
     0
280
     1
281
     1
  0
BLOCK_RECORD
  5
C7
330
1
100
AcDbSymbolTableRecord
100
AcDbBlockTableRecord
  2
CDWK_PTTYP13
340
0
 70
     0
280
     1
281
     1
  0
BLOCK_RECORD
  5
CD
330
1
100
AcDbSymbolTableRecord
100
AcDbBlockTableRecord
  2
CDWK_PTTYP16
340
0
 70
     0
280
     1
281
     1
  0
BLOCK_RECORD
  5
D4
330
1
100
AcDbSymbolTableRecord
100
AcDbBlockTableRecord
  2
CDWK_PTTYP17
340
0
 70
     0
280
     1
281
     1
  0
BLOCK_RECORD
  5
D9
330
1
100
AcDbSymbolTableRecord
100
AcDbBlockTableRecord
  2
CDWK_PTTYP18
340
0
 70
     0
280
     1
281
     1
  0
BLOCK_RECORD
  5
DE
330
1
100
AcDbSymbolTableRecord
100
AcDbBlockTableRecord
  2
CDWK_PTTYP19
340
0
 70
     0
280
     1
281
     1
  0
BLOCK_RECORD
  5
E4
330
1
100
AcDbSymbolTableRecord
100
AcDbBlockTableRecord
  2
CDWK_PTTYP20
340
0
 70
     0
280
     1
281
     1
  0
BLOCK_RECORD
  5
E9
330
1
100
AcDbSymbolTableRecord
100
AcDbBlockTableRecord
  2
CDWK_PTTYP21
340
0
 70
     0
280
     1
281
     1
  0
BLOCK_RECORD
  5
EE
330
1
100
AcDbSymbolTableRecord
100
AcDbBlockTableRecord
  2
CDWK_PTTYP25
340
0
 70
     0
280
     1
281
     1
  0
BLOCK_RECORD
  5
F5
330
1
100
AcDbSymbolTableRecord
100
AcDbBlockTableRecord
  2
CDWK_PTTYP26
340
0
 70
     0
280
     1
281
     1
  0
BLOCK_RECORD
  5
FC
330
1
100
AcDbSymbolTableRecord
100
AcDbBlockTableRecord
  2
CDWK_PTTYP27
340
0
 70
     0
280
     1
281
     1
  0
BLOCK_RECORD
  5
104
330
1
100
AcDbSymbolTableRecord
100
AcDbBlockTableRecord
  2
CDWK_PTTYP28
340
0
 70
     0
280
     1
281
     1
  0
BLOCK_RECORD
  5
10B
330
1
100
AcDbSymbolTableRecord
100
AcDbBlockTableRecord
  2
CDWK_PTTYP29
340
0
 70
     0
280
     1
281
     1
  0
BLOCK_RECORD
  5
111
330
1
100
AcDbSymbolTableRecord
100
AcDbBlockTableRecord
  2
CDWK_PTTYP30
340
0
 70
     0
280
     1
281
     1
  0
BLOCK_RECORD
  5
118
330
1
100
AcDbSymbolTableRecord
100
AcDbBlockTableRecord
  2
CDWK_PTTYP31
340
0
 70
     0
280
     1
281
     1
  0
BLOCK_RECORD
  5
120
330
1
100
AcDbSymbolTableRecord
100
AcDbBlockTableRecord
  2
CDWK_PTTYP32
340
0
 70
     0
280
     1
281
     1
  0
BLOCK_RECORD
  5
129
330
1
100
AcDbSymbolTableRecord
100
AcDbBlockTableRecord
  2
CDWK_PTTYP33
340
0
 70
     0
280
     1
281
     1
  0
BLOCK_RECORD
  5
12F
330
1
100
AcDbSymbolTableRecord
100
AcDbBlockTableRecord
  2
CDWK_PTTYP34
340
0
 70
     0
280
     1
281
     1
  0
BLOCK_RECORD
  5
135
330
1
100
AcDbSymbolTableRecord
100
AcDbBlockTableRecord
  2
CDWK_PTTYP35
340
0
 70
     0
280
     1
281
     1
  0
BLOCK_RECORD
  5
13B
330
1
100
AcDbSymbolTableRecord
100
AcDbBlockTableRecord
  2
CDWK_PTTYP36
340
0
 70
     0
280
     1
281
     1
  0
BLOCK_RECORD
  5
143
330
1
100
AcDbSymbolTableRecord
100
AcDbBlockTableRecord
  2
CDWK_PTTYP37
340
0
 70
     0
280
     1
281
     1
  0
BLOCK_RECORD
  5
148
330
1
100
AcDbSymbolTableRecord
100
AcDbBlockTableRecord
  2
CDWK_PTTYP38
340
0
 70
     0
280
     1
281
     1
  0
BLOCK_RECORD
  5
14E
330
1
100
AcDbSymbolTableRecord
100
AcDbBlockTableRecord
  2
CDWK_PTTYP41
340
0
 70
     0
280
     1
281
     1
  0
BLOCK_RECORD
  5
158
330
1
100
AcDbSymbolTableRecord
100
AcDbBlockTableRecord
  2
CDWK_PTTYP42
340
0
 70
     0
280
     1
281
     1
  0
BLOCK_RECORD
  5
161
330
1
100
AcDbSymbolTableRecord
100
AcDbBlockTableRecord
  2
CDWK_PTTYP43
340
0
 70
     0
280
     1
281
     1
  0
BLOCK_RECORD
  5
167
330
1
100
AcDbSymbolTableRecord
100
AcDbBlockTableRecord
  2
CDWK_PTTYP44
340
0
 70
     0
280
     1
281
     1
  0
BLOCK_RECORD
  5
170
330
1
100
AcDbSymbolTableRecord
100
AcDbBlockTableRecord
  2
CDWK_PTTYP45
340
0
 70
     0
280
     1
281
     1
  0
BLOCK_RECORD
  5
175
330
1
100
AcDbSymbolTableRecord
100
AcDbBlockTableRecord
  2
CDWK_PTTYP46
340
0
 70
     0
280
     1
281
     1
  0
BLOCK_RECORD
  5
17A
330
1
100
AcDbSymbolTableRecord
100
AcDbBlockTableRecord
  2
CDWK_PTTYP47
340
0
 70
     0
280
     1
281
     1
  0
BLOCK_RECORD
  5
183
330
1
100
AcDbSymbolTableRecord
100
AcDbBlockTableRecord
  2
CDWK_PTTYP48
340
0
 70
     0
280
     1
281
     1
  0
BLOCK_RECORD
  5
188
330
1
100
AcDbSymbolTableRecord
100
AcDbBlockTableRecord
  2
CDWK_PTTYP49
340
0
 70
     0
280
     1
281
     1
  0
BLOCK_RECORD
  5
18F
330
1
100
AcDbSymbolTableRecord
100
AcDbBlockTableRecord
  2
CDWK_PTTYP50
340
0
 70
     0
280
     1
281
     1
  0
BLOCK_RECORD
  5
199
330
1
100
AcDbSymbolTableRecord
100
AcDbBlockTableRecord
  2
CDWK_PTTYP51
340
0
 70
     0
280
     1
281
     1
  0
BLOCK_RECORD
  5
19E
330
1
100
AcDbSymbolTableRecord
100
AcDbBlockTableRecord
  2
CDWK_PTTYP52
340
0
 70
     0
280
     1
281
     1
  0
BLOCK_RECORD
  5
1A4
330
1
100
AcDbSymbolTableRecord
100
AcDbBlockTableRecord
  2
cw-dimension-symbol1
340
0
 70
     0
280
     1
281
     0
  0
BLOCK_RECORD
  5
1AB
330
1
100
AcDbSymbolTableRecord
100
AcDbBlockTableRecord
  2
cw-dimension-symbol2
340
0
 70
     0
280
     1
281
     0
  0
BLOCK_RECORD
  5
1B0
330
1
100
AcDbSymbolTableRecord
100
AcDbBlockTableRecord
  2
cw-dimension-symbol3
340
0
 70
     0
280
     1
281
     0
  0
BLOCK_RECORD
  5
1B5
330
1
100
AcDbSymbolTableRecord
100
AcDbBlockTableRecord
  2
cw-dimension-symbol5
340
0
 70
     0
280
     1
281
     0
  0
BLOCK_RECORD
  5
1BC
330
1
100
AcDbSymbolTableRecord
100
AcDbBlockTableRecord
  2
cw-dimension-symbol6
340
0
 70
     0
280
     1
281
     0
  0
BLOCK_RECORD
  5
1C2
330
1
100
AcDbSymbolTableRecord
100
AcDbBlockTableRecord
  2
cw-dimension-symbol11
340
0
 70
     0
280
     1
281
     0
  0
BLOCK_RECORD
  5
1C8
330
1
100
AcDbSymbolTableRecord
100
AcDbBlockTableRecord
  2
cw-dimension-symbol13
340
0
 70
     0
280
     1
281
     0
  0
BLOCK_RECORD
  5
1CE
330
1
100
AcDbSymbolTableRecord
100
AcDbBlockTableRecord
  2
cw-dimension-symbol15
340
0
 70
     0
280
     1
281
     0
  0
BLOCK_RECORD
  5
1D5
330
1
100
AcDbSymbolTableRecord
100
AcDbBlockTableRecord
  2
cw-dimension-symbol16
340
0
 70
     0
280
     1
281
     0
  0
BLOCK_RECORD
  5
1DC
330
1
100
AcDbSymbolTableRecord
100
AcDbBlockTableRecord
  2
cw-dimension-symbol17
340
0
 70
     0
280
     1
281
     0
  0
BLOCK_RECORD
  5
1E3
330
1
100
AcDbSymbolTableRecord
100
AcDbBlockTableRecord
  2
cw-dimension-symbol18
340
0
 70
     0
280
     1
281
     0
  0
BLOCK_RECORD
  5
1EA
330
1
100
AcDbSymbolTableRecord
100
AcDbBlockTableRecord
  2
cw-dimension-symbol19
340
0
 70
     0
280
     1
281
     0
  0
BLOCK_RECORD
  5
1ED
330
1
100
AcDbSymbolTableRecord
100
AcDbBlockTableRecord
  2
cw-dimension-symbol20
340
0
 70
     0
280
     1
281
     0
  0
BLOCK_RECORD
  5
1F4
330
1
100
AcDbSymbolTableRecord
100
AcDbBlockTableRecord
  2
cw-dimension-symbol21
340
0
 70
     0
280
     1
281
     0
  0
BLOCK_RECORD
  5
1FB
330
1
100
AcDbSymbolTableRecord
100
AcDbBlockTableRecord
  2
cw-line-extremity0
340
0
 70
     0
280
     1
281
     0
  0
BLOCK_RECORD
  5
1FF
330
1
100
AcDbSymbolTableRecord
100
AcDbBlockTableRecord
  2
cw-line-extremity2
340
0
 70
     0
280
     1
281
     0
  0
BLOCK_RECORD
  5
204
330
1
100
AcDbSymbolTableRecord
100
AcDbBlockTableRecord
  2
cw-line-extremity3
340
0
 70
     0
280
     1
281
     0
  0
BLOCK_RECORD
  5
209
330
1
100
AcDbSymbolTableRecord
100
AcDbBlockTableRecord
  2
cw-line-extremity301
340
0
 70
     0
280
     1
281
     0
  0
BLOCK_RECORD
  5
20B
330
1
100
AcDbSymbolTableRecord
100
AcDbBlockTableRecord
  2
cw-line-extremity4
340
0
102
{BLKREFS
331
3BF
331
3C1
331
3C3
331
3D4
331
3D6
331
3D8
331
3DA
331
3DC
102
}
 70
     0
280
     1
281
     0
  0
BLOCK_RECORD
  5
20D
330
1
100
AcDbSymbolTableRecord
100
AcDbBlockTableRecord
  2
cw-line-extremity5
340
0
 70
     0
280
     1
281
     0
  0
BLOCK_RECORD
  5
20F
330
1
100
AcDbSymbolTableRecord
100
AcDbBlockTableRecord
  2
cw-line-extremity6
340
0
 70
     0
280
     1
281
     0
  0
BLOCK_RECORD
  5
211
330
1
100
AcDbSymbolTableRecord
100
AcDbBlockTableRecord
  2
cw-line-extremity9
340
0
 70
     0
280
     1
281
     0
  0
BLOCK_RECORD
  5
213
330
1
100
AcDbSymbolTableRecord
100
AcDbBlockTableRecord
  2
cw-line-extremity10
340
0
 70
     0
280
     1
281
     0
  0
BLOCK_RECORD
  5
215
330
1
100
AcDbSymbolTableRecord
100
AcDbBlockTableRecord
  2
cw-line-extremity1
340
0
 70
     0
280
     1
281
     0
  0
BLOCK_RECORD
  5
1B
330
1
100
AcDbSymbolTableRecord
100
AcDbBlockTableRecord
  2
*Paper_Space69
340
1E
 70
     0
280
     1
281
     0
  0
ENDTAB
  0
ENDSEC
  0
SECTION
  2
BLOCKS
  0
BLOCK
  5
20
330
1F
100
AcDbEntity
  8
0
100
AcDbBlockBegin
  2
*Model_Space
 70
     0
 10
0.0
 20
0.0
 30
0.0
  3
*Model_Space
  1

  0
ENDBLK
  5
21
330
1F
100
AcDbEntity
  8
0
100
AcDbBlockEnd
  0
BLOCK
  5
22F
330
22D
100
AcDbEntity
 67
     1
  8
0
100
AcDbBlockBegin
  2
*Paper_Space
 70
     0
 10
0.0
 20
0.0
 30
0.0
  3
*Paper_Space
  1

  0
ENDBLK
  5
230
330
22D
100
AcDbEntity
 67
     1
  8
0
100
AcDbBlockEnd
  0
BLOCK
  5
8B
330
86
100
AcDbEntity
  8
0
100
AcDbBlockBegin
  2
CDWK_PTTYP1
 70
     0
 10
0.0
 20
0.0
 30
0.0
  3
CDWK_PTTYP1
  1

  0
LINE
  5
87
330
86
100
AcDbEntity
  8
0
 62
     0
370
    -2
100
AcDbLine
 10
-0.5
 20
0.5
 30
0.0
 11
0.5
 21
0.5
 31
0.0
  0
LINE
  5
88
330
86
100
AcDbEntity
  8
0
 62
     0
370
    -2
100
AcDbLine
 10
0.5
 20
0.5
 30
0.0
 11
0.5
 21
-0.5
 31
0.0
  0
LINE
  5
89
330
86
100
AcDbEntity
  8
0
 62
     0
370
    -2
100
AcDbLine
 10
0.5
 20
-0.5
 30
0.0
 11
-0.5
 21
-0.5
 31
0.0
  0
LINE
  5
8A
330
86
100
AcDbEntity
  8
0
 62
     0
370
    -2
100
AcDbLine
 10
-0.5
 20
-0.5
 30
0.0
 11
-0.5
 21
0.5
 31
0.0
  0
ENDBLK
  5
8C
330
86
100
AcDbEntity
  8
0
100
AcDbBlockEnd
  0
BLOCK
  5
90
330
8D
100
AcDbEntity
  8
0
100
AcDbBlockBegin
  2
CDWK_PTTYP2
 70
     0
 10
0.0
 20
0.0
 30
0.0
  3
CDWK_PTTYP2
  1

  0
LINE
  5
8E
330
8D
100
AcDbEntity
  8
0
 62
     0
370
    -2
100
AcDbLine
 10
0.0
 20
0.5
 30
0.0
 11
0.0
 21
-0.5
 31
0.0
  0
LINE
  5
8F
330
8D
100
AcDbEntity
  8
0
 62
     0
370
    -2
100
AcDbLine
 10
0.5
 20
0.0
 30
0.0
 11
-0.5
 21
0.0
 31
0.0
  0
ENDBLK
  5
91
330
8D
100
AcDbEntity
  8
0
100
AcDbBlockEnd
  0
BLOCK
  5
94
330
92
100
AcDbEntity
  8
0
100
AcDbBlockBegin
  2
CDWK_PTTYP4
 70
     0
 10
0.0
 20
0.0
 30
0.0
  3
CDWK_PTTYP4
  1

  0
HATCH
  5
93
330
92
100
AcDbEntity
  8
0
 62
     0
370
    -2
100
AcDbHatch
 10
0.0
 20
0.0
 30
0.0
210
0.0
220
0.0
230
1.0
  2
SOLID
 70
     1
 71
     1
 91
        1
 92
        1
 93
        1
 72
     2
 10
0.0
 20
0.0
 40
0.5
 50
0.0
 51
360.0
 73
     1
 97
        0
 75
     0
 76
     1
 98
        0
  0
ENDBLK
  5
95
330
92
100
AcDbEntity
  8
0
100
AcDbBlockEnd
  0
BLOCK
  5
9D
330
96
100
AcDbEntity
  8
0
100
AcDbBlockBegin
  2
CDWK_PTTYP5
 70
     0
 10
0.0
 20
0.0
 30
0.0
  3
CDWK_PTTYP5
  1

  0
LINE
  5
97
330
96
100
AcDbEntity
  8
0
 62
     0
370
    -2
100
AcDbLine
 10
-0.5
 20
0.5
 30
0.0
 11
0.5
 21
0.5
 31
0.0
  0
LINE
  5
98
330
96
100
AcDbEntity
  8
0
 62
     0
370
    -2
100
AcDbLine
 10
0.5
 20
0.5
 30
0.0
 11
0.5
 21
-0.5
 31
0.0
  0
LINE
  5
99
330
96
100
AcDbEntity
  8
0
 62
     0
370
    -2
100
AcDbLine
 10
0.5
 20
-0.5
 30
0.0
 11
-0.5
 21
-0.5
 31
0.0
  0
LINE
  5
9A
330
96
100
AcDbEntity
  8
0
 62
     0
370
    -2
100
AcDbLine
 10
-0.5
 20
-0.5
 30
0.0
 11
-0.5
 21
0.5
 31
0.0
  0
HATCH
  5
9B
330
96
100
AcDbEntity
  8
0
 62
     0
370
    -2
100
AcDbHatch
 10
0.0
 20
0.0
 30
0.0
210
0.0
220
0.0
230
1.0
  2
SOLID
 70
     1
 71
     1
 91
        1
 92
        3
 72
     0
 73
     1
 93
        4
 10
-0.5
 20
0.0
 10
0.0
 20
0.0
 10
0.0
 20
-0.5
 10
-0.5
 20
-0.5
 97
        0
 75
     0
 76
     1
 98
        0
  0
HATCH
  5
9C
330
96
100
AcDbEntity
  8
0
 62
     0
370
    -2
100
AcDbHatch
 10
0.0
 20
0.0
 30
0.0
210
0.0
220
0.0
230
1.0
  2
SOLID
 70
     1
 71
     1
 91
        1
 92
        3
 72
     0
 73
     1
 93
        4
 10
0.0
 20
0.0
 10
0.5
 20
0.0
 10
0.5
 20
0.5
 10
0.0
 20
0.5
 97
        0
 75
     0
 76
     1
 98
        0
  0
ENDBLK
  5
9E
330
96
100
AcDbEntity
  8
0
100
AcDbBlockEnd
  0
BLOCK
  5
A5
330
9F
100
AcDbEntity
  8
0
100
AcDbBlockBegin
  2
CDWK_PTTYP6
 70
     0
 10
0.0
 20
0.0
 30
0.0
  3
CDWK_PTTYP6
  1

  0
LINE
  5
A0
330
9F
100
AcDbEntity
  8
0
 62
     0
370
    -2
100
AcDbLine
 10
-0.5
 20
0.5
 30
0.0
 11
0.5
 21
0.5
 31
0.0
  0
LINE
  5
A1
330
9F
100
AcDbEntity
  8
0
 62
     0
370
    -2
100
AcDbLine
 10
0.5
 20
0.5
 30
0.0
 11
0.5
 21
-0.5
 31
0.0
  0
LINE
  5
A2
330
9F
100
AcDbEntity
  8
0
 62
     0
370
    -2
100
AcDbLine
 10
0.5
 20
-0.5
 30
0.0
 11
-0.5
 21
-0.5
 31
0.0
  0
LINE
  5
A3
330
9F
100
AcDbEntity
  8
0
 62
     0
370
    -2
100
AcDbLine
 10
-0.5
 20
-0.5
 30
0.0
 11
-0.5
 21
0.5
 31
0.0
  0
HATCH
  5
A4
330
9F
100
AcDbEntity
  8
0
 62
     0
370
    -2
100
AcDbHatch
 10
0.0
 20
0.0
 30
0.0
210
0.0
220
0.0
230
1.0
  2
SOLID
 70
     1
 71
     1
 91
        1
 92
        3
 72
     0
 73
     1
 93
        3
 10
-0.5
 20
-0.5
 10
-0.5
 20
0.5
 10
0.5
 20
0.5
 97
        0
 75
     0
 76
     1
 98
        0
  0
ENDBLK
  5
A6
330
9F
100
AcDbEntity
  8
0
100
AcDbBlockEnd
  0
BLOCK
  5
AE
330
A7
100
AcDbEntity
  8
0
100
AcDbBlockBegin
  2
CDWK_PTTYP7
 70
     0
 10
0.0
 20
0.0
 30
0.0
  3
CDWK_PTTYP7
  1

  0
LINE
  5
A8
330
A7
100
AcDbEntity
  8
0
 62
     0
370
    -2
100
AcDbLine
 10
-0.5
 20
0.5
 30
0.0
 11
0.5
 21
0.5
 31
0.0
  0
LINE
  5
A9
330
A7
100
AcDbEntity
  8
0
 62
     0
370
    -2
100
AcDbLine
 10
0.5
 20
0.5
 30
0.0
 11
0.5
 21
-0.5
 31
0.0
  0
LINE
  5
AA
330
A7
100
AcDbEntity
  8
0
 62
     0
370
    -2
100
AcDbLine
 10
0.5
 20
-0.5
 30
0.0
 11
-0.5
 21
-0.5
 31
0.0
  0
LINE
  5
AB
330
A7
100
AcDbEntity
  8
0
 62
     0
370
    -2
100
AcDbLine
 10
-0.5
 20
-0.5
 30
0.0
 11
-0.5
 21
0.5
 31
0.0
  0
LINE
  5
AC
330
A7
100
AcDbEntity
  8
0
 62
     0
370
    -2
100
AcDbLine
 10
0.0
 20
0.5
 30
0.0
 11
0.0
 21
-0.5
 31
0.0
  0
LINE
  5
AD
330
A7
100
AcDbEntity
  8
0
 62
     0
370
    -2
100
AcDbLine
 10
0.5
 20
0.0
 30
0.0
 11
-0.5
 21
0.0
 31
0.0
  0
ENDBLK
  5
AF
330
A7
100
AcDbEntity
  8
0
100
AcDbBlockEnd
  0
BLOCK
  5
B2
330
B0
100
AcDbEntity
  8
0
100
AcDbBlockBegin
  2
CDWK_PTTYP8
 70
     0
 10
0.0
 20
0.0
 30
0.0
  3
CDWK_PTTYP8
  1

  0
HATCH
  5
B1
330
B0
100
AcDbEntity
  8
0
 62
     0
370
    -2
100
AcDbHatch
 10
0.0
 20
0.0
 30
0.0
210
0.0
220
0.0
230
1.0
  2
SOLID
 70
     1
 71
     1
 91
        1
 92
        3
 72
     0
 73
     1
 93
        4
 10
0.5
 20
0.5
 10
0.5
 20
-0.5
 10
-0.5
 20
-0.5
 10
-0.5
 20
0.5
 97
        0
 75
     0
 76
     1
 98
        0
  0
ENDBLK
  5
B3
330
B0
100
AcDbEntity
  8
0
100
AcDbBlockEnd
  0
BLOCK
  5
B7
330
B4
100
AcDbEntity
  8
0
100
AcDbBlockBegin
  2
CDWK_PTTYP9
 70
     0
 10
0.0
 20
0.0
 30
0.0
  3
CDWK_PTTYP9
  1

  0
CIRCLE
  5
B5
330
B4
100
AcDbEntity
  8
0
 62
     0
370
    -2
100
AcDbCircle
 10
0.0
 20
0.0
 30
0.0
 40
0.1666666666666667
  0
CIRCLE
  5
B6
330
B4
100
AcDbEntity
  8
0
 62
     0
370
    -2
100
AcDbCircle
 10
0.0
 20
0.0
 30
0.0
 40
0.5
  0
ENDBLK
  5
B8
330
B4
100
AcDbEntity
  8
0
100
AcDbBlockEnd
  0
BLOCK
  5
BB
330
B9
100
AcDbEntity
  8
0
100
AcDbBlockBegin
  2
CDWK_PTTYP10
 70
     0
 10
0.0
 20
0.0
 30
0.0
  3
CDWK_PTTYP10
  1

  0
CIRCLE
  5
BA
330
B9
100
AcDbEntity
  8
0
 62
     0
370
    -2
100
AcDbCircle
 10
0.0
 20
0.0
 30
0.0
 40
0.5
  0
ENDBLK
  5
BC
330
B9
100
AcDbEntity
  8
0
100
AcDbBlockEnd
  0
BLOCK
  5
C0
330
BD
100
AcDbEntity
  8
0
100
AcDbBlockBegin
  2
CDWK_PTTYP11
 70
     0
 10
0.0
 20
0.0
 30
0.0
  3
CDWK_PTTYP11
  1

  0
CIRCLE
  5
BE
330
BD
100
AcDbEntity
  8
0
 62
     0
370
    -2
100
AcDbCircle
 10
0.0
 20
0.0
 30
0.0
 40
0.25
  0
CIRCLE
  5
BF
330
BD
100
AcDbEntity
  8
0
 62
     0
370
    -2
100
AcDbCircle
 10
0.0
 20
0.0
 30
0.0
 40
0.5
  0
ENDBLK
  5
C1
330
BD
100
AcDbEntity
  8
0
100
AcDbBlockEnd
  0
BLOCK
  5
C5
330
C2
100
AcDbEntity
  8
0
100
AcDbBlockBegin
  2
CDWK_PTTYP12
 70
     0
 10
0.0
 20
0.0
 30
0.0
  3
CDWK_PTTYP12
  1

  0
CIRCLE
  5
C3
330
C2
100
AcDbEntity
  8
0
 62
     0
370
    -2
100
AcDbCircle
 10
0.25
 20
0.0
 30
0.0
 40
0.25
  0
CIRCLE
  5
C4
330
C2
100
AcDbEntity
  8
0
 62
     0
370
    -2
100
AcDbCircle
 10
0.0
 20
0.0
 30
0.0
 40
0.5
  0
ENDBLK
  5
C6
330
C2
100
AcDbEntity
  8
0
100
AcDbBlockEnd
  0
BLOCK
  5
CB
330
C7
100
AcDbEntity
  8
0
100
AcDbBlockBegin
  2
CDWK_PTTYP13
 70
     0
 10
0.0
 20
0.0
 30
0.0
  3
CDWK_PTTYP13
  1

  0
CIRCLE
  5
C8
330
C7
100
AcDbEntity
  8
0
 62
     0
370
    -2
100
AcDbCircle
 10
-0.25
 20
0.0
 30
0.0
 40
0.25
  0
CIRCLE
  5
C9
330
C7
100
AcDbEntity
  8
0
 62
     0
370
    -2
100
AcDbCircle
 10
0.25
 20
0.0
 30
0.0
 40
0.25
  0
CIRCLE
  5
CA
330
C7
100
AcDbEntity
  8
0
 62
     0
370
    -2
100
AcDbCircle
 10
0.0
 20
0.0
 30
0.0
 40
0.5
  0
ENDBLK
  5
CC
330
C7
100
AcDbEntity
  8
0
100
AcDbBlockEnd
  0
BLOCK
  5
D2
330
CD
100
AcDbEntity
  8
0
100
AcDbBlockBegin
  2
CDWK_PTTYP16
 70
     0
 10
0.0
 20
0.0
 30
0.0
  3
CDWK_PTTYP16
  1

  0
LINE
  5
CE
330
CD
100
AcDbEntity
  8
0
 62
     0
370
    -2
100
AcDbLine
 10
-0.5
 20
-0.289
 30
0.0
 11
0.5
 21
-0.289
 31
0.0
  0
LINE
  5
CF
330
CD
100
AcDbEntity
  8
0
 62
     0
370
    -2
100
AcDbLine
 10
0.5
 20
-0.289
 30
0.0
 11
0.0
 21
0.577
 31
0.0
  0
LINE
  5
D0
330
CD
100
AcDbEntity
  8
0
 62
     0
370
    -2
100
AcDbLine
 10
0.0
 20
0.577
 30
0.0
 11
-0.5
 21
-0.289
 31
0.0
  0
CIRCLE
  5
D1
330
CD
100
AcDbEntity
  8
0
 62
     0
370
    -2
100
AcDbCircle
 10
0.0
 20
0.0
 30
0.0
 40
0.289
  0
ENDBLK
  5
D3
330
CD
100
AcDbEntity
  8
0
100
AcDbBlockEnd
  0
BLOCK
  5
D7
330
D4
100
AcDbEntity
  8
0
100
AcDbBlockBegin
  2
CDWK_PTTYP17
 70
     0
 10
0.0
 20
0.0
 30
0.0
  3
CDWK_PTTYP17
  1

  0
CIRCLE
  5
D5
330
D4
100
AcDbEntity
  8
0
 62
     0
370
    -2
100
AcDbCircle
 10
0.0
 20
0.0
 30
0.0
 40
0.5
  0
HATCH
  5
D6
330
D4
100
AcDbEntity
  8
0
 62
     0
370
    -2
100
AcDbHatch
 10
0.0
 20
0.0
 30
0.0
210
0.0
220
0.0
230
1.0
  2
SOLID
 70
     1
 71
     1
 91
        1
 92
        1
 93
        1
 72
     2
 10
0.0
 20
0.0
 40
0.25
 50
0.0
 51
360.0
 73
     1
 97
        0
 75
     0
 76
     1
 98
        0
  0
ENDBLK
  5
D8
330
D4
100
AcDbEntity
  8
0
100
AcDbBlockEnd
  0
BLOCK
  5
DC
330
D9
100
AcDbEntity
  8
0
100
AcDbBlockBegin
  2
CDWK_PTTYP18
 70
     0
 10
0.0
 20
0.0
 30
0.0
  3
CDWK_PTTYP18
  1

  0
CIRCLE
  5
DA
330
D9
100
AcDbEntity
  8
0
 62
     0
370
    -2
100
AcDbCircle
 10
0.0
 20
0.0
 30
0.0
 40
0.5
  0
CIRCLE
  5
DB
330
D9
100
AcDbEntity
  8
0
 62
     0
370
    -2
100
AcDbCircle
 10
0.0
 20
0.0
 30
0.0
 40
0.208
  0
ENDBLK
  5
DD
330
D9
100
AcDbEntity
  8
0
100
AcDbBlockEnd
  0
BLOCK
  5
E2
330
DE
100
AcDbEntity
  8
0
100
AcDbBlockBegin
  2
CDWK_PTTYP19
 70
     0
 10
0.0
 20
0.0
 30
0.0
  3
CDWK_PTTYP19
  1

  0
CIRCLE
  5
DF
330
DE
100
AcDbEntity
  8
0
 62
     0
370
    -2
100
AcDbCircle
 10
0.0
 20
0.0
 30
0.0
 40
0.25
  0
CIRCLE
  5
E0
330
DE
100
AcDbEntity
  8
0
 62
     0
370
    -2
100
AcDbCircle
 10
0.0
 20
0.0
 30
0.0
 40
0.35
  0
LINE
  5
E1
330
DE
100
AcDbEntity
  8
0
 62
     0
370
    -2
100
AcDbLine
 10
-0.25
 20
0.0
 30
0.0
 11
0.25
 21
0.0
 31
0.0
  0
ENDBLK
  5
E3
330
DE
100
AcDbEntity
  8
0
100
AcDbBlockEnd
  0
BLOCK
  5
E7
330
E4
100
AcDbEntity
  8
0
100
AcDbBlockBegin
  2
CDWK_PTTYP20
 70
     0
 10
0.0
 20
0.0
 30
0.0
  3
CDWK_PTTYP20
  1

  0
CIRCLE
  5
E5
330
E4
100
AcDbEntity
  8
0
 62
     0
370
    -2
100
AcDbCircle
 10
0.0
 20
0.0
 30
0.0
 40
0.3333333333333333
  0
CIRCLE
  5
E6
330
E4
100
AcDbEntity
  8
0
 62
     0
370
    -2
100
AcDbCircle
 10
0.0
 20
0.0
 30
0.0
 40
0.5
  0
ENDBLK
  5
E8
330
E4
100
AcDbEntity
  8
0
100
AcDbBlockEnd
  0
BLOCK
  5
EC
330
E9
100
AcDbEntity
  8
0
100
AcDbBlockBegin
  2
CDWK_PTTYP21
 70
     0
 10
0.0
 20
0.0
 30
0.0
  3
CDWK_PTTYP21
  1

  0
CIRCLE
  5
EA
330
E9
100
AcDbEntity
  8
0
 62
     0
370
    -2
100
AcDbCircle
 10
0.0
 20
0.0
 30
0.0
 40
0.5
  0
LINE
  5
EB
330
E9
100
AcDbEntity
  8
0
 62
     0
370
    -2
100
AcDbLine
 10
-0.5
 20
0.0
 30
0.0
 11
0.5
 21
0.0
 31
0.0
  0
ENDBLK
  5
ED
330
E9
100
AcDbEntity
  8
0
100
AcDbBlockEnd
  0
BLOCK
  5
F3
330
EE
100
AcDbEntity
  8
0
100
AcDbBlockBegin
  2
CDWK_PTTYP25
 70
     0
 10
0.0
 20
0.0
 30
0.0
  3
CDWK_PTTYP25
  1

  0
LINE
  5
EF
330
EE
100
AcDbEntity
  8
0
 62
     0
370
    -2
100
AcDbLine
 10
0.0
 20
0.5
 30
0.0
 11
-0.4330127018922193
 21
-0.25
 31
0.0
  0
LINE
  5
F0
330
EE
100
AcDbEntity
  8
0
 62
     0
370
    -2
100
AcDbLine
 10
-0.4330127018922193
 20
-0.25
 30
0.0
 11
0.4330127018922193
 21
-0.25
 31
0.0
  0
LINE
  5
F1
330
EE
100
AcDbEntity
  8
0
 62
     0
370
    -2
100
AcDbLine
 10
0.4330127018922193
 20
-0.25
 30
0.0
 11
0.0
 21
0.5
 31
0.0
  0
CIRCLE
  5
F2
330
EE
100
AcDbEntity
  8
0
 62
     0
370
    -2
100
AcDbCircle
 10
0.0
 20
0.0
 30
0.0
 40
0.5
  0
ENDBLK
  5
F4
330
EE
100
AcDbEntity
  8
0
100
AcDbBlockEnd
  0
BLOCK
  5
FA
330
F5
100
AcDbEntity
  8
0
100
AcDbBlockBegin
  2
CDWK_PTTYP26
 70
     0
 10
0.0
 20
0.0
 30
0.0
  3
CDWK_PTTYP26
  1

  0
LINE
  5
F6
330
F5
100
AcDbEntity
  8
0
 62
     0
370
    -2
100
AcDbLine
 10
-0.5
 20
-0.289
 30
0.0
 11
0.5
 21
-0.289
 31
0.0
  0
LINE
  5
F7
330
F5
100
AcDbEntity
  8
0
 62
     0
370
    -2
100
AcDbLine
 10
0.5
 20
-0.289
 30
0.0
 11
0.0
 21
0.577
 31
0.0
  0
LINE
  5
F8
330
F5
100
AcDbEntity
  8
0
 62
     0
370
    -2
100
AcDbLine
 10
0.0
 20
0.577
 30
0.0
 11
-0.5
 21
-0.289
 31
0.0
  0
CIRCLE
  5
F9
330
F5
100
AcDbEntity
  8
0
 62
     0
370
    -2
100
AcDbCircle
 10
0.0
 20
0.0
 30
0.0
 40
0.125
  0
ENDBLK
  5
FB
330
F5
100
AcDbEntity
  8
0
100
AcDbBlockEnd
  0
BLOCK
  5
102
330
FC
100
AcDbEntity
  8
0
100
AcDbBlockBegin
  2
CDWK_PTTYP27
 70
     0
 10
0.0
 20
0.0
 30
0.0
  3
CDWK_PTTYP27
  1

  0
LINE
  5
FD
330
FC
100
AcDbEntity
  8
0
 62
     0
370
    -2
100
AcDbLine
 10
0.0
 20
0.5
 30
0.0
 11
-0.4330127018922193
 21
-0.25
 31
0.0
  0
LINE
  5
FE
330
FC
100
AcDbEntity
  8
0
 62
     0
370
    -2
100
AcDbLine
 10
-0.4330127018922193
 20
-0.25
 30
0.0
 11
0.4330127018922193
 21
-0.25
 31
0.0
  0
LINE
  5
FF
330
FC
100
AcDbEntity
  8
0
 62
     0
370
    -2
100
AcDbLine
 10
0.4330127018922193
 20
-0.25
 30
0.0
 11
0.0
 21
0.5
 31
0.0
  0
CIRCLE
  5
100
330
FC
100
AcDbEntity
  8
0
 62
     0
370
    -2
100
AcDbCircle
 10
0.0
 20
0.0
 30
0.0
 40
0.125
  0
CIRCLE
  5
101
330
FC
100
AcDbEntity
  8
0
 62
     0
370
    -2
100
AcDbCircle
 10
0.0
 20
0.0
 30
0.0
 40
0.5
  0
ENDBLK
  5
103
330
FC
100
AcDbEntity
  8
0
100
AcDbBlockEnd
  0
BLOCK
  5
109
330
104
100
AcDbEntity
  8
0
100
AcDbBlockBegin
  2
CDWK_PTTYP28
 70
     0
 10
0.0
 20
0.0
 30
0.0
  3
CDWK_PTTYP28
  1

  0
LINE
  5
105
330
104
100
AcDbEntity
  8
0
 62
     0
370
    -2
100
AcDbLine
 10
-0.5
 20
0.5
 30
0.0
 11
0.5
 21
0.5
 31
0.0
  0
LINE
  5
106
330
104
100
AcDbEntity
  8
0
 62
     0
370
    -2
100
AcDbLine
 10
0.5
 20
0.5
 30
0.0
 11
-0.5
 21
-0.5
 31
0.0
  0
LINE
  5
107
330
104
100
AcDbEntity
  8
0
 62
     0
370
    -2
100
AcDbLine
 10
0.5
 20
-0.5
 30
0.0
 11
-0.5
 21
-0.5
 31
0.0
  0
LINE
  5
108
330
104
100
AcDbEntity
  8
0
 62
     0
370
    -2
100
AcDbLine
 10
-0.5
 20
0.5
 30
0.0
 11
0.5
 21
-0.5
 31
0.0
  0
ENDBLK
  5
10A
330
104
100
AcDbEntity
  8
0
100
AcDbBlockEnd
  0
BLOCK
  5
10F
330
10B
100
AcDbEntity
  8
0
100
AcDbBlockBegin
  2
CDWK_PTTYP29
 70
     0
 10
0.0
 20
0.0
 30
0.0
  3
CDWK_PTTYP29
  1

  0
CIRCLE
  5
10C
330
10B
100
AcDbEntity
  8
0
 62
     0
370
    -2
100
AcDbCircle
 10
0.0
 20
0.0
 30
0.0
 40
0.2
  0
CIRCLE
  5
10D
330
10B
100
AcDbEntity
  8
0
 62
     0
370
    -2
100
AcDbCircle
 10
0.0
 20
0.0
 30
0.0
 40
0.35
  0
CIRCLE
  5
10E
330
10B
100
AcDbEntity
  8
0
 62
     0
370
    -2
100
AcDbCircle
 10
0.0
 20
0.0
 30
0.0
 40
0.5
  0
ENDBLK
  5
110
330
10B
100
AcDbEntity
  8
0
100
AcDbBlockEnd
  0
BLOCK
  5
116
330
111
100
AcDbEntity
  8
0
100
AcDbBlockBegin
  2
CDWK_PTTYP30
 70
     0
 10
0.0
 20
0.0
 30
0.0
  3
CDWK_PTTYP30
  1

  0
LINE
  5
112
330
111
100
AcDbEntity
  8
0
 62
     0
370
    -2
100
AcDbLine
 10
-0.5
 20
0.5
 30
0.0
 11
-0.1
 21
0.1
 31
0.0
  0
LINE
  5
113
330
111
100
AcDbEntity
  8
0
 62
     0
370
    -2
100
AcDbLine
 10
0.5
 20
0.5
 30
0.0
 11
0.1
 21
0.1
 31
0.0
  0
LINE
  5
114
330
111
100
AcDbEntity
  8
0
 62
     0
370
    -2
100
AcDbLine
 10
0.5
 20
-0.5
 30
0.0
 11
0.1
 21
-0.1
 31
0.0
  0
LINE
  5
115
330
111
100
AcDbEntity
  8
0
 62
     0
370
    -2
100
AcDbLine
 10
-0.5
 20
-0.5
 30
0.0
 11
-0.1
 21
-0.1
 31
0.0
  0
ENDBLK
  5
117
330
111
100
AcDbEntity
  8
0
100
AcDbBlockEnd
  0
BLOCK
  5
11E
330
118
100
AcDbEntity
  8
0
100
AcDbBlockBegin
  2
CDWK_PTTYP31
 70
     0
 10
0.0
 20
0.0
 30
0.0
  3
CDWK_PTTYP31
  1

  0
LINE
  5
119
330
118
100
AcDbEntity
  8
0
 62
     0
370
    -2
100
AcDbLine
 10
-0.5
 20
0.0
 30
0.0
 11
-0.1
 21
0.0
 31
0.0
  0
LINE
  5
11A
330
118
100
AcDbEntity
  8
0
 62
     0
370
    -2
100
AcDbLine
 10
0.1
 20
0.0
 30
0.0
 11
0.5
 21
0.0
 31
0.0
  0
LINE
  5
11B
330
118
100
AcDbEntity
  8
0
 62
     0
370
    -2
100
AcDbLine
 10
0.0
 20
0.5
 30
0.0
 11
0.0
 21
0.1
 31
0.0
  0
LINE
  5
11C
330
118
100
AcDbEntity
  8
0
 62
     0
370
    -2
100
AcDbLine
 10
0.0
 20
-0.1
 30
0.0
 11
0.0
 21
-0.5
 31
0.0
  0
CIRCLE
  5
11D
330
118
100
AcDbEntity
  8
0
 62
     0
370
    -2
100
AcDbCircle
 10
0.0
 20
0.0
 30
0.0
 40
0.1
  0
ENDBLK
  5
11F
330
118
100
AcDbEntity
  8
0
100
AcDbBlockEnd
  0
BLOCK
  5
127
330
120
100
AcDbEntity
  8
0
100
AcDbBlockBegin
  2
CDWK_PTTYP32
 70
     0
 10
0.0
 20
0.0
 30
0.0
  3
CDWK_PTTYP32
  1

  0
CIRCLE
  5
121
330
120
100
AcDbEntity
  8
0
 62
     0
370
    -2
100
AcDbCircle
 10
0.0
 20
0.0
 30
0.0
 40
0.2
  0
CIRCLE
  5
122
330
120
100
AcDbEntity
  8
0
 62
     0
370
    -2
100
AcDbCircle
 10
0.0
 20
0.0
 30
0.0
 40
0.5
  0
LINE
  5
123
330
120
100
AcDbEntity
  8
0
 62
     0
370
    -2
100
AcDbLine
 10
0.1414213562373095
 20
0.1414213562373095
 30
0.0
 11
0.3535533905932738
 21
0.3535533905932738
 31
0.0
  0
LINE
  5
124
330
120
100
AcDbEntity
  8
0
 62
     0
370
    -2
100
AcDbLine
 10
-0.1414213562373095
 20
0.1414213562373095
 30
0.0
 11
-0.3535533905932738
 21
0.3535533905932738
 31
0.0
  0
LINE
  5
125
330
120
100
AcDbEntity
  8
0
 62
     0
370
    -2
100
AcDbLine
 10
0.1414213562373095
 20
-0.1414213562373095
 30
0.0
 11
0.3535533905932738
 21
-0.3535533905932738
 31
0.0
  0
LINE
  5
126
330
120
100
AcDbEntity
  8
0
 62
     0
370
    -2
100
AcDbLine
 10
-0.1414213562373095
 20
-0.1414213562373095
 30
0.0
 11
-0.3535533905932738
 21
-0.3535533905932738
 31
0.0
  0
ENDBLK
  5
128
330
120
100
AcDbEntity
  8
0
100
AcDbBlockEnd
  0
BLOCK
  5
12D
330
129
100
AcDbEntity
  8
0
100
AcDbBlockBegin
  2
CDWK_PTTYP33
 70
     0
 10
0.0
 20
0.0
 30
0.0
  3
CDWK_PTTYP33
  1

  0
LINE
  5
12A
330
129
100
AcDbEntity
  8
0
 62
     0
370
    -2
100
AcDbLine
 10
0.0
 20
-0.5
 30
0.0
 11
0.0
 21
0.5
 31
0.0
  0
LINE
  5
12B
330
129
100
AcDbEntity
  8
0
 62
     0
370
    -2
100
AcDbLine
 10
0.5
 20
0.0
 30
0.0
 11
-0.5
 21
0.0
 31
0.0
  0
CIRCLE
  5
12C
330
129
100
AcDbEntity
  8
0
 62
     0
370
    -2
100
AcDbCircle
 10
0.0
 20
0.0
 30
0.0
 40
0.5
  0
ENDBLK
  5
12E
330
129
100
AcDbEntity
  8
0
100
AcDbBlockEnd
  0
BLOCK
  5
133
330
12F
100
AcDbEntity
  8
0
100
AcDbBlockBegin
  2
CDWK_PTTYP34
 70
     0
 10
0.0
 20
0.0
 30
0.0
  3
CDWK_PTTYP34
  1

  0
CIRCLE
  5
130
330
12F
100
AcDbEntity
  8
0
 62
     0
370
    -2
100
AcDbCircle
 10
0.0
 20
0.0
 30
0.0
 40
0.5
  0
LINE
  5
131
330
12F
100
AcDbEntity
  8
0
 62
     0
370
    -2
100
AcDbLine
 10
-0.4
 20
-0.3
 30
0.0
 11
0.3
 21
0.4
 31
0.0
  0
LINE
  5
132
330
12F
100
AcDbEntity
  8
0
 62
     0
370
    -2
100
AcDbLine
 10
-0.3
 20
-0.4
 30
0.0
 11
0.4
 21
0.3
 31
0.0
  0
ENDBLK
  5
134
330
12F
100
AcDbEntity
  8
0
100
AcDbBlockEnd
  0
BLOCK
  5
139
330
135
100
AcDbEntity
  8
0
100
AcDbBlockBegin
  2
CDWK_PTTYP35
 70
     0
 10
0.0
 20
0.0
 30
0.0
  3
CDWK_PTTYP35
  1

  0
LINE
  5
136
330
135
100
AcDbEntity
  8
0
 62
     0
370
    -2
100
AcDbLine
 10
0.0
 20
0.2
 30
0.0
 11
0.0
 21
0.5
 31
0.0
  0
LINE
  5
137
330
135
100
AcDbEntity
  8
0
 62
     0
370
    -2
100
AcDbLine
 10
0.0
 20
-0.2
 30
0.0
 11
0.0
 21
-0.5
 31
0.0
  0
CIRCLE
  5
138
330
135
100
AcDbEntity
  8
0
 62
     0
370
    -2
100
AcDbCircle
 10
0.0
 20
0.0
 30
0.0
 40
0.2
  0
ENDBLK
  5
13A
330
135
100
AcDbEntity
  8
0
100
AcDbBlockEnd
  0
BLOCK
  5
141
330
13B
100
AcDbEntity
  8
0
100
AcDbBlockBegin
  2
CDWK_PTTYP36
 70
     0
 10
0.0
 20
0.0
 30
0.0
  3
CDWK_PTTYP36
  1

  0
LINE
  5
13C
330
13B
100
AcDbEntity
  8
0
 62
     0
370
    -2
100
AcDbLine
 10
-0.5
 20
0.2
 30
0.0
 11
0.5
 21
0.2
 31
0.0
  0
LINE
  5
13D
330
13B
100
AcDbEntity
  8
0
 62
     0
370
    -2
100
AcDbLine
 10
0.5
 20
0.2
 30
0.0
 11
0.5
 21
-0.2
 31
0.0
  0
LINE
  5
13E
330
13B
100
AcDbEntity
  8
0
 62
     0
370
    -2
100
AcDbLine
 10
0.5
 20
-0.2
 30
0.0
 11
-0.5
 21
-0.2
 31
0.0
  0
LINE
  5
13F
330
13B
100
AcDbEntity
  8
0
 62
     0
370
    -2
100
AcDbLine
 10
-0.5
 20
-0.2
 30
0.0
 11
-0.5
 21
0.2
 31
0.0
  0
HATCH
  5
140
330
13B
100
AcDbEntity
  8
0
 62
     0
370
    -2
100
AcDbHatch
 10
0.0
 20
0.0
 30
0.0
210
0.0
220
0.0
230
1.0
  2
SOLID
 70
     1
 71
     1
 91
        1
 92
        3
 72
     0
 73
     1
 93
        3
 10
-0.5
 20
-0.2
 10
0.5
 20
-0.2
 10
0.5
 20
0.2
 97
        0
 75
     0
 76
     1
 98
        0
  0
ENDBLK
  5
142
330
13B
100
AcDbEntity
  8
0
100
AcDbBlockEnd
  0
BLOCK
  5
146
330
143
100
AcDbEntity
  8
0
100
AcDbBlockBegin
  2
CDWK_PTTYP37
 70
     0
 10
0.0
 20
0.0
 30
0.0
  3
CDWK_PTTYP37
  1

  0
HATCH
  5
144
330
143
100
AcDbEntity
  8
0
 62
     0
370
    -2
100
AcDbHatch
 10
0.0
 20
0.0
 30
0.0
210
0.0
220
0.0
230
1.0
  2
SOLID
 70
     1
 71
     1
 91
        1
 92
        3
 72
     0
 73
     1
 93
      202
 10
-0.3535533905932738
 20
-0.3535533905932738
 10
-0.3485533905932738
 20
-0.3535533905932737
 10
-0.3435533905932738
 20
-0.3584836591895546
 10
-0.3385533905932738
 20
-0.3632782236961988
 10
-0.3335533905932738
 20
-0.367942389128785
 10
-0.3285533905932738
 20
-0.372481054046687
 10
-0.3235533905932738
 20
-0.3768987523588579
 10
-0.3185533905932738
 20
-0.3811996897107819
 10
-0.3135533905932738
 20
-0.3853877752881235
 10
-0.3085533905932737
 20
-0.3894666497242888
 10
-0.3035533905932737
 20
-0.3934397096803965
 10
-0.2985533905932737
 20
-0.3973101295704999
 10
-0.2935533905932737
 20
-0.4010808808273714
 10
-0.2885533905932737
 20
-0.4047547490409382
 10
-0.2835533905932737
 20
-0.4083343492496384
 10
-0.2785533905932737
 20
-0.4118221396222626
 10
-0.2735533905932737
 20
-0.4152204337324827
 10
-0.2685533905932737
 20
-0.4185314115988474
 10
-0.2635533905932737
 20
-0.4217571296384408
 10
-0.2585533905932737
 20
-0.4248995296617653
 10
-0.2535533905932737
 20
-0.4279604470190231
 10
-0.2485533905932737
 20
-0.4309416179932669
 10
-0.2435533905932737
 20
-0.4338446865234004
 10
-0.2385533905932737
 20
-0.4366712103293738
 10
-0.2335533905932737
 20
-0.439422666502825
 10
-0.2285533905932737
 20
-0.4421004566186126
 10
-0.2235533905932737
 20
-0.4447059114159811
 10
-0.2185533905932737
 20
-0.4472402950923041
 10
-0.2135533905932737
 20
-0.4497048092473372
 10
-0.2085533905932737
 20
-0.4521005965115692
 10
-0.2035533905932737
 20
-0.4544287438884664
 10
-0.1985533905932736
 20
-0.456690285837111
 10
-0.1935533905932736
 20
-0.45888620711884
 10
-0.1885533905932736
 20
-0.4610174454289638
 10
-0.1835533905932736
 20
-0.4630848938324164
 10
-0.1785533905932736
 20
-0.4650894030202291
 10
-0.1735533905932736
 20
-0.4670317834019928
 10
-0.1685533905932736
 20
-0.46891280704794
 10
-0.1635533905932736
 20
-0.4707332094929264
 10
-0.1585533905932736
 20
-0.4724936914133818
 10
-0.1535533905932736
 20
-0.4741949201872336
 10
-0.1485533905932736
 20
-0.4758375313458466
 10
-0.1435533905932736
 20
-0.4774221299261716
 10
-0.1385533905932736
 20
-0.4789492917305286
 10
-0.1335533905932736
 20
-0.4804195645007682
 10
-0.1285533905932736
 20
-0.4818334690129366
 10
-0.1235533905932736
 20
-0.4831915000980183
 10
-0.1185533905932736
 20
-0.4844941275938295
 10
-0.1135533905932736
 20
-0.4857417972326848
 10
-0.1085533905932736
 20
-0.4869349314690531
 10
-0.1035533905932736
 20
-0.4880739302510473
 10
-0.0985533905932736
 20
-0.489159171739258
 10
-0.0935533905932736
 20
-0.4901910129761353
 10
-0.0885533905932736
 20
-0.4911697905088447
 10
-0.0835533905932735
 20
-0.4920958209682695
 10
-0.0785533905932735
 20
-0.4929694016065986
 10
-0.0735533905932735
 20
-0.4937908107957261
 10
-0.0685533905932735
 20
-0.494560308488493
 10
-0.0635533905932735
 20
-0.4952781366446192
 10
-0.0585533905932735
 20
-0.4959445196230107
 10
-0.0535533905932735
 20
-0.4965596645419678
 10
-0.0485533905932735
 20
-0.4971237616086806
 10
-0.0435533905932735
 20
-0.4976369844192622
 10
-0.0385533905932735
 20
-0.4980994902304456
 10
-0.0335533905932735
 20
-0.4985114202039533
 10
-0.0285533905932735
 20
-0.4988728996244386
 10
-0.0235533905932735
 20
-0.4991840380917923
 10
-0.0185533905932735
 20
-0.49944492968851
 10
-0.0135533905932735
 20
-0.4996556531227215
 10
-0.0085533905932735
 20
-0.4998162718473921
 10
-0.0035533905932735
 20
-0.4999268341561182
 10
0.0014466094067265
 20
-0.499987373255857
 10
0.0064466094067265
 20
-0.4999979073168451
 10
0.0114466094067265
 20
-0.4999584394998819
 10
0.0164466094067265
 20
-0.4998689579610739
 10
0.0214466094067265
 20
-0.4997294358340547
 10
0.0264466094067265
 20
-0.4995398311896213
 10
0.0314466094067265
 20
-0.4993000869726422
 10
0.0364466094067265
 20
-0.4990101309160174
 10
0.0414466094067265
 20
-0.4986698754313855
 10
0.0464466094067265
 20
-0.498279217476192
 10
0.0514466094067265
 20
-0.4978380383966446
 10
0.0564466094067265
 20
-0.497346203745994
 10
0.0614466094067265
 20
-0.4968035630774849
 10
0.0664466094067264
 20
-0.4962099497112257
 10
0.0714466094067265
 20
-0.4955651804741228
 10
0.0764466094067265
 20
-0.4948690554119167
 10
0.0814466094067265
 20
-0.4941213574722463
 10
0.0864466094067265
 20
-0.4933218521575424
 10
0.0914466094067265
 20
-0.4924702871464235
 10
0.0964466094067265
 20
-0.4915663918821278
 10
0.1014466094067265
 20
-0.4906098771263643
 10
0.1064466094067265
 20
-0.4896004344768079
 10
0.1114466094067265
 20
-0.4885377358462822
 10
0.1164466094067265
 20
-0.4874214329014929
 10
0.1214466094067265
 20
-0.4862511564589613
 10
0.1264466094067265
 20
-0.4850265158355881
 10
0.1314466094067265
 20
-0.4837470981510305
 10
0.1364466094067265
 20
-0.482412467578809
 10
0.1414466094067265
 20
-0.4810221645427664
 10
0.1464466094067265
 20
-0.4795757048551781
 10
0.1514466094067265
 20
-0.4780725787924608
 10
0.1564466094067265
 20
-0.4765122501040308
 10
0.1614466094067265
 20
-0.4748941549494363
 10
0.1664466094067265
 20
-0.4732177007584056
 10
0.1714466094067265
 20
-0.4714822650079264
 10
0.1764466094067265
 20
-0.4696871939098801
 10
0.1814466094067266
 20
-0.4678318010021017
 10
0.1864466094067266
 20
-0.4659153656350076
 10
0.1914466094067266
 20
-0.4639371313451162
 10
0.1964466094067266
 20
-0.4618963041058764
 10
0.2014466094067266
 20
-0.4597920504451997
 10
0.2064466094067266
 20
-0.4576234954179405
 10
0.2114466094067266
 20
-0.4553897204202862
 10
0.2164466094067266
 20
-0.4530897608315588
 10
0.2214466094067266
 20
-0.45072260346729
 10
0.2264466094067266
 20
-0.4482871838255748
 10
0.2314466094067266
 20
-0.4457823831065977
 10
0.2364466094067266
 20
-0.4432070249828292
 10
0.2414466094067266
 20
-0.4405598720946596
 10
0.2464466094067266
 20
-0.4378396222431172
 10
0.2514466094067266
 20
-0.4350449042477435
 10
0.2564466094067266
 20
-0.4321742734336012
 10
0.2614466094067266
 20
-0.4292262067066663
 10
0.2664466094067266
 20
-0.4261990971714118
 10
0.2714466094067266
 20
-0.4230912482380831
 10
0.2764466094067266
 20
-0.4199008671598476
 10
0.2814466094067266
 20
-0.4166260579314797
 10
0.2864466094067266
 20
-0.4132648134712868
 10
0.2914466094067266
 20
-0.4098150069963156
 10
0.2964466094067266
 20
-0.4062743824871597
 10
0.3014466094067266
 20
-0.4026405441224911
 10
0.3064466094067266
 20
-0.3989109445442534
 10
0.3114466094067266
 20
-0.3950828717916294
 10
0.3164466094067266
 20
-0.391153434714632
 10
0.3214466094067266
 20
-0.3871195466454601
 10
0.3264466094067267
 20
-0.3829779070663467
 10
0.3314466094067267
 20
-0.3787249809648844
 10
0.3364466094067267
 20
-0.3743569755097196
 10
0.3414466094067267
 20
-0.3698698136084067
 10
0.3464466094067267
 20
-0.3652591038217257
 10
0.3514466094067267
 20
-0.3605201060004601
 10
0.3564466094067267
 20
-0.3556476918757041
 10
0.3614466094067267
 20
-0.3506362996645505
 10
0.3664466094067267
 20
-0.34547988153926
 10
0.3714466094067267
 20
-0.3401718425359658
 10
0.3764466094067267
 20
-0.334704969129899
 10
0.3814466094067267
 20
-0.3290713452523318
 10
0.3864466094067267
 20
-0.3232622529342269
 10
0.3914466094067267
 20
-0.3172680539828188
 10
0.3964466094067267
 20
-0.3110780480586465
 10
0.4014466094067267
 20
-0.304680301118911
 10
0.4064466094067267
 20
-0.2980614362775617
 10
0.4114466094067267
 20
-0.291206376478565
 10
0.4164466094067267
 20
-0.2840980246459106
 10
0.4214466094067267
 20
-0.276716861635935
 10
0.4264466094067267
 20
-0.2690404345439063
 10
0.4314466094067267
 20
-0.2610426963649944
 10
0.4364466094067267
 20
-0.2526931404518915
 10
0.4414466094067268
 20
-0.2439556458403291
 10
0.4464466094067268
 20
-0.2347869056044327
 10
0.4514466094067268
 20
-0.2251342376211081
 10
0.4564466094067268
 20
-0.2149324518428296
 10
0.4614466094067268
 20
-0.2040992228331676
 10
0.4664466094067268
 20
-0.1925279893081412
 10
0.4714466094067268
 20
-0.1800765408735088
 10
0.4764466094067268
 20
-0.1665475742210051
 10
0.4814466094067268
 20
-0.1516529867323223
 10
0.4864466094067268
 20
-0.1349413290684758
 10
0.4914466094067268
 20
-0.1156274024472547
 10
0.4964466094067268
 20
-0.0920881648347501
 10
0.5
 20
0.0
 10
0.495
 20
0.0
 10
0.49
 20
0.0705336798983295
 10
0.485
 20
0.0994987437106621
 10
0.48
 20
0.1215524578114322
 10
0.475
 20
0.14
 10
0.47
 20
0.15612494995996
 10
0.465
 20
0.1705872210923199
 10
0.46
 20
0.1837797594948911
 10
0.455
 20
0.1959591794226544
 10
0.45
 20
0.2073041244162789
 10
0.445
 20
0.2179449471770338
 10
0.4399999999999999
 20
0.2279802623035601
 10
0.4349999999999999
 20
0.2374868417407584
 10
0.4299999999999999
 20
0.2465258607124211
 10
0.4249999999999999
 20
0.2551470164434615
 10
0.4199999999999999
 20
0.2633913438213186
 10
0.4149999999999999
 20
0.2712931993250108
 10
0.4099999999999999
 20
0.2788816953476869
 10
0.4049999999999999
 20
0.2861817604250838
 10
0.3999999999999999
 20
0.2932149382279151
 10
0.3949999999999999
 20
0.3000000000000002
 10
0.3899999999999999
 20
0.3065534211193868
 10
0.3849999999999999
 20
0.3128897569432404
 10
0.3799999999999999
 20
0.3190219428189855
 10
0.3749999999999999
 20
0.3249615361854385
 10
0.3699999999999999
 20
0.330718913883074
 10
0.3649999999999999
 20
0.3363034344160049
 10
0.3599999999999999
 20
0.3417235724968357
 10
0.3549999999999999
 20
0.3469870314579496
 10
0.3535533905932738
 20
0.3535533905932738
 97
        0
 75
     0
 76
     1
 98
        0
  0
CIRCLE
  5
145
330
143
100
AcDbEntity
  8
0
 62
     0
370
    -2
100
AcDbCircle
 10
0.0
 20
0.0
 30
0.0
 40
0.5
  0
ENDBLK
  5
147
330
143
100
AcDbEntity
  8
0
100
AcDbBlockEnd
  0
BLOCK
  5
14C
330
148
100
AcDbEntity
  8
0
100
AcDbBlockBegin
  2
CDWK_PTTYP38
 70
     0
 10
0.0
 20
0.0
 30
0.0
  3
CDWK_PTTYP38
  1

  0
HATCH
  5
149
330
148
100
AcDbEntity
  8
0
 62
     0
370
    -2
100
AcDbHatch
 10
0.0
 20
0.0
 30
0.0
210
0.0
220
0.0
230
1.0
  2
SOLID
 70
     1
 71
     1
 91
        1
 92
        3
 72
     0
 73
     1
 93
      102
 10
0.0
 20
0.0
 10
0.0
 20
0.5
 10
0.005
 20
0.5
 10
0.01
 20
0.4999749993749688
 10
0.015
 20
0.4998999899979995
 10
0.02
 20
0.4997749493522059
 10
0.025
 20
0.4995998398718718
 10
0.03
 20
0.4993746088859545
 10
0.035
 20
0.4990991885387112
 10
0.04
 20
0.4987734956871706
 10
0.045
 20
0.4983974317750845
 10
0.05
 20
0.4979708826829135
 10
0.055
 20
0.49749371855331
 10
0.06
 20
0.4969657935914704
 10
0.065
 20
0.4963869458396343
 10
0.07
 20
0.4957569969249047
 10
0.075
 20
0.4950757517794626
 10
0.08
 20
0.4943429983321297
 10
0.085
 20
0.4935585071701227
 10
0.09
 20
0.4927220311697053
 10
0.095
 20
0.4918333050943175
 10
0.1
 20
0.4908920451586071
 10
0.105
 20
0.4898979485566356
 10
0.11
 20
0.4888506929523574
 10
0.115
 20
0.4877499359302879
 10
0.12
 20
0.4865953144040744
 10
0.125
 20
0.4853864439804639
 10
0.13
 20
0.4841229182759271
 10
0.135
 20
0.4828043081829325
 10
0.14
 20
0.4814301610825811
 10
0.145
 20
0.48
 10
0.15
 20
0.478513322698543
 10
0.1550000000000001
 20
0.4769696007084728
 10
0.1600000000000001
 20
0.4753682782853731
 10
0.1650000000000001
 20
0.4737087712930804
 10
0.1700000000000001
 20
0.4719904660054056
 10
0.1750000000000001
 20
0.4702127178203498
 10
0.1800000000000001
 20
0.4683748498798799
 10
0.1850000000000001
 20
0.466476151587624
 10
0.1900000000000001
 20
0.4645158770160606
 10
0.1950000000000001
 20
0.4624932431938871
 10
0.2000000000000001
 20
0.460407428263272
 10
0.2050000000000001
 20
0.4582575694955839
 10
0.2100000000000001
 20
0.4560427611529427
 10
0.2150000000000001
 20
0.4537620521815371
 10
0.2200000000000001
 20
0.4514144437210665
 10
0.2250000000000001
 20
0.4489988864128729
 10
0.2300000000000001
 20
0.4465142774872937
 10
0.2350000000000001
 20
0.4439594576084622
 10
0.2400000000000001
 20
0.4413332074521472
 10
0.2450000000000001
 20
0.4386342439892261
 10
0.2500000000000001
 20
0.4358612164439502
 10
0.2550000000000001
 20
0.4330127018922192
 10
0.2600000000000001
 20
0.4300872004605577
 10
0.2650000000000001
 20
0.4270831300812524
 10
0.2700000000000001
 20
0.423998820753077
 10
0.2750000000000001
 20
0.4208325082500162
 10
0.2800000000000001
 20
0.4175823272122516
 10
0.2850000000000001
 20
0.4142463035441595
 10
0.2900000000000001
 20
0.4108223460329293
 10
0.2950000000000002
 20
0.4073082370883259
 10
0.3000000000000002
 20
0.403701622488689
 10
0.3050000000000002
 20
0.3999999999999999
 10
0.3100000000000002
 20
0.3962007067131506
 10
0.3150000000000002
 20
0.3923009049186605
 10
0.3200000000000002
 20
0.3882975663070783
 10
0.3250000000000002
 20
0.3841874542459708
 10
0.3300000000000002
 20
0.3799671038392664
 10
0.3350000000000002
 20
0.3756327994198588
 10
0.3400000000000002
 20
0.3711805490593491
 10
0.3450000000000002
 20
0.366606055596467
 10
0.3500000000000002
 20
0.3619046835839512
 10
0.3550000000000002
 20
0.3570714214271423
 10
0.3600000000000002
 20
0.3521008378291649
 10
0.3650000000000002
 20
0.3469870314579492
 10
0.3700000000000002
 20
0.3417235724968353
 10
0.3750000000000002
 20
0.3363034344160045
 10
0.3800000000000002
 20
0.3307189138830736
 10
0.3850000000000002
 20
0.3249615361854382
 10
0.3900000000000002
 20
0.3190219428189851
 10
0.3950000000000002
 20
0.31288975694324
 10
0.4000000000000002
 20
0.3065534211193863
 10
0.4050000000000002
 20
0.2999999999999997
 10
0.4100000000000003
 20
0.2932149382279147
 10
0.4150000000000003
 20
0.2861817604250834
 10
0.4200000000000003
 20
0.2788816953476864
 10
0.4250000000000003
 20
0.2712931993250103
 10
0.4300000000000003
 20
0.263391343821318
 10
0.4350000000000003
 20
0.255147016443461
 10
0.4400000000000003
 20
0.2465258607124206
 10
0.4450000000000003
 20
0.2374868417407578
 10
0.4500000000000003
 20
0.2279802623035594
 10
0.4550000000000003
 20
0.2179449471770331
 10
0.4600000000000003
 20
0.2073041244162782
 10
0.4650000000000003
 20
0.1959591794226536
 10
0.4700000000000003
 20
0.1837797594948903
 10
0.4750000000000003
 20
0.170587221092319
 10
0.4800000000000003
 20
0.156124949959959
 10
0.4850000000000003
 20
0.1399999999999989
 10
0.4900000000000003
 20
0.1215524578114309
 10
0.4950000000000003
 20
0.0994987437106604
 10
0.5
 20
0.0
 97
        0
 75
     0
 76
     1
 98
        0
  0
HATCH
  5
14A
330
148
100
AcDbEntity
  8
0
 62
     0
370
    -2
100
AcDbHatch
 10
0.0
 20
0.0
 30
0.0
210
0.0
220
0.0
230
1.0
  2
SOLID
 70
     1
 71
     1
 91
        1
 92
        3
 72
     0
 73
     1
 93
      102
 10
0.0
 20
0.0
 10
-0.5
 20
0.0
 10
-0.495
 20
0.0
 10
-0.49
 20
-0.0705336798983295
 10
-0.485
 20
-0.0994987437106621
 10
-0.48
 20
-0.1215524578114322
 10
-0.475
 20
-0.14
 10
-0.47
 20
-0.15612494995996
 10
-0.465
 20
-0.1705872210923199
 10
-0.46
 20
-0.1837797594948911
 10
-0.455
 20
-0.1959591794226544
 10
-0.45
 20
-0.2073041244162789
 10
-0.445
 20
-0.2179449471770338
 10
-0.4399999999999999
 20
-0.2279802623035601
 10
-0.4349999999999999
 20
-0.2374868417407584
 10
-0.4299999999999999
 20
-0.2465258607124211
 10
-0.4249999999999999
 20
-0.2551470164434615
 10
-0.4199999999999999
 20
-0.2633913438213186
 10
-0.4149999999999999
 20
-0.2712931993250108
 10
-0.4099999999999999
 20
-0.2788816953476869
 10
-0.4049999999999999
 20
-0.2861817604250838
 10
-0.3999999999999999
 20
-0.2932149382279151
 10
-0.3949999999999999
 20
-0.3000000000000002
 10
-0.3899999999999999
 20
-0.3065534211193868
 10
-0.3849999999999999
 20
-0.3128897569432404
 10
-0.3799999999999999
 20
-0.3190219428189855
 10
-0.3749999999999999
 20
-0.3249615361854385
 10
-0.3699999999999999
 20
-0.330718913883074
 10
-0.3649999999999999
 20
-0.3363034344160049
 10
-0.3599999999999999
 20
-0.3417235724968357
 10
-0.3549999999999999
 20
-0.3469870314579496
 10
-0.3499999999999999
 20
-0.3521008378291652
 10
-0.3449999999999999
 20
-0.3570714214271427
 10
-0.3399999999999999
 20
-0.3619046835839516
 10
-0.3349999999999999
 20
-0.3666060555964674
 10
-0.3299999999999998
 20
-0.3711805490593494
 10
-0.3249999999999998
 20
-0.3756327994198591
 10
-0.3199999999999998
 20
-0.3799671038392667
 10
-0.3149999999999998
 20
-0.3841874542459711
 10
-0.3099999999999998
 20
-0.3882975663070786
 10
-0.3049999999999998
 20
-0.3923009049186608
 10
-0.2999999999999998
 20
-0.3962007067131507
 10
-0.2949999999999998
 20
-0.4000000000000001
 10
-0.2899999999999998
 20
-0.4037016224886891
 10
-0.2849999999999998
 20
-0.4073082370883261
 10
-0.2799999999999998
 20
-0.4108223460329296
 10
-0.2749999999999998
 20
-0.4142463035441597
 10
-0.2699999999999998
 20
-0.4175823272122518
 10
-0.2649999999999998
 20
-0.4208325082500164
 10
-0.2599999999999998
 20
-0.4239988207530773
 10
-0.2549999999999998
 20
-0.4270831300812526
 10
-0.2499999999999998
 20
-0.4300872004605579
 10
-0.2449999999999998
 20
-0.4330127018922195
 10
-0.2399999999999998
 20
-0.4358612164439503
 10
-0.2349999999999998
 20
-0.4386342439892263
 10
-0.2299999999999998
 20
-0.4413332074521473
 10
-0.2249999999999998
 20
-0.4439594576084624
 10
-0.2199999999999998
 20
-0.4465142774872939
 10
-0.2149999999999997
 20
-0.4489988864128731
 10
-0.2099999999999997
 20
-0.4514144437210667
 10
-0.2049999999999997
 20
-0.4537620521815372
 10
-0.1999999999999997
 20
-0.4560427611529429
 10
-0.1949999999999997
 20
-0.4582575694955841
 10
-0.1899999999999997
 20
-0.4604074282632722
 10
-0.1849999999999997
 20
-0.4624932431938872
 10
-0.1799999999999997
 20
-0.4645158770160608
 10
-0.1749999999999997
 20
-0.4664761515876241
 10
-0.1699999999999997
 20
-0.46837484987988
 10
-0.1649999999999997
 20
-0.47021271782035
 10
-0.1599999999999997
 20
-0.4719904660054058
 10
-0.1549999999999997
 20
-0.4737087712930805
 10
-0.1499999999999997
 20
-0.4753682782853733
 10
-0.1449999999999997
 20
-0.4769696007084729
 10
-0.1399999999999997
 20
-0.4785133226985431
 10
-0.1349999999999997
 20
-0.4800000000000001
 10
-0.1299999999999997
 20
-0.4814301610825812
 10
-0.1249999999999997
 20
-0.4828043081829325
 10
-0.1199999999999997
 20
-0.4841229182759272
 10
-0.1149999999999997
 20
-0.485386443980464
 10
-0.1099999999999997
 20
-0.4865953144040744
 10
-0.1049999999999996
 20
-0.487749935930288
 10
-0.0999999999999996
 20
-0.4888506929523574
 10
-0.0949999999999996
 20
-0.4898979485566357
 10
-0.0899999999999996
 20
-0.4908920451586072
 10
-0.0849999999999996
 20
-0.4918333050943176
 10
-0.0799999999999996
 20
-0.4927220311697053
 10
-0.0749999999999996
 20
-0.4935585071701227
 10
-0.0699999999999996
 20
-0.4943429983321298
 10
-0.0649999999999996
 20
-0.4950757517794626
 10
-0.0599999999999996
 20
-0.4957569969249048
 10
-0.0549999999999996
 20
-0.4963869458396343
 10
-0.0499999999999996
 20
-0.4969657935914705
 10
-0.0449999999999996
 20
-0.49749371855331
 10
-0.0399999999999996
 20
-0.4979708826829135
 10
-0.0349999999999996
 20
-0.4983974317750846
 10
-0.0299999999999996
 20
-0.4987734956871706
 10
-0.0249999999999996
 20
-0.4990991885387112
 10
-0.0199999999999996
 20
-0.4993746088859545
 10
-0.0149999999999996
 20
-0.4995998398718719
 10
-0.0099999999999996
 20
-0.499774949352206
 10
-0.0049999999999996
 20
-0.4998999899979995
 10
0.0
 20
-0.5
 97
        0
 75
     0
 76
     1
 98
        0
  0
CIRCLE
  5
14B
330
148
100
AcDbEntity
  8
0
 62
     0
370
    -2
100
AcDbCircle
 10
0.0
 20
0.0
 30
0.0
 40
0.5
  0
ENDBLK
  5
14D
330
148
100
AcDbEntity
  8
0
100
AcDbBlockEnd
  0
BLOCK
  5
156
330
14E
100
AcDbEntity
  8
0
100
AcDbBlockBegin
  2
CDWK_PTTYP41
 70
     0
 10
0.0
 20
0.0
 30
0.0
  3
CDWK_PTTYP41
  1

  0
LINE
  5
14F
330
14E
100
AcDbEntity
  8
0
 62
     0
370
    -2
100
AcDbLine
 10
-0.5
 20
0.5
 30
0.0
 11
0.5
 21
0.5
 31
0.0
  0
LINE
  5
150
330
14E
100
AcDbEntity
  8
0
 62
     0
370
    -2
100
AcDbLine
 10
0.5
 20
0.5
 30
0.0
 11
0.5
 21
-0.5
 31
0.0
  0
LINE
  5
151
330
14E
100
AcDbEntity
  8
0
 62
     0
370
    -2
100
AcDbLine
 10
0.5
 20
-0.5
 30
0.0
 11
-0.5
 21
-0.5
 31
0.0
  0
LINE
  5
152
330
14E
100
AcDbEntity
  8
0
 62
     0
370
    -2
100
AcDbLine
 10
-0.5
 20
-0.5
 30
0.0
 11
-0.5
 21
0.5
 31
0.0
  0
LINE
  5
153
330
14E
100
AcDbEntity
  8
0
 62
     0
370
    -2
100
AcDbLine
 10
-0.375
 20
0.25
 30
0.0
 11
0.375
 21
0.25
 31
0.0
  0
LINE
  5
154
330
14E
100
AcDbEntity
  8
0
 62
     0
370
    -2
100
AcDbLine
 10
-0.375
 20
0.0
 30
0.0
 11
0.375
 21
0.0
 31
0.0
  0
LINE
  5
155
330
14E
100
AcDbEntity
  8
0
 62
     0
370
    -2
100
AcDbLine
 10
-0.375
 20
-0.25
 30
0.0
 11
0.375
 21
-0.25
 31
0.0
  0
ENDBLK
  5
157
330
14E
100
AcDbEntity
  8
0
100
AcDbBlockEnd
  0
BLOCK
  5
15F
330
158
100
AcDbEntity
  8
0
100
AcDbBlockBegin
  2
CDWK_PTTYP42
 70
     0
 10
0.0
 20
0.0
 30
0.0
  3
CDWK_PTTYP42
  1

  0
LINE
  5
159
330
158
100
AcDbEntity
  8
0
 62
     0
370
    -2
100
AcDbLine
 10
-0.5
 20
0.5
 30
0.0
 11
0.5
 21
0.5
 31
0.0
  0
LINE
  5
15A
330
158
100
AcDbEntity
  8
0
 62
     0
370
    -2
100
AcDbLine
 10
0.5
 20
0.5
 30
0.0
 11
0.5
 21
-0.5
 31
0.0
  0
LINE
  5
15B
330
158
100
AcDbEntity
  8
0
 62
     0
370
    -2
100
AcDbLine
 10
0.5
 20
-0.5
 30
0.0
 11
-0.5
 21
-0.5
 31
0.0
  0
LINE
  5
15C
330
158
100
AcDbEntity
  8
0
 62
     0
370
    -2
100
AcDbLine
 10
-0.5
 20
-0.5
 30
0.0
 11
-0.5
 21
0.5
 31
0.0
  0
LINE
  5
15D
330
158
100
AcDbEntity
  8
0
 62
     0
370
    -2
100
AcDbLine
 10
-0.375
 20
0.125
 30
0.0
 11
0.375
 21
0.125
 31
0.0
  0
LINE
  5
15E
330
158
100
AcDbEntity
  8
0
 62
     0
370
    -2
100
AcDbLine
 10
-0.375
 20
-0.125
 30
0.0
 11
0.375
 21
-0.125
 31
0.0
  0
ENDBLK
  5
160
330
158
100
AcDbEntity
  8
0
100
AcDbBlockEnd
  0
BLOCK
  5
165
330
161
100
AcDbEntity
  8
0
100
AcDbBlockBegin
  2
CDWK_PTTYP43
 70
     0
 10
0.0
 20
0.0
 30
0.0
  3
CDWK_PTTYP43
  1

  0
CIRCLE
  5
162
330
161
100
AcDbEntity
  8
0
 62
     0
370
    -2
100
AcDbCircle
 10
0.0
 20
0.0
 30
0.0
 40
0.5
  0
LINE
  5
163
330
161
100
AcDbEntity
  8
0
 62
     0
370
    -2
100
AcDbLine
 10
-0.375
 20
0.166
 30
0.0
 11
0.375
 21
0.166
 31
0.0
  0
LINE
  5
164
330
161
100
AcDbEntity
  8
0
 62
     0
370
    -2
100
AcDbLine
 10
-0.375
 20
-0.166
 30
0.0
 11
0.375
 21
-0.166
 31
0.0
  0
ENDBLK
  5
166
330
161
100
AcDbEntity
  8
0
100
AcDbBlockEnd
  0
BLOCK
  5
16E
330
167
100
AcDbEntity
  8
0
100
AcDbBlockBegin
  2
CDWK_PTTYP44
 70
     0
 10
0.0
 20
0.0
 30
0.0
  3
CDWK_PTTYP44
  1

  0
CIRCLE
  5
168
330
167
100
AcDbEntity
  8
0
 62
     0
370
    -2
100
AcDbCircle
 10
0.0
 20
0.0
 30
0.0
 40
0.5
  0
LINE
  5
169
330
167
100
AcDbEntity
  8
0
 62
     0
370
    -2
100
AcDbLine
 10
-0.375
 20
0.333
 30
0.0
 11
0.375
 21
0.333
 31
0.0
  0
LINE
  5
16A
330
167
100
AcDbEntity
  8
0
 62
     0
370
    -2
100
AcDbLine
 10
-0.375
 20
0.166
 30
0.0
 11
0.375
 21
0.166
 31
0.0
  0
LINE
  5
16B
330
167
100
AcDbEntity
  8
0
 62
     0
370
    -2
100
AcDbLine
 10
-0.375
 20
0.0
 30
0.0
 11
0.375
 21
0.0
 31
0.0
  0
LINE
  5
16C
330
167
100
AcDbEntity
  8
0
 62
     0
370
    -2
100
AcDbLine
 10
-0.375
 20
-0.166
 30
0.0
 11
0.375
 21
-0.166
 31
0.0
  0
LINE
  5
16D
330
167
100
AcDbEntity
  8
0
 62
     0
370
    -2
100
AcDbLine
 10
-0.375
 20
-0.333
 30
0.0
 11
0.375
 21
-0.333
 31
0.0
  0
ENDBLK
  5
16F
330
167
100
AcDbEntity
  8
0
100
AcDbBlockEnd
  0
BLOCK
  5
173
330
170
100
AcDbEntity
  8
0
100
AcDbBlockBegin
  2
CDWK_PTTYP45
 70
     0
 10
0.0
 20
0.0
 30
0.0
  3
CDWK_PTTYP45
  1

  0
ELLIPSE
  5
171
330
170
100
AcDbEntity
  8
0
 62
     0
370
    -2
100
AcDbEllipse
 10
0.0
 20
0.0
 30
0.0
 11
0.5
 21
0.0
 31
0.0
210
0.0
220
0.0
230
1.0
 40
0.82
 41
0.0
 42
6.283185307179586
  0
CIRCLE
  5
172
330
170
100
AcDbEntity
  8
0
 62
     0
370
    -2
100
AcDbCircle
 10
-0.235
 20
0.0
 30
0.0
 40
0.26
  0
ENDBLK
  5
174
330
170
100
AcDbEntity
  8
0
100
AcDbBlockEnd
  0
BLOCK
  5
178
330
175
100
AcDbEntity
  8
0
100
AcDbBlockBegin
  2
CDWK_PTTYP46
 70
     0
 10
0.0
 20
0.0
 30
0.0
  3
CDWK_PTTYP46
  1

  0
ELLIPSE
  5
176
330
175
100
AcDbEntity
  8
0
 62
     0
370
    -2
100
AcDbEllipse
 10
0.0
 20
0.0
 30
0.0
 11
0.5
 21
0.0
 31
0.0
210
0.0
220
0.0
230
1.0
 40
0.82
 41
0.0
 42
6.283185307179586
  0
CIRCLE
  5
177
330
175
100
AcDbEntity
  8
0
 62
     0
370
    -2
100
AcDbCircle
 10
0.0
 20
0.15
 30
0.0
 40
0.26
  0
ENDBLK
  5
179
330
175
100
AcDbEntity
  8
0
100
AcDbBlockEnd
  0
BLOCK
  5
180
330
17A
100
AcDbEntity
  8
0
100
AcDbBlockBegin
  2
CDWK_PTTYP47
 70
     0
 10
0.0
 20
0.0
 30
0.0
  3
CDWK_PTTYP47
  1

  0
LINE
  5
17B
330
17A
100
AcDbEntity
  8
0
 62
     0
370
    -2
100
AcDbLine
 10
-0.5
 20
0.166
 30
0.0
 11
0.5
 21
0.166
 31
0.0
  0
LINE
  5
17C
330
17A
100
AcDbEntity
  8
0
 62
     0
370
    -2
100
AcDbLine
 10
0.5
 20
0.166
 30
0.0
 11
0.5
 21
-0.166
 31
0.0
  0
LINE
  5
17D
330
17A
100
AcDbEntity
  8
0
 62
     0
370
    -2
100
AcDbLine
 10
0.5
 20
-0.166
 30
0.0
 11
-0.5
 21
-0.166
 31
0.0
  0
LINE
  5
17E
330
17A
100
AcDbEntity
  8
0
 62
     0
370
    -2
100
AcDbLine
 10
-0.5
 20
-0.166
 30
0.0
 11
-0.5
 21
0.166
 31
0.0
  0
CIRCLE
  5
17F
330
17A
100
AcDbEntity
  8
0
 62
     0
370
    -2
100
AcDbCircle
 10
0.0
 20
-0.313
 30
0.0
 40
0.4
  0
ENDBLK
  5
181
330
17A
100
AcDbEntity
  8
0
100
AcDbBlockEnd
  0
BLOCK
  5
186
330
183
100
AcDbEntity
  8
0
100
AcDbBlockBegin
  2
CDWK_PTTYP48
 70
     0
 10
0.0
 20
0.0
 30
0.0
  3
CDWK_PTTYP48
  1

  0
CIRCLE
  5
184
330
183
100
AcDbEntity
  8
0
  6
CADWORK_3
 62
     0
 48
0.1
370
    -2
100
AcDbCircle
 10
0.0
 20
0.0
 30
0.0
 40
0.5
  0
CIRCLE
  5
185
330
183
100
AcDbEntity
  8
0
 62
     0
370
    -2
100
AcDbCircle
 10
0.0
 20
0.0
 30
0.0
 40
0.25
  0
ENDBLK
  5
187
330
183
100
AcDbEntity
  8
0
100
AcDbBlockEnd
  0
BLOCK
  5
18D
330
188
100
AcDbEntity
  8
0
100
AcDbBlockBegin
  2
CDWK_PTTYP49
 70
     0
 10
0.0
 20
0.0
 30
0.0
  3
CDWK_PTTYP49
  1

  0
LINE
  5
189
330
188
100
AcDbEntity
  8
0
 62
     0
370
    -2
100
AcDbLine
 10
-0.5
 20
0.166
 30
0.0
 11
0.5
 21
0.166
 31
0.0
  0
LINE
  5
18A
330
188
100
AcDbEntity
  8
0
 62
     0
370
    -2
100
AcDbLine
 10
0.5
 20
0.166
 30
0.0
 11
0.5
 21
-0.166
 31
0.0
  0
LINE
  5
18B
330
188
100
AcDbEntity
  8
0
 62
     0
370
    -2
100
AcDbLine
 10
0.5
 20
-0.166
 30
0.0
 11
-0.5
 21
-0.166
 31
0.0
  0
LINE
  5
18C
330
188
100
AcDbEntity
  8
0
 62
     0
370
    -2
100
AcDbLine
 10
-0.5
 20
-0.166
 30
0.0
 11
-0.5
 21
0.166
 31
0.0
  0
ENDBLK
  5
18E
330
188
100
AcDbEntity
  8
0
100
AcDbBlockEnd
  0
BLOCK
  5
197
330
18F
100
AcDbEntity
  8
0
100
AcDbBlockBegin
  2
CDWK_PTTYP50
 70
     0
 10
0.0
 20
0.0
 30
0.0
  3
CDWK_PTTYP50
  1

  0
LINE
  5
190
330
18F
100
AcDbEntity
  8
0
 62
     0
370
    -2
100
AcDbLine
 10
-0.5
 20
0.166
 30
0.0
 11
0.5
 21
0.166
 31
0.0
  0
LINE
  5
191
330
18F
100
AcDbEntity
  8
0
 62
     0
370
    -2
100
AcDbLine
 10
0.5
 20
0.166
 30
0.0
 11
0.5
 21
-0.166
 31
0.0
  0
LINE
  5
192
330
18F
100
AcDbEntity
  8
0
 62
     0
370
    -2
100
AcDbLine
 10
0.5
 20
-0.166
 30
0.0
 11
-0.5
 21
-0.166
 31
0.0
  0
LINE
  5
193
330
18F
100
AcDbEntity
  8
0
 62
     0
370
    -2
100
AcDbLine
 10
-0.5
 20
-0.166
 30
0.0
 11
-0.5
 21
0.166
 31
0.0
  0
LINE
  5
194
330
18F
100
AcDbEntity
  8
0
 62
     0
370
    -2
100
AcDbLine
 10
-0.25
 20
-0.166
 30
0.0
 11
-0.25
 21
0.166
 31
0.0
  0
LINE
  5
195
330
18F
100
AcDbEntity
  8
0
 62
     0
370
    -2
100
AcDbLine
 10
0.0
 20
-0.166
 30
0.0
 11
0.0
 21
0.166
 31
0.0
  0
LINE
  5
196
330
18F
100
AcDbEntity
  8
0
 62
     0
370
    -2
100
AcDbLine
 10
0.25
 20
-0.166
 30
0.0
 11
0.25
 21
0.166
 31
0.0
  0
ENDBLK
  5
198
330
18F
100
AcDbEntity
  8
0
100
AcDbBlockEnd
  0
BLOCK
  5
19C
330
199
100
AcDbEntity
  8
0
100
AcDbBlockBegin
  2
CDWK_PTTYP51
 70
     0
 10
0.0
 20
0.0
 30
0.0
  3
CDWK_PTTYP51
  1

  0
SPLINE
  5
19A
330
199
100
AcDbEntity
  8
0
 62
     0
370
    -2
100
AcDbSpline
210
0.0
220
0.0
230
1.0
 70
  1064
 71
     3
 72
    12
 73
     8
 74
     6
 42
0.000000001
 43
0.0000000001
 44
0.0000000001
 40
0.0
 40
0.0
 40
0.0
 40
0.0
 40
0.1690118339052032
 40
0.5175774661755118
 40
0.8011704844252565
 40
0.9154070810132151
 40
0.975822310881188
 40
0.975822310881188
 40
0.975822310881188
 40
0.975822310881188
 10
-0.5
 20
-0.077
 30
0.0
 10
-0.443824324006723
 20
-0.0900581618560981
 30
0.0
 10
-0.2717933876546281
 20
-0.1300471387828842
 30
0.0
 10
-0.0276699186086479
 20
-0.0006977790990417
 30
0.0
 10
0.2303349729129116
 20
0.0817803270207037
 30
0.0
 10
0.3686157174766292
 20
0.0066250198607167
 30
0.0
 10
0.4216533294581816
 20
-0.0168719667726145
 30
0.0
 10
0.44
 20
-0.025
 30
0.0
 11
-0.5
 21
-0.077
 31
0.0
 11
-0.333
 21
-0.103
 31
0.0
 11
0.0
 21
0.0
 31
0.0
 11
0.28
 21
0.045
 31
0.0
 11
0.385
 21
0.0
 31
0.0
 11
0.44
 21
-0.025
 31
0.0
  0
HATCH
  5
19B
330
199
100
AcDbEntity
  8
0
 62
     0
370
    -2
100
AcDbHatch
 10
0.0
 20
0.0
 30
0.0
210
0.0
220
0.0
230
1.0
  2
SOLID
 70
     1
 71
     1
 91
        1
 92
        3
 72
     0
 73
     1
 93
        3
 10
0.365
 20
-0.05
 10
0.5
 20
-0.042
 10
0.395
 20
0.045
 97
        0
 75
     0
 76
     1
 98
        0
  0
ENDBLK
  5
19D
330
199
100
AcDbEntity
  8
0
100
AcDbBlockEnd
  0
BLOCK
  5
1A2
330
19E
100
AcDbEntity
  8
0
100
AcDbBlockBegin
  2
CDWK_PTTYP52
 70
     0
 10
0.0
 20
0.0
 30
0.0
  3
CDWK_PTTYP52
  1

  0
LINE
  5
19F
330
19E
100
AcDbEntity
  8
0
 62
     0
370
    -2
100
AcDbLine
 10
-0.5
 20
-0.289
 30
0.0
 11
0.5
 21
-0.289
 31
0.0
  0
LINE
  5
1A0
330
19E
100
AcDbEntity
  8
0
 62
     0
370
    -2
100
AcDbLine
 10
0.5
 20
-0.289
 30
0.0
 11
0.0
 21
0.577
 31
0.0
  0
LINE
  5
1A1
330
19E
100
AcDbEntity
  8
0
 62
     0
370
    -2
100
AcDbLine
 10
0.0
 20
0.577
 30
0.0
 11
-0.5
 21
-0.289
 31
0.0
  0
ENDBLK
  5
1A3
330
19E
100
AcDbEntity
  8
0
100
AcDbBlockEnd
  0
BLOCK
  5
1A9
330
1A4
100
AcDbEntity
  8
0
100
AcDbBlockBegin
  2
cw-dimension-symbol1
 70
     0
 10
0.0
 20
0.0
 30
0.0
  3
cw-dimension-symbol1
  1

  0
LINE
  5
1A5
330
1A4
100
AcDbEntity
  8
0
 62
     0
370
    -2
100
AcDbLine
 10
0.0
 20
0.0
 30
0.0
 11
-1.0
 21
0.25
 31
0.0
  0
LINE
  5
1A6
330
1A4
100
AcDbEntity
  8
0
 62
     0
370
    -2
100
AcDbLine
 10
0.0
 20
0.0
 30
0.0
 11
-1.0
 21
-0.25
 31
0.0
  0
LINE
  5
1A7
330
1A4
100
AcDbEntity
  8
0
 62
     0
370
    -2
100
AcDbLine
 10
-1.0
 20
0.25
 30
0.0
 11
-1.0
 21
-0.25
 31
0.0
  0
LINE
  5
1A8
330
1A4
100
AcDbEntity
  8
0
 62
     0
370
    -2
100
AcDbLine
 10
0.0
 20
0.0
 30
0.0
 11
-1.0
 21
0.0
 31
0.0
  0
ENDBLK
  5
1AA
330
1A4
100
AcDbEntity
  8
0
100
AcDbBlockEnd
  0
BLOCK
  5
1AE
330
1AB
100
AcDbEntity
  8
0
100
AcDbBlockBegin
  2
cw-dimension-symbol2
 70
     0
 10
0.0
 20
0.0
 30
0.0
  3
cw-dimension-symbol2
  1

  0
LINE
  5
1AC
330
1AB
100
AcDbEntity
  8
0
 62
     0
370
    -2
100
AcDbLine
 10
-1.0
 20
0.0
 30
0.0
 11
1.0
 21
0.0
 31
0.0
  0
LINE
  5
1AD
330
1AB
100
AcDbEntity
  8
0
 62
     0
370
    -2
100
AcDbLine
 10
-0.5
 20
-0.5
 30
0.0
 11
0.5
 21
0.5
 31
0.0
  0
ENDBLK
  5
1AF
330
1AB
100
AcDbEntity
  8
0
100
AcDbBlockEnd
  0
BLOCK
  5
1B3
330
1B0
100
AcDbEntity
  8
0
100
AcDbBlockBegin
  2
cw-dimension-symbol3
 70
     0
 10
0.0
 20
0.0
 30
0.0
  3
cw-dimension-symbol3
  1

  0
LINE
  5
1B1
330
1B0
100
AcDbEntity
  8
0
 62
     0
370
    -2
100
AcDbLine
 10
-1.0
 20
0.0
 30
0.0
 11
1.0
 21
0.0
 31
0.0
  0
CIRCLE
  5
1B2
330
1B0
100
AcDbEntity
  8
0
 62
     0
370
    -2
100
AcDbCircle
 10
0.0
 20
0.0
 30
0.0
 40
0.25
  0
ENDBLK
  5
1B4
330
1B0
100
AcDbEntity
  8
0
100
AcDbBlockEnd
  0
BLOCK
  5
1BA
330
1B5
100
AcDbEntity
  8
0
100
AcDbBlockBegin
  2
cw-dimension-symbol5
 70
     0
 10
0.0
 20
0.0
 30
0.0
  3
cw-dimension-symbol5
  1

  0
HATCH
  5
1B6
330
1B5
100
AcDbEntity
  8
0
 62
     0
370
    -2
100
AcDbHatch
 10
0.0
 20
0.0
 30
0.0
210
0.0
220
0.0
230
1.0
  2
SOLID
 70
     1
 71
     1
 91
        1
 92
        3
 72
     0
 73
     1
 93
        3
 10
0.0
 20
0.0
 10
-1.0
 20
0.25
 10
-1.0
 20
-0.25
 97
        0
 75
     0
 76
     1
 98
        0
  0
LINE
  5
1B7
330
1B5
100
AcDbEntity
  8
0
 62
     0
370
    -2
100
AcDbLine
 10
0.0
 20
0.0
 30
0.0
 11
-1.0
 21
0.25
 31
0.0
  0
LINE
  5
1B8
330
1B5
100
AcDbEntity
  8
0
 62
     0
370
    -2
100
AcDbLine
 10
-1.0
 20
0.25
 30
0.0
 11
-1.0
 21
-0.25
 31
0.0
  0
LINE
  5
1B9
330
1B5
100
AcDbEntity
  8
0
 62
     0
370
    -2
100
AcDbLine
 10
-1.0
 20
-0.25
 30
0.0
 11
0.0
 21
0.0
 31
0.0
  0
ENDBLK
  5
1BB
330
1B5
100
AcDbEntity
  8
0
100
AcDbBlockEnd
  0
BLOCK
  5
1C0
330
1BC
100
AcDbEntity
  8
0
100
AcDbBlockBegin
  2
cw-dimension-symbol6
 70
     0
 10
0.0
 20
0.0
 30
0.0
  3
cw-dimension-symbol6
  1

  0
LINE
  5
1BD
330
1BC
100
AcDbEntity
  8
0
 62
     0
370
    -2
100
AcDbLine
 10
0.0
 20
0.0
 30
0.0
 11
-1.0
 21
0.25
 31
0.0
  0
LINE
  5
1BE
330
1BC
100
AcDbEntity
  8
0
 62
     0
370
    -2
100
AcDbLine
 10
0.0
 20
0.0
 30
0.0
 11
-1.0
 21
-0.25
 31
0.0
  0
LINE
  5
1BF
330
1BC
100
AcDbEntity
  8
0
 62
     0
370
    -2
100
AcDbLine
 10
0.0
 20
0.0
 30
0.0
 11
-1.0
 21
0.0
 31
0.0
  0
ENDBLK
  5
1C1
330
1BC
100
AcDbEntity
  8
0
100
AcDbBlockEnd
  0
BLOCK
  5
1C6
330
1C2
100
AcDbEntity
  8
0
100
AcDbBlockBegin
  2
cw-dimension-symbol11
 70
     0
 10
0.0
 20
0.0
 30
0.0
  3
cw-dimension-symbol11
  1

  0
LINE
  5
1C3
330
1C2
100
AcDbEntity
  8
0
 62
     0
370
    -2
100
AcDbLine
 10
-1.0
 20
1.0
 30
0.0
 11
1.0
 21
1.0
 31
0.0
  0
LINE
  5
1C4
330
1C2
100
AcDbEntity
  8
0
 62
     0
370
    -2
100
AcDbLine
 10
0.0
 20
0.0
 30
0.0
 11
-1.0
 21
1.0
 31
0.0
  0
LINE
  5
1C5
330
1C2
100
AcDbEntity
  8
0
 62
     0
370
    -2
100
AcDbLine
 10
0.0
 20
0.0
 30
0.0
 11
1.0
 21
1.0
 31
0.0
  0
ENDBLK
  5
1C7
330
1C2
100
AcDbEntity
  8
0
100
AcDbBlockEnd
  0
BLOCK
  5
1CC
330
1C8
100
AcDbEntity
  8
0
100
AcDbBlockBegin
  2
cw-dimension-symbol13
 70
     0
 10
0.0
 20
0.0
 30
0.0
  3
cw-dimension-symbol13
  1

  0
LINE
  5
1C9
330
1C8
100
AcDbEntity
  8
0
 62
     0
370
    -2
100
AcDbLine
 10
-1.0
 20
-1.0
 30
0.0
 11
1.0
 21
-1.0
 31
0.0
  0
LINE
  5
1CA
330
1C8
100
AcDbEntity
  8
0
 62
     0
370
    -2
100
AcDbLine
 10
0.0
 20
0.0
 30
0.0
 11
-1.0
 21
-1.0
 31
0.0
  0
LINE
  5
1CB
330
1C8
100
AcDbEntity
  8
0
 62
     0
370
    -2
100
AcDbLine
 10
0.0
 20
0.0
 30
0.0
 11
1.0
 21
-1.0
 31
0.0
  0
ENDBLK
  5
1CD
330
1C8
100
AcDbEntity
  8
0
100
AcDbBlockEnd
  0
BLOCK
  5
1D3
330
1CE
100
AcDbEntity
  8
0
100
AcDbBlockBegin
  2
cw-dimension-symbol15
 70
     0
 10
0.0
 20
0.0
 30
0.0
  3
cw-dimension-symbol15
  1

  0
HATCH
  5
1CF
330
1CE
100
AcDbEntity
  8
0
 62
     0
370
    -2
100
AcDbHatch
 10
0.0
 20
0.0
 30
0.0
210
0.0
220
0.0
230
1.0
  2
SOLID
 70
     1
 71
     1
 91
        1
 92
        3
 72
     0
 73
     1
 93
        3
 10
0.0
 20
0.0
 10
-1.0
 20
1.0
 10
1.0
 20
1.0
 97
        0
 75
     0
 76
     1
 98
        0
  0
LINE
  5
1D0
330
1CE
100
AcDbEntity
  8
0
 62
     0
370
    -2
100
AcDbLine
 10
0.0
 20
0.0
 30
0.0
 11
-1.0
 21
1.0
 31
0.0
  0
LINE
  5
1D1
330
1CE
100
AcDbEntity
  8
0
 62
     0
370
    -2
100
AcDbLine
 10
-1.0
 20
1.0
 30
0.0
 11
1.0
 21
1.0
 31
0.0
  0
LINE
  5
1D2
330
1CE
100
AcDbEntity
  8
0
 62
     0
370
    -2
100
AcDbLine
 10
1.0
 20
1.0
 30
0.0
 11
0.0
 21
0.0
 31
0.0
  0
ENDBLK
  5
1D4
330
1CE
100
AcDbEntity
  8
0
100
AcDbBlockEnd
  0
BLOCK
  5
1DA
330
1D5
100
AcDbEntity
  8
0
100
AcDbBlockBegin
  2
cw-dimension-symbol16
 70
     0
 10
0.0
 20
0.0
 30
0.0
  3
cw-dimension-symbol16
  1

  0
HATCH
  5
1D6
330
1D5
100
AcDbEntity
  8
0
 62
     0
370
    -2
100
AcDbHatch
 10
0.0
 20
0.0
 30
0.0
210
0.0
220
0.0
230
1.0
  2
SOLID
 70
     1
 71
     1
 91
        1
 92
        3
 72
     0
 73
     1
 93
        3
 10
0.0
 20
0.0
 10
-1.0
 20
-1.0
 10
1.0
 20
-1.0
 97
        0
 75
     0
 76
     1
 98
        0
  0
LINE
  5
1D7
330
1D5
100
AcDbEntity
  8
0
 62
     0
370
    -2
100
AcDbLine
 10
0.0
 20
0.0
 30
0.0
 11
-1.0
 21
-1.0
 31
0.0
  0
LINE
  5
1D8
330
1D5
100
AcDbEntity
  8
0
 62
     0
370
    -2
100
AcDbLine
 10
-1.0
 20
-1.0
 30
0.0
 11
1.0
 21
-1.0
 31
0.0
  0
LINE
  5
1D9
330
1D5
100
AcDbEntity
  8
0
 62
     0
370
    -2
100
AcDbLine
 10
1.0
 20
-1.0
 30
0.0
 11
0.0
 21
0.0
 31
0.0
  0
ENDBLK
  5
1DB
330
1D5
100
AcDbEntity
  8
0
100
AcDbBlockEnd
  0
BLOCK
  5
1E1
330
1DC
100
AcDbEntity
  8
0
100
AcDbBlockBegin
  2
cw-dimension-symbol17
 70
     0
 10
0.0
 20
0.0
 30
0.0
  3
cw-dimension-symbol17
  1

  0
LINE
  5
1DD
330
1DC
100
AcDbEntity
  8
0
 62
     0
370
    -2
100
AcDbLine
 10
0.0
 20
0.0
 30
0.0
 11
1.0
 21
1.0
 31
0.0
  0
LINE
  5
1DE
330
1DC
100
AcDbEntity
  8
0
 62
     0
370
    -2
100
AcDbLine
 10
1.0
 20
1.0
 30
0.0
 11
-1.0
 21
1.0
 31
0.0
  0
LINE
  5
1DF
330
1DC
100
AcDbEntity
  8
0
 62
     0
370
    -2
100
AcDbLine
 10
-1.0
 20
1.0
 30
0.0
 11
0.0
 21
0.0
 31
0.0
  0
HATCH
  5
1E0
330
1DC
100
AcDbEntity
  8
0
 62
     0
370
    -2
100
AcDbHatch
 10
0.0
 20
0.0
 30
0.0
210
0.0
220
0.0
230
1.0
  2
SOLID
 70
     1
 71
     1
 91
        1
 92
        3
 72
     0
 73
     1
 93
        3
 10
0.0
 20
0.0
 10
-1.0
 20
1.0
 10
0.0
 20
1.0
 97
        0
 75
     0
 76
     1
 98
        0
  0
ENDBLK
  5
1E2
330
1DC
100
AcDbEntity
  8
0
100
AcDbBlockEnd
  0
BLOCK
  5
1E8
330
1E3
100
AcDbEntity
  8
0
100
AcDbBlockBegin
  2
cw-dimension-symbol18
 70
     0
 10
0.0
 20
0.0
 30
0.0
  3
cw-dimension-symbol18
  1

  0
LINE
  5
1E4
330
1E3
100
AcDbEntity
  8
0
 62
     0
370
    -2
100
AcDbLine
 10
0.0
 20
0.0
 30
0.0
 11
1.0
 21
-1.0
 31
0.0
  0
LINE
  5
1E5
330
1E3
100
AcDbEntity
  8
0
 62
     0
370
    -2
100
AcDbLine
 10
1.0
 20
-1.0
 30
0.0
 11
-1.0
 21
-1.0
 31
0.0
  0
LINE
  5
1E6
330
1E3
100
AcDbEntity
  8
0
 62
     0
370
    -2
100
AcDbLine
 10
-1.0
 20
-1.0
 30
0.0
 11
0.0
 21
0.0
 31
0.0
  0
HATCH
  5
1E7
330
1E3
100
AcDbEntity
  8
0
 62
     0
370
    -2
100
AcDbHatch
 10
0.0
 20
0.0
 30
0.0
210
0.0
220
0.0
230
1.0
  2
SOLID
 70
     1
 71
     1
 91
        1
 92
        3
 72
     0
 73
     1
 93
        3
 10
0.0
 20
0.0
 10
-1.0
 20
-1.0
 10
0.0
 20
-1.0
 97
        0
 75
     0
 76
     1
 98
        0
  0
ENDBLK
  5
1E9
330
1E3
100
AcDbEntity
  8
0
100
AcDbBlockEnd
  0
BLOCK
  5
1EB
330
1EA
100
AcDbEntity
  8
0
100
AcDbBlockBegin
  2
cw-dimension-symbol19
 70
     0
 10
0.0
 20
0.0
 30
0.0
  3
cw-dimension-symbol19
  1

  0
ENDBLK
  5
1EC
330
1EA
100
AcDbEntity
  8
0
100
AcDbBlockEnd
  0
BLOCK
  5
1F2
330
1ED
100
AcDbEntity
  8
0
100
AcDbBlockBegin
  2
cw-dimension-symbol20
 70
     0
 10
0.0
 20
0.0
 30
0.0
  3
cw-dimension-symbol20
  1

  0
LINE
  5
1EE
330
1ED
100
AcDbEntity
  8
0
 62
     0
370
    -2
100
AcDbLine
 10
0.0
 20
0.0
 30
0.0
 11
0.0
 21
2.0
 31
0.0
  0
LINE
  5
1EF
330
1ED
100
AcDbEntity
  8
0
 62
     0
370
    -2
100
AcDbLine
 10
0.0
 20
0.0
 30
0.0
 11
-1.0
 21
0.33
 31
0.0
  0
LINE
  5
1F0
330
1ED
100
AcDbEntity
  8
0
 62
     0
370
    -2
100
AcDbLine
 10
0.0
 20
0.0
 30
0.0
 11
1.0
 21
0.33
 31
0.0
  0
LINE
  5
1F1
330
1ED
100
AcDbEntity
  8
0
 62
     0
370
    -2
100
AcDbLine
 10
0.0
 20
2.0
 30
0.0
 11
4.15
 21
2.0
 31
0.0
  0
ENDBLK
  5
1F3
330
1ED
100
AcDbEntity
  8
0
100
AcDbBlockEnd
  0
BLOCK
  5
1F9
330
1F4
100
AcDbEntity
  8
0
100
AcDbBlockBegin
  2
cw-dimension-symbol21
 70
     0
 10
0.0
 20
0.0
 30
0.0
  3
cw-dimension-symbol21
  1

  0
LINE
  5
1F5
330
1F4
100
AcDbEntity
  8
0
 62
     0
370
    -2
100
AcDbLine
 10
0.0
 20
0.0
 30
0.0
 11
0.0
 21
-2.0
 31
0.0
  0
LINE
  5
1F6
330
1F4
100
AcDbEntity
  8
0
 62
     0
370
    -2
100
AcDbLine
 10
0.0
 20
0.0
 30
0.0
 11
-1.0
 21
-0.33
 31
0.0
  0
LINE
  5
1F7
330
1F4
100
AcDbEntity
  8
0
 62
     0
370
    -2
100
AcDbLine
 10
0.0
 20
0.0
 30
0.0
 11
1.0
 21
-0.33
 31
0.0
  0
LINE
  5
1F8
330
1F4
100
AcDbEntity
  8
0
 62
     0
370
    -2
100
AcDbLine
 10
0.0
 20
-2.0
 30
0.0
 11
4.15
 21
-2.0
 31
0.0
  0
ENDBLK
  5
1FA
330
1F4
100
AcDbEntity
  8
0
100
AcDbBlockEnd
  0
BLOCK
  5
22B
330
1FB
100
AcDbEntity
  8
0
100
AcDbBlockBegin
  2
cw-line-extremity0
 70
     0
 10
0.0
 20
0.0
 30
0.0
  3
cw-line-extremity0
  1

  0
LINE
  5
1FC
330
1FB
100
AcDbEntity
  8
0
 62
     0
370
    -2
100
AcDbLine
 10
0.0
 20
0.0
 30
0.0
 11
4.0
 21
1.0
 31
0.0
  0
LINE
  5
1FD
330
1FB
100
AcDbEntity
  8
0
 62
     0
370
    -2
100
AcDbLine
 10
0.0
 20
0.0
 30
0.0
 11
4.0
 21
-1.0
 31
0.0
  0
LINE
  5
1FE
330
1FB
100
AcDbEntity
  8
0
 62
     0
370
    -2
100
AcDbLine
 10
4.0
 20
1.0
 30
0.0
 11
4.0
 21
-1.0
 31
0.0
  0
ENDBLK
  5
22C
330
1FB
100
AcDbEntity
  8
0
100
AcDbBlockEnd
  0
BLOCK
  5
229
330
1FF
100
AcDbEntity
  8
0
100
AcDbBlockBegin
  2
cw-line-extremity2
 70
     0
 10
0.0
 20
0.0
 30
0.0
  3
cw-line-extremity2
  1

  0
HATCH
  5
200
330
1FF
100
AcDbEntity
  8
0
 62
     0
370
     0
100
AcDbHatch
 10
0.0
 20
0.0
 30
0.0
210
0.0
220
0.0
230
1.0
  2
SOLID
 70
     1
 71
     1
 91
        1
 92
        3
 72
     0
 73
     1
 93
        3
 10
0.0
 20
0.0
 10
4.0
 20
1.0
 10
4.0
 20
-1.0
 97
        0
 75
     0
 76
     1
 98
        0
  0
LINE
  5
201
330
1FF
100
AcDbEntity
  8
0
 62
     0
370
    -2
100
AcDbLine
 10
0.0
 20
0.0
 30
0.0
 11
4.0
 21
1.0
 31
0.0
  0
LINE
  5
202
330
1FF
100
AcDbEntity
  8
0
 62
     0
370
    -2
100
AcDbLine
 10
4.0
 20
1.0
 30
0.0
 11
4.0
 21
-1.0
 31
0.0
  0
LINE
  5
203
330
1FF
100
AcDbEntity
  8
0
 62
     0
370
    -2
100
AcDbLine
 10
4.0
 20
-1.0
 30
0.0
 11
0.0
 21
0.0
 31
0.0
  0
ENDBLK
  5
22A
330
1FF
100
AcDbEntity
  8
0
100
AcDbBlockEnd
  0
BLOCK
  5
227
330
204
100
AcDbEntity
  8
0
100
AcDbBlockBegin
  2
cw-line-extremity3
 70
     0
 10
0.0
 20
0.0
 30
0.0
  3
cw-line-extremity3
  1

  0
HATCH
  5
205
330
204
100
AcDbEntity
  8
0
 62
     0
370
     0
100
AcDbHatch
 10
0.0
 20
0.0
 30
0.0
210
0.0
220
0.0
230
1.0
  2
SOLID
 70
     1
 71
     1
 91
        1
 92
        3
 72
     0
 73
     1
 93
        3
 10
0.0
 20
0.0
 10
4.0
 20
1.0
 10
4.0
 20
-1.0
 97
        0
 75
     0
 76
     1
 98
        0
  0
LINE
  5
206
330
204
100
AcDbEntity
  8
0
 62
     0
370
    -2
100
AcDbLine
 10
0.0
 20
0.0
 30
0.0
 11
4.0
 21
1.0
 31
0.0
  0
LINE
  5
207
330
204
100
AcDbEntity
  8
0
 62
     0
370
    -2
100
AcDbLine
 10
4.0
 20
1.0
 30
0.0
 11
4.0
 21
-1.0
 31
0.0
  0
LINE
  5
208
330
204
100
AcDbEntity
  8
0
 62
     0
370
    -2
100
AcDbLine
 10
4.0
 20
-1.0
 30
0.0
 11
0.0
 21
0.0
 31
0.0
  0
ENDBLK
  5
228
330
204
100
AcDbEntity
  8
0
100
AcDbBlockEnd
  0
BLOCK
  5
225
330
209
100
AcDbEntity
  8
0
100
AcDbBlockBegin
  2
cw-line-extremity301
 70
     0
 10
0.0
 20
0.0
 30
0.0
  3
cw-line-extremity301
  1

  0
LINE
  5
20A
330
209
100
AcDbEntity
  8
0
 62
     0
370
    -2
100
AcDbLine
 10
0.0
 20
2.66666
 30
0.0
 11
0.0
 21
-2.66666
 31
0.0
  0
ENDBLK
  5
226
330
209
100
AcDbEntity
  8
0
100
AcDbBlockEnd
  0
BLOCK
  5
223
330
20B
100
AcDbEntity
  8
0
100
AcDbBlockBegin
  2
cw-line-extremity4
 70
     0
 10
0.0
 20
0.0
 30
0.0
  3
cw-line-extremity4
  1

  0
HATCH
  5
20C
330
20B
100
AcDbEntity
  8
0
 62
     0
370
     5
100
AcDbHatch
 10
0.0
 20
0.0
 30
0.0
210
0.0
220
0.0
230
1.0
  2
SOLID
 70
     1
 71
     1
 91
        1
 92
        1
 93
        1
 72
     2
 10
0.0
 20
0.0
 40
1.0
 50
0.0
 51
360.0
 73
     1
 97
        0
 75
     0
 76
     1
 98
        0
  0
ENDBLK
  5
224
330
20B
100
AcDbEntity
  8
0
100
AcDbBlockEnd
  0
BLOCK
  5
221
330
20D
100
AcDbEntity
  8
0
100
AcDbBlockBegin
  2
cw-line-extremity5
 70
     0
 10
0.0
 20
0.0
 30
0.0
  3
cw-line-extremity5
  1

  0
LINE
  5
20E
330
20D
100
AcDbEntity
  8
0
 62
     0
370
    -2
100
AcDbLine
 10
0.0
 20
0.0
 30
0.0
 11
-1.0
 21
0.0
 31
0.0
  0
ENDBLK
  5
222
330
20D
100
AcDbEntity
  8
0
100
AcDbBlockEnd
  0
BLOCK
  5
21F
330
20F
100
AcDbEntity
  8
0
100
AcDbBlockBegin
  2
cw-line-extremity6
 70
     0
 10
0.0
 20
0.0
 30
0.0
  3
cw-line-extremity6
  1

  0
LINE
  5
210
330
20F
100
AcDbEntity
  8
0
 62
     0
370
    18
100
AcDbLine
 10
0.0
 20
1.0
 30
0.0
 11
0.0
 21
-1.0
 31
0.0
  0
ENDBLK
  5
220
330
20F
100
AcDbEntity
  8
0
100
AcDbBlockEnd
  0
BLOCK
  5
21D
330
211
100
AcDbEntity
  8
0
100
AcDbBlockBegin
  2
cw-line-extremity9
 70
     0
 10
0.0
 20
0.0
 30
0.0
  3
cw-line-extremity9
  1

  0
LINE
  5
212
330
211
100
AcDbEntity
  8
0
 62
     0
370
    18
100
AcDbLine
 10
-1.0
 20
-1.0
 30
0.0
 11
1.0
 21
1.0
 31
0.0
  0
ENDBLK
  5
21E
330
211
100
AcDbEntity
  8
0
100
AcDbBlockEnd
  0
BLOCK
  5
21B
330
213
100
AcDbEntity
  8
0
100
AcDbBlockBegin
  2
cw-line-extremity10
 70
     0
 10
0.0
 20
0.0
 30
0.0
  3
cw-line-extremity10
  1

  0
CIRCLE
  5
214
330
213
100
AcDbEntity
  8
0
 62
     0
370
    -2
100
AcDbCircle
 10
0.0
 20
0.0
 30
0.0
 40
1.0
  0
ENDBLK
  5
21C
330
213
100
AcDbEntity
  8
0
100
AcDbBlockEnd
  0
BLOCK
  5
219
330
215
100
AcDbEntity
  8
0
100
AcDbBlockBegin
  2
cw-line-extremity1
 70
     0
 10
0.0
 20
0.0
 30
0.0
  3
cw-line-extremity1
  1

  0
LINE
  5
216
330
215
100
AcDbEntity
  8
0
 62
     0
370
    -2
100
AcDbLine
 10
0.0
 20
0.0
 30
0.0
 11
0.0
 21
1.0
 31
0.0
  0
LINE
  5
217
330
215
100
AcDbEntity
  8
0
 62
     0
370
    -2
100
AcDbLine
 10
0.0
 20
1.0
 30
0.0
 11
0.5
 21
1.5
 31
0.0
  0
LINE
  5
218
330
215
100
AcDbEntity
  8
0
 62
     0
370
    -2
100
AcDbLine
 10
0.5
 20
1.5
 30
0.0
 11
1.5
 21
1.5
 31
0.0
  0
ENDBLK
  5
21A
330
215
100
AcDbEntity
  8
0
100
AcDbBlockEnd
  0
BLOCK
  5
1C
330
1B
100
AcDbEntity
  8
0
100
AcDbBlockBegin
  2
*Paper_Space69
 70
     0
 10
0.0
 20
0.0
 30
0.0
  3
*Paper_Space69
  1

  0
ENDBLK
  5
1D
330
1B
100
AcDbEntity
  8
0
100
AcDbBlockEnd
  0
ENDSEC
  0
SECTION
  2
ENTITIES
  0
HATCH
  5
236
330
1F
100
AcDbEntity
  8
Ech.1_5
 62
   254
420
 15326711
440
 33554687
370
     5
100
AcDbHatch
 10
0.0
 20
0.0
 30
0.0
210
0.0
220
0.0
230
1.0
  2
SOLID
 70
     1
 71
     1
 91
        1
 92
        3
 72
     0
 73
     1
 93
       12
 10
1628.701164129533
 20
-3779.112655774318
 10
1599.901504499833
 20
-3779.112539137341
 10
1599.90150449963
 20
-3457.956725678865
 10
1628.701504499772
 20
-3457.956688966455
 10
1635.295705762137
 20
-3450.765749603503
 10
1629.651729755014
 20
-3465.148029608226
 10
1636.246271387614
 20
-3457.956688966455
 10
1675.501504499833
 20
-3457.956848984601
 10
1675.501504499833
 20
-3779.112003954407
 10
1636.245931017374
 20
-3779.112655774318
 10
1629.651729755015
 20
-3786.30359513727
 10
1635.295705762137
 20
-3771.921315132548
 97
        0
 75
     0
 76
     1
 98
        0
  0
LWPOLYLINE
  5
237
330
1F
100
AcDbEntity
  8
Ech.1_5
 62
   190
370
    20
100
AcDbPolyline
 90
       13
 70
     0
 43
0.0
 10
1628.701164129533
 20
-3779.112655774318
 10
1599.901504499833
 20
-3779.112539137341
 10
1599.90150449963
 20
-3457.956725678865
 10
1628.701504499772
 20
-3457.956688966455
 10
1635.295705762137
 20
-3450.765749603503
 10
1629.651729755014
 20
-3465.148029608226
 10
1636.246271387614
 20
-3457.956688966455
 10
1675.501504499833
 20
-3457.956848984601
 10
1675.501504499833
 20
-3779.112003954407
 10
1636.245931017374
 20
-3779.112655774318
 10
1629.651729755015
 20
-3786.30359513727
 10
1635.295705762137
 20
-3771.921315132548
 10
1628.701164129533
 20
-3779.112655774318
  0
LINE
  5
238
330
1F
100
AcDbEntity
  8
Ech.1_5
 62
   190
370
    20
100
AcDbLine
 10
1675.501504499833
 20
-3457.957396879813
 30
0.0
 11
1675.501504499833
 21
-3779.112003954407
 31
0.0
  0
LWPOLYLINE
  5
239
330
1F
100
AcDbEntity
  8
Ech.1_5
 62
   190
370
    20
100
AcDbPolyline
 90
        6
 70
     0
 43
0.0
 10
1564.278670013147
 20
-3457.957816086358
 10
1628.701504499772
 20
-3457.956688966461
 10
1635.295705762137
 20
-3450.765749603503
 10
1629.651729755014
 20
-3465.148029608226
 10
1636.246271387631
 20
-3457.956688966455
 10
1681.501504499833
 20
-3457.957505081441
  0
LWPOLYLINE
  5
23A
330
1F
100
AcDbEntity
  8
Ech.1_5
 62
   190
370
    20
100
AcDbPolyline
 90
        6
 70
     0
 43
0.0
 10
1564.291544487744
 20
-3779.113381615402
 10
1628.701504499773
 20
-3779.112254495506
 10
1635.295705762137
 20
-3771.921315132548
 10
1629.651729755015
 20
-3786.30359513727
 10
1636.246271387632
 20
-3779.1122544955
 10
1681.501504499833
 20
-3779.113070610486
  0
LWPOLYLINE
  5
23B
330
1F
100
AcDbEntity
  8
Ech.1_5
 62
   190
370
    20
100
AcDbPolyline
 90
        5
 70
     0
 43
0.0
 10
1421.567125741473
 20
-3856.039670630147
 10
1815.567125741472
 20
-3856.039670630147
 10
1815.567125741472
 20
-3911.004899456169
 10
1421.567125741473
 20
-3911.004899456169
 10
1421.567125741473
 20
-3856.039670630147
  0
LWPOLYLINE
  5
23C
330
1F
100
AcDbEntity
  8
Ech.1_5
 62
   190
370
    20
100
AcDbPolyline
 90
        5
 70
     0
 43
0.0
 10
1815.567125741472
 20
-3407.211684658476
 10
1421.567125741473
 20
-3407.211684658476
 10
1421.567125741473
 20
-3369.004899456217
 10
1815.567125741472
 20
-3369.004899456217
 10
1815.567125741472
 20
-3407.211684658476
  0
LWPOLYLINE
  5
23D
330
1F
100
AcDbEntity
  8
Ech.1_5
 62
   190
370
    20
100
AcDbPolyline
 90
        5
 70
     0
 43
0.0
 10
1815.567125741472
 20
-3864.839670630146
 10
1421.567125741473
 20
-3864.839670630146
 10
1421.567125741473
 20
-3856.039670630147
 10
1815.567125741472
 20
-3856.039670630147
 10
1815.567125741472
 20
-3864.839670630146
  0
LWPOLYLINE
  5
23E
330
1F
100
AcDbEntity
  8
Ech.1_5
 62
   190
370
    20
100
AcDbPolyline
 90
        5
 70
     0
 43
0.0
 10
1815.567125741472
 20
-3887.588128722283
 10
1421.567125741473
 20
-3887.588128722283
 10
1421.567125741473
 20
-3878.097317397987
 10
1815.567125741472
 20
-3878.097317397987
 10
1815.567125741472
 20
-3887.588128722283
  0
LINE
  5
23F
330
1F
100
AcDbEntity
  8
Ech.1_5
 62
   190
370
    20
100
AcDbLine
 10
1496.848950526656
 20
-3856.039670630147
 30
0.0
 11
1496.848950526656
 21
-3864.839670630146
 31
0.0
  0
LINE
  5
240
330
1F
100
AcDbEntity
  8
Ech.1_5
 62
   190
370
    20
100
AcDbLine
 10
1759.648191578874
 20
-3856.039670630147
 30
0.0
 11
1759.648191578874
 21
-3864.839670630146
 31
0.0
  0
LINE
  5
241
330
1F
100
AcDbEntity
  8
Ech.1_5
 62
   190
370
    20
100
AcDbLine
 10
1559.311037724797
 20
-3856.039670630147
 30
0.0
 11
1559.311037724797
 21
-3864.839670630146
 31
0.0
  0
IMAGE
  5
244
330
1F
100
AcDbEntity
  8
Ech.1_5
160
                 8
310
0800000000000000
100
AcDbRasterImage
 90
        0
 10
1497.992825237826
 20
-3908.99068046375
 30
0.0
 11
0.1133603238866397
 21
0.0
 31
0.0
 12
0.0
 22
0.1111111111111111
 32
0.0
 13
247.0
 23
171.0
340
243
 70
     3
280
     0
281
    50
282
    50
283
     0
360
245
 71
     1
 91
        2
 14
-0.5
 24
-0.5
 14
246.5
 24
170.5
290
     0
  0
IMAGE
  5
247
330
1F
100
AcDbEntity
  8
Ech.1_5
160
                 8
310
0800000000000000
100
AcDbRasterImage
 90
        0
 10
1602.423893734617
 20
-3910.012525385263
 30
0.0
 11
0.16
 21
0.0
 31
0.0
 12
0.0
 22
0.1578947368421053
 32
0.0
 13
200.0
 23
133.0
340
246
 70
     3
280
     0
281
    50
282
    50
283
     0
360
248
 71
     1
 91
        2
 14
-0.5
 24
-0.5
 14
199.5
 24
132.5
290
     0
  0
IMAGE
  5
24A
330
1F
100
AcDbEntity
  8
Ech.1_5
160
                 8
310
0800000000000000
100
AcDbRasterImage
 90
        0
 10
1699.773760286275
 20
-3910.494516551243
 30
0.0
 11
0.03770739064856712
 21
0.0
 31
0.0
 12
0.0
 22
0.03793103448275862
 32
0.0
 13
1326.0
 23
580.0
340
249
 70
     3
280
     0
281
    50
282
    50
283
     0
360
24B
 71
     1
 91
        2
 14
-0.5
 24
-0.5
 14
1325.5
 24
579.5
290
     0
  0
LINE
  5
24C
330
1F
100
AcDbEntity
  8
Ech.1_5
 62
   190
370
    20
100
AcDbLine
 10
1815.567125741476
 20
-3381.004899456173
 30
0.0
 11
1421.567125741477
 21
-3381.004899456173
 31
0.0
  0
LWPOLYLINE
  5
24D
330
1F
100
AcDbEntity
  8
Ech.1_5
 62
   190
370
    20
100
AcDbPolyline
 90
        5
 70
     0
 43
0.0
 10
1815.567125741472
 20
-3911.004899456169
 10
1815.567125741472
 20
-3369.004899456169
 10
1421.567125741473
 20
-3369.004899456169
 10
1421.567125741473
 20
-3911.004899456169
 10
1815.567125741472
 20
-3911.004899456169
  0
CIRCLE
  5
24E
330
1F
100
AcDbEntity
  8
Ech.1_5
 62
   154
420
    21156
370
    50
100
AcDbCircle
 10
1765.568143720011
 20
-3451.508837096719
 30
0.0
 40
29.99694606438788
  0
LWPOLYLINE
  5
24F
330
1F
100
AcDbEntity
  8
Ech.1_5
 62
   154
420
    21156
370
    20
100
AcDbPolyline
 90
      194
 70
     0
 43
0.0
 10
1765.236432626139
 20
-3442.779312142275
 10
1765.607133047683
 20
-3443.849390730913
 10
1765.970283083679
 20
-3444.920888518673
 10
1766.146667211612
 20
-3445.457613111947
 10
1766.318332348577
 20
-3445.995224704673
 10
1766.484334696381
 20
-3446.533900696738
 10
1766.643730456831
 20
-3447.073818488034
 10
1766.795575831732
 20
-3447.61515547845
 10
1766.938927022891
 20
-3448.158089067876
 10
1767.072840232114
 20
-3448.702796656203
 10
1767.196371661209
 20
-3449.24945564332
 10
1767.308577511981
 20
-3449.798243429118
 10
1767.408513986237
 20
-3450.349337413486
 10
1767.495237285783
 20
-3450.902914996313
 10
1767.567803612426
 20
-3451.459153577493
 10
1767.625269167973
 20
-3452.018230556913
 10
1767.648044219649
 20
-3452.298888883428
 10
1767.666690154229
 20
-3452.580323334463
 10
1767.681088996938
 20
-3452.862556085004
 10
1767.691122773002
 20
-3453.145609310036
 10
1767.696673507646
 20
-3453.429505184544
 10
1767.697623226096
 20
-3453.714265883517
 10
1767.693881378896
 20
-3453.999907683229
 10
1767.685703291969
 20
-3454.286372468154
 10
1767.658011116143
 20
-3454.861333898953
 10
1767.618515140307
 20
-3455.438271038088
 10
1767.571188407598
 20
-3456.016303758038
 10
1767.468934844128
 20
-3457.172135430298
 10
1767.421954099644
 20
-3457.748174127568
 10
1767.383034770849
 20
-3458.32178789557
 10
1767.35614990088
 20
-3458.892096606781
 10
1767.348461963937
 20
-3459.175736526242
 10
1767.345272532879
 20
-3459.458220133684
 10
1767.347078238097
 20
-3459.73943741317
 10
1767.354375709985
 20
-3460.019278348757
 10
1767.367661578934
 20
-3460.297632924506
 10
1767.387432475337
 20
-3460.574391124479
 10
1767.414185029587
 20
-3460.849442932732
 10
1767.448415872076
 20
-3461.122678333328
 10
1767.490621633196
 20
-3461.393987310325
 10
1767.541298943341
 20
-3461.663259847785
 10
1767.600944432902
 20
-3461.930385929766
 10
1767.670054732272
 20
-3462.195255540328
 10
1767.749126471843
 20
-3462.457758663532
 10
1767.838656282008
 20
-3462.717785283437
 10
1767.93914079316
 20
-3462.975225384104
 10
1768.051073858418
 20
-3463.229968672779
 10
1768.174668611901
 20
-3463.481876877176
 10
1768.309620472309
 20
-3463.730760123817
 10
1768.455569040309
 20
-3463.976422975788
 10
1768.612153916572
 20
-3464.218669996175
 10
1768.779014701766
 20
-3464.457305748062
 10
1768.95579099656
 20
-3464.692134794537
 10
1769.142122401622
 20
-3464.922961698684
 10
1769.337648517623
 20
-3465.149591023588
 10
1769.54200894523
 20
-3465.371827332336
 10
1769.754843285112
 20
-3465.589475188012
 10
1769.97579113794
 20
-3465.802339153704
 10
1770.204492104379
 20
-3466.010223792495
 10
1770.440585785101
 20
-3466.212933667472
 10
1770.683711780774
 20
-3466.410273341718
 10
1770.933509692066
 20
-3466.602047378322
 10
1771.189619119647
 20
-3466.788060340369
 10
1771.451679664186
 20
-3466.968116790943
 10
1771.71933092635
 20
-3467.14202129313
 10
1771.99221250681
 20
-3467.309578410016
 10
1772.269964006234
 20
-3467.470592704686
 10
1772.552225025291
 20
-3467.624868740226
 10
1772.83863516465
 20
-3467.772211079722
 10
1773.128834024978
 20
-3467.912424286259
 10
1773.422461206947
 20
-3468.045312922921
 10
1773.719156311224
 20
-3468.170681552797
 10
1774.018558938477
 20
-3468.288334738969
 10
1774.320308689377
 20
-3468.398077044526
 10
1774.624045164592
 20
-3468.499713032551
 10
1774.929407964791
 20
-3468.593047266129
 10
1775.236036690642
 20
-3468.677884308349
 10
1775.543570942815
 20
-3468.754028722293
 10
1775.851650321977
 20
-3468.821285071048
 10
1776.1599144288
 20
-3468.8794579177
 10
1776.468002863949
 20
-3468.928351825333
 10
1776.775555228097
 20
-3468.967771357035
 10
1777.082211121909
 20
-3468.997521075889
 10
1777.387610146056
 20
-3469.017405544982
 10
1777.691391901207
 20
-3469.0272293274
 10
1777.993195988031
 20
-3469.026796986227
 10
1778.292662007195
 20
-3469.015913084549
 10
1778.589429559369
 20
-3468.994382185453
 10
1778.883138245222
 20
-3468.962008852023
 10
1779.173427665423
 20
-3468.918597647344
 10
1779.459937420641
 20
-3468.863953134503
 10
1779.742307111544
 20
-3468.797879876585
 10
1780.020176338801
 20
-3468.720182436677
 10
1780.293184703082
 20
-3468.630665377861
 10
1780.560971805054
 20
-3468.529133263226
 10
1780.823177245388
 20
-3468.415390655856
 10
1781.079451690996
 20
-3468.289264013817
 10
1781.32960862987
 20
-3468.150901942764
 10
1781.573585491843
 20
-3468.000698271927
 10
1781.811322815243
 20
-3467.839052980806
 10
1782.042761138396
 20
-3467.6663660489
 10
1782.267840999631
 20
-3467.483037455709
 10
1782.486502937273
 20
-3467.289467180732
 10
1782.698687489651
 20
-3467.086055203469
 10
1782.904335195091
 20
-3466.873201503417
 10
1783.103386591921
 20
-3466.651306060081
 10
1783.295782218468
 20
-3466.420768852956
 10
1783.481462613059
 20
-3466.181989861543
 10
1783.660368314022
 20
-3465.93536906534
 10
1783.832439859682
 20
-3465.681306443849
 10
1783.997617788369
 20
-3465.420201976568
 10
1784.155842638408
 20
-3465.152455642997
 10
1784.307054948127
 20
-3464.878467422636
 10
1784.451195255854
 20
-3464.598637294983
 10
1784.588204099914
 20
-3464.313365239538
 10
1784.718022018637
 20
-3464.023051235802
 10
1784.840589550348
 20
-3463.728095263273
 10
1784.955847233375
 20
-3463.42889730145
 10
1785.063735606045
 20
-3463.125857329834
 10
1785.164195206686
 20
-3462.819375327924
 10
1785.257166573624
 20
-3462.50985127522
 10
1785.342590245186
 20
-3462.19768515122
 10
1785.420406759701
 20
-3461.883276935424
 10
1785.490556655494
 20
-3461.567026607333
 10
1785.552980470894
 20
-3461.249334146445
 10
1785.607618744227
 20
-3460.930599532261
 10
1785.654412013821
 20
-3460.611222744279
 10
1785.693300818002
 20
-3460.291603761998
 10
1785.724225695099
 20
-3459.972142564919
 10
1785.747127183437
 20
-3459.653239132543
 10
1785.761945821345
 20
-3459.335293444364
 10
1785.768622147149
 20
-3459.018705479887
 10
1785.767096699177
 20
-3458.703875218609
 10
1785.757310015756
 20
-3458.391202640031
 10
1785.739202635213
 20
-3458.081087723651
 10
1785.712715095875
 20
-3457.773930448969
 10
1785.67778793607
 20
-3457.470130795485
 10
1785.634361694124
 20
-3457.170088742698
 10
1785.582376908365
 20
-3456.874204270107
 10
1785.52177411712
 20
-3456.582877357213
 10
1785.452493858716
 20
-3456.296507983513
 10
1785.374476671481
 20
-3456.01549612851
 10
1785.287663093741
 20
-3455.740241771701
 10
1785.191993663823
 20
-3455.471144892586
 10
1785.087408920056
 20
-3455.208605470665
 10
1784.973849400766
 20
-3454.953023485437
 10
1784.85125564428
 20
-3454.704798916403
 10
1784.719578171084
 20
-3454.464312917582
 10
1784.578943319115
 20
-3454.231615066672
 10
1784.42962772156
 20
-3454.006471497683
 10
1784.271912849928
 20
-3453.788639219971
 10
1784.106080175729
 20
-3453.577875242891
 10
1783.932411170473
 20
-3453.373936575797
 10
1783.75118730567
 20
-3453.176580228047
 10
1783.562690052829
 20
-3452.985563208997
 10
1783.367200883459
 20
-3452.800642528001
 10
1783.165001269071
 20
-3452.621575194416
 10
1782.956372681174
 20
-3452.448118217597
 10
1782.741596591277
 20
-3452.280028606899
 10
1782.52095447089
 20
-3452.117063371679
 10
1782.294727791524
 20
-3451.958979521293
 10
1782.063198024687
 20
-3451.805534065097
 10
1781.82664664189
 20
-3451.656484012445
 10
1781.585355114641
 20
-3451.511586372694
 10
1781.339604914451
 20
-3451.370598155199
 10
1781.089677512828
 20
-3451.233276369316
 10
1780.835854381284
 20
-3451.0993780244
 10
1780.578416991327
 20
-3450.968660129809
 10
1780.317646814467
 20
-3450.840879694897
 10
1779.787233986078
 20
-3450.593159241532
 10
1779.246867668193
 20
-3450.354272739154
 10
1778.698799632889
 20
-3450.122276262606
 10
1778.145281652243
 20
-3449.895225886736
 10
1777.030902943237
 20
-3449.448187736412
 10
1776.474545759031
 20
-3449.224312111649
 10
1775.921745717792
 20
-3448.997606886947
 10
1775.374754591596
 20
-3448.76612813715
 10
1774.835617689179
 20
-3448.528109274316
 10
1774.304724173385
 20
-3448.283206221075
 10
1773.781666697998
 20
-3448.031759044241
 10
1773.266032839839
 20
-3447.774112171371
 10
1772.757410175726
 20
-3447.51061003002
 10
1772.255386282482
 20
-3447.241597047749
 10
1771.759548736928
 20
-3446.967417652114
 10
1771.269485115884
 20
-3446.688416270673
 10
1770.78478299617
 20
-3446.404937330984
 10
1770.305029954608
 20
-3446.117325260603
 10
1769.829813568018
 20
-3445.825924487088
 10
1769.358721413221
 20
-3445.531079437998
 10
1768.891341067037
 20
-3445.23313454089
 10
1767.966066107793
 20
-3444.629322912849
 10
1767.050689304851
 20
-3444.017245023425
 10
1766.141911272778
 20
-3443.39965629308
 10
1765.236432626139
 20
-3442.779312142275
  0
LWPOLYLINE
  5
250
330
1F
100
AcDbEntity
  8
Ech.1_5
 62
   154
420
    21156
370
    20
100
AcDbPolyline
 90
       95
 70
     0
 43
0.0
 10
1782.791995795416
 20
-3454.464057304527
 10
1782.773219732996
 20
-3454.998851747719
 10
1782.754244972585
 20
-3455.543042061157
 10
1782.74462098751
 20
-3455.821596878671
 10
1782.73487281619
 20
-3456.106024115089
 10
1782.724975621376
 20
-3456.397498254192
 10
1782.71490456582
 20
-3456.697193779761
 10
1782.704634812272
 20
-3457.006285175576
 10
1782.694141523483
 20
-3457.325946925419
 10
1782.683399862206
 20
-3457.65735351307
 10
1782.672384991189
 20
-3458.001679422311
 10
1782.661072073185
 20
-3458.360099136921
 10
1782.649436270945
 20
-3458.733787140683
 10
1782.643489526596
 20
-3458.926723777176
 10
1782.637452747219
 20
-3459.123917917375
 10
1782.625202627717
 20
-3459.530922506767
 10
1782.613381804213
 20
-3459.950918704034
 10
1782.602907326767
 20
-3460.37847264135
 10
1782.594696536816
 20
-3460.808148406538
 10
1782.589666775799
 20
-3461.234510087421
 10
1782.588735385156
 20
-3461.652121771823
 10
1782.590093247924
 20
-3461.855947642787
 10
1782.592819706325
 20
-3462.055547547566
 10
1782.597029428038
 20
-3462.250241997133
 10
1782.602837080744
 20
-3462.439351502471
 10
1782.610357332122
 20
-3462.622196574555
 10
1782.619704849852
 20
-3462.798097724364
 10
1782.630994301615
 20
-3462.966375462875
 10
1782.644340355089
 20
-3463.126350301066
 10
1782.659857677956
 20
-3463.277342749916
 10
1782.677660937893
 20
-3463.418673320401
 10
1782.697864802582
 20
-3463.549662523501
 10
1782.720583939702
 20
-3463.669630870191
 10
1782.745933016934
 20
-3463.777898871453
 10
1782.774026701957
 20
-3463.873787038261
 10
1782.80497966245
 20
-3463.956615881594
 10
1782.838906566094
 20
-3464.025705912431
 10
1782.875922080569
 20
-3464.08037764175
 10
1782.916140873554
 20
-3464.119951580527
 10
1782.937487333138
 20
-3464.133864538143
 10
1782.959677612729
 20
-3464.14374823974
 10
1782.982726045788
 20
-3464.149517749192
 10
1783.006646965774
 20
-3464.151088130368
 10
1783.031454014249
 20
-3464.148376672285
 10
1783.057136652329
 20
-3464.141378428081
 10
1783.083654417158
 20
-3464.130184686151
 10
1783.110964988902
 20
-3464.114892706933
 10
1783.167795273786
 20
-3464.072403078381
 10
1783.227288948287
 20
-3464.014687625922
 10
1783.289107453715
 20
-3463.942524433054
 10
1783.352912231377
 20
-3463.856691583274
 10
1783.418364722581
 20
-3463.757967160078
 10
1783.485126368634
 20
-3463.647129246967
 10
1783.552858610846
 20
-3463.524955927434
 10
1783.621222890524
 20
-3463.392225284981
 10
1783.689880648976
 20
-3463.249715403103
 10
1783.758493327511
 20
-3463.098204365298
 10
1783.826722367435
 20
-3462.938470255062
 10
1783.894229210057
 20
-3462.771291155895
 10
1783.960675296686
 20
-3462.597445151293
 10
1784.025722068629
 20
-3462.417710324753
 10
1784.089030967194
 20
-3462.232864759775
 10
1784.150263433689
 20
-3462.043686539853
 10
1784.265144835702
 20
-3461.655444469174
 10
1784.367657805131
 20
-3461.259208780694
 10
1784.413429730897
 20
-3461.060038538523
 10
1784.455093872442
 20
-3460.861204142395
 10
1784.492311671073
 20
-3460.663483675807
 10
1784.524744568098
 20
-3460.467655222257
 10
1784.552054630816
 20
-3460.274495731918
 10
1784.574038240164
 20
-3460.084538987388
 10
1784.590792239921
 20
-3459.897774799519
 10
1784.602454251392
 20
-3459.714119153662
 10
1784.609161895883
 20
-3459.53348803517
 10
1784.6110527947
 20
-3459.355797429394
 10
1784.608264569145
 20
-3459.180963321682
 10
1784.600934840526
 20
-3459.008901697387
 10
1784.589201230147
 20
-3458.839528541862
 10
1784.573201359311
 20
-3458.672759840455
 10
1784.553072849326
 20
-3458.508511578517
 10
1784.528953321496
 20
-3458.3466997414
 10
1784.500980397125
 20
-3458.187240314456
 10
1784.46929169752
 20
-3458.030049283036
 10
1784.434024843983
 20
-3457.875042632488
 10
1784.395317457823
 20
-3457.722136348165
 10
1784.308131572845
 20
-3457.4222888196
 10
1784.208835013026
 20
-3457.129834580145
 10
1784.098528748807
 20
-3456.844101512612
 10
1783.978313750627
 20
-3456.564417499807
 10
1783.849290988927
 20
-3456.290110424537
 10
1783.712561434146
 20
-3456.020508169611
 10
1783.569226056725
 20
-3455.754938617837
 10
1783.420385827104
 20
-3455.492729652023
 10
1783.11059469302
 20
-3454.975705009507
 10
1782.791995795416
 20
-3454.464057304527
  0
LWPOLYLINE
  5
251
330
1F
100
AcDbEntity
  8
Ech.1_5
 62
   154
420
    21156
370
    20
100
AcDbPolyline
 90
      171
 70
     0
 43
0.0
 10
1752.853070019979
 20
-3448.805688644121
 10
1753.186442888316
 20
-3449.964574746874
 10
1753.346268567499
 20
-3450.54528836804
 10
1753.4978613407
 20
-3451.127526672952
 10
1753.638476905923
 20
-3451.711797889527
 10
1753.765370961174
 20
-3452.29861024568
 10
1753.822814828187
 20
-3452.593128172323
 10
1753.87579920446
 20
-3452.888471969328
 10
1753.923981052242
 20
-3453.184705165185
 10
1753.967017333785
 20
-3453.481891288383
 10
1754.00456501134
 20
-3453.780093867414
 10
1754.036281047156
 20
-3454.079376430764
 10
1754.061822403486
 20
-3454.379802506925
 10
1754.080846042579
 20
-3454.681435624386
 10
1754.093008926686
 20
-3454.984339311636
 10
1754.097968018058
 20
-3455.288577097164
 10
1754.095380278946
 20
-3455.59421250946
 10
1754.0849026716
 20
-3455.901309077014
 10
1754.066495414419
 20
-3456.20986444119
 10
1754.041805059978
 20
-3456.519509860977
 10
1753.982492863938
 20
-3457.140089328128
 10
1753.92480447441
 20
-3457.759083795602
 10
1753.902143878108
 20
-3458.06674796579
 10
1753.886578838659
 20
-3458.372529459655
 10
1753.88033922447
 20
-3458.675932801732
 10
1753.88565490395
 20
-3458.976462516549
 10
1753.904755745507
 20
-3459.273623128641
 10
1753.920172435941
 20
-3459.420785185082
 10
1753.939871617549
 20
-3459.566919162541
 10
1753.964132023879
 20
-3459.711963126585
 10
1753.993232388484
 20
-3459.855855142781
 10
1754.027451444915
 20
-3459.998533276694
 10
1754.067067926722
 20
-3460.139935593893
 10
1754.112360567457
 20
-3460.280000159943
 10
1754.163608100669
 20
-3460.418665040408
 10
1754.221089259912
 20
-3460.55586830086
 10
1754.285063325846
 20
-3460.691545631189
 10
1754.355518057449
 20
-3460.825599561843
 10
1754.432241764569
 20
-3460.957908265653
 10
1754.515018150057
 20
-3461.088349352821
 10
1754.603630916758
 20
-3461.216800433547
 10
1754.697863767522
 20
-3461.343139118035
 10
1754.797500405197
 20
-3461.467243016484
 10
1754.90232453263
 20
-3461.588989739098
 10
1755.01211985267
 20
-3461.708256896077
 10
1755.126670068165
 20
-3461.824922097624
 10
1755.245758881963
 20
-3461.938862953941
 10
1755.369169996912
 20
-3462.049957075229
 10
1755.496687115859
 20
-3462.158082071688
 10
1755.628093941655
 20
-3462.263115553523
 10
1755.763174177145
 20
-3462.364935130932
 10
1755.901711525179
 20
-3462.46341841412
 10
1756.043489688604
 20
-3462.558443013288
 10
1756.18829237027
 20
-3462.649886538636
 10
1756.335903273022
 20
-3462.737626600367
 10
1756.486106099711
 20
-3462.821540808683
 10
1756.638684553183
 20
-3462.901506773784
 10
1756.793422336288
 20
-3462.977402105874
 10
1756.950103151872
 20
-3463.049104415154
 10
1757.108510702785
 20
-3463.116491311823
 10
1757.268428691874
 20
-3463.179440406087
 10
1757.429640821987
 20
-3463.237829308145
 10
1757.591930795973
 20
-3463.2915356282
 10
1757.755082316678
 20
-3463.340436976452
 10
1757.918879086953
 20
-3463.384410963104
 10
1758.083104809645
 20
-3463.423335198357
 10
1758.247543187602
 20
-3463.457087292415
 10
1758.41197792367
 20
-3463.485544855476
 10
1758.576192720701
 20
-3463.508585497744
 10
1758.73997128154
 20
-3463.52608682942
 10
1758.903097309037
 20
-3463.537926460707
 10
1759.065354506038
 20
-3463.543982001804
 10
1759.226526575394
 20
-3463.544131062915
 10
1759.38639721995
 20
-3463.538251254241
 10
1759.544750142557
 20
-3463.526220185984
 10
1759.70136904606
 20
-3463.507915468345
 10
1759.85603763331
 20
-3463.483214711527
 10
1760.008539607154
 20
-3463.451995525729
 10
1760.158658670439
 20
-3463.414135521156
 10
1760.306178526015
 20
-3463.369512308008
 10
1760.450882876728
 20
-3463.318003496486
 10
1760.592555425428
 20
-3463.259486696793
 10
1760.730980298474
 20
-3463.193840424212
 10
1760.865996045624
 20
-3463.121059501429
 10
1760.997548669128
 20
-3463.041368386201
 10
1761.125596765233
 20
-3462.955018450721
 10
1761.250098930187
 20
-3462.86226106718
 10
1761.371013760235
 20
-3462.763347607772
 10
1761.488299851626
 20
-3462.658529444689
 10
1761.601915800605
 20
-3462.548057950121
 10
1761.711820203421
 20
-3462.432184496263
 10
1761.817971656319
 20
-3462.311160455306
 10
1761.920328755546
 20
-3462.185237199442
 10
1762.01885009735
 20
-3462.054666100865
 10
1762.113494277977
 20
-3461.919698531766
 10
1762.204219893675
 20
-3461.780585864337
 10
1762.29098554069
 20
-3461.637579470771
 10
1762.37374981527
 20
-3461.49093072326
 10
1762.45247131366
 20
-3461.340890993996
 10
1762.527108632108
 20
-3461.187711655172
 10
1762.597620366862
 20
-3461.03164407898
 10
1762.663965114166
 20
-3460.872939637612
 10
1762.72610147027
 20
-3460.71184970326
 10
1762.783988031419
 20
-3460.548625648118
 10
1762.837583393862
 20
-3460.383518844376
 10
1762.886846153842
 20
-3460.216780664228
 10
1762.93173490761
 20
-3460.048662479865
 10
1762.972208251411
 20
-3459.879415663481
 10
1763.008224781493
 20
-3459.709291587266
 10
1763.039743094101
 20
-3459.538541623415
 10
1763.066721785483
 20
-3459.367417144117
 10
1763.089119451886
 20
-3459.196169521568
 10
1763.106894689557
 20
-3459.025050127957
 10
1763.120006094743
 20
-3458.854310335479
 10
1763.128412263691
 20
-3458.684201516324
 10
1763.132071792647
 20
-3458.514975042686
 10
1763.130943277858
 20
-3458.346882286755
 10
1763.124985315572
 20
-3458.180174620727
 10
1763.114156502035
 20
-3458.015103416792
 10
1763.098415433494
 20
-3457.851920047141
 10
1763.077720706197
 20
-3457.69087588397
 10
1763.05203091639
 20
-3457.532222299466
 10
1763.02130466032
 20
-3457.376210665827
 10
1762.985500534232
 20
-3457.223092355242
 10
1762.944577134376
 20
-3457.073118739901
 10
1762.898493056999
 20
-3456.926541192004
 10
1762.847206898345
 20
-3456.783611083735
 10
1762.790677254663
 20
-3456.644579787291
 10
1762.728862722199
 20
-3456.509698674863
 10
1762.661721897201
 20
-3456.379219118645
 10
1762.589221089207
 20
-3456.253378375728
 10
1762.511450619173
 20
-3456.132186765974
 10
1762.428600869993
 20
-3456.015471498848
 10
1762.340865078707
 20
-3455.903054560808
 10
1762.248436482357
 20
-3455.794757938308
 10
1762.151508317985
 20
-3455.690403617808
 10
1762.050273822632
 20
-3455.589813585762
 10
1761.944926233341
 20
-3455.49280982863
 10
1761.835658787152
 20
-3455.399214332865
 10
1761.722664721108
 20
-3455.308849084927
 10
1761.606137272251
 20
-3455.221536071271
 10
1761.486269677621
 20
-3455.137097278354
 10
1761.363255174261
 20
-3455.055354692634
 10
1761.108558389516
 20
-3454.899246088607
 10
1760.843592814351
 20
-3454.751786150846
 10
1760.569904345098
 20
-3454.611550771006
 10
1760.28903887809
 20
-3454.477115840739
 10
1760.002542309662
 20
-3454.3470572517
 10
1759.418839453878
 20
-3454.094372663926
 10
1758.831162948412
 20
-3453.842104140914
 10
1758.539699317884
 20
-3453.71256563283
 10
1758.251879963935
 20
-3453.5788588159
 10
1757.9692507829
 20
-3453.43955958178
 10
1757.693286452706
 20
-3453.293310795769
 10
1757.424442378243
 20
-3453.139713845539
 10
1757.162412383307
 20
-3452.979086308121
 10
1756.906871987921
 20
-3452.811762973381
 10
1756.657496712107
 20
-3452.638078631187
 10
1756.413962075888
 20
-3452.458368071402
 10
1756.175943599286
 20
-3452.272966083895
 10
1755.943116802324
 20
-3452.08220745853
 10
1755.715157205025
 20
-3451.886426985173
 10
1755.49174032741
 20
-3451.685959453693
 10
1755.272541689502
 20
-3451.481139653952
 10
1755.057236811324
 20
-3451.272302375819
 10
1754.845501212899
 20
-3451.059782409159
 10
1754.637010414249
 20
-3450.843914543839
 10
1754.431439935396
 20
-3450.625033569724
 10
1754.027762017171
 20
-3450.179571454572
 10
1753.631871618408
 20
-3449.726074382637
 10
1752.853070019979
 20
-3448.805688644121
  0
LWPOLYLINE
  5
252
330
1F
100
AcDbEntity
  8
Ech.1_5
 62
   154
420
    21156
370
    20
100
AcDbPolyline
 90
       70
 70
     0
 43
0.0
 10
1761.630851040996
 20
-3456.259069768859
 10
1761.587683646939
 20
-3456.530377197585
 10
1761.544528936461
 20
-3456.806216856003
 10
1761.501399593143
 20
-3457.091120973807
 10
1761.458308300565
 20
-3457.389621780689
 10
1761.436780886921
 20
-3457.545387264314
 10
1761.415267742306
 20
-3457.706251506344
 10
1761.393770452165
 20
-3457.872781035489
 10
1761.372290601946
 20
-3458.045542380463
 10
1761.350829777097
 20
-3458.225102069975
 10
1761.329389563065
 20
-3458.412026632738
 10
1761.307971545298
 20
-3458.606882597465
 10
1761.286626892457
 20
-3458.809996596623
 10
1761.265826620763
 20
-3459.019663933044
 10
1761.246253058091
 20
-3459.233157529862
 10
1761.213521796436
 20
-3459.660684110775
 10
1761.201731965768
 20
-3459.86924739792
 10
1761.193904580748
 20
-3460.070697551557
 10
1761.190723575533
 20
-3460.26229972321
 10
1761.19287288428
 20
-3460.441319064403
 10
1761.196160135813
 20
-3460.525255533427
 10
1761.201036441145
 20
-3460.60502072666
 10
1761.207587292046
 20
-3460.680272788038
 10
1761.215898180286
 20
-3460.750669861506
 10
1761.226054597633
 20
-3460.815870091
 10
1761.238142035859
 20
-3460.875531620464
 10
1761.252245986731
 20
-3460.929312593837
 10
1761.26845194202
 20
-3460.97687115506
 10
1761.286845393495
 20
-3461.017865448073
 10
1761.307511832926
 20
-3461.051953616817
 10
1761.330536752084
 20
-3461.078793805233
 10
1761.356005642736
 20
-3461.098044157261
 10
1761.384003996652
 20
-3461.109362816842
 10
1761.414609861425
 20
-3461.112425132894
 10
1761.447751816154
 20
-3461.107251905768
 10
1761.483220139526
 20
-3461.094183575597
 10
1761.520799903887
 20
-3461.07357261541
 10
1761.560276181581
 20
-3461.04577149823
 10
1761.601434044953
 20
-3461.011132697086
 10
1761.644058566349
 20
-3460.970008685002
 10
1761.687934818114
 20
-3460.922751935005
 10
1761.732847872594
 20
-3460.869714920118
 10
1761.778582802133
 20
-3460.81125011337
 10
1761.824924679077
 20
-3460.747709987786
 10
1761.87165857577
 20
-3460.679447016392
 10
1761.918569564559
 20
-3460.606813672214
 10
1762.012063107803
 20
-3460.449845757607
 10
1762.10368588757
 20
-3460.279626028175
 10
1762.191718482622
 20
-3460.098974268124
 10
1762.27444147172
 20
-3459.91071026166
 10
1762.350135433626
 20
-3459.717653792991
 10
1762.417080947103
 20
-3459.522624646327
 10
1762.473558590911
 20
-3459.32844260587
 10
1762.517854603758
 20
-3459.137920156945
 10
1762.549003990792
 20
-3458.952904199271
 10
1762.567531682949
 20
-3458.773320271252
 10
1762.574138885501
 20
-3458.598866593461
 10
1762.569526803718
 20
-3458.429241386472
 10
1762.554396642869
 20
-3458.264142870861
 10
1762.529449608228
 20
-3458.103269267202
 10
1762.495386905065
 20
-3457.94631879607
 10
1762.452909738651
 20
-3457.792989678042
 10
1762.402719314256
 20
-3457.642980133689
 10
1762.345516837152
 20
-3457.495988383588
 10
1762.282003512609
 20
-3457.351712648314
 10
1762.212880545899
 20
-3457.209851148442
 10
1762.138849142292
 20
-3457.070102104546
 10
1761.978865845473
 20
-3456.795734266982
 10
1761.807663264319
 20
-3456.526194900221
 10
1761.630851040996
 20
-3456.259069768859
  0
LWPOLYLINE
  5
253
330
1F
100
AcDbEntity
  8
Ech.1_5
 62
   154
420
    21156
370
    20
100
AcDbPolyline
 90
      170
 70
     0
 43
0.0
 10
1771.604449797748
 20
-3433.735002483425
 10
1771.886078154837
 20
-3434.262743217121
 10
1772.162885988405
 20
-3434.79150102767
 10
1772.430052774927
 20
-3435.322292991924
 10
1772.558514361946
 20
-3435.588769618209
 10
1772.682757990882
 20
-3435.856136186738
 10
1772.802181096297
 20
-3436.124519832121
 10
1772.916181112749
 20
-3436.394047688964
 10
1773.024155474798
 20
-3436.664846891873
 10
1773.125501617003
 20
-3436.937044575454
 10
1773.219616973925
 20
-3437.210767874315
 10
1773.305898980124
 20
-3437.486143923063
 10
1773.383745070158
 20
-3437.763299856303
 10
1773.452552678588
 20
-3438.042362808642
 10
1773.511719239973
 20
-3438.323459914687
 10
1773.560642188873
 20
-3438.606718309045
 10
1773.598718959848
 20
-3438.892265126321
 10
1773.625346987457
 20
-3439.180227501125
 10
1773.639923708236
 20
-3439.470732567615
 10
1773.642368488442
 20
-3439.763790034292
 10
1773.634591603908
 20
-3440.058961687513
 10
1773.618977967825
 20
-3440.35570252798
 10
1773.573780093774
 20
-3440.951711773465
 10
1773.525854171815
 20
-3441.547457776368
 10
1773.506830475848
 20
-3441.84386956361
 10
1773.494279507477
 20
-3442.138580542316
 10
1773.490586179893
 20
-3442.431045713188
 10
1773.498135406287
 20
-3442.720720076931
 10
1773.51931209985
 20
-3443.007058634244
 10
1773.535756032191
 20
-3443.148806673211
 10
1773.556501173772
 20
-3443.289516385835
 10
1773.58184563874
 20
-3443.429119647202
 10
1773.612087541244
 20
-3443.567548332403
 10
1773.647524995434
 20
-3443.704734316522
 10
1773.688456115458
 20
-3443.840609474652
 10
1773.735179015465
 20
-3443.975105681875
 10
1773.787991809604
 20
-3444.108154813284
 10
1773.847155117882
 20
-3444.239685862131
 10
1773.912619627223
 20
-3444.369603999928
 10
1773.98418313834
 20
-3444.497802647218
 10
1774.061642375184
 20
-3444.624175141777
 10
1774.144794061715
 20
-3444.748614821388
 10
1774.233434921887
 20
-3444.87101502383
 10
1774.327361679657
 20
-3444.99126908688
 10
1774.42637105898
 20
-3445.109270348319
 10
1774.530259783812
 20
-3445.224912145928
 10
1774.63882457811
 20
-3445.338087817484
 10
1774.751862165828
 20
-3445.448690700768
 10
1774.869169270925
 20
-3445.55661413356
 10
1774.990542617354
 20
-3445.661751453637
 10
1775.115778929072
 20
-3445.763995998782
 10
1775.244674930036
 20
-3445.863241106772
 10
1775.377027344201
 20
-3445.959380115386
 10
1775.512632895523
 20
-3446.052306362406
 10
1775.651288307958
 20
-3446.141913185611
 10
1775.792790305461
 20
-3446.228093922778
 10
1775.936935611991
 20
-3446.31074191169
 10
1776.0835209515
 20
-3446.389750490124
 10
1776.232343047947
 20
-3446.465012995861
 10
1776.383198625287
 20
-3446.53642276668
 10
1776.535884407475
 20
-3446.603873140359
 10
1776.690197118469
 20
-3446.66725745468
 10
1776.845933482223
 20
-3446.726469047422
 10
1777.002890222694
 20
-3446.781401256363
 10
1777.160864063837
 20
-3446.831947419284
 10
1777.319651729609
 20
-3446.878000873963
 10
1777.479049943966
 20
-3446.919454958181
 10
1777.638855430863
 20
-3446.956203009718
 10
1777.798864914258
 20
-3446.988138366352
 10
1777.958875118104
 20
-3447.015154365863
 10
1778.118682766359
 20
-3447.03714434603
 10
1778.278084582979
 20
-3447.054001644634
 10
1778.436877291919
 20
-3447.065619599453
 10
1778.594857617135
 20
-3447.071891548268
 10
1778.751822282584
 20
-3447.072710828857
 10
1778.907568012221
 20
-3447.067970779001
 10
1779.061891530002
 20
-3447.057564736479
 10
1779.214589559884
 20
-3447.041386039068
 10
1779.365458825822
 20
-3447.019328024552
 10
1779.514296051772
 20
-3446.991284030707
 10
1779.66089796169
 20
-3446.957147395315
 10
1779.805061279532
 20
-3446.916811456153
 10
1779.946582729254
 20
-3446.870169551002
 10
1780.085259034813
 20
-3446.817115017642
 10
1780.220886920164
 20
-3446.757541193852
 10
1780.353275323082
 20
-3446.691364539275
 10
1780.48233880187
 20
-3446.618701462737
 10
1780.608046009188
 20
-3446.53977077857
 10
1780.730366036206
 20
-3446.454792131238
 10
1780.849267974091
 20
-3446.363985165209
 10
1780.964720914013
 20
-3446.267569524944
 10
1781.07669394714
 20
-3446.165764854913
 10
1781.185156164641
 20
-3446.058790799578
 10
1781.290076657685
 20
-3445.946867003407
 10
1781.391424517442
 20
-3445.830213110865
 10
1781.489168835079
 20
-3445.709048766418
 10
1781.583278701765
 20
-3445.58359361453
 10
1781.673723208671
 20
-3445.454067299668
 10
1781.760471446964
 20
-3445.320689466298
 10
1781.843492507812
 20
-3445.183679758883
 10
1781.922755482386
 20
-3445.043257821891
 10
1781.998229461853
 20
-3444.899643299786
 10
1782.069883537383
 20
-3444.753055837034
 10
1782.137686800145
 20
-3444.603715078103
 10
1782.201608341307
 20
-3444.451840667455
 10
1782.261617252038
 20
-3444.297652249556
 10
1782.317682623507
 20
-3444.141369468875
 10
1782.369773546883
 20
-3443.983211969874
 10
1782.417859113335
 20
-3443.823399397019
 10
1782.461908414031
 20
-3443.662151394777
 10
1782.50189054014
 20
-3443.499687607612
 10
1782.537774582832
 20
-3443.336227679991
 10
1782.569529633275
 20
-3443.171991256379
 10
1782.597124782638
 20
-3443.007197981241
 10
1782.620529122089
 20
-3442.842067499044
 10
1782.639711742798
 20
-3442.676819454252
 10
1782.654641735934
 20
-3442.511673491332
 10
1782.665288192664
 20
-3442.346849254747
 10
1782.671620204159
 20
-3442.182566388965
 10
1782.673606861587
 20
-3442.019044538452
 10
1782.671217256116
 20
-3441.856503347671
 10
1782.664420478916
 20
-3441.695162461089
 10
1782.653185621156
 20
-3441.535241523173
 10
1782.637481774003
 20
-3441.376960178386
 10
1782.617278028628
 20
-3441.220538071194
 10
1782.592543476199
 20
-3441.066194846064
 10
1782.563247207884
 20
-3440.914150147461
 10
1782.529358314854
 20
-3440.76462361985
 10
1782.490845888276
 20
-3440.617834907697
 10
1782.447679019318
 20
-3440.474003655467
 10
1782.399826799152
 20
-3440.333349507627
 10
1782.347258318944
 20
-3440.19609210864
 10
1782.289942669864
 20
-3440.062451102974
 10
1782.227848943081
 20
-3439.932646135094
 10
1782.160948226076
 20
-3439.806893022027
 10
1782.089287137133
 20
-3439.685262769176
 10
1782.013009227383
 20
-3439.56764053717
 10
1781.932264408373
 20
-3439.453899292123
 10
1781.847202591647
 20
-3439.343912000151
 10
1781.757973688751
 20
-3439.237551627368
 10
1781.66472761123
 20
-3439.134691139888
 10
1781.567614270628
 20
-3439.035203503827
 10
1781.466783578492
 20
-3438.938961685298
 10
1781.362385446366
 20
-3438.845838650415
 10
1781.254569785796
 20
-3438.755707365295
 10
1781.143486508326
 20
-3438.668440796049
 10
1781.029285525502
 20
-3438.583911908795
 10
1780.792130089972
 20
-3438.422559044715
 10
1780.544302771567
 20
-3438.270632501972
 10
1780.287002862648
 20
-3438.12711600948
 10
1780.021429655577
 20
-3437.990993296156
 10
1779.748782442714
 20
-3437.861248090916
 10
1779.470260516422
 20
-3437.736864122676
 10
1779.187063169061
 20
-3437.616825120353
 10
1778.900389692993
 20
-3437.500114812861
 10
1777.742920348873
 20
-3437.046235109536
 10
1777.456855614688
 20
-3436.930924209945
 10
1777.174364321003
 20
-3436.812966465865
 10
1776.895611020074
 20
-3436.692209775165
 10
1776.620426375151
 20
-3436.568780884969
 10
1776.348640450236
 20
-3436.442807042874
 10
1776.080083309328
 20
-3436.314415496474
 10
1775.551975635531
 20
-3436.050888281138
 10
1775.034743865757
 20
-3435.779217219723
 10
1774.527028512004
 20
-3435.500420292989
 10
1774.027470086268
 20
-3435.215515481695
 10
1773.534709100546
 20
-3434.9255207666
 10
1773.047386066836
 20
-3434.631454128466
 10
1772.564141497135
 20
-3434.334333548052
 10
1771.604449797748
 20
-3433.735002483425
  0
LWPOLYLINE
  5
254
330
1F
100
AcDbEntity
  8
Ech.1_5
 62
   154
420
    21156
370
    20
100
AcDbPolyline
 90
      167
 70
     0
 43
0.0
 10
1752.040344791472
 20
-3437.143587289351
 10
1752.36070885755
 20
-3437.636324405109
 10
1752.674788100108
 20
-3438.130538252296
 10
1752.827506905217
 20
-3438.378660428746
 10
1752.976297695626
 20
-3438.627705562341
 10
1753.120374868394
 20
-3438.877858244506
 10
1753.258952820582
 20
-3439.129303066672
 10
1753.39124594925
 20
-3439.382224620267
 10
1753.516468651458
 20
-3439.636807496719
 10
1753.633835324266
 20
-3439.893236287457
 10
1753.742560364733
 20
-3440.15169558391
 10
1753.84185816992
 20
-3440.412369977506
 10
1753.930943136887
 20
-3440.675444059675
 10
1754.009029662694
 20
-3440.941102421844
 10
1754.0753321444
 20
-3441.209529655443
 10
1754.129064979066
 20
-3441.480910351898
 10
1754.169442563751
 20
-3441.75542910264
 10
1754.195685074242
 20
-3442.033269124007
 10
1754.207955699956
 20
-3442.314389235325
 10
1754.208397547711
 20
-3442.59827712004
 10
1754.199403389456
 20
-3442.884361051956
 10
1754.183365997136
 20
-3443.172069304873
 10
1754.162678142697
 20
-3443.460830152593
 10
1754.116922135251
 20
-3444.039222727639
 10
1754.096639526136
 20
-3444.327711002567
 10
1754.08127754269
 20
-3444.6149649675
 10
1754.073228956858
 20
-3444.900412896239
 10
1754.074886540588
 20
-3445.183483062585
 10
1754.088643065824
 20
-3445.463603740337
 10
1754.100806172742
 20
-3445.602379356555
 10
1754.116891304516
 20
-3445.740203203298
 10
1754.13719755764
 20
-3445.877003814794
 10
1754.162024028608
 20
-3446.012709725266
 10
1754.191669813912
 20
-3446.147249468943
 10
1754.226434010047
 20
-3446.280551580046
 10
1754.266615713505
 20
-3446.412544592801
 10
1754.31251402078
 20
-3446.543157041433
 10
1754.364427190344
 20
-3446.672317419403
 10
1754.422509598564
 20
-3446.799947220837
 10
1754.486609789285
 20
-3446.925953062249
 10
1754.556537181083
 20
-3447.050239656851
 10
1754.632101192532
 20
-3447.172711717859
 10
1754.71311124221
 20
-3447.293273958486
 10
1754.799376748691
 20
-3447.411831091944
 10
1754.890707130551
 20
-3447.52828783145
 10
1754.986911806366
 20
-3447.642548890216
 10
1755.08780019471
 20
-3447.754518981455
 10
1755.193181714161
 20
-3447.864102818382
 10
1755.302865783292
 20
-3447.97120511421
 10
1755.416661820682
 20
-3448.075730582153
 10
1755.534379244903
 20
-3448.177583935425
 10
1755.655827474533
 20
-3448.27666988724
 10
1755.780815928147
 20
-3448.372893150811
 10
1755.909154024321
 20
-3448.466158439352
 10
1756.04065118163
 20
-3448.556370466077
 10
1756.175116818649
 20
-3448.6434339442
 10
1756.312360353955
 20
-3448.727253586934
 10
1756.452191206122
 20
-3448.807734107494
 10
1756.594418793728
 20
-3448.884780219092
 10
1756.738852535346
 20
-3448.958296634943
 10
1756.885301849553
 20
-3449.02818806826
 10
1757.033576154924
 20
-3449.094359232257
 10
1757.183484870036
 20
-3449.156714840149
 10
1757.334837413463
 20
-3449.215159605148
 10
1757.487443203782
 20
-3449.269598240468
 10
1757.641111659567
 20
-3449.319935459324
 10
1757.795652199395
 20
-3449.366075974929
 10
1757.95087424184
 20
-3449.407924500496
 10
1758.10658720548
 20
-3449.445385749241
 10
1758.262600508889
 20
-3449.478364434375
 10
1758.418723570643
 20
-3449.506765269113
 10
1758.574765809317
 20
-3449.53049296667
 10
1758.730536643487
 20
-3449.549452240257
 10
1758.885845491729
 20
-3449.56354780309
 10
1759.040501772619
 20
-3449.572684368382
 10
1759.194314904731
 20
-3449.576766649348
 10
1759.347094306642
 20
-3449.575699359198
 10
1759.498649396928
 20
-3449.56938721115
 10
1759.648789594163
 20
-3449.557734918415
 10
1759.797324316923
 20
-3449.540647194209
 10
1759.944062983784
 20
-3449.518028751744
 10
1760.088815013323
 20
-3449.489784304235
 10
1760.231389824113
 20
-3449.455818564894
 10
1760.371596834731
 20
-3449.416036246937
 10
1760.509245463753
 20
-3449.370342063576
 10
1760.644145129754
 20
-3449.318640728026
 10
1760.776105251309
 20
-3449.260836953499
 10
1760.904948046377
 20
-3449.196858139133
 10
1761.03059829447
 20
-3449.126813466555
 10
1761.153030056887
 20
-3449.050899465572
 10
1761.272217707917
 20
-3448.969313220748
 10
1761.388135621848
 20
-3448.882251816643
 10
1761.500758172969
 20
-3448.789912337817
 10
1761.610059735568
 20
-3448.692491868833
 10
1761.716014683935
 20
-3448.59018749425
 10
1761.818597392357
 20
-3448.483196298631
 10
1761.917782235123
 20
-3448.371715366536
 10
1762.013543586522
 20
-3448.255941782525
 10
1762.105855820843
 20
-3448.136072631161
 10
1762.194693312373
 20
-3448.012304997004
 10
1762.280030435402
 20
-3447.884835964615
 10
1762.361841564219
 20
-3447.753862618556
 10
1762.440101073111
 20
-3447.619582043385
 10
1762.514783336368
 20
-3447.482191323667
 10
1762.585862728278
 20
-3447.341887543961
 10
1762.65331362313
 20
-3447.198867788828
 10
1762.717110395212
 20
-3447.05332914283
 10
1762.777227418812
 20
-3446.905468690527
 10
1762.833639068221
 20
-3446.75548351648
 10
1762.886319717725
 20
-3446.603570705251
 10
1762.935243741614
 20
-3446.4499273414
 10
1762.980385514176
 20
-3446.294750509488
 10
1763.021719409701
 20
-3446.138237294077
 10
1763.092861066789
 20
-3445.821990051001
 10
1763.148463707189
 20
-3445.502762288658
 10
1763.188322325208
 20
-3445.182130683539
 10
1763.202283561547
 20
-3445.02178115134
 10
1763.212231915156
 20
-3444.86167191213
 10
1763.218141760325
 20
-3444.70200005047
 10
1763.219987471341
 20
-3444.542962650919
 10
1763.217743422494
 20
-3444.384756798041
 10
1763.211383988073
 20
-3444.227579576396
 10
1763.200883542365
 20
-3444.071628070545
 10
1763.186216459659
 20
-3443.917099365049
 10
1763.167357114244
 20
-3443.764190544468
 10
1763.144279880409
 20
-3443.613098693364
 10
1763.116959132442
 20
-3443.464020896299
 10
1763.085369244632
 20
-3443.317154237832
 10
1763.049484591267
 20
-3443.172695802526
 10
1763.009279546636
 20
-3443.03084267494
 10
1762.964728485028
 20
-3442.891791939636
 10
1762.915805780731
 20
-3442.755740681177
 10
1762.862485808034
 20
-3442.622885984119
 10
1762.804742941225
 20
-3442.493424933028
 10
1762.742551554593
 20
-3442.367554612463
 10
1762.675908689212
 20
-3442.245428851085
 10
1762.604913827117
 20
-3442.127005985543
 10
1762.529695376494
 20
-3442.012189151586
 10
1762.450381747257
 20
-3441.900881481672
 10
1762.367101349322
 20
-3441.79298610826
 10
1762.279982592601
 20
-3441.68840616381
 10
1762.189153887008
 20
-3441.587044780779
 10
1762.094743642458
 20
-3441.488805091627
 10
1761.996880268864
 20
-3441.393590228809
 10
1761.89569217614
 20
-3441.301303324788
 10
1761.791307774201
 20
-3441.211847512019
 10
1761.573463682329
 20
-3441.041041690075
 10
1761.344375272562
 20
-3440.880397822648
 10
1761.105069824209
 20
-3440.729140969403
 10
1760.856574616582
 20
-3440.586496190008
 10
1760.599916928992
 20
-3440.451688544134
 10
1760.336124040751
 20
-3440.323943091446
 10
1760.06622323117
 20
-3440.202484891613
 10
1759.79124177956
 20
-3440.086539004302
 10
1759.512206965233
 20
-3439.975330489182
 10
1758.94608636567
 20
-3439.764025814186
 10
1758.376079666974
 20
-3439.562371343967
 10
1757.810371012828
 20
-3439.364191047877
 10
1757.254076753386
 20
-3439.16542291448
 10
1756.706852899983
 20
-3438.965767656637
 10
1756.167792412016
 20
-3438.765313986794
 10
1755.63598824888
 20
-3438.564150617394
 10
1755.110533369971
 20
-3438.362366260882
 10
1754.590520734686
 20
-3438.160049629702
 10
1754.07504330242
 20
-3437.957289436299
 10
1753.05406588453
 20
-3437.550793212603
 10
1752.040344791472
 20
-3437.143587289351
  0
LWPOLYLINE
  5
255
330
1F
100
AcDbEntity
  8
Ech.1_5
 62
   154
420
    21156
370
    20
100
AcDbPolyline
 90
       70
 70
     0
 43
0.0
 10
1761.738703854027
 20
-3442.295530026217
 10
1761.695536459969
 20
-3442.566837454942
 10
1761.652381749491
 20
-3442.84267711336
 10
1761.609252406173
 20
-3443.127581231163
 10
1761.566161113594
 20
-3443.426082038045
 10
1761.544633699951
 20
-3443.58184752167
 10
1761.523120555335
 20
-3443.742711763699
 10
1761.501623265193
 20
-3443.909241292845
 10
1761.480143414975
 20
-3444.082002637818
 10
1761.458682590126
 20
-3444.26156232733
 10
1761.437242376094
 20
-3444.448486890095
 10
1761.415824358327
 20
-3444.64334285482
 10
1761.394479705485
 20
-3444.846456853977
 10
1761.373679433792
 20
-3445.0561241904
 10
1761.354105871119
 20
-3445.269617787216
 10
1761.321374609465
 20
-3445.697144368129
 10
1761.309584778797
 20
-3445.905707655274
 10
1761.301757393777
 20
-3446.107157808911
 10
1761.298576388562
 20
-3446.298759980564
 10
1761.300725697309
 20
-3446.477779321757
 10
1761.304012948842
 20
-3446.561715790782
 10
1761.308889254174
 20
-3446.641480984013
 10
1761.315440105075
 20
-3446.716733045393
 10
1761.323750993315
 20
-3446.78713011886
 10
1761.333907410663
 20
-3446.852330348354
 10
1761.345994848887
 20
-3446.911991877818
 10
1761.360098799759
 20
-3446.965772851191
 10
1761.376304755049
 20
-3447.013331412414
 10
1761.394698206524
 20
-3447.054325705427
 10
1761.415364645956
 20
-3447.088413874172
 10
1761.438389565113
 20
-3447.115254062588
 10
1761.463858455765
 20
-3447.134504414615
 10
1761.491856809682
 20
-3447.145823074196
 10
1761.522462674453
 20
-3447.148885390248
 10
1761.555604629183
 20
-3447.143712163122
 10
1761.591072952555
 20
-3447.130643832951
 10
1761.628652716916
 20
-3447.110032872763
 10
1761.668128994609
 20
-3447.082231755584
 10
1761.709286857982
 20
-3447.04759295444
 10
1761.751911379378
 20
-3447.006468942356
 10
1761.795787631143
 20
-3446.959212192358
 10
1761.840700685623
 20
-3446.906175177472
 10
1761.886435615162
 20
-3446.847710370724
 10
1761.932777492106
 20
-3446.78417024514
 10
1761.979511388799
 20
-3446.715907273746
 10
1762.026422377588
 20
-3446.643273929567
 10
1762.119915920832
 20
-3446.486306014962
 10
1762.211538700599
 20
-3446.316086285529
 10
1762.29957129565
 20
-3446.135434525478
 10
1762.382294284748
 20
-3445.947170519014
 10
1762.457988246655
 20
-3445.754114050347
 10
1762.524933760131
 20
-3445.55908490368
 10
1762.581411403939
 20
-3445.364902863224
 10
1762.625707416787
 20
-3445.174380414299
 10
1762.656856803821
 20
-3444.989364456626
 10
1762.675384495978
 20
-3444.809780528607
 10
1762.68199169853
 20
-3444.635326850815
 10
1762.677379616746
 20
-3444.465701643826
 10
1762.662249455898
 20
-3444.300603128216
 10
1762.637302421257
 20
-3444.139729524557
 10
1762.603239718094
 20
-3443.982779053426
 10
1762.56076255168
 20
-3443.829449935397
 10
1762.510572127285
 20
-3443.679440391044
 10
1762.453369650181
 20
-3443.532448640945
 10
1762.389856325638
 20
-3443.38817290567
 10
1762.320733358929
 20
-3443.246311405798
 10
1762.246701955322
 20
-3443.106562361902
 10
1762.086718658503
 20
-3442.832194524338
 10
1761.915516077348
 20
-3442.562655157576
 10
1761.738703854027
 20
-3442.295530026217
  0
LWPOLYLINE
  5
256
330
1F
100
AcDbEntity
  8
Ech.1_5
 62
   154
420
    21156
370
    20
100
AcDbPolyline
 90
       70
 70
     0
 43
0.0
 10
1780.171114266912
 20
-3439.33086959997
 10
1780.127946872854
 20
-3439.602177028695
 10
1780.084792162376
 20
-3439.878016687113
 10
1780.041662819058
 20
-3440.162920804918
 10
1779.99857152648
 20
-3440.461421611801
 10
1779.977044112836
 20
-3440.617187095425
 10
1779.95553096822
 20
-3440.778051337455
 10
1779.934033678079
 20
-3440.944580866601
 10
1779.91255382786
 20
-3441.117342211574
 10
1779.891093003011
 20
-3441.296901901087
 10
1779.869652788979
 20
-3441.483826463851
 10
1779.848234771212
 20
-3441.678682428578
 10
1779.826890118371
 20
-3441.881796427736
 10
1779.806089846677
 20
-3442.091463764158
 10
1779.786516284005
 20
-3442.304957360976
 10
1779.753785022351
 20
-3442.73248394189
 10
1779.741995191683
 20
-3442.941047229036
 10
1779.734167806663
 20
-3443.142497382672
 10
1779.730986801448
 20
-3443.334099554325
 10
1779.733136110195
 20
-3443.513118895517
 10
1779.736423361728
 20
-3443.597055364542
 10
1779.74129966706
 20
-3443.676820557775
 10
1779.747850517961
 20
-3443.752072619154
 10
1779.756161406201
 20
-3443.82246969262
 10
1779.766317823548
 20
-3443.887669922116
 10
1779.778405261774
 20
-3443.947331451579
 10
1779.792509212646
 20
-3444.001112424952
 10
1779.808715167935
 20
-3444.048670986176
 10
1779.827108619411
 20
-3444.089665279189
 10
1779.847775058842
 20
-3444.123753447934
 10
1779.870799977999
 20
-3444.150593636349
 10
1779.896268868651
 20
-3444.169843988377
 10
1779.924267222568
 20
-3444.181162647957
 10
1779.954873087341
 20
-3444.18422496401
 10
1779.98801504207
 20
-3444.179051736883
 10
1780.023483365442
 20
-3444.165983406713
 10
1780.061063129803
 20
-3444.145372446525
 10
1780.100539407496
 20
-3444.117571329346
 10
1780.141697270869
 20
-3444.082932528201
 10
1780.184321792265
 20
-3444.041808516117
 10
1780.228198044031
 20
-3443.994551766119
 10
1780.27311109851
 20
-3443.941514751233
 10
1780.318846028049
 20
-3443.883049944485
 10
1780.365187904993
 20
-3443.819509818901
 10
1780.411921801687
 20
-3443.751246847507
 10
1780.458832790476
 20
-3443.678613503328
 10
1780.55232633372
 20
-3443.521645588722
 10
1780.643949113487
 20
-3443.351425859289
 10
1780.731981708539
 20
-3443.170774099237
 10
1780.814704697637
 20
-3442.982510092773
 10
1780.890398659544
 20
-3442.789453624106
 10
1780.95734417302
 20
-3442.594424477439
 10
1781.013821816828
 20
-3442.400242436983
 10
1781.058117829675
 20
-3442.209719988058
 10
1781.089267216709
 20
-3442.024704030384
 10
1781.107794908866
 20
-3441.845120102365
 10
1781.114402111418
 20
-3441.670666424573
 10
1781.109790029633
 20
-3441.501041217584
 10
1781.094659868786
 20
-3441.335942701974
 10
1781.069712834144
 20
-3441.175069098314
 10
1781.035650130981
 20
-3441.018118627183
 10
1780.993172964567
 20
-3440.864789509153
 10
1780.942982540172
 20
-3440.714779964801
 10
1780.885780063068
 20
-3440.5677882147
 10
1780.822266738525
 20
-3440.423512479426
 10
1780.753143771815
 20
-3440.281650979554
 10
1780.679112368208
 20
-3440.141901935657
 10
1780.519129071389
 20
-3439.867534098093
 10
1780.347926490234
 20
-3439.597994731331
 10
1780.171114266912
 20
-3439.33086959997
  0
HATCH
  5
257
330
1F
100
AcDbEntity
  8
Ech.1_5
 62
    33
420
 12426362
440
 33554687
370
     5
100
AcDbHatch
 10
0.0
 20
0.0
 30
0.0
210
0.0
220
0.0
230
1.0
  2
SOLID
 70
     1
 71
     1
 91
        2
 92
        3
 72
     0
 73
     1
 93
        5
 10
1721.038912125174
 20
-3611.661774318965
 10
1721.038912125174
 20
-3641.405999628741
 10
1769.038912125174
 20
-3641.40599962874
 10
1769.037420025466
 20
-3611.662175632511
 10
1745.037818527595
 20
-3597.805999247274
 97
        0
 92
        1
 93
        2
 72
     2
 10
1745.038328445043
 20
-3621.935599041614
 40
3.800000190734181
 50
269.9999999999997
 51
450.0000000000106
 73
     0
 72
     2
 10
1745.038328445044
 20
-3621.935599041614
 40
3.800000190734181
 50
90.00000000002159
 51
269.9999999999887
 73
     0
 97
        0
 75
     0
 76
     1
 98
        0
  0
LWPOLYLINE
  5
258
330
1F
100
AcDbEntity
  8
Ech.1_5
 62
     7
370
    20
100
AcDbPolyline
 90
        6
 70
   128
 43
0.0
 10
1721.038912125174
 20
-3611.661774318965
 10
1721.038912125174
 20
-3641.405999628741
 10
1769.038912125174
 20
-3641.40599962874
 10
1769.037420025466
 20
-3611.662175632511
 10
1745.037818527595
 20
-3597.805999247274
 10
1721.038912125174
 20
-3611.661774318965
  0
LWPOLYLINE
  5
259
330
1F
100
AcDbEntity
  8
Ech.1_5
 62
     7
370
    20
100
AcDbPolyline
 90
        3
 70
   128
 43
0.0
 10
1745.038328445043
 20
-3618.13559885088
 42
-1.000000000000096
 10
1745.038328445042
 20
-3625.735599232349
 42
-0.9999999999997128
 10
1745.038328445043
 20
-3618.13559885088
  0
CIRCLE
  5
25A
330
1F
100
AcDbEntity
  8
Ech.1_5
 62
   190
370
    20
100
AcDbCircle
 10
1745.038328445043
 20
-3621.935599041614
 30
0.0
 40
3.800000190734863
  0
LINE
  5
25B
330
1F
100
AcDbEntity
  8
Ech.1_5
 62
   190
370
    20
100
AcDbLine
 10
1599.901504499833
 20
-3457.957396879813
 30
0.0
 11
1599.901504499833
 21
-3779.112003954407
 31
0.0
  0
LWPOLYLINE
  5
25C
330
1F
100
AcDbEntity
  8
Ech.1_5
 62
     7
370
    20
100
AcDbPolyline
 90
        3
 70
     0
 43
0.0
 10
1599.901504499731
 20
-3617.735598850881
 10
1589.101504499731
 20
-3617.735598850881
 10
1589.101504499731
 20
-3457.957396879813
  0
HATCH
  5
25D
330
1F
100
AcDbEntity
  8
Ech.1_5
 62
    17
420
  8405056
440
 33554687
370
    20
100
AcDbHatch
 10
0.0
 20
0.0
 30
0.0
210
0.0
220
0.0
230
1.0
  2
SOLID
 70
     1
 71
     1
 91
        1
 92
        3
 72
     0
 73
     1
 93
        4
 10
1578.301504499731
 20
-3617.735598850881
 10
1578.278670013147
 20
-3457.957396879813
 10
1570.278670013147
 20
-3457.957396879813
 10
1570.278670013147
 20
-3617.735598850881
 97
        0
 75
     0
 76
     1
 98
        0
  0
LWPOLYLINE
  5
25E
330
1F
100
AcDbEntity
  8
Ech.1_5
 62
     7
370
    20
100
AcDbPolyline
 90
        5
 70
     0
 43
0.0
 10
1578.301504499731
 20
-3617.735598850881
 10
1578.278670013147
 20
-3457.957396879813
 10
1570.278670013147
 20
-3457.957396879813
 10
1570.278670013147
 20
-3617.735598850881
 10
1578.301504499731
 20
-3617.735598850881
  0
HATCH
  5
25F
330
1F
100
AcDbEntity
  8
Ech.1_5
 62
    35
420
  9529928
440
 33554687
370
    20
100
AcDbHatch
 10
0.0
 20
0.0
 30
0.0
210
0.0
220
0.0
230
1.0
  2
SOLID
 70
     1
 71
     1
 91
        1
 92
        3
 72
     0
 73
     1
 93
        4
 10
1578.301504499731
 20
-3601.735598660028
 10
1578.301504499731
 20
-3617.735598850881
 10
1589.101504499731
 20
-3617.735598850881
 10
1589.101504499731
 20
-3601.735598850881
 97
        0
 75
     0
 76
     1
 98
        0
  0
LWPOLYLINE
  5
260
330
1F
100
AcDbEntity
  8
Ech.1_5
 62
   190
370
    20
100
AcDbPolyline
 90
        5
 70
     0
 43
0.0
 10
1578.301504499731
 20
-3601.735598660028
 10
1578.301504499731
 20
-3617.735598850881
 10
1589.101504499731
 20
-3617.735598850881
 10
1589.101504499731
 20
-3601.735598850881
 10
1578.301504499731
 20
-3601.735598660028
  0
LWPOLYLINE
  5
261
330
1F
100
AcDbEntity
  8
Ech.1_5
 62
   190
370
    20
100
AcDbPolyline
 90
        4
 70
     0
 43
0.0
 10
1589.101504499731
 20
-3601.735598850881
 10
1578.301504499731
 20
-3617.735598850881
 10
1589.101504499731
 20
-3617.735598850881
 10
1578.301504499731
 20
-3601.735643984501
  0
LWPOLYLINE
  5
262
330
1F
100
AcDbEntity
  8
Ech.1_5
 62
     5
370
    20
100
AcDbPolyline
 90
        5
 70
     0
 43
0.0
 10
1578.301504499731
 20
-3601.735643984501
 10
1578.301504499731
 20
-3617.735598850881
 10
1589.101504499731
 20
-3617.735598850881
 10
1589.101504499731
 20
-3601.735598850881
 10
1578.301504499731
 20
-3601.735643984501
  0
LWPOLYLINE
  5
263
330
1F
100
AcDbEntity
  8
Ech.1_5
 62
     7
370
    20
100
AcDbPolyline
 90
        4
 70
     0
 43
0.0
 10
1570.278670013147
 20
-3457.957396879813
 10
1570.278670013147
 20
-3617.735598850881
 10
1578.301504499731
 20
-3617.735598850881
 10
1578.278670013147
 20
-3457.957396879813
  0
LINE
  5
264
330
1F
100
AcDbEntity
  8
Ech.1_5
 62
   190
370
     9
100
AcDbLine
 10
1570.056447613436
 20
-3608.728098850885
 30
0.0
 11
1569.934225613075
 21
-3608.728098850885
 31
0.0
  0
LINE
  5
265
330
1F
100
AcDbEntity
  8
Ech.1_5
 62
   190
370
     9
100
AcDbLine
 10
1569.934225613075
 20
-3608.728098850885
 30
0.0
 11
1569.934225613075
 21
-3610.743098850876
 31
0.0
  0
LINE
  5
266
330
1F
100
AcDbEntity
  8
Ech.1_5
 62
   190
370
     9
100
AcDbLine
 10
1570.056447613435
 20
-3610.743098850876
 30
0.0
 11
1569.934225613075
 21
-3610.743098850876
 31
0.0
  0
HATCH
  5
267
330
1F
100
AcDbEntity
  8
Ech.1_5
 62
   252
440
 33554687
370
     5
100
AcDbHatch
 10
0.0
 20
0.0
 30
0.0
210
0.0
220
0.0
230
1.0
  2
SOLID
 70
     1
 71
     1
 91
        1
 92
        3
 72
     0
 73
     1
 93
        4
 10
1585.978669613914
 20
-3610.187543250901
 10
1586.312003213481
 20
-3610.187543250901
 10
1586.312003213481
 20
-3609.283654450883
 10
1585.978669613914
 20
-3609.283654450883
 97
        0
 75
     0
 76
     1
 98
        0
  0
LWPOLYLINE
  5
268
330
1F
100
AcDbEntity
  8
Ech.1_5
 62
     7
370
     9
100
AcDbPolyline
 90
        5
 70
     0
 43
0.0
 10
1585.978669613914
 20
-3610.187543250901
 10
1586.312003213481
 20
-3610.187543250901
 10
1586.312003213481
 20
-3609.283654450883
 10
1585.978669613914
 20
-3609.283654450883
 10
1585.978669613914
 20
-3610.187543250901
  0
LINE
  5
269
330
1F
100
AcDbEntity
  8
Ech.1_5
 62
   190
370
     9
100
AcDbLine
 10
1587.191636812883
 20
-3609.283654450883
 30
0.0
 11
1570.278670013147
 21
-3609.283654450883
 31
0.0
  0
LINE
  5
26A
330
1F
100
AcDbEntity
  8
Ech.1_5
 62
   190
370
     9
100
AcDbLine
 10
1587.191636812883
 20
-3610.187543250901
 30
0.0
 11
1570.278670013147
 21
-3610.187543250901
 31
0.0
  0
ARC
  5
26B
330
1F
100
AcDbEntity
  8
Ech.1_5
 62
   190
370
     9
100
AcDbCircle
 10
1574.959506969413
 20
-3609.735598850893
 30
0.0
 40
5.125281356337811
100
AcDbArc
 50
168.6632793503256
 51
191.3367206496744
  0
LINE
  5
26C
330
1F
100
AcDbEntity
  8
Ech.1_5
 62
   190
370
     9
100
AcDbLine
 10
1570.056447613436
 20
-3608.728098850885
 30
0.0
 11
1570.056447613435
 21
-3609.061432050866
 31
0.0
  0
ARC
  5
26D
330
1F
100
AcDbEntity
  8
Ech.1_5
 62
   190
370
     9
100
AcDbCircle
 10
1570.278670009395
 20
-3609.061432054923
 30
0.0
 40
0.2222223959597048
100
AcDbArc
 50
179.9999989539144
 51
270.0000009673536
  0
LINE
  5
26E
330
1F
100
AcDbEntity
  8
Ech.1_5
 62
   190
370
     9
100
AcDbLine
 10
1570.056447613435
 20
-3609.061432050866
 30
0.0
 11
1570.056447613435
 21
-3610.409765650892
 31
0.0
  0
ARC
  5
26F
330
1F
100
AcDbEntity
  8
Ech.1_5
 62
   190
370
     9
100
AcDbCircle
 10
1570.27867000935
 20
-3610.409765646816
 30
0.0
 40
0.2222223959146792
100
AcDbArc
 50
89.99999902103886
 51
180.0000010510099
  0
LINE
  5
270
330
1F
100
AcDbEntity
  8
Ech.1_5
 62
   190
370
     9
100
AcDbLine
 10
1570.056447613435
 20
-3610.743098850876
 30
0.0
 11
1570.056447613435
 21
-3610.409765650892
 31
0.0
  0
LINE
  5
271
330
1F
100
AcDbEntity
  8
Ech.1_5
 62
   190
370
     9
100
AcDbLine
 10
1574.312003213481
 20
-3609.283654450883
 30
0.0
 11
1574.312003213481
 21
-3610.187543250901
 31
0.0
  0
LINE
  5
272
330
1F
100
AcDbEntity
  8
Ech.1_5
 62
   190
370
     9
100
AcDbLine
 10
1574.645336413698
 20
-3609.283654450883
 30
0.0
 11
1574.645336413698
 21
-3610.187543250901
 31
0.0
  0
LINE
  5
273
330
1F
100
AcDbEntity
  8
Ech.1_5
 62
   190
370
     9
100
AcDbLine
 10
1573.312003213481
 20
-3609.283654450883
 30
0.0
 11
1573.312003213481
 21
-3610.187543250901
 31
0.0
  0
LINE
  5
274
330
1F
100
AcDbEntity
  8
Ech.1_5
 62
   190
370
     9
100
AcDbLine
 10
1573.645336413698
 20
-3609.283654450883
 30
0.0
 11
1573.645336413698
 21
-3610.187543250901
 31
0.0
  0
LINE
  5
275
330
1F
100
AcDbEntity
  8
Ech.1_5
 62
   190
370
     9
100
AcDbLine
 10
1573.978669613914
 20
-3609.283654450883
 30
0.0
 11
1573.978669613914
 21
-3610.187543250901
 31
0.0
  0
LINE
  5
276
330
1F
100
AcDbEntity
  8
Ech.1_5
 62
   190
370
     9
100
AcDbLine
 10
1572.312003213481
 20
-3609.283654450883
 30
0.0
 11
1572.312003213481
 21
-3610.187543250901
 31
0.0
  0
LINE
  5
277
330
1F
100
AcDbEntity
  8
Ech.1_5
 62
   190
370
     9
100
AcDbLine
 10
1572.645336413698
 20
-3609.283654450883
 30
0.0
 11
1572.645336413698
 21
-3610.187543250901
 31
0.0
  0
LINE
  5
278
330
1F
100
AcDbEntity
  8
Ech.1_5
 62
   190
370
     9
100
AcDbLine
 10
1572.978669613914
 20
-3609.283654450883
 30
0.0
 11
1572.978669613914
 21
-3610.187543250901
 31
0.0
  0
LINE
  5
279
330
1F
100
AcDbEntity
  8
Ech.1_5
 62
   190
370
     9
100
AcDbLine
 10
1571.978669613914
 20
-3609.283654450883
 30
0.0
 11
1571.978669613914
 21
-3610.187543250901
 31
0.0
  0
LINE
  5
27A
330
1F
100
AcDbEntity
  8
Ech.1_5
 62
   190
370
     9
100
AcDbLine
 10
1571.645336413698
 20
-3609.283654450883
 30
0.0
 11
1571.645336413698
 21
-3610.187543250901
 31
0.0
  0
LINE
  5
27B
330
1F
100
AcDbEntity
  8
Ech.1_5
 62
   190
370
     9
100
AcDbLine
 10
1571.312003213481
 20
-3609.283654450883
 30
0.0
 11
1571.312003213481
 21
-3610.187543250901
 31
0.0
  0
LINE
  5
27C
330
1F
100
AcDbEntity
  8
Ech.1_5
 62
   190
370
     9
100
AcDbLine
 10
1570.978669613914
 20
-3609.283654450883
 30
0.0
 11
1570.978669613914
 21
-3610.187543250899
 31
0.0
  0
LINE
  5
27D
330
1F
100
AcDbEntity
  8
Ech.1_5
 62
   190
370
     9
100
AcDbLine
 10
1584.978669613914
 20
-3609.283654450883
 30
0.0
 11
1584.978669613914
 21
-3610.187543250901
 31
0.0
  0
LINE
  5
27E
330
1F
100
AcDbEntity
  8
Ech.1_5
 62
   190
370
     9
100
AcDbLine
 10
1584.645336413698
 20
-3609.283654450883
 30
0.0
 11
1584.645336413698
 21
-3610.187543250901
 31
0.0
  0
LINE
  5
27F
330
1F
100
AcDbEntity
  8
Ech.1_5
 62
   190
370
     9
100
AcDbLine
 10
1585.312003213481
 20
-3609.283654450883
 30
0.0
 11
1585.312003213481
 21
-3610.187543250901
 31
0.0
  0
LINE
  5
280
330
1F
100
AcDbEntity
  8
Ech.1_5
 62
   190
370
     9
100
AcDbLine
 10
1583.645336413698
 20
-3609.283654450883
 30
0.0
 11
1583.645336413698
 21
-3610.187543250901
 31
0.0
  0
LINE
  5
281
330
1F
100
AcDbEntity
  8
Ech.1_5
 62
   190
370
     9
100
AcDbLine
 10
1583.978669613914
 20
-3609.283654450883
 30
0.0
 11
1583.978669613914
 21
-3610.187543250901
 31
0.0
  0
LINE
  5
282
330
1F
100
AcDbEntity
  8
Ech.1_5
 62
   190
370
     9
100
AcDbLine
 10
1584.312003213481
 20
-3609.283654450883
 30
0.0
 11
1584.312003213481
 21
-3610.187543250901
 31
0.0
  0
LINE
  5
283
330
1F
100
AcDbEntity
  8
Ech.1_5
 62
   190
370
     9
100
AcDbLine
 10
1582.645336413698
 20
-3609.283654450883
 30
0.0
 11
1582.645336413698
 21
-3610.187543250901
 31
0.0
  0
LINE
  5
284
330
1F
100
AcDbEntity
  8
Ech.1_5
 62
   190
370
     9
100
AcDbLine
 10
1582.978669613914
 20
-3609.283654450883
 30
0.0
 11
1582.978669613914
 21
-3610.187543250901
 31
0.0
  0
LINE
  5
285
330
1F
100
AcDbEntity
  8
Ech.1_5
 62
   190
370
     9
100
AcDbLine
 10
1583.312003213481
 20
-3609.283654450883
 30
0.0
 11
1583.312003213481
 21
-3610.187543250901
 31
0.0
  0
LINE
  5
286
330
1F
100
AcDbEntity
  8
Ech.1_5
 62
   190
370
     9
100
AcDbLine
 10
1581.645336413698
 20
-3609.283654450883
 30
0.0
 11
1581.645336413698
 21
-3610.187543250901
 31
0.0
  0
LINE
  5
287
330
1F
100
AcDbEntity
  8
Ech.1_5
 62
   190
370
     9
100
AcDbLine
 10
1581.978669613914
 20
-3609.283654450883
 30
0.0
 11
1581.978669613914
 21
-3610.187543250901
 31
0.0
  0
LINE
  5
288
330
1F
100
AcDbEntity
  8
Ech.1_5
 62
   190
370
     9
100
AcDbLine
 10
1582.312003213481
 20
-3609.283654450883
 30
0.0
 11
1582.312003213481
 21
-3610.187543250901
 31
0.0
  0
LINE
  5
289
330
1F
100
AcDbEntity
  8
Ech.1_5
 62
   190
370
     9
100
AcDbLine
 10
1581.312003213481
 20
-3609.283654450883
 30
0.0
 11
1581.312003213481
 21
-3610.187543250901
 31
0.0
  0
LINE
  5
28A
330
1F
100
AcDbEntity
  8
Ech.1_5
 62
   190
370
     9
100
AcDbLine
 10
1575.978669613914
 20
-3609.283654450883
 30
0.0
 11
1575.978669613914
 21
-3610.187543250901
 31
0.0
  0
LINE
  5
28B
330
1F
100
AcDbEntity
  8
Ech.1_5
 62
   190
370
     9
100
AcDbLine
 10
1576.312003213481
 20
-3609.283654450883
 30
0.0
 11
1576.312003213481
 21
-3610.187543250901
 31
0.0
  0
LINE
  5
28C
330
1F
100
AcDbEntity
  8
Ech.1_5
 62
   190
370
     9
100
AcDbLine
 10
1576.645336413698
 20
-3609.283654450883
 30
0.0
 11
1576.645336413698
 21
-3610.187543250901
 31
0.0
  0
LINE
  5
28D
330
1F
100
AcDbEntity
  8
Ech.1_5
 62
   190
370
     9
100
AcDbLine
 10
1576.978669613914
 20
-3609.283654450883
 30
0.0
 11
1576.978669613914
 21
-3610.187543250901
 31
0.0
  0
LINE
  5
28E
330
1F
100
AcDbEntity
  8
Ech.1_5
 62
   190
370
     9
100
AcDbLine
 10
1577.978669613914
 20
-3609.283654450883
 30
0.0
 11
1577.978669613914
 21
-3610.187543250901
 31
0.0
  0
LINE
  5
28F
330
1F
100
AcDbEntity
  8
Ech.1_5
 62
   190
370
     9
100
AcDbLine
 10
1577.645336413698
 20
-3609.283654450883
 30
0.0
 11
1577.645336413698
 21
-3610.187543250901
 31
0.0
  0
LINE
  5
290
330
1F
100
AcDbEntity
  8
Ech.1_5
 62
   190
370
     9
100
AcDbLine
 10
1577.312003213481
 20
-3609.283654450883
 30
0.0
 11
1577.312003213481
 21
-3610.187543250901
 31
0.0
  0
LINE
  5
291
330
1F
100
AcDbEntity
  8
Ech.1_5
 62
   190
370
     9
100
AcDbLine
 10
1578.978669613914
 20
-3609.283654450883
 30
0.0
 11
1578.978669613914
 21
-3610.187543250901
 31
0.0
  0
LINE
  5
292
330
1F
100
AcDbEntity
  8
Ech.1_5
 62
   190
370
     9
100
AcDbLine
 10
1578.645336413698
 20
-3609.283654450883
 30
0.0
 11
1578.645336413698
 21
-3610.187543250901
 31
0.0
  0
LINE
  5
293
330
1F
100
AcDbEntity
  8
Ech.1_5
 62
   190
370
     9
100
AcDbLine
 10
1578.312003213481
 20
-3609.283654450883
 30
0.0
 11
1578.312003213481
 21
-3610.187543250901
 31
0.0
  0
LINE
  5
294
330
1F
100
AcDbEntity
  8
Ech.1_5
 62
   190
370
     9
100
AcDbLine
 10
1579.978669613914
 20
-3609.283654450883
 30
0.0
 11
1579.978669613914
 21
-3610.187543250901
 31
0.0
  0
LINE
  5
295
330
1F
100
AcDbEntity
  8
Ech.1_5
 62
   190
370
     9
100
AcDbLine
 10
1579.645336413698
 20
-3609.283654450883
 30
0.0
 11
1579.645336413698
 21
-3610.187543250901
 31
0.0
  0
LINE
  5
296
330
1F
100
AcDbEntity
  8
Ech.1_5
 62
   190
370
     9
100
AcDbLine
 10
1579.312003213481
 20
-3609.283654450883
 30
0.0
 11
1579.312003213481
 21
-3610.187543250901
 31
0.0
  0
LINE
  5
297
330
1F
100
AcDbEntity
  8
Ech.1_5
 62
   190
370
     9
100
AcDbLine
 10
1580.978669613914
 20
-3609.283654450883
 30
0.0
 11
1580.978669613914
 21
-3610.187543250901
 31
0.0
  0
LINE
  5
298
330
1F
100
AcDbEntity
  8
Ech.1_5
 62
   190
370
     9
100
AcDbLine
 10
1580.645336413698
 20
-3609.283654450883
 30
0.0
 11
1580.645336413698
 21
-3610.187543250901
 31
0.0
  0
LINE
  5
299
330
1F
100
AcDbEntity
  8
Ech.1_5
 62
   190
370
     9
100
AcDbLine
 10
1580.312003213481
 20
-3609.283654450883
 30
0.0
 11
1580.312003213481
 21
-3610.187543250901
 31
0.0
  0
LINE
  5
29A
330
1F
100
AcDbEntity
  8
Ech.1_5
 62
   190
370
     9
100
AcDbLine
 10
1575.312003213481
 20
-3609.283654450883
 30
0.0
 11
1575.312003213481
 21
-3610.187543250901
 31
0.0
  0
LINE
  5
29B
330
1F
100
AcDbEntity
  8
Ech.1_5
 62
   190
370
     9
100
AcDbLine
 10
1575.645336413698
 20
-3609.283654450883
 30
0.0
 11
1575.645336413698
 21
-3610.187543250901
 31
0.0
  0
LINE
  5
29C
330
1F
100
AcDbEntity
  8
Ech.1_5
 62
   190
370
     9
100
AcDbLine
 10
1575.978669613914
 20
-3609.283654450883
 30
0.0
 11
1575.978669613914
 21
-3610.187543250901
 31
0.0
  0
LINE
  5
29D
330
1F
100
AcDbEntity
  8
Ech.1_5
 62
   190
370
     9
100
AcDbLine
 10
1574.978669613914
 20
-3609.283654450883
 30
0.0
 11
1574.978669613914
 21
-3610.187543250901
 31
0.0
  0
LINE
  5
29E
330
1F
100
AcDbEntity
  8
Ech.1_5
 62
   190
370
     9
100
AcDbLine
 10
1588.256447613436
 20
-3609.735598850881
 30
0.0
 11
1587.191636812883
 21
-3609.283654450883
 31
0.0
  0
ARC
  5
29F
330
1F
100
AcDbEntity
  8
Ech.1_5
 62
   190
370
     9
100
AcDbCircle
 10
1587.755377209123
 20
-3609.735598850879
 30
0.0
 40
0.7225351986669323
100
AcDbArc
 50
141.2812399142123
 51
218.7187600857596
  0
LINE
  5
2A0
330
1F
100
AcDbEntity
  8
Ech.1_5
 62
   190
370
     9
100
AcDbLine
 10
1588.256447613436
 20
-3609.735598850881
 30
0.0
 11
1587.191636812883
 21
-3610.187543250901
 31
0.0
  0
HATCH
  5
2A1
330
1F
100
AcDbEntity
  8
Ech.1_5
 62
   252
440
 33554687
370
     5
100
AcDbHatch
 10
0.0
 20
0.0
 30
0.0
210
0.0
220
0.0
230
1.0
  2
SOLID
 70
     1
 71
     1
 91
        1
 92
        3
 72
     0
 73
     1
 93
        4
 10
1570.978669613914
 20
-3610.187543250899
 10
1571.312003213481
 20
-3610.187543250901
 10
1571.312003213481
 20
-3609.283654450883
 10
1570.978669613914
 20
-3609.283654450883
 97
        0
 75
     0
 76
     1
 98
        0
  0
LWPOLYLINE
  5
2A2
330
1F
100
AcDbEntity
  8
Ech.1_5
 62
     7
370
     9
100
AcDbPolyline
 90
        5
 70
     0
 43
0.0
 10
1570.978669613914
 20
-3610.187543250899
 10
1571.312003213481
 20
-3610.187543250901
 10
1571.312003213481
 20
-3609.283654450883
 10
1570.978669613914
 20
-3609.283654450883
 10
1570.978669613914
 20
-3610.187543250899
  0
HATCH
  5
2A3
330
1F
100
AcDbEntity
  8
Ech.1_5
 62
   252
440
 33554687
370
     5
100
AcDbHatch
 10
0.0
 20
0.0
 30
0.0
210
0.0
220
0.0
230
1.0
  2
SOLID
 70
     1
 71
     1
 91
        1
 92
        3
 72
     0
 73
     1
 93
        4
 10
1571.312003213481
 20
-3610.187543250901
 10
1571.645336813049
 20
-3610.187543250901
 10
1571.645336813049
 20
-3609.283654450883
 10
1571.312003213481
 20
-3609.283654450883
 97
        0
 75
     0
 76
     1
 98
        0
  0
LWPOLYLINE
  5
2A4
330
1F
100
AcDbEntity
  8
Ech.1_5
 62
     7
370
     9
100
AcDbPolyline
 90
        5
 70
     0
 43
0.0
 10
1571.312003213481
 20
-3610.187543250901
 10
1571.645336813049
 20
-3610.187543250901
 10
1571.645336813049
 20
-3609.283654450883
 10
1571.312003213481
 20
-3609.283654450883
 10
1571.312003213481
 20
-3610.187543250901
  0
HATCH
  5
2A5
330
1F
100
AcDbEntity
  8
Ech.1_5
 62
   252
440
 33554687
370
     5
100
AcDbHatch
 10
0.0
 20
0.0
 30
0.0
210
0.0
220
0.0
230
1.0
  2
SOLID
 70
     1
 71
     1
 91
        1
 92
        3
 72
     0
 73
     1
 93
        4
 10
1571.645336813049
 20
-3610.187543250901
 10
1571.978670412616
 20
-3610.187543250901
 10
1571.978670412616
 20
-3609.283654450883
 10
1571.645336813049
 20
-3609.283654450883
 97
        0
 75
     0
 76
     1
 98
        0
  0
LWPOLYLINE
  5
2A6
330
1F
100
AcDbEntity
  8
Ech.1_5
 62
     7
370
     9
100
AcDbPolyline
 90
        5
 70
     0
 43
0.0
 10
1571.645336813049
 20
-3610.187543250901
 10
1571.978670412616
 20
-3610.187543250901
 10
1571.978670412616
 20
-3609.283654450883
 10
1571.645336813049
 20
-3609.283654450883
 10
1571.645336813049
 20
-3610.187543250901
  0
HATCH
  5
2A7
330
1F
100
AcDbEntity
  8
Ech.1_5
 62
   252
440
 33554687
370
     5
100
AcDbHatch
 10
0.0
 20
0.0
 30
0.0
210
0.0
220
0.0
230
1.0
  2
SOLID
 70
     1
 71
     1
 91
        1
 92
        3
 72
     0
 73
     1
 93
        4
 10
1571.978670412616
 20
-3610.187543250901
 10
1572.312004012183
 20
-3610.187543250901
 10
1572.312004012183
 20
-3609.283654450883
 10
1571.978670412616
 20
-3609.283654450883
 97
        0
 75
     0
 76
     1
 98
        0
  0
LWPOLYLINE
  5
2A8
330
1F
100
AcDbEntity
  8
Ech.1_5
 62
     7
370
     9
100
AcDbPolyline
 90
        5
 70
     0
 43
0.0
 10
1571.978670412616
 20
-3610.187543250901
 10
1572.312004012183
 20
-3610.187543250901
 10
1572.312004012183
 20
-3609.283654450883
 10
1571.978670412616
 20
-3609.283654450883
 10
1571.978670412616
 20
-3610.187543250901
  0
HATCH
  5
2A9
330
1F
100
AcDbEntity
  8
Ech.1_5
 62
   252
440
 33554687
370
     5
100
AcDbHatch
 10
0.0
 20
0.0
 30
0.0
210
0.0
220
0.0
230
1.0
  2
SOLID
 70
     1
 71
     1
 91
        1
 92
        3
 72
     0
 73
     1
 93
        4
 10
1572.312003213481
 20
-3610.187543250901
 10
1572.645336813049
 20
-3610.187543250901
 10
1572.645336813049
 20
-3609.283654450883
 10
1572.312003213481
 20
-3609.283654450883
 97
        0
 75
     0
 76
     1
 98
        0
  0
LWPOLYLINE
  5
2AA
330
1F
100
AcDbEntity
  8
Ech.1_5
 62
     7
370
     9
100
AcDbPolyline
 90
        5
 70
     0
 43
0.0
 10
1572.312003213481
 20
-3610.187543250901
 10
1572.645336813049
 20
-3610.187543250901
 10
1572.645336813049
 20
-3609.283654450883
 10
1572.312003213481
 20
-3609.283654450883
 10
1572.312003213481
 20
-3610.187543250901
  0
HATCH
  5
2AB
330
1F
100
AcDbEntity
  8
Ech.1_5
 62
   252
440
 33554687
370
     5
100
AcDbHatch
 10
0.0
 20
0.0
 30
0.0
210
0.0
220
0.0
230
1.0
  2
SOLID
 70
     1
 71
     1
 91
        1
 92
        3
 72
     0
 73
     1
 93
        4
 10
1572.645336413698
 20
-3610.187543250901
 10
1572.978670013266
 20
-3610.187543250901
 10
1572.978670013266
 20
-3609.28365445088
 10
1572.645336413698
 20
-3609.283654450883
 97
        0
 75
     0
 76
     1
 98
        0
  0
LWPOLYLINE
  5
2AC
330
1F
100
AcDbEntity
  8
Ech.1_5
 62
     7
370
     9
100
AcDbPolyline
 90
        5
 70
     0
 43
0.0
 10
1572.645336413698
 20
-3610.187543250901
 10
1572.978670013266
 20
-3610.187543250901
 10
1572.978670013266
 20
-3609.28365445088
 10
1572.645336413698
 20
-3609.283654450883
 10
1572.645336413698
 20
-3610.187543250901
  0
HATCH
  5
2AD
330
1F
100
AcDbEntity
  8
Ech.1_5
 62
   252
440
 33554687
370
     5
100
AcDbHatch
 10
0.0
 20
0.0
 30
0.0
210
0.0
220
0.0
230
1.0
  2
SOLID
 70
     1
 71
     1
 91
        1
 92
        3
 72
     0
 73
     1
 93
        4
 10
1572.978670013266
 20
-3610.187543250901
 10
1573.312003612832
 20
-3610.187543250901
 10
1573.312003612832
 20
-3609.283654450883
 10
1572.978670013266
 20
-3609.28365445088
 97
        0
 75
     0
 76
     1
 98
        0
  0
LWPOLYLINE
  5
2AE
330
1F
100
AcDbEntity
  8
Ech.1_5
 62
     7
370
     9
100
AcDbPolyline
 90
        5
 70
     0
 43
0.0
 10
1572.978670013266
 20
-3610.187543250901
 10
1573.312003612832
 20
-3610.187543250901
 10
1573.312003612832
 20
-3609.283654450883
 10
1572.978670013266
 20
-3609.28365445088
 10
1572.978670013266
 20
-3610.187543250901
  0
HATCH
  5
2AF
330
1F
100
AcDbEntity
  8
Ech.1_5
 62
   252
440
 33554687
370
     5
100
AcDbHatch
 10
0.0
 20
0.0
 30
0.0
210
0.0
220
0.0
230
1.0
  2
SOLID
 70
     1
 71
     1
 91
        1
 92
        3
 72
     0
 73
     1
 93
        4
 10
1573.312003213481
 20
-3610.187543250901
 10
1573.645336813049
 20
-3610.187543250901
 10
1573.645336813049
 20
-3609.283654450883
 10
1573.312003213481
 20
-3609.283654450883
 97
        0
 75
     0
 76
     1
 98
        0
  0
LWPOLYLINE
  5
2B0
330
1F
100
AcDbEntity
  8
Ech.1_5
 62
     7
370
     9
100
AcDbPolyline
 90
        5
 70
     0
 43
0.0
 10
1573.312003213481
 20
-3610.187543250901
 10
1573.645336813049
 20
-3610.187543250901
 10
1573.645336813049
 20
-3609.283654450883
 10
1573.312003213481
 20
-3609.283654450883
 10
1573.312003213481
 20
-3610.187543250901
  0
HATCH
  5
2B1
330
1F
100
AcDbEntity
  8
Ech.1_5
 62
   252
440
 33554687
370
     5
100
AcDbHatch
 10
0.0
 20
0.0
 30
0.0
210
0.0
220
0.0
230
1.0
  2
SOLID
 70
     1
 71
     1
 91
        1
 92
        3
 72
     0
 73
     1
 93
        4
 10
1573.645336813049
 20
-3610.187543250901
 10
1573.978670412616
 20
-3610.187543250901
 10
1573.978670412616
 20
-3609.283654450883
 10
1573.645336813049
 20
-3609.283654450883
 97
        0
 75
     0
 76
     1
 98
        0
  0
LWPOLYLINE
  5
2B2
330
1F
100
AcDbEntity
  8
Ech.1_5
 62
     7
370
     9
100
AcDbPolyline
 90
        5
 70
     0
 43
0.0
 10
1573.645336813049
 20
-3610.187543250901
 10
1573.978670412616
 20
-3610.187543250901
 10
1573.978670412616
 20
-3609.283654450883
 10
1573.645336813049
 20
-3609.283654450883
 10
1573.645336813049
 20
-3610.187543250901
  0
HATCH
  5
2B3
330
1F
100
AcDbEntity
  8
Ech.1_5
 62
   252
440
 33554687
370
     5
100
AcDbHatch
 10
0.0
 20
0.0
 30
0.0
210
0.0
220
0.0
230
1.0
  2
SOLID
 70
     1
 71
     1
 91
        1
 92
        3
 72
     0
 73
     1
 93
        4
 10
1573.978669613914
 20
-3610.187543250901
 10
1574.312003213481
 20
-3610.187543250901
 10
1574.312003213481
 20
-3609.283654450883
 10
1573.978669613914
 20
-3609.283654450883
 97
        0
 75
     0
 76
     1
 98
        0
  0
LWPOLYLINE
  5
2B4
330
1F
100
AcDbEntity
  8
Ech.1_5
 62
     7
370
     9
100
AcDbPolyline
 90
        5
 70
     0
 43
0.0
 10
1573.978669613914
 20
-3610.187543250901
 10
1574.312003213481
 20
-3610.187543250901
 10
1574.312003213481
 20
-3609.283654450883
 10
1573.978669613914
 20
-3609.283654450883
 10
1573.978669613914
 20
-3610.187543250901
  0
HATCH
  5
2B5
330
1F
100
AcDbEntity
  8
Ech.1_5
 62
   252
440
 33554687
370
     5
100
AcDbHatch
 10
0.0
 20
0.0
 30
0.0
210
0.0
220
0.0
230
1.0
  2
SOLID
 70
     1
 71
     1
 91
        1
 92
        3
 72
     0
 73
     1
 93
        4
 10
1574.312003213481
 20
-3610.187543250901
 10
1574.645336813049
 20
-3610.187543250901
 10
1574.645336813049
 20
-3609.283654450883
 10
1574.312003213481
 20
-3609.283654450883
 97
        0
 75
     0
 76
     1
 98
        0
  0
LWPOLYLINE
  5
2B6
330
1F
100
AcDbEntity
  8
Ech.1_5
 62
     7
370
     9
100
AcDbPolyline
 90
        5
 70
     0
 43
0.0
 10
1574.312003213481
 20
-3610.187543250901
 10
1574.645336813049
 20
-3610.187543250901
 10
1574.645336813049
 20
-3609.283654450883
 10
1574.312003213481
 20
-3609.283654450883
 10
1574.312003213481
 20
-3610.187543250901
  0
HATCH
  5
2B7
330
1F
100
AcDbEntity
  8
Ech.1_5
 62
   252
440
 33554687
370
     5
100
AcDbHatch
 10
0.0
 20
0.0
 30
0.0
210
0.0
220
0.0
230
1.0
  2
SOLID
 70
     1
 71
     1
 91
        1
 92
        3
 72
     0
 73
     1
 93
        4
 10
1574.645336813049
 20
-3610.187543250901
 10
1574.978670412616
 20
-3610.187543250901
 10
1574.978670412617
 20
-3609.283654450883
 10
1574.645336813049
 20
-3609.283654450883
 97
        0
 75
     0
 76
     1
 98
        0
  0
LWPOLYLINE
  5
2B8
330
1F
100
AcDbEntity
  8
Ech.1_5
 62
     7
370
     9
100
AcDbPolyline
 90
        5
 70
     0
 43
0.0
 10
1574.645336813049
 20
-3610.187543250901
 10
1574.978670412616
 20
-3610.187543250901
 10
1574.978670412617
 20
-3609.283654450883
 10
1574.645336813049
 20
-3609.283654450883
 10
1574.645336813049
 20
-3610.187543250901
  0
HATCH
  5
2B9
330
1F
100
AcDbEntity
  8
Ech.1_5
 62
   252
440
 33554687
370
     5
100
AcDbHatch
 10
0.0
 20
0.0
 30
0.0
210
0.0
220
0.0
230
1.0
  2
SOLID
 70
     1
 71
     1
 91
        1
 92
        3
 72
     0
 73
     1
 93
        4
 10
1574.978670412616
 20
-3610.187543250901
 10
1575.312004012183
 20
-3610.187543250901
 10
1575.312004012183
 20
-3609.283654450883
 10
1574.978670412617
 20
-3609.283654450883
 97
        0
 75
     0
 76
     1
 98
        0
  0
LWPOLYLINE
  5
2BA
330
1F
100
AcDbEntity
  8
Ech.1_5
 62
     7
370
     9
100
AcDbPolyline
 90
        5
 70
     0
 43
0.0
 10
1574.978670412616
 20
-3610.187543250901
 10
1575.312004012183
 20
-3610.187543250901
 10
1575.312004012183
 20
-3609.283654450883
 10
1574.978670412617
 20
-3609.283654450883
 10
1574.978670412616
 20
-3610.187543250901
  0
HATCH
  5
2BB
330
1F
100
AcDbEntity
  8
Ech.1_5
 62
   252
440
 33554687
370
     5
100
AcDbHatch
 10
0.0
 20
0.0
 30
0.0
210
0.0
220
0.0
230
1.0
  2
SOLID
 70
     1
 71
     1
 91
        1
 92
        3
 72
     0
 73
     1
 93
        4
 10
1575.312004012183
 20
-3610.187543250901
 10
1575.645337611751
 20
-3610.187543250901
 10
1575.645337611751
 20
-3609.283654450883
 10
1575.312004012183
 20
-3609.283654450883
 97
        0
 75
     0
 76
     1
 98
        0
  0
LWPOLYLINE
  5
2BC
330
1F
100
AcDbEntity
  8
Ech.1_5
 62
     7
370
     9
100
AcDbPolyline
 90
        5
 70
     0
 43
0.0
 10
1575.312004012183
 20
-3610.187543250901
 10
1575.645337611751
 20
-3610.187543250901
 10
1575.645337611751
 20
-3609.283654450883
 10
1575.312004012183
 20
-3609.283654450883
 10
1575.312004012183
 20
-3610.187543250901
  0
HATCH
  5
2BD
330
1F
100
AcDbEntity
  8
Ech.1_5
 62
   252
440
 33554687
370
     5
100
AcDbHatch
 10
0.0
 20
0.0
 30
0.0
210
0.0
220
0.0
230
1.0
  2
SOLID
 70
     1
 71
     1
 91
        1
 92
        3
 72
     0
 73
     1
 93
        4
 10
1575.645336813049
 20
-3610.187543250901
 10
1575.978670412616
 20
-3610.187543250901
 10
1575.978670412616
 20
-3609.283654450883
 10
1575.645336813049
 20
-3609.283654450883
 97
        0
 75
     0
 76
     1
 98
        0
  0
LWPOLYLINE
  5
2BE
330
1F
100
AcDbEntity
  8
Ech.1_5
 62
     7
370
     9
100
AcDbPolyline
 90
        5
 70
     0
 43
0.0
 10
1575.645336813049
 20
-3610.187543250901
 10
1575.978670412616
 20
-3610.187543250901
 10
1575.978670412616
 20
-3609.283654450883
 10
1575.645336813049
 20
-3609.283654450883
 10
1575.645336813049
 20
-3610.187543250901
  0
HATCH
  5
2BF
330
1F
100
AcDbEntity
  8
Ech.1_5
 62
   252
440
 33554687
370
     5
100
AcDbHatch
 10
0.0
 20
0.0
 30
0.0
210
0.0
220
0.0
230
1.0
  2
SOLID
 70
     1
 71
     1
 91
        1
 92
        3
 72
     0
 73
     1
 93
        4
 10
1575.978670013265
 20
-3610.187543250901
 10
1576.312003612832
 20
-3610.187543250901
 10
1576.312003612832
 20
-3609.283654450883
 10
1575.978670013265
 20
-3609.283654450883
 97
        0
 75
     0
 76
     1
 98
        0
  0
LWPOLYLINE
  5
2C0
330
1F
100
AcDbEntity
  8
Ech.1_5
 62
     7
370
     9
100
AcDbPolyline
 90
        5
 70
     0
 43
0.0
 10
1575.978670013265
 20
-3610.187543250901
 10
1576.312003612832
 20
-3610.187543250901
 10
1576.312003612832
 20
-3609.283654450883
 10
1575.978670013265
 20
-3609.283654450883
 10
1575.978670013265
 20
-3610.187543250901
  0
HATCH
  5
2C1
330
1F
100
AcDbEntity
  8
Ech.1_5
 62
   252
440
 33554687
370
     5
100
AcDbHatch
 10
0.0
 20
0.0
 30
0.0
210
0.0
220
0.0
230
1.0
  2
SOLID
 70
     1
 71
     1
 91
        1
 92
        3
 72
     0
 73
     1
 93
        4
 10
1576.312003612832
 20
-3610.187543250901
 10
1576.6453372124
 20
-3610.187543250901
 10
1576.6453372124
 20
-3609.283654450883
 10
1576.312003612832
 20
-3609.283654450883
 97
        0
 75
     0
 76
     1
 98
        0
  0
LWPOLYLINE
  5
2C2
330
1F
100
AcDbEntity
  8
Ech.1_5
 62
     7
370
     9
100
AcDbPolyline
 90
        5
 70
     0
 43
0.0
 10
1576.312003612832
 20
-3610.187543250901
 10
1576.6453372124
 20
-3610.187543250901
 10
1576.6453372124
 20
-3609.283654450883
 10
1576.312003612832
 20
-3609.283654450883
 10
1576.312003612832
 20
-3610.187543250901
  0
HATCH
  5
2C3
330
1F
100
AcDbEntity
  8
Ech.1_5
 62
   252
440
 33554687
370
     5
100
AcDbHatch
 10
0.0
 20
0.0
 30
0.0
210
0.0
220
0.0
230
1.0
  2
SOLID
 70
     1
 71
     1
 91
        1
 92
        3
 72
     0
 73
     1
 93
        4
 10
1576.645336813049
 20
-3610.187543250901
 10
1576.978670412616
 20
-3610.187543250901
 10
1576.978670412616
 20
-3609.283654450883
 10
1576.645336813049
 20
-3609.283654450883
 97
        0
 75
     0
 76
     1
 98
        0
  0
LWPOLYLINE
  5
2C4
330
1F
100
AcDbEntity
  8
Ech.1_5
 62
     7
370
     9
100
AcDbPolyline
 90
        5
 70
     0
 43
0.0
 10
1576.645336813049
 20
-3610.187543250901
 10
1576.978670412616
 20
-3610.187543250901
 10
1576.978670412616
 20
-3609.283654450883
 10
1576.645336813049
 20
-3609.283654450883
 10
1576.645336813049
 20
-3610.187543250901
  0
HATCH
  5
2C5
330
1F
100
AcDbEntity
  8
Ech.1_5
 62
   252
440
 33554687
370
     5
100
AcDbHatch
 10
0.0
 20
0.0
 30
0.0
210
0.0
220
0.0
230
1.0
  2
SOLID
 70
     1
 71
     1
 91
        1
 92
        3
 72
     0
 73
     1
 93
        4
 10
1576.978670412616
 20
-3610.187543250901
 10
1577.312004012183
 20
-3610.187543250901
 10
1577.312004012183
 20
-3609.283654450883
 10
1576.978670412616
 20
-3609.283654450883
 97
        0
 75
     0
 76
     1
 98
        0
  0
LWPOLYLINE
  5
2C6
330
1F
100
AcDbEntity
  8
Ech.1_5
 62
     7
370
     9
100
AcDbPolyline
 90
        5
 70
     0
 43
0.0
 10
1576.978670412616
 20
-3610.187543250901
 10
1577.312004012183
 20
-3610.187543250901
 10
1577.312004012183
 20
-3609.283654450883
 10
1576.978670412616
 20
-3609.283654450883
 10
1576.978670412616
 20
-3610.187543250901
  0
HATCH
  5
2C7
330
1F
100
AcDbEntity
  8
Ech.1_5
 62
   252
440
 33554687
370
     5
100
AcDbHatch
 10
0.0
 20
0.0
 30
0.0
210
0.0
220
0.0
230
1.0
  2
SOLID
 70
     1
 71
     1
 91
        1
 92
        3
 72
     0
 73
     1
 93
        4
 10
1577.312003213481
 20
-3610.187543250901
 10
1577.645336813049
 20
-3610.187543250901
 10
1577.645336813049
 20
-3609.283654450883
 10
1577.312003213481
 20
-3609.283654450883
 97
        0
 75
     0
 76
     1
 98
        0
  0
LWPOLYLINE
  5
2C8
330
1F
100
AcDbEntity
  8
Ech.1_5
 62
     7
370
     9
100
AcDbPolyline
 90
        5
 70
     0
 43
0.0
 10
1577.312003213481
 20
-3610.187543250901
 10
1577.645336813049
 20
-3610.187543250901
 10
1577.645336813049
 20
-3609.283654450883
 10
1577.312003213481
 20
-3609.283654450883
 10
1577.312003213481
 20
-3610.187543250901
  0
HATCH
  5
2C9
330
1F
100
AcDbEntity
  8
Ech.1_5
 62
   252
440
 33554687
370
     5
100
AcDbHatch
 10
0.0
 20
0.0
 30
0.0
210
0.0
220
0.0
230
1.0
  2
SOLID
 70
     1
 71
     1
 91
        1
 92
        3
 72
     0
 73
     1
 93
        4
 10
1577.645336813049
 20
-3610.187543250901
 10
1577.978670412616
 20
-3610.187543250901
 10
1577.978670412616
 20
-3609.283654450883
 10
1577.645336813049
 20
-3609.283654450883
 97
        0
 75
     0
 76
     1
 98
        0
  0
LWPOLYLINE
  5
2CA
330
1F
100
AcDbEntity
  8
Ech.1_5
 62
     7
370
     9
100
AcDbPolyline
 90
        5
 70
     0
 43
0.0
 10
1577.645336813049
 20
-3610.187543250901
 10
1577.978670412616
 20
-3610.187543250901
 10
1577.978670412616
 20
-3609.283654450883
 10
1577.645336813049
 20
-3609.283654450883
 10
1577.645336813049
 20
-3610.187543250901
  0
HATCH
  5
2CB
330
1F
100
AcDbEntity
  8
Ech.1_5
 62
   252
440
 33554687
370
     5
100
AcDbHatch
 10
0.0
 20
0.0
 30
0.0
210
0.0
220
0.0
230
1.0
  2
SOLID
 70
     1
 71
     1
 91
        1
 92
        3
 72
     0
 73
     1
 93
        4
 10
1577.978670412616
 20
-3610.187543250901
 10
1578.312004012183
 20
-3610.187543250901
 10
1578.312004012183
 20
-3609.283654450883
 10
1577.978670412616
 20
-3609.283654450883
 97
        0
 75
     0
 76
     1
 98
        0
  0
LWPOLYLINE
  5
2CC
330
1F
100
AcDbEntity
  8
Ech.1_5
 62
     7
370
     9
100
AcDbPolyline
 90
        5
 70
     0
 43
0.0
 10
1577.978670412616
 20
-3610.187543250901
 10
1578.312004012183
 20
-3610.187543250901
 10
1578.312004012183
 20
-3609.283654450883
 10
1577.978670412616
 20
-3609.283654450883
 10
1577.978670412616
 20
-3610.187543250901
  0
HATCH
  5
2CD
330
1F
100
AcDbEntity
  8
Ech.1_5
 62
   252
440
 33554687
370
     5
100
AcDbHatch
 10
0.0
 20
0.0
 30
0.0
210
0.0
220
0.0
230
1.0
  2
SOLID
 70
     1
 71
     1
 91
        1
 92
        3
 72
     0
 73
     1
 93
        4
 10
1578.312004012183
 20
-3610.187543250901
 10
1578.645337611752
 20
-3610.187543250901
 10
1578.645337611751
 20
-3609.283654450883
 10
1578.312004012183
 20
-3609.283654450883
 97
        0
 75
     0
 76
     1
 98
        0
  0
LWPOLYLINE
  5
2CE
330
1F
100
AcDbEntity
  8
Ech.1_5
 62
     7
370
     9
100
AcDbPolyline
 90
        5
 70
     0
 43
0.0
 10
1578.312004012183
 20
-3610.187543250901
 10
1578.645337611752
 20
-3610.187543250901
 10
1578.645337611751
 20
-3609.283654450883
 10
1578.312004012183
 20
-3609.283654450883
 10
1578.312004012183
 20
-3610.187543250901
  0
HATCH
  5
2CF
330
1F
100
AcDbEntity
  8
Ech.1_5
 62
   252
440
 33554687
370
     5
100
AcDbHatch
 10
0.0
 20
0.0
 30
0.0
210
0.0
220
0.0
230
1.0
  2
SOLID
 70
     1
 71
     1
 91
        1
 92
        3
 72
     0
 73
     1
 93
        4
 10
1578.645337611752
 20
-3610.187543250901
 10
1578.978671211318
 20
-3610.187543250901
 10
1578.978671211318
 20
-3609.283654450883
 10
1578.645337611751
 20
-3609.283654450883
 97
        0
 75
     0
 76
     1
 98
        0
  0
LWPOLYLINE
  5
2D0
330
1F
100
AcDbEntity
  8
Ech.1_5
 62
     7
370
     9
100
AcDbPolyline
 90
        5
 70
     0
 43
0.0
 10
1578.645337611752
 20
-3610.187543250901
 10
1578.978671211318
 20
-3610.187543250901
 10
1578.978671211318
 20
-3609.283654450883
 10
1578.645337611751
 20
-3609.283654450883
 10
1578.645337611752
 20
-3610.187543250901
  0
HATCH
  5
2D1
330
1F
100
AcDbEntity
  8
Ech.1_5
 62
   252
440
 33554687
370
     5
100
AcDbHatch
 10
0.0
 20
0.0
 30
0.0
210
0.0
220
0.0
230
1.0
  2
SOLID
 70
     1
 71
     1
 91
        1
 92
        3
 72
     0
 73
     1
 93
        4
 10
1578.978670412616
 20
-3610.187543250901
 10
1579.312004012183
 20
-3610.187543250901
 10
1579.312004012183
 20
-3609.283654450883
 10
1578.978670412616
 20
-3609.283654450883
 97
        0
 75
     0
 76
     1
 98
        0
  0
LWPOLYLINE
  5
2D2
330
1F
100
AcDbEntity
  8
Ech.1_5
 62
     7
370
     9
100
AcDbPolyline
 90
        5
 70
     0
 43
0.0
 10
1578.978670412616
 20
-3610.187543250901
 10
1579.312004012183
 20
-3610.187543250901
 10
1579.312004012183
 20
-3609.283654450883
 10
1578.978670412616
 20
-3609.283654450883
 10
1578.978670412616
 20
-3610.187543250901
  0
HATCH
  5
2D3
330
1F
100
AcDbEntity
  8
Ech.1_5
 62
   252
440
 33554687
370
     5
100
AcDbHatch
 10
0.0
 20
0.0
 30
0.0
210
0.0
220
0.0
230
1.0
  2
SOLID
 70
     1
 71
     1
 91
        1
 92
        3
 72
     0
 73
     1
 93
        4
 10
1579.312003612832
 20
-3610.187543250901
 10
1579.6453372124
 20
-3610.187543250901
 10
1579.6453372124
 20
-3609.283654450883
 10
1579.312003612832
 20
-3609.283654450883
 97
        0
 75
     0
 76
     1
 98
        0
  0
LWPOLYLINE
  5
2D4
330
1F
100
AcDbEntity
  8
Ech.1_5
 62
     7
370
     9
100
AcDbPolyline
 90
        5
 70
     0
 43
0.0
 10
1579.312003612832
 20
-3610.187543250901
 10
1579.6453372124
 20
-3610.187543250901
 10
1579.6453372124
 20
-3609.283654450883
 10
1579.312003612832
 20
-3609.283654450883
 10
1579.312003612832
 20
-3610.187543250901
  0
HATCH
  5
2D5
330
1F
100
AcDbEntity
  8
Ech.1_5
 62
   252
440
 33554687
370
     5
100
AcDbHatch
 10
0.0
 20
0.0
 30
0.0
210
0.0
220
0.0
230
1.0
  2
SOLID
 70
     1
 71
     1
 91
        1
 92
        3
 72
     0
 73
     1
 93
        4
 10
1579.6453372124
 20
-3610.187543250901
 10
1579.978670811967
 20
-3610.187543250901
 10
1579.978670811967
 20
-3609.283654450883
 10
1579.6453372124
 20
-3609.283654450883
 97
        0
 75
     0
 76
     1
 98
        0
  0
LWPOLYLINE
  5
2D6
330
1F
100
AcDbEntity
  8
Ech.1_5
 62
     7
370
     9
100
AcDbPolyline
 90
        5
 70
     0
 43
0.0
 10
1579.6453372124
 20
-3610.187543250901
 10
1579.978670811967
 20
-3610.187543250901
 10
1579.978670811967
 20
-3609.283654450883
 10
1579.6453372124
 20
-3609.283654450883
 10
1579.6453372124
 20
-3610.187543250901
  0
HATCH
  5
2D7
330
1F
100
AcDbEntity
  8
Ech.1_5
 62
   252
440
 33554687
370
     5
100
AcDbHatch
 10
0.0
 20
0.0
 30
0.0
210
0.0
220
0.0
230
1.0
  2
SOLID
 70
     1
 71
     1
 91
        1
 92
        3
 72
     0
 73
     1
 93
        4
 10
1579.978670412616
 20
-3610.187543250901
 10
1580.312004012183
 20
-3610.187543250901
 10
1580.312004012183
 20
-3609.283654450883
 10
1579.978670412616
 20
-3609.283654450883
 97
        0
 75
     0
 76
     1
 98
        0
  0
LWPOLYLINE
  5
2D8
330
1F
100
AcDbEntity
  8
Ech.1_5
 62
     7
370
     9
100
AcDbPolyline
 90
        5
 70
     0
 43
0.0
 10
1579.978670412616
 20
-3610.187543250901
 10
1580.312004012183
 20
-3610.187543250901
 10
1580.312004012183
 20
-3609.283654450883
 10
1579.978670412616
 20
-3609.283654450883
 10
1579.978670412616
 20
-3610.187543250901
  0
HATCH
  5
2D9
330
1F
100
AcDbEntity
  8
Ech.1_5
 62
   252
440
 33554687
370
     5
100
AcDbHatch
 10
0.0
 20
0.0
 30
0.0
210
0.0
220
0.0
230
1.0
  2
SOLID
 70
     1
 71
     1
 91
        1
 92
        3
 72
     0
 73
     1
 93
        4
 10
1580.312004012183
 20
-3610.187543250901
 10
1580.645337611751
 20
-3610.187543250901
 10
1580.645337611751
 20
-3609.283654450883
 10
1580.312004012183
 20
-3609.283654450883
 97
        0
 75
     0
 76
     1
 98
        0
  0
LWPOLYLINE
  5
2DA
330
1F
100
AcDbEntity
  8
Ech.1_5
 62
     7
370
     9
100
AcDbPolyline
 90
        5
 70
     0
 43
0.0
 10
1580.312004012183
 20
-3610.187543250901
 10
1580.645337611751
 20
-3610.187543250901
 10
1580.645337611751
 20
-3609.283654450883
 10
1580.312004012183
 20
-3609.283654450883
 10
1580.312004012183
 20
-3610.187543250901
  0
HATCH
  5
2DB
330
1F
100
AcDbEntity
  8
Ech.1_5
 62
   252
440
 33554687
370
     5
100
AcDbHatch
 10
0.0
 20
0.0
 30
0.0
210
0.0
220
0.0
230
1.0
  2
SOLID
 70
     1
 71
     1
 91
        1
 92
        3
 72
     0
 73
     1
 93
        4
 10
1580.645336813049
 20
-3610.187543250901
 10
1580.978670412616
 20
-3610.187543250901
 10
1580.978670412616
 20
-3609.283654450883
 10
1580.645336813049
 20
-3609.283654450883
 97
        0
 75
     0
 76
     1
 98
        0
  0
LWPOLYLINE
  5
2DC
330
1F
100
AcDbEntity
  8
Ech.1_5
 62
     7
370
     9
100
AcDbPolyline
 90
        5
 70
     0
 43
0.0
 10
1580.645336813049
 20
-3610.187543250901
 10
1580.978670412616
 20
-3610.187543250901
 10
1580.978670412616
 20
-3609.283654450883
 10
1580.645336813049
 20
-3609.283654450883
 10
1580.645336813049
 20
-3610.187543250901
  0
HATCH
  5
2DD
330
1F
100
AcDbEntity
  8
Ech.1_5
 62
   252
440
 33554687
370
     5
100
AcDbHatch
 10
0.0
 20
0.0
 30
0.0
210
0.0
220
0.0
230
1.0
  2
SOLID
 70
     1
 71
     1
 91
        1
 92
        3
 72
     0
 73
     1
 93
        4
 10
1580.978669613914
 20
-3610.187543250901
 10
1581.312003213481
 20
-3610.187543250901
 10
1581.312003213481
 20
-3609.283654450883
 10
1580.978669613914
 20
-3609.283654450883
 97
        0
 75
     0
 76
     1
 98
        0
  0
LWPOLYLINE
  5
2DE
330
1F
100
AcDbEntity
  8
Ech.1_5
 62
     7
370
     9
100
AcDbPolyline
 90
        5
 70
     0
 43
0.0
 10
1580.978669613914
 20
-3610.187543250901
 10
1581.312003213481
 20
-3610.187543250901
 10
1581.312003213481
 20
-3609.283654450883
 10
1580.978669613914
 20
-3609.283654450883
 10
1580.978669613914
 20
-3610.187543250901
  0
HATCH
  5
2DF
330
1F
100
AcDbEntity
  8
Ech.1_5
 62
   252
440
 33554687
370
     5
100
AcDbHatch
 10
0.0
 20
0.0
 30
0.0
210
0.0
220
0.0
230
1.0
  2
SOLID
 70
     1
 71
     1
 91
        1
 92
        3
 72
     0
 73
     1
 93
        4
 10
1581.312003213481
 20
-3610.187543250901
 10
1581.645336813049
 20
-3610.187543250901
 10
1581.645336813049
 20
-3609.283654450883
 10
1581.312003213481
 20
-3609.283654450883
 97
        0
 75
     0
 76
     1
 98
        0
  0
LWPOLYLINE
  5
2E0
330
1F
100
AcDbEntity
  8
Ech.1_5
 62
     7
370
     9
100
AcDbPolyline
 90
        5
 70
     0
 43
0.0
 10
1581.312003213481
 20
-3610.187543250901
 10
1581.645336813049
 20
-3610.187543250901
 10
1581.645336813049
 20
-3609.283654450883
 10
1581.312003213481
 20
-3609.283654450883
 10
1581.312003213481
 20
-3610.187543250901
  0
HATCH
  5
2E1
330
1F
100
AcDbEntity
  8
Ech.1_5
 62
   252
440
 33554687
370
     5
100
AcDbHatch
 10
0.0
 20
0.0
 30
0.0
210
0.0
220
0.0
230
1.0
  2
SOLID
 70
     1
 71
     1
 91
        1
 92
        3
 72
     0
 73
     1
 93
        4
 10
1581.645336813049
 20
-3610.187543250901
 10
1581.978670412616
 20
-3610.187543250901
 10
1581.978670412616
 20
-3609.283654450883
 10
1581.645336813049
 20
-3609.283654450883
 97
        0
 75
     0
 76
     1
 98
        0
  0
LWPOLYLINE
  5
2E2
330
1F
100
AcDbEntity
  8
Ech.1_5
 62
     7
370
     9
100
AcDbPolyline
 90
        5
 70
     0
 43
0.0
 10
1581.645336813049
 20
-3610.187543250901
 10
1581.978670412616
 20
-3610.187543250901
 10
1581.978670412616
 20
-3609.283654450883
 10
1581.645336813049
 20
-3609.283654450883
 10
1581.645336813049
 20
-3610.187543250901
  0
HATCH
  5
2E3
330
1F
100
AcDbEntity
  8
Ech.1_5
 62
   252
440
 33554687
370
     5
100
AcDbHatch
 10
0.0
 20
0.0
 30
0.0
210
0.0
220
0.0
230
1.0
  2
SOLID
 70
     1
 71
     1
 91
        1
 92
        3
 72
     0
 73
     1
 93
        4
 10
1581.978670412616
 20
-3610.187543250901
 10
1582.312004012183
 20
-3610.187543250901
 10
1582.312004012183
 20
-3609.283654450883
 10
1581.978670412616
 20
-3609.283654450883
 97
        0
 75
     0
 76
     1
 98
        0
  0
LWPOLYLINE
  5
2E4
330
1F
100
AcDbEntity
  8
Ech.1_5
 62
     7
370
     9
100
AcDbPolyline
 90
        5
 70
     0
 43
0.0
 10
1581.978670412616
 20
-3610.187543250901
 10
1582.312004012183
 20
-3610.187543250901
 10
1582.312004012183
 20
-3609.283654450883
 10
1581.978670412616
 20
-3609.283654450883
 10
1581.978670412616
 20
-3610.187543250901
  0
HATCH
  5
2E5
330
1F
100
AcDbEntity
  8
Ech.1_5
 62
   252
440
 33554687
370
     5
100
AcDbHatch
 10
0.0
 20
0.0
 30
0.0
210
0.0
220
0.0
230
1.0
  2
SOLID
 70
     1
 71
     1
 91
        1
 92
        3
 72
     0
 73
     1
 93
        4
 10
1582.312003213481
 20
-3610.187543250901
 10
1582.645336813049
 20
-3610.187543250901
 10
1582.645336813049
 20
-3609.283654450883
 10
1582.312003213481
 20
-3609.283654450883
 97
        0
 75
     0
 76
     1
 98
        0
  0
LWPOLYLINE
  5
2E6
330
1F
100
AcDbEntity
  8
Ech.1_5
 62
     7
370
     9
100
AcDbPolyline
 90
        5
 70
     0
 43
0.0
 10
1582.312003213481
 20
-3610.187543250901
 10
1582.645336813049
 20
-3610.187543250901
 10
1582.645336813049
 20
-3609.283654450883
 10
1582.312003213481
 20
-3609.283654450883
 10
1582.312003213481
 20
-3610.187543250901
  0
HATCH
  5
2E7
330
1F
100
AcDbEntity
  8
Ech.1_5
 62
   252
440
 33554687
370
     5
100
AcDbHatch
 10
0.0
 20
0.0
 30
0.0
210
0.0
220
0.0
230
1.0
  2
SOLID
 70
     1
 71
     1
 91
        1
 92
        3
 72
     0
 73
     1
 93
        4
 10
1582.645336413698
 20
-3610.187543250901
 10
1582.978670013265
 20
-3610.187543250901
 10
1582.978670013265
 20
-3609.283654450883
 10
1582.645336413698
 20
-3609.283654450883
 97
        0
 75
     0
 76
     1
 98
        0
  0
LWPOLYLINE
  5
2E8
330
1F
100
AcDbEntity
  8
Ech.1_5
 62
     7
370
     9
100
AcDbPolyline
 90
        5
 70
     0
 43
0.0
 10
1582.645336413698
 20
-3610.187543250901
 10
1582.978670013265
 20
-3610.187543250901
 10
1582.978670013265
 20
-3609.283654450883
 10
1582.645336413698
 20
-3609.283654450883
 10
1582.645336413698
 20
-3610.187543250901
  0
HATCH
  5
2E9
330
1F
100
AcDbEntity
  8
Ech.1_5
 62
   252
440
 33554687
370
     5
100
AcDbHatch
 10
0.0
 20
0.0
 30
0.0
210
0.0
220
0.0
230
1.0
  2
SOLID
 70
     1
 71
     1
 91
        1
 92
        3
 72
     0
 73
     1
 93
        4
 10
1582.978670013265
 20
-3610.187543250901
 10
1583.312003612832
 20
-3610.187543250901
 10
1583.312003612832
 20
-3609.283654450883
 10
1582.978670013265
 20
-3609.283654450883
 97
        0
 75
     0
 76
     1
 98
        0
  0
LWPOLYLINE
  5
2EA
330
1F
100
AcDbEntity
  8
Ech.1_5
 62
     7
370
     9
100
AcDbPolyline
 90
        5
 70
     0
 43
0.0
 10
1582.978670013265
 20
-3610.187543250901
 10
1583.312003612832
 20
-3610.187543250901
 10
1583.312003612832
 20
-3609.283654450883
 10
1582.978670013265
 20
-3609.283654450883
 10
1582.978670013265
 20
-3610.187543250901
  0
HATCH
  5
2EB
330
1F
100
AcDbEntity
  8
Ech.1_5
 62
   252
440
 33554687
370
     5
100
AcDbHatch
 10
0.0
 20
0.0
 30
0.0
210
0.0
220
0.0
230
1.0
  2
SOLID
 70
     1
 71
     1
 91
        1
 92
        3
 72
     0
 73
     1
 93
        4
 10
1583.312003213481
 20
-3610.187543250901
 10
1583.645336813049
 20
-3610.187543250901
 10
1583.645336813049
 20
-3609.283654450883
 10
1583.312003213481
 20
-3609.283654450883
 97
        0
 75
     0
 76
     1
 98
        0
  0
LWPOLYLINE
  5
2EC
330
1F
100
AcDbEntity
  8
Ech.1_5
 62
     7
370
     9
100
AcDbPolyline
 90
        5
 70
     0
 43
0.0
 10
1583.312003213481
 20
-3610.187543250901
 10
1583.645336813049
 20
-3610.187543250901
 10
1583.645336813049
 20
-3609.283654450883
 10
1583.312003213481
 20
-3609.283654450883
 10
1583.312003213481
 20
-3610.187543250901
  0
HATCH
  5
2ED
330
1F
100
AcDbEntity
  8
Ech.1_5
 62
   252
440
 33554687
370
     5
100
AcDbHatch
 10
0.0
 20
0.0
 30
0.0
210
0.0
220
0.0
230
1.0
  2
SOLID
 70
     1
 71
     1
 91
        1
 92
        3
 72
     0
 73
     1
 93
        4
 10
1583.645336813049
 20
-3610.187543250901
 10
1583.978670412616
 20
-3610.187543250901
 10
1583.978670412616
 20
-3609.283654450883
 10
1583.645336813049
 20
-3609.283654450883
 97
        0
 75
     0
 76
     1
 98
        0
  0
LWPOLYLINE
  5
2EE
330
1F
100
AcDbEntity
  8
Ech.1_5
 62
     7
370
     9
100
AcDbPolyline
 90
        5
 70
     0
 43
0.0
 10
1583.645336813049
 20
-3610.187543250901
 10
1583.978670412616
 20
-3610.187543250901
 10
1583.978670412616
 20
-3609.283654450883
 10
1583.645336813049
 20
-3609.283654450883
 10
1583.645336813049
 20
-3610.187543250901
  0
HATCH
  5
2EF
330
1F
100
AcDbEntity
  8
Ech.1_5
 62
   252
440
 33554687
370
     5
100
AcDbHatch
 10
0.0
 20
0.0
 30
0.0
210
0.0
220
0.0
230
1.0
  2
SOLID
 70
     1
 71
     1
 91
        1
 92
        3
 72
     0
 73
     1
 93
        4
 10
1583.978669613914
 20
-3610.187543250901
 10
1584.312003213481
 20
-3610.187543250901
 10
1584.312003213481
 20
-3609.283654450883
 10
1583.978669613914
 20
-3609.283654450883
 97
        0
 75
     0
 76
     1
 98
        0
  0
LWPOLYLINE
  5
2F0
330
1F
100
AcDbEntity
  8
Ech.1_5
 62
     7
370
     9
100
AcDbPolyline
 90
        5
 70
     0
 43
0.0
 10
1583.978669613914
 20
-3610.187543250901
 10
1584.312003213481
 20
-3610.187543250901
 10
1584.312003213481
 20
-3609.283654450883
 10
1583.978669613914
 20
-3609.283654450883
 10
1583.978669613914
 20
-3610.187543250901
  0
HATCH
  5
2F1
330
1F
100
AcDbEntity
  8
Ech.1_5
 62
   252
440
 33554687
370
     5
100
AcDbHatch
 10
0.0
 20
0.0
 30
0.0
210
0.0
220
0.0
230
1.0
  2
SOLID
 70
     1
 71
     1
 91
        1
 92
        3
 72
     0
 73
     1
 93
        4
 10
1584.312003213481
 20
-3610.187543250901
 10
1584.645336813049
 20
-3610.187543250901
 10
1584.645336813049
 20
-3609.283654450883
 10
1584.312003213481
 20
-3609.283654450883
 97
        0
 75
     0
 76
     1
 98
        0
  0
LWPOLYLINE
  5
2F2
330
1F
100
AcDbEntity
  8
Ech.1_5
 62
     7
370
     9
100
AcDbPolyline
 90
        5
 70
     0
 43
0.0
 10
1584.312003213481
 20
-3610.187543250901
 10
1584.645336813049
 20
-3610.187543250901
 10
1584.645336813049
 20
-3609.283654450883
 10
1584.312003213481
 20
-3609.283654450883
 10
1584.312003213481
 20
-3610.187543250901
  0
HATCH
  5
2F3
330
1F
100
AcDbEntity
  8
Ech.1_5
 62
   252
440
 33554687
370
     5
100
AcDbHatch
 10
0.0
 20
0.0
 30
0.0
210
0.0
220
0.0
230
1.0
  2
SOLID
 70
     1
 71
     1
 91
        1
 92
        3
 72
     0
 73
     1
 93
        4
 10
1584.645336813049
 20
-3610.187543250901
 10
1584.978670412616
 20
-3610.187543250901
 10
1584.978670412616
 20
-3609.283654450883
 10
1584.645336813049
 20
-3609.283654450883
 97
        0
 75
     0
 76
     1
 98
        0
  0
LWPOLYLINE
  5
2F4
330
1F
100
AcDbEntity
  8
Ech.1_5
 62
     7
370
     9
100
AcDbPolyline
 90
        5
 70
     0
 43
0.0
 10
1584.645336813049
 20
-3610.187543250901
 10
1584.978670412616
 20
-3610.187543250901
 10
1584.978670412616
 20
-3609.283654450883
 10
1584.645336813049
 20
-3609.283654450883
 10
1584.645336813049
 20
-3610.187543250901
  0
HATCH
  5
2F5
330
1F
100
AcDbEntity
  8
Ech.1_5
 62
   252
440
 33554687
370
     5
100
AcDbHatch
 10
0.0
 20
0.0
 30
0.0
210
0.0
220
0.0
230
1.0
  2
SOLID
 70
     1
 71
     1
 91
        1
 92
        3
 72
     0
 73
     1
 93
        4
 10
1584.978670412616
 20
-3610.187543250901
 10
1585.312004012183
 20
-3610.187543250901
 10
1585.312004012183
 20
-3609.283654450883
 10
1584.978670412616
 20
-3609.283654450883
 97
        0
 75
     0
 76
     1
 98
        0
  0
LWPOLYLINE
  5
2F6
330
1F
100
AcDbEntity
  8
Ech.1_5
 62
     7
370
     9
100
AcDbPolyline
 90
        5
 70
     0
 43
0.0
 10
1584.978670412616
 20
-3610.187543250901
 10
1585.312004012183
 20
-3610.187543250901
 10
1585.312004012183
 20
-3609.283654450883
 10
1584.978670412616
 20
-3609.283654450883
 10
1584.978670412616
 20
-3610.187543250901
  0
HATCH
  5
2F7
330
1F
100
AcDbEntity
  8
Ech.1_5
 62
   252
440
 33554687
370
     5
100
AcDbHatch
 10
0.0
 20
0.0
 30
0.0
210
0.0
220
0.0
230
1.0
  2
SOLID
 70
     1
 71
     1
 91
        1
 92
        3
 72
     1
 73
     1
 93
        4
 10
1587.191636812883
 20
-3609.283654450883
 42
0.0
 10
1586.645336014346
 20
-3609.283654450883
 42
0.0
 10
1586.645336014346
 20
-3610.187543250901
 42
0.0
 10
1587.191636812883
 20
-3610.187543250901
 42
-0.3513591548519267
 97
        0
 75
     0
 76
     1
 98
        0
  0
LWPOLYLINE
  5
2F8
330
1F
100
AcDbEntity
  8
Ech.1_5
 62
     7
370
     9
100
AcDbPolyline
 90
        5
 70
     0
 43
0.0
 10
1587.191636812883
 20
-3609.283654450883
 10
1586.645336014346
 20
-3609.283654450883
 10
1586.645336014346
 20
-3610.187543250901
 10
1587.191636812883
 20
-3610.187543250901
 42
-0.3513591548518972
 10
1587.191636812883
 20
-3609.283654450883
  0
HATCH
  5
2F9
330
1F
100
AcDbEntity
  8
Ech.1_5
 62
   252
440
 33554687
370
     5
100
AcDbHatch
 10
0.0
 20
0.0
 30
0.0
210
0.0
220
0.0
230
1.0
  2
SOLID
 70
     1
 71
     1
 91
        1
 92
        3
 72
     1
 73
     1
 93
        3
 10
1588.256447613436
 20
-3609.735598850881
 42
0.0
 10
1587.191636812883
 20
-3609.283654450883
 42
0.3513591548519267
 10
1587.191636812883
 20
-3610.187543250901
 42
0.0
 97
        0
 75
     0
 76
     1
 98
        0
  0
LWPOLYLINE
  5
2FA
330
1F
100
AcDbEntity
  8
Ech.1_5
 62
     7
370
     9
100
AcDbPolyline
 90
        4
 70
     0
 43
0.0
 10
1588.256447613436
 20
-3609.735598850881
 10
1587.191636812883
 20
-3609.283654450883
 42
0.3513591548518956
 10
1587.191636812883
 20
-3610.187543250901
 10
1588.256447613436
 20
-3609.735598850881
  0
HATCH
  5
2FB
330
1F
100
AcDbEntity
  8
Ech.1_5
 62
   252
440
 33554687
370
     5
100
AcDbHatch
 10
0.0
 20
0.0
 30
0.0
210
0.0
220
0.0
230
1.0
  2
SOLID
 70
     1
 71
     1
 91
        1
 92
        3
 72
     1
 73
     1
 93
        6
 10
1570.978669613914
 20
-3610.187543250899
 42
0.0
 10
1570.278670013147
 20
-3610.187543250901
 42
0.4142135727478138
 10
1570.056447613435
 20
-3610.409765650892
 42
0.0
 10
1570.056447613435
 20
-3609.061432050866
 42
0.4142135726673814
 10
1570.278670013147
 20
-3609.283654450883
 42
0.0
 10
1570.978669613914
 20
-3609.283654450883
 42
0.0
 97
        0
 75
     0
 76
     1
 98
        0
  0
LWPOLYLINE
  5
2FC
330
1F
100
AcDbEntity
  8
Ech.1_5
 62
     7
370
     9
100
AcDbPolyline
 90
        7
 70
     0
 43
0.0
 10
1570.978669613914
 20
-3610.187543250899
 10
1570.278670013147
 20
-3610.187543250901
 42
0.4142135727497837
 10
1570.056447613435
 20
-3610.409765650892
 10
1570.056447613435
 20
-3609.061432050866
 42
0.414213572666436
 10
1570.278670013147
 20
-3609.283654450883
 10
1570.978669613914
 20
-3609.283654450883
 10
1570.978669613914
 20
-3610.187543250899
  0
HATCH
  5
2FD
330
1F
100
AcDbEntity
  8
Ech.1_5
 62
   252
440
 33554687
370
     5
100
AcDbHatch
 10
0.0
 20
0.0
 30
0.0
210
0.0
220
0.0
230
1.0
  2
SOLID
 70
     1
 71
     1
 91
        1
 92
        1
 93
        2
 72
     1
 10
1569.934225613075
 20
-3610.743098861446
 11
1569.934225613075
 21
-3608.728098840338
 72
     2
 10
1574.959506969404
 20
-3609.735598850893
 40
5.125281356329573
 50
168.6632793503046
 51
191.3367206496955
 73
     1
 97
        0
 75
     0
 76
     1
 98
        0
  0
LWPOLYLINE
  5
2FE
330
1F
100
AcDbEntity
  8
Ech.1_5
 62
     7
370
     9
100
AcDbPolyline
 90
        3
 70
     0
 43
0.0
 10
1569.934225613075
 20
-3610.743098861446
 10
1569.934225613075
 20
-3608.728098840338
 42
0.0992555820868614
 10
1569.934225613075
 20
-3610.743098861446
  0
HATCH
  5
2FF
330
1F
100
AcDbEntity
  8
Ech.1_5
 62
   252
440
 33554687
370
     5
100
AcDbHatch
 10
0.0
 20
0.0
 30
0.0
210
0.0
220
0.0
230
1.0
  2
SOLID
 70
     1
 71
     1
 91
        1
 92
        3
 72
     0
 73
     1
 93
        6
 10
1570.056447613435
 20
-3610.743098850876
 10
1570.056447613435
 20
-3610.409765650892
 10
1570.056447613435
 20
-3609.061432050866
 10
1570.056447613436
 20
-3608.728098850885
 10
1569.934225613075
 20
-3608.728098840338
 10
1569.934225613075
 20
-3610.743098861446
 97
        0
 75
     0
 76
     1
 98
        0
  0
LWPOLYLINE
  5
300
330
1F
100
AcDbEntity
  8
Ech.1_5
 62
     7
370
     9
100
AcDbPolyline
 90
        7
 70
     0
 43
0.0
 10
1570.056447613435
 20
-3610.743098850876
 10
1570.056447613435
 20
-3610.409765650892
 10
1570.056447613435
 20
-3609.061432050866
 10
1570.056447613436
 20
-3608.728098850885
 10
1569.934225613075
 20
-3608.728098840338
 10
1569.934225613075
 20
-3610.743098861446
 10
1570.056447613435
 20
-3610.743098850876
  0
HATCH
  5
301
330
1F
100
AcDbEntity
  8
Ech.1_5
 62
   252
440
 33554687
370
     5
100
AcDbHatch
 10
0.0
 20
0.0
 30
0.0
210
0.0
220
0.0
230
1.0
  2
SOLID
 70
     1
 71
     1
 91
        1
 92
        3
 72
     0
 73
     1
 93
        4
 10
1585.312004012183
 20
-3610.187543250901
 10
1585.645337611751
 20
-3610.187543250901
 10
1585.645337611751
 20
-3609.283654450883
 10
1585.312004012183
 20
-3609.283654450883
 97
        0
 75
     0
 76
     1
 98
        0
  0
LWPOLYLINE
  5
302
330
1F
100
AcDbEntity
  8
Ech.1_5
 62
     7
370
     9
100
AcDbPolyline
 90
        5
 70
     0
 43
0.0
 10
1585.312004012183
 20
-3610.187543250901
 10
1585.645337611751
 20
-3610.187543250901
 10
1585.645337611751
 20
-3609.283654450883
 10
1585.312004012183
 20
-3609.283654450883
 10
1585.312004012183
 20
-3610.187543250901
  0
LINE
  5
303
330
1F
100
AcDbEntity
  8
Ech.1_5
 62
   190
370
     9
100
AcDbLine
 10
1585.978669613914
 20
-3609.283654450883
 30
0.0
 11
1585.978669613914
 21
-3610.187543250901
 31
0.0
  0
LINE
  5
304
330
1F
100
AcDbEntity
  8
Ech.1_5
 62
   190
370
     9
100
AcDbLine
 10
1586.312003213481
 20
-3609.283654450883
 30
0.0
 11
1586.312003213481
 21
-3610.187543250901
 31
0.0
  0
LINE
  5
305
330
1F
100
AcDbEntity
  8
Ech.1_5
 62
   190
370
     9
100
AcDbLine
 10
1586.645336014346
 20
-3609.283654450883
 30
0.0
 11
1586.645336014346
 21
-3610.187543250901
 31
0.0
  0
LINE
  5
306
330
1F
100
AcDbEntity
  8
Ech.1_5
 62
   190
370
     9
100
AcDbLine
 10
1585.645336813049
 20
-3609.283654450883
 30
0.0
 11
1585.645336813049
 21
-3610.187543250901
 31
0.0
  0
HATCH
  5
307
330
1F
100
AcDbEntity
  8
Ech.1_5
 62
   252
440
 33554687
370
     5
100
AcDbHatch
 10
0.0
 20
0.0
 30
0.0
210
0.0
220
0.0
230
1.0
  2
SOLID
 70
     1
 71
     1
 91
        1
 92
        3
 72
     0
 73
     1
 93
        4
 10
1585.645336014346
 20
-3610.187543250901
 10
1585.978669613914
 20
-3610.187543250901
 10
1585.978669613914
 20
-3609.283654450883
 10
1585.645336014346
 20
-3609.283654450883
 97
        0
 75
     0
 76
     1
 98
        0
  0
LWPOLYLINE
  5
308
330
1F
100
AcDbEntity
  8
Ech.1_5
 62
     7
370
     9
100
AcDbPolyline
 90
        5
 70
     0
 43
0.0
 10
1585.645336014346
 20
-3610.187543250901
 10
1585.978669613914
 20
-3610.187543250901
 10
1585.978669613914
 20
-3609.283654450883
 10
1585.645336014346
 20
-3609.283654450883
 10
1585.645336014346
 20
-3610.187543250901
  0
HATCH
  5
309
330
1F
100
AcDbEntity
  8
Ech.1_5
 62
   252
440
 33554687
370
     5
100
AcDbHatch
 10
0.0
 20
0.0
 30
0.0
210
0.0
220
0.0
230
1.0
  2
SOLID
 70
     1
 71
     1
 91
        1
 92
        3
 72
     0
 73
     1
 93
        4
 10
1586.312002414779
 20
-3610.187543250901
 10
1586.645336014346
 20
-3610.187543250901
 10
1586.645336014346
 20
-3609.283654450883
 10
1586.312002414779
 20
-3609.283654450883
 97
        0
 75
     0
 76
     1
 98
        0
  0
LWPOLYLINE
  5
30A
330
1F
100
AcDbEntity
  8
Ech.1_5
 62
     7
370
     9
100
AcDbPolyline
 90
        5
 70
     0
 43
0.0
 10
1586.312002414779
 20
-3610.187543250901
 10
1586.645336014346
 20
-3610.187543250901
 10
1586.645336014346
 20
-3609.283654450883
 10
1586.312002414779
 20
-3609.283654450883
 10
1586.312002414779
 20
-3610.187543250901
  0
HATCH
  5
30B
330
1F
100
AcDbEntity
  8
Ech.1_5
 62
    35
420
  9529928
440
 33554687
370
    20
100
AcDbHatch
 10
0.0
 20
0.0
 30
0.0
210
0.0
220
0.0
230
1.0
  2
SOLID
 70
     1
 71
     1
 91
        1
 92
        3
 72
     0
 73
     1
 93
        4
 10
1599.901504499731
 20
-3617.735598850881
 10
1599.901504499732
 20
-3457.957396879813
 10
1589.101504499704
 20
-3457.957396879813
 10
1589.101504499731
 20
-3617.735598850881
 97
        0
 75
     0
 76
     1
 98
        0
  0
LWPOLYLINE
  5
30C
330
1F
100
AcDbEntity
  8
Ech.1_5
 62
   190
370
    20
100
AcDbPolyline
 90
        5
 70
     0
 43
0.0
 10
1599.901504499731
 20
-3617.735598850881
 10
1599.901504499732
 20
-3457.957396879813
 10
1589.101504499704
 20
-3457.957396879813
 10
1589.101504499731
 20
-3617.735598850881
 10
1599.901504499731
 20
-3617.735598850881
  0
HATCH
  5
30D
330
1F
100
AcDbEntity
  8
Ech.1_5
 62
    35
420
  9529928
440
 33554687
370
    20
100
AcDbHatch
 10
0.0
 20
0.0
 30
0.0
210
0.0
220
0.0
230
1.0
  2
SOLID
 70
     1
 71
     1
 91
        1
 92
        3
 72
     0
 73
     1
 93
        4
 10
1599.914378974329
 20
-3626.535599232344
 10
1589.114378974329
 20
-3626.535599232344
 10
1589.114378974305
 20
-3779.113391304451
 10
1599.91437897433
 20
-3779.113391304451
 97
        0
 75
     0
 76
     1
 98
        0
  0
LWPOLYLINE
  5
30E
330
1F
100
AcDbEntity
  8
Ech.1_5
 62
   190
370
    20
100
AcDbPolyline
 90
        5
 70
     0
 43
0.0
 10
1599.914378974329
 20
-3626.535599232344
 10
1589.114378974329
 20
-3626.535599232344
 10
1589.114378974305
 20
-3779.113391304451
 10
1599.91437897433
 20
-3779.113391304451
 10
1599.914378974329
 20
-3626.535599232344
  0
LWPOLYLINE
  5
30F
330
1F
100
AcDbEntity
  8
Ech.1_5
 62
     7
370
    20
100
AcDbPolyline
 90
        3
 70
     0
 43
0.0
 10
1599.914378974329
 20
-3626.535599232344
 10
1589.114378974329
 20
-3626.535599232344
 10
1589.114378974329
 20
-3779.113391304451
  0
HATCH
  5
310
330
1F
100
AcDbEntity
  8
Ech.1_5
 62
    17
420
  8405056
440
 33554687
370
    20
100
AcDbHatch
 10
0.0
 20
0.0
 30
0.0
210
0.0
220
0.0
230
1.0
  2
SOLID
 70
     1
 71
     1
 91
        1
 92
        3
 72
     0
 73
     1
 93
        4
 10
1578.314378974329
 20
-3626.535599232344
 10
1570.291544487745
 20
-3626.535599232344
 10
1570.291544487745
 20
-3779.113381615402
 10
1578.294316712995
 20
-3779.113381615402
 97
        0
 75
     0
 76
     1
 98
        0
  0
LWPOLYLINE
  5
311
330
1F
100
AcDbEntity
  8
Ech.1_5
 62
     7
370
    20
100
AcDbPolyline
 90
        5
 70
     0
 43
0.0
 10
1578.314378974329
 20
-3626.535599232344
 10
1570.291544487745
 20
-3626.535599232344
 10
1570.291544487745
 20
-3779.113381615402
 10
1578.294316712995
 20
-3779.113381615402
 10
1578.314378974329
 20
-3626.535599232344
  0
HATCH
  5
312
330
1F
100
AcDbEntity
  8
Ech.1_5
 62
    35
420
  9529928
440
 33554687
370
    20
100
AcDbHatch
 10
0.0
 20
0.0
 30
0.0
210
0.0
220
0.0
230
1.0
  2
SOLID
 70
     1
 71
     1
 91
        1
 92
        3
 72
     0
 73
     1
 93
        4
 10
1578.314378974329
 20
-3642.535599423197
 10
1578.314378974329
 20
-3626.535599232344
 10
1589.114378974329
 20
-3626.535599232344
 10
1589.114378974329
 20
-3642.535599232344
 97
        0
 75
     0
 76
     1
 98
        0
  0
LWPOLYLINE
  5
313
330
1F
100
AcDbEntity
  8
Ech.1_5
 62
   190
370
    20
100
AcDbPolyline
 90
        5
 70
     0
 43
0.0
 10
1578.314378974329
 20
-3642.535599423197
 10
1578.314378974329
 20
-3626.535599232344
 10
1589.114378974329
 20
-3626.535599232344
 10
1589.114378974329
 20
-3642.535599232344
 10
1578.314378974329
 20
-3642.535599423197
  0
LWPOLYLINE
  5
314
330
1F
100
AcDbEntity
  8
Ech.1_5
 62
   190
370
    20
100
AcDbPolyline
 90
        4
 70
     0
 43
0.0
 10
1589.114378974329
 20
-3642.535599232344
 10
1578.314378974329
 20
-3626.535599232344
 10
1589.114378974329
 20
-3626.535599232344
 10
1578.314378974329
 20
-3642.535554098724
  0
LWPOLYLINE
  5
315
330
1F
100
AcDbEntity
  8
Ech.1_5
 62
     5
370
    20
100
AcDbPolyline
 90
        5
 70
     0
 43
0.0
 10
1578.314378974329
 20
-3642.535554098724
 10
1578.314378974329
 20
-3626.535599232344
 10
1589.114378974329
 20
-3626.535599232344
 10
1589.114378974329
 20
-3642.535599232344
 10
1578.314378974329
 20
-3642.535554098724
  0
LWPOLYLINE
  5
316
330
1F
100
AcDbEntity
  8
Ech.1_5
 62
     7
370
    20
100
AcDbPolyline
 90
        4
 70
     0
 43
0.0
 10
1570.291544487745
 20
-3779.113381615402
 10
1570.291544487745
 20
-3626.535599232344
 10
1578.314378974329
 20
-3626.535599232344
 10
1578.294316712995
 20
-3779.113381615402
  0
LINE
  5
317
330
1F
100
AcDbEntity
  8
Ech.1_5
 62
   190
370
     9
100
AcDbLine
 10
1570.069322088034
 20
-3635.54309923234
 30
0.0
 11
1569.947100087673
 21
-3635.54309923234
 31
0.0
  0
LINE
  5
318
330
1F
100
AcDbEntity
  8
Ech.1_5
 62
   190
370
     9
100
AcDbLine
 10
1569.947100087673
 20
-3635.54309923234
 30
0.0
 11
1569.947100087673
 21
-3633.528099232349
 31
0.0
  0
LINE
  5
319
330
1F
100
AcDbEntity
  8
Ech.1_5
 62
   190
370
     9
100
AcDbLine
 10
1570.069322088033
 20
-3633.528099232349
 30
0.0
 11
1569.947100087673
 21
-3633.528099232349
 31
0.0
  0
HATCH
  5
31A
330
1F
100
AcDbEntity
  8
Ech.1_5
 62
   252
440
 33554687
370
     5
100
AcDbHatch
 10
0.0
 20
0.0
 30
0.0
210
0.0
220
0.0
230
1.0
  2
SOLID
 70
     1
 71
     1
 91
        1
 92
        3
 72
     0
 73
     1
 93
        4
 10
1585.991544088512
 20
-3634.083654832324
 10
1586.324877688079
 20
-3634.083654832324
 10
1586.324877688079
 20
-3634.987543632342
 10
1585.991544088512
 20
-3634.987543632342
 97
        0
 75
     0
 76
     1
 98
        0
  0
LWPOLYLINE
  5
31B
330
1F
100
AcDbEntity
  8
Ech.1_5
 62
     7
370
     9
100
AcDbPolyline
 90
        5
 70
     0
 43
0.0
 10
1585.991544088512
 20
-3634.083654832324
 10
1586.324877688079
 20
-3634.083654832324
 10
1586.324877688079
 20
-3634.987543632342
 10
1585.991544088512
 20
-3634.987543632342
 10
1585.991544088512
 20
-3634.083654832324
  0
LINE
  5
31C
330
1F
100
AcDbEntity
  8
Ech.1_5
 62
   190
370
     9
100
AcDbLine
 10
1587.204511287481
 20
-3634.987543632342
 30
0.0
 11
1570.291544487745
 21
-3634.987543632342
 31
0.0
  0
LINE
  5
31D
330
1F
100
AcDbEntity
  8
Ech.1_5
 62
   190
370
     9
100
AcDbLine
 10
1587.204511287481
 20
-3634.083654832324
 30
0.0
 11
1570.291544487745
 21
-3634.083654832324
 31
0.0
  0
ARC
  5
31E
330
1F
100
AcDbEntity
  8
Ech.1_5
 62
   190
370
     9
100
AcDbCircle
 10
1574.972381444011
 20
-3634.535599232333
 30
0.0
 40
5.12528135633781
100
AcDbArc
 50
168.6632793503256
 51
191.3367206496744
  0
LINE
  5
31F
330
1F
100
AcDbEntity
  8
Ech.1_5
 62
   190
370
     9
100
AcDbLine
 10
1570.069322088034
 20
-3635.54309923234
 30
0.0
 11
1570.069322088033
 21
-3635.209766032359
 31
0.0
  0
ARC
  5
320
330
1F
100
AcDbEntity
  8
Ech.1_5
 62
   190
370
     9
100
AcDbCircle
 10
1570.291544483993
 20
-3635.209766028302
 30
0.0
 40
0.2222223959597047
100
AcDbArc
 50
89.9999990326464
 51
180.0000010462028
  0
LINE
  5
321
330
1F
100
AcDbEntity
  8
Ech.1_5
 62
   190
370
     9
100
AcDbLine
 10
1570.069322088033
 20
-3635.209766032359
 30
0.0
 11
1570.069322088033
 21
-3633.861432432333
 31
0.0
  0
ARC
  5
322
330
1F
100
AcDbEntity
  8
Ech.1_5
 62
   190
370
     9
100
AcDbCircle
 10
1570.291544483949
 20
-3633.861432436408
 30
0.0
 40
0.2222223959154555
100
AcDbArc
 50
179.9999989492246
 51
270.0000009787852
  0
LINE
  5
323
330
1F
100
AcDbEntity
  8
Ech.1_5
 62
   190
370
     9
100
AcDbLine
 10
1570.069322088033
 20
-3633.528099232349
 30
0.0
 11
1570.069322088033
 21
-3633.861432432333
 31
0.0
  0
LINE
  5
324
330
1F
100
AcDbEntity
  8
Ech.1_5
 62
   190
370
     9
100
AcDbLine
 10
1574.324877688079
 20
-3634.987543632342
 30
0.0
 11
1574.324877688079
 21
-3634.083654832324
 31
0.0
  0
LINE
  5
325
330
1F
100
AcDbEntity
  8
Ech.1_5
 62
   190
370
     9
100
AcDbLine
 10
1574.658210888296
 20
-3634.987543632342
 30
0.0
 11
1574.658210888296
 21
-3634.083654832324
 31
0.0
  0
LINE
  5
326
330
1F
100
AcDbEntity
  8
Ech.1_5
 62
   190
370
     9
100
AcDbLine
 10
1573.324877688079
 20
-3634.987543632342
 30
0.0
 11
1573.324877688079
 21
-3634.083654832324
 31
0.0
  0
LINE
  5
327
330
1F
100
AcDbEntity
  8
Ech.1_5
 62
   190
370
     9
100
AcDbLine
 10
1573.658210888296
 20
-3634.987543632342
 30
0.0
 11
1573.658210888296
 21
-3634.083654832324
 31
0.0
  0
LINE
  5
328
330
1F
100
AcDbEntity
  8
Ech.1_5
 62
   190
370
     9
100
AcDbLine
 10
1573.991544088512
 20
-3634.987543632342
 30
0.0
 11
1573.991544088512
 21
-3634.083654832324
 31
0.0
  0
LINE
  5
329
330
1F
100
AcDbEntity
  8
Ech.1_5
 62
   190
370
     9
100
AcDbLine
 10
1572.324877688079
 20
-3634.987543632342
 30
0.0
 11
1572.324877688079
 21
-3634.083654832324
 31
0.0
  0
LINE
  5
32A
330
1F
100
AcDbEntity
  8
Ech.1_5
 62
   190
370
     9
100
AcDbLine
 10
1572.658210888296
 20
-3634.987543632342
 30
0.0
 11
1572.658210888296
 21
-3634.083654832324
 31
0.0
  0
LINE
  5
32B
330
1F
100
AcDbEntity
  8
Ech.1_5
 62
   190
370
     9
100
AcDbLine
 10
1572.991544088512
 20
-3634.987543632342
 30
0.0
 11
1572.991544088512
 21
-3634.083654832324
 31
0.0
  0
LINE
  5
32C
330
1F
100
AcDbEntity
  8
Ech.1_5
 62
   190
370
     9
100
AcDbLine
 10
1571.991544088512
 20
-3634.987543632342
 30
0.0
 11
1571.991544088512
 21
-3634.083654832324
 31
0.0
  0
LINE
  5
32D
330
1F
100
AcDbEntity
  8
Ech.1_5
 62
   190
370
     9
100
AcDbLine
 10
1571.658210888296
 20
-3634.987543632342
 30
0.0
 11
1571.658210888296
 21
-3634.083654832324
 31
0.0
  0
LINE
  5
32E
330
1F
100
AcDbEntity
  8
Ech.1_5
 62
   190
370
     9
100
AcDbLine
 10
1571.324877688079
 20
-3634.987543632342
 30
0.0
 11
1571.324877688079
 21
-3634.083654832324
 31
0.0
  0
LINE
  5
32F
330
1F
100
AcDbEntity
  8
Ech.1_5
 62
   190
370
     9
100
AcDbLine
 10
1570.991544088512
 20
-3634.987543632342
 30
0.0
 11
1570.991544088512
 21
-3634.083654832326
 31
0.0
  0
LINE
  5
330
330
1F
100
AcDbEntity
  8
Ech.1_5
 62
   190
370
     9
100
AcDbLine
 10
1584.991544088512
 20
-3634.987543632342
 30
0.0
 11
1584.991544088512
 21
-3634.083654832324
 31
0.0
  0
LINE
  5
331
330
1F
100
AcDbEntity
  8
Ech.1_5
 62
   190
370
     9
100
AcDbLine
 10
1584.658210888296
 20
-3634.987543632342
 30
0.0
 11
1584.658210888296
 21
-3634.083654832324
 31
0.0
  0
LINE
  5
332
330
1F
100
AcDbEntity
  8
Ech.1_5
 62
   190
370
     9
100
AcDbLine
 10
1585.324877688079
 20
-3634.987543632342
 30
0.0
 11
1585.324877688079
 21
-3634.083654832324
 31
0.0
  0
LINE
  5
333
330
1F
100
AcDbEntity
  8
Ech.1_5
 62
   190
370
     9
100
AcDbLine
 10
1583.658210888296
 20
-3634.987543632342
 30
0.0
 11
1583.658210888296
 21
-3634.083654832324
 31
0.0
  0
LINE
  5
334
330
1F
100
AcDbEntity
  8
Ech.1_5
 62
   190
370
     9
100
AcDbLine
 10
1583.991544088512
 20
-3634.987543632342
 30
0.0
 11
1583.991544088512
 21
-3634.083654832324
 31
0.0
  0
LINE
  5
335
330
1F
100
AcDbEntity
  8
Ech.1_5
 62
   190
370
     9
100
AcDbLine
 10
1584.324877688079
 20
-3634.987543632342
 30
0.0
 11
1584.324877688079
 21
-3634.083654832324
 31
0.0
  0
LINE
  5
336
330
1F
100
AcDbEntity
  8
Ech.1_5
 62
   190
370
     9
100
AcDbLine
 10
1582.658210888296
 20
-3634.987543632342
 30
0.0
 11
1582.658210888296
 21
-3634.083654832324
 31
0.0
  0
LINE
  5
337
330
1F
100
AcDbEntity
  8
Ech.1_5
 62
   190
370
     9
100
AcDbLine
 10
1582.991544088512
 20
-3634.987543632342
 30
0.0
 11
1582.991544088512
 21
-3634.083654832324
 31
0.0
  0
LINE
  5
338
330
1F
100
AcDbEntity
  8
Ech.1_5
 62
   190
370
     9
100
AcDbLine
 10
1583.324877688079
 20
-3634.987543632342
 30
0.0
 11
1583.324877688079
 21
-3634.083654832324
 31
0.0
  0
LINE
  5
339
330
1F
100
AcDbEntity
  8
Ech.1_5
 62
   190
370
     9
100
AcDbLine
 10
1581.658210888296
 20
-3634.987543632342
 30
0.0
 11
1581.658210888296
 21
-3634.083654832324
 31
0.0
  0
LINE
  5
33A
330
1F
100
AcDbEntity
  8
Ech.1_5
 62
   190
370
     9
100
AcDbLine
 10
1581.991544088512
 20
-3634.987543632342
 30
0.0
 11
1581.991544088512
 21
-3634.083654832324
 31
0.0
  0
LINE
  5
33B
330
1F
100
AcDbEntity
  8
Ech.1_5
 62
   190
370
     9
100
AcDbLine
 10
1582.324877688079
 20
-3634.987543632342
 30
0.0
 11
1582.324877688079
 21
-3634.083654832324
 31
0.0
  0
LINE
  5
33C
330
1F
100
AcDbEntity
  8
Ech.1_5
 62
   190
370
     9
100
AcDbLine
 10
1581.324877688079
 20
-3634.987543632342
 30
0.0
 11
1581.324877688079
 21
-3634.083654832324
 31
0.0
  0
LINE
  5
33D
330
1F
100
AcDbEntity
  8
Ech.1_5
 62
   190
370
     9
100
AcDbLine
 10
1575.991544088512
 20
-3634.987543632342
 30
0.0
 11
1575.991544088512
 21
-3634.083654832324
 31
0.0
  0
LINE
  5
33E
330
1F
100
AcDbEntity
  8
Ech.1_5
 62
   190
370
     9
100
AcDbLine
 10
1576.324877688079
 20
-3634.987543632342
 30
0.0
 11
1576.324877688079
 21
-3634.083654832324
 31
0.0
  0
LINE
  5
33F
330
1F
100
AcDbEntity
  8
Ech.1_5
 62
   190
370
     9
100
AcDbLine
 10
1576.658210888296
 20
-3634.987543632342
 30
0.0
 11
1576.658210888296
 21
-3634.083654832324
 31
0.0
  0
LINE
  5
340
330
1F
100
AcDbEntity
  8
Ech.1_5
 62
   190
370
     9
100
AcDbLine
 10
1576.991544088512
 20
-3634.987543632342
 30
0.0
 11
1576.991544088512
 21
-3634.083654832324
 31
0.0
  0
LINE
  5
341
330
1F
100
AcDbEntity
  8
Ech.1_5
 62
   190
370
     9
100
AcDbLine
 10
1577.991544088512
 20
-3634.987543632342
 30
0.0
 11
1577.991544088512
 21
-3634.083654832324
 31
0.0
  0
LINE
  5
342
330
1F
100
AcDbEntity
  8
Ech.1_5
 62
   190
370
     9
100
AcDbLine
 10
1577.658210888296
 20
-3634.987543632342
 30
0.0
 11
1577.658210888296
 21
-3634.083654832324
 31
0.0
  0
LINE
  5
343
330
1F
100
AcDbEntity
  8
Ech.1_5
 62
   190
370
     9
100
AcDbLine
 10
1577.324877688079
 20
-3634.987543632342
 30
0.0
 11
1577.324877688079
 21
-3634.083654832324
 31
0.0
  0
LINE
  5
344
330
1F
100
AcDbEntity
  8
Ech.1_5
 62
   190
370
     9
100
AcDbLine
 10
1578.991544088512
 20
-3634.987543632342
 30
0.0
 11
1578.991544088512
 21
-3634.083654832324
 31
0.0
  0
LINE
  5
345
330
1F
100
AcDbEntity
  8
Ech.1_5
 62
   190
370
     9
100
AcDbLine
 10
1578.658210888296
 20
-3634.987543632342
 30
0.0
 11
1578.658210888296
 21
-3634.083654832324
 31
0.0
  0
LINE
  5
346
330
1F
100
AcDbEntity
  8
Ech.1_5
 62
   190
370
     9
100
AcDbLine
 10
1578.324877688079
 20
-3634.987543632342
 30
0.0
 11
1578.324877688079
 21
-3634.083654832324
 31
0.0
  0
LINE
  5
347
330
1F
100
AcDbEntity
  8
Ech.1_5
 62
   190
370
     9
100
AcDbLine
 10
1579.991544088512
 20
-3634.987543632342
 30
0.0
 11
1579.991544088512
 21
-3634.083654832324
 31
0.0
  0
LINE
  5
348
330
1F
100
AcDbEntity
  8
Ech.1_5
 62
   190
370
     9
100
AcDbLine
 10
1579.658210888296
 20
-3634.987543632342
 30
0.0
 11
1579.658210888296
 21
-3634.083654832324
 31
0.0
  0
LINE
  5
349
330
1F
100
AcDbEntity
  8
Ech.1_5
 62
   190
370
     9
100
AcDbLine
 10
1579.324877688079
 20
-3634.987543632342
 30
0.0
 11
1579.324877688079
 21
-3634.083654832324
 31
0.0
  0
LINE
  5
34A
330
1F
100
AcDbEntity
  8
Ech.1_5
 62
   190
370
     9
100
AcDbLine
 10
1580.991544088512
 20
-3634.987543632342
 30
0.0
 11
1580.991544088512
 21
-3634.083654832324
 31
0.0
  0
LINE
  5
34B
330
1F
100
AcDbEntity
  8
Ech.1_5
 62
   190
370
     9
100
AcDbLine
 10
1580.658210888296
 20
-3634.987543632342
 30
0.0
 11
1580.658210888296
 21
-3634.083654832324
 31
0.0
  0
LINE
  5
34C
330
1F
100
AcDbEntity
  8
Ech.1_5
 62
   190
370
     9
100
AcDbLine
 10
1580.324877688079
 20
-3634.987543632342
 30
0.0
 11
1580.324877688079
 21
-3634.083654832324
 31
0.0
  0
LINE
  5
34D
330
1F
100
AcDbEntity
  8
Ech.1_5
 62
   190
370
     9
100
AcDbLine
 10
1575.324877688079
 20
-3634.987543632342
 30
0.0
 11
1575.324877688079
 21
-3634.083654832324
 31
0.0
  0
LINE
  5
34E
330
1F
100
AcDbEntity
  8
Ech.1_5
 62
   190
370
     9
100
AcDbLine
 10
1575.658210888296
 20
-3634.987543632342
 30
0.0
 11
1575.658210888296
 21
-3634.083654832324
 31
0.0
  0
LINE
  5
34F
330
1F
100
AcDbEntity
  8
Ech.1_5
 62
   190
370
     9
100
AcDbLine
 10
1575.991544088512
 20
-3634.987543632342
 30
0.0
 11
1575.991544088512
 21
-3634.083654832324
 31
0.0
  0
LINE
  5
350
330
1F
100
AcDbEntity
  8
Ech.1_5
 62
   190
370
     9
100
AcDbLine
 10
1574.991544088512
 20
-3634.987543632342
 30
0.0
 11
1574.991544088512
 21
-3634.083654832324
 31
0.0
  0
LINE
  5
351
330
1F
100
AcDbEntity
  8
Ech.1_5
 62
   190
370
     9
100
AcDbLine
 10
1588.269322088034
 20
-3634.535599232344
 30
0.0
 11
1587.204511287481
 21
-3634.987543632342
 31
0.0
  0
ARC
  5
352
330
1F
100
AcDbEntity
  8
Ech.1_5
 62
   190
370
     9
100
AcDbCircle
 10
1587.768251683721
 20
-3634.535599232346
 30
0.0
 40
0.7225351986669323
100
AcDbArc
 50
141.2812399142123
 51
218.7187600857596
  0
LINE
  5
353
330
1F
100
AcDbEntity
  8
Ech.1_5
 62
   190
370
     9
100
AcDbLine
 10
1588.269322088034
 20
-3634.535599232344
 30
0.0
 11
1587.204511287481
 21
-3634.083654832324
 31
0.0
  0
HATCH
  5
354
330
1F
100
AcDbEntity
  8
Ech.1_5
 62
   252
440
 33554687
370
     5
100
AcDbHatch
 10
0.0
 20
0.0
 30
0.0
210
0.0
220
0.0
230
1.0
  2
SOLID
 70
     1
 71
     1
 91
        1
 92
        3
 72
     0
 73
     1
 93
        4
 10
1570.991544088512
 20
-3634.083654832326
 10
1571.324877688079
 20
-3634.083654832324
 10
1571.324877688079
 20
-3634.987543632342
 10
1570.991544088512
 20
-3634.987543632342
 97
        0
 75
     0
 76
     1
 98
        0
  0
LWPOLYLINE
  5
355
330
1F
100
AcDbEntity
  8
Ech.1_5
 62
     7
370
     9
100
AcDbPolyline
 90
        5
 70
     0
 43
0.0
 10
1570.991544088512
 20
-3634.083654832326
 10
1571.324877688079
 20
-3634.083654832324
 10
1571.324877688079
 20
-3634.987543632342
 10
1570.991544088512
 20
-3634.987543632342
 10
1570.991544088512
 20
-3634.083654832326
  0
HATCH
  5
356
330
1F
100
AcDbEntity
  8
Ech.1_5
 62
   252
440
 33554687
370
     5
100
AcDbHatch
 10
0.0
 20
0.0
 30
0.0
210
0.0
220
0.0
230
1.0
  2
SOLID
 70
     1
 71
     1
 91
        1
 92
        3
 72
     0
 73
     1
 93
        4
 10
1571.324877688079
 20
-3634.083654832324
 10
1571.658211287647
 20
-3634.083654832324
 10
1571.658211287647
 20
-3634.987543632342
 10
1571.324877688079
 20
-3634.987543632342
 97
        0
 75
     0
 76
     1
 98
        0
  0
LWPOLYLINE
  5
357
330
1F
100
AcDbEntity
  8
Ech.1_5
 62
     7
370
     9
100
AcDbPolyline
 90
        5
 70
     0
 43
0.0
 10
1571.324877688079
 20
-3634.083654832324
 10
1571.658211287647
 20
-3634.083654832324
 10
1571.658211287647
 20
-3634.987543632342
 10
1571.324877688079
 20
-3634.987543632342
 10
1571.324877688079
 20
-3634.083654832324
  0
HATCH
  5
358
330
1F
100
AcDbEntity
  8
Ech.1_5
 62
   252
440
 33554687
370
     5
100
AcDbHatch
 10
0.0
 20
0.0
 30
0.0
210
0.0
220
0.0
230
1.0
  2
SOLID
 70
     1
 71
     1
 91
        1
 92
        3
 72
     0
 73
     1
 93
        4
 10
1571.658211287647
 20
-3634.083654832324
 10
1571.991544887214
 20
-3634.083654832324
 10
1571.991544887214
 20
-3634.987543632342
 10
1571.658211287647
 20
-3634.987543632342
 97
        0
 75
     0
 76
     1
 98
        0
  0
LWPOLYLINE
  5
359
330
1F
100
AcDbEntity
  8
Ech.1_5
 62
     7
370
     9
100
AcDbPolyline
 90
        5
 70
     0
 43
0.0
 10
1571.658211287647
 20
-3634.083654832324
 10
1571.991544887214
 20
-3634.083654832324
 10
1571.991544887214
 20
-3634.987543632342
 10
1571.658211287647
 20
-3634.987543632342
 10
1571.658211287647
 20
-3634.083654832324
  0
HATCH
  5
35A
330
1F
100
AcDbEntity
  8
Ech.1_5
 62
   252
440
 33554687
370
     5
100
AcDbHatch
 10
0.0
 20
0.0
 30
0.0
210
0.0
220
0.0
230
1.0
  2
SOLID
 70
     1
 71
     1
 91
        1
 92
        3
 72
     0
 73
     1
 93
        4
 10
1571.991544887214
 20
-3634.083654832324
 10
1572.324878486781
 20
-3634.083654832324
 10
1572.324878486781
 20
-3634.987543632342
 10
1571.991544887214
 20
-3634.987543632342
 97
        0
 75
     0
 76
     1
 98
        0
  0
LWPOLYLINE
  5
35B
330
1F
100
AcDbEntity
  8
Ech.1_5
 62
     7
370
     9
100
AcDbPolyline
 90
        5
 70
     0
 43
0.0
 10
1571.991544887214
 20
-3634.083654832324
 10
1572.324878486781
 20
-3634.083654832324
 10
1572.324878486781
 20
-3634.987543632342
 10
1571.991544887214
 20
-3634.987543632342
 10
1571.991544887214
 20
-3634.083654832324
  0
HATCH
  5
35C
330
1F
100
AcDbEntity
  8
Ech.1_5
 62
   252
440
 33554687
370
     5
100
AcDbHatch
 10
0.0
 20
0.0
 30
0.0
210
0.0
220
0.0
230
1.0
  2
SOLID
 70
     1
 71
     1
 91
        1
 92
        3
 72
     0
 73
     1
 93
        4
 10
1572.324877688079
 20
-3634.083654832324
 10
1572.658211287647
 20
-3634.083654832324
 10
1572.658211287647
 20
-3634.987543632342
 10
1572.324877688079
 20
-3634.987543632342
 97
        0
 75
     0
 76
     1
 98
        0
  0
LWPOLYLINE
  5
35D
330
1F
100
AcDbEntity
  8
Ech.1_5
 62
     7
370
     9
100
AcDbPolyline
 90
        5
 70
     0
 43
0.0
 10
1572.324877688079
 20
-3634.083654832324
 10
1572.658211287647
 20
-3634.083654832324
 10
1572.658211287647
 20
-3634.987543632342
 10
1572.324877688079
 20
-3634.987543632342
 10
1572.324877688079
 20
-3634.083654832324
  0
HATCH
  5
35E
330
1F
100
AcDbEntity
  8
Ech.1_5
 62
   252
440
 33554687
370
     5
100
AcDbHatch
 10
0.0
 20
0.0
 30
0.0
210
0.0
220
0.0
230
1.0
  2
SOLID
 70
     1
 71
     1
 91
        1
 92
        3
 72
     0
 73
     1
 93
        4
 10
1572.658210888296
 20
-3634.083654832324
 10
1572.991544487864
 20
-3634.083654832324
 10
1572.991544487864
 20
-3634.987543632345
 10
1572.658210888296
 20
-3634.987543632342
 97
        0
 75
     0
 76
     1
 98
        0
  0
LWPOLYLINE
  5
35F
330
1F
100
AcDbEntity
  8
Ech.1_5
 62
     7
370
     9
100
AcDbPolyline
 90
        5
 70
     0
 43
0.0
 10
1572.658210888296
 20
-3634.083654832324
 10
1572.991544487864
 20
-3634.083654832324
 10
1572.991544487864
 20
-3634.987543632345
 10
1572.658210888296
 20
-3634.987543632342
 10
1572.658210888296
 20
-3634.083654832324
  0
HATCH
  5
360
330
1F
100
AcDbEntity
  8
Ech.1_5
 62
   252
440
 33554687
370
     5
100
AcDbHatch
 10
0.0
 20
0.0
 30
0.0
210
0.0
220
0.0
230
1.0
  2
SOLID
 70
     1
 71
     1
 91
        1
 92
        3
 72
     0
 73
     1
 93
        4
 10
1572.991544487864
 20
-3634.083654832324
 10
1573.32487808743
 20
-3634.083654832324
 10
1573.32487808743
 20
-3634.987543632342
 10
1572.991544487864
 20
-3634.987543632345
 97
        0
 75
     0
 76
     1
 98
        0
  0
LWPOLYLINE
  5
361
330
1F
100
AcDbEntity
  8
Ech.1_5
 62
     7
370
     9
100
AcDbPolyline
 90
        5
 70
     0
 43
0.0
 10
1572.991544487864
 20
-3634.083654832324
 10
1573.32487808743
 20
-3634.083654832324
 10
1573.32487808743
 20
-3634.987543632342
 10
1572.991544487864
 20
-3634.987543632345
 10
1572.991544487864
 20
-3634.083654832324
  0
HATCH
  5
362
330
1F
100
AcDbEntity
  8
Ech.1_5
 62
   252
440
 33554687
370
     5
100
AcDbHatch
 10
0.0
 20
0.0
 30
0.0
210
0.0
220
0.0
230
1.0
  2
SOLID
 70
     1
 71
     1
 91
        1
 92
        3
 72
     0
 73
     1
 93
        4
 10
1573.324877688079
 20
-3634.083654832324
 10
1573.658211287647
 20
-3634.083654832324
 10
1573.658211287647
 20
-3634.987543632342
 10
1573.324877688079
 20
-3634.987543632342
 97
        0
 75
     0
 76
     1
 98
        0
  0
LWPOLYLINE
  5
363
330
1F
100
AcDbEntity
  8
Ech.1_5
 62
     7
370
     9
100
AcDbPolyline
 90
        5
 70
     0
 43
0.0
 10
1573.324877688079
 20
-3634.083654832324
 10
1573.658211287647
 20
-3634.083654832324
 10
1573.658211287647
 20
-3634.987543632342
 10
1573.324877688079
 20
-3634.987543632342
 10
1573.324877688079
 20
-3634.083654832324
  0
HATCH
  5
364
330
1F
100
AcDbEntity
  8
Ech.1_5
 62
   252
440
 33554687
370
     5
100
AcDbHatch
 10
0.0
 20
0.0
 30
0.0
210
0.0
220
0.0
230
1.0
  2
SOLID
 70
     1
 71
     1
 91
        1
 92
        3
 72
     0
 73
     1
 93
        4
 10
1573.658211287647
 20
-3634.083654832324
 10
1573.991544887214
 20
-3634.083654832324
 10
1573.991544887214
 20
-3634.987543632342
 10
1573.658211287647
 20
-3634.987543632342
 97
        0
 75
     0
 76
     1
 98
        0
  0
LWPOLYLINE
  5
365
330
1F
100
AcDbEntity
  8
Ech.1_5
 62
     7
370
     9
100
AcDbPolyline
 90
        5
 70
     0
 43
0.0
 10
1573.658211287647
 20
-3634.083654832324
 10
1573.991544887214
 20
-3634.083654832324
 10
1573.991544887214
 20
-3634.987543632342
 10
1573.658211287647
 20
-3634.987543632342
 10
1573.658211287647
 20
-3634.083654832324
  0
HATCH
  5
366
330
1F
100
AcDbEntity
  8
Ech.1_5
 62
   252
440
 33554687
370
     5
100
AcDbHatch
 10
0.0
 20
0.0
 30
0.0
210
0.0
220
0.0
230
1.0
  2
SOLID
 70
     1
 71
     1
 91
        1
 92
        3
 72
     0
 73
     1
 93
        4
 10
1573.991544088512
 20
-3634.083654832324
 10
1574.324877688079
 20
-3634.083654832324
 10
1574.324877688079
 20
-3634.987543632342
 10
1573.991544088512
 20
-3634.987543632342
 97
        0
 75
     0
 76
     1
 98
        0
  0
LWPOLYLINE
  5
367
330
1F
100
AcDbEntity
  8
Ech.1_5
 62
     7
370
     9
100
AcDbPolyline
 90
        5
 70
     0
 43
0.0
 10
1573.991544088512
 20
-3634.083654832324
 10
1574.324877688079
 20
-3634.083654832324
 10
1574.324877688079
 20
-3634.987543632342
 10
1573.991544088512
 20
-3634.987543632342
 10
1573.991544088512
 20
-3634.083654832324
  0
HATCH
  5
368
330
1F
100
AcDbEntity
  8
Ech.1_5
 62
   252
440
 33554687
370
     5
100
AcDbHatch
 10
0.0
 20
0.0
 30
0.0
210
0.0
220
0.0
230
1.0
  2
SOLID
 70
     1
 71
     1
 91
        1
 92
        3
 72
     0
 73
     1
 93
        4
 10
1574.324877688079
 20
-3634.083654832324
 10
1574.658211287647
 20
-3634.083654832324
 10
1574.658211287647
 20
-3634.987543632342
 10
1574.324877688079
 20
-3634.987543632342
 97
        0
 75
     0
 76
     1
 98
        0
  0
LWPOLYLINE
  5
369
330
1F
100
AcDbEntity
  8
Ech.1_5
 62
     7
370
     9
100
AcDbPolyline
 90
        5
 70
     0
 43
0.0
 10
1574.324877688079
 20
-3634.083654832324
 10
1574.658211287647
 20
-3634.083654832324
 10
1574.658211287647
 20
-3634.987543632342
 10
1574.324877688079
 20
-3634.987543632342
 10
1574.324877688079
 20
-3634.083654832324
  0
HATCH
  5
36A
330
1F
100
AcDbEntity
  8
Ech.1_5
 62
   252
440
 33554687
370
     5
100
AcDbHatch
 10
0.0
 20
0.0
 30
0.0
210
0.0
220
0.0
230
1.0
  2
SOLID
 70
     1
 71
     1
 91
        1
 92
        3
 72
     0
 73
     1
 93
        4
 10
1574.658211287647
 20
-3634.083654832324
 10
1574.991544887214
 20
-3634.083654832324
 10
1574.991544887215
 20
-3634.987543632342
 10
1574.658211287647
 20
-3634.987543632342
 97
        0
 75
     0
 76
     1
 98
        0
  0
LWPOLYLINE
  5
36B
330
1F
100
AcDbEntity
  8
Ech.1_5
 62
     7
370
     9
100
AcDbPolyline
 90
        5
 70
     0
 43
0.0
 10
1574.658211287647
 20
-3634.083654832324
 10
1574.991544887214
 20
-3634.083654832324
 10
1574.991544887215
 20
-3634.987543632342
 10
1574.658211287647
 20
-3634.987543632342
 10
1574.658211287647
 20
-3634.083654832324
  0
HATCH
  5
36C
330
1F
100
AcDbEntity
  8
Ech.1_5
 62
   252
440
 33554687
370
     5
100
AcDbHatch
 10
0.0
 20
0.0
 30
0.0
210
0.0
220
0.0
230
1.0
  2
SOLID
 70
     1
 71
     1
 91
        1
 92
        3
 72
     0
 73
     1
 93
        4
 10
1574.991544887214
 20
-3634.083654832324
 10
1575.324878486781
 20
-3634.083654832324
 10
1575.324878486781
 20
-3634.987543632342
 10
1574.991544887215
 20
-3634.987543632342
 97
        0
 75
     0
 76
     1
 98
        0
  0
LWPOLYLINE
  5
36D
330
1F
100
AcDbEntity
  8
Ech.1_5
 62
     7
370
     9
100
AcDbPolyline
 90
        5
 70
     0
 43
0.0
 10
1574.991544887214
 20
-3634.083654832324
 10
1575.324878486781
 20
-3634.083654832324
 10
1575.324878486781
 20
-3634.987543632342
 10
1574.991544887215
 20
-3634.987543632342
 10
1574.991544887214
 20
-3634.083654832324
  0
HATCH
  5
36E
330
1F
100
AcDbEntity
  8
Ech.1_5
 62
   252
440
 33554687
370
     5
100
AcDbHatch
 10
0.0
 20
0.0
 30
0.0
210
0.0
220
0.0
230
1.0
  2
SOLID
 70
     1
 71
     1
 91
        1
 92
        3
 72
     0
 73
     1
 93
        4
 10
1575.324878486781
 20
-3634.083654832324
 10
1575.658212086349
 20
-3634.083654832324
 10
1575.658212086349
 20
-3634.987543632342
 10
1575.324878486781
 20
-3634.987543632342
 97
        0
 75
     0
 76
     1
 98
        0
  0
LWPOLYLINE
  5
36F
330
1F
100
AcDbEntity
  8
Ech.1_5
 62
     7
370
     9
100
AcDbPolyline
 90
        5
 70
     0
 43
0.0
 10
1575.324878486781
 20
-3634.083654832324
 10
1575.658212086349
 20
-3634.083654832324
 10
1575.658212086349
 20
-3634.987543632342
 10
1575.324878486781
 20
-3634.987543632342
 10
1575.324878486781
 20
-3634.083654832324
  0
HATCH
  5
370
330
1F
100
AcDbEntity
  8
Ech.1_5
 62
   252
440
 33554687
370
     5
100
AcDbHatch
 10
0.0
 20
0.0
 30
0.0
210
0.0
220
0.0
230
1.0
  2
SOLID
 70
     1
 71
     1
 91
        1
 92
        3
 72
     0
 73
     1
 93
        4
 10
1575.658211287647
 20
-3634.083654832324
 10
1575.991544887214
 20
-3634.083654832324
 10
1575.991544887214
 20
-3634.987543632342
 10
1575.658211287647
 20
-3634.987543632342
 97
        0
 75
     0
 76
     1
 98
        0
  0
LWPOLYLINE
  5
371
330
1F
100
AcDbEntity
  8
Ech.1_5
 62
     7
370
     9
100
AcDbPolyline
 90
        5
 70
     0
 43
0.0
 10
1575.658211287647
 20
-3634.083654832324
 10
1575.991544887214
 20
-3634.083654832324
 10
1575.991544887214
 20
-3634.987543632342
 10
1575.658211287647
 20
-3634.987543632342
 10
1575.658211287647
 20
-3634.083654832324
  0
HATCH
  5
372
330
1F
100
AcDbEntity
  8
Ech.1_5
 62
   252
440
 33554687
370
     5
100
AcDbHatch
 10
0.0
 20
0.0
 30
0.0
210
0.0
220
0.0
230
1.0
  2
SOLID
 70
     1
 71
     1
 91
        1
 92
        3
 72
     0
 73
     1
 93
        4
 10
1575.991544487863
 20
-3634.083654832324
 10
1576.32487808743
 20
-3634.083654832324
 10
1576.32487808743
 20
-3634.987543632342
 10
1575.991544487863
 20
-3634.987543632342
 97
        0
 75
     0
 76
     1
 98
        0
  0
LWPOLYLINE
  5
373
330
1F
100
AcDbEntity
  8
Ech.1_5
 62
     7
370
     9
100
AcDbPolyline
 90
        5
 70
     0
 43
0.0
 10
1575.991544487863
 20
-3634.083654832324
 10
1576.32487808743
 20
-3634.083654832324
 10
1576.32487808743
 20
-3634.987543632342
 10
1575.991544487863
 20
-3634.987543632342
 10
1575.991544487863
 20
-3634.083654832324
  0
HATCH
  5
374
330
1F
100
AcDbEntity
  8
Ech.1_5
 62
   252
440
 33554687
370
     5
100
AcDbHatch
 10
0.0
 20
0.0
 30
0.0
210
0.0
220
0.0
230
1.0
  2
SOLID
 70
     1
 71
     1
 91
        1
 92
        3
 72
     0
 73
     1
 93
        4
 10
1576.32487808743
 20
-3634.083654832324
 10
1576.658211686998
 20
-3634.083654832324
 10
1576.658211686998
 20
-3634.987543632342
 10
1576.32487808743
 20
-3634.987543632342
 97
        0
 75
     0
 76
     1
 98
        0
  0
LWPOLYLINE
  5
375
330
1F
100
AcDbEntity
  8
Ech.1_5
 62
     7
370
     9
100
AcDbPolyline
 90
        5
 70
     0
 43
0.0
 10
1576.32487808743
 20
-3634.083654832324
 10
1576.658211686998
 20
-3634.083654832324
 10
1576.658211686998
 20
-3634.987543632342
 10
1576.32487808743
 20
-3634.987543632342
 10
1576.32487808743
 20
-3634.083654832324
  0
HATCH
  5
376
330
1F
100
AcDbEntity
  8
Ech.1_5
 62
   252
440
 33554687
370
     5
100
AcDbHatch
 10
0.0
 20
0.0
 30
0.0
210
0.0
220
0.0
230
1.0
  2
SOLID
 70
     1
 71
     1
 91
        1
 92
        3
 72
     0
 73
     1
 93
        4
 10
1576.658211287647
 20
-3634.083654832324
 10
1576.991544887214
 20
-3634.083654832324
 10
1576.991544887214
 20
-3634.987543632342
 10
1576.658211287647
 20
-3634.987543632342
 97
        0
 75
     0
 76
     1
 98
        0
  0
LWPOLYLINE
  5
377
330
1F
100
AcDbEntity
  8
Ech.1_5
 62
     7
370
     9
100
AcDbPolyline
 90
        5
 70
     0
 43
0.0
 10
1576.658211287647
 20
-3634.083654832324
 10
1576.991544887214
 20
-3634.083654832324
 10
1576.991544887214
 20
-3634.987543632342
 10
1576.658211287647
 20
-3634.987543632342
 10
1576.658211287647
 20
-3634.083654832324
  0
HATCH
  5
378
330
1F
100
AcDbEntity
  8
Ech.1_5
 62
   252
440
 33554687
370
     5
100
AcDbHatch
 10
0.0
 20
0.0
 30
0.0
210
0.0
220
0.0
230
1.0
  2
SOLID
 70
     1
 71
     1
 91
        1
 92
        3
 72
     0
 73
     1
 93
        4
 10
1576.991544887214
 20
-3634.083654832324
 10
1577.324878486781
 20
-3634.083654832324
 10
1577.324878486781
 20
-3634.987543632342
 10
1576.991544887214
 20
-3634.987543632342
 97
        0
 75
     0
 76
     1
 98
        0
  0
LWPOLYLINE
  5
379
330
1F
100
AcDbEntity
  8
Ech.1_5
 62
     7
370
     9
100
AcDbPolyline
 90
        5
 70
     0
 43
0.0
 10
1576.991544887214
 20
-3634.083654832324
 10
1577.324878486781
 20
-3634.083654832324
 10
1577.324878486781
 20
-3634.987543632342
 10
1576.991544887214
 20
-3634.987543632342
 10
1576.991544887214
 20
-3634.083654832324
  0
HATCH
  5
37A
330
1F
100
AcDbEntity
  8
Ech.1_5
 62
   252
440
 33554687
370
     5
100
AcDbHatch
 10
0.0
 20
0.0
 30
0.0
210
0.0
220
0.0
230
1.0
  2
SOLID
 70
     1
 71
     1
 91
        1
 92
        3
 72
     0
 73
     1
 93
        4
 10
1577.324877688079
 20
-3634.083654832324
 10
1577.658211287647
 20
-3634.083654832324
 10
1577.658211287647
 20
-3634.987543632342
 10
1577.324877688079
 20
-3634.987543632342
 97
        0
 75
     0
 76
     1
 98
        0
  0
LWPOLYLINE
  5
37B
330
1F
100
AcDbEntity
  8
Ech.1_5
 62
     7
370
     9
100
AcDbPolyline
 90
        5
 70
     0
 43
0.0
 10
1577.324877688079
 20
-3634.083654832324
 10
1577.658211287647
 20
-3634.083654832324
 10
1577.658211287647
 20
-3634.987543632342
 10
1577.324877688079
 20
-3634.987543632342
 10
1577.324877688079
 20
-3634.083654832324
  0
HATCH
  5
37C
330
1F
100
AcDbEntity
  8
Ech.1_5
 62
   252
440
 33554687
370
     5
100
AcDbHatch
 10
0.0
 20
0.0
 30
0.0
210
0.0
220
0.0
230
1.0
  2
SOLID
 70
     1
 71
     1
 91
        1
 92
        3
 72
     0
 73
     1
 93
        4
 10
1577.658211287647
 20
-3634.083654832324
 10
1577.991544887214
 20
-3634.083654832324
 10
1577.991544887214
 20
-3634.987543632342
 10
1577.658211287647
 20
-3634.987543632342
 97
        0
 75
     0
 76
     1
 98
        0
  0
LWPOLYLINE
  5
37D
330
1F
100
AcDbEntity
  8
Ech.1_5
 62
     7
370
     9
100
AcDbPolyline
 90
        5
 70
     0
 43
0.0
 10
1577.658211287647
 20
-3634.083654832324
 10
1577.991544887214
 20
-3634.083654832324
 10
1577.991544887214
 20
-3634.987543632342
 10
1577.658211287647
 20
-3634.987543632342
 10
1577.658211287647
 20
-3634.083654832324
  0
HATCH
  5
37E
330
1F
100
AcDbEntity
  8
Ech.1_5
 62
   252
440
 33554687
370
     5
100
AcDbHatch
 10
0.0
 20
0.0
 30
0.0
210
0.0
220
0.0
230
1.0
  2
SOLID
 70
     1
 71
     1
 91
        1
 92
        3
 72
     0
 73
     1
 93
        4
 10
1577.991544887214
 20
-3634.083654832324
 10
1578.324878486781
 20
-3634.083654832324
 10
1578.324878486781
 20
-3634.987543632342
 10
1577.991544887214
 20
-3634.987543632342
 97
        0
 75
     0
 76
     1
 98
        0
  0
LWPOLYLINE
  5
37F
330
1F
100
AcDbEntity
  8
Ech.1_5
 62
     7
370
     9
100
AcDbPolyline
 90
        5
 70
     0
 43
0.0
 10
1577.991544887214
 20
-3634.083654832324
 10
1578.324878486781
 20
-3634.083654832324
 10
1578.324878486781
 20
-3634.987543632342
 10
1577.991544887214
 20
-3634.987543632342
 10
1577.991544887214
 20
-3634.083654832324
  0
HATCH
  5
380
330
1F
100
AcDbEntity
  8
Ech.1_5
 62
   252
440
 33554687
370
     5
100
AcDbHatch
 10
0.0
 20
0.0
 30
0.0
210
0.0
220
0.0
230
1.0
  2
SOLID
 70
     1
 71
     1
 91
        1
 92
        3
 72
     0
 73
     1
 93
        4
 10
1578.324878486781
 20
-3634.083654832324
 10
1578.65821208635
 20
-3634.083654832324
 10
1578.658212086349
 20
-3634.987543632342
 10
1578.324878486781
 20
-3634.987543632342
 97
        0
 75
     0
 76
     1
 98
        0
  0
LWPOLYLINE
  5
381
330
1F
100
AcDbEntity
  8
Ech.1_5
 62
     7
370
     9
100
AcDbPolyline
 90
        5
 70
     0
 43
0.0
 10
1578.324878486781
 20
-3634.083654832324
 10
1578.65821208635
 20
-3634.083654832324
 10
1578.658212086349
 20
-3634.987543632342
 10
1578.324878486781
 20
-3634.987543632342
 10
1578.324878486781
 20
-3634.083654832324
  0
HATCH
  5
382
330
1F
100
AcDbEntity
  8
Ech.1_5
 62
   252
440
 33554687
370
     5
100
AcDbHatch
 10
0.0
 20
0.0
 30
0.0
210
0.0
220
0.0
230
1.0
  2
SOLID
 70
     1
 71
     1
 91
        1
 92
        3
 72
     0
 73
     1
 93
        4
 10
1578.65821208635
 20
-3634.083654832324
 10
1578.991545685916
 20
-3634.083654832324
 10
1578.991545685916
 20
-3634.987543632342
 10
1578.658212086349
 20
-3634.987543632342
 97
        0
 75
     0
 76
     1
 98
        0
  0
LWPOLYLINE
  5
383
330
1F
100
AcDbEntity
  8
Ech.1_5
 62
     7
370
     9
100
AcDbPolyline
 90
        5
 70
     0
 43
0.0
 10
1578.65821208635
 20
-3634.083654832324
 10
1578.991545685916
 20
-3634.083654832324
 10
1578.991545685916
 20
-3634.987543632342
 10
1578.658212086349
 20
-3634.987543632342
 10
1578.65821208635
 20
-3634.083654832324
  0
HATCH
  5
384
330
1F
100
AcDbEntity
  8
Ech.1_5
 62
   252
440
 33554687
370
     5
100
AcDbHatch
 10
0.0
 20
0.0
 30
0.0
210
0.0
220
0.0
230
1.0
  2
SOLID
 70
     1
 71
     1
 91
        1
 92
        3
 72
     0
 73
     1
 93
        4
 10
1578.991544887214
 20
-3634.083654832324
 10
1579.324878486781
 20
-3634.083654832324
 10
1579.324878486781
 20
-3634.987543632342
 10
1578.991544887214
 20
-3634.987543632342
 97
        0
 75
     0
 76
     1
 98
        0
  0
LWPOLYLINE
  5
385
330
1F
100
AcDbEntity
  8
Ech.1_5
 62
     7
370
     9
100
AcDbPolyline
 90
        5
 70
     0
 43
0.0
 10
1578.991544887214
 20
-3634.083654832324
 10
1579.324878486781
 20
-3634.083654832324
 10
1579.324878486781
 20
-3634.987543632342
 10
1578.991544887214
 20
-3634.987543632342
 10
1578.991544887214
 20
-3634.083654832324
  0
HATCH
  5
386
330
1F
100
AcDbEntity
  8
Ech.1_5
 62
   252
440
 33554687
370
     5
100
AcDbHatch
 10
0.0
 20
0.0
 30
0.0
210
0.0
220
0.0
230
1.0
  2
SOLID
 70
     1
 71
     1
 91
        1
 92
        3
 72
     0
 73
     1
 93
        4
 10
1579.32487808743
 20
-3634.083654832324
 10
1579.658211686998
 20
-3634.083654832324
 10
1579.658211686998
 20
-3634.987543632342
 10
1579.32487808743
 20
-3634.987543632342
 97
        0
 75
     0
 76
     1
 98
        0
  0
LWPOLYLINE
  5
387
330
1F
100
AcDbEntity
  8
Ech.1_5
 62
     7
370
     9
100
AcDbPolyline
 90
        5
 70
     0
 43
0.0
 10
1579.32487808743
 20
-3634.083654832324
 10
1579.658211686998
 20
-3634.083654832324
 10
1579.658211686998
 20
-3634.987543632342
 10
1579.32487808743
 20
-3634.987543632342
 10
1579.32487808743
 20
-3634.083654832324
  0
HATCH
  5
388
330
1F
100
AcDbEntity
  8
Ech.1_5
 62
   252
440
 33554687
370
     5
100
AcDbHatch
 10
0.0
 20
0.0
 30
0.0
210
0.0
220
0.0
230
1.0
  2
SOLID
 70
     1
 71
     1
 91
        1
 92
        3
 72
     0
 73
     1
 93
        4
 10
1579.658211686998
 20
-3634.083654832324
 10
1579.991545286565
 20
-3634.083654832324
 10
1579.991545286565
 20
-3634.987543632342
 10
1579.658211686998
 20
-3634.987543632342
 97
        0
 75
     0
 76
     1
 98
        0
  0
LWPOLYLINE
  5
389
330
1F
100
AcDbEntity
  8
Ech.1_5
 62
     7
370
     9
100
AcDbPolyline
 90
        5
 70
     0
 43
0.0
 10
1579.658211686998
 20
-3634.083654832324
 10
1579.991545286565
 20
-3634.083654832324
 10
1579.991545286565
 20
-3634.987543632342
 10
1579.658211686998
 20
-3634.987543632342
 10
1579.658211686998
 20
-3634.083654832324
  0
HATCH
  5
38A
330
1F
100
AcDbEntity
  8
Ech.1_5
 62
   252
440
 33554687
370
     5
100
AcDbHatch
 10
0.0
 20
0.0
 30
0.0
210
0.0
220
0.0
230
1.0
  2
SOLID
 70
     1
 71
     1
 91
        1
 92
        3
 72
     0
 73
     1
 93
        4
 10
1579.991544887214
 20
-3634.083654832324
 10
1580.324878486781
 20
-3634.083654832324
 10
1580.324878486781
 20
-3634.987543632342
 10
1579.991544887214
 20
-3634.987543632342
 97
        0
 75
     0
 76
     1
 98
        0
  0
LWPOLYLINE
  5
38B
330
1F
100
AcDbEntity
  8
Ech.1_5
 62
     7
370
     9
100
AcDbPolyline
 90
        5
 70
     0
 43
0.0
 10
1579.991544887214
 20
-3634.083654832324
 10
1580.324878486781
 20
-3634.083654832324
 10
1580.324878486781
 20
-3634.987543632342
 10
1579.991544887214
 20
-3634.987543632342
 10
1579.991544887214
 20
-3634.083654832324
  0
HATCH
  5
38C
330
1F
100
AcDbEntity
  8
Ech.1_5
 62
   252
440
 33554687
370
     5
100
AcDbHatch
 10
0.0
 20
0.0
 30
0.0
210
0.0
220
0.0
230
1.0
  2
SOLID
 70
     1
 71
     1
 91
        1
 92
        3
 72
     0
 73
     1
 93
        4
 10
1580.324878486781
 20
-3634.083654832324
 10
1580.658212086349
 20
-3634.083654832324
 10
1580.658212086349
 20
-3634.987543632342
 10
1580.324878486781
 20
-3634.987543632342
 97
        0
 75
     0
 76
     1
 98
        0
  0
LWPOLYLINE
  5
38D
330
1F
100
AcDbEntity
  8
Ech.1_5
 62
     7
370
     9
100
AcDbPolyline
 90
        5
 70
     0
 43
0.0
 10
1580.324878486781
 20
-3634.083654832324
 10
1580.658212086349
 20
-3634.083654832324
 10
1580.658212086349
 20
-3634.987543632342
 10
1580.324878486781
 20
-3634.987543632342
 10
1580.324878486781
 20
-3634.083654832324
  0
HATCH
  5
38E
330
1F
100
AcDbEntity
  8
Ech.1_5
 62
   252
440
 33554687
370
     5
100
AcDbHatch
 10
0.0
 20
0.0
 30
0.0
210
0.0
220
0.0
230
1.0
  2
SOLID
 70
     1
 71
     1
 91
        1
 92
        3
 72
     0
 73
     1
 93
        4
 10
1580.658211287647
 20
-3634.083654832324
 10
1580.991544887214
 20
-3634.083654832324
 10
1580.991544887214
 20
-3634.987543632342
 10
1580.658211287647
 20
-3634.987543632342
 97
        0
 75
     0
 76
     1
 98
        0
  0
LWPOLYLINE
  5
38F
330
1F
100
AcDbEntity
  8
Ech.1_5
 62
     7
370
     9
100
AcDbPolyline
 90
        5
 70
     0
 43
0.0
 10
1580.658211287647
 20
-3634.083654832324
 10
1580.991544887214
 20
-3634.083654832324
 10
1580.991544887214
 20
-3634.987543632342
 10
1580.658211287647
 20
-3634.987543632342
 10
1580.658211287647
 20
-3634.083654832324
  0
HATCH
  5
390
330
1F
100
AcDbEntity
  8
Ech.1_5
 62
   252
440
 33554687
370
     5
100
AcDbHatch
 10
0.0
 20
0.0
 30
0.0
210
0.0
220
0.0
230
1.0
  2
SOLID
 70
     1
 71
     1
 91
        1
 92
        3
 72
     0
 73
     1
 93
        4
 10
1580.991544088512
 20
-3634.083654832324
 10
1581.324877688079
 20
-3634.083654832324
 10
1581.324877688079
 20
-3634.987543632342
 10
1580.991544088512
 20
-3634.987543632342
 97
        0
 75
     0
 76
     1
 98
        0
  0
LWPOLYLINE
  5
391
330
1F
100
AcDbEntity
  8
Ech.1_5
 62
     7
370
     9
100
AcDbPolyline
 90
        5
 70
     0
 43
0.0
 10
1580.991544088512
 20
-3634.083654832324
 10
1581.324877688079
 20
-3634.083654832324
 10
1581.324877688079
 20
-3634.987543632342
 10
1580.991544088512
 20
-3634.987543632342
 10
1580.991544088512
 20
-3634.083654832324
  0
HATCH
  5
392
330
1F
100
AcDbEntity
  8
Ech.1_5
 62
   252
440
 33554687
370
     5
100
AcDbHatch
 10
0.0
 20
0.0
 30
0.0
210
0.0
220
0.0
230
1.0
  2
SOLID
 70
     1
 71
     1
 91
        1
 92
        3
 72
     0
 73
     1
 93
        4
 10
1581.324877688079
 20
-3634.083654832324
 10
1581.658211287647
 20
-3634.083654832324
 10
1581.658211287647
 20
-3634.987543632342
 10
1581.324877688079
 20
-3634.987543632342
 97
        0
 75
     0
 76
     1
 98
        0
  0
LWPOLYLINE
  5
393
330
1F
100
AcDbEntity
  8
Ech.1_5
 62
     7
370
     9
100
AcDbPolyline
 90
        5
 70
     0
 43
0.0
 10
1581.324877688079
 20
-3634.083654832324
 10
1581.658211287647
 20
-3634.083654832324
 10
1581.658211287647
 20
-3634.987543632342
 10
1581.324877688079
 20
-3634.987543632342
 10
1581.324877688079
 20
-3634.083654832324
  0
HATCH
  5
394
330
1F
100
AcDbEntity
  8
Ech.1_5
 62
   252
440
 33554687
370
     5
100
AcDbHatch
 10
0.0
 20
0.0
 30
0.0
210
0.0
220
0.0
230
1.0
  2
SOLID
 70
     1
 71
     1
 91
        1
 92
        3
 72
     0
 73
     1
 93
        4
 10
1581.658211287647
 20
-3634.083654832324
 10
1581.991544887214
 20
-3634.083654832324
 10
1581.991544887214
 20
-3634.987543632342
 10
1581.658211287647
 20
-3634.987543632342
 97
        0
 75
     0
 76
     1
 98
        0
  0
LWPOLYLINE
  5
395
330
1F
100
AcDbEntity
  8
Ech.1_5
 62
     7
370
     9
100
AcDbPolyline
 90
        5
 70
     0
 43
0.0
 10
1581.658211287647
 20
-3634.083654832324
 10
1581.991544887214
 20
-3634.083654832324
 10
1581.991544887214
 20
-3634.987543632342
 10
1581.658211287647
 20
-3634.987543632342
 10
1581.658211287647
 20
-3634.083654832324
  0
HATCH
  5
396
330
1F
100
AcDbEntity
  8
Ech.1_5
 62
   252
440
 33554687
370
     5
100
AcDbHatch
 10
0.0
 20
0.0
 30
0.0
210
0.0
220
0.0
230
1.0
  2
SOLID
 70
     1
 71
     1
 91
        1
 92
        3
 72
     0
 73
     1
 93
        4
 10
1581.991544887214
 20
-3634.083654832324
 10
1582.324878486781
 20
-3634.083654832324
 10
1582.324878486781
 20
-3634.987543632342
 10
1581.991544887214
 20
-3634.987543632342
 97
        0
 75
     0
 76
     1
 98
        0
  0
LWPOLYLINE
  5
397
330
1F
100
AcDbEntity
  8
Ech.1_5
 62
     7
370
     9
100
AcDbPolyline
 90
        5
 70
     0
 43
0.0
 10
1581.991544887214
 20
-3634.083654832324
 10
1582.324878486781
 20
-3634.083654832324
 10
1582.324878486781
 20
-3634.987543632342
 10
1581.991544887214
 20
-3634.987543632342
 10
1581.991544887214
 20
-3634.083654832324
  0
HATCH
  5
398
330
1F
100
AcDbEntity
  8
Ech.1_5
 62
   252
440
 33554687
370
     5
100
AcDbHatch
 10
0.0
 20
0.0
 30
0.0
210
0.0
220
0.0
230
1.0
  2
SOLID
 70
     1
 71
     1
 91
        1
 92
        3
 72
     0
 73
     1
 93
        4
 10
1582.324877688079
 20
-3634.083654832324
 10
1582.658211287647
 20
-3634.083654832324
 10
1582.658211287647
 20
-3634.987543632342
 10
1582.324877688079
 20
-3634.987543632342
 97
        0
 75
     0
 76
     1
 98
        0
  0
LWPOLYLINE
  5
399
330
1F
100
AcDbEntity
  8
Ech.1_5
 62
     7
370
     9
100
AcDbPolyline
 90
        5
 70
     0
 43
0.0
 10
1582.324877688079
 20
-3634.083654832324
 10
1582.658211287647
 20
-3634.083654832324
 10
1582.658211287647
 20
-3634.987543632342
 10
1582.324877688079
 20
-3634.987543632342
 10
1582.324877688079
 20
-3634.083654832324
  0
HATCH
  5
39A
330
1F
100
AcDbEntity
  8
Ech.1_5
 62
   252
440
 33554687
370
     5
100
AcDbHatch
 10
0.0
 20
0.0
 30
0.0
210
0.0
220
0.0
230
1.0
  2
SOLID
 70
     1
 71
     1
 91
        1
 92
        3
 72
     0
 73
     1
 93
        4
 10
1582.658210888296
 20
-3634.083654832324
 10
1582.991544487863
 20
-3634.083654832324
 10
1582.991544487863
 20
-3634.987543632342
 10
1582.658210888296
 20
-3634.987543632342
 97
        0
 75
     0
 76
     1
 98
        0
  0
LWPOLYLINE
  5
39B
330
1F
100
AcDbEntity
  8
Ech.1_5
 62
     7
370
     9
100
AcDbPolyline
 90
        5
 70
     0
 43
0.0
 10
1582.658210888296
 20
-3634.083654832324
 10
1582.991544487863
 20
-3634.083654832324
 10
1582.991544487863
 20
-3634.987543632342
 10
1582.658210888296
 20
-3634.987543632342
 10
1582.658210888296
 20
-3634.083654832324
  0
HATCH
  5
39C
330
1F
100
AcDbEntity
  8
Ech.1_5
 62
   252
440
 33554687
370
     5
100
AcDbHatch
 10
0.0
 20
0.0
 30
0.0
210
0.0
220
0.0
230
1.0
  2
SOLID
 70
     1
 71
     1
 91
        1
 92
        3
 72
     0
 73
     1
 93
        4
 10
1582.991544487863
 20
-3634.083654832324
 10
1583.32487808743
 20
-3634.083654832324
 10
1583.32487808743
 20
-3634.987543632342
 10
1582.991544487863
 20
-3634.987543632342
 97
        0
 75
     0
 76
     1
 98
        0
  0
LWPOLYLINE
  5
39D
330
1F
100
AcDbEntity
  8
Ech.1_5
 62
     7
370
     9
100
AcDbPolyline
 90
        5
 70
     0
 43
0.0
 10
1582.991544487863
 20
-3634.083654832324
 10
1583.32487808743
 20
-3634.083654832324
 10
1583.32487808743
 20
-3634.987543632342
 10
1582.991544487863
 20
-3634.987543632342
 10
1582.991544487863
 20
-3634.083654832324
  0
HATCH
  5
39E
330
1F
100
AcDbEntity
  8
Ech.1_5
 62
   252
440
 33554687
370
     5
100
AcDbHatch
 10
0.0
 20
0.0
 30
0.0
210
0.0
220
0.0
230
1.0
  2
SOLID
 70
     1
 71
     1
 91
        1
 92
        3
 72
     0
 73
     1
 93
        4
 10
1583.324877688079
 20
-3634.083654832324
 10
1583.658211287647
 20
-3634.083654832324
 10
1583.658211287647
 20
-3634.987543632342
 10
1583.324877688079
 20
-3634.987543632342
 97
        0
 75
     0
 76
     1
 98
        0
  0
LWPOLYLINE
  5
39F
330
1F
100
AcDbEntity
  8
Ech.1_5
 62
     7
370
     9
100
AcDbPolyline
 90
        5
 70
     0
 43
0.0
 10
1583.324877688079
 20
-3634.083654832324
 10
1583.658211287647
 20
-3634.083654832324
 10
1583.658211287647
 20
-3634.987543632342
 10
1583.324877688079
 20
-3634.987543632342
 10
1583.324877688079
 20
-3634.083654832324
  0
HATCH
  5
3A0
330
1F
100
AcDbEntity
  8
Ech.1_5
 62
   252
440
 33554687
370
     5
100
AcDbHatch
 10
0.0
 20
0.0
 30
0.0
210
0.0
220
0.0
230
1.0
  2
SOLID
 70
     1
 71
     1
 91
        1
 92
        3
 72
     0
 73
     1
 93
        4
 10
1583.658211287647
 20
-3634.083654832324
 10
1583.991544887214
 20
-3634.083654832324
 10
1583.991544887214
 20
-3634.987543632342
 10
1583.658211287647
 20
-3634.987543632342
 97
        0
 75
     0
 76
     1
 98
        0
  0
LWPOLYLINE
  5
3A1
330
1F
100
AcDbEntity
  8
Ech.1_5
 62
     7
370
     9
100
AcDbPolyline
 90
        5
 70
     0
 43
0.0
 10
1583.658211287647
 20
-3634.083654832324
 10
1583.991544887214
 20
-3634.083654832324
 10
1583.991544887214
 20
-3634.987543632342
 10
1583.658211287647
 20
-3634.987543632342
 10
1583.658211287647
 20
-3634.083654832324
  0
HATCH
  5
3A2
330
1F
100
AcDbEntity
  8
Ech.1_5
 62
   252
440
 33554687
370
     5
100
AcDbHatch
 10
0.0
 20
0.0
 30
0.0
210
0.0
220
0.0
230
1.0
  2
SOLID
 70
     1
 71
     1
 91
        1
 92
        3
 72
     0
 73
     1
 93
        4
 10
1583.991544088512
 20
-3634.083654832324
 10
1584.324877688079
 20
-3634.083654832324
 10
1584.324877688079
 20
-3634.987543632342
 10
1583.991544088512
 20
-3634.987543632342
 97
        0
 75
     0
 76
     1
 98
        0
  0
LWPOLYLINE
  5
3A3
330
1F
100
AcDbEntity
  8
Ech.1_5
 62
     7
370
     9
100
AcDbPolyline
 90
        5
 70
     0
 43
0.0
 10
1583.991544088512
 20
-3634.083654832324
 10
1584.324877688079
 20
-3634.083654832324
 10
1584.324877688079
 20
-3634.987543632342
 10
1583.991544088512
 20
-3634.987543632342
 10
1583.991544088512
 20
-3634.083654832324
  0
HATCH
  5
3A4
330
1F
100
AcDbEntity
  8
Ech.1_5
 62
   252
440
 33554687
370
     5
100
AcDbHatch
 10
0.0
 20
0.0
 30
0.0
210
0.0
220
0.0
230
1.0
  2
SOLID
 70
     1
 71
     1
 91
        1
 92
        3
 72
     0
 73
     1
 93
        4
 10
1584.324877688079
 20
-3634.083654832324
 10
1584.658211287647
 20
-3634.083654832324
 10
1584.658211287647
 20
-3634.987543632342
 10
1584.324877688079
 20
-3634.987543632342
 97
        0
 75
     0
 76
     1
 98
        0
  0
LWPOLYLINE
  5
3A5
330
1F
100
AcDbEntity
  8
Ech.1_5
 62
     7
370
     9
100
AcDbPolyline
 90
        5
 70
     0
 43
0.0
 10
1584.324877688079
 20
-3634.083654832324
 10
1584.658211287647
 20
-3634.083654832324
 10
1584.658211287647
 20
-3634.987543632342
 10
1584.324877688079
 20
-3634.987543632342
 10
1584.324877688079
 20
-3634.083654832324
  0
HATCH
  5
3A6
330
1F
100
AcDbEntity
  8
Ech.1_5
 62
   252
440
 33554687
370
     5
100
AcDbHatch
 10
0.0
 20
0.0
 30
0.0
210
0.0
220
0.0
230
1.0
  2
SOLID
 70
     1
 71
     1
 91
        1
 92
        3
 72
     0
 73
     1
 93
        4
 10
1584.658211287647
 20
-3634.083654832324
 10
1584.991544887214
 20
-3634.083654832324
 10
1584.991544887214
 20
-3634.987543632342
 10
1584.658211287647
 20
-3634.987543632342
 97
        0
 75
     0
 76
     1
 98
        0
  0
LWPOLYLINE
  5
3A7
330
1F
100
AcDbEntity
  8
Ech.1_5
 62
     7
370
     9
100
AcDbPolyline
 90
        5
 70
     0
 43
0.0
 10
1584.658211287647
 20
-3634.083654832324
 10
1584.991544887214
 20
-3634.083654832324
 10
1584.991544887214
 20
-3634.987543632342
 10
1584.658211287647
 20
-3634.987543632342
 10
1584.658211287647
 20
-3634.083654832324
  0
HATCH
  5
3A8
330
1F
100
AcDbEntity
  8
Ech.1_5
 62
   252
440
 33554687
370
     5
100
AcDbHatch
 10
0.0
 20
0.0
 30
0.0
210
0.0
220
0.0
230
1.0
  2
SOLID
 70
     1
 71
     1
 91
        1
 92
        3
 72
     0
 73
     1
 93
        4
 10
1584.991544887214
 20
-3634.083654832324
 10
1585.324878486781
 20
-3634.083654832324
 10
1585.324878486781
 20
-3634.987543632342
 10
1584.991544887214
 20
-3634.987543632342
 97
        0
 75
     0
 76
     1
 98
        0
  0
LWPOLYLINE
  5
3A9
330
1F
100
AcDbEntity
  8
Ech.1_5
 62
     7
370
     9
100
AcDbPolyline
 90
        5
 70
     0
 43
0.0
 10
1584.991544887214
 20
-3634.083654832324
 10
1585.324878486781
 20
-3634.083654832324
 10
1585.324878486781
 20
-3634.987543632342
 10
1584.991544887214
 20
-3634.987543632342
 10
1584.991544887214
 20
-3634.083654832324
  0
HATCH
  5
3AA
330
1F
100
AcDbEntity
  8
Ech.1_5
 62
   252
440
 33554687
370
     5
100
AcDbHatch
 10
0.0
 20
0.0
 30
0.0
210
0.0
220
0.0
230
1.0
  2
SOLID
 70
     1
 71
     1
 91
        1
 92
        3
 72
     1
 73
     1
 93
        4
 10
1587.204511287481
 20
-3634.987543632342
 42
0.0
 10
1586.658210488944
 20
-3634.987543632342
 42
0.0
 10
1586.658210488944
 20
-3634.083654832324
 42
0.0
 10
1587.204511287481
 20
-3634.083654832324
 42
0.3513591548521035
 97
        0
 75
     0
 76
     1
 98
        0
  0
LWPOLYLINE
  5
3AB
330
1F
100
AcDbEntity
  8
Ech.1_5
 62
     7
370
     9
100
AcDbPolyline
 90
        5
 70
     0
 43
0.0
 10
1587.204511287481
 20
-3634.987543632342
 10
1586.658210488944
 20
-3634.987543632342
 10
1586.658210488944
 20
-3634.083654832324
 10
1587.204511287481
 20
-3634.083654832324
 42
0.3513591548518972
 10
1587.204511287481
 20
-3634.987543632342
  0
HATCH
  5
3AC
330
1F
100
AcDbEntity
  8
Ech.1_5
 62
   252
440
 33554687
370
     5
100
AcDbHatch
 10
0.0
 20
0.0
 30
0.0
210
0.0
220
0.0
230
1.0
  2
SOLID
 70
     1
 71
     1
 91
        1
 92
        3
 72
     1
 73
     1
 93
        3
 10
1588.269322088034
 20
-3634.535599232344
 42
0.0
 10
1587.204511287481
 20
-3634.987543632342
 42
-0.3513591548519267
 10
1587.204511287481
 20
-3634.083654832324
 42
0.0
 97
        0
 75
     0
 76
     1
 98
        0
  0
LWPOLYLINE
  5
3AD
330
1F
100
AcDbEntity
  8
Ech.1_5
 62
     7
370
     9
100
AcDbPolyline
 90
        4
 70
     0
 43
0.0
 10
1588.269322088034
 20
-3634.535599232344
 10
1587.204511287481
 20
-3634.987543632342
 42
-0.3513591548518956
 10
1587.204511287481
 20
-3634.083654832324
 10
1588.269322088034
 20
-3634.535599232344
  0
HATCH
  5
3AE
330
1F
100
AcDbEntity
  8
Ech.1_5
 62
   252
440
 33554687
370
     5
100
AcDbHatch
 10
0.0
 20
0.0
 30
0.0
210
0.0
220
0.0
230
1.0
  2
SOLID
 70
     1
 71
     1
 91
        1
 92
        3
 72
     1
 73
     1
 93
        6
 10
1570.991544088512
 20
-3634.083654832326
 42
0.0
 10
1570.291544487745
 20
-3634.083654832324
 42
-0.4142135727498601
 10
1570.069322088033
 20
-3633.861432432333
 42
0.0
 10
1570.069322088033
 20
-3635.209766032359
 42
-0.4142135726669576
 10
1570.291544487745
 20
-3634.987543632342
 42
0.0
 10
1570.991544088512
 20
-3634.987543632342
 42
0.0
 97
        0
 75
     0
 76
     1
 98
        0
  0
LWPOLYLINE
  5
3AF
330
1F
100
AcDbEntity
  8
Ech.1_5
 62
     7
370
     9
100
AcDbPolyline
 90
        7
 70
     0
 43
0.0
 10
1570.991544088512
 20
-3634.083654832326
 10
1570.291544487745
 20
-3634.083654832324
 42
-0.4142135727497837
 10
1570.069322088033
 20
-3633.861432432333
 10
1570.069322088033
 20
-3635.209766032359
 42
-0.414213572666436
 10
1570.291544487745
 20
-3634.987543632342
 10
1570.991544088512
 20
-3634.987543632342
 10
1570.991544088512
 20
-3634.083654832326
  0
HATCH
  5
3B0
330
1F
100
AcDbEntity
  8
Ech.1_5
 62
   252
440
 33554687
370
     5
100
AcDbHatch
 10
0.0
 20
0.0
 30
0.0
210
0.0
220
0.0
230
1.0
  2
SOLID
 70
     1
 71
     1
 91
        1
 92
        1
 93
        2
 72
     1
 10
1569.947100087673
 20
-3633.528099221779
 11
1569.947100087673
 21
-3635.543099242887
 72
     2
 10
1574.972381444002
 20
-3634.535599232333
 40
5.125281356329573
 50
168.6632793503046
 51
191.3367206496955
 73
     0
 97
        0
 75
     0
 76
     1
 98
        0
  0
LWPOLYLINE
  5
3B1
330
1F
100
AcDbEntity
  8
Ech.1_5
 62
     7
370
     9
100
AcDbPolyline
 90
        3
 70
     0
 43
0.0
 10
1569.947100087673
 20
-3633.528099221779
 10
1569.947100087673
 20
-3635.543099242887
 42
-0.0992555820868614
 10
1569.947100087673
 20
-3633.528099221779
  0
HATCH
  5
3B2
330
1F
100
AcDbEntity
  8
Ech.1_5
 62
   252
440
 33554687
370
     5
100
AcDbHatch
 10
0.0
 20
0.0
 30
0.0
210
0.0
220
0.0
230
1.0
  2
SOLID
 70
     1
 71
     1
 91
        1
 92
        3
 72
     0
 73
     1
 93
        6
 10
1570.069322088033
 20
-3633.528099232349
 10
1570.069322088033
 20
-3633.861432432333
 10
1570.069322088033
 20
-3635.209766032359
 10
1570.069322088034
 20
-3635.54309923234
 10
1569.947100087673
 20
-3635.543099242887
 10
1569.947100087673
 20
-3633.528099221779
 97
        0
 75
     0
 76
     1
 98
        0
  0
LWPOLYLINE
  5
3B3
330
1F
100
AcDbEntity
  8
Ech.1_5
 62
     7
370
     9
100
AcDbPolyline
 90
        7
 70
     0
 43
0.0
 10
1570.069322088033
 20
-3633.528099232349
 10
1570.069322088033
 20
-3633.861432432333
 10
1570.069322088033
 20
-3635.209766032359
 10
1570.069322088034
 20
-3635.54309923234
 10
1569.947100087673
 20
-3635.543099242887
 10
1569.947100087673
 20
-3633.528099221779
 10
1570.069322088033
 20
-3633.528099232349
  0
HATCH
  5
3B4
330
1F
100
AcDbEntity
  8
Ech.1_5
 62
   252
440
 33554687
370
     5
100
AcDbHatch
 10
0.0
 20
0.0
 30
0.0
210
0.0
220
0.0
230
1.0
  2
SOLID
 70
     1
 71
     1
 91
        1
 92
        3
 72
     0
 73
     1
 93
        4
 10
1585.324878486781
 20
-3634.083654832324
 10
1585.658212086349
 20
-3634.083654832324
 10
1585.658212086349
 20
-3634.987543632342
 10
1585.324878486781
 20
-3634.987543632342
 97
        0
 75
     0
 76
     1
 98
        0
  0
LWPOLYLINE
  5
3B5
330
1F
100
AcDbEntity
  8
Ech.1_5
 62
     7
370
     9
100
AcDbPolyline
 90
        5
 70
     0
 43
0.0
 10
1585.324878486781
 20
-3634.083654832324
 10
1585.658212086349
 20
-3634.083654832324
 10
1585.658212086349
 20
-3634.987543632342
 10
1585.324878486781
 20
-3634.987543632342
 10
1585.324878486781
 20
-3634.083654832324
  0
LINE
  5
3B6
330
1F
100
AcDbEntity
  8
Ech.1_5
 62
   190
370
     9
100
AcDbLine
 10
1585.991544088512
 20
-3634.987543632342
 30
0.0
 11
1585.991544088512
 21
-3634.083654832324
 31
0.0
  0
LINE
  5
3B7
330
1F
100
AcDbEntity
  8
Ech.1_5
 62
   190
370
     9
100
AcDbLine
 10
1586.324877688079
 20
-3634.987543632342
 30
0.0
 11
1586.324877688079
 21
-3634.083654832324
 31
0.0
  0
LINE
  5
3B8
330
1F
100
AcDbEntity
  8
Ech.1_5
 62
   190
370
     9
100
AcDbLine
 10
1586.658210488944
 20
-3634.987543632342
 30
0.0
 11
1586.658210488944
 21
-3634.083654832324
 31
0.0
  0
LINE
  5
3B9
330
1F
100
AcDbEntity
  8
Ech.1_5
 62
   190
370
     9
100
AcDbLine
 10
1585.658211287647
 20
-3634.987543632342
 30
0.0
 11
1585.658211287647
 21
-3634.083654832324
 31
0.0
  0
HATCH
  5
3BA
330
1F
100
AcDbEntity
  8
Ech.1_5
 62
   252
440
 33554687
370
     5
100
AcDbHatch
 10
0.0
 20
0.0
 30
0.0
210
0.0
220
0.0
230
1.0
  2
SOLID
 70
     1
 71
     1
 91
        1
 92
        3
 72
     0
 73
     1
 93
        4
 10
1585.658210488944
 20
-3634.083654832324
 10
1585.991544088512
 20
-3634.083654832324
 10
1585.991544088512
 20
-3634.987543632342
 10
1585.658210488944
 20
-3634.987543632342
 97
        0
 75
     0
 76
     1
 98
        0
  0
LWPOLYLINE
  5
3BB
330
1F
100
AcDbEntity
  8
Ech.1_5
 62
     7
370
     9
100
AcDbPolyline
 90
        5
 70
     0
 43
0.0
 10
1585.658210488944
 20
-3634.083654832324
 10
1585.991544088512
 20
-3634.083654832324
 10
1585.991544088512
 20
-3634.987543632342
 10
1585.658210488944
 20
-3634.987543632342
 10
1585.658210488944
 20
-3634.083654832324
  0
HATCH
  5
3BC
330
1F
100
AcDbEntity
  8
Ech.1_5
 62
   252
440
 33554687
370
     5
100
AcDbHatch
 10
0.0
 20
0.0
 30
0.0
210
0.0
220
0.0
230
1.0
  2
SOLID
 70
     1
 71
     1
 91
        1
 92
        3
 72
     0
 73
     1
 93
        4
 10
1586.324876889377
 20
-3634.083654832324
 10
1586.658210488944
 20
-3634.083654832324
 10
1586.658210488944
 20
-3634.987543632342
 10
1586.324876889377
 20
-3634.987543632342
 97
        0
 75
     0
 76
     1
 98
        0
  0
LWPOLYLINE
  5
3BD
330
1F
100
AcDbEntity
  8
Ech.1_5
 62
     7
370
     9
100
AcDbPolyline
 90
        5
 70
     0
 43
0.0
 10
1586.324876889377
 20
-3634.083654832324
 10
1586.658210488944
 20
-3634.083654832324
 10
1586.658210488944
 20
-3634.987543632342
 10
1586.324876889377
 20
-3634.987543632342
 10
1586.324876889377
 20
-3634.083654832324
  0
LWPOLYLINE
  5
3BE
330
1F
100
AcDbEntity
  8
Ech.1_5
 62
   190
370
    20
100
AcDbPolyline
 90
        3
 70
     0
 43
0.0
 10
1637.73718192591
 20
-3515.707543420269
 10
1558.887378306549
 20
-3515.707543420269
 10
1550.887378306549
 20
-3515.707543420269
  0
INSERT
  5
3BF
330
1F
100
AcDbEntity
  8
Ech.1_5
 62
   190
370
    20
100
AcDbBlockReference
  2
cw-line-extremity4
 10
1637.73718192591
 20
-3515.707543420269
 30
0.0
 50
180.0
  0
LWPOLYLINE
  5
3C0
330
1F
100
AcDbEntity
  8
Ech.1_5
 62
   190
370
    20
100
AcDbPolyline
 90
        3
 70
     0
 43
0.0
 10
1574.28471670919
 20
-3547.061207936556
 10
1558.887378306549
 20
-3547.061207936556
 10
1550.887378306549
 20
-3547.061207936556
  0
INSERT
  5
3C1
330
1F
100
AcDbEntity
  8
Ech.1_5
 62
   190
370
    20
100
AcDbBlockReference
  2
cw-line-extremity4
 10
1574.28471670919
 20
-3547.061207936556
 30
0.0
 50
180.0
  0
LWPOLYLINE
  5
3C2
330
1F
100
AcDbEntity
  8
Ech.1_5
 62
   190
370
    20
100
AcDbPolyline
 90
        3
 70
     0
 43
0.0
 10
1594.904365224536
 20
-3491.540421609896
 10
1558.887378306549
 20
-3491.540421609896
 10
1550.887378306549
 20
-3491.540421609896
  0
INSERT
  5
3C3
330
1F
100
AcDbEntity
  8
Ech.1_5
 62
   190
370
    20
100
AcDbBlockReference
  2
cw-line-extremity4
 10
1594.904365224536
 20
-3491.540421609896
 30
0.0
 50
180.0
  0
HATCH
  5
3C4
330
1F
100
AcDbEntity
  8
Ech.1_5
 62
    33
420
 12426362
440
 33554687
370
    20
100
AcDbHatch
 10
0.0
 20
0.0
 30
0.0
210
0.0
220
0.0
230
1.0
  2
SOLID
 70
     1
 71
     1
 91
        1
 92
        3
 72
     0
 73
     1
 93
        4
 10
1589.901504499653
 20
-3641.405999628741
 10
1599.915124948353
 20
-3641.405999628741
 10
1599.912937753195
 20
-3597.805999247272
 10
1589.901504499653
 20
-3597.805999247272
 97
        0
 75
     0
 76
     1
 98
        0
  0
LWPOLYLINE
  5
3C5
330
1F
100
AcDbEntity
  8
Ech.1_5
 62
     7
370
    20
100
AcDbPolyline
 90
        5
 70
     0
 43
0.0
 10
1589.901504499653
 20
-3641.405999628741
 10
1599.915124948353
 20
-3641.405999628741
 10
1599.912937753195
 20
-3597.805999247272
 10
1589.901504499653
 20
-3597.805999247272
 10
1589.901504499653
 20
-3641.405999628741
  0
LWPOLYLINE
  5
3C6
330
1F
100
AcDbEntity
  8
Ech.1_5
 62
   202
420
  8519880
370
    50
100
AcDbPolyline
 90
        4
 70
     0
 43
0.0
 10
1599.901504499713
 20
-3655.130392625366
 10
1599.901504499713
 20
-3649.134739257366
 10
1597.629259315713
 20
-3647.560846401367
 10
1597.629259315713
 20
-3640.169474397367
  0
LWPOLYLINE
  5
3C7
330
1F
100
AcDbEntity
  8
Ech.1_5
 62
   202
420
  8519880
370
    50
100
AcDbPolyline
 90
        4
 70
     0
 43
0.0
 10
1599.901504499712
 20
-3588.455322325492
 10
1599.901504499712
 20
-3593.650975693492
 10
1597.629259315712
 20
-3595.224868549491
 10
1597.629259315712
 20
-3600.616240549492
  0
LWPOLYLINE
  5
3C8
330
1F
100
AcDbEntity
  8
Ech.1_5
 62
   202
420
  8519880
370
    50
100
AcDbPolyline
 90
        4
 70
     0
 43
0.0
 10
1583.832972631713
 20
-3626.165582785849
 10
1594.868983667713
 20
-3626.165582785849
 42
-0.351643470000283
 10
1599.059747055714
 20
-3630.131706149847
 10
1599.059747055714
 20
-3647.731687057848
  0
LWPOLYLINE
  5
3C9
330
1F
100
AcDbEntity
  8
Ech.1_5
 62
   202
420
  8519880
370
    50
100
AcDbPolyline
 90
        4
 70
     0
 43
0.0
 10
1583.970482907711
 20
-3618.005279420569
 10
1595.023688499713
 20
-3618.005279420569
 42
0.351643470000531
 10
1599.214451887714
 20
-3614.039156056568
 10
1599.214451887714
 20
-3594.701899548568
  0
LINE
  5
3CA
330
1F
100
AcDbEntity
  8
Ech.1_5
 62
     7
370
    20
100
AcDbLine
 10
1589.901504499533
 20
-3611.661774318965
 30
0.0
 11
1599.901504499713
 21
-3611.661774318965
 31
0.0
  0
LWPOLYLINE
  5
3CB
330
1F
100
AcDbEntity
  8
Ech.1_5
 62
     7
370
    20
100
AcDbPolyline
 90
        7
 70
     0
 43
0.0
 10
1589.901504499653
 20
-3597.805999247272
 10
1599.912937753195
 20
-3597.805999247272
 10
1599.915124948353
 20
-3641.405999628741
 10
1589.901504499653
 20
-3641.405999628741
 10
1589.901504499653
 20
-3597.805999247272
 10
1589.889885890776
 20
-3597.805999247272
 10
1599.901504499833
 20
-3597.805999247272
  0
LWPOLYLINE
  5
3CC
330
1F
100
AcDbEntity
  8
Ech.1_5
 62
     1
370
    20
100
AcDbPolyline
 90
        3
 70
     0
 43
0.0
 10
1659.538050073954
 20
-3618.53559885088
 10
1637.820539513948
 20
-3618.53559885088
 10
1637.454008299207
 20
-3618.135598850875
  0
WIPEOUT
  5
3CD
330
1F
100
AcDbEntity
  8
Ech.1_5
160
               200
310
C8000000040000000C0000000E000000120000000C00000016000000000000C20C00000014000000010000009C000000070000000600000023FD12EA8D399840D06B366D4544ACC0000000000000000083EA525D8DEC9940D06B366D4544ACC00000000000000000F63C99F626EE99409D38033A1245ACC000000000000000
310
00A98211F126EE9940039FA9D3AB52ACC00000000000000000E9A124578DEC9940D06B76A07853ACC000000000000000002FFD12EA8D399840C46B76A07853ACC00000000000000000
100
AcDbWipeout
 90
        0
 10
1550.388588234616
 20
-3625.73559923235
 30
0.0
 11
109.1494618393378
 21
0.0
 31
0.0
 12
0.0
 22
109.1494618393378
 32
0.0
 13
1.0
 23
1.0
340
0
 70
     4
280
     1
281
    50
282
    50
283
     0
360
0
 71
     2
 91
        7
 14
-0.5000000000000036
 24
0.4303707022151286
 14
0.4963353116696876
 24
0.4303707022151286
 14
0.4999999999999964
 24
0.4340354019145991
 14
0.4999998067238511
 24
0.4963353003005295
 14
0.496335095655219
 24
0.5
 14
-0.4999999999999787
 24
0.4999999999999503
 14
-0.5000000000000036
 24
0.4303707022151286
290
     0
  0
LWPOLYLINE
  5
3CE
330
1F
100
AcDbEntity
  8
Ech.1_5
 62
   190
370
    20
100
AcDbPolyline
 90
        7
 70
     0
 43
0.0
 10
1550.388588234616
 20
-3618.13559885088
 10
1659.138051314892
 20
-3618.13559885088
 10
1659.538050073954
 20
-3618.53559885088
 10
1659.538028977966
 20
-3625.33559923235
 10
1659.138027737029
 20
-3625.73559923235
 10
1550.388588234619
 20
-3625.735599232345
 10
1550.388588234616
 20
-3618.13559885088
  0
LINE
  5
3CF
330
1F
100
AcDbEntity
  8
Ech.1_5
 62
   190
370
    20
100
AcDbLine
 10
1659.138051314892
 20
-3618.13559885088
 30
0.0
 11
1659.138027737029
 21
-3625.73559923235
 31
0.0
  0
LINE
  5
3D0
330
1F
100
AcDbEntity
  8
Ech.1_5
 62
   190
370
    20
100
AcDbLine
 10
1549.988588234616
 20
-3625.33559923235
 30
0.0
 11
1659.538028977966
 21
-3625.335599232345
 31
0.0
  0
LINE
  5
3D1
330
1F
100
AcDbEntity
  8
Ech.1_5
 62
   190
370
    20
100
AcDbLine
 10
1549.988609330597
 20
-3618.53559885088
 30
0.0
 11
1659.538050073954
 21
-3618.53559885088
 31
0.0
  0
LWPOLYLINE
  5
3D2
330
1F
100
AcDbEntity
  8
Ech.1_5
 62
   190
370
    20
100
AcDbPolyline
 90
        4
 70
     0
 43
0.0
 10
1550.388588234616
 20
-3618.13559885088
 10
1549.988609330597
 20
-3618.53559885088
 10
1549.988588234616
 20
-3625.33559923235
 10
1550.388588234619
 20
-3625.735599232345
  0
LWPOLYLINE
  5
3D3
330
1F
100
AcDbEntity
  8
Ech.1_5
 62
   190
370
    20
100
AcDbPolyline
 90
        3
 70
     0
 43
0.0
 10
1595.098656338473
 20
-3635.728559590993
 10
1558.887378306549
 20
-3705.266786676248
 10
1550.887378306549
 20
-3705.266786676248
  0
INSERT
  5
3D4
330
1F
100
AcDbEntity
  8
Ech.1_5
 62
   190
370
    20
100
AcDbBlockReference
  2
cw-line-extremity4
 10
1595.098656338473
 20
-3635.728559590993
 30
0.0
 50
242.4922418677786
  0
LWPOLYLINE
  5
3D5
330
1F
100
AcDbEntity
  8
Ech.1_5
 62
   190
370
    20
100
AcDbPolyline
 90
        3
 70
     0
 43
0.0
 10
1580.683382102957
 20
-3621.507836626774
 10
1558.887378306549
 20
-3643.444652163569
 10
1550.887378306549
 20
-3643.444652163569
  0
INSERT
  5
3D6
330
1F
100
AcDbEntity
  8
Ech.1_5
 62
   190
370
    20
100
AcDbBlockReference
  2
cw-line-extremity4
 10
1580.683382102957
 20
-3621.507836626774
 30
0.0
 50
225.1844813728588
  0
LWPOLYLINE
  5
3D7
330
1F
100
AcDbEntity
  8
Ech.1_5
 62
   190
370
    20
100
AcDbPolyline
 90
        3
 70
     0
 43
0.0
 10
1574.290087256439
 20
-3617.335598850881
 10
1558.887378306549
 20
-3605.557199015831
 10
1550.887378306549
 20
-3605.557199015831
  0
INSERT
  5
3D8
330
1F
100
AcDbEntity
  8
Ech.1_5
 62
   190
370
    20
100
AcDbBlockReference
  2
cw-line-extremity4
 10
1574.290087256439
 20
-3617.335598850881
 30
0.0
 50
142.594977389913
  0
LWPOLYLINE
  5
3D9
330
1F
100
AcDbEntity
  8
Ech.1_5
 62
   190
370
    20
100
AcDbPolyline
 90
        3
 70
     0
 43
0.0
 10
1599.214451887714
 20
-3612.34206287757
 10
1558.887378306428
 20
-3582.787994036866
 10
1550.887378306428
 20
-3582.787994036866
  0
INSERT
  5
3DA
330
1F
100
AcDbEntity
  8
Ech.1_5
 62
   190
370
    20
100
AcDbBlockReference
  2
cw-line-extremity4
 10
1599.214451887714
 20
-3612.34206287757
 30
0.0
 50
143.7638300944147
  0
LWPOLYLINE
  5
3DB
330
1F
100
AcDbEntity
  8
Ech.1_5
 62
   190
370
    20
100
AcDbPolyline
 90
        3
 70
     0
 43
0.0
 10
1586.237453469803
 20
-3638.273487373786
 10
1558.887378306549
 20
-3677.131859737994
 10
1550.887378306549
 20
-3677.131859737994
  0
INSERT
  5
3DC
330
1F
100
AcDbEntity
  8
Ech.1_5
 62
   190
370
    20
100
AcDbBlockReference
  2
cw-line-extremity4
 10
1586.237453469803
 20
-3638.273487373786
 30
0.0
 50
234.8605860447438
  0
MTEXT
  5
3DD
330
1F
100
AcDbEntity
  8
Ech.1_5
 62
     4
420
    65535
100
AcDbMText
 10
1659.479614651836
 20
-3857.515243748199
 30
0.0
 40
5.0
 41
195.3371538540766
 46
0.0
 71
     2
 72
     1
  1
{\fArial|b0|i0;\W1.000000;\H5.000000;\c16711848;Vue en coupe verticale}
 73
     1
 44
1.07999975538982
  0
MTEXT
  5
3DE
330
1F
100
AcDbEntity
  8
Ech.1_5
 62
     4
420
    65535
100
AcDbMText
 10
1787.607658660173
 20
-3857.448373151139
 30
0.0
 40
5.0
 41
50.91893416259836
 46
0.0
 71
     2
 72
     1
  1
{\fArial|b0|i0;\W1.000000;\H5.000000;\c16711848;Ech 1/5 }
 73
     1
 44
1.07999975538982
  0
MTEXT
  5
3DF
330
1F
100
AcDbEntity
  8
Ech.1_5
 62
     4
420
    65535
100
AcDbMText
 10
1528.079994125726
 20
-3857.339670630146
 30
0.0
 40
5.0
 41
57.46208719814172
 46
0.0
 71
     2
 72
     1
  1
{\fArial|b0|i0;\W1.000000;\H5.000000;\c16711848;BLEVT40-05}
 73
     1
 44
1.07999975538982
  0
MTEXT
  5
3E0
330
1F
100
AcDbEntity
  8
Ech.1_5
 62
   200
420
 11010303
100
AcDbMText
 10
1618.567125741473
 20
-3865.92231756488
 30
0.0
 40
2.25
 41
391.7499999999995
 46
0.0
 71
     2
 72
     1
  3
{\fArial|b0|i1;\W1.000000;\H2.250000;\c16711848; Il est rappelé à l'utilisateur qui consulte le site et utilise les informations qu'il contient, qu'il doit les utiliser sous sa seule responsabilité en vérifiant leur pertinence, leur cohérence et leur
  1
 non obsolescence.}
 73
     1
 44
1.07999975538982
  0
MTEXT
  5
3E1
330
1F
100
AcDbEntity
  8
Ech.1_5
 62
   200
420
 11010303
100
AcDbMText
 10
1618.567125741473
 20
-3879.463128722283
 30
0.0
 40
2.75
 41
391.2499999999995
 46
0.0
 71
     2
 72
     1
  1
{\fArial|b0|i1;\W1.000000;\H2.750000;\c16711848;www.catalogue-bois-construction.fr}
 73
     1
 44
1.07999975538982
  0
MTEXT
  5
3E2
330
1F
100
AcDbEntity
  8
Ech.1_5
 62
     4
420
    65535
100
AcDbMText
 10
1618.567125741473
 20
-3397.243888425389
 30
0.0
 40
5.75
 41
388.2499999999995
 46
0.0
 71
     2
 72
     1
  1
{\fArial|b0|i0;\W1.000000;\H5.750000;\c16711848;Traversée de paroi - Elément pesant en façade fixé de façon ponctuelle - Compatible niveau étanchéité Ee2}
 73
     1
 44
1.07999975538982
  0
MTEXT
  5
3E3
330
1F
100
AcDbEntity
  8
Ech.1_5
 62
     4
420
    65535
100
AcDbMText
 10
1745.038912125174
 20
-3649.1895808318
 30
0.0
 40
5.5
 41
98.94719608671062
 46
0.0
 71
     2
 72
     1
  1
{\fArial|b0|i0;\W1.000000;\H5.500000;\c16711848;Vue de face de la cale réalisée en panneau contreplaqué ou plastique dur}
 73
     1
 44
1.07999975538982
  0
MTEXT
  5
3E4
330
1F
100
AcDbEntity
  8
Ech.1_5
 62
     4
420
    65535
100
AcDbMText
 10
1548.137378306549
 20
-3488.790421609896
 30
0.0
 40
5.5
 41
118.0242785737341
 46
0.0
 71
     3
 72
     1
  1
{\fArial|b0|i0;\W1.000000;\H5.500000;\c16711848;Double-tasseautage bois support de bardage}
 73
     1
 44
1.07999975538982
  0
MTEXT
  5
3E5
330
1F
100
AcDbEntity
  8
Ech.1_5
 62
     4
420
    65535
100
AcDbMText
 10
1548.137378306549
 20
-3512.957543420269
 30
0.0
 40
5.5
 41
73.49250351114324
 46
0.0
 71
     3
 72
     1
  1
{\fArial|b0|i0;\W1.000000;\H5.500000;\c16711848;Paroi support}
 73
     1
 44
1.07999975538982
  0
MTEXT
  5
3E6
330
1F
100
AcDbEntity
  8
Ech.1_5
 62
     4
420
    65535
100
AcDbMText
 10
1548.137378306549
 20
-3534.411208198817
 30
0.0
 40
5.5
 41
116.1604636604811
 46
0.0
 71
     3
 72
     1
  1
{\fArial|b0|i0;\W1.000000;\H5.500000;\c16711848;Bardage bois en lames à emboitement en pose verticale - épaisseur 18 mm mini}
 73
     1
 44
1.07999975538982
  0
MTEXT
  5
3E7
330
1F
100
AcDbEntity
  8
Ech.1_5
 62
     4
420
    65535
100
AcDbMText
 10
1550.887378306549
 20
-3702.516786676248
 30
0.0
 40
5.5
 41
67.28181038761977
 46
0.0
 71
     3
 72
     1
  1
{\fArial|b0|i0;\W1.000000;\H5.500000;\c16711848;Cale bisautée}
 73
     1
 44
1.07999975538982
  0
MTEXT
  5
3E8
330
1F
100
AcDbEntity
  8
Ech.1_5
 62
     4
420
    65535
100
AcDbMText
 10
1550.887378306549
 20
-3635.744652294699
 30
0.0
 40
5.5
 41
104.1883816170084
 46
0.0
 71
     3
 72
     1
  1
{\fArial|b0|i0;\W1.000000;\H5.500000;\c16711848;Ancrage dans la paroi support}\P{\fArial|b0|i0;\W1.000000;\H5.500000;\c16711848;Ø<16 mm}
 73
     1
 44
1.07999975538982
  0
MTEXT
  5
3E9
330
1F
100
AcDbEntity
  8
Ech.1_5
 62
     4
420
    65535
100
AcDbMText
 10
1550.887378306549
 20
-3602.807199015831
 30
0.0
 40
5.5
 41
104.1883816170084
 46
0.0
 71
     3
 72
     1
  1
{\fArial|b0|i0;\W1.000000;\H5.500000;\c16711848;jeu < 2mm}
 73
     1
 44
1.07999975538982
  0
MTEXT
  5
3EA
330
1F
100
AcDbEntity
  8
Ech.1_5
 62
     4
420
    65535
100
AcDbMText
 10
1550.887378306428
 20
-3570.137994299126
 30
0.0
 40
5.5
 41
122.9995030632126
 46
0.0
 71
     3
 72
     1
  1
{\fArial|b0|i0;\W1.000000;\H5.500000;\c16711848;Manchon ou manchette élastique en caoutchouc EPDM - diamètre fonction de l'ancrage}
 73
     1
 44
1.07999975538982
  0
MTEXT
  5
3EB
330
1F
100
AcDbEntity
  8
Ech.1_5
 62
     4
420
    65535
100
AcDbMText
 10
1550.887378306549
 20
-3664.481860000254
 30
0.0
 40
5.5
 41
106.1882031679154
 46
0.0
 71
     3
 72
     1
  1
{\fArial|b0|i0;\W1.000000;\H5.500000;\c16711848;Tasseaux à prévoir de part et d'autre du percement pour fixation des lames de bardage}
 73
     1
 44
1.07999975538982
  0
TEXT
  5
3ED
330
1F
100
AcDbEntity
  8
Ech.1_5
 62
   190
100
AcDbText
 10
1442.29597802239
 20
-3862.31203037003
 30
0.0
 40
5.0
  1
28/09/2020
  7
arial-
100
AcDbText
  0
TEXT
  5
3EE
330
1F
100
AcDbEntity
  8
Ech.1_5
 62
   190
100
AcDbText
 10
1492.26301807546
 20
-3391.25828657245
 30
0.0
 40
6.6
  1
Epaisseur mini selon NF DTU 41.2 - hors exigences feu façade
  7
arial-
100
AcDbText
  0
TEXT
  5
3F0
330
1F
100
AcDbEntity
  8
Ech.1_5
 62
   190
100
AcDbText
 10
1485.210955087178
 20
-3378.304899456194
 30
0.0
 40
6.6
  1
BARDAGES EN LAMES : lames à emboitement - pose verticale
  7
arial-b
100
AcDbText
  0
TEXT
  5
3F2
330
1F
100
AcDbEntity
  8
Ech.1_5
 62
   154
420
    21156
100
AcDbText
 10
1757.010368777104
 20
-3432.257310189301
 30
0.0
 40
6.000000000000001
  1
m
 50
8.975659904396963
 41
0.8000000000000002
  7
tahoma-b
100
AcDbText
  0
TEXT
  5
3F3
330
1F
100
AcDbEntity
  8
Ech.1_5
 62
   154
420
    21156
100
AcDbText
 10
1750.158890359573
 20
-3434.50450693137
 30
0.0
 40
6.0
  1
C
 50
20.66888961044281
 41
0.8000000000000002
  7
tahoma-b
100
AcDbText
  0
TEXT
  5
3F4
330
1F
100
AcDbEntity
  8
Ech.1_5
 62
   154
420
    21156
100
AcDbText
 10
1753.711279424679
 20
-3433.164374795031
 30
0.0
 40
6.000000000000001
  1
o
 50
15.3732647232783
 41
0.8000000000000002
  7
tahoma-b
100
AcDbText
  0
TEXT
  5
3F5
330
1F
100
AcDbEntity
  8
Ech.1_5
 62
   154
420
    21156
100
AcDbText
 10
1762.242311262769
 20
-3431.430930115885
 30
0.0
 40
6.000000000000001
  1
p
 50
2.547444553694536
 41
0.8000000000000002
  7
tahoma-b
100
AcDbText
  0
TEXT
  5
3F6
330
1F
100
AcDbEntity
  8
Ech.1_5
 62
   154
420
    21156
100
AcDbText
 10
1765.702101155197
 20
-3431.277001934805
 30
0.0
 40
6.0
  1
a
 50
357.5885357786794
 41
0.8000000000000002
  7
tahoma-b
100
AcDbText
  0
TEXT
  5
3F7
330
1F
100
AcDbEntity
  8
Ech.1_5
 62
   154
420
    21156
100
AcDbText
 10
1768.995594246753
 20
-3431.415700347023
 30
0.0
 40
6.0
  1
t
 50
353.6091644148265
 41
0.8000000000000002
  7
tahoma-b
100
AcDbText
  0
TEXT
  5
3F8
330
1F
100
AcDbEntity
  8
Ech.1_5
 62
   154
420
    21156
100
AcDbText
 10
1771.110799892558
 20
-3431.652616098809
 30
0.0
 40
6.0
  1
i
 50
350.9766571715793
 41
0.7999999999999999
  7
tahoma-b
100
AcDbText
  0
TEXT
  5
3F9
330
1F
100
AcDbEntity
  8
Ech.1_5
 62
   154
420
    21156
100
AcDbText
 10
1772.553506383317
 20
-3431.881720914362
 30
0.0
 40
6.0
  1
b
 50
347.3646125172321
 41
0.7999999999999999
  7
tahoma-b
100
AcDbText
  0
TEXT
  5
3FA
330
1F
100
AcDbEntity
  8
Ech.1_5
 62
   154
420
    21156
100
AcDbText
 10
1775.932846146467
 20
-3432.63928460796
 30
0.0
 40
5.999999999999999
  1
l
 50
343.752567862822
 41
0.8
  7
tahoma-b
100
AcDbText
  0
TEXT
  5
3FB
330
1F
100
AcDbEntity
  8
Ech.1_5
 62
   154
420
    21156
100
AcDbText
 10
1777.335290306377
 20
-3433.047991609756
 30
0.0
 40
5.999999999999999
  1
e
 50
340.2629653356186
 41
0.8
  7
tahoma-b
100
AcDbText
  0
TEXT
  5
3FC
330
1F
100
AcDbEntity
  8
Ech.1_5
 62
   154
420
    21156
100
AcDbText
 10
1744.093360776285
 20
-3484.505783161102
 30
0.0
 40
6.0
  1
s
 50
329.3124952401241
 41
0.8000000000000002
  7
tahoma-b
100
AcDbText
  0
TEXT
  5
3FD
330
1F
100
AcDbEntity
  8
Ech.1_5
 62
   154
420
    21156
100
AcDbText
 10
1746.892305455856
 20
-3486.166849405377
 30
0.0
 40
6.0
  1
u
 50
334.6276163794161
 41
0.8000000000000002
  7
tahoma-b
100
AcDbText
  0
TEXT
  5
3FE
330
1F
100
AcDbEntity
  8
Ech.1_5
 62
   154
420
    21156
100
AcDbText
 10
1750.54885990269
 20
-3487.900949781624
 30
0.0
 40
6.0
  1
r
 50
339.5478999136961
 41
0.8000000000000002
  7
tahoma-b
100
AcDbText
  0
TEXT
  5
3FF
330
1F
100
AcDbEntity
  8
Ech.1_5
 62
   154
420
    21156
100
AcDbText
 10
1754.617781526459
 20
-3489.324896117801
 30
0.0
 40
6.0
  1
p
 50
346.7359685598498
 41
0.8000000000000002
  7
tahoma-b
100
AcDbText
  0
TEXT
  5
400
330
1F
100
AcDbEntity
  8
Ech.1_5
 62
   154
420
    21156
100
AcDbText
 10
1758.475588108921
 20
-3490.234286183329
 30
0.0
 40
6.000000000000002
  1
a
 50
352.3548109071144
 41
0.8
  7
tahoma-b
100
AcDbText
  0
TEXT
  5
401
330
1F
100
AcDbEntity
  8
Ech.1_5
 62
   154
420
    21156
100
AcDbText
 10
1762.197305590529
 20
-3490.733857203288
 30
0.0
 40
6.0
  1
r
 50
357.0624896304941
 41
0.8000000000000003
  7
tahoma-b
100
AcDbText
  0
TEXT
  5
402
330
1F
100
AcDbEntity
  8
Ech.1_5
 62
   154
420
    21156
100
AcDbText
 10
1764.906248066423
 20
-3490.872864408462
 30
0.0
 40
6.0
  1
o
 50
1.861284750937963
 41
0.8000000000000002
  7
tahoma-b
100
AcDbText
  0
TEXT
  5
403
330
1F
100
AcDbEntity
  8
Ech.1_5
 62
   154
420
    21156
100
AcDbText
 10
1768.784367847821
 20
-3490.746837229442
 30
0.0
 40
6.000000000000001
  1
i
 50
6.083009645691082
 41
0.8
  7
tahoma-b
100
AcDbText
  0
TEXT
  5
404
330
1F
100
AcDbEntity
  8
Ech.1_5
 62
   154
420
    21156
100
AcDbText
 10
1772.275083529966
 20
-3490.302930853906
 30
0.0
 40
6.0
  1
b
 50
12.69400806612471
 41
0.7999999999999999
  7
tahoma-b
100
AcDbText
  0
TEXT
  5
405
330
1F
100
AcDbEntity
  8
Ech.1_5
 62
   154
420
    21156
100
AcDbText
 10
1776.141746371115
 20
-3489.431965646884
 30
0.0
 40
5.999999999999999
  1
o
 50
18.40396681044791
 41
0.8
  7
tahoma-b
100
AcDbText
  0
TEXT
  5
406
330
1F
100
AcDbEntity
  8
Ech.1_5
 62
   154
420
    21156
100
AcDbText
 10
1779.823458946856
 20
-3488.206939770278
 30
0.0
 40
5.999999999999999
  1
i
 50
22.62569170520355
 41
0.8000000000000003
  7
tahoma-b
100
AcDbText
  0
TEXT
  5
407
330
1F
100
AcDbEntity
  8
Ech.1_5
 62
   154
420
    21156
100
AcDbText
 10
1781.595515980439
 20
-3487.468371166024
 30
0.0
 40
5.999999999999999
  1
s
 50
26.39183478797532
 41
0.8000000000000003
  7
tahoma-b
100
AcDbText
  0
TEXT
  5
408
330
1F
100
AcDbEntity
  8
Ech.1_5
 62
   154
420
    21156
100
AcDbText
 10
1755.863796109537
 20
-3475.646819947819
 30
0.0
 40
9.999999999999998
  1
E
 50
345.2222144971
 41
0.8
  7
tahoma-b
100
AcDbText
  0
TEXT
  5
409
330
1F
100
AcDbEntity
  8
Ech.1_5
 62
   154
420
    21156
100
AcDbText
 10
1762.103257104501
 20
-3477.292768903301
 30
0.0
 40
10.0
  1
e
 50
359.2406769519218
 41
0.8
  7
tahoma-b
100
AcDbText
  0
TEXT
  5
40A
330
1F
100
AcDbEntity
  8
Ech.1_5
 62
   154
420
    21156
100
AcDbText
 10
1768.348480552407
 20
-3477.37553974246
 30
0.0
 40
9.999999999999998
  1
2
 50
13.4889499998064
 41
0.8
  7
tahoma-b
100
AcDbText
  0
VIEWPORT
  5
233
330
22D
100
AcDbEntity
 67
     1
  8
0
100
AcDbViewport
 10
98.79999999999991
 20
135.8
 30
0.0
 40
209.0607999999998
 41
287.3528000000001
 68
     1
 69
     1
 12
128.5
 22
97.5
 13
0.0
 23
0.0
 14
10.0
 24
10.0
 15
10.0
 25
10.0
 16
0.0
 26
0.0
 36
1.0
 17
0.0
 27
0.0
 37
0.0
 42
50.0
 43
0.0
 44
0.0
 45
222.18
 50
0.0
 51
0.0
 72
   100
 90
   557152
  1

281
     0
 71
     1
 74
     0
110
0.0
120
0.0
130
0.0
111
1.0
121
0.0
131
0.0
112
0.0
122
1.0
132
0.0
 79
     0
146
0.0
170
     0
 61
     5
348
2F
292
     1
282
     1
141
0.0
142
0.0
 63
   256
361
234
  0
VIEWPORT
  5
235
330
22D
100
AcDbEntity
 67
     1
  8
0
 60
     1
100
AcDbViewport
 10
98.79999999999991
 20
135.8
 30
0.0
 40
197.5999999999998
 41
271.6
 68
     2
 69
     2
 12
1618.567125741473
 22
-3640.004899456169
 13
0.0
 23
0.0
 14
10.0
 24
10.0
 15
10.0
 25
10.0
 16
0.0
 26
0.0
 36
1.0
 17
0.0
 27
0.0
 37
0.0
 42
50.0
 43
0.0
 44
0.0
 45
543.2
 50
0.0
 51
0.0
 72
   100
 90
   557152
  1

281
     0
 71
     1
 74
     0
110
0.0
120
0.0
130
0.0
111
1.0
121
0.0
131
0.0
112
0.0
122
1.0
132
0.0
 79
     0
146
0.0
170
     0
 61
     5
348
2F
292
     1
282
     1
141
0.0
142
0.0
 63
   256
  0
ENDSEC
  0
SECTION
  2
OBJECTS
  0
DICTIONARY
  5
C
330
0
100
AcDbDictionary
281
     1
  3
ACAD_DETAILVIEWSTYLE
350
412
  3
ACAD_GROUP
350
D
  3
ACAD_IMAGE_DICT
350
242
  3
ACAD_IMAGE_VARS
350
6F
  3
ACAD_LAYOUT
350
1A
  3
ACAD_MATERIAL
350
43
  3
ACAD_MLEADERSTYLE
350
6B
  3
ACAD_MLINESTYLE
350
17
  3
ACAD_PLOTSETTINGS
350
19
  3
ACAD_PLOTSTYLENAME
350
E
  3
ACAD_SCALELIST
350
47
  3
ACAD_SECTIONVIEWSTYLE
350
413
  3
ACAD_TABLESTYLE
350
69
  3
ACAD_VISUALSTYLE
350
2A
  3
ACDB_RECOMPOSE_DATA
350
40F
  3
AcDbVariableDictionary
350
40B
  0
SUN
  5
6D
330
29
100
AcDbSun
 90
        1
290
     0
 63
     7
421
 16777215
 40
1.0
291
     1
 91
  2455826
 92
 54000000
292
     0
 70
     2
 71
   256
280
     1
  0
IMAGEDEF_REACTOR
  5
245
330
244
100
AcDbRasterImageDefReactor
 90
        2
330
244
  0
IMAGEDEF_REACTOR
  5
248
330
247
100
AcDbRasterImageDefReactor
 90
        2
330
247
  0
IMAGEDEF_REACTOR
  5
24B
330
24A
100
AcDbRasterImageDefReactor
 90
        2
330
24A
  0
SUN
  5
234
330
233
100
AcDbSun
 90
        1
290
     0
 63
     7
421
 16777215
 40
1.0
291
     1
 91
  2455826
 92
 54000000
292
     0
 70
     2
 71
   256
280
     1
  0
DICTIONARY
  5
412
102
{ACAD_REACTORS
330
C
102
}
330
C
100
AcDbDictionary
281
     1
  0
DICTIONARY
  5
D
102
{ACAD_REACTORS
330
C
102
}
330
C
100
AcDbDictionary
281
     1
  0
DICTIONARY
  5
242
102
{ACAD_REACTORS
330
C
102
}
330
C
100
AcDbDictionary
281
     1
  3
C:\Users\MAIFFR~1\AppData\Local\Temp\EXE_LOGO_FBF_soutien_Q_L.jpg1
350
246
  3
C:\Users\MAIFFR~1\AppData\Local\Temp\fcba.jpg0
350
243
  3
C:\Users\MAIFFR~1\AppData\Local\Temp\logo_codifab_baseline_soutien.jpg2
350
249
  0
RASTERVARIABLES
  5
6F
102
{ACAD_REACTORS
330
C
102
}
330
C
100
AcDbRasterVariables
 90
        0
 70
     0
 71
     1
 72
     1
  0
DICTIONARY
  5
1A
102
{ACAD_REACTORS
330
C
102
}
330
C
100
AcDbDictionary
281
     1
  3
CompleteLayout
350
1E
  3
Model
350
22
  3
PrintFrame_45
350
22E
  0
DICTIONARY
  5
43
102
{ACAD_REACTORS
330
C
102
}
330
C
100
AcDbDictionary
281
     1
  3
ByBlock
350
45
  3
ByLayer
350
44
  3
Global
350
46
  0
DICTIONARY
  5
6B
102
{ACAD_REACTORS
330
C
102
}
330
C
100
AcDbDictionary
281
     1
  3
Standard
350
6C
  0
DICTIONARY
  5
17
102
{ACAD_REACTORS
330
C
102
}
330
C
100
AcDbDictionary
281
     1
  3
Standard
350
18
  0
DICTIONARY
  5
19
102
{ACAD_REACTORS
330
C
102
}
330
C
100
AcDbDictionary
281
     1
  3
PlotSettings_
350
231
  0
ACDBDICTIONARYWDFLT
  5
E
102
{ACAD_REACTORS
330
C
102
}
330
C
100
AcDbDictionary
281
     1
  3
Normal
350
F
100
AcDbDictionaryWithDefault
340
F
  0
DICTIONARY
  5
47
102
{ACAD_REACTORS
330
C
102
}
330
C
100
AcDbDictionary
281
     1
  3
A0
350
48
  3
A1
350
49
  3
A2
350
4A
  3
A3
350
4B
  3
A4
350
4C
  3
A5
350
4D
  3
A6
350
4E
  3
A7
350
4F
  3
A8
350
50
  3
A9
350
51
  3
B0
350
52
  3
B1
350
53
  3
B2
350
54
  3
B3
350
55
  3
B4
350
56
  3
B5
350
57
  3
B6
350
58
  3
B7
350
59
  3
B8
350
5A
  3
B9
350
5B
  3
C0
350
5C
  3
C1
350
5D
  3
C2
350
5E
  3
C3
350
5F
  3
C4
350
60
  3
C5
350
61
  3
C6
350
62
  3
C7
350
63
  3
C8
350
64
  3
C9
350
65
  3
D0
350
66
  3
D1
350
67
  3
D2
350
68
  0
DICTIONARY
  5
413
102
{ACAD_REACTORS
330
C
102
}
330
C
100
AcDbDictionary
281
     1
  0
DICTIONARY
  5
69
102
{ACAD_REACTORS
330
C
102
}
330
C
100
AcDbDictionary
281
     1
  3
Standard
350
6A
  0
DICTIONARY
  5
2A
102
{ACAD_REACTORS
330
C
102
}
330
C
100
AcDbDictionary
281
     1
  3
2dWireframe
350
2F
  3
Basic
350
32
  3
Brighten
350
36
  3
ColorChange
350
3A
  3
Conceptual
350
34
  3
Dim
350
35
  3
EdgeColorOff
350
3D
  3
Facepattern
350
39
  3
Flat
350
2B
  3
FlatWithEdges
350
2C
  3
Gouraud
350
2D
  3
GouraudWithEdges
350
2E
  3
Hidden
350
31
  3
JitterOff
350
3B
  3
Linepattern
350
38
  3
OverhangOff
350
3C
  3
Realistic
350
33
  3
Shaded
350
42
  3
Shaded with edges
350
41
  3
Shades of Gray
350
3E
  3
Sketchy
350
3F
  3
Thicken
350
37
  3
Wireframe
350
30
  3
X-Ray
350
40
  0
XRECORD
  5
40F
102
{ACAD_REACTORS
330
C
102
}
330
C
100
AcDbXrecord
280
     1
 90
        1
330
6A
  0
DICTIONARY
  5
40B
102
{ACAD_REACTORS
330
C
102
}
330
C
100
AcDbDictionary
281
     1
  3
CANNOSCALE
350
40C
  3
CMLEADERSTYLE
350
411
  3
CTABLESTYLE
350
410
  3
WIPEOUTFRAME
350
414
  0
IMAGEDEF
  5
246
102
{ACAD_REACTORS
330
242
330
248
102
}
330
242
100
AcDbRasterImageDef
 90
        0
  1
EXE_LOGO_FBF_soutien_Q_L.jpg
 10
200.0
 20
133.0
 11
0.3527336860670194
 21
0.3527336860670194
280
     1
281
     3
  0
IMAGEDEF
  5
243
102
{ACAD_REACTORS
330
242
330
245
102
}
330
242
100
AcDbRasterImageDef
 90
        0
  1
fcba.jpg
 10
247.0
 20
171.0
 11
0.3527336860670194
 21
0.3527336860670194
280
     1
281
     3
  0
IMAGEDEF
  5
249
102
{ACAD_REACTORS
330
242
330
24B
102
}
330
242
100
AcDbRasterImageDef
 90
        0
  1
logo_codifab_baseline_soutien.jpg
 10
1326.0
 20
580.0
 11
0.08466683600033867
 21
0.08466683600033867
280
     1
281
     3
  0
LAYOUT
  5
1E
102
{ACAD_REACTORS
330
1A
102
}
330
1A
100
AcDbPlotSettings
  1

  2
none_device
  4

  6

 40
0.0
 41
0.0
 42
0.0
 43
0.0
 44
0.0
 45
0.0
 46
0.0
 47
0.0
 48
0.0
 49
0.0
140
0.0
141
0.0
142
1.0
143
1.0
 70
   688
 72
     0
 73
     0
 74
     5
  7

 75
    16
 76
     0
 77
     2
 78
   300
147
1.0
148
0.0
149
0.0
100
AcDbLayout
  1
CompleteLayout
 70
     1
 71
     1
 10
0.0
 20
0.0
 11
12.0
 21
9.0
 12
0.0
 22
0.0
 32
0.0
 14
1.000000000000000E+20
 24
1.000000000000000E+20
 34
1.000000000000000E+20
 15
-1.000000000000000E+20
 25
-1.000000000000000E+20
 35
-1.000000000000000E+20
146
0.0
 13
0.0
 23
0.0
 33
0.0
 16
1.0
 26
0.0
 36
0.0
 17
0.0
 27
1.0
 37
0.0
 76
     0
330
1B
  0
LAYOUT
  5
22
102
{ACAD_REACTORS
330
1A
102
}
330
1A
100
AcDbPlotSettings
  1

  2
none_device
  4
Letter_(8.50_x_11.00_Inches)
  6

 40
6.35
 41
6.35
 42
6.35000508
 43
6.35000508
 44
215.9
 45
279.4
 46
0.0
 47
0.0
 48
0.0
 49
0.0
140
0.0
141
0.0
142
1.0
143
1.0
 70
  1712
 72
     0
 73
     0
 74
     0
  7

 75
     0
 76
     0
 77
     2
 78
   300
147
1.0
148
0.0
149
0.0
100
AcDbLayout
  1
Model
 70
     1
 71
     0
 10
0.0
 20
0.0
 11
12.0
 21
9.0
 12
0.0
 22
0.0
 32
0.0
 14
1421.567125741473
 24
-3911.004899456169
 34
0.0
 15
1815.567125741476
 25
-3369.004899456169
 35
0.0
146
0.0
 13
0.0
 23
0.0
 33
0.0
 16
1.0
 26
0.0
 36
0.0
 17
0.0
 27
1.0
 37
0.0
 76
     0
330
1F
331
29
  0
LAYOUT
  5
22E
102
{ACAD_REACTORS
330
1A
102
}
330
1A
100
AcDbPlotSettings
  1
PlotSettings_
  2
Custom Device
  4
Custom_210.000000x297.000000_12.700000_12.700000_6.200000_6.200000
  6

 40
6.2
 41
12.7
 42
6.2
 43
12.7
 44
209.9999999999998
 45
297.0
 46
0.0
 47
0.0
 48
0.0
 49
0.0
140
0.0
141
0.0
142
1.0
143
1.0
 70
   752
 72
     1
 73
     0
 74
     5
  7

 75
    16
 76
     0
 77
     2
 78
   300
147
1.0
148
0.0
149
0.0
100
AcDbLayout
  1
PrintFrame_45
 70
     0
 71
     2
 10
-20.0
 20
-7.5
 11
277.0
 21
202.5
 12
0.0
 22
0.0
 32
0.0
 14
0.0
 24
0.0
 34
0.0
 15
197.5999999999998
 25
271.6
 35
0.0
146
0.0
 13
0.0
 23
0.0
 33
0.0
 16
1.0
 26
0.0
 36
0.0
 17
0.0
 27
1.0
 37
0.0
 76
     0
330
22D
331
233
1001
PLOTTRANSPARENCY
1071
        1
1000
layout-user-created
1070
     1
1000
layout-line-weight-scale
1042
1.0
  0
MATERIAL
  5
45
102
{ACAD_REACTORS
330
43
102
}
330
43
100
AcDbMaterial
  1
ByBlock
 72
     1
 94
      127
  0
MATERIAL
  5
44
102
{ACAD_REACTORS
330
43
102
}
330
43
100
AcDbMaterial
  1
ByLayer
 72
     1
 94
      127
  0
MATERIAL
  5
46
102
{ACAD_REACTORS
330
43
102
}
330
43
100
AcDbMaterial
  1
Global
 72
     1
 94
      127
  0
MLEADERSTYLE
  5
6C
102
{ACAD_REACTORS
330
6B
102
}
330
6B
100
AcDbMLeaderStyle
179
     2
170
     2
171
     1
172
     0
 90
        2
 40
0.0
 41
0.0
173
     1
 91
-1056964608
340
14
 92
       -2
290
     1
 42
0.09
291
     1
 43
0.36
  3
Standard
341
0
 44
0.18
300

342
11
174
     1
178
     6
175
     1
176
     0
 93
-1056964608
 45
0.18
292
     0
297
     0
 46
0.18
343
0
 94
-1056964608
 47
1.0
 49
1.0
140
1.0
293
     1
141
0.0
294
     1
177
     0
142
1.0
295
     0
296
     0
143
0.125
271
     0
272
     9
273
     9
298
     0
  0
MLINESTYLE
  5
18
102
{ACAD_REACTORS
330
17
102
}
330
17
100
AcDbMlineStyle
  2
Standard
 70
     0
  3

 62
   256
 51
90.0
 52
90.0
 71
     2
 49
0.5
 62
   256
  6
BYLAYER
 49
-0.5
 62
   256
  6
BYLAYER
  0
PLOTSETTINGS
  5
231
102
{ACAD_REACTORS
330
19
102
}
330
19
100
AcDbPlotSettings
  1
PlotSettings_
  2
Custom Device
  4
Custom_210.000000x297.000000_12.700000_12.700000_6.200000_6.200000
  6

 40
6.2
 41
12.7
 42
6.2
 43
12.7
 44
209.9999999999998
 45
297.0
 46
0.0
 47
0.0
 48
0.0
 49
0.0
140
0.0
141
0.0
142
1.0
143
1.0
 70
   752
 72
     1
 73
     0
 74
     5
  7

 75
    16
 76
     0
 77
     2
 78
   300
147
1.0
148
0.0
149
0.0
1001
PLOTTRANSPARENCY
1071
        1
1000
layout-user-created
1070
     1
1000
layout-line-weight-scale
1042
1.0
  0
ACDBPLACEHOLDER
  5
F
102
{ACAD_REACTORS
330
E
102
}
330
E
  0
SCALE
  5
48
102
{ACAD_REACTORS
330
47
102
}
330
47
100
AcDbScale
 70
     0
300
1:1
140
1.0
141
1.0
290
     1
  0
SCALE
  5
49
102
{ACAD_REACTORS
330
47
102
}
330
47
100
AcDbScale
 70
     0
300
1:2
140
1.0
141
2.0
290
     0
  0
SCALE
  5
4A
102
{ACAD_REACTORS
330
47
102
}
330
47
100
AcDbScale
 70
     0
300
1:4
140
1.0
141
4.0
290
     0
  0
SCALE
  5
4B
102
{ACAD_REACTORS
330
47
102
}
330
47
100
AcDbScale
 70
     0
300
1:5
140
1.0
141
5.0
290
     0
  0
SCALE
  5
4C
102
{ACAD_REACTORS
330
47
102
}
330
47
100
AcDbScale
 70
     0
300
1:8
140
1.0
141
8.0
290
     0
  0
SCALE
  5
4D
102
{ACAD_REACTORS
330
47
102
}
330
47
100
AcDbScale
 70
     0
300
1:10
140
1.0
141
10.0
290
     0
  0
SCALE
  5
4E
102
{ACAD_REACTORS
330
47
102
}
330
47
100
AcDbScale
 70
     0
300
1:16
140
1.0
141
16.0
290
     0
  0
SCALE
  5
4F
102
{ACAD_REACTORS
330
47
102
}
330
47
100
AcDbScale
 70
     0
300
1:20
140
1.0
141
20.0
290
     0
  0
SCALE
  5
50
102
{ACAD_REACTORS
330
47
102
}
330
47
100
AcDbScale
 70
     0
300
1:30
140
1.0
141
30.0
290
     0
  0
SCALE
  5
51
102
{ACAD_REACTORS
330
47
102
}
330
47
100
AcDbScale
 70
     0
300
1:40
140
1.0
141
40.0
290
     0
  0
SCALE
  5
52
102
{ACAD_REACTORS
330
47
102
}
330
47
100
AcDbScale
 70
     0
300
1:50
140
1.0
141
50.0
290
     0
  0
SCALE
  5
53
102
{ACAD_REACTORS
330
47
102
}
330
47
100
AcDbScale
 70
     0
300
1:100
140
1.0
141
100.0
290
     0
  0
SCALE
  5
54
102
{ACAD_REACTORS
330
47
102
}
330
47
100
AcDbScale
 70
     0
300
2:1
140
2.0
141
1.0
290
     0
  0
SCALE
  5
55
102
{ACAD_REACTORS
330
47
102
}
330
47
100
AcDbScale
 70
     0
300
4:1
140
4.0
141
1.0
290
     0
  0
SCALE
  5
56
102
{ACAD_REACTORS
330
47
102
}
330
47
100
AcDbScale
 70
     0
300
8:1
140
8.0
141
1.0
290
     0
  0
SCALE
  5
57
102
{ACAD_REACTORS
330
47
102
}
330
47
100
AcDbScale
 70
     0
300
10:1
140
10.0
141
1.0
290
     0
  0
SCALE
  5
58
102
{ACAD_REACTORS
330
47
102
}
330
47
100
AcDbScale
 70
     0
300
100:1
140
100.0
141
1.0
290
     0
  0
SCALE
  5
59
102
{ACAD_REACTORS
330
47
102
}
330
47
100
AcDbScale
 70
     0
300
1/128" = 1'-0"
140
0.0078125
141
12.0
290
     0
  0
SCALE
  5
5A
102
{ACAD_REACTORS
330
47
102
}
330
47
100
AcDbScale
 70
     0
300
1/64" = 1'-0"
140
0.015625
141
12.0
290
     0
  0
SCALE
  5
5B
102
{ACAD_REACTORS
330
47
102
}
330
47
100
AcDbScale
 70
     0
300
1/32" = 1'-0"
140
0.03125
141
12.0
290
     0
  0
SCALE
  5
5C
102
{ACAD_REACTORS
330
47
102
}
330
47
100
AcDbScale
 70
     0
300
1/16" = 1'-0"
140
0.0625
141
12.0
290
     0
  0
SCALE
  5
5D
102
{ACAD_REACTORS
330
47
102
}
330
47
100
AcDbScale
 70
     0
300
3/32" = 1'-0"
140
0.09375
141
12.0
290
     0
  0
SCALE
  5
5E
102
{ACAD_REACTORS
330
47
102
}
330
47
100
AcDbScale
 70
     0
300
1/8" = 1'-0"
140
0.125
141
12.0
290
     0
  0
SCALE
  5
5F
102
{ACAD_REACTORS
330
47
102
}
330
47
100
AcDbScale
 70
     0
300
3/16" = 1'-0"
140
0.1875
141
12.0
290
     0
  0
SCALE
  5
60
102
{ACAD_REACTORS
330
47
102
}
330
47
100
AcDbScale
 70
     0
300
1/4" = 1'-0"
140
0.25
141
12.0
290
     0
  0
SCALE
  5
61
102
{ACAD_REACTORS
330
47
102
}
330
47
100
AcDbScale
 70
     0
300
3/8" = 1'-0"
140
0.375
141
12.0
290
     0
  0
SCALE
  5
62
102
{ACAD_REACTORS
330
47
102
}
330
47
100
AcDbScale
 70
     0
300
1/2" = 1'-0"
140
0.5
141
12.0
290
     0
  0
SCALE
  5
63
102
{ACAD_REACTORS
330
47
102
}
330
47
100
AcDbScale
 70
     0
300
3/4" = 1'-0"
140
0.75
141
12.0
290
     0
  0
SCALE
  5
64
102
{ACAD_REACTORS
330
47
102
}
330
47
100
AcDbScale
 70
     0
300
1" = 1'-0"
140
1.0
141
12.0
290
     0
  0
SCALE
  5
65
102
{ACAD_REACTORS
330
47
102
}
330
47
100
AcDbScale
 70
     0
300
1-1/2" = 1'-0"
140
1.5
141
12.0
290
     0
  0
SCALE
  5
66
102
{ACAD_REACTORS
330
47
102
}
330
47
100
AcDbScale
 70
     0
300
3" = 1'-0"
140
3.0
141
12.0
290
     0
  0
SCALE
  5
67
102
{ACAD_REACTORS
330
47
102
}
330
47
100
AcDbScale
 70
     0
300
6" = 1'-0"
140
6.0
141
12.0
290
     0
  0
SCALE
  5
68
102
{ACAD_REACTORS
330
47
102
}
330
47
100
AcDbScale
 70
     0
300
1'-0" = 1'-0"
140
12.0
141
12.0
290
     0
  0
TABLESTYLE
  5
6A
102
{ACAD_REACTORS
330
69
102
}
102
{ACAD_XDICTIONARY
360
40D
102
}
330
69
100
AcDbTableStyle
  3
Standard
 70
     0
 71
     0
 40
0.06
 41
0.06
280
     0
281
     0
  7
Standard
140
0.18
170
     2
 62
     0
 63
   257
283
     0
 90
        4
 91
        0
  1

274
    -2
284
     1
 64
     0
275
    -2
285
     1
 65
     0
276
    -2
286
     1
 66
     0
277
    -2
287
     1
 67
     0
278
    -2
288
     1
 68
     0
279
    -2
289
     1
 69
     0
  7
Standard
140
0.25
170
     5
 62
     0
 63
   257
283
     0
 90
        4
 91
        0
  1

274
    -2
284
     1
 64
     0
275
    -2
285
     1
 65
     0
276
    -2
286
     1
 66
     0
277
    -2
287
     1
 67
     0
278
    -2
288
     1
 68
     0
279
    -2
289
     1
 69
     0
  7
Standard
140
0.18
170
     5
 62
     0
 63
   257
283
     0
 90
        4
 91
        0
  1

274
    -2
284
     1
 64
     0
275
    -2
285
     1
 65
     0
276
    -2
286
     1
 66
     0
277
    -2
287
     1
 67
     0
278
    -2
288
     1
 68
     0
279
    -2
289
     1
 69
     0
  0
VISUALSTYLE
  5
2F
102
{ACAD_REACTORS
330
2A
102
}
330
2A
100
AcDbVisualStyle
  2
2dWireframe
 70
     4
177
     3
291
     0
 70
    58
 90
        0
176
     1
 90
        2
176
     1
 90
        0
176
     1
 90
        0
176
     1
 40
0.6
176
     1
 40
30.0
176
     1
 62
     7
420
 16777215
176
     1
 90
        1
176
     1
 90
        4
176
     1
 62
     7
176
     1
 62
   257
176
     1
 90
        1
176
     1
 90
        1
176
     1
 40
1.0
176
     1
 90
        0
176
     1
 62
   257
176
     1
 40
1.0
176
     1
 90
        1
176
     1
 90
        6
176
     1
 90
        2
176
     1
 62
     7
176
     1
 90
        5
176
     1
 90
        0
176
     1
 90
        0
176
     1
290
     0
176
     1
 90
        1
176
     1
 40
0.0
176
     1
 90
        0
176
     1
290
     1
176
     1
290
     1
176
     1
290
     0
176
     1
290
     0
176
     1
290
     0
176
     1
290
     0
176
     1
290
     0
176
     1
290
     0
176
     1
290
     0
176
     1
 90
       50
176
     1
 40
0.0
176
     1
 40
1.0
176
     1
 90
        0
176
     1
 62
    18
420
        0
176
     1
 90
       50
176
     1
 90
        3
176
     1
 62
     5
420
      255
176
     1
290
     0
176
     1
 90
       50
176
     1
 90
       50
176
     1
 90
       50
176
     1
290
     0
176
     1
 90
       50
176
     1
 62
   256
176
     0
 40
1.0
176
     0
 90
        2
176
     1
  1
strokes_ogs.tif
176
     1
290
     0
176
     1
 40
1.0
176
     1
 40
1.0
176
     1
  0
VISUALSTYLE
  5
32
102
{ACAD_REACTORS
330
2A
102
}
330
2A
100
AcDbVisualStyle
  2
Basic
 70
     7
177
     3
291
     1
 70
    58
 90
        1
176
     1
 90
        0
176
     1
 90
        1
176
     1
 90
        0
176
     1
 40
0.6
176
     1
 40
30.0
176
     1
 62
     7
420
 16777215
176
     1
 90
        0
176
     1
 90
        4
176
     1
 62
     7
176
     1
 62
   257
176
     1
 90
        1
176
     1
 90
        1
176
     1
 40
1.0
176
     1
 90
        8
176
     1
 62
     7
176
     1
 40
1.0
176
     1
 90
        1
176
     1
 90
        6
176
     1
 90
        2
176
     1
 62
     7
176
     1
 90
        5
176
     1
 90
        0
176
     1
 90
        0
176
     1
290
     0
176
     1
 90
        1
176
     1
 40
0.0
176
     1
 90
        0
176
     1
290
     0
176
     1
290
     1
176
     1
290
     1
176
     1
290
     0
176
     1
290
     0
176
     1
290
     0
176
     1
290
     0
176
     1
290
     0
176
     1
290
     0
176
     1
 90
       50
176
     1
 40
0.0
176
     1
 40
1.0
176
     1
 90
        0
176
     1
 62
    18
420
        0
176
     1
 90
       50
176
     1
 90
        3
176
     1
 62
     5
420
      255
176
     1
290
     0
176
     1
 90
       50
176
     1
 90
       50
176
     1
 90
       50
176
     1
290
     0
176
     1
 90
       50
176
     1
 62
   256
176
     0
 40
1.0
176
     0
 90
        2
176
     1
  1
strokes_ogs.tif
176
     1
290
     0
176
     1
 40
1.0
176
     1
 40
1.0
176
     1
  0
VISUALSTYLE
  5
36
102
{ACAD_REACTORS
330
2A
102
}
330
2A
100
AcDbVisualStyle
  2
Brighten
 70
    12
177
     3
291
     1
 70
    58
 90
        2
176
     1
 90
        2
176
     1
 90
        0
176
     1
 90
        0
176
     1
 40
0.6
176
     1
 40
30.0
176
     1
 62
     7
420
 16777215
176
     1
 90
        1
176
     1
 90
        4
176
     1
 62
     7
176
     1
 62
   257
176
     1
 90
        1
176
     1
 90
        1
176
     1
 40
1.0
176
     1
 90
        8
176
     1
 62
     7
176
     1
 40
1.0
176
     1
 90
        1
176
     1
 90
        6
176
     1
 90
        2
176
     1
 62
     7
176
     1
 90
        5
176
     1
 90
        0
176
     1
 90
        0
176
     1
290
     0
176
     1
 90
        1
176
     1
 40
50.0
176
     1
 90
        0
176
     1
290
     0
176
     1
290
     1
176
     1
290
     1
176
     1
290
     0
176
     1
290
     0
176
     1
290
     0
176
     1
290
     0
176
     1
290
     0
176
     1
290
     0
176
     1
 90
       50
176
     1
 40
0.0
176
     1
 40
1.0
176
     1
 90
        0
176
     1
 62
    18
420
        0
176
     1
 90
       50
176
     1
 90
        3
176
     1
 62
     5
420
      255
176
     1
290
     0
176
     1
 90
       50
176
     1
 90
       50
176
     1
 90
       50
176
     1
290
     0
176
     1
 90
       50
176
     1
 62
   256
176
     0
 40
1.0
176
     0
 90
        2
176
     1
  1
strokes_ogs.tif
176
     1
290
     0
176
     1
 40
1.0
176
     1
 40
1.0
176
     1
  0
VISUALSTYLE
  5
3A
102
{ACAD_REACTORS
330
2A
102
}
330
2A
100
AcDbVisualStyle
  2
ColorChange
 70
    16
177
     3
291
     1
 70
    58
 90
        2
176
     1
 90
        2
176
     1
 90
        3
176
     1
 90
        0
176
     1
 40
0.6
176
     1
 40
30.0
176
     1
 62
     8
420
  8421504
176
     1
 90
        1
176
     1
 90
        4
176
     1
 62
     7
176
     1
 62
   257
176
     1
 90
        1
176
     1
 90
        1
176
     1
 40
1.0
176
     1
 90
        8
176
     1
 62
     8
420
  8421504
176
     1
 40
1.0
176
     1
 90
        1
176
     1
 90
        6
176
     1
 90
        2
176
     1
 62
     7
176
     1
 90
        5
176
     1
 90
        0
176
     1
 90
        0
176
     1
290
     0
176
     1
 90
        1
176
     1
 40
0.0
176
     1
 90
        0
176
     1
290
     0
176
     1
290
     1
176
     1
290
     1
176
     1
290
     0
176
     1
290
     0
176
     1
290
     0
176
     1
290
     0
176
     1
290
     0
176
     1
290
     0
176
     1
 90
       50
176
     1
 40
0.0
176
     1
 40
1.0
176
     1
 90
        0
176
     1
 62
    18
420
        0
176
     1
 90
       50
176
     1
 90
        3
176
     1
 62
     5
420
      255
176
     1
290
     0
176
     1
 90
       50
176
     1
 90
       50
176
     1
 90
       50
176
     1
290
     0
176
     1
 90
       50
176
     1
 62
   256
176
     0
 40
1.0
176
     0
 90
        2
176
     1
  1
strokes_ogs.tif
176
     1
290
     0
176
     1
 40
1.0
176
     1
 40
1.0
176
     1
  0
VISUALSTYLE
  5
34
102
{ACAD_REACTORS
330
2A
102
}
330
2A
100
AcDbVisualStyle
  2
Conceptual
 70
     9
177
     3
291
     0
 70
    58
 90
        3
176
     1
 90
        2
176
     1
 90
        0
176
     1
 90
        0
176
     1
 40
0.6
176
     1
 40
30.0
176
     1
 62
     7
420
 16777215
176
     1
 90
        2
176
     1
 90
        2
176
     1
 62
     7
176
     1
 62
   257
176
     1
 90
        1
176
     1
 90
        1
176
     1
 40
179.0
176
     1
 90
        8
176
     1
 62
     7
176
     1
 40
1.0
176
     1
 90
        1
176
     1
 90
        6
176
     1
 90
        2
176
     1
 62
     7
176
     1
 90
        3
176
     1
 90
        0
176
     1
 90
        0
176
     1
290
     0
176
     1
 90
        1
176
     1
 40
0.0
176
     1
 90
        0
176
     1
290
     0
176
     1
290
     1
176
     1
290
     1
176
     1
290
     0
176
     1
290
     0
176
     1
290
     0
176
     1
290
     0
176
     1
290
     0
176
     1
290
     0
176
     1
 90
       50
176
     1
 40
0.0
176
     1
 40
1.0
176
     1
 90
        0
176
     1
 62
    18
420
        0
176
     1
 90
       50
176
     1
 90
        3
176
     1
 62
     5
420
      255
176
     1
290
     0
176
     1
 90
       50
176
     1
 90
       50
176
     1
 90
       50
176
     1
290
     0
176
     1
 90
       50
176
     1
 62
   256
176
     0
 40
1.0
176
     0
 90
        2
176
     1
  1
strokes_ogs.tif
176
     1
290
     0
176
     1
 40
1.0
176
     1
 40
1.0
176
     1
  0
VISUALSTYLE
  5
35
102
{ACAD_REACTORS
330
2A
102
}
330
2A
100
AcDbVisualStyle
  2
Dim
 70
    11
177
     3
291
     1
 70
    58
 90
        2
176
     1
 90
        2
176
     1
 90
        0
176
     1
 90
        0
176
     1
 40
0.6
176
     1
 40
30.0
176
     1
 62
     7
420
 16777215
176
     1
 90
        1
176
     1
 90
        4
176
     1
 62
     7
176
     1
 62
   257
176
     1
 90
        1
176
     1
 90
        1
176
     1
 40
1.0
176
     1
 90
        8
176
     1
 62
     7
176
     1
 40
1.0
176
     1
 90
        1
176
     1
 90
        6
176
     1
 90
        2
176
     1
 62
     7
176
     1
 90
        5
176
     1
 90
        0
176
     1
 90
        0
176
     1
290
     0
176
     1
 90
        1
176
     1
 40
-50.0
176
     1
 90
        0
176
     1
290
     0
176
     1
290
     1
176
     1
290
     1
176
     1
290
     0
176
     1
290
     0
176
     1
290
     0
176
     1
290
     0
176
     1
290
     0
176
     1
290
     0
176
     1
 90
       50
176
     1
 40
0.0
176
     1
 40
1.0
176
     1
 90
        0
176
     1
 62
    18
420
        0
176
     1
 90
       50
176
     1
 90
        3
176
     1
 62
     5
420
      255
176
     1
290
     0
176
     1
 90
       50
176
     1
 90
       50
176
     1
 90
       50
176
     1
290
     0
176
     1
 90
       50
176
     1
 62
   256
176
     0
 40
1.0
176
     0
 90
        2
176
     1
  1
strokes_ogs.tif
176
     1
290
     0
176
     1
 40
1.0
176
     1
 40
1.0
176
     1
  0
VISUALSTYLE
  5
3D
102
{ACAD_REACTORS
330
2A
102
}
330
2A
100
AcDbVisualStyle
  2
EdgeColorOff
 70
    22
177
     3
291
     1
 70
    58
 90
        2
176
     0
 90
        2
176
     0
 90
        0
176
     0
 90
        0
176
     0
 40
0.6
176
     0
 40
30.0
176
     0
 62
     7
420
 16777215
176
     0
 90
        1
176
     0
 90
        4
176
     0
 62
     7
176
     0
 62
   257
176
     0
 90
        1
176
     0
 90
        1
176
     0
 40
1.0
176
     0
 90
        8
176
     2
 62
     7
176
     0
 40
1.0
176
     0
 90
        1
176
     0
 90
        6
176
     0
 90
        2
176
     0
 62
     7
176
     0
 90
        5
176
     0
 90
        0
176
     0
 90
        0
176
     0
290
     0
176
     0
 90
        1
176
     0
 40
0.0
176
     0
 90
        0
176
     0
290
     0
176
     0
290
     1
176
     0
290
     1
176
     0
290
     0
176
     0
290
     0
176
     0
290
     0
176
     0
290
     0
176
     0
290
     0
176
     0
290
     0
176
     0
 90
       50
176
     0
 40
0.0
176
     0
 40
1.0
176
     0
 90
        0
176
     0
 62
    18
420
        0
176
     0
 90
       50
176
     0
 90
        3
176
     0
 62
     5
420
      255
176
     0
290
     0
176
     0
 90
       50
176
     0
 90
       50
176
     0
 90
       50
176
     0
290
     0
176
     0
 90
       50
176
     0
 62
   256
176
     0
 40
1.0
176
     0
 90
        2
176
     0
  1
strokes_ogs.tif
176
     0
290
     0
176
     0
 40
1.0
176
     0
 40
1.0
176
     0
  0
VISUALSTYLE
  5
39
102
{ACAD_REACTORS
330
2A
102
}
330
2A
100
AcDbVisualStyle
  2
Facepattern
 70
    15
177
     3
291
     1
 70
    58
 90
        2
176
     1
 90
        2
176
     1
 90
        0
176
     1
 90
        0
176
     1
 40
0.6
176
     1
 40
30.0
176
     1
 62
     7
420
 16777215
176
     1
 90
        1
176
     1
 90
        4
176
     1
 62
     7
176
     1
 62
   257
176
     1
 90
        1
176
     1
 90
        1
176
     1
 40
1.0
176
     1
 90
        8
176
     1
 62
     7
176
     1
 40
1.0
176
     1
 90
        1
176
     1
 90
        6
176
     1
 90
        2
176
     1
 62
     7
176
     1
 90
        5
176
     1
 90
        0
176
     1
 90
        0
176
     1
290
     0
176
     1
 90
        1
176
     1
 40
0.0
176
     1
 90
        0
176
     1
290
     0
176
     1
290
     1
176
     1
290
     1
176
     1
290
     0
176
     1
290
     0
176
     1
290
     0
176
     1
290
     0
176
     1
290
     0
176
     1
290
     0
176
     1
 90
       50
176
     1
 40
0.0
176
     1
 40
1.0
176
     1
 90
        0
176
     1
 62
    18
420
        0
176
     1
 90
       50
176
     1
 90
        3
176
     1
 62
     5
420
      255
176
     1
290
     0
176
     1
 90
       50
176
     1
 90
       50
176
     1
 90
       50
176
     1
290
     0
176
     1
 90
       50
176
     1
 62
   256
176
     0
 40
1.0
176
     0
 90
        2
176
     1
  1
strokes_ogs.tif
176
     1
290
     0
176
     1
 40
1.0
176
     1
 40
1.0
176
     1
  0
VISUALSTYLE
  5
2B
102
{ACAD_REACTORS
330
2A
102
}
330
2A
100
AcDbVisualStyle
  2
Flat
 70
     0
177
     3
291
     1
 70
    58
 90
        2
176
     1
 90
        1
176
     1
 90
        1
176
     1
 90
        2
176
     1
 40
0.6
176
     1
 40
30.0
176
     1
 62
     7
420
 16777215
176
     1
 90
        0
176
     1
 90
        0
176
     1
 62
     7
176
     1
 62
   257
176
     1
 90
        1
176
     1
 90
        1
176
     1
 40
1.0
176
     1
 90
        8
176
     1
 62
     7
176
     1
 40
1.0
176
     1
 90
        1
176
     1
 90
        6
176
     1
 90
        2
176
     1
 62
     7
176
     1
 90
        5
176
     1
 90
        0
176
     1
 90
        0
176
     1
290
     0
176
     1
 90
       13
176
     1
 40
0.0
176
     1
 90
        0
176
     1
290
     0
176
     1
290
     1
176
     1
290
     1
176
     1
290
     0
176
     1
290
     0
176
     1
290
     0
176
     1
290
     0
176
     1
290
     0
176
     1
290
     0
176
     1
 90
       50
176
     1
 40
0.0
176
     1
 40
1.0
176
     1
 90
        0
176
     1
 62
    18
420
        0
176
     1
 90
       50
176
     1
 90
        3
176
     1
 62
     5
420
      255
176
     1
290
     0
176
     1
 90
       50
176
     1
 90
       50
176
     1
 90
       50
176
     1
290
     0
176
     1
 90
       50
176
     1
 62
   256
176
     0
 40
1.0
176
     0
 90
        2
176
     1
  1
strokes_ogs.tif
176
     1
290
     0
176
     1
 40
1.0
176
     1
 40
1.0
176
     1
  0
VISUALSTYLE
  5
2C
102
{ACAD_REACTORS
330
2A
102
}
330
2A
100
AcDbVisualStyle
  2
FlatWithEdges
 70
     1
177
     3
291
     1
 70
    58
 90
        2
176
     1
 90
        1
176
     1
 90
        1
176
     1
 90
        2
176
     1
 40
0.6
176
     1
 40
30.0
176
     1
 62
     7
420
 16777215
176
     1
 90
        1
176
     1
 90
        0
176
     1
 62
     7
176
     1
 62
   257
176
     1
 90
        1
176
     1
 90
        1
176
     1
 40
1.0
176
     1
 90
        0
176
     1
 62
   257
176
     1
 40
1.0
176
     1
 90
        1
176
     1
 90
        6
176
     1
 90
        2
176
     1
 62
     7
176
     1
 90
        5
176
     1
 90
        0
176
     1
 90
        0
176
     1
290
     0
176
     1
 90
       13
176
     1
 40
0.0
176
     1
 90
        0
176
     1
290
     0
176
     1
290
     1
176
     1
290
     1
176
     1
290
     0
176
     1
290
     0
176
     1
290
     0
176
     1
290
     0
176
     1
290
     0
176
     1
290
     0
176
     1
 90
       50
176
     1
 40
0.0
176
     1
 40
1.0
176
     1
 90
        0
176
     1
 62
    18
420
        0
176
     1
 90
       50
176
     1
 90
        3
176
     1
 62
     5
420
      255
176
     1
290
     0
176
     1
 90
       50
176
     1
 90
       50
176
     1
 90
       50
176
     1
290
     0
176
     1
 90
       50
176
     1
 62
   256
176
     0
 40
1.0
176
     0
 90
        2
176
     1
  1
strokes_ogs.tif
176
     1
290
     0
176
     1
 40
1.0
176
     1
 40
1.0
176
     1
  0
VISUALSTYLE
  5
2D
102
{ACAD_REACTORS
330
2A
102
}
330
2A
100
AcDbVisualStyle
  2
Gouraud
 70
     2
177
     3
291
     1
 70
    58
 90
        2
176
     1
 90
        2
176
     1
 90
        1
176
     1
 90
        2
176
     1
 40
0.6
176
     1
 40
30.0
176
     1
 62
     7
420
 16777215
176
     1
 90
        0
176
     1
 90
        0
176
     1
 62
     7
176
     1
 62
   257
176
     1
 90
        1
176
     1
 90
        1
176
     1
 40
1.0
176
     1
 90
        0
176
     1
 62
     7
176
     1
 40
1.0
176
     1
 90
        1
176
     1
 90
        6
176
     1
 90
        2
176
     1
 62
     7
176
     1
 90
        5
176
     1
 90
        0
176
     1
 90
        0
176
     1
290
     0
176
     1
 90
       13
176
     1
 40
0.0
176
     1
 90
        0
176
     1
290
     0
176
     1
290
     1
176
     1
290
     1
176
     1
290
     0
176
     1
290
     0
176
     1
290
     0
176
     1
290
     0
176
     1
290
     0
176
     1
290
     0
176
     1
 90
       50
176
     1
 40
0.0
176
     1
 40
1.0
176
     1
 90
        0
176
     1
 62
    18
420
        0
176
     1
 90
       50
176
     1
 90
        3
176
     1
 62
     5
420
      255
176
     1
290
     0
176
     1
 90
       50
176
     1
 90
       50
176
     1
 90
       50
176
     1
290
     0
176
     1
 90
       50
176
     1
 62
   256
176
     0
 40
1.0
176
     0
 90
        2
176
     1
  1
strokes_ogs.tif
176
     1
290
     0
176
     1
 40
1.0
176
     1
 40
1.0
176
     1
  0
VISUALSTYLE
  5
2E
102
{ACAD_REACTORS
330
2A
102
}
330
2A
100
AcDbVisualStyle
  2
GouraudWithEdges
 70
     3
177
     3
291
     1
 70
    58
 90
        2
176
     1
 90
        2
176
     1
 90
        1
176
     1
 90
        2
176
     1
 40
0.6
176
     1
 40
30.0
176
     1
 62
     7
420
 16777215
176
     1
 90
        1
176
     1
 90
        0
176
     1
 62
     7
176
     1
 62
   257
176
     1
 90
        1
176
     1
 90
        1
176
     1
 40
1.0
176
     1
 90
        0
176
     1
 62
   257
176
     1
 40
1.0
176
     1
 90
        1
176
     1
 90
        6
176
     1
 90
        2
176
     1
 62
     7
176
     1
 90
        5
176
     1
 90
        0
176
     1
 90
        0
176
     1
290
     0
176
     1
 90
       13
176
     1
 40
0.0
176
     1
 90
        0
176
     1
290
     0
176
     1
290
     1
176
     1
290
     1
176
     1
290
     0
176
     1
290
     0
176
     1
290
     0
176
     1
290
     0
176
     1
290
     0
176
     1
290
     0
176
     1
 90
       50
176
     1
 40
0.0
176
     1
 40
1.0
176
     1
 90
        0
176
     1
 62
    18
420
        0
176
     1
 90
       50
176
     1
 90
        3
176
     1
 62
     5
420
      255
176
     1
290
     0
176
     1
 90
       50
176
     1
 90
       50
176
     1
 90
       50
176
     1
290
     0
176
     1
 90
       50
176
     1
 62
   256
176
     0
 40
1.0
176
     0
 90
        2
176
     1
  1
strokes_ogs.tif
176
     1
290
     0
176
     1
 40
1.0
176
     1
 40
1.0
176
     1
  0
VISUALSTYLE
  5
31
102
{ACAD_REACTORS
330
2A
102
}
330
2A
100
AcDbVisualStyle
  2
Hidden
 70
     6
177
     3
291
     0
 70
    58
 90
        1
176
     1
 90
        2
176
     1
 90
        2
176
     1
 90
        0
176
     1
 40
0.6
176
     1
 40
30.0
176
     1
 62
     7
420
 16777215
176
     1
 90
        2
176
     1
 90
        2
176
     1
 62
     7
176
     1
 62
   257
176
     1
 90
        2
176
     1
 90
        1
176
     1
 40
40.0
176
     1
 90
        0
176
     1
 62
   257
176
     1
 40
1.0
176
     1
 90
        1
176
     1
 90
        6
176
     1
 90
        2
176
     1
 62
     7
176
     1
 90
        3
176
     1
 90
        0
176
     1
 90
        0
176
     1
290
     0
176
     1
 90
        1
176
     1
 40
0.0
176
     1
 90
        0
176
     1
290
     0
176
     1
290
     1
176
     1
290
     1
176
     1
290
     0
176
     1
290
     0
176
     1
290
     0
176
     1
290
     0
176
     1
290
     0
176
     1
290
     0
176
     1
 90
       50
176
     1
 40
0.0
176
     1
 40
1.0
176
     1
 90
        0
176
     1
 62
    18
420
        0
176
     1
 90
       50
176
     1
 90
        3
176
     1
 62
     5
420
      255
176
     1
290
     0
176
     1
 90
       50
176
     1
 90
       50
176
     1
 90
       50
176
     1
290
     0
176
     1
 90
       50
176
     1
 62
   256
176
     0
 40
1.0
176
     0
 90
        2
176
     1
  1
strokes_ogs.tif
176
     1
290
     0
176
     1
 40
1.0
176
     1
 40
1.0
176
     1
  0
VISUALSTYLE
  5
3B
102
{ACAD_REACTORS
330
2A
102
}
330
2A
100
AcDbVisualStyle
  2
JitterOff
 70
    20
177
     3
291
     1
 70
    58
 90
        2
176
     0
 90
        2
176
     0
 90
        0
176
     0
 90
        0
176
     0
 40
0.6
176
     0
 40
30.0
176
     0
 62
     7
420
 16777215
176
     0
 90
        1
176
     0
 90
        4
176
     0
 62
     7
176
     0
 62
   257
176
     0
 90
        1
176
     0
 90
        1
176
     0
 40
1.0
176
     0
 90
       10
176
     2
 62
     7
176
     0
 40
1.0
176
     0
 90
        1
176
     0
 90
        6
176
     0
 90
        2
176
     0
 62
     7
176
     0
 90
        5
176
     0
 90
        0
176
     0
 90
        0
176
     0
290
     0
176
     0
 90
        1
176
     0
 40
0.0
176
     0
 90
        0
176
     0
290
     0
176
     0
290
     1
176
     0
290
     1
176
     0
290
     0
176
     0
290
     0
176
     0
290
     0
176
     0
290
     0
176
     0
290
     0
176
     0
290
     0
176
     0
 90
       50
176
     0
 40
0.0
176
     0
 40
1.0
176
     0
 90
        0
176
     0
 62
    18
420
        0
176
     0
 90
       50
176
     0
 90
        3
176
     0
 62
     5
420
      255
176
     0
290
     0
176
     0
 90
       50
176
     0
 90
       50
176
     0
 90
       50
176
     0
290
     0
176
     0
 90
       50
176
     0
 62
   256
176
     0
 40
1.0
176
     0
 90
        2
176
     0
  1
strokes_ogs.tif
176
     0
290
     0
176
     0
 40
1.0
176
     0
 40
1.0
176
     0
  0
VISUALSTYLE
  5
38
102
{ACAD_REACTORS
330
2A
102
}
330
2A
100
AcDbVisualStyle
  2
Linepattern
 70
    14
177
     3
291
     1
 70
    58
 90
        2
176
     1
 90
        2
176
     1
 90
        0
176
     1
 90
        0
176
     1
 40
0.6
176
     1
 40
30.0
176
     1
 62
     7
420
 16777215
176
     1
 90
        1
176
     1
 90
        4
176
     1
 62
     7
176
     1
 62
   257
176
     1
 90
        7
176
     1
 90
        7
176
     1
 40
1.0
176
     1
 90
        8
176
     1
 62
     7
176
     1
 40
1.0
176
     1
 90
        1
176
     1
 90
        6
176
     1
 90
        2
176
     1
 62
     7
176
     1
 90
        5
176
     1
 90
        0
176
     1
 90
        0
176
     1
290
     0
176
     1
 90
        1
176
     1
 40
0.0
176
     1
 90
        0
176
     1
290
     0
176
     1
290
     1
176
     1
290
     1
176
     1
290
     0
176
     1
290
     0
176
     1
290
     0
176
     1
290
     0
176
     1
290
     0
176
     1
290
     0
176
     1
 90
       50
176
     1
 40
0.0
176
     1
 40
1.0
176
     1
 90
        0
176
     1
 62
    18
420
        0
176
     1
 90
       50
176
     1
 90
        3
176
     1
 62
     5
420
      255
176
     1
290
     0
176
     1
 90
       50
176
     1
 90
       50
176
     1
 90
       50
176
     1
290
     0
176
     1
 90
       50
176
     1
 62
   256
176
     0
 40
1.0
176
     0
 90
        2
176
     1
  1
strokes_ogs.tif
176
     1
290
     0
176
     1
 40
1.0
176
     1
 40
1.0
176
     1
  0
VISUALSTYLE
  5
3C
102
{ACAD_REACTORS
330
2A
102
}
330
2A
100
AcDbVisualStyle
  2
OverhangOff
 70
    21
177
     3
291
     1
 70
    58
 90
        2
176
     0
 90
        2
176
     0
 90
        0
176
     0
 90
        0
176
     0
 40
0.6
176
     0
 40
30.0
176
     0
 62
     7
420
 16777215
176
     0
 90
        1
176
     0
 90
        4
176
     0
 62
     7
176
     0
 62
   257
176
     0
 90
        1
176
     0
 90
        1
176
     0
 40
1.0
176
     0
 90
        9
176
     2
 62
     7
176
     0
 40
1.0
176
     0
 90
        1
176
     0
 90
        6
176
     0
 90
        2
176
     0
 62
     7
176
     0
 90
        5
176
     0
 90
        0
176
     0
 90
        0
176
     0
290
     0
176
     0
 90
        1
176
     0
 40
0.0
176
     0
 90
        0
176
     0
290
     0
176
     0
290
     1
176
     0
290
     1
176
     0
290
     0
176
     0
290
     0
176
     0
290
     0
176
     0
290
     0
176
     0
290
     0
176
     0
290
     0
176
     0
 90
       50
176
     0
 40
0.0
176
     0
 40
1.0
176
     0
 90
        0
176
     0
 62
    18
420
        0
176
     0
 90
       50
176
     0
 90
        3
176
     0
 62
     5
420
      255
176
     0
290
     0
176
     0
 90
       50
176
     0
 90
       50
176
     0
 90
       50
176
     0
290
     0
176
     0
 90
       50
176
     0
 62
   256
176
     0
 40
1.0
176
     0
 90
        2
176
     0
  1
strokes_ogs.tif
176
     0
290
     0
176
     0
 40
1.0
176
     0
 40
1.0
176
     0
  0
VISUALSTYLE
  5
33
102
{ACAD_REACTORS
330
2A
102
}
330
2A
100
AcDbVisualStyle
  2
Realistic
 70
     8
177
     3
291
     0
 70
    58
 90
        2
176
     1
 90
        3
176
     1
 90
        0
176
     1
 90
        2
176
     1
 40
0.6
176
     1
 40
30.0
176
     1
 62
     7
420
 16777215
176
     1
 90
        0
176
     1
 90
        0
176
     1
 62
     7
176
     1
 62
   257
176
     1
 90
        1
176
     1
 90
        1
176
     1
 40
1.0
176
     1
 90
        8
176
     1
 62
   257
176
     1
 40
1.0
176
     1
 90
        1
176
     1
 90
        6
176
     1
 90
        2
176
     1
 62
     7
176
     1
 90
        3
176
     1
 90
        0
176
     1
 90
        0
176
     1
290
     0
176
     1
 90
       13
176
     1
 40
0.0
176
     1
 90
        0
176
     1
290
     0
176
     1
290
     1
176
     1
290
     1
176
     1
290
     0
176
     1
290
     0
176
     1
290
     0
176
     1
290
     0
176
     1
290
     0
176
     1
290
     0
176
     1
 90
       50
176
     1
 40
0.0
176
     1
 40
1.0
176
     1
 90
        0
176
     1
 62
    18
420
        0
176
     1
 90
       50
176
     1
 90
        3
176
     1
 62
     5
420
      255
176
     1
290
     0
176
     1
 90
       50
176
     1
 90
       50
176
     1
 90
       50
176
     1
290
     0
176
     1
 90
       50
176
     1
 62
   256
176
     0
 40
1.0
176
     0
 90
        2
176
     1
  1
strokes_ogs.tif
176
     1
290
     0
176
     1
 40
1.0
176
     1
 40
1.0
176
     1
  0
VISUALSTYLE
  5
42
102
{ACAD_REACTORS
330
2A
102
}
330
2A
100
AcDbVisualStyle
  2
Shaded
 70
    27
177
     3
291
     0
 70
    58
 90
        2
176
     1
 90
        2
176
     1
 90
        1
176
     1
 90
        2
176
     1
 40
0.6
176
     1
 40
30.0
176
     1
 62
     7
420
 16777215
176
     1
 90
        0
176
     1
 90
        4
176
     1
 62
     7
176
     1
 62
   257
176
     1
 90
        1
176
     1
 90
        1
176
     1
 40
1.0
176
     1
 90
        8
176
     1
 62
   257
176
     1
 40
1.0
176
     1
 90
        1
176
     1
 90
        6
176
     1
 90
        2
176
     1
 62
     8
420
  7895160
176
     1
 90
        3
176
     1
 90
        0
176
     1
 90
        0
176
     1
290
     0
176
     1
 90
        5
176
     1
 40
0.0
176
     1
 90
        0
176
     1
290
     0
176
     1
290
     1
176
     1
290
     1
176
     1
290
     0
176
     1
290
     0
176
     1
290
     0
176
     1
290
     0
176
     1
290
     0
176
     1
290
     0
176
     1
 90
       50
176
     1
 40
0.0
176
     1
 40
1.0
176
     1
 90
        0
176
     1
 62
    18
420
        0
176
     1
 90
       50
176
     1
 90
        3
176
     1
 62
     5
420
      255
176
     1
290
     0
176
     1
 90
       50
176
     1
 90
       50
176
     1
 90
       50
176
     1
290
     0
176
     1
 90
       50
176
     1
 62
   256
176
     0
 40
1.0
176
     0
 90
        2
176
     1
  1
strokes_ogs.tif
176
     1
290
     0
176
     1
 40
1.0
176
     1
 40
1.0
176
     1
  0
VISUALSTYLE
  5
41
102
{ACAD_REACTORS
330
2A
102
}
330
2A
100
AcDbVisualStyle
  2
Shaded with edges
 70
    26
177
     3
291
     0
 70
    58
 90
        2
176
     1
 90
        2
176
     1
 90
        1
176
     1
 90
        2
176
     1
 40
0.6
176
     1
 40
30.0
176
     1
 62
     7
420
 16777215
176
     1
 90
        1
176
     1
 90
       10
176
     1
 62
     7
176
     1
 62
   257
176
     1
 90
        2
176
     1
 90
        1
176
     1
 40
1.0
176
     1
 90
        8
176
     1
 62
   257
176
     1
 40
1.0
176
     1
 90
        1
176
     1
 90
        6
176
     1
 90
        2
176
     1
 62
     7
176
     1
 90
        3
176
     1
 90
        0
176
     1
 90
        0
176
     1
290
     0
176
     1
 90
        5
176
     1
 40
0.0
176
     1
 90
        0
176
     1
290
     0
176
     1
290
     1
176
     1
290
     1
176
     1
290
     0
176
     1
290
     0
176
     1
290
     0
176
     1
290
     0
176
     1
290
     0
176
     1
290
     0
176
     1
 90
       50
176
     1
 40
0.0
176
     1
 40
1.0
176
     1
 90
        0
176
     1
 62
    18
420
        0
176
     1
 90
       50
176
     1
 90
        3
176
     1
 62
     5
420
      255
176
     1
290
     0
176
     1
 90
       50
176
     1
 90
       50
176
     1
 90
       50
176
     1
290
     0
176
     1
 90
       50
176
     1
 62
   256
176
     0
 40
1.0
176
     0
 90
        2
176
     1
  1
strokes_ogs.tif
176
     1
290
     0
176
     1
 40
1.0
176
     1
 40
1.0
176
     1
  0
VISUALSTYLE
  5
3E
102
{ACAD_REACTORS
330
2A
102
}
330
2A
100
AcDbVisualStyle
  2
Shades of Gray
 70
    23
177
     3
291
     0
 70
    58
 90
        2
176
     1
 90
        2
176
     1
 90
        3
176
     1
 90
        0
176
     1
 40
0.6
176
     1
 40
30.0
176
     1
 62
     7
420
 16777215
176
     1
 90
        2
176
     1
 90
        2
176
     1
 62
     7
176
     1
 62
     7
176
     1
 90
        1
176
     1
 90
        1
176
     1
 40
40.0
176
     1
 90
        8
176
     1
 62
     7
176
     1
 40
1.0
176
     1
 90
        1
176
     1
 90
        6
176
     1
 90
        2
176
     1
 62
     7
176
     1
 90
        3
176
     1
 90
        0
176
     1
 90
        0
176
     1
290
     0
176
     1
 90
        1
176
     1
 40
0.0
176
     1
 90
        0
176
     1
290
     0
176
     1
290
     1
176
     1
290
     1
176
     1
290
     0
176
     1
290
     0
176
     1
290
     0
176
     1
290
     0
176
     1
290
     0
176
     1
290
     0
176
     1
 90
       50
176
     1
 40
0.0
176
     1
 40
1.0
176
     1
 90
        0
176
     1
 62
    18
420
        0
176
     1
 90
       50
176
     1
 90
        3
176
     1
 62
     5
420
      255
176
     1
290
     0
176
     1
 90
       50
176
     1
 90
       50
176
     1
 90
       50
176
     1
290
     0
176
     1
 90
       50
176
     1
 62
   256
176
     0
 40
1.0
176
     0
 90
        2
176
     1
  1
strokes_ogs.tif
176
     1
290
     0
176
     1
 40
1.0
176
     1
 40
1.0
176
     1
  0
VISUALSTYLE
  5
3F
102
{ACAD_REACTORS
330
2A
102
}
330
2A
100
AcDbVisualStyle
  2
Sketchy
 70
    24
177
     3
291
     0
 70
    58
 90
        1
176
     1
 90
        2
176
     1
 90
        2
176
     1
 90
        0
176
     1
 40
0.6
176
     1
 40
30.0
176
     1
 62
     7
420
 16777215
176
     1
 90
        2
176
     1
 90
        2
176
     1
 62
     7
176
     1
 62
     7
176
     1
 90
        1
176
     1
 90
        1
176
     1
 40
40.0
176
     1
 90
       11
176
     1
 62
     7
176
     1
 40
1.0
176
     1
 90
        1
176
     1
 90
        6
176
     1
 90
        2
176
     1
 62
     7
176
     1
 90
        6
176
     1
 90
        0
176
     1
 90
        0
176
     1
290
     0
176
     1
 90
        1
176
     1
 40
0.0
176
     1
 90
        0
176
     1
290
     0
176
     1
290
     1
176
     1
290
     1
176
     1
290
     0
176
     1
290
     0
176
     1
290
     0
176
     1
290
     0
176
     1
290
     0
176
     1
290
     0
176
     1
 90
       50
176
     1
 40
0.0
176
     1
 40
1.0
176
     1
 90
        0
176
     1
 62
    18
420
        0
176
     1
 90
       50
176
     1
 90
        3
176
     1
 62
     5
420
      255
176
     1
290
     0
176
     1
 90
       50
176
     1
 90
       50
176
     1
 90
       50
176
     1
290
     0
176
     1
 90
       50
176
     1
 62
   256
176
     0
 40
1.0
176
     0
 90
        2
176
     1
  1
strokes_ogs.tif
176
     1
290
     0
176
     1
 40
1.0
176
     1
 40
1.0
176
     1
  0
VISUALSTYLE
  5
37
102
{ACAD_REACTORS
330
2A
102
}
330
2A
100
AcDbVisualStyle
  2
Thicken
 70
    13
177
     3
291
     1
 70
    58
 90
        2
176
     1
 90
        2
176
     1
 90
        0
176
     1
 90
        0
176
     1
 40
0.6
176
     1
 40
30.0
176
     1
 62
     7
420
 16777215
176
     1
 90
        1
176
     1
 90
        4
176
     1
 62
     7
176
     1
 62
   257
176
     1
 90
        1
176
     1
 90
        1
176
     1
 40
1.0
176
     1
 90
       12
176
     1
 62
     7
176
     1
 40
1.0
176
     1
 90
        1
176
     1
 90
        6
176
     1
 90
        2
176
     1
 62
     7
176
     1
 90
        5
176
     1
 90
        0
176
     1
 90
        0
176
     1
290
     0
176
     1
 90
        1
176
     1
 40
0.0
176
     1
 90
        0
176
     1
290
     0
176
     1
290
     1
176
     1
290
     1
176
     1
290
     0
176
     1
290
     0
176
     1
290
     0
176
     1
290
     0
176
     1
290
     0
176
     1
290
     0
176
     1
 90
       50
176
     1
 40
0.0
176
     1
 40
1.0
176
     1
 90
        0
176
     1
 62
    18
420
        0
176
     1
 90
       50
176
     1
 90
        3
176
     1
 62
     5
420
      255
176
     1
290
     0
176
     1
 90
       50
176
     1
 90
       50
176
     1
 90
       50
176
     1
290
     0
176
     1
 90
       50
176
     1
 62
   256
176
     0
 40
1.0
176
     0
 90
        2
176
     1
  1
strokes_ogs.tif
176
     1
290
     0
176
     1
 40
1.0
176
     1
 40
1.0
176
     1
  0
VISUALSTYLE
  5
30
102
{ACAD_REACTORS
330
2A
102
}
330
2A
100
AcDbVisualStyle
  2
Wireframe
 70
     5
177
     3
291
     0
 70
    58
 90
        0
176
     1
 90
        2
176
     1
 90
        0
176
     1
 90
        0
176
     1
 40
0.6
176
     1
 40
30.0
176
     1
 62
     7
420
 16777215
176
     1
 90
        1
176
     1
 90
        4
176
     1
 62
     7
176
     1
 62
   257
176
     1
 90
        1
176
     1
 90
        1
176
     1
 40
1.0
176
     1
 90
        0
176
     1
 62
   257
176
     1
 40
1.0
176
     1
 90
        1
176
     1
 90
        6
176
     1
 90
        2
176
     1
 62
     7
176
     1
 90
        3
176
     1
 90
        0
176
     1
 90
        0
176
     1
290
     0
176
     1
 90
        1
176
     1
 40
0.0
176
     1
 90
        0
176
     1
290
     0
176
     1
290
     1
176
     1
290
     1
176
     1
290
     0
176
     1
290
     0
176
     1
290
     0
176
     1
290
     0
176
     1
290
     0
176
     1
290
     0
176
     1
 90
       50
176
     1
 40
0.0
176
     1
 40
1.0
176
     1
 90
        0
176
     1
 62
    18
420
        0
176
     1
 90
       50
176
     1
 90
        3
176
     1
 62
     5
420
      255
176
     1
290
     0
176
     1
 90
       50
176
     1
 90
       50
176
     1
 90
       50
176
     1
290
     0
176
     1
 90
       50
176
     1
 62
   256
176
     0
 40
1.0
176
     0
 90
        2
176
     1
  1
strokes_ogs.tif
176
     1
290
     0
176
     1
 40
1.0
176
     1
 40
1.0
176
     1
  0
VISUALSTYLE
  5
40
102
{ACAD_REACTORS
330
2A
102
}
330
2A
100
AcDbVisualStyle
  2
X-Ray
 70
    25
177
     3
291
     0
 70
    58
 90
        2
176
     1
 90
        2
176
     1
 90
        1
176
     1
 90
        1
176
     1
 40
0.5
176
     1
 40
30.0
176
     1
 62
     7
420
 16777215
176
     1
 90
        1
176
     1
 90
        0
176
     1
 62
     7
176
     1
 62
   257
176
     1
 90
        1
176
     1
 90
        1
176
     1
 40
1.0
176
     1
 90
        8
176
     1
 62
     7
176
     1
 40
1.0
176
     1
 90
        1
176
     1
 90
        6
176
     1
 90
        2
176
     1
 62
     7
176
     1
 90
        3
176
     1
 90
        0
176
     1
 90
        0
176
     1
290
     0
176
     1
 90
       13
176
     1
 40
0.0
176
     1
 90
        0
176
     1
290
     0
176
     1
290
     1
176
     1
290
     1
176
     1
290
     0
176
     1
290
     0
176
     1
290
     0
176
     1
290
     0
176
     1
290
     0
176
     1
290
     0
176
     1
 90
       50
176
     1
 40
0.0
176
     1
 40
1.0
176
     1
 90
        0
176
     1
 62
    18
420
        0
176
     1
 90
       50
176
     1
 90
        3
176
     1
 62
     5
420
      255
176
     1
290
     0
176
     1
 90
       50
176
     1
 90
       50
176
     1
 90
       50
176
     1
290
     0
176
     1
 90
       50
176
     1
 62
   256
176
     0
 40
1.0
176
     0
 90
        2
176
     1
  1
strokes_ogs.tif
176
     1
290
     0
176
     1
 40
1.0
176
     1
 40
1.0
176
     1
  0
DICTIONARYVAR
  5
40C
102
{ACAD_REACTORS
330
40B
102
}
330
40B
100
DictionaryVariables
280
     0
  1
1:1
  0
DICTIONARYVAR
  5
411
102
{ACAD_REACTORS
330
40B
102
}
330
40B
100
DictionaryVariables
280
     0
  1
Standard
  0
DICTIONARYVAR
  5
410
102
{ACAD_REACTORS
330
40B
102
}
330
40B
100
DictionaryVariables
280
     0
  1
Standard
  0
DICTIONARYVAR
  5
414
102
{ACAD_REACTORS
330
40B
102
}
330
40B
100
DictionaryVariables
280
     0
  1
0
  0
DICTIONARY
  5
40D
330
6A
100
AcDbDictionary
280
     1
281
     1
  3
ACAD_ROUNDTRIP_2008_TABLESTYLE_CELLSTYLEMAP
360
40E
  0
CELLSTYLEMAP
  5
40E
102
{ACAD_REACTORS
330
40D
102
}
330
40D
100
AcDbCellStyleMap
 90
        3
300
CELLSTYLE
  1
TABLEFORMAT_BEGIN
 90
        5
170
     1
 91
        0
 92
    32768
 62
   257
 93
        1
300
CONTENTFORMAT
  1
CONTENTFORMAT_BEGIN
 90
        0
 91
        0
 92
        4
 93
        0
300

 40
0.0
140
1.0
 94
        5
 62
     0
340
11
144
0.25
309
CONTENTFORMAT_END
171
     1
301
MARGIN
  1
CELLMARGIN_BEGIN
 40
0.06
 40
0.06
 40
0.06
 40
0.06
 40
0.06
 40
0.06
309
CELLMARGIN_END
 94
        6
 95
        1
302
GRIDFORMAT
  1
GRIDFORMAT_BEGIN
 90
        0
 91
        1
 62
     0
 92
       -2
340
14
 93
        0
 40
0.045
309
GRIDFORMAT_END
 95
        2
302
GRIDFORMAT
  1
GRIDFORMAT_BEGIN
 90
        0
 91
        1
 62
     0
 92
       -2
340
14
 93
        0
 40
0.045
309
GRIDFORMAT_END
 95
        4
302
GRIDFORMAT
  1
GRIDFORMAT_BEGIN
 90
        0
 91
        1
 62
     0
 92
       -2
340
14
 93
        0
 40
0.045
309
GRIDFORMAT_END
 95
        8
302
GRIDFORMAT
  1
GRIDFORMAT_BEGIN
 90
        0
 91
        1
 62
     0
 92
       -2
340
14
 93
        0
 40
0.045
309
GRIDFORMAT_END
 95
       16
302
GRIDFORMAT
  1
GRIDFORMAT_BEGIN
 90
        0
 91
        1
 62
     0
 92
       -2
340
14
 93
        0
 40
0.045
309
GRIDFORMAT_END
 95
       32
302
GRIDFORMAT
  1
GRIDFORMAT_BEGIN
 90
        0
 91
        1
 62
     0
 92
       -2
340
14
 93
        0
 40
0.045
309
GRIDFORMAT_END
309
TABLEFORMAT_END
  1
CELLSTYLE_BEGIN
 90
        1
 91
        1
300
_TITLE
309
CELLSTYLE_END
300
CELLSTYLE
  1
TABLEFORMAT_BEGIN
 90
        5
170
     1
 91
        0
 92
        0
 62
   257
 93
        1
300
CONTENTFORMAT
  1
CONTENTFORMAT_BEGIN
 90
        0
 91
        0
 92
        4
 93
        0
300

 40
0.0
140
1.0
 94
        5
 62
     0
340
11
144
0.18
309
CONTENTFORMAT_END
171
     1
301
MARGIN
  1
CELLMARGIN_BEGIN
 40
0.06
 40
0.06
 40
0.06
 40
0.06
 40
0.06
 40
0.06
309
CELLMARGIN_END
 94
        6
 95
        1
302
GRIDFORMAT
  1
GRIDFORMAT_BEGIN
 90
        0
 91
        1
 62
     0
 92
       -2
340
14
 93
        0
 40
0.045
309
GRIDFORMAT_END
 95
        2
302
GRIDFORMAT
  1
GRIDFORMAT_BEGIN
 90
        0
 91
        1
 62
     0
 92
       -2
340
14
 93
        0
 40
0.045
309
GRIDFORMAT_END
 95
        4
302
GRIDFORMAT
  1
GRIDFORMAT_BEGIN
 90
        0
 91
        1
 62
     0
 92
       -2
340
14
 93
        0
 40
0.045
309
GRIDFORMAT_END
 95
        8
302
GRIDFORMAT
  1
GRIDFORMAT_BEGIN
 90
        0
 91
        1
 62
     0
 92
       -2
340
14
 93
        0
 40
0.045
309
GRIDFORMAT_END
 95
       16
302
GRIDFORMAT
  1
GRIDFORMAT_BEGIN
 90
        0
 91
        1
 62
     0
 92
       -2
340
14
 93
        0
 40
0.045
309
GRIDFORMAT_END
 95
       32
302
GRIDFORMAT
  1
GRIDFORMAT_BEGIN
 90
        0
 91
        1
 62
     0
 92
       -2
340
14
 93
        0
 40
0.045
309
GRIDFORMAT_END
309
TABLEFORMAT_END
  1
CELLSTYLE_BEGIN
 90
        2
 91
        1
300
_HEADER
309
CELLSTYLE_END
300
CELLSTYLE
  1
TABLEFORMAT_BEGIN
 90
        5
170
     1
 91
        0
 92
        0
 62
   257
 93
        1
300
CONTENTFORMAT
  1
CONTENTFORMAT_BEGIN
 90
        0
 91
        0
 92
        4
 93
        0
300

 40
0.0
140
1.0
 94
        2
 62
     0
340
11
144
0.18
309
CONTENTFORMAT_END
171
     1
301
MARGIN
  1
CELLMARGIN_BEGIN
 40
0.06
 40
0.06
 40
0.06
 40
0.06
 40
0.06
 40
0.06
309
CELLMARGIN_END
 94
        6
 95
        1
302
GRIDFORMAT
  1
GRIDFORMAT_BEGIN
 90
        0
 91
        1
 62
     0
 92
       -2
340
14
 93
        0
 40
0.045
309
GRIDFORMAT_END
 95
        2
302
GRIDFORMAT
  1
GRIDFORMAT_BEGIN
 90
        0
 91
        1
 62
     0
 92
       -2
340
14
 93
        0
 40
0.045
309
GRIDFORMAT_END
 95
        4
302
GRIDFORMAT
  1
GRIDFORMAT_BEGIN
 90
        0
 91
        1
 62
     0
 92
       -2
340
14
 93
        0
 40
0.045
309
GRIDFORMAT_END
 95
        8
302
GRIDFORMAT
  1
GRIDFORMAT_BEGIN
 90
        0
 91
        1
 62
     0
 92
       -2
340
14
 93
        0
 40
0.045
309
GRIDFORMAT_END
 95
       16
302
GRIDFORMAT
  1
GRIDFORMAT_BEGIN
 90
        0
 91
        1
 62
     0
 92
       -2
340
14
 93
        0
 40
0.045
309
GRIDFORMAT_END
 95
       32
302
GRIDFORMAT
  1
GRIDFORMAT_BEGIN
 90
        0
 91
        1
 62
     0
 92
       -2
340
14
 93
        0
 40
0.045
309
GRIDFORMAT_END
309
TABLEFORMAT_END
  1
CELLSTYLE_BEGIN
 90
        3
 91
        2
300
_DATA
309
CELLSTYLE_END
  0
ENDSEC
  0
EOF
