  0
SECTION
  2
HEADER
  9
$ACADVER
  1
AC1027
  9
$ACADMAINTVER
 70
   105
  9
$DWGCODEPAGE
  3
ANSI_1252
  9
$REQUIREDVERSIONS
160
                 0
  9
$INSBASE
 10
0.0
 20
0.0
 30
0.0
  9
$EXTMIN
 10
932.6366187272117
 20
-3911.004899456169
 30
0.0
  9
$EXTMAX
 10
1326.636618727215
 20
-3369.004899456169
 30
0.0
  9
$LIMMIN
 10
0.0
 20
0.0
  9
$LIMMAX
 10
12.0
 20
9.0
  9
$ORTHOMODE
 70
     0
  9
$REGENMODE
 70
     1
  9
$FILLMODE
 70
     1
  9
$QTEXTMODE
 70
     0
  9
$MIRRTEXT
 70
     1
  9
$LTSCALE
 40
2.0
  9
$ATTMODE
 70
     1
  9
$TEXTSIZE
 40
0.2
  9
$TRACEWID
 40
0.05
  9
$TEXTSTYLE
  7
Standard
  9
$CLAYER
  8
0
  9
$CELTYPE
  6
ByLayer
  9
$CECOLOR
 62
   256
  9
$CELTSCALE
 40
1.0
  9
$DISPSILH
 70
     0
  9
$DIMSCALE
 40
1.0
  9
$DIMASZ
 40
0.18
  9
$DIMEXO
 40
0.0625
  9
$DIMDLI
 40
0.38
  9
$DIMRND
 40
0.0
  9
$DIMDLE
 40
0.0
  9
$DIMEXE
 40
0.18
  9
$DIMTP
 40
0.0
  9
$DIMTM
 40
0.0
  9
$DIMTXT
 40
0.18
  9
$DIMCEN
 40
0.09
  9
$DIMTSZ
 40
0.0
  9
$DIMTOL
 70
     0
  9
$DIMLIM
 70
     0
  9
$DIMTIH
 70
     1
  9
$DIMTOH
 70
     1
  9
$DIMSE1
 70
     0
  9
$DIMSE2
 70
     0
  9
$DIMTAD
 70
     0
  9
$DIMZIN
 70
     0
  9
$DIMBLK
  1

  9
$DIMASO
 70
     1
  9
$DIMSHO
 70
     1
  9
$DIMPOST
  1

  9
$DIMAPOST
  1

  9
$DIMALT
 70
     0
  9
$DIMALTD
 70
     2
  9
$DIMALTF
 40
25.4
  9
$DIMLFAC
 40
1.0
  9
$DIMTOFL
 70
     1
  9
$DIMTVP
 40
0.0
  9
$DIMTIX
 70
     0
  9
$DIMSOXD
 70
     1
  9
$DIMSAH
 70
     0
  9
$DIMBLK1
  1

  9
$DIMBLK2
  1

  9
$DIMSTYLE
  2
Standard
  9
$DIMCLRD
 70
     0
  9
$DIMCLRE
 70
     0
  9
$DIMCLRT
 70
     0
  9
$DIMTFAC
 40
1.0
  9
$DIMGAP
 40
0.09
  9
$DIMJUST
 70
     0
  9
$DIMSD1
 70
     0
  9
$DIMSD2
 70
     0
  9
$DIMTOLJ
 70
     1
  9
$DIMTZIN
 70
     0
  9
$DIMALTZ
 70
     0
  9
$DIMALTTZ
 70
     0
  9
$DIMUPT
 70
     0
  9
$DIMDEC
 70
     4
  9
$DIMTDEC
 70
     4
  9
$DIMALTU
 70
     2
  9
$DIMALTTD
 70
     2
  9
$DIMTXSTY
  7
Standard
  9
$DIMAUNIT
 70
     0
  9
$DIMADEC
 70
     0
  9
$DIMALTRND
 40
0.0
  9
$DIMAZIN
 70
     0
  9
$DIMDSEP
 70
    46
  9
$DIMATFIT
 70
     3
  9
$DIMFRAC
 70
     0
  9
$DIMLDRBLK
  1

  9
$DIMLUNIT
 70
     2
  9
$DIMLWD
 70
    -2
  9
$DIMLWE
 70
    -2
  9
$DIMTMOVE
 70
     2
  9
$DIMFXL
 40
1.0
  9
$DIMFXLON
 70
     0
  9
$DIMJOGANG
 40
0.7853981633974483
  9
$DIMTFILL
 70
     0
  9
$DIMTFILLCLR
 70
     0
  9
$DIMARCSYM
 70
     0
  9
$DIMLTYPE
  6

  9
$DIMLTEX1
  6

  9
$DIMLTEX2
  6

  9
$DIMTXTDIRECTION
 70
     0
  9
$LUNITS
 70
     2
  9
$LUPREC
 70
     4
  9
$SKETCHINC
 40
0.1
  9
$FILLETRAD
 40
0.5
  9
$AUNITS
 70
     0
  9
$AUPREC
 70
     0
  9
$MENU
  1
.
  9
$ELEVATION
 40
0.0
  9
$PELEVATION
 40
0.0
  9
$THICKNESS
 40
0.0
  9
$LIMCHECK
 70
     0
  9
$CHAMFERA
 40
0.0
  9
$CHAMFERB
 40
0.0
  9
$CHAMFERC
 40
0.0
  9
$CHAMFERD
 40
0.0
  9
$SKPOLY
 70
     0
  9
$TDCREATE
 40
2459184.529091424
  9
$TDUCREATE
 40
2459184.487424757
  9
$TDUPDATE
 40
2459184.529093403
  9
$TDUUPDATE
 40
2459184.487426736
  9
$TDINDWG
 40
0.0000000116
  9
$TDUSRTIMER
 40
0.0000000116
  9
$USRTIMER
 70
     1
  9
$ANGBASE
 50
0.0
  9
$ANGDIR
 70
     0
  9
$PDMODE
 70
     0
  9
$PDSIZE
 40
0.0
  9
$PLINEWID
 40
0.0
  9
$SPLFRAME
 70
     0
  9
$SPLINETYPE
 70
     6
  9
$SPLINESEGS
 70
     8
  9
$HANDSEED
  5
411
  9
$SURFTAB1
 70
     6
  9
$SURFTAB2
 70
     6
  9
$SURFTYPE
 70
     6
  9
$SURFU
 70
     6
  9
$SURFV
 70
     6
  9
$UCSBASE
  2

  9
$UCSNAME
  2

  9
$UCSORG
 10
0.0
 20
0.0
 30
0.0
  9
$UCSXDIR
 10
1.0
 20
0.0
 30
0.0
  9
$UCSYDIR
 10
0.0
 20
1.0
 30
0.0
  9
$UCSORTHOREF
  2

  9
$UCSORTHOVIEW
 70
     0
  9
$UCSORGTOP
 10
0.0
 20
0.0
 30
0.0
  9
$UCSORGBOTTOM
 10
0.0
 20
0.0
 30
0.0
  9
$UCSORGLEFT
 10
0.0
 20
0.0
 30
0.0
  9
$UCSORGRIGHT
 10
0.0
 20
0.0
 30
0.0
  9
$UCSORGFRONT
 10
0.0
 20
0.0
 30
0.0
  9
$UCSORGBACK
 10
0.0
 20
0.0
 30
0.0
  9
$PUCSBASE
  2

  9
$PUCSNAME
  2

  9
$PUCSORG
 10
0.0
 20
0.0
 30
0.0
  9
$PUCSXDIR
 10
1.0
 20
0.0
 30
0.0
  9
$PUCSYDIR
 10
0.0
 20
1.0
 30
0.0
  9
$PUCSORTHOREF
  2

  9
$PUCSORTHOVIEW
 70
     0
  9
$PUCSORGTOP
 10
0.0
 20
0.0
 30
0.0
  9
$PUCSORGBOTTOM
 10
0.0
 20
0.0
 30
0.0
  9
$PUCSORGLEFT
 10
0.0
 20
0.0
 30
0.0
  9
$PUCSORGRIGHT
 10
0.0
 20
0.0
 30
0.0
  9
$PUCSORGFRONT
 10
0.0
 20
0.0
 30
0.0
  9
$PUCSORGBACK
 10
0.0
 20
0.0
 30
0.0
  9
$USERI1
 70
     0
  9
$USERI2
 70
     0
  9
$USERI3
 70
     0
  9
$USERI4
 70
     0
  9
$USERI5
 70
     0
  9
$USERR1
 40
0.0
  9
$USERR2
 40
0.0
  9
$USERR3
 40
0.0
  9
$USERR4
 40
0.0
  9
$USERR5
 40
0.0
  9
$WORLDVIEW
 70
     1
  9
$SHADEDGE
 70
     3
  9
$SHADEDIF
 70
    70
  9
$TILEMODE
 70
     1
  9
$MAXACTVP
 70
    64
  9
$PINSBASE
 10
0.0
 20
0.0
 30
0.0
  9
$PLIMCHECK
 70
     0
  9
$PEXTMIN
 10
0.0
 20
0.0
 30
0.0
  9
$PEXTMAX
 10
197.6
 20
271.6
 30
0.0
  9
$PLIMMIN
 10
-20.0
 20
-7.5
  9
$PLIMMAX
 10
277.0
 20
202.5
  9
$UNITMODE
 70
     0
  9
$VISRETAIN
 70
     1
  9
$PLINEGEN
 70
     0
  9
$PSLTSCALE
 70
     0
  9
$TREEDEPTH
 70
  3020
  9
$CMLSTYLE
  2
Standard
  9
$CMLJUST
 70
     0
  9
$CMLSCALE
 40
1.0
  9
$PROXYGRAPHICS
 70
     1
  9
$MEASUREMENT
 70
     1
  9
$CELWEIGHT
370
    -1
  9
$ENDCAPS
280
     0
  9
$JOINSTYLE
280
     0
  9
$LWDISPLAY
290
     0
  9
$INSUNITS
 70
     4
  9
$HYPERLINKBASE
  1

  9
$STYLESHEET
  1

  9
$XEDIT
290
     1
  9
$CEPSNTYPE
380
     0
  9
$PSTYLEMODE
290
     0
  9
$FINGERPRINTGUID
  2
{8E01D7A7-72F4-43F8-87D1-87246B14DFF9}
  9
$VERSIONGUID
  2
{FAEB1C32-E019-11D5-929B-00C0DF256EC4}
  9
$EXTNAMES
290
     1
  9
$PSVPSCALE
 40
0.0
  9
$OLESTARTUP
290
     0
  9
$SORTENTS
280
   127
  9
$INDEXCTL
280
     0
  9
$HIDETEXT
280
     1
  9
$XCLIPFRAME
280
     2
  9
$HALOGAP
280
     0
  9
$OBSCOLOR
 70
   257
  9
$OBSLTYPE
280
     0
  9
$INTERSECTIONDISPLAY
280
     0
  9
$INTERSECTIONCOLOR
 70
   257
  9
$DIMASSOC
280
     2
  9
$PROJECTNAME
  1

  9
$CAMERADISPLAY
290
     0
  9
$LENSLENGTH
 40
50.0
  9
$CAMERAHEIGHT
 40
0.0
  9
$STEPSPERSEC
 40
2.0
  9
$STEPSIZE
 40
6.0
  9
$3DDWFPREC
 40
2.0
  9
$PSOLWIDTH
 40
0.25
  9
$PSOLHEIGHT
 40
4.0
  9
$LOFTANG1
 40
1.570796326794897
  9
$LOFTANG2
 40
1.570796326794897
  9
$LOFTMAG1
 40
0.0
  9
$LOFTMAG2
 40
0.0
  9
$LOFTPARAM
 70
     7
  9
$LOFTNORMALS
280
     1
  9
$LATITUDE
 40
37.795
  9
$LONGITUDE
 40
-122.394
  9
$NORTHDIRECTION
 40
0.0
  9
$TIMEZONE
 70
 -8000
  9
$LIGHTGLYPHDISPLAY
280
     1
  9
$TILEMODELIGHTSYNCH
280
     1
  9
$CMATERIAL
347
44
  9
$SOLIDHIST
280
     0
  9
$SHOWHIST
280
     1
  9
$DWFFRAME
280
     2
  9
$DGNFRAME
280
     2
  9
$REALWORLDSCALE
290
     1
  9
$INTERFERECOLOR
 62
   256
  9
$CSHADOW
280
     0
  9
$SHADOWPLANELOCATION
 40
0.0
  0
ENDSEC
  0
SECTION
  2
CLASSES
  0
CLASS
  1
ACDBDICTIONARYWDFLT
  2
AcDbDictionaryWithDefault
  3
ObjectDBX Classes
 90
        0
 91
        3
280
     0
281
     0
  0
CLASS
  1
VISUALSTYLE
  2
AcDbVisualStyle
  3
ObjectDBX Classes
 90
     4095
 91
        3
280
     0
281
     0
  0
CLASS
  1
MATERIAL
  2
AcDbMaterial
  3
ObjectDBX Classes
 90
     1153
 91
        3
280
     0
281
     0
  0
CLASS
  1
SCALE
  2
AcDbScale
  3
ObjectDBX Classes
 90
     1153
 91
        3
280
     0
281
     0
  0
CLASS
  1
TABLESTYLE
  2
AcDbTableStyle
  3
ObjectDBX Classes
 90
     4095
 91
        3
280
     0
281
     0
  0
CLASS
  1
MLEADERSTYLE
  2
AcDbMLeaderStyle
  3
ACDB_MLEADERSTYLE_CLASS
 90
     4095
 91
        3
280
     0
281
     0
  0
CLASS
  1
SUN
  2
AcDbSun
  3
SCENEOE
 90
     1153
 91
        3
280
     0
281
     0
  0
CLASS
  1
RASTERVARIABLES
  2
AcDbRasterVariables
  3
ISM
 90
        0
 91
        3
280
     0
281
     0
  0
CLASS
  1
PLOTSETTINGS
  2
AcDbPlotSettings
  3
ObjectDBX Classes
 90
        0
 91
        3
280
     0
281
     0
  0
CLASS
  1
IMAGEDEF
  2
AcDbRasterImageDef
  3
ISM
 90
        0
 91
        3
280
     0
281
     0
  0
CLASS
  1
IMAGE
  2
AcDbRasterImage
  3
ISM
 90
      127
 91
        4
280
     0
281
     1
  0
CLASS
  1
IMAGEDEF_REACTOR
  2
AcDbRasterImageDefReactor
  3
ISM
 90
        1
 91
        3
280
     0
281
     0
  0
CLASS
  1
DICTIONARYVAR
  2
AcDbDictionaryVar
  3
ObjectDBX Classes
 90
        0
 91
        3
280
     0
281
     0
  0
CLASS
  1
CELLSTYLEMAP
  2
AcDbCellStyleMap
  3
ObjectDBX Classes
 90
     1152
 91
        3
280
     0
281
     0
  0
ENDSEC
  0
SECTION
  2
TABLES
  0
TABLE
  2
VPORT
  5
8
330
0
100
AcDbSymbolTable
 70
     1
  0
VPORT
  5
29
330
8
100
AcDbSymbolTableRecord
100
AcDbViewportTableRecord
  2
*Active
 70
     0
 10
0.0
 20
0.0
 11
1.0
 21
1.0
 12
10.42990654205607
 22
4.5
 13
0.0
 23
0.0
 14
0.5
 24
0.5
 15
0.5
 25
0.5
 16
0.0
 26
0.0
 36
1.0
 17
0.0
 27
0.0
 37
0.0
 40
9.0
 41
1.972972972850329
 42
50.0
 43
0.0
 44
0.0
 50
0.0
 51
0.0
 71
     0
 72
   100
 73
     1
 74
     3
 75
     0
 76
     0
 77
     0
 78
     0
281
     0
 65
     1
110
0.0
120
0.0
130
0.0
111
1.0
121
0.0
131
0.0
112
0.0
122
1.0
132
0.0
 79
     0
146
0.0
348
2F
 60
     3
 61
     5
292
     1
282
     1
141
0.0
142
0.0
 63
   250
361
6D
  0
ENDTAB
  0
TABLE
  2
LTYPE
  5
5
330
0
100
AcDbSymbolTable
 70
     2
  0
LTYPE
  5
14
330
5
100
AcDbSymbolTableRecord
100
AcDbLinetypeTableRecord
  2
ByBlock
 70
     0
  3

 72
    65
 73
     0
 40
0.0
  0
LTYPE
  5
15
330
5
100
AcDbSymbolTableRecord
100
AcDbLinetypeTableRecord
  2
ByLayer
 70
     0
  3

 72
    65
 73
     0
 40
0.0
  0
LTYPE
  5
16
330
5
100
AcDbSymbolTableRecord
100
AcDbLinetypeTableRecord
  2
Continuous
 70
     0
  3
Solid line
 72
    65
 73
     0
 40
0.0
  0
LTYPE
  5
182
330
5
100
AcDbSymbolTableRecord
100
AcDbLinetypeTableRecord
  2
CADWORK_3
 70
     0
  3

 72
    65
 73
     2
 40
4.0
 49
2.0
 74
     0
 49
-2.0
 74
     0
  0
ENDTAB
  0
TABLE
  2
LAYER
  5
2
330
0
100
AcDbSymbolTable
 70
    18
  0
LAYER
  5
10
330
2
100
AcDbSymbolTableRecord
100
AcDbLayerTableRecord
  2
0
 70
     0
 62
     7
  6
Continuous
370
    -3
390
F
347
46
348
0
  0
LAYER
  5
70
330
2
100
AcDbSymbolTableRecord
100
AcDbLayerTableRecord
  2
Standard
 70
     0
 62
     7
  6
Continuous
370
    -3
390
F
347
46
348
0
  0
LAYER
  5
71
330
2
100
AcDbSymbolTableRecord
100
AcDbLayerTableRecord
  2
Ech.1_1
 70
     0
 62
     7
  6
Continuous
370
    -3
390
F
347
46
348
0
  0
LAYER
  5
72
330
2
100
AcDbSymbolTableRecord
100
AcDbLayerTableRecord
  2
Ech.1_2
 70
     0
 62
     7
  6
Continuous
370
    -3
390
F
347
46
348
0
  0
LAYER
  5
73
330
2
100
AcDbSymbolTableRecord
100
AcDbLayerTableRecord
  2
Ech.1_5
 70
     0
 62
     7
  6
Continuous
370
    -3
390
F
347
46
348
0
  0
LAYER
  5
74
330
2
100
AcDbSymbolTableRecord
100
AcDbLayerTableRecord
  2
Ech.1_10
 70
     0
 62
     7
  6
Continuous
370
    -3
390
F
347
46
348
0
  0
LAYER
  5
75
330
2
100
AcDbSymbolTableRecord
100
AcDbLayerTableRecord
  2
Ech.1_20
 70
     0
 62
     7
  6
Continuous
370
    -3
390
F
347
46
348
0
  0
LAYER
  5
76
330
2
100
AcDbSymbolTableRecord
100
AcDbLayerTableRecord
  2
Ech.1_25
 70
     0
 62
     7
  6
Continuous
370
    -3
390
F
347
46
348
0
  0
LAYER
  5
77
330
2
100
AcDbSymbolTableRecord
100
AcDbLayerTableRecord
  2
Ech.1_33
 70
     0
 62
     7
  6
Continuous
370
    -3
390
F
347
46
348
0
  0
LAYER
  5
78
330
2
100
AcDbSymbolTableRecord
100
AcDbLayerTableRecord
  2
Ech.1_50
 70
     0
 62
     7
  6
Continuous
370
    -3
390
F
347
46
348
0
  0
LAYER
  5
79
330
2
100
AcDbSymbolTableRecord
100
AcDbLayerTableRecord
  2
Ech.1_75
 70
     0
 62
     7
  6
Continuous
370
    -3
390
F
347
46
348
0
  0
LAYER
  5
7A
330
2
100
AcDbSymbolTableRecord
100
AcDbLayerTableRecord
  2
Ech.1_100
 70
     0
 62
     7
  6
Continuous
370
    -3
390
F
347
46
348
0
  0
LAYER
  5
7B
330
2
100
AcDbSymbolTableRecord
100
AcDbLayerTableRecord
  2
Ech.1_200
 70
     0
 62
     7
  6
Continuous
370
    -3
390
F
347
46
348
0
  0
LAYER
  5
7C
330
2
100
AcDbSymbolTableRecord
100
AcDbLayerTableRecord
  2
Ech.1_500
 70
     0
 62
     7
  6
Continuous
370
    -3
390
F
347
46
348
0
  0
LAYER
  5
7D
330
2
100
AcDbSymbolTableRecord
100
AcDbLayerTableRecord
  2
Ech.1_1000
 70
     0
 62
     7
  6
Continuous
370
    -3
390
F
347
46
348
0
  0
LAYER
  5
7E
330
2
100
AcDbSymbolTableRecord
100
AcDbLayerTableRecord
  2
Cadres traceur
 70
     0
 62
     7
  6
Continuous
370
    -3
390
F
347
46
348
0
  0
LAYER
  5
7F
330
2
100
AcDbSymbolTableRecord
100
AcDbLayerTableRecord
  2
Cadres laser
 70
     0
 62
     7
  6
Continuous
370
    -3
390
F
347
46
348
0
  0
LAYER
  5
80
330
2
100
AcDbSymbolTableRecord
100
AcDbLayerTableRecord
  2
Légende d_aide
 70
     0
 62
     7
  6
Continuous
370
    -3
390
F
347
46
348
0
  0
ENDTAB
  0
TABLE
  2
STYLE
  5
3
330
0
100
AcDbSymbolTable
 70
     9
  0
STYLE
  5
11
330
3
100
AcDbSymbolTableRecord
100
AcDbTextStyleTableRecord
  2
Standard
 70
     0
 40
0.0
 41
1.0
 50
0.0
 71
     0
 42
0.2
  3
txt
  4

  0
STYLE
  5
81
330
3
100
AcDbSymbolTableRecord
100
AcDbTextStyleTableRecord
  2
CwStyleShx
 70
     0
 40
1.0
 41
1.0
 50
0.0
 71
     0
 42
0.2
  3

  4

  0
STYLE
  5
82
330
3
100
AcDbSymbolTableRecord
100
AcDbTextStyleTableRecord
  2
CwStyleShx16
 70
     0
 40
1.0
 41
1.0
 50
0.0
 71
     0
 42
0.2
  3

  4

  0
STYLE
  5
83
330
3
100
AcDbSymbolTableRecord
100
AcDbTextStyleTableRecord
  2
MONOTXT
 70
     0
 40
0.0
 41
1.0
 50
0.0
 71
     0
 42
0.2
  3
MONOTXT
  4

  0
STYLE
  5
84
330
3
100
AcDbSymbolTableRecord
100
AcDbTextStyleTableRecord
  2
SYMAP
 70
     0
 40
1.0
 41
1.0
 50
0.0
 71
     0
 42
0.2
  3
SYMAP
  4

  0
STYLE
  5
85
330
3
100
AcDbSymbolTableRecord
100
AcDbTextStyleTableRecord
  2
CwStyleTtf
 70
     0
 40
1.0
 41
1.0
 50
0.0
 71
     0
 42
0.2
  3
arial.ttf
  4

  0
STYLE
  5
3E7
330
3
100
AcDbSymbolTableRecord
100
AcDbTextStyleTableRecord
  2
arial-
 70
     0
 40
1.0
 41
1.0
 50
0.0
 71
     0
 42
0.2
  3
arial.ttf
  4

1001
ACAD
1000
Arial
1071
        0
  0
STYLE
  5
3EB
330
3
100
AcDbSymbolTableRecord
100
AcDbTextStyleTableRecord
  2
arial-b
 70
     0
 40
1.0
 41
1.0
 50
0.0
 71
     0
 42
0.2
  3
arialbd.ttf
  4

1001
ACAD
1000
Arial
1071
 33554432
  0
STYLE
  5
3ED
330
3
100
AcDbSymbolTableRecord
100
AcDbTextStyleTableRecord
  2
tahoma-b
 70
     0
 40
1.0
 41
1.0
 50
0.0
 71
     0
 42
0.2
  3
tahomabd.ttf
  4

1001
ACAD
1000
Tahoma
1071
 33554432
  0
ENDTAB
  0
TABLE
  2
VIEW
  5
6
330
0
100
AcDbSymbolTable
 70
     0
  0
ENDTAB
  0
TABLE
  2
UCS
  5
7
330
0
100
AcDbSymbolTable
 70
     0
  0
ENDTAB
  0
TABLE
  2
APPID
  5
9
330
0
100
AcDbSymbolTable
 70
     3
  0
APPID
  5
12
330
9
100
AcDbSymbolTableRecord
100
AcDbRegAppTableRecord
  2
ACAD
 70
     0
  0
APPID
  5
6E
330
9
100
AcDbSymbolTableRecord
100
AcDbRegAppTableRecord
  2
Cadwork
 70
     0
  0
APPID
  5
232
330
9
100
AcDbSymbolTableRecord
100
AcDbRegAppTableRecord
  2
PLOTTRANSPARENCY
 70
     0
  0
ENDTAB
  0
TABLE
  2
DIMSTYLE
  5
A
330
0
100
AcDbSymbolTable
 70
     1
100
AcDbDimStyleTable
  0
DIMSTYLE
105
27
330
A
100
AcDbSymbolTableRecord
100
AcDbDimStyleTableRecord
  2
Standard
 70
     0
178
     0
340
11
  0
ENDTAB
  0
TABLE
  2
BLOCK_RECORD
  5
1
330
0
100
AcDbSymbolTable
 70
    69
  0
BLOCK_RECORD
  5
1F
330
1
100
AcDbSymbolTableRecord
100
AcDbBlockTableRecord
  2
*Model_Space
340
22
 70
     0
280
     1
281
     0
  0
BLOCK_RECORD
  5
22D
330
1
100
AcDbSymbolTableRecord
100
AcDbBlockTableRecord
  2
*Paper_Space
340
22E
 70
     0
280
     1
281
     0
  0
BLOCK_RECORD
  5
86
330
1
100
AcDbSymbolTableRecord
100
AcDbBlockTableRecord
  2
CDWK_PTTYP1
340
0
 70
     0
280
     1
281
     1
  0
BLOCK_RECORD
  5
8D
330
1
100
AcDbSymbolTableRecord
100
AcDbBlockTableRecord
  2
CDWK_PTTYP2
340
0
 70
     0
280
     1
281
     1
  0
BLOCK_RECORD
  5
92
330
1
100
AcDbSymbolTableRecord
100
AcDbBlockTableRecord
  2
CDWK_PTTYP4
340
0
 70
     0
280
     1
281
     1
  0
BLOCK_RECORD
  5
96
330
1
100
AcDbSymbolTableRecord
100
AcDbBlockTableRecord
  2
CDWK_PTTYP5
340
0
 70
     0
280
     1
281
     1
  0
BLOCK_RECORD
  5
9F
330
1
100
AcDbSymbolTableRecord
100
AcDbBlockTableRecord
  2
CDWK_PTTYP6
340
0
 70
     0
280
     1
281
     1
  0
BLOCK_RECORD
  5
A7
330
1
100
AcDbSymbolTableRecord
100
AcDbBlockTableRecord
  2
CDWK_PTTYP7
340
0
 70
     0
280
     1
281
     1
  0
BLOCK_RECORD
  5
B0
330
1
100
AcDbSymbolTableRecord
100
AcDbBlockTableRecord
  2
CDWK_PTTYP8
340
0
 70
     0
280
     1
281
     1
  0
BLOCK_RECORD
  5
B4
330
1
100
AcDbSymbolTableRecord
100
AcDbBlockTableRecord
  2
CDWK_PTTYP9
340
0
 70
     0
280
     1
281
     1
  0
BLOCK_RECORD
  5
B9
330
1
100
AcDbSymbolTableRecord
100
AcDbBlockTableRecord
  2
CDWK_PTTYP10
340
0
 70
     0
280
     1
281
     1
  0
BLOCK_RECORD
  5
BD
330
1
100
AcDbSymbolTableRecord
100
AcDbBlockTableRecord
  2
CDWK_PTTYP11
340
0
 70
     0
280
     1
281
     1
  0
BLOCK_RECORD
  5
C2
330
1
100
AcDbSymbolTableRecord
100
AcDbBlockTableRecord
  2
CDWK_PTTYP12
340
0
 70
     0
280
     1
281
     1
  0
BLOCK_RECORD
  5
C7
330
1
100
AcDbSymbolTableRecord
100
AcDbBlockTableRecord
  2
CDWK_PTTYP13
340
0
 70
     0
280
     1
281
     1
  0
BLOCK_RECORD
  5
CD
330
1
100
AcDbSymbolTableRecord
100
AcDbBlockTableRecord
  2
CDWK_PTTYP16
340
0
 70
     0
280
     1
281
     1
  0
BLOCK_RECORD
  5
D4
330
1
100
AcDbSymbolTableRecord
100
AcDbBlockTableRecord
  2
CDWK_PTTYP17
340
0
 70
     0
280
     1
281
     1
  0
BLOCK_RECORD
  5
D9
330
1
100
AcDbSymbolTableRecord
100
AcDbBlockTableRecord
  2
CDWK_PTTYP18
340
0
 70
     0
280
     1
281
     1
  0
BLOCK_RECORD
  5
DE
330
1
100
AcDbSymbolTableRecord
100
AcDbBlockTableRecord
  2
CDWK_PTTYP19
340
0
 70
     0
280
     1
281
     1
  0
BLOCK_RECORD
  5
E4
330
1
100
AcDbSymbolTableRecord
100
AcDbBlockTableRecord
  2
CDWK_PTTYP20
340
0
 70
     0
280
     1
281
     1
  0
BLOCK_RECORD
  5
E9
330
1
100
AcDbSymbolTableRecord
100
AcDbBlockTableRecord
  2
CDWK_PTTYP21
340
0
 70
     0
280
     1
281
     1
  0
BLOCK_RECORD
  5
EE
330
1
100
AcDbSymbolTableRecord
100
AcDbBlockTableRecord
  2
CDWK_PTTYP25
340
0
 70
     0
280
     1
281
     1
  0
BLOCK_RECORD
  5
F5
330
1
100
AcDbSymbolTableRecord
100
AcDbBlockTableRecord
  2
CDWK_PTTYP26
340
0
 70
     0
280
     1
281
     1
  0
BLOCK_RECORD
  5
FC
330
1
100
AcDbSymbolTableRecord
100
AcDbBlockTableRecord
  2
CDWK_PTTYP27
340
0
 70
     0
280
     1
281
     1
  0
BLOCK_RECORD
  5
104
330
1
100
AcDbSymbolTableRecord
100
AcDbBlockTableRecord
  2
CDWK_PTTYP28
340
0
 70
     0
280
     1
281
     1
  0
BLOCK_RECORD
  5
10B
330
1
100
AcDbSymbolTableRecord
100
AcDbBlockTableRecord
  2
CDWK_PTTYP29
340
0
 70
     0
280
     1
281
     1
  0
BLOCK_RECORD
  5
111
330
1
100
AcDbSymbolTableRecord
100
AcDbBlockTableRecord
  2
CDWK_PTTYP30
340
0
 70
     0
280
     1
281
     1
  0
BLOCK_RECORD
  5
118
330
1
100
AcDbSymbolTableRecord
100
AcDbBlockTableRecord
  2
CDWK_PTTYP31
340
0
 70
     0
280
     1
281
     1
  0
BLOCK_RECORD
  5
120
330
1
100
AcDbSymbolTableRecord
100
AcDbBlockTableRecord
  2
CDWK_PTTYP32
340
0
 70
     0
280
     1
281
     1
  0
BLOCK_RECORD
  5
129
330
1
100
AcDbSymbolTableRecord
100
AcDbBlockTableRecord
  2
CDWK_PTTYP33
340
0
 70
     0
280
     1
281
     1
  0
BLOCK_RECORD
  5
12F
330
1
100
AcDbSymbolTableRecord
100
AcDbBlockTableRecord
  2
CDWK_PTTYP34
340
0
 70
     0
280
     1
281
     1
  0
BLOCK_RECORD
  5
135
330
1
100
AcDbSymbolTableRecord
100
AcDbBlockTableRecord
  2
CDWK_PTTYP35
340
0
 70
     0
280
     1
281
     1
  0
BLOCK_RECORD
  5
13B
330
1
100
AcDbSymbolTableRecord
100
AcDbBlockTableRecord
  2
CDWK_PTTYP36
340
0
 70
     0
280
     1
281
     1
  0
BLOCK_RECORD
  5
143
330
1
100
AcDbSymbolTableRecord
100
AcDbBlockTableRecord
  2
CDWK_PTTYP37
340
0
 70
     0
280
     1
281
     1
  0
BLOCK_RECORD
  5
148
330
1
100
AcDbSymbolTableRecord
100
AcDbBlockTableRecord
  2
CDWK_PTTYP38
340
0
 70
     0
280
     1
281
     1
  0
BLOCK_RECORD
  5
14E
330
1
100
AcDbSymbolTableRecord
100
AcDbBlockTableRecord
  2
CDWK_PTTYP41
340
0
 70
     0
280
     1
281
     1
  0
BLOCK_RECORD
  5
158
330
1
100
AcDbSymbolTableRecord
100
AcDbBlockTableRecord
  2
CDWK_PTTYP42
340
0
 70
     0
280
     1
281
     1
  0
BLOCK_RECORD
  5
161
330
1
100
AcDbSymbolTableRecord
100
AcDbBlockTableRecord
  2
CDWK_PTTYP43
340
0
 70
     0
280
     1
281
     1
  0
BLOCK_RECORD
  5
167
330
1
100
AcDbSymbolTableRecord
100
AcDbBlockTableRecord
  2
CDWK_PTTYP44
340
0
 70
     0
280
     1
281
     1
  0
BLOCK_RECORD
  5
170
330
1
100
AcDbSymbolTableRecord
100
AcDbBlockTableRecord
  2
CDWK_PTTYP45
340
0
 70
     0
280
     1
281
     1
  0
BLOCK_RECORD
  5
175
330
1
100
AcDbSymbolTableRecord
100
AcDbBlockTableRecord
  2
CDWK_PTTYP46
340
0
 70
     0
280
     1
281
     1
  0
BLOCK_RECORD
  5
17A
330
1
100
AcDbSymbolTableRecord
100
AcDbBlockTableRecord
  2
CDWK_PTTYP47
340
0
 70
     0
280
     1
281
     1
  0
BLOCK_RECORD
  5
183
330
1
100
AcDbSymbolTableRecord
100
AcDbBlockTableRecord
  2
CDWK_PTTYP48
340
0
 70
     0
280
     1
281
     1
  0
BLOCK_RECORD
  5
188
330
1
100
AcDbSymbolTableRecord
100
AcDbBlockTableRecord
  2
CDWK_PTTYP49
340
0
 70
     0
280
     1
281
     1
  0
BLOCK_RECORD
  5
18F
330
1
100
AcDbSymbolTableRecord
100
AcDbBlockTableRecord
  2
CDWK_PTTYP50
340
0
 70
     0
280
     1
281
     1
  0
BLOCK_RECORD
  5
199
330
1
100
AcDbSymbolTableRecord
100
AcDbBlockTableRecord
  2
CDWK_PTTYP51
340
0
 70
     0
280
     1
281
     1
  0
BLOCK_RECORD
  5
19E
330
1
100
AcDbSymbolTableRecord
100
AcDbBlockTableRecord
  2
CDWK_PTTYP52
340
0
 70
     0
280
     1
281
     1
  0
BLOCK_RECORD
  5
1A4
330
1
100
AcDbSymbolTableRecord
100
AcDbBlockTableRecord
  2
cw-dimension-symbol1
340
0
 70
     0
280
     1
281
     0
  0
BLOCK_RECORD
  5
1AB
330
1
100
AcDbSymbolTableRecord
100
AcDbBlockTableRecord
  2
cw-dimension-symbol2
340
0
 70
     0
280
     1
281
     0
  0
BLOCK_RECORD
  5
1B0
330
1
100
AcDbSymbolTableRecord
100
AcDbBlockTableRecord
  2
cw-dimension-symbol3
340
0
 70
     0
280
     1
281
     0
  0
BLOCK_RECORD
  5
1B5
330
1
100
AcDbSymbolTableRecord
100
AcDbBlockTableRecord
  2
cw-dimension-symbol5
340
0
 70
     0
280
     1
281
     0
  0
BLOCK_RECORD
  5
1BC
330
1
100
AcDbSymbolTableRecord
100
AcDbBlockTableRecord
  2
cw-dimension-symbol6
340
0
 70
     0
280
     1
281
     0
  0
BLOCK_RECORD
  5
1C2
330
1
100
AcDbSymbolTableRecord
100
AcDbBlockTableRecord
  2
cw-dimension-symbol11
340
0
 70
     0
280
     1
281
     0
  0
BLOCK_RECORD
  5
1C8
330
1
100
AcDbSymbolTableRecord
100
AcDbBlockTableRecord
  2
cw-dimension-symbol13
340
0
 70
     0
280
     1
281
     0
  0
BLOCK_RECORD
  5
1CE
330
1
100
AcDbSymbolTableRecord
100
AcDbBlockTableRecord
  2
cw-dimension-symbol15
340
0
 70
     0
280
     1
281
     0
  0
BLOCK_RECORD
  5
1D5
330
1
100
AcDbSymbolTableRecord
100
AcDbBlockTableRecord
  2
cw-dimension-symbol16
340
0
 70
     0
280
     1
281
     0
  0
BLOCK_RECORD
  5
1DC
330
1
100
AcDbSymbolTableRecord
100
AcDbBlockTableRecord
  2
cw-dimension-symbol17
340
0
 70
     0
280
     1
281
     0
  0
BLOCK_RECORD
  5
1E3
330
1
100
AcDbSymbolTableRecord
100
AcDbBlockTableRecord
  2
cw-dimension-symbol18
340
0
 70
     0
280
     1
281
     0
  0
BLOCK_RECORD
  5
1EA
330
1
100
AcDbSymbolTableRecord
100
AcDbBlockTableRecord
  2
cw-dimension-symbol19
340
0
 70
     0
280
     1
281
     0
  0
BLOCK_RECORD
  5
1ED
330
1
100
AcDbSymbolTableRecord
100
AcDbBlockTableRecord
  2
cw-dimension-symbol20
340
0
 70
     0
280
     1
281
     0
  0
BLOCK_RECORD
  5
1F4
330
1
100
AcDbSymbolTableRecord
100
AcDbBlockTableRecord
  2
cw-dimension-symbol21
340
0
 70
     0
280
     1
281
     0
  0
BLOCK_RECORD
  5
1FB
330
1
100
AcDbSymbolTableRecord
100
AcDbBlockTableRecord
  2
cw-line-extremity0
340
0
 70
     0
280
     1
281
     0
  0
BLOCK_RECORD
  5
1FF
330
1
100
AcDbSymbolTableRecord
100
AcDbBlockTableRecord
  2
cw-line-extremity2
340
0
 70
     0
280
     1
281
     0
  0
BLOCK_RECORD
  5
204
330
1
100
AcDbSymbolTableRecord
100
AcDbBlockTableRecord
  2
cw-line-extremity3
340
0
 70
     0
280
     1
281
     0
  0
BLOCK_RECORD
  5
209
330
1
100
AcDbSymbolTableRecord
100
AcDbBlockTableRecord
  2
cw-line-extremity301
340
0
 70
     0
280
     1
281
     0
  0
BLOCK_RECORD
  5
20B
330
1
100
AcDbSymbolTableRecord
100
AcDbBlockTableRecord
  2
cw-line-extremity4
340
0
102
{BLKREFS
331
23C
331
31E
331
320
331
322
331
324
331
3DA
102
}
 70
     0
280
     1
281
     0
  0
BLOCK_RECORD
  5
20D
330
1
100
AcDbSymbolTableRecord
100
AcDbBlockTableRecord
  2
cw-line-extremity5
340
0
 70
     0
280
     1
281
     0
  0
BLOCK_RECORD
  5
20F
330
1
100
AcDbSymbolTableRecord
100
AcDbBlockTableRecord
  2
cw-line-extremity6
340
0
 70
     0
280
     1
281
     0
  0
BLOCK_RECORD
  5
211
330
1
100
AcDbSymbolTableRecord
100
AcDbBlockTableRecord
  2
cw-line-extremity9
340
0
 70
     0
280
     1
281
     0
  0
BLOCK_RECORD
  5
213
330
1
100
AcDbSymbolTableRecord
100
AcDbBlockTableRecord
  2
cw-line-extremity10
340
0
 70
     0
280
     1
281
     0
  0
BLOCK_RECORD
  5
215
330
1
100
AcDbSymbolTableRecord
100
AcDbBlockTableRecord
  2
cw-line-extremity1
340
0
 70
     0
280
     1
281
     0
  0
BLOCK_RECORD
  5
1B
330
1
100
AcDbSymbolTableRecord
100
AcDbBlockTableRecord
  2
*Paper_Space69
340
1E
 70
     0
280
     1
281
     0
  0
ENDTAB
  0
ENDSEC
  0
SECTION
  2
BLOCKS
  0
BLOCK
  5
20
330
1F
100
AcDbEntity
  8
0
100
AcDbBlockBegin
  2
*Model_Space
 70
     0
 10
0.0
 20
0.0
 30
0.0
  3
*Model_Space
  1

  0
ENDBLK
  5
21
330
1F
100
AcDbEntity
  8
0
100
AcDbBlockEnd
  0
BLOCK
  5
22F
330
22D
100
AcDbEntity
 67
     1
  8
0
100
AcDbBlockBegin
  2
*Paper_Space
 70
     0
 10
0.0
 20
0.0
 30
0.0
  3
*Paper_Space
  1

  0
ENDBLK
  5
230
330
22D
100
AcDbEntity
 67
     1
  8
0
100
AcDbBlockEnd
  0
BLOCK
  5
8B
330
86
100
AcDbEntity
  8
0
100
AcDbBlockBegin
  2
CDWK_PTTYP1
 70
     0
 10
0.0
 20
0.0
 30
0.0
  3
CDWK_PTTYP1
  1

  0
LINE
  5
87
330
86
100
AcDbEntity
  8
0
 62
     0
370
    -2
100
AcDbLine
 10
-0.5
 20
0.5
 30
0.0
 11
0.5
 21
0.5
 31
0.0
  0
LINE
  5
88
330
86
100
AcDbEntity
  8
0
 62
     0
370
    -2
100
AcDbLine
 10
0.5
 20
0.5
 30
0.0
 11
0.5
 21
-0.5
 31
0.0
  0
LINE
  5
89
330
86
100
AcDbEntity
  8
0
 62
     0
370
    -2
100
AcDbLine
 10
0.5
 20
-0.5
 30
0.0
 11
-0.5
 21
-0.5
 31
0.0
  0
LINE
  5
8A
330
86
100
AcDbEntity
  8
0
 62
     0
370
    -2
100
AcDbLine
 10
-0.5
 20
-0.5
 30
0.0
 11
-0.5
 21
0.5
 31
0.0
  0
ENDBLK
  5
8C
330
86
100
AcDbEntity
  8
0
100
AcDbBlockEnd
  0
BLOCK
  5
90
330
8D
100
AcDbEntity
  8
0
100
AcDbBlockBegin
  2
CDWK_PTTYP2
 70
     0
 10
0.0
 20
0.0
 30
0.0
  3
CDWK_PTTYP2
  1

  0
LINE
  5
8E
330
8D
100
AcDbEntity
  8
0
 62
     0
370
    -2
100
AcDbLine
 10
0.0
 20
0.5
 30
0.0
 11
0.0
 21
-0.5
 31
0.0
  0
LINE
  5
8F
330
8D
100
AcDbEntity
  8
0
 62
     0
370
    -2
100
AcDbLine
 10
0.5
 20
0.0
 30
0.0
 11
-0.5
 21
0.0
 31
0.0
  0
ENDBLK
  5
91
330
8D
100
AcDbEntity
  8
0
100
AcDbBlockEnd
  0
BLOCK
  5
94
330
92
100
AcDbEntity
  8
0
100
AcDbBlockBegin
  2
CDWK_PTTYP4
 70
     0
 10
0.0
 20
0.0
 30
0.0
  3
CDWK_PTTYP4
  1

  0
HATCH
  5
93
330
92
100
AcDbEntity
  8
0
 62
     0
370
    -2
100
AcDbHatch
 10
0.0
 20
0.0
 30
0.0
210
0.0
220
0.0
230
1.0
  2
SOLID
 70
     1
 71
     1
 91
        1
 92
        1
 93
        1
 72
     2
 10
0.0
 20
0.0
 40
0.5
 50
0.0
 51
360.0
 73
     1
 97
        0
 75
     0
 76
     1
 98
        0
  0
ENDBLK
  5
95
330
92
100
AcDbEntity
  8
0
100
AcDbBlockEnd
  0
BLOCK
  5
9D
330
96
100
AcDbEntity
  8
0
100
AcDbBlockBegin
  2
CDWK_PTTYP5
 70
     0
 10
0.0
 20
0.0
 30
0.0
  3
CDWK_PTTYP5
  1

  0
LINE
  5
97
330
96
100
AcDbEntity
  8
0
 62
     0
370
    -2
100
AcDbLine
 10
-0.5
 20
0.5
 30
0.0
 11
0.5
 21
0.5
 31
0.0
  0
LINE
  5
98
330
96
100
AcDbEntity
  8
0
 62
     0
370
    -2
100
AcDbLine
 10
0.5
 20
0.5
 30
0.0
 11
0.5
 21
-0.5
 31
0.0
  0
LINE
  5
99
330
96
100
AcDbEntity
  8
0
 62
     0
370
    -2
100
AcDbLine
 10
0.5
 20
-0.5
 30
0.0
 11
-0.5
 21
-0.5
 31
0.0
  0
LINE
  5
9A
330
96
100
AcDbEntity
  8
0
 62
     0
370
    -2
100
AcDbLine
 10
-0.5
 20
-0.5
 30
0.0
 11
-0.5
 21
0.5
 31
0.0
  0
HATCH
  5
9B
330
96
100
AcDbEntity
  8
0
 62
     0
370
    -2
100
AcDbHatch
 10
0.0
 20
0.0
 30
0.0
210
0.0
220
0.0
230
1.0
  2
SOLID
 70
     1
 71
     1
 91
        1
 92
        3
 72
     0
 73
     1
 93
        4
 10
-0.5
 20
0.0
 10
0.0
 20
0.0
 10
0.0
 20
-0.5
 10
-0.5
 20
-0.5
 97
        0
 75
     0
 76
     1
 98
        0
  0
HATCH
  5
9C
330
96
100
AcDbEntity
  8
0
 62
     0
370
    -2
100
AcDbHatch
 10
0.0
 20
0.0
 30
0.0
210
0.0
220
0.0
230
1.0
  2
SOLID
 70
     1
 71
     1
 91
        1
 92
        3
 72
     0
 73
     1
 93
        4
 10
0.0
 20
0.0
 10
0.5
 20
0.0
 10
0.5
 20
0.5
 10
0.0
 20
0.5
 97
        0
 75
     0
 76
     1
 98
        0
  0
ENDBLK
  5
9E
330
96
100
AcDbEntity
  8
0
100
AcDbBlockEnd
  0
BLOCK
  5
A5
330
9F
100
AcDbEntity
  8
0
100
AcDbBlockBegin
  2
CDWK_PTTYP6
 70
     0
 10
0.0
 20
0.0
 30
0.0
  3
CDWK_PTTYP6
  1

  0
LINE
  5
A0
330
9F
100
AcDbEntity
  8
0
 62
     0
370
    -2
100
AcDbLine
 10
-0.5
 20
0.5
 30
0.0
 11
0.5
 21
0.5
 31
0.0
  0
LINE
  5
A1
330
9F
100
AcDbEntity
  8
0
 62
     0
370
    -2
100
AcDbLine
 10
0.5
 20
0.5
 30
0.0
 11
0.5
 21
-0.5
 31
0.0
  0
LINE
  5
A2
330
9F
100
AcDbEntity
  8
0
 62
     0
370
    -2
100
AcDbLine
 10
0.5
 20
-0.5
 30
0.0
 11
-0.5
 21
-0.5
 31
0.0
  0
LINE
  5
A3
330
9F
100
AcDbEntity
  8
0
 62
     0
370
    -2
100
AcDbLine
 10
-0.5
 20
-0.5
 30
0.0
 11
-0.5
 21
0.5
 31
0.0
  0
HATCH
  5
A4
330
9F
100
AcDbEntity
  8
0
 62
     0
370
    -2
100
AcDbHatch
 10
0.0
 20
0.0
 30
0.0
210
0.0
220
0.0
230
1.0
  2
SOLID
 70
     1
 71
     1
 91
        1
 92
        3
 72
     0
 73
     1
 93
        3
 10
-0.5
 20
-0.5
 10
-0.5
 20
0.5
 10
0.5
 20
0.5
 97
        0
 75
     0
 76
     1
 98
        0
  0
ENDBLK
  5
A6
330
9F
100
AcDbEntity
  8
0
100
AcDbBlockEnd
  0
BLOCK
  5
AE
330
A7
100
AcDbEntity
  8
0
100
AcDbBlockBegin
  2
CDWK_PTTYP7
 70
     0
 10
0.0
 20
0.0
 30
0.0
  3
CDWK_PTTYP7
  1

  0
LINE
  5
A8
330
A7
100
AcDbEntity
  8
0
 62
     0
370
    -2
100
AcDbLine
 10
-0.5
 20
0.5
 30
0.0
 11
0.5
 21
0.5
 31
0.0
  0
LINE
  5
A9
330
A7
100
AcDbEntity
  8
0
 62
     0
370
    -2
100
AcDbLine
 10
0.5
 20
0.5
 30
0.0
 11
0.5
 21
-0.5
 31
0.0
  0
LINE
  5
AA
330
A7
100
AcDbEntity
  8
0
 62
     0
370
    -2
100
AcDbLine
 10
0.5
 20
-0.5
 30
0.0
 11
-0.5
 21
-0.5
 31
0.0
  0
LINE
  5
AB
330
A7
100
AcDbEntity
  8
0
 62
     0
370
    -2
100
AcDbLine
 10
-0.5
 20
-0.5
 30
0.0
 11
-0.5
 21
0.5
 31
0.0
  0
LINE
  5
AC
330
A7
100
AcDbEntity
  8
0
 62
     0
370
    -2
100
AcDbLine
 10
0.0
 20
0.5
 30
0.0
 11
0.0
 21
-0.5
 31
0.0
  0
LINE
  5
AD
330
A7
100
AcDbEntity
  8
0
 62
     0
370
    -2
100
AcDbLine
 10
0.5
 20
0.0
 30
0.0
 11
-0.5
 21
0.0
 31
0.0
  0
ENDBLK
  5
AF
330
A7
100
AcDbEntity
  8
0
100
AcDbBlockEnd
  0
BLOCK
  5
B2
330
B0
100
AcDbEntity
  8
0
100
AcDbBlockBegin
  2
CDWK_PTTYP8
 70
     0
 10
0.0
 20
0.0
 30
0.0
  3
CDWK_PTTYP8
  1

  0
HATCH
  5
B1
330
B0
100
AcDbEntity
  8
0
 62
     0
370
    -2
100
AcDbHatch
 10
0.0
 20
0.0
 30
0.0
210
0.0
220
0.0
230
1.0
  2
SOLID
 70
     1
 71
     1
 91
        1
 92
        3
 72
     0
 73
     1
 93
        4
 10
0.5
 20
0.5
 10
0.5
 20
-0.5
 10
-0.5
 20
-0.5
 10
-0.5
 20
0.5
 97
        0
 75
     0
 76
     1
 98
        0
  0
ENDBLK
  5
B3
330
B0
100
AcDbEntity
  8
0
100
AcDbBlockEnd
  0
BLOCK
  5
B7
330
B4
100
AcDbEntity
  8
0
100
AcDbBlockBegin
  2
CDWK_PTTYP9
 70
     0
 10
0.0
 20
0.0
 30
0.0
  3
CDWK_PTTYP9
  1

  0
CIRCLE
  5
B5
330
B4
100
AcDbEntity
  8
0
 62
     0
370
    -2
100
AcDbCircle
 10
0.0
 20
0.0
 30
0.0
 40
0.1666666666666667
  0
CIRCLE
  5
B6
330
B4
100
AcDbEntity
  8
0
 62
     0
370
    -2
100
AcDbCircle
 10
0.0
 20
0.0
 30
0.0
 40
0.5
  0
ENDBLK
  5
B8
330
B4
100
AcDbEntity
  8
0
100
AcDbBlockEnd
  0
BLOCK
  5
BB
330
B9
100
AcDbEntity
  8
0
100
AcDbBlockBegin
  2
CDWK_PTTYP10
 70
     0
 10
0.0
 20
0.0
 30
0.0
  3
CDWK_PTTYP10
  1

  0
CIRCLE
  5
BA
330
B9
100
AcDbEntity
  8
0
 62
     0
370
    -2
100
AcDbCircle
 10
0.0
 20
0.0
 30
0.0
 40
0.5
  0
ENDBLK
  5
BC
330
B9
100
AcDbEntity
  8
0
100
AcDbBlockEnd
  0
BLOCK
  5
C0
330
BD
100
AcDbEntity
  8
0
100
AcDbBlockBegin
  2
CDWK_PTTYP11
 70
     0
 10
0.0
 20
0.0
 30
0.0
  3
CDWK_PTTYP11
  1

  0
CIRCLE
  5
BE
330
BD
100
AcDbEntity
  8
0
 62
     0
370
    -2
100
AcDbCircle
 10
0.0
 20
0.0
 30
0.0
 40
0.25
  0
CIRCLE
  5
BF
330
BD
100
AcDbEntity
  8
0
 62
     0
370
    -2
100
AcDbCircle
 10
0.0
 20
0.0
 30
0.0
 40
0.5
  0
ENDBLK
  5
C1
330
BD
100
AcDbEntity
  8
0
100
AcDbBlockEnd
  0
BLOCK
  5
C5
330
C2
100
AcDbEntity
  8
0
100
AcDbBlockBegin
  2
CDWK_PTTYP12
 70
     0
 10
0.0
 20
0.0
 30
0.0
  3
CDWK_PTTYP12
  1

  0
CIRCLE
  5
C3
330
C2
100
AcDbEntity
  8
0
 62
     0
370
    -2
100
AcDbCircle
 10
0.25
 20
0.0
 30
0.0
 40
0.25
  0
CIRCLE
  5
C4
330
C2
100
AcDbEntity
  8
0
 62
     0
370
    -2
100
AcDbCircle
 10
0.0
 20
0.0
 30
0.0
 40
0.5
  0
ENDBLK
  5
C6
330
C2
100
AcDbEntity
  8
0
100
AcDbBlockEnd
  0
BLOCK
  5
CB
330
C7
100
AcDbEntity
  8
0
100
AcDbBlockBegin
  2
CDWK_PTTYP13
 70
     0
 10
0.0
 20
0.0
 30
0.0
  3
CDWK_PTTYP13
  1

  0
CIRCLE
  5
C8
330
C7
100
AcDbEntity
  8
0
 62
     0
370
    -2
100
AcDbCircle
 10
-0.25
 20
0.0
 30
0.0
 40
0.25
  0
CIRCLE
  5
C9
330
C7
100
AcDbEntity
  8
0
 62
     0
370
    -2
100
AcDbCircle
 10
0.25
 20
0.0
 30
0.0
 40
0.25
  0
CIRCLE
  5
CA
330
C7
100
AcDbEntity
  8
0
 62
     0
370
    -2
100
AcDbCircle
 10
0.0
 20
0.0
 30
0.0
 40
0.5
  0
ENDBLK
  5
CC
330
C7
100
AcDbEntity
  8
0
100
AcDbBlockEnd
  0
BLOCK
  5
D2
330
CD
100
AcDbEntity
  8
0
100
AcDbBlockBegin
  2
CDWK_PTTYP16
 70
     0
 10
0.0
 20
0.0
 30
0.0
  3
CDWK_PTTYP16
  1

  0
LINE
  5
CE
330
CD
100
AcDbEntity
  8
0
 62
     0
370
    -2
100
AcDbLine
 10
-0.5
 20
-0.289
 30
0.0
 11
0.5
 21
-0.289
 31
0.0
  0
LINE
  5
CF
330
CD
100
AcDbEntity
  8
0
 62
     0
370
    -2
100
AcDbLine
 10
0.5
 20
-0.289
 30
0.0
 11
0.0
 21
0.577
 31
0.0
  0
LINE
  5
D0
330
CD
100
AcDbEntity
  8
0
 62
     0
370
    -2
100
AcDbLine
 10
0.0
 20
0.577
 30
0.0
 11
-0.5
 21
-0.289
 31
0.0
  0
CIRCLE
  5
D1
330
CD
100
AcDbEntity
  8
0
 62
     0
370
    -2
100
AcDbCircle
 10
0.0
 20
0.0
 30
0.0
 40
0.289
  0
ENDBLK
  5
D3
330
CD
100
AcDbEntity
  8
0
100
AcDbBlockEnd
  0
BLOCK
  5
D7
330
D4
100
AcDbEntity
  8
0
100
AcDbBlockBegin
  2
CDWK_PTTYP17
 70
     0
 10
0.0
 20
0.0
 30
0.0
  3
CDWK_PTTYP17
  1

  0
CIRCLE
  5
D5
330
D4
100
AcDbEntity
  8
0
 62
     0
370
    -2
100
AcDbCircle
 10
0.0
 20
0.0
 30
0.0
 40
0.5
  0
HATCH
  5
D6
330
D4
100
AcDbEntity
  8
0
 62
     0
370
    -2
100
AcDbHatch
 10
0.0
 20
0.0
 30
0.0
210
0.0
220
0.0
230
1.0
  2
SOLID
 70
     1
 71
     1
 91
        1
 92
        1
 93
        1
 72
     2
 10
0.0
 20
0.0
 40
0.25
 50
0.0
 51
360.0
 73
     1
 97
        0
 75
     0
 76
     1
 98
        0
  0
ENDBLK
  5
D8
330
D4
100
AcDbEntity
  8
0
100
AcDbBlockEnd
  0
BLOCK
  5
DC
330
D9
100
AcDbEntity
  8
0
100
AcDbBlockBegin
  2
CDWK_PTTYP18
 70
     0
 10
0.0
 20
0.0
 30
0.0
  3
CDWK_PTTYP18
  1

  0
CIRCLE
  5
DA
330
D9
100
AcDbEntity
  8
0
 62
     0
370
    -2
100
AcDbCircle
 10
0.0
 20
0.0
 30
0.0
 40
0.5
  0
CIRCLE
  5
DB
330
D9
100
AcDbEntity
  8
0
 62
     0
370
    -2
100
AcDbCircle
 10
0.0
 20
0.0
 30
0.0
 40
0.208
  0
ENDBLK
  5
DD
330
D9
100
AcDbEntity
  8
0
100
AcDbBlockEnd
  0
BLOCK
  5
E2
330
DE
100
AcDbEntity
  8
0
100
AcDbBlockBegin
  2
CDWK_PTTYP19
 70
     0
 10
0.0
 20
0.0
 30
0.0
  3
CDWK_PTTYP19
  1

  0
CIRCLE
  5
DF
330
DE
100
AcDbEntity
  8
0
 62
     0
370
    -2
100
AcDbCircle
 10
0.0
 20
0.0
 30
0.0
 40
0.25
  0
CIRCLE
  5
E0
330
DE
100
AcDbEntity
  8
0
 62
     0
370
    -2
100
AcDbCircle
 10
0.0
 20
0.0
 30
0.0
 40
0.35
  0
LINE
  5
E1
330
DE
100
AcDbEntity
  8
0
 62
     0
370
    -2
100
AcDbLine
 10
-0.25
 20
0.0
 30
0.0
 11
0.25
 21
0.0
 31
0.0
  0
ENDBLK
  5
E3
330
DE
100
AcDbEntity
  8
0
100
AcDbBlockEnd
  0
BLOCK
  5
E7
330
E4
100
AcDbEntity
  8
0
100
AcDbBlockBegin
  2
CDWK_PTTYP20
 70
     0
 10
0.0
 20
0.0
 30
0.0
  3
CDWK_PTTYP20
  1

  0
CIRCLE
  5
E5
330
E4
100
AcDbEntity
  8
0
 62
     0
370
    -2
100
AcDbCircle
 10
0.0
 20
0.0
 30
0.0
 40
0.3333333333333333
  0
CIRCLE
  5
E6
330
E4
100
AcDbEntity
  8
0
 62
     0
370
    -2
100
AcDbCircle
 10
0.0
 20
0.0
 30
0.0
 40
0.5
  0
ENDBLK
  5
E8
330
E4
100
AcDbEntity
  8
0
100
AcDbBlockEnd
  0
BLOCK
  5
EC
330
E9
100
AcDbEntity
  8
0
100
AcDbBlockBegin
  2
CDWK_PTTYP21
 70
     0
 10
0.0
 20
0.0
 30
0.0
  3
CDWK_PTTYP21
  1

  0
CIRCLE
  5
EA
330
E9
100
AcDbEntity
  8
0
 62
     0
370
    -2
100
AcDbCircle
 10
0.0
 20
0.0
 30
0.0
 40
0.5
  0
LINE
  5
EB
330
E9
100
AcDbEntity
  8
0
 62
     0
370
    -2
100
AcDbLine
 10
-0.5
 20
0.0
 30
0.0
 11
0.5
 21
0.0
 31
0.0
  0
ENDBLK
  5
ED
330
E9
100
AcDbEntity
  8
0
100
AcDbBlockEnd
  0
BLOCK
  5
F3
330
EE
100
AcDbEntity
  8
0
100
AcDbBlockBegin
  2
CDWK_PTTYP25
 70
     0
 10
0.0
 20
0.0
 30
0.0
  3
CDWK_PTTYP25
  1

  0
LINE
  5
EF
330
EE
100
AcDbEntity
  8
0
 62
     0
370
    -2
100
AcDbLine
 10
0.0
 20
0.5
 30
0.0
 11
-0.4330127018922193
 21
-0.25
 31
0.0
  0
LINE
  5
F0
330
EE
100
AcDbEntity
  8
0
 62
     0
370
    -2
100
AcDbLine
 10
-0.4330127018922193
 20
-0.25
 30
0.0
 11
0.4330127018922193
 21
-0.25
 31
0.0
  0
LINE
  5
F1
330
EE
100
AcDbEntity
  8
0
 62
     0
370
    -2
100
AcDbLine
 10
0.4330127018922193
 20
-0.25
 30
0.0
 11
0.0
 21
0.5
 31
0.0
  0
CIRCLE
  5
F2
330
EE
100
AcDbEntity
  8
0
 62
     0
370
    -2
100
AcDbCircle
 10
0.0
 20
0.0
 30
0.0
 40
0.5
  0
ENDBLK
  5
F4
330
EE
100
AcDbEntity
  8
0
100
AcDbBlockEnd
  0
BLOCK
  5
FA
330
F5
100
AcDbEntity
  8
0
100
AcDbBlockBegin
  2
CDWK_PTTYP26
 70
     0
 10
0.0
 20
0.0
 30
0.0
  3
CDWK_PTTYP26
  1

  0
LINE
  5
F6
330
F5
100
AcDbEntity
  8
0
 62
     0
370
    -2
100
AcDbLine
 10
-0.5
 20
-0.289
 30
0.0
 11
0.5
 21
-0.289
 31
0.0
  0
LINE
  5
F7
330
F5
100
AcDbEntity
  8
0
 62
     0
370
    -2
100
AcDbLine
 10
0.5
 20
-0.289
 30
0.0
 11
0.0
 21
0.577
 31
0.0
  0
LINE
  5
F8
330
F5
100
AcDbEntity
  8
0
 62
     0
370
    -2
100
AcDbLine
 10
0.0
 20
0.577
 30
0.0
 11
-0.5
 21
-0.289
 31
0.0
  0
CIRCLE
  5
F9
330
F5
100
AcDbEntity
  8
0
 62
     0
370
    -2
100
AcDbCircle
 10
0.0
 20
0.0
 30
0.0
 40
0.125
  0
ENDBLK
  5
FB
330
F5
100
AcDbEntity
  8
0
100
AcDbBlockEnd
  0
BLOCK
  5
102
330
FC
100
AcDbEntity
  8
0
100
AcDbBlockBegin
  2
CDWK_PTTYP27
 70
     0
 10
0.0
 20
0.0
 30
0.0
  3
CDWK_PTTYP27
  1

  0
LINE
  5
FD
330
FC
100
AcDbEntity
  8
0
 62
     0
370
    -2
100
AcDbLine
 10
0.0
 20
0.5
 30
0.0
 11
-0.4330127018922193
 21
-0.25
 31
0.0
  0
LINE
  5
FE
330
FC
100
AcDbEntity
  8
0
 62
     0
370
    -2
100
AcDbLine
 10
-0.4330127018922193
 20
-0.25
 30
0.0
 11
0.4330127018922193
 21
-0.25
 31
0.0
  0
LINE
  5
FF
330
FC
100
AcDbEntity
  8
0
 62
     0
370
    -2
100
AcDbLine
 10
0.4330127018922193
 20
-0.25
 30
0.0
 11
0.0
 21
0.5
 31
0.0
  0
CIRCLE
  5
100
330
FC
100
AcDbEntity
  8
0
 62
     0
370
    -2
100
AcDbCircle
 10
0.0
 20
0.0
 30
0.0
 40
0.125
  0
CIRCLE
  5
101
330
FC
100
AcDbEntity
  8
0
 62
     0
370
    -2
100
AcDbCircle
 10
0.0
 20
0.0
 30
0.0
 40
0.5
  0
ENDBLK
  5
103
330
FC
100
AcDbEntity
  8
0
100
AcDbBlockEnd
  0
BLOCK
  5
109
330
104
100
AcDbEntity
  8
0
100
AcDbBlockBegin
  2
CDWK_PTTYP28
 70
     0
 10
0.0
 20
0.0
 30
0.0
  3
CDWK_PTTYP28
  1

  0
LINE
  5
105
330
104
100
AcDbEntity
  8
0
 62
     0
370
    -2
100
AcDbLine
 10
-0.5
 20
0.5
 30
0.0
 11
0.5
 21
0.5
 31
0.0
  0
LINE
  5
106
330
104
100
AcDbEntity
  8
0
 62
     0
370
    -2
100
AcDbLine
 10
0.5
 20
0.5
 30
0.0
 11
-0.5
 21
-0.5
 31
0.0
  0
LINE
  5
107
330
104
100
AcDbEntity
  8
0
 62
     0
370
    -2
100
AcDbLine
 10
0.5
 20
-0.5
 30
0.0
 11
-0.5
 21
-0.5
 31
0.0
  0
LINE
  5
108
330
104
100
AcDbEntity
  8
0
 62
     0
370
    -2
100
AcDbLine
 10
-0.5
 20
0.5
 30
0.0
 11
0.5
 21
-0.5
 31
0.0
  0
ENDBLK
  5
10A
330
104
100
AcDbEntity
  8
0
100
AcDbBlockEnd
  0
BLOCK
  5
10F
330
10B
100
AcDbEntity
  8
0
100
AcDbBlockBegin
  2
CDWK_PTTYP29
 70
     0
 10
0.0
 20
0.0
 30
0.0
  3
CDWK_PTTYP29
  1

  0
CIRCLE
  5
10C
330
10B
100
AcDbEntity
  8
0
 62
     0
370
    -2
100
AcDbCircle
 10
0.0
 20
0.0
 30
0.0
 40
0.2
  0
CIRCLE
  5
10D
330
10B
100
AcDbEntity
  8
0
 62
     0
370
    -2
100
AcDbCircle
 10
0.0
 20
0.0
 30
0.0
 40
0.35
  0
CIRCLE
  5
10E
330
10B
100
AcDbEntity
  8
0
 62
     0
370
    -2
100
AcDbCircle
 10
0.0
 20
0.0
 30
0.0
 40
0.5
  0
ENDBLK
  5
110
330
10B
100
AcDbEntity
  8
0
100
AcDbBlockEnd
  0
BLOCK
  5
116
330
111
100
AcDbEntity
  8
0
100
AcDbBlockBegin
  2
CDWK_PTTYP30
 70
     0
 10
0.0
 20
0.0
 30
0.0
  3
CDWK_PTTYP30
  1

  0
LINE
  5
112
330
111
100
AcDbEntity
  8
0
 62
     0
370
    -2
100
AcDbLine
 10
-0.5
 20
0.5
 30
0.0
 11
-0.1
 21
0.1
 31
0.0
  0
LINE
  5
113
330
111
100
AcDbEntity
  8
0
 62
     0
370
    -2
100
AcDbLine
 10
0.5
 20
0.5
 30
0.0
 11
0.1
 21
0.1
 31
0.0
  0
LINE
  5
114
330
111
100
AcDbEntity
  8
0
 62
     0
370
    -2
100
AcDbLine
 10
0.5
 20
-0.5
 30
0.0
 11
0.1
 21
-0.1
 31
0.0
  0
LINE
  5
115
330
111
100
AcDbEntity
  8
0
 62
     0
370
    -2
100
AcDbLine
 10
-0.5
 20
-0.5
 30
0.0
 11
-0.1
 21
-0.1
 31
0.0
  0
ENDBLK
  5
117
330
111
100
AcDbEntity
  8
0
100
AcDbBlockEnd
  0
BLOCK
  5
11E
330
118
100
AcDbEntity
  8
0
100
AcDbBlockBegin
  2
CDWK_PTTYP31
 70
     0
 10
0.0
 20
0.0
 30
0.0
  3
CDWK_PTTYP31
  1

  0
LINE
  5
119
330
118
100
AcDbEntity
  8
0
 62
     0
370
    -2
100
AcDbLine
 10
-0.5
 20
0.0
 30
0.0
 11
-0.1
 21
0.0
 31
0.0
  0
LINE
  5
11A
330
118
100
AcDbEntity
  8
0
 62
     0
370
    -2
100
AcDbLine
 10
0.1
 20
0.0
 30
0.0
 11
0.5
 21
0.0
 31
0.0
  0
LINE
  5
11B
330
118
100
AcDbEntity
  8
0
 62
     0
370
    -2
100
AcDbLine
 10
0.0
 20
0.5
 30
0.0
 11
0.0
 21
0.1
 31
0.0
  0
LINE
  5
11C
330
118
100
AcDbEntity
  8
0
 62
     0
370
    -2
100
AcDbLine
 10
0.0
 20
-0.1
 30
0.0
 11
0.0
 21
-0.5
 31
0.0
  0
CIRCLE
  5
11D
330
118
100
AcDbEntity
  8
0
 62
     0
370
    -2
100
AcDbCircle
 10
0.0
 20
0.0
 30
0.0
 40
0.1
  0
ENDBLK
  5
11F
330
118
100
AcDbEntity
  8
0
100
AcDbBlockEnd
  0
BLOCK
  5
127
330
120
100
AcDbEntity
  8
0
100
AcDbBlockBegin
  2
CDWK_PTTYP32
 70
     0
 10
0.0
 20
0.0
 30
0.0
  3
CDWK_PTTYP32
  1

  0
CIRCLE
  5
121
330
120
100
AcDbEntity
  8
0
 62
     0
370
    -2
100
AcDbCircle
 10
0.0
 20
0.0
 30
0.0
 40
0.2
  0
CIRCLE
  5
122
330
120
100
AcDbEntity
  8
0
 62
     0
370
    -2
100
AcDbCircle
 10
0.0
 20
0.0
 30
0.0
 40
0.5
  0
LINE
  5
123
330
120
100
AcDbEntity
  8
0
 62
     0
370
    -2
100
AcDbLine
 10
0.1414213562373095
 20
0.1414213562373095
 30
0.0
 11
0.3535533905932738
 21
0.3535533905932738
 31
0.0
  0
LINE
  5
124
330
120
100
AcDbEntity
  8
0
 62
     0
370
    -2
100
AcDbLine
 10
-0.1414213562373095
 20
0.1414213562373095
 30
0.0
 11
-0.3535533905932738
 21
0.3535533905932738
 31
0.0
  0
LINE
  5
125
330
120
100
AcDbEntity
  8
0
 62
     0
370
    -2
100
AcDbLine
 10
0.1414213562373095
 20
-0.1414213562373095
 30
0.0
 11
0.3535533905932738
 21
-0.3535533905932738
 31
0.0
  0
LINE
  5
126
330
120
100
AcDbEntity
  8
0
 62
     0
370
    -2
100
AcDbLine
 10
-0.1414213562373095
 20
-0.1414213562373095
 30
0.0
 11
-0.3535533905932738
 21
-0.3535533905932738
 31
0.0
  0
ENDBLK
  5
128
330
120
100
AcDbEntity
  8
0
100
AcDbBlockEnd
  0
BLOCK
  5
12D
330
129
100
AcDbEntity
  8
0
100
AcDbBlockBegin
  2
CDWK_PTTYP33
 70
     0
 10
0.0
 20
0.0
 30
0.0
  3
CDWK_PTTYP33
  1

  0
LINE
  5
12A
330
129
100
AcDbEntity
  8
0
 62
     0
370
    -2
100
AcDbLine
 10
0.0
 20
-0.5
 30
0.0
 11
0.0
 21
0.5
 31
0.0
  0
LINE
  5
12B
330
129
100
AcDbEntity
  8
0
 62
     0
370
    -2
100
AcDbLine
 10
0.5
 20
0.0
 30
0.0
 11
-0.5
 21
0.0
 31
0.0
  0
CIRCLE
  5
12C
330
129
100
AcDbEntity
  8
0
 62
     0
370
    -2
100
AcDbCircle
 10
0.0
 20
0.0
 30
0.0
 40
0.5
  0
ENDBLK
  5
12E
330
129
100
AcDbEntity
  8
0
100
AcDbBlockEnd
  0
BLOCK
  5
133
330
12F
100
AcDbEntity
  8
0
100
AcDbBlockBegin
  2
CDWK_PTTYP34
 70
     0
 10
0.0
 20
0.0
 30
0.0
  3
CDWK_PTTYP34
  1

  0
CIRCLE
  5
130
330
12F
100
AcDbEntity
  8
0
 62
     0
370
    -2
100
AcDbCircle
 10
0.0
 20
0.0
 30
0.0
 40
0.5
  0
LINE
  5
131
330
12F
100
AcDbEntity
  8
0
 62
     0
370
    -2
100
AcDbLine
 10
-0.4
 20
-0.3
 30
0.0
 11
0.3
 21
0.4
 31
0.0
  0
LINE
  5
132
330
12F
100
AcDbEntity
  8
0
 62
     0
370
    -2
100
AcDbLine
 10
-0.3
 20
-0.4
 30
0.0
 11
0.4
 21
0.3
 31
0.0
  0
ENDBLK
  5
134
330
12F
100
AcDbEntity
  8
0
100
AcDbBlockEnd
  0
BLOCK
  5
139
330
135
100
AcDbEntity
  8
0
100
AcDbBlockBegin
  2
CDWK_PTTYP35
 70
     0
 10
0.0
 20
0.0
 30
0.0
  3
CDWK_PTTYP35
  1

  0
LINE
  5
136
330
135
100
AcDbEntity
  8
0
 62
     0
370
    -2
100
AcDbLine
 10
0.0
 20
0.2
 30
0.0
 11
0.0
 21
0.5
 31
0.0
  0
LINE
  5
137
330
135
100
AcDbEntity
  8
0
 62
     0
370
    -2
100
AcDbLine
 10
0.0
 20
-0.2
 30
0.0
 11
0.0
 21
-0.5
 31
0.0
  0
CIRCLE
  5
138
330
135
100
AcDbEntity
  8
0
 62
     0
370
    -2
100
AcDbCircle
 10
0.0
 20
0.0
 30
0.0
 40
0.2
  0
ENDBLK
  5
13A
330
135
100
AcDbEntity
  8
0
100
AcDbBlockEnd
  0
BLOCK
  5
141
330
13B
100
AcDbEntity
  8
0
100
AcDbBlockBegin
  2
CDWK_PTTYP36
 70
     0
 10
0.0
 20
0.0
 30
0.0
  3
CDWK_PTTYP36
  1

  0
LINE
  5
13C
330
13B
100
AcDbEntity
  8
0
 62
     0
370
    -2
100
AcDbLine
 10
-0.5
 20
0.2
 30
0.0
 11
0.5
 21
0.2
 31
0.0
  0
LINE
  5
13D
330
13B
100
AcDbEntity
  8
0
 62
     0
370
    -2
100
AcDbLine
 10
0.5
 20
0.2
 30
0.0
 11
0.5
 21
-0.2
 31
0.0
  0
LINE
  5
13E
330
13B
100
AcDbEntity
  8
0
 62
     0
370
    -2
100
AcDbLine
 10
0.5
 20
-0.2
 30
0.0
 11
-0.5
 21
-0.2
 31
0.0
  0
LINE
  5
13F
330
13B
100
AcDbEntity
  8
0
 62
     0
370
    -2
100
AcDbLine
 10
-0.5
 20
-0.2
 30
0.0
 11
-0.5
 21
0.2
 31
0.0
  0
HATCH
  5
140
330
13B
100
AcDbEntity
  8
0
 62
     0
370
    -2
100
AcDbHatch
 10
0.0
 20
0.0
 30
0.0
210
0.0
220
0.0
230
1.0
  2
SOLID
 70
     1
 71
     1
 91
        1
 92
        3
 72
     0
 73
     1
 93
        3
 10
-0.5
 20
-0.2
 10
0.5
 20
-0.2
 10
0.5
 20
0.2
 97
        0
 75
     0
 76
     1
 98
        0
  0
ENDBLK
  5
142
330
13B
100
AcDbEntity
  8
0
100
AcDbBlockEnd
  0
BLOCK
  5
146
330
143
100
AcDbEntity
  8
0
100
AcDbBlockBegin
  2
CDWK_PTTYP37
 70
     0
 10
0.0
 20
0.0
 30
0.0
  3
CDWK_PTTYP37
  1

  0
HATCH
  5
144
330
143
100
AcDbEntity
  8
0
 62
     0
370
    -2
100
AcDbHatch
 10
0.0
 20
0.0
 30
0.0
210
0.0
220
0.0
230
1.0
  2
SOLID
 70
     1
 71
     1
 91
        1
 92
        3
 72
     0
 73
     1
 93
      202
 10
-0.3535533905932738
 20
-0.3535533905932738
 10
-0.3485533905932738
 20
-0.3535533905932737
 10
-0.3435533905932738
 20
-0.3584836591895546
 10
-0.3385533905932738
 20
-0.3632782236961988
 10
-0.3335533905932738
 20
-0.367942389128785
 10
-0.3285533905932738
 20
-0.372481054046687
 10
-0.3235533905932738
 20
-0.3768987523588579
 10
-0.3185533905932738
 20
-0.3811996897107819
 10
-0.3135533905932738
 20
-0.3853877752881235
 10
-0.3085533905932737
 20
-0.3894666497242888
 10
-0.3035533905932737
 20
-0.3934397096803965
 10
-0.2985533905932737
 20
-0.3973101295704999
 10
-0.2935533905932737
 20
-0.4010808808273714
 10
-0.2885533905932737
 20
-0.4047547490409382
 10
-0.2835533905932737
 20
-0.4083343492496384
 10
-0.2785533905932737
 20
-0.4118221396222626
 10
-0.2735533905932737
 20
-0.4152204337324827
 10
-0.2685533905932737
 20
-0.4185314115988474
 10
-0.2635533905932737
 20
-0.4217571296384408
 10
-0.2585533905932737
 20
-0.4248995296617653
 10
-0.2535533905932737
 20
-0.4279604470190231
 10
-0.2485533905932737
 20
-0.4309416179932669
 10
-0.2435533905932737
 20
-0.4338446865234004
 10
-0.2385533905932737
 20
-0.4366712103293738
 10
-0.2335533905932737
 20
-0.439422666502825
 10
-0.2285533905932737
 20
-0.4421004566186126
 10
-0.2235533905932737
 20
-0.4447059114159811
 10
-0.2185533905932737
 20
-0.4472402950923041
 10
-0.2135533905932737
 20
-0.4497048092473372
 10
-0.2085533905932737
 20
-0.4521005965115692
 10
-0.2035533905932737
 20
-0.4544287438884664
 10
-0.1985533905932736
 20
-0.456690285837111
 10
-0.1935533905932736
 20
-0.45888620711884
 10
-0.1885533905932736
 20
-0.4610174454289638
 10
-0.1835533905932736
 20
-0.4630848938324164
 10
-0.1785533905932736
 20
-0.4650894030202291
 10
-0.1735533905932736
 20
-0.4670317834019928
 10
-0.1685533905932736
 20
-0.46891280704794
 10
-0.1635533905932736
 20
-0.4707332094929264
 10
-0.1585533905932736
 20
-0.4724936914133818
 10
-0.1535533905932736
 20
-0.4741949201872336
 10
-0.1485533905932736
 20
-0.4758375313458466
 10
-0.1435533905932736
 20
-0.4774221299261716
 10
-0.1385533905932736
 20
-0.4789492917305286
 10
-0.1335533905932736
 20
-0.4804195645007682
 10
-0.1285533905932736
 20
-0.4818334690129366
 10
-0.1235533905932736
 20
-0.4831915000980183
 10
-0.1185533905932736
 20
-0.4844941275938295
 10
-0.1135533905932736
 20
-0.4857417972326848
 10
-0.1085533905932736
 20
-0.4869349314690531
 10
-0.1035533905932736
 20
-0.4880739302510473
 10
-0.0985533905932736
 20
-0.489159171739258
 10
-0.0935533905932736
 20
-0.4901910129761353
 10
-0.0885533905932736
 20
-0.4911697905088447
 10
-0.0835533905932735
 20
-0.4920958209682695
 10
-0.0785533905932735
 20
-0.4929694016065986
 10
-0.0735533905932735
 20
-0.4937908107957261
 10
-0.0685533905932735
 20
-0.494560308488493
 10
-0.0635533905932735
 20
-0.4952781366446192
 10
-0.0585533905932735
 20
-0.4959445196230107
 10
-0.0535533905932735
 20
-0.4965596645419678
 10
-0.0485533905932735
 20
-0.4971237616086806
 10
-0.0435533905932735
 20
-0.4976369844192622
 10
-0.0385533905932735
 20
-0.4980994902304456
 10
-0.0335533905932735
 20
-0.4985114202039533
 10
-0.0285533905932735
 20
-0.4988728996244386
 10
-0.0235533905932735
 20
-0.4991840380917923
 10
-0.0185533905932735
 20
-0.49944492968851
 10
-0.0135533905932735
 20
-0.4996556531227215
 10
-0.0085533905932735
 20
-0.4998162718473921
 10
-0.0035533905932735
 20
-0.4999268341561182
 10
0.0014466094067265
 20
-0.499987373255857
 10
0.0064466094067265
 20
-0.4999979073168451
 10
0.0114466094067265
 20
-0.4999584394998819
 10
0.0164466094067265
 20
-0.4998689579610739
 10
0.0214466094067265
 20
-0.4997294358340547
 10
0.0264466094067265
 20
-0.4995398311896213
 10
0.0314466094067265
 20
-0.4993000869726422
 10
0.0364466094067265
 20
-0.4990101309160174
 10
0.0414466094067265
 20
-0.4986698754313855
 10
0.0464466094067265
 20
-0.498279217476192
 10
0.0514466094067265
 20
-0.4978380383966446
 10
0.0564466094067265
 20
-0.497346203745994
 10
0.0614466094067265
 20
-0.4968035630774849
 10
0.0664466094067264
 20
-0.4962099497112257
 10
0.0714466094067265
 20
-0.4955651804741228
 10
0.0764466094067265
 20
-0.4948690554119167
 10
0.0814466094067265
 20
-0.4941213574722463
 10
0.0864466094067265
 20
-0.4933218521575424
 10
0.0914466094067265
 20
-0.4924702871464235
 10
0.0964466094067265
 20
-0.4915663918821278
 10
0.1014466094067265
 20
-0.4906098771263643
 10
0.1064466094067265
 20
-0.4896004344768079
 10
0.1114466094067265
 20
-0.4885377358462822
 10
0.1164466094067265
 20
-0.4874214329014929
 10
0.1214466094067265
 20
-0.4862511564589613
 10
0.1264466094067265
 20
-0.4850265158355881
 10
0.1314466094067265
 20
-0.4837470981510305
 10
0.1364466094067265
 20
-0.482412467578809
 10
0.1414466094067265
 20
-0.4810221645427664
 10
0.1464466094067265
 20
-0.4795757048551781
 10
0.1514466094067265
 20
-0.4780725787924608
 10
0.1564466094067265
 20
-0.4765122501040308
 10
0.1614466094067265
 20
-0.4748941549494363
 10
0.1664466094067265
 20
-0.4732177007584056
 10
0.1714466094067265
 20
-0.4714822650079264
 10
0.1764466094067265
 20
-0.4696871939098801
 10
0.1814466094067266
 20
-0.4678318010021017
 10
0.1864466094067266
 20
-0.4659153656350076
 10
0.1914466094067266
 20
-0.4639371313451162
 10
0.1964466094067266
 20
-0.4618963041058764
 10
0.2014466094067266
 20
-0.4597920504451997
 10
0.2064466094067266
 20
-0.4576234954179405
 10
0.2114466094067266
 20
-0.4553897204202862
 10
0.2164466094067266
 20
-0.4530897608315588
 10
0.2214466094067266
 20
-0.45072260346729
 10
0.2264466094067266
 20
-0.4482871838255748
 10
0.2314466094067266
 20
-0.4457823831065977
 10
0.2364466094067266
 20
-0.4432070249828292
 10
0.2414466094067266
 20
-0.4405598720946596
 10
0.2464466094067266
 20
-0.4378396222431172
 10
0.2514466094067266
 20
-0.4350449042477435
 10
0.2564466094067266
 20
-0.4321742734336012
 10
0.2614466094067266
 20
-0.4292262067066663
 10
0.2664466094067266
 20
-0.4261990971714118
 10
0.2714466094067266
 20
-0.4230912482380831
 10
0.2764466094067266
 20
-0.4199008671598476
 10
0.2814466094067266
 20
-0.4166260579314797
 10
0.2864466094067266
 20
-0.4132648134712868
 10
0.2914466094067266
 20
-0.4098150069963156
 10
0.2964466094067266
 20
-0.4062743824871597
 10
0.3014466094067266
 20
-0.4026405441224911
 10
0.3064466094067266
 20
-0.3989109445442534
 10
0.3114466094067266
 20
-0.3950828717916294
 10
0.3164466094067266
 20
-0.391153434714632
 10
0.3214466094067266
 20
-0.3871195466454601
 10
0.3264466094067267
 20
-0.3829779070663467
 10
0.3314466094067267
 20
-0.3787249809648844
 10
0.3364466094067267
 20
-0.3743569755097196
 10
0.3414466094067267
 20
-0.3698698136084067
 10
0.3464466094067267
 20
-0.3652591038217257
 10
0.3514466094067267
 20
-0.3605201060004601
 10
0.3564466094067267
 20
-0.3556476918757041
 10
0.3614466094067267
 20
-0.3506362996645505
 10
0.3664466094067267
 20
-0.34547988153926
 10
0.3714466094067267
 20
-0.3401718425359658
 10
0.3764466094067267
 20
-0.334704969129899
 10
0.3814466094067267
 20
-0.3290713452523318
 10
0.3864466094067267
 20
-0.3232622529342269
 10
0.3914466094067267
 20
-0.3172680539828188
 10
0.3964466094067267
 20
-0.3110780480586465
 10
0.4014466094067267
 20
-0.304680301118911
 10
0.4064466094067267
 20
-0.2980614362775617
 10
0.4114466094067267
 20
-0.291206376478565
 10
0.4164466094067267
 20
-0.2840980246459106
 10
0.4214466094067267
 20
-0.276716861635935
 10
0.4264466094067267
 20
-0.2690404345439063
 10
0.4314466094067267
 20
-0.2610426963649944
 10
0.4364466094067267
 20
-0.2526931404518915
 10
0.4414466094067268
 20
-0.2439556458403291
 10
0.4464466094067268
 20
-0.2347869056044327
 10
0.4514466094067268
 20
-0.2251342376211081
 10
0.4564466094067268
 20
-0.2149324518428296
 10
0.4614466094067268
 20
-0.2040992228331676
 10
0.4664466094067268
 20
-0.1925279893081412
 10
0.4714466094067268
 20
-0.1800765408735088
 10
0.4764466094067268
 20
-0.1665475742210051
 10
0.4814466094067268
 20
-0.1516529867323223
 10
0.4864466094067268
 20
-0.1349413290684758
 10
0.4914466094067268
 20
-0.1156274024472547
 10
0.4964466094067268
 20
-0.0920881648347501
 10
0.5
 20
0.0
 10
0.495
 20
0.0
 10
0.49
 20
0.0705336798983295
 10
0.485
 20
0.0994987437106621
 10
0.48
 20
0.1215524578114322
 10
0.475
 20
0.14
 10
0.47
 20
0.15612494995996
 10
0.465
 20
0.1705872210923199
 10
0.46
 20
0.1837797594948911
 10
0.455
 20
0.1959591794226544
 10
0.45
 20
0.2073041244162789
 10
0.445
 20
0.2179449471770338
 10
0.4399999999999999
 20
0.2279802623035601
 10
0.4349999999999999
 20
0.2374868417407584
 10
0.4299999999999999
 20
0.2465258607124211
 10
0.4249999999999999
 20
0.2551470164434615
 10
0.4199999999999999
 20
0.2633913438213186
 10
0.4149999999999999
 20
0.2712931993250108
 10
0.4099999999999999
 20
0.2788816953476869
 10
0.4049999999999999
 20
0.2861817604250838
 10
0.3999999999999999
 20
0.2932149382279151
 10
0.3949999999999999
 20
0.3000000000000002
 10
0.3899999999999999
 20
0.3065534211193868
 10
0.3849999999999999
 20
0.3128897569432404
 10
0.3799999999999999
 20
0.3190219428189855
 10
0.3749999999999999
 20
0.3249615361854385
 10
0.3699999999999999
 20
0.330718913883074
 10
0.3649999999999999
 20
0.3363034344160049
 10
0.3599999999999999
 20
0.3417235724968357
 10
0.3549999999999999
 20
0.3469870314579496
 10
0.3535533905932738
 20
0.3535533905932738
 97
        0
 75
     0
 76
     1
 98
        0
  0
CIRCLE
  5
145
330
143
100
AcDbEntity
  8
0
 62
     0
370
    -2
100
AcDbCircle
 10
0.0
 20
0.0
 30
0.0
 40
0.5
  0
ENDBLK
  5
147
330
143
100
AcDbEntity
  8
0
100
AcDbBlockEnd
  0
BLOCK
  5
14C
330
148
100
AcDbEntity
  8
0
100
AcDbBlockBegin
  2
CDWK_PTTYP38
 70
     0
 10
0.0
 20
0.0
 30
0.0
  3
CDWK_PTTYP38
  1

  0
HATCH
  5
149
330
148
100
AcDbEntity
  8
0
 62
     0
370
    -2
100
AcDbHatch
 10
0.0
 20
0.0
 30
0.0
210
0.0
220
0.0
230
1.0
  2
SOLID
 70
     1
 71
     1
 91
        1
 92
        3
 72
     0
 73
     1
 93
      102
 10
0.0
 20
0.0
 10
0.0
 20
0.5
 10
0.005
 20
0.5
 10
0.01
 20
0.4999749993749688
 10
0.015
 20
0.4998999899979995
 10
0.02
 20
0.4997749493522059
 10
0.025
 20
0.4995998398718718
 10
0.03
 20
0.4993746088859545
 10
0.035
 20
0.4990991885387112
 10
0.04
 20
0.4987734956871706
 10
0.045
 20
0.4983974317750845
 10
0.05
 20
0.4979708826829135
 10
0.055
 20
0.49749371855331
 10
0.06
 20
0.4969657935914704
 10
0.065
 20
0.4963869458396343
 10
0.07
 20
0.4957569969249047
 10
0.075
 20
0.4950757517794626
 10
0.08
 20
0.4943429983321297
 10
0.085
 20
0.4935585071701227
 10
0.09
 20
0.4927220311697053
 10
0.095
 20
0.4918333050943175
 10
0.1
 20
0.4908920451586071
 10
0.105
 20
0.4898979485566356
 10
0.11
 20
0.4888506929523574
 10
0.115
 20
0.4877499359302879
 10
0.12
 20
0.4865953144040744
 10
0.125
 20
0.4853864439804639
 10
0.13
 20
0.4841229182759271
 10
0.135
 20
0.4828043081829325
 10
0.14
 20
0.4814301610825811
 10
0.145
 20
0.48
 10
0.15
 20
0.478513322698543
 10
0.1550000000000001
 20
0.4769696007084728
 10
0.1600000000000001
 20
0.4753682782853731
 10
0.1650000000000001
 20
0.4737087712930804
 10
0.1700000000000001
 20
0.4719904660054056
 10
0.1750000000000001
 20
0.4702127178203498
 10
0.1800000000000001
 20
0.4683748498798799
 10
0.1850000000000001
 20
0.466476151587624
 10
0.1900000000000001
 20
0.4645158770160606
 10
0.1950000000000001
 20
0.4624932431938871
 10
0.2000000000000001
 20
0.460407428263272
 10
0.2050000000000001
 20
0.4582575694955839
 10
0.2100000000000001
 20
0.4560427611529427
 10
0.2150000000000001
 20
0.4537620521815371
 10
0.2200000000000001
 20
0.4514144437210665
 10
0.2250000000000001
 20
0.4489988864128729
 10
0.2300000000000001
 20
0.4465142774872937
 10
0.2350000000000001
 20
0.4439594576084622
 10
0.2400000000000001
 20
0.4413332074521472
 10
0.2450000000000001
 20
0.4386342439892261
 10
0.2500000000000001
 20
0.4358612164439502
 10
0.2550000000000001
 20
0.4330127018922192
 10
0.2600000000000001
 20
0.4300872004605577
 10
0.2650000000000001
 20
0.4270831300812524
 10
0.2700000000000001
 20
0.423998820753077
 10
0.2750000000000001
 20
0.4208325082500162
 10
0.2800000000000001
 20
0.4175823272122516
 10
0.2850000000000001
 20
0.4142463035441595
 10
0.2900000000000001
 20
0.4108223460329293
 10
0.2950000000000002
 20
0.4073082370883259
 10
0.3000000000000002
 20
0.403701622488689
 10
0.3050000000000002
 20
0.3999999999999999
 10
0.3100000000000002
 20
0.3962007067131506
 10
0.3150000000000002
 20
0.3923009049186605
 10
0.3200000000000002
 20
0.3882975663070783
 10
0.3250000000000002
 20
0.3841874542459708
 10
0.3300000000000002
 20
0.3799671038392664
 10
0.3350000000000002
 20
0.3756327994198588
 10
0.3400000000000002
 20
0.3711805490593491
 10
0.3450000000000002
 20
0.366606055596467
 10
0.3500000000000002
 20
0.3619046835839512
 10
0.3550000000000002
 20
0.3570714214271423
 10
0.3600000000000002
 20
0.3521008378291649
 10
0.3650000000000002
 20
0.3469870314579492
 10
0.3700000000000002
 20
0.3417235724968353
 10
0.3750000000000002
 20
0.3363034344160045
 10
0.3800000000000002
 20
0.3307189138830736
 10
0.3850000000000002
 20
0.3249615361854382
 10
0.3900000000000002
 20
0.3190219428189851
 10
0.3950000000000002
 20
0.31288975694324
 10
0.4000000000000002
 20
0.3065534211193863
 10
0.4050000000000002
 20
0.2999999999999997
 10
0.4100000000000003
 20
0.2932149382279147
 10
0.4150000000000003
 20
0.2861817604250834
 10
0.4200000000000003
 20
0.2788816953476864
 10
0.4250000000000003
 20
0.2712931993250103
 10
0.4300000000000003
 20
0.263391343821318
 10
0.4350000000000003
 20
0.255147016443461
 10
0.4400000000000003
 20
0.2465258607124206
 10
0.4450000000000003
 20
0.2374868417407578
 10
0.4500000000000003
 20
0.2279802623035594
 10
0.4550000000000003
 20
0.2179449471770331
 10
0.4600000000000003
 20
0.2073041244162782
 10
0.4650000000000003
 20
0.1959591794226536
 10
0.4700000000000003
 20
0.1837797594948903
 10
0.4750000000000003
 20
0.170587221092319
 10
0.4800000000000003
 20
0.156124949959959
 10
0.4850000000000003
 20
0.1399999999999989
 10
0.4900000000000003
 20
0.1215524578114309
 10
0.4950000000000003
 20
0.0994987437106604
 10
0.5
 20
0.0
 97
        0
 75
     0
 76
     1
 98
        0
  0
HATCH
  5
14A
330
148
100
AcDbEntity
  8
0
 62
     0
370
    -2
100
AcDbHatch
 10
0.0
 20
0.0
 30
0.0
210
0.0
220
0.0
230
1.0
  2
SOLID
 70
     1
 71
     1
 91
        1
 92
        3
 72
     0
 73
     1
 93
      102
 10
0.0
 20
0.0
 10
-0.5
 20
0.0
 10
-0.495
 20
0.0
 10
-0.49
 20
-0.0705336798983295
 10
-0.485
 20
-0.0994987437106621
 10
-0.48
 20
-0.1215524578114322
 10
-0.475
 20
-0.14
 10
-0.47
 20
-0.15612494995996
 10
-0.465
 20
-0.1705872210923199
 10
-0.46
 20
-0.1837797594948911
 10
-0.455
 20
-0.1959591794226544
 10
-0.45
 20
-0.2073041244162789
 10
-0.445
 20
-0.2179449471770338
 10
-0.4399999999999999
 20
-0.2279802623035601
 10
-0.4349999999999999
 20
-0.2374868417407584
 10
-0.4299999999999999
 20
-0.2465258607124211
 10
-0.4249999999999999
 20
-0.2551470164434615
 10
-0.4199999999999999
 20
-0.2633913438213186
 10
-0.4149999999999999
 20
-0.2712931993250108
 10
-0.4099999999999999
 20
-0.2788816953476869
 10
-0.4049999999999999
 20
-0.2861817604250838
 10
-0.3999999999999999
 20
-0.2932149382279151
 10
-0.3949999999999999
 20
-0.3000000000000002
 10
-0.3899999999999999
 20
-0.3065534211193868
 10
-0.3849999999999999
 20
-0.3128897569432404
 10
-0.3799999999999999
 20
-0.3190219428189855
 10
-0.3749999999999999
 20
-0.3249615361854385
 10
-0.3699999999999999
 20
-0.330718913883074
 10
-0.3649999999999999
 20
-0.3363034344160049
 10
-0.3599999999999999
 20
-0.3417235724968357
 10
-0.3549999999999999
 20
-0.3469870314579496
 10
-0.3499999999999999
 20
-0.3521008378291652
 10
-0.3449999999999999
 20
-0.3570714214271427
 10
-0.3399999999999999
 20
-0.3619046835839516
 10
-0.3349999999999999
 20
-0.3666060555964674
 10
-0.3299999999999998
 20
-0.3711805490593494
 10
-0.3249999999999998
 20
-0.3756327994198591
 10
-0.3199999999999998
 20
-0.3799671038392667
 10
-0.3149999999999998
 20
-0.3841874542459711
 10
-0.3099999999999998
 20
-0.3882975663070786
 10
-0.3049999999999998
 20
-0.3923009049186608
 10
-0.2999999999999998
 20
-0.3962007067131507
 10
-0.2949999999999998
 20
-0.4000000000000001
 10
-0.2899999999999998
 20
-0.4037016224886891
 10
-0.2849999999999998
 20
-0.4073082370883261
 10
-0.2799999999999998
 20
-0.4108223460329296
 10
-0.2749999999999998
 20
-0.4142463035441597
 10
-0.2699999999999998
 20
-0.4175823272122518
 10
-0.2649999999999998
 20
-0.4208325082500164
 10
-0.2599999999999998
 20
-0.4239988207530773
 10
-0.2549999999999998
 20
-0.4270831300812526
 10
-0.2499999999999998
 20
-0.4300872004605579
 10
-0.2449999999999998
 20
-0.4330127018922195
 10
-0.2399999999999998
 20
-0.4358612164439503
 10
-0.2349999999999998
 20
-0.4386342439892263
 10
-0.2299999999999998
 20
-0.4413332074521473
 10
-0.2249999999999998
 20
-0.4439594576084624
 10
-0.2199999999999998
 20
-0.4465142774872939
 10
-0.2149999999999997
 20
-0.4489988864128731
 10
-0.2099999999999997
 20
-0.4514144437210667
 10
-0.2049999999999997
 20
-0.4537620521815372
 10
-0.1999999999999997
 20
-0.4560427611529429
 10
-0.1949999999999997
 20
-0.4582575694955841
 10
-0.1899999999999997
 20
-0.4604074282632722
 10
-0.1849999999999997
 20
-0.4624932431938872
 10
-0.1799999999999997
 20
-0.4645158770160608
 10
-0.1749999999999997
 20
-0.4664761515876241
 10
-0.1699999999999997
 20
-0.46837484987988
 10
-0.1649999999999997
 20
-0.47021271782035
 10
-0.1599999999999997
 20
-0.4719904660054058
 10
-0.1549999999999997
 20
-0.4737087712930805
 10
-0.1499999999999997
 20
-0.4753682782853733
 10
-0.1449999999999997
 20
-0.4769696007084729
 10
-0.1399999999999997
 20
-0.4785133226985431
 10
-0.1349999999999997
 20
-0.4800000000000001
 10
-0.1299999999999997
 20
-0.4814301610825812
 10
-0.1249999999999997
 20
-0.4828043081829325
 10
-0.1199999999999997
 20
-0.4841229182759272
 10
-0.1149999999999997
 20
-0.485386443980464
 10
-0.1099999999999997
 20
-0.4865953144040744
 10
-0.1049999999999996
 20
-0.487749935930288
 10
-0.0999999999999996
 20
-0.4888506929523574
 10
-0.0949999999999996
 20
-0.4898979485566357
 10
-0.0899999999999996
 20
-0.4908920451586072
 10
-0.0849999999999996
 20
-0.4918333050943176
 10
-0.0799999999999996
 20
-0.4927220311697053
 10
-0.0749999999999996
 20
-0.4935585071701227
 10
-0.0699999999999996
 20
-0.4943429983321298
 10
-0.0649999999999996
 20
-0.4950757517794626
 10
-0.0599999999999996
 20
-0.4957569969249048
 10
-0.0549999999999996
 20
-0.4963869458396343
 10
-0.0499999999999996
 20
-0.4969657935914705
 10
-0.0449999999999996
 20
-0.49749371855331
 10
-0.0399999999999996
 20
-0.4979708826829135
 10
-0.0349999999999996
 20
-0.4983974317750846
 10
-0.0299999999999996
 20
-0.4987734956871706
 10
-0.0249999999999996
 20
-0.4990991885387112
 10
-0.0199999999999996
 20
-0.4993746088859545
 10
-0.0149999999999996
 20
-0.4995998398718719
 10
-0.0099999999999996
 20
-0.499774949352206
 10
-0.0049999999999996
 20
-0.4998999899979995
 10
0.0
 20
-0.5
 97
        0
 75
     0
 76
     1
 98
        0
  0
CIRCLE
  5
14B
330
148
100
AcDbEntity
  8
0
 62
     0
370
    -2
100
AcDbCircle
 10
0.0
 20
0.0
 30
0.0
 40
0.5
  0
ENDBLK
  5
14D
330
148
100
AcDbEntity
  8
0
100
AcDbBlockEnd
  0
BLOCK
  5
156
330
14E
100
AcDbEntity
  8
0
100
AcDbBlockBegin
  2
CDWK_PTTYP41
 70
     0
 10
0.0
 20
0.0
 30
0.0
  3
CDWK_PTTYP41
  1

  0
LINE
  5
14F
330
14E
100
AcDbEntity
  8
0
 62
     0
370
    -2
100
AcDbLine
 10
-0.5
 20
0.5
 30
0.0
 11
0.5
 21
0.5
 31
0.0
  0
LINE
  5
150
330
14E
100
AcDbEntity
  8
0
 62
     0
370
    -2
100
AcDbLine
 10
0.5
 20
0.5
 30
0.0
 11
0.5
 21
-0.5
 31
0.0
  0
LINE
  5
151
330
14E
100
AcDbEntity
  8
0
 62
     0
370
    -2
100
AcDbLine
 10
0.5
 20
-0.5
 30
0.0
 11
-0.5
 21
-0.5
 31
0.0
  0
LINE
  5
152
330
14E
100
AcDbEntity
  8
0
 62
     0
370
    -2
100
AcDbLine
 10
-0.5
 20
-0.5
 30
0.0
 11
-0.5
 21
0.5
 31
0.0
  0
LINE
  5
153
330
14E
100
AcDbEntity
  8
0
 62
     0
370
    -2
100
AcDbLine
 10
-0.375
 20
0.25
 30
0.0
 11
0.375
 21
0.25
 31
0.0
  0
LINE
  5
154
330
14E
100
AcDbEntity
  8
0
 62
     0
370
    -2
100
AcDbLine
 10
-0.375
 20
0.0
 30
0.0
 11
0.375
 21
0.0
 31
0.0
  0
LINE
  5
155
330
14E
100
AcDbEntity
  8
0
 62
     0
370
    -2
100
AcDbLine
 10
-0.375
 20
-0.25
 30
0.0
 11
0.375
 21
-0.25
 31
0.0
  0
ENDBLK
  5
157
330
14E
100
AcDbEntity
  8
0
100
AcDbBlockEnd
  0
BLOCK
  5
15F
330
158
100
AcDbEntity
  8
0
100
AcDbBlockBegin
  2
CDWK_PTTYP42
 70
     0
 10
0.0
 20
0.0
 30
0.0
  3
CDWK_PTTYP42
  1

  0
LINE
  5
159
330
158
100
AcDbEntity
  8
0
 62
     0
370
    -2
100
AcDbLine
 10
-0.5
 20
0.5
 30
0.0
 11
0.5
 21
0.5
 31
0.0
  0
LINE
  5
15A
330
158
100
AcDbEntity
  8
0
 62
     0
370
    -2
100
AcDbLine
 10
0.5
 20
0.5
 30
0.0
 11
0.5
 21
-0.5
 31
0.0
  0
LINE
  5
15B
330
158
100
AcDbEntity
  8
0
 62
     0
370
    -2
100
AcDbLine
 10
0.5
 20
-0.5
 30
0.0
 11
-0.5
 21
-0.5
 31
0.0
  0
LINE
  5
15C
330
158
100
AcDbEntity
  8
0
 62
     0
370
    -2
100
AcDbLine
 10
-0.5
 20
-0.5
 30
0.0
 11
-0.5
 21
0.5
 31
0.0
  0
LINE
  5
15D
330
158
100
AcDbEntity
  8
0
 62
     0
370
    -2
100
AcDbLine
 10
-0.375
 20
0.125
 30
0.0
 11
0.375
 21
0.125
 31
0.0
  0
LINE
  5
15E
330
158
100
AcDbEntity
  8
0
 62
     0
370
    -2
100
AcDbLine
 10
-0.375
 20
-0.125
 30
0.0
 11
0.375
 21
-0.125
 31
0.0
  0
ENDBLK
  5
160
330
158
100
AcDbEntity
  8
0
100
AcDbBlockEnd
  0
BLOCK
  5
165
330
161
100
AcDbEntity
  8
0
100
AcDbBlockBegin
  2
CDWK_PTTYP43
 70
     0
 10
0.0
 20
0.0
 30
0.0
  3
CDWK_PTTYP43
  1

  0
CIRCLE
  5
162
330
161
100
AcDbEntity
  8
0
 62
     0
370
    -2
100
AcDbCircle
 10
0.0
 20
0.0
 30
0.0
 40
0.5
  0
LINE
  5
163
330
161
100
AcDbEntity
  8
0
 62
     0
370
    -2
100
AcDbLine
 10
-0.375
 20
0.166
 30
0.0
 11
0.375
 21
0.166
 31
0.0
  0
LINE
  5
164
330
161
100
AcDbEntity
  8
0
 62
     0
370
    -2
100
AcDbLine
 10
-0.375
 20
-0.166
 30
0.0
 11
0.375
 21
-0.166
 31
0.0
  0
ENDBLK
  5
166
330
161
100
AcDbEntity
  8
0
100
AcDbBlockEnd
  0
BLOCK
  5
16E
330
167
100
AcDbEntity
  8
0
100
AcDbBlockBegin
  2
CDWK_PTTYP44
 70
     0
 10
0.0
 20
0.0
 30
0.0
  3
CDWK_PTTYP44
  1

  0
CIRCLE
  5
168
330
167
100
AcDbEntity
  8
0
 62
     0
370
    -2
100
AcDbCircle
 10
0.0
 20
0.0
 30
0.0
 40
0.5
  0
LINE
  5
169
330
167
100
AcDbEntity
  8
0
 62
     0
370
    -2
100
AcDbLine
 10
-0.375
 20
0.333
 30
0.0
 11
0.375
 21
0.333
 31
0.0
  0
LINE
  5
16A
330
167
100
AcDbEntity
  8
0
 62
     0
370
    -2
100
AcDbLine
 10
-0.375
 20
0.166
 30
0.0
 11
0.375
 21
0.166
 31
0.0
  0
LINE
  5
16B
330
167
100
AcDbEntity
  8
0
 62
     0
370
    -2
100
AcDbLine
 10
-0.375
 20
0.0
 30
0.0
 11
0.375
 21
0.0
 31
0.0
  0
LINE
  5
16C
330
167
100
AcDbEntity
  8
0
 62
     0
370
    -2
100
AcDbLine
 10
-0.375
 20
-0.166
 30
0.0
 11
0.375
 21
-0.166
 31
0.0
  0
LINE
  5
16D
330
167
100
AcDbEntity
  8
0
 62
     0
370
    -2
100
AcDbLine
 10
-0.375
 20
-0.333
 30
0.0
 11
0.375
 21
-0.333
 31
0.0
  0
ENDBLK
  5
16F
330
167
100
AcDbEntity
  8
0
100
AcDbBlockEnd
  0
BLOCK
  5
173
330
170
100
AcDbEntity
  8
0
100
AcDbBlockBegin
  2
CDWK_PTTYP45
 70
     0
 10
0.0
 20
0.0
 30
0.0
  3
CDWK_PTTYP45
  1

  0
ELLIPSE
  5
171
330
170
100
AcDbEntity
  8
0
 62
     0
370
    -2
100
AcDbEllipse
 10
0.0
 20
0.0
 30
0.0
 11
0.5
 21
0.0
 31
0.0
210
0.0
220
0.0
230
1.0
 40
0.82
 41
0.0
 42
6.283185307179586
  0
CIRCLE
  5
172
330
170
100
AcDbEntity
  8
0
 62
     0
370
    -2
100
AcDbCircle
 10
-0.235
 20
0.0
 30
0.0
 40
0.26
  0
ENDBLK
  5
174
330
170
100
AcDbEntity
  8
0
100
AcDbBlockEnd
  0
BLOCK
  5
178
330
175
100
AcDbEntity
  8
0
100
AcDbBlockBegin
  2
CDWK_PTTYP46
 70
     0
 10
0.0
 20
0.0
 30
0.0
  3
CDWK_PTTYP46
  1

  0
ELLIPSE
  5
176
330
175
100
AcDbEntity
  8
0
 62
     0
370
    -2
100
AcDbEllipse
 10
0.0
 20
0.0
 30
0.0
 11
0.5
 21
0.0
 31
0.0
210
0.0
220
0.0
230
1.0
 40
0.82
 41
0.0
 42
6.283185307179586
  0
CIRCLE
  5
177
330
175
100
AcDbEntity
  8
0
 62
     0
370
    -2
100
AcDbCircle
 10
0.0
 20
0.15
 30
0.0
 40
0.26
  0
ENDBLK
  5
179
330
175
100
AcDbEntity
  8
0
100
AcDbBlockEnd
  0
BLOCK
  5
180
330
17A
100
AcDbEntity
  8
0
100
AcDbBlockBegin
  2
CDWK_PTTYP47
 70
     0
 10
0.0
 20
0.0
 30
0.0
  3
CDWK_PTTYP47
  1

  0
LINE
  5
17B
330
17A
100
AcDbEntity
  8
0
 62
     0
370
    -2
100
AcDbLine
 10
-0.5
 20
0.166
 30
0.0
 11
0.5
 21
0.166
 31
0.0
  0
LINE
  5
17C
330
17A
100
AcDbEntity
  8
0
 62
     0
370
    -2
100
AcDbLine
 10
0.5
 20
0.166
 30
0.0
 11
0.5
 21
-0.166
 31
0.0
  0
LINE
  5
17D
330
17A
100
AcDbEntity
  8
0
 62
     0
370
    -2
100
AcDbLine
 10
0.5
 20
-0.166
 30
0.0
 11
-0.5
 21
-0.166
 31
0.0
  0
LINE
  5
17E
330
17A
100
AcDbEntity
  8
0
 62
     0
370
    -2
100
AcDbLine
 10
-0.5
 20
-0.166
 30
0.0
 11
-0.5
 21
0.166
 31
0.0
  0
CIRCLE
  5
17F
330
17A
100
AcDbEntity
  8
0
 62
     0
370
    -2
100
AcDbCircle
 10
0.0
 20
-0.313
 30
0.0
 40
0.4
  0
ENDBLK
  5
181
330
17A
100
AcDbEntity
  8
0
100
AcDbBlockEnd
  0
BLOCK
  5
186
330
183
100
AcDbEntity
  8
0
100
AcDbBlockBegin
  2
CDWK_PTTYP48
 70
     0
 10
0.0
 20
0.0
 30
0.0
  3
CDWK_PTTYP48
  1

  0
CIRCLE
  5
184
330
183
100
AcDbEntity
  8
0
  6
CADWORK_3
 62
     0
 48
0.1
370
    -2
100
AcDbCircle
 10
0.0
 20
0.0
 30
0.0
 40
0.5
  0
CIRCLE
  5
185
330
183
100
AcDbEntity
  8
0
 62
     0
370
    -2
100
AcDbCircle
 10
0.0
 20
0.0
 30
0.0
 40
0.25
  0
ENDBLK
  5
187
330
183
100
AcDbEntity
  8
0
100
AcDbBlockEnd
  0
BLOCK
  5
18D
330
188
100
AcDbEntity
  8
0
100
AcDbBlockBegin
  2
CDWK_PTTYP49
 70
     0
 10
0.0
 20
0.0
 30
0.0
  3
CDWK_PTTYP49
  1

  0
LINE
  5
189
330
188
100
AcDbEntity
  8
0
 62
     0
370
    -2
100
AcDbLine
 10
-0.5
 20
0.166
 30
0.0
 11
0.5
 21
0.166
 31
0.0
  0
LINE
  5
18A
330
188
100
AcDbEntity
  8
0
 62
     0
370
    -2
100
AcDbLine
 10
0.5
 20
0.166
 30
0.0
 11
0.5
 21
-0.166
 31
0.0
  0
LINE
  5
18B
330
188
100
AcDbEntity
  8
0
 62
     0
370
    -2
100
AcDbLine
 10
0.5
 20
-0.166
 30
0.0
 11
-0.5
 21
-0.166
 31
0.0
  0
LINE
  5
18C
330
188
100
AcDbEntity
  8
0
 62
     0
370
    -2
100
AcDbLine
 10
-0.5
 20
-0.166
 30
0.0
 11
-0.5
 21
0.166
 31
0.0
  0
ENDBLK
  5
18E
330
188
100
AcDbEntity
  8
0
100
AcDbBlockEnd
  0
BLOCK
  5
197
330
18F
100
AcDbEntity
  8
0
100
AcDbBlockBegin
  2
CDWK_PTTYP50
 70
     0
 10
0.0
 20
0.0
 30
0.0
  3
CDWK_PTTYP50
  1

  0
LINE
  5
190
330
18F
100
AcDbEntity
  8
0
 62
     0
370
    -2
100
AcDbLine
 10
-0.5
 20
0.166
 30
0.0
 11
0.5
 21
0.166
 31
0.0
  0
LINE
  5
191
330
18F
100
AcDbEntity
  8
0
 62
     0
370
    -2
100
AcDbLine
 10
0.5
 20
0.166
 30
0.0
 11
0.5
 21
-0.166
 31
0.0
  0
LINE
  5
192
330
18F
100
AcDbEntity
  8
0
 62
     0
370
    -2
100
AcDbLine
 10
0.5
 20
-0.166
 30
0.0
 11
-0.5
 21
-0.166
 31
0.0
  0
LINE
  5
193
330
18F
100
AcDbEntity
  8
0
 62
     0
370
    -2
100
AcDbLine
 10
-0.5
 20
-0.166
 30
0.0
 11
-0.5
 21
0.166
 31
0.0
  0
LINE
  5
194
330
18F
100
AcDbEntity
  8
0
 62
     0
370
    -2
100
AcDbLine
 10
-0.25
 20
-0.166
 30
0.0
 11
-0.25
 21
0.166
 31
0.0
  0
LINE
  5
195
330
18F
100
AcDbEntity
  8
0
 62
     0
370
    -2
100
AcDbLine
 10
0.0
 20
-0.166
 30
0.0
 11
0.0
 21
0.166
 31
0.0
  0
LINE
  5
196
330
18F
100
AcDbEntity
  8
0
 62
     0
370
    -2
100
AcDbLine
 10
0.25
 20
-0.166
 30
0.0
 11
0.25
 21
0.166
 31
0.0
  0
ENDBLK
  5
198
330
18F
100
AcDbEntity
  8
0
100
AcDbBlockEnd
  0
BLOCK
  5
19C
330
199
100
AcDbEntity
  8
0
100
AcDbBlockBegin
  2
CDWK_PTTYP51
 70
     0
 10
0.0
 20
0.0
 30
0.0
  3
CDWK_PTTYP51
  1

  0
SPLINE
  5
19A
330
199
100
AcDbEntity
  8
0
 62
     0
370
    -2
100
AcDbSpline
210
0.0
220
0.0
230
1.0
 70
  1064
 71
     3
 72
    12
 73
     8
 74
     6
 42
0.000000001
 43
0.0000000001
 44
0.0000000001
 40
0.0
 40
0.0
 40
0.0
 40
0.0
 40
0.1690118339052032
 40
0.5175774661755118
 40
0.8011704844252565
 40
0.9154070810132151
 40
0.975822310881188
 40
0.975822310881188
 40
0.975822310881188
 40
0.975822310881188
 10
-0.5
 20
-0.077
 30
0.0
 10
-0.443824324006723
 20
-0.0900581618560981
 30
0.0
 10
-0.2717933876546281
 20
-0.1300471387828842
 30
0.0
 10
-0.0276699186086479
 20
-0.0006977790990417
 30
0.0
 10
0.2303349729129116
 20
0.0817803270207037
 30
0.0
 10
0.3686157174766292
 20
0.0066250198607167
 30
0.0
 10
0.4216533294581816
 20
-0.0168719667726145
 30
0.0
 10
0.44
 20
-0.025
 30
0.0
 11
-0.5
 21
-0.077
 31
0.0
 11
-0.333
 21
-0.103
 31
0.0
 11
0.0
 21
0.0
 31
0.0
 11
0.28
 21
0.045
 31
0.0
 11
0.385
 21
0.0
 31
0.0
 11
0.44
 21
-0.025
 31
0.0
  0
HATCH
  5
19B
330
199
100
AcDbEntity
  8
0
 62
     0
370
    -2
100
AcDbHatch
 10
0.0
 20
0.0
 30
0.0
210
0.0
220
0.0
230
1.0
  2
SOLID
 70
     1
 71
     1
 91
        1
 92
        3
 72
     0
 73
     1
 93
        3
 10
0.365
 20
-0.05
 10
0.5
 20
-0.042
 10
0.395
 20
0.045
 97
        0
 75
     0
 76
     1
 98
        0
  0
ENDBLK
  5
19D
330
199
100
AcDbEntity
  8
0
100
AcDbBlockEnd
  0
BLOCK
  5
1A2
330
19E
100
AcDbEntity
  8
0
100
AcDbBlockBegin
  2
CDWK_PTTYP52
 70
     0
 10
0.0
 20
0.0
 30
0.0
  3
CDWK_PTTYP52
  1

  0
LINE
  5
19F
330
19E
100
AcDbEntity
  8
0
 62
     0
370
    -2
100
AcDbLine
 10
-0.5
 20
-0.289
 30
0.0
 11
0.5
 21
-0.289
 31
0.0
  0
LINE
  5
1A0
330
19E
100
AcDbEntity
  8
0
 62
     0
370
    -2
100
AcDbLine
 10
0.5
 20
-0.289
 30
0.0
 11
0.0
 21
0.577
 31
0.0
  0
LINE
  5
1A1
330
19E
100
AcDbEntity
  8
0
 62
     0
370
    -2
100
AcDbLine
 10
0.0
 20
0.577
 30
0.0
 11
-0.5
 21
-0.289
 31
0.0
  0
ENDBLK
  5
1A3
330
19E
100
AcDbEntity
  8
0
100
AcDbBlockEnd
  0
BLOCK
  5
1A9
330
1A4
100
AcDbEntity
  8
0
100
AcDbBlockBegin
  2
cw-dimension-symbol1
 70
     0
 10
0.0
 20
0.0
 30
0.0
  3
cw-dimension-symbol1
  1

  0
LINE
  5
1A5
330
1A4
100
AcDbEntity
  8
0
 62
     0
370
    -2
100
AcDbLine
 10
0.0
 20
0.0
 30
0.0
 11
-1.0
 21
0.25
 31
0.0
  0
LINE
  5
1A6
330
1A4
100
AcDbEntity
  8
0
 62
     0
370
    -2
100
AcDbLine
 10
0.0
 20
0.0
 30
0.0
 11
-1.0
 21
-0.25
 31
0.0
  0
LINE
  5
1A7
330
1A4
100
AcDbEntity
  8
0
 62
     0
370
    -2
100
AcDbLine
 10
-1.0
 20
0.25
 30
0.0
 11
-1.0
 21
-0.25
 31
0.0
  0
LINE
  5
1A8
330
1A4
100
AcDbEntity
  8
0
 62
     0
370
    -2
100
AcDbLine
 10
0.0
 20
0.0
 30
0.0
 11
-1.0
 21
0.0
 31
0.0
  0
ENDBLK
  5
1AA
330
1A4
100
AcDbEntity
  8
0
100
AcDbBlockEnd
  0
BLOCK
  5
1AE
330
1AB
100
AcDbEntity
  8
0
100
AcDbBlockBegin
  2
cw-dimension-symbol2
 70
     0
 10
0.0
 20
0.0
 30
0.0
  3
cw-dimension-symbol2
  1

  0
LINE
  5
1AC
330
1AB
100
AcDbEntity
  8
0
 62
     0
370
    -2
100
AcDbLine
 10
-1.0
 20
0.0
 30
0.0
 11
1.0
 21
0.0
 31
0.0
  0
LINE
  5
1AD
330
1AB
100
AcDbEntity
  8
0
 62
     0
370
    -2
100
AcDbLine
 10
-0.5
 20
-0.5
 30
0.0
 11
0.5
 21
0.5
 31
0.0
  0
ENDBLK
  5
1AF
330
1AB
100
AcDbEntity
  8
0
100
AcDbBlockEnd
  0
BLOCK
  5
1B3
330
1B0
100
AcDbEntity
  8
0
100
AcDbBlockBegin
  2
cw-dimension-symbol3
 70
     0
 10
0.0
 20
0.0
 30
0.0
  3
cw-dimension-symbol3
  1

  0
LINE
  5
1B1
330
1B0
100
AcDbEntity
  8
0
 62
     0
370
    -2
100
AcDbLine
 10
-1.0
 20
0.0
 30
0.0
 11
1.0
 21
0.0
 31
0.0
  0
CIRCLE
  5
1B2
330
1B0
100
AcDbEntity
  8
0
 62
     0
370
    -2
100
AcDbCircle
 10
0.0
 20
0.0
 30
0.0
 40
0.25
  0
ENDBLK
  5
1B4
330
1B0
100
AcDbEntity
  8
0
100
AcDbBlockEnd
  0
BLOCK
  5
1BA
330
1B5
100
AcDbEntity
  8
0
100
AcDbBlockBegin
  2
cw-dimension-symbol5
 70
     0
 10
0.0
 20
0.0
 30
0.0
  3
cw-dimension-symbol5
  1

  0
HATCH
  5
1B6
330
1B5
100
AcDbEntity
  8
0
 62
     0
370
    -2
100
AcDbHatch
 10
0.0
 20
0.0
 30
0.0
210
0.0
220
0.0
230
1.0
  2
SOLID
 70
     1
 71
     1
 91
        1
 92
        3
 72
     0
 73
     1
 93
        3
 10
0.0
 20
0.0
 10
-1.0
 20
0.25
 10
-1.0
 20
-0.25
 97
        0
 75
     0
 76
     1
 98
        0
  0
LINE
  5
1B7
330
1B5
100
AcDbEntity
  8
0
 62
     0
370
    -2
100
AcDbLine
 10
0.0
 20
0.0
 30
0.0
 11
-1.0
 21
0.25
 31
0.0
  0
LINE
  5
1B8
330
1B5
100
AcDbEntity
  8
0
 62
     0
370
    -2
100
AcDbLine
 10
-1.0
 20
0.25
 30
0.0
 11
-1.0
 21
-0.25
 31
0.0
  0
LINE
  5
1B9
330
1B5
100
AcDbEntity
  8
0
 62
     0
370
    -2
100
AcDbLine
 10
-1.0
 20
-0.25
 30
0.0
 11
0.0
 21
0.0
 31
0.0
  0
ENDBLK
  5
1BB
330
1B5
100
AcDbEntity
  8
0
100
AcDbBlockEnd
  0
BLOCK
  5
1C0
330
1BC
100
AcDbEntity
  8
0
100
AcDbBlockBegin
  2
cw-dimension-symbol6
 70
     0
 10
0.0
 20
0.0
 30
0.0
  3
cw-dimension-symbol6
  1

  0
LINE
  5
1BD
330
1BC
100
AcDbEntity
  8
0
 62
     0
370
    -2
100
AcDbLine
 10
0.0
 20
0.0
 30
0.0
 11
-1.0
 21
0.25
 31
0.0
  0
LINE
  5
1BE
330
1BC
100
AcDbEntity
  8
0
 62
     0
370
    -2
100
AcDbLine
 10
0.0
 20
0.0
 30
0.0
 11
-1.0
 21
-0.25
 31
0.0
  0
LINE
  5
1BF
330
1BC
100
AcDbEntity
  8
0
 62
     0
370
    -2
100
AcDbLine
 10
0.0
 20
0.0
 30
0.0
 11
-1.0
 21
0.0
 31
0.0
  0
ENDBLK
  5
1C1
330
1BC
100
AcDbEntity
  8
0
100
AcDbBlockEnd
  0
BLOCK
  5
1C6
330
1C2
100
AcDbEntity
  8
0
100
AcDbBlockBegin
  2
cw-dimension-symbol11
 70
     0
 10
0.0
 20
0.0
 30
0.0
  3
cw-dimension-symbol11
  1

  0
LINE
  5
1C3
330
1C2
100
AcDbEntity
  8
0
 62
     0
370
    -2
100
AcDbLine
 10
-1.0
 20
1.0
 30
0.0
 11
1.0
 21
1.0
 31
0.0
  0
LINE
  5
1C4
330
1C2
100
AcDbEntity
  8
0
 62
     0
370
    -2
100
AcDbLine
 10
0.0
 20
0.0
 30
0.0
 11
-1.0
 21
1.0
 31
0.0
  0
LINE
  5
1C5
330
1C2
100
AcDbEntity
  8
0
 62
     0
370
    -2
100
AcDbLine
 10
0.0
 20
0.0
 30
0.0
 11
1.0
 21
1.0
 31
0.0
  0
ENDBLK
  5
1C7
330
1C2
100
AcDbEntity
  8
0
100
AcDbBlockEnd
  0
BLOCK
  5
1CC
330
1C8
100
AcDbEntity
  8
0
100
AcDbBlockBegin
  2
cw-dimension-symbol13
 70
     0
 10
0.0
 20
0.0
 30
0.0
  3
cw-dimension-symbol13
  1

  0
LINE
  5
1C9
330
1C8
100
AcDbEntity
  8
0
 62
     0
370
    -2
100
AcDbLine
 10
-1.0
 20
-1.0
 30
0.0
 11
1.0
 21
-1.0
 31
0.0
  0
LINE
  5
1CA
330
1C8
100
AcDbEntity
  8
0
 62
     0
370
    -2
100
AcDbLine
 10
0.0
 20
0.0
 30
0.0
 11
-1.0
 21
-1.0
 31
0.0
  0
LINE
  5
1CB
330
1C8
100
AcDbEntity
  8
0
 62
     0
370
    -2
100
AcDbLine
 10
0.0
 20
0.0
 30
0.0
 11
1.0
 21
-1.0
 31
0.0
  0
ENDBLK
  5
1CD
330
1C8
100
AcDbEntity
  8
0
100
AcDbBlockEnd
  0
BLOCK
  5
1D3
330
1CE
100
AcDbEntity
  8
0
100
AcDbBlockBegin
  2
cw-dimension-symbol15
 70
     0
 10
0.0
 20
0.0
 30
0.0
  3
cw-dimension-symbol15
  1

  0
HATCH
  5
1CF
330
1CE
100
AcDbEntity
  8
0
 62
     0
370
    -2
100
AcDbHatch
 10
0.0
 20
0.0
 30
0.0
210
0.0
220
0.0
230
1.0
  2
SOLID
 70
     1
 71
     1
 91
        1
 92
        3
 72
     0
 73
     1
 93
        3
 10
0.0
 20
0.0
 10
-1.0
 20
1.0
 10
1.0
 20
1.0
 97
        0
 75
     0
 76
     1
 98
        0
  0
LINE
  5
1D0
330
1CE
100
AcDbEntity
  8
0
 62
     0
370
    -2
100
AcDbLine
 10
0.0
 20
0.0
 30
0.0
 11
-1.0
 21
1.0
 31
0.0
  0
LINE
  5
1D1
330
1CE
100
AcDbEntity
  8
0
 62
     0
370
    -2
100
AcDbLine
 10
-1.0
 20
1.0
 30
0.0
 11
1.0
 21
1.0
 31
0.0
  0
LINE
  5
1D2
330
1CE
100
AcDbEntity
  8
0
 62
     0
370
    -2
100
AcDbLine
 10
1.0
 20
1.0
 30
0.0
 11
0.0
 21
0.0
 31
0.0
  0
ENDBLK
  5
1D4
330
1CE
100
AcDbEntity
  8
0
100
AcDbBlockEnd
  0
BLOCK
  5
1DA
330
1D5
100
AcDbEntity
  8
0
100
AcDbBlockBegin
  2
cw-dimension-symbol16
 70
     0
 10
0.0
 20
0.0
 30
0.0
  3
cw-dimension-symbol16
  1

  0
HATCH
  5
1D6
330
1D5
100
AcDbEntity
  8
0
 62
     0
370
    -2
100
AcDbHatch
 10
0.0
 20
0.0
 30
0.0
210
0.0
220
0.0
230
1.0
  2
SOLID
 70
     1
 71
     1
 91
        1
 92
        3
 72
     0
 73
     1
 93
        3
 10
0.0
 20
0.0
 10
-1.0
 20
-1.0
 10
1.0
 20
-1.0
 97
        0
 75
     0
 76
     1
 98
        0
  0
LINE
  5
1D7
330
1D5
100
AcDbEntity
  8
0
 62
     0
370
    -2
100
AcDbLine
 10
0.0
 20
0.0
 30
0.0
 11
-1.0
 21
-1.0
 31
0.0
  0
LINE
  5
1D8
330
1D5
100
AcDbEntity
  8
0
 62
     0
370
    -2
100
AcDbLine
 10
-1.0
 20
-1.0
 30
0.0
 11
1.0
 21
-1.0
 31
0.0
  0
LINE
  5
1D9
330
1D5
100
AcDbEntity
  8
0
 62
     0
370
    -2
100
AcDbLine
 10
1.0
 20
-1.0
 30
0.0
 11
0.0
 21
0.0
 31
0.0
  0
ENDBLK
  5
1DB
330
1D5
100
AcDbEntity
  8
0
100
AcDbBlockEnd
  0
BLOCK
  5
1E1
330
1DC
100
AcDbEntity
  8
0
100
AcDbBlockBegin
  2
cw-dimension-symbol17
 70
     0
 10
0.0
 20
0.0
 30
0.0
  3
cw-dimension-symbol17
  1

  0
LINE
  5
1DD
330
1DC
100
AcDbEntity
  8
0
 62
     0
370
    -2
100
AcDbLine
 10
0.0
 20
0.0
 30
0.0
 11
1.0
 21
1.0
 31
0.0
  0
LINE
  5
1DE
330
1DC
100
AcDbEntity
  8
0
 62
     0
370
    -2
100
AcDbLine
 10
1.0
 20
1.0
 30
0.0
 11
-1.0
 21
1.0
 31
0.0
  0
LINE
  5
1DF
330
1DC
100
AcDbEntity
  8
0
 62
     0
370
    -2
100
AcDbLine
 10
-1.0
 20
1.0
 30
0.0
 11
0.0
 21
0.0
 31
0.0
  0
HATCH
  5
1E0
330
1DC
100
AcDbEntity
  8
0
 62
     0
370
    -2
100
AcDbHatch
 10
0.0
 20
0.0
 30
0.0
210
0.0
220
0.0
230
1.0
  2
SOLID
 70
     1
 71
     1
 91
        1
 92
        3
 72
     0
 73
     1
 93
        3
 10
0.0
 20
0.0
 10
-1.0
 20
1.0
 10
0.0
 20
1.0
 97
        0
 75
     0
 76
     1
 98
        0
  0
ENDBLK
  5
1E2
330
1DC
100
AcDbEntity
  8
0
100
AcDbBlockEnd
  0
BLOCK
  5
1E8
330
1E3
100
AcDbEntity
  8
0
100
AcDbBlockBegin
  2
cw-dimension-symbol18
 70
     0
 10
0.0
 20
0.0
 30
0.0
  3
cw-dimension-symbol18
  1

  0
LINE
  5
1E4
330
1E3
100
AcDbEntity
  8
0
 62
     0
370
    -2
100
AcDbLine
 10
0.0
 20
0.0
 30
0.0
 11
1.0
 21
-1.0
 31
0.0
  0
LINE
  5
1E5
330
1E3
100
AcDbEntity
  8
0
 62
     0
370
    -2
100
AcDbLine
 10
1.0
 20
-1.0
 30
0.0
 11
-1.0
 21
-1.0
 31
0.0
  0
LINE
  5
1E6
330
1E3
100
AcDbEntity
  8
0
 62
     0
370
    -2
100
AcDbLine
 10
-1.0
 20
-1.0
 30
0.0
 11
0.0
 21
0.0
 31
0.0
  0
HATCH
  5
1E7
330
1E3
100
AcDbEntity
  8
0
 62
     0
370
    -2
100
AcDbHatch
 10
0.0
 20
0.0
 30
0.0
210
0.0
220
0.0
230
1.0
  2
SOLID
 70
     1
 71
     1
 91
        1
 92
        3
 72
     0
 73
     1
 93
        3
 10
0.0
 20
0.0
 10
-1.0
 20
-1.0
 10
0.0
 20
-1.0
 97
        0
 75
     0
 76
     1
 98
        0
  0
ENDBLK
  5
1E9
330
1E3
100
AcDbEntity
  8
0
100
AcDbBlockEnd
  0
BLOCK
  5
1EB
330
1EA
100
AcDbEntity
  8
0
100
AcDbBlockBegin
  2
cw-dimension-symbol19
 70
     0
 10
0.0
 20
0.0
 30
0.0
  3
cw-dimension-symbol19
  1

  0
ENDBLK
  5
1EC
330
1EA
100
AcDbEntity
  8
0
100
AcDbBlockEnd
  0
BLOCK
  5
1F2
330
1ED
100
AcDbEntity
  8
0
100
AcDbBlockBegin
  2
cw-dimension-symbol20
 70
     0
 10
0.0
 20
0.0
 30
0.0
  3
cw-dimension-symbol20
  1

  0
LINE
  5
1EE
330
1ED
100
AcDbEntity
  8
0
 62
     0
370
    -2
100
AcDbLine
 10
0.0
 20
0.0
 30
0.0
 11
0.0
 21
2.0
 31
0.0
  0
LINE
  5
1EF
330
1ED
100
AcDbEntity
  8
0
 62
     0
370
    -2
100
AcDbLine
 10
0.0
 20
0.0
 30
0.0
 11
-1.0
 21
0.33
 31
0.0
  0
LINE
  5
1F0
330
1ED
100
AcDbEntity
  8
0
 62
     0
370
    -2
100
AcDbLine
 10
0.0
 20
0.0
 30
0.0
 11
1.0
 21
0.33
 31
0.0
  0
LINE
  5
1F1
330
1ED
100
AcDbEntity
  8
0
 62
     0
370
    -2
100
AcDbLine
 10
0.0
 20
2.0
 30
0.0
 11
4.15
 21
2.0
 31
0.0
  0
ENDBLK
  5
1F3
330
1ED
100
AcDbEntity
  8
0
100
AcDbBlockEnd
  0
BLOCK
  5
1F9
330
1F4
100
AcDbEntity
  8
0
100
AcDbBlockBegin
  2
cw-dimension-symbol21
 70
     0
 10
0.0
 20
0.0
 30
0.0
  3
cw-dimension-symbol21
  1

  0
LINE
  5
1F5
330
1F4
100
AcDbEntity
  8
0
 62
     0
370
    -2
100
AcDbLine
 10
0.0
 20
0.0
 30
0.0
 11
0.0
 21
-2.0
 31
0.0
  0
LINE
  5
1F6
330
1F4
100
AcDbEntity
  8
0
 62
     0
370
    -2
100
AcDbLine
 10
0.0
 20
0.0
 30
0.0
 11
-1.0
 21
-0.33
 31
0.0
  0
LINE
  5
1F7
330
1F4
100
AcDbEntity
  8
0
 62
     0
370
    -2
100
AcDbLine
 10
0.0
 20
0.0
 30
0.0
 11
1.0
 21
-0.33
 31
0.0
  0
LINE
  5
1F8
330
1F4
100
AcDbEntity
  8
0
 62
     0
370
    -2
100
AcDbLine
 10
0.0
 20
-2.0
 30
0.0
 11
4.15
 21
-2.0
 31
0.0
  0
ENDBLK
  5
1FA
330
1F4
100
AcDbEntity
  8
0
100
AcDbBlockEnd
  0
BLOCK
  5
22B
330
1FB
100
AcDbEntity
  8
0
100
AcDbBlockBegin
  2
cw-line-extremity0
 70
     0
 10
0.0
 20
0.0
 30
0.0
  3
cw-line-extremity0
  1

  0
LINE
  5
1FC
330
1FB
100
AcDbEntity
  8
0
 62
     0
370
    -2
100
AcDbLine
 10
0.0
 20
0.0
 30
0.0
 11
4.0
 21
1.0
 31
0.0
  0
LINE
  5
1FD
330
1FB
100
AcDbEntity
  8
0
 62
     0
370
    -2
100
AcDbLine
 10
0.0
 20
0.0
 30
0.0
 11
4.0
 21
-1.0
 31
0.0
  0
LINE
  5
1FE
330
1FB
100
AcDbEntity
  8
0
 62
     0
370
    -2
100
AcDbLine
 10
4.0
 20
1.0
 30
0.0
 11
4.0
 21
-1.0
 31
0.0
  0
ENDBLK
  5
22C
330
1FB
100
AcDbEntity
  8
0
100
AcDbBlockEnd
  0
BLOCK
  5
229
330
1FF
100
AcDbEntity
  8
0
100
AcDbBlockBegin
  2
cw-line-extremity2
 70
     0
 10
0.0
 20
0.0
 30
0.0
  3
cw-line-extremity2
  1

  0
HATCH
  5
200
330
1FF
100
AcDbEntity
  8
0
 62
     0
370
     0
100
AcDbHatch
 10
0.0
 20
0.0
 30
0.0
210
0.0
220
0.0
230
1.0
  2
SOLID
 70
     1
 71
     1
 91
        1
 92
        3
 72
     0
 73
     1
 93
        3
 10
0.0
 20
0.0
 10
4.0
 20
1.0
 10
4.0
 20
-1.0
 97
        0
 75
     0
 76
     1
 98
        0
  0
LINE
  5
201
330
1FF
100
AcDbEntity
  8
0
 62
     0
370
    -2
100
AcDbLine
 10
0.0
 20
0.0
 30
0.0
 11
4.0
 21
1.0
 31
0.0
  0
LINE
  5
202
330
1FF
100
AcDbEntity
  8
0
 62
     0
370
    -2
100
AcDbLine
 10
4.0
 20
1.0
 30
0.0
 11
4.0
 21
-1.0
 31
0.0
  0
LINE
  5
203
330
1FF
100
AcDbEntity
  8
0
 62
     0
370
    -2
100
AcDbLine
 10
4.0
 20
-1.0
 30
0.0
 11
0.0
 21
0.0
 31
0.0
  0
ENDBLK
  5
22A
330
1FF
100
AcDbEntity
  8
0
100
AcDbBlockEnd
  0
BLOCK
  5
227
330
204
100
AcDbEntity
  8
0
100
AcDbBlockBegin
  2
cw-line-extremity3
 70
     0
 10
0.0
 20
0.0
 30
0.0
  3
cw-line-extremity3
  1

  0
HATCH
  5
205
330
204
100
AcDbEntity
  8
0
 62
     0
370
     0
100
AcDbHatch
 10
0.0
 20
0.0
 30
0.0
210
0.0
220
0.0
230
1.0
  2
SOLID
 70
     1
 71
     1
 91
        1
 92
        3
 72
     0
 73
     1
 93
        3
 10
0.0
 20
0.0
 10
4.0
 20
1.0
 10
4.0
 20
-1.0
 97
        0
 75
     0
 76
     1
 98
        0
  0
LINE
  5
206
330
204
100
AcDbEntity
  8
0
 62
     0
370
    -2
100
AcDbLine
 10
0.0
 20
0.0
 30
0.0
 11
4.0
 21
1.0
 31
0.0
  0
LINE
  5
207
330
204
100
AcDbEntity
  8
0
 62
     0
370
    -2
100
AcDbLine
 10
4.0
 20
1.0
 30
0.0
 11
4.0
 21
-1.0
 31
0.0
  0
LINE
  5
208
330
204
100
AcDbEntity
  8
0
 62
     0
370
    -2
100
AcDbLine
 10
4.0
 20
-1.0
 30
0.0
 11
0.0
 21
0.0
 31
0.0
  0
ENDBLK
  5
228
330
204
100
AcDbEntity
  8
0
100
AcDbBlockEnd
  0
BLOCK
  5
225
330
209
100
AcDbEntity
  8
0
100
AcDbBlockBegin
  2
cw-line-extremity301
 70
     0
 10
0.0
 20
0.0
 30
0.0
  3
cw-line-extremity301
  1

  0
LINE
  5
20A
330
209
100
AcDbEntity
  8
0
 62
     0
370
    -2
100
AcDbLine
 10
0.0
 20
2.66666
 30
0.0
 11
0.0
 21
-2.66666
 31
0.0
  0
ENDBLK
  5
226
330
209
100
AcDbEntity
  8
0
100
AcDbBlockEnd
  0
BLOCK
  5
223
330
20B
100
AcDbEntity
  8
0
100
AcDbBlockBegin
  2
cw-line-extremity4
 70
     0
 10
0.0
 20
0.0
 30
0.0
  3
cw-line-extremity4
  1

  0
HATCH
  5
20C
330
20B
100
AcDbEntity
  8
0
 62
     0
370
     5
100
AcDbHatch
 10
0.0
 20
0.0
 30
0.0
210
0.0
220
0.0
230
1.0
  2
SOLID
 70
     1
 71
     1
 91
        1
 92
        1
 93
        1
 72
     2
 10
0.0
 20
0.0
 40
1.0
 50
0.0
 51
360.0
 73
     1
 97
        0
 75
     0
 76
     1
 98
        0
  0
ENDBLK
  5
224
330
20B
100
AcDbEntity
  8
0
100
AcDbBlockEnd
  0
BLOCK
  5
221
330
20D
100
AcDbEntity
  8
0
100
AcDbBlockBegin
  2
cw-line-extremity5
 70
     0
 10
0.0
 20
0.0
 30
0.0
  3
cw-line-extremity5
  1

  0
LINE
  5
20E
330
20D
100
AcDbEntity
  8
0
 62
     0
370
    -2
100
AcDbLine
 10
0.0
 20
0.0
 30
0.0
 11
-1.0
 21
0.0
 31
0.0
  0
ENDBLK
  5
222
330
20D
100
AcDbEntity
  8
0
100
AcDbBlockEnd
  0
BLOCK
  5
21F
330
20F
100
AcDbEntity
  8
0
100
AcDbBlockBegin
  2
cw-line-extremity6
 70
     0
 10
0.0
 20
0.0
 30
0.0
  3
cw-line-extremity6
  1

  0
LINE
  5
210
330
20F
100
AcDbEntity
  8
0
 62
     0
370
    18
100
AcDbLine
 10
0.0
 20
1.0
 30
0.0
 11
0.0
 21
-1.0
 31
0.0
  0
ENDBLK
  5
220
330
20F
100
AcDbEntity
  8
0
100
AcDbBlockEnd
  0
BLOCK
  5
21D
330
211
100
AcDbEntity
  8
0
100
AcDbBlockBegin
  2
cw-line-extremity9
 70
     0
 10
0.0
 20
0.0
 30
0.0
  3
cw-line-extremity9
  1

  0
LINE
  5
212
330
211
100
AcDbEntity
  8
0
 62
     0
370
    18
100
AcDbLine
 10
-1.0
 20
-1.0
 30
0.0
 11
1.0
 21
1.0
 31
0.0
  0
ENDBLK
  5
21E
330
211
100
AcDbEntity
  8
0
100
AcDbBlockEnd
  0
BLOCK
  5
21B
330
213
100
AcDbEntity
  8
0
100
AcDbBlockBegin
  2
cw-line-extremity10
 70
     0
 10
0.0
 20
0.0
 30
0.0
  3
cw-line-extremity10
  1

  0
CIRCLE
  5
214
330
213
100
AcDbEntity
  8
0
 62
     0
370
    -2
100
AcDbCircle
 10
0.0
 20
0.0
 30
0.0
 40
1.0
  0
ENDBLK
  5
21C
330
213
100
AcDbEntity
  8
0
100
AcDbBlockEnd
  0
BLOCK
  5
219
330
215
100
AcDbEntity
  8
0
100
AcDbBlockBegin
  2
cw-line-extremity1
 70
     0
 10
0.0
 20
0.0
 30
0.0
  3
cw-line-extremity1
  1

  0
LINE
  5
216
330
215
100
AcDbEntity
  8
0
 62
     0
370
    -2
100
AcDbLine
 10
0.0
 20
0.0
 30
0.0
 11
0.0
 21
1.0
 31
0.0
  0
LINE
  5
217
330
215
100
AcDbEntity
  8
0
 62
     0
370
    -2
100
AcDbLine
 10
0.0
 20
1.0
 30
0.0
 11
0.5
 21
1.5
 31
0.0
  0
LINE
  5
218
330
215
100
AcDbEntity
  8
0
 62
     0
370
    -2
100
AcDbLine
 10
0.5
 20
1.5
 30
0.0
 11
1.5
 21
1.5
 31
0.0
  0
ENDBLK
  5
21A
330
215
100
AcDbEntity
  8
0
100
AcDbBlockEnd
  0
BLOCK
  5
1C
330
1B
100
AcDbEntity
  8
0
100
AcDbBlockBegin
  2
*Paper_Space69
 70
     0
 10
0.0
 20
0.0
 30
0.0
  3
*Paper_Space69
  1

  0
ENDBLK
  5
1D
330
1B
100
AcDbEntity
  8
0
100
AcDbBlockEnd
  0
ENDSEC
  0
SECTION
  2
ENTITIES
  0
LINE
  5
236
330
1F
100
AcDbEntity
  8
Ech.1_5
 62
   190
370
    20
100
AcDbLine
 10
1210.399758093854
 20
-3606.092805753561
 30
0.0
 11
1047.204922284653
 21
-3611.275064995585
 31
0.0
  0
LINE
  5
237
330
1F
100
AcDbEntity
  8
Ech.1_5
 62
   190
370
    20
100
AcDbLine
 10
1210.514783517854
 20
-3610.89157262556
 30
0.0
 11
1047.204922284653
 21
-3616.077484507585
 31
0.0
  0
LINE
  5
238
330
1F
100
AcDbEntity
  8
Ech.1_5
370
    20
100
AcDbLine
 10
1093.723890248653
 20
-3674.344894991586
 30
0.0
 11
1093.723890248653
 21
-3618.706144071586
 31
0.0
  0
LINE
  5
239
330
1F
100
AcDbEntity
  8
Ech.1_5
 62
   190
370
    20
100
AcDbLine
 10
1179.523890248653
 20
-3574.109365051586
 30
0.0
 11
1179.523890248653
 21
-3457.958117565458
 31
0.0
  0
LINE
  5
23A
330
1F
100
AcDbEntity
  8
Ech.1_5
 62
   190
370
    20
100
AcDbLine
 10
1179.523890248653
 20
-3656.300849415586
 30
0.0
 11
1179.523890248653
 21
-3735.028985287585
 31
0.0
  0
LWPOLYLINE
  5
23B
330
1F
100
AcDbEntity
  8
Ech.1_5
 62
   190
370
    20
100
AcDbPolyline
 90
        3
 70
     0
 43
0.0
 10
1200.454837498091
 20
-3608.238284979586
 10
1227.55594154609
 20
-3631.863659027586
 10
1235.55594154609
 20
-3631.863659027586
  0
INSERT
  5
23C
330
1F
100
AcDbEntity
  8
Ech.1_5
 62
   190
370
    20
100
AcDbBlockReference
  2
cw-line-extremity4
 10
1200.454837498091
 20
-3608.238284979586
 30
0.0
 50
318.9197257538353
  0
LWPOLYLINE
  5
23D
330
1F
100
AcDbEntity
  8
Ech.1_5
 62
   190
370
    20
100
AcDbPolyline
 90
        6
 70
     0
 43
0.0
 10
1185.523890248654
 20
-3779.113381615402
 10
1151.168657136655
 20
-3779.113770692587
 10
1144.574455872654
 20
-3786.304710056586
 10
1150.218431880653
 20
-3771.922430052587
 10
1143.623890248653
 20
-3779.113770692587
 10
1068.901055762069
 20
-3779.113465007437
  0
HATCH
  5
23E
330
1F
100
AcDbEntity
  8
Ech.1_5
 62
   254
420
 15326711
440
 33554687
370
     5
100
AcDbHatch
 10
0.0
 20
0.0
 30
0.0
210
0.0
220
0.0
230
1.0
  2
SOLID
 70
     1
 71
     1
 91
        1
 92
        3
 72
     0
 73
     1
 93
        8
 10
1150.218431880653
 20
-3771.922430052587
 10
1144.574455872654
 20
-3786.304710056586
 10
1151.168657136655
 20
-3779.113770692587
 10
1179.523890248653
 20
-3779.113118872587
 10
1179.523890248653
 20
-3613.321161071585
 10
1104.523890248653
 20
-3615.621859559586
 10
1104.523890248653
 20
-3779.112893284587
 10
1143.623890248653
 20
-3779.113770692587
 97
        0
 75
     0
 76
     1
 98
        0
  0
LWPOLYLINE
  5
23F
330
1F
100
AcDbEntity
  8
Ech.1_5
 62
   190
370
    20
100
AcDbPolyline
 90
        9
 70
     0
 43
0.0
 10
1150.218431880653
 20
-3771.922430052587
 10
1144.574455872654
 20
-3786.304710056586
 10
1151.168657136655
 20
-3779.113770692587
 10
1179.523890248653
 20
-3779.113118872587
 10
1179.523890248653
 20
-3613.321161071585
 10
1104.523890248653
 20
-3615.621859559586
 10
1104.523890248653
 20
-3779.112893284587
 10
1143.623890248653
 20
-3779.113770692587
 10
1150.218431880653
 20
-3771.922430052587
  0
LWPOLYLINE
  5
240
330
1F
100
AcDbEntity
  8
Ech.1_5
 62
   190
370
    20
100
AcDbPolyline
 90
        9
 70
     0
 43
0.0
 10
1151.168657136655
 20
-3457.957619753457
 10
1144.574115504655
 20
-3465.148960397457
 10
1150.218091512654
 20
-3450.766680393457
 10
1143.623890248653
 20
-3457.957619753457
 10
1104.523890248653
 20
-3457.957848061457
 10
1104.523890248653
 20
-3608.204696571587
 10
1179.523890248653
 20
-3605.505588355586
 10
1179.523890248653
 20
-3457.957779773456
 10
1151.168657136655
 20
-3457.957619753457
  0
HATCH
  5
241
330
1F
100
AcDbEntity
  8
Ech.1_5
 62
   254
420
 15326711
440
 33554687
370
     5
100
AcDbHatch
 10
0.0
 20
0.0
 30
0.0
210
0.0
220
0.0
230
1.0
  2
SOLID
 70
     1
 71
     1
 91
        1
 92
        3
 72
     0
 73
     1
 93
        8
 10
1151.168657136655
 20
-3457.957619753457
 10
1144.574115504655
 20
-3465.148960397457
 10
1150.218091512654
 20
-3450.766680393457
 10
1143.623890248653
 20
-3457.957619753457
 10
1104.523890248653
 20
-3457.957848061457
 10
1104.523890248653
 20
-3608.204696571587
 10
1179.523890248653
 20
-3605.505588355586
 10
1179.523890248653
 20
-3457.957779773456
 97
        0
 75
     0
 76
     1
 98
        0
  0
LWPOLYLINE
  5
242
330
1F
100
AcDbEntity
  8
Ech.1_5
 62
   190
370
    20
100
AcDbPolyline
 90
        9
 70
     0
 43
0.0
 10
1151.168657136655
 20
-3457.957619753457
 10
1144.574115504655
 20
-3465.148960397457
 10
1150.218091512654
 20
-3450.766680393457
 10
1143.623890248653
 20
-3457.957619753457
 10
1104.523890248653
 20
-3457.957848061457
 10
1104.523890248653
 20
-3608.204696571587
 10
1179.523890248653
 20
-3605.505588355586
 10
1179.523890248653
 20
-3457.957779773456
 10
1151.168657136655
 20
-3457.957619753457
  0
LWPOLYLINE
  5
243
330
1F
100
AcDbEntity
  8
Ech.1_5
 62
   190
370
    20
100
AcDbPolyline
 90
       21
 70
     0
 43
0.0
 10
1210.514783517854
 20
-3610.89157262556
 10
1210.767634865852
 20
-3610.85391173356
 10
1211.012380169853
 20
-3610.757974709561
 10
1211.242992981852
 20
-3610.606123837561
 10
1211.453794853853
 20
-3610.402098193561
 10
1211.639595137854
 20
-3610.150921565561
 10
1211.795818817852
 20
-3609.85877875356
 10
1211.918619153853
 20
-3609.532863285562
 10
1212.004972381852
 20
-3609.181200277561
 10
1212.052752209854
 20
-3608.81244884556
 10
1212.060782133852
 20
-3608.435688873561
 10
1212.028864433853
 20
-3608.06019743756
 10
1211.957785025854
 20
-3607.69522038156
 10
1211.849294121852
 20
-3607.34974466156
 10
1211.706063133854
 20
-3607.032277029561
 10
1211.531618873854
 20
-3606.75063459356
 10
1211.330256745854
 20
-3606.511752321559
 10
1211.106934953854
 20
-3606.32151229356
 10
1210.867152417853
 20
-3606.18459884956
 10
1210.616813381852
 20
-3606.104383249561
 10
1210.362082021853
 20
-3606.08284066956
  0
LWPOLYLINE
  5
244
330
1F
100
AcDbEntity
  8
Ech.1_5
 62
   190
370
    20
100
AcDbPolyline
 90
       21
 70
     0
 43
0.0
 10
1210.362082021853
 20
-3606.08284066956
 10
1210.109230669853
 20
-3606.120501561561
 10
1209.864485365854
 20
-3606.216438585561
 10
1209.633872553852
 20
-3606.368289457561
 10
1209.423070685854
 20
-3606.572315101561
 10
1209.237270397853
 20
-3606.82349172956
 10
1209.081046717853
 20
-3607.11563454156
 10
1208.958246385854
 20
-3607.441550009561
 10
1208.871893153852
 20
-3607.793213017561
 10
1208.824113329852
 20
-3608.16196444956
 10
1208.816083401852
 20
-3608.53872442556
 10
1208.848001105854
 20
-3608.914215861561
 10
1208.919080513853
 20
-3609.27919291356
 10
1209.027571413853
 20
-3609.62466863356
 10
1209.170802405852
 20
-3609.94213626556
 10
1209.345246661853
 20
-3610.223778701561
 10
1209.546608789854
 20
-3610.46266097356
 10
1209.769930585853
 20
-3610.65290100156
 10
1210.009713121853
 20
-3610.78981444556
 10
1210.260052157852
 20
-3610.87003004556
 10
1210.514783517854
 20
-3610.89157262556
  0
LWPOLYLINE
  5
245
330
1F
100
AcDbEntity
  8
Ech.1_5
 62
   190
370
    20
100
AcDbPolyline
 90
       21
 70
     0
 43
0.0
 10
1047.204922284653
 20
-3616.077484507585
 10
1047.457773636653
 20
-3616.039823615586
 10
1047.702518936653
 20
-3615.943886591586
 10
1047.933131748652
 20
-3615.792035719587
 10
1048.143933620655
 20
-3615.588010075585
 10
1048.329733904654
 20
-3615.336833447586
 10
1048.485957588653
 20
-3615.044690635586
 10
1048.608757920652
 20
-3614.718775167586
 10
1048.695111148655
 20
-3614.367112159587
 10
1048.742890976654
 20
-3613.998360727586
 10
1048.750920900655
 20
-3613.621600751586
 10
1048.719003200652
 20
-3613.246109315586
 10
1048.647923792653
 20
-3612.881132263586
 10
1048.539432892653
 20
-3612.535656543585
 10
1048.396201900654
 20
-3612.218188911586
 10
1048.221757640654
 20
-3611.936546471586
 10
1048.020395512654
 20
-3611.697664203585
 10
1047.797073720654
 20
-3611.507424175585
 10
1047.557291184653
 20
-3611.370510731585
 10
1047.306952148655
 20
-3611.290295131586
 10
1047.052220788652
 20
-3611.268752551585
  0
LWPOLYLINE
  5
246
330
1F
100
AcDbEntity
  8
Ech.1_5
 62
   190
370
    20
100
AcDbPolyline
 90
       21
 70
     0
 43
0.0
 10
1047.052220788652
 20
-3611.268752551585
 10
1046.799369436653
 20
-3611.306413443586
 10
1046.554624136653
 20
-3611.402350467586
 10
1046.324011320655
 20
-3611.554201335585
 10
1046.113209452654
 20
-3611.758226979585
 10
1045.927409168655
 20
-3612.009403611586
 10
1045.771185484653
 20
-3612.301546423585
 10
1045.648385152653
 20
-3612.627461891587
 10
1045.562031920655
 20
-3612.979124899586
 10
1045.514252096655
 20
-3613.347876331586
 10
1045.506222172654
 20
-3613.724636303586
 10
1045.538139872654
 20
-3614.100127739586
 10
1045.609219280652
 20
-3614.465104791586
 10
1045.717710180652
 20
-3614.810580515585
 10
1045.860941172655
 20
-3615.128048147586
 10
1046.035385428653
 20
-3615.409690583586
 10
1046.236747556653
 20
-3615.648572855585
 10
1046.460069352652
 20
-3615.838812883585
 10
1046.699851888653
 20
-3615.975726327586
 10
1046.950190924654
 20
-3616.055941927586
 10
1047.204922284653
 20
-3616.077484507585
  0
LINE
  5
247
330
1F
100
AcDbEntity
  8
Ech.1_5
 62
   190
370
    20
100
AcDbLine
 10
1073.324178060574
 20
-3610.026489427586
 30
0.0
 11
1071.149617896574
 21
-3610.026489427586
 31
0.0
  0
LINE
  5
248
330
1F
100
AcDbEntity
  8
Ech.1_5
 62
   190
370
    20
100
AcDbLine
 10
1073.324178060574
 20
-3608.204504975587
 30
0.0
 11
1071.149617896574
 21
-3608.204504975587
 31
0.0
  0
LINE
  5
249
330
1F
100
AcDbEntity
  8
Ech.1_5
 62
   190
370
    20
100
AcDbLine
 10
1071.324178060574
 20
-3612.026489427586
 30
0.0
 11
1071.324178060574
 21
-3606.204504975587
 31
0.0
  0
LINE
  5
24A
330
1F
100
AcDbEntity
  8
Ech.1_5
 62
   190
370
    20
100
AcDbLine
 10
1072.324178060574
 20
-3611.026489427586
 30
0.0
 11
1070.324178060574
 21
-3609.026489427587
 31
0.0
  0
LINE
  5
24B
330
1F
100
AcDbEntity
  8
Ech.1_5
 62
   190
370
    20
100
AcDbLine
 10
1072.324178060574
 20
-3609.204504975587
 30
0.0
 11
1070.324178060574
 21
-3607.204504975587
 31
0.0
  0
LWPOLYLINE
  5
24C
330
1F
100
AcDbEntity
  8
Ech.1_5
 62
   190
370
    20
100
AcDbPolyline
 90
        9
 70
     0
 43
0.0
 10
1151.168657136657
 20
-3457.957619753457
 10
1144.574115504657
 20
-3465.148960397457
 10
1150.218091512655
 20
-3450.766680393457
 10
1143.623890248655
 20
-3457.957619753457
 10
1104.523890248654
 20
-3457.957848061457
 10
1104.523890248654
 20
-3608.204696571587
 10
1179.523890248654
 20
-3605.505588355586
 10
1179.523890248654
 20
-3457.957779773456
 10
1151.168657136657
 20
-3457.957619753457
  0
LWPOLYLINE
  5
24D
330
1F
100
AcDbEntity
  8
Ech.1_5
 62
   190
370
    20
100
AcDbPolyline
 90
        9
 70
     0
 43
0.0
 10
1150.218431880653
 20
-3771.922430052587
 10
1144.574455872654
 20
-3786.304710056586
 10
1151.168657136655
 20
-3779.113770692587
 10
1179.523890248654
 20
-3779.113118872587
 10
1179.523890248654
 20
-3613.321161071585
 10
1104.523890248654
 20
-3615.621859559586
 10
1104.523890248654
 20
-3779.112893284587
 10
1143.623890248653
 20
-3779.113770692587
 10
1150.218431880653
 20
-3771.922430052587
  0
LWPOLYLINE
  5
24E
330
1F
100
AcDbEntity
  8
Ech.1_5
 62
   190
370
    20
100
AcDbPolyline
 90
        5
 70
     0
 43
0.0
 10
932.6366187272117
 20
-3856.039670630147
 10
1326.636618727212
 20
-3856.039670630147
 10
1326.636618727212
 20
-3911.004899456169
 10
932.6366187272117
 20
-3911.004899456169
 10
932.6366187272117
 20
-3856.039670630147
  0
LWPOLYLINE
  5
24F
330
1F
100
AcDbEntity
  8
Ech.1_5
 62
   190
370
    20
100
AcDbPolyline
 90
        5
 70
     0
 43
0.0
 10
1326.636618727212
 20
-3407.211684658476
 10
932.6366187272117
 20
-3407.211684658476
 10
932.6366187272117
 20
-3369.004899456217
 10
1326.636618727212
 20
-3369.004899456217
 10
1326.636618727212
 20
-3407.211684658476
  0
LWPOLYLINE
  5
250
330
1F
100
AcDbEntity
  8
Ech.1_5
 62
   190
370
    20
100
AcDbPolyline
 90
        5
 70
     0
 43
0.0
 10
1326.636618727212
 20
-3864.839670630146
 10
932.6366187272117
 20
-3864.839670630146
 10
932.6366187272117
 20
-3856.039670630147
 10
1326.636618727212
 20
-3856.039670630147
 10
1326.636618727212
 20
-3864.839670630146
  0
LWPOLYLINE
  5
251
330
1F
100
AcDbEntity
  8
Ech.1_5
 62
   190
370
    20
100
AcDbPolyline
 90
        5
 70
     0
 43
0.0
 10
1326.636618727212
 20
-3887.588128722283
 10
932.6366187272117
 20
-3887.588128722283
 10
932.6366187272117
 20
-3878.097317397987
 10
1326.636618727212
 20
-3878.097317397987
 10
1326.636618727212
 20
-3887.588128722283
  0
LINE
  5
252
330
1F
100
AcDbEntity
  8
Ech.1_5
 62
   190
370
    20
100
AcDbLine
 10
1007.918443512395
 20
-3856.039670630147
 30
0.0
 11
1007.918443512395
 21
-3864.839670630146
 31
0.0
  0
LINE
  5
253
330
1F
100
AcDbEntity
  8
Ech.1_5
 62
   190
370
    20
100
AcDbLine
 10
1270.717684564613
 20
-3856.039670630147
 30
0.0
 11
1270.717684564613
 21
-3864.839670630146
 31
0.0
  0
LINE
  5
254
330
1F
100
AcDbEntity
  8
Ech.1_5
 62
   190
370
    20
100
AcDbLine
 10
1070.380530710536
 20
-3856.039670630147
 30
0.0
 11
1070.380530710536
 21
-3864.839670630146
 31
0.0
  0
IMAGE
  5
257
330
1F
100
AcDbEntity
  8
Ech.1_5
160
                 8
310
0800000000000000
100
AcDbRasterImage
 90
        0
 10
1009.062318223565
 20
-3908.99068046375
 30
0.0
 11
0.1133603238866397
 21
0.0
 31
0.0
 12
0.0
 22
0.1111111111111111
 32
0.0
 13
247.0
 23
171.0
340
256
 70
     3
280
     0
281
    50
282
    50
283
     0
360
258
 71
     1
 91
        2
 14
-0.5
 24
-0.5
 14
246.5
 24
170.5
290
     0
  0
IMAGE
  5
25A
330
1F
100
AcDbEntity
  8
Ech.1_5
160
                 8
310
0800000000000000
100
AcDbRasterImage
 90
        0
 10
1113.493386720356
 20
-3910.012525385263
 30
0.0
 11
0.16
 21
0.0
 31
0.0
 12
0.0
 22
0.1578947368421053
 32
0.0
 13
200.0
 23
133.0
340
259
 70
     3
280
     0
281
    50
282
    50
283
     0
360
25B
 71
     1
 91
        2
 14
-0.5
 24
-0.5
 14
199.5
 24
132.5
290
     0
  0
IMAGE
  5
25D
330
1F
100
AcDbEntity
  8
Ech.1_5
160
                 8
310
0800000000000000
100
AcDbRasterImage
 90
        0
 10
1210.843253272014
 20
-3910.494516551243
 30
0.0
 11
0.03770739064856712
 21
0.0
 31
0.0
 12
0.0
 22
0.03793103448275862
 32
0.0
 13
1326.0
 23
580.0
340
25C
 70
     3
280
     0
281
    50
282
    50
283
     0
360
25E
 71
     1
 91
        2
 14
-0.5
 24
-0.5
 14
1325.5
 24
579.5
290
     0
  0
LINE
  5
25F
330
1F
100
AcDbEntity
  8
Ech.1_5
 62
   190
370
    20
100
AcDbLine
 10
1326.636618727215
 20
-3381.004899456173
 30
0.0
 11
932.6366187272154
 21
-3381.004899456173
 31
0.0
  0
LWPOLYLINE
  5
260
330
1F
100
AcDbEntity
  8
Ech.1_5
 62
   190
370
    20
100
AcDbPolyline
 90
        5
 70
     0
 43
0.0
 10
1326.636618727212
 20
-3911.004899456169
 10
1326.636618727212
 20
-3369.004899456169
 10
932.6366187272117
 20
-3369.004899456169
 10
932.6366187272117
 20
-3911.004899456169
 10
1326.636618727212
 20
-3911.004899456169
  0
CIRCLE
  5
261
330
1F
100
AcDbEntity
  8
Ech.1_5
 62
   154
420
    21156
370
    50
100
AcDbCircle
 10
1276.63763670575
 20
-3451.508837096719
 30
0.0
 40
29.99694606438788
  0
LWPOLYLINE
  5
262
330
1F
100
AcDbEntity
  8
Ech.1_5
 62
   154
420
    21156
370
    20
100
AcDbPolyline
 90
      194
 70
     0
 43
0.0
 10
1276.305925611879
 20
-3442.779312142275
 10
1276.676626033422
 20
-3443.849390730913
 10
1277.039776069417
 20
-3444.920888518673
 10
1277.216160197351
 20
-3445.457613111947
 10
1277.387825334316
 20
-3445.995224704673
 10
1277.55382768212
 20
-3446.533900696738
 10
1277.71322344257
 20
-3447.073818488034
 10
1277.865068817471
 20
-3447.61515547845
 10
1278.00842000863
 20
-3448.158089067876
 10
1278.142333217854
 20
-3448.702796656203
 10
1278.265864646948
 20
-3449.24945564332
 10
1278.37807049772
 20
-3449.798243429118
 10
1278.478006971976
 20
-3450.349337413486
 10
1278.564730271522
 20
-3450.902914996313
 10
1278.637296598166
 20
-3451.459153577493
 10
1278.694762153712
 20
-3452.018230556913
 10
1278.717537205388
 20
-3452.298888883428
 10
1278.736183139968
 20
-3452.580323334463
 10
1278.750581982677
 20
-3452.862556085004
 10
1278.760615758741
 20
-3453.145609310036
 10
1278.766166493385
 20
-3453.429505184544
 10
1278.767116211835
 20
-3453.714265883517
 10
1278.763374364635
 20
-3453.999907683229
 10
1278.755196277708
 20
-3454.286372468154
 10
1278.727504101882
 20
-3454.861333898953
 10
1278.688008126046
 20
-3455.438271038088
 10
1278.640681393338
 20
-3456.016303758038
 10
1278.538427829867
 20
-3457.172135430298
 10
1278.491447085383
 20
-3457.748174127568
 10
1278.452527756588
 20
-3458.32178789557
 10
1278.425642886619
 20
-3458.892096606781
 10
1278.417954949676
 20
-3459.175736526242
 10
1278.414765518618
 20
-3459.458220133684
 10
1278.416571223836
 20
-3459.73943741317
 10
1278.423868695724
 20
-3460.019278348757
 10
1278.437154564673
 20
-3460.297632924506
 10
1278.456925461076
 20
-3460.574391124479
 10
1278.483678015325
 20
-3460.849442932732
 10
1278.517908857815
 20
-3461.122678333328
 10
1278.560114618935
 20
-3461.393987310325
 10
1278.61079192908
 20
-3461.663259847785
 10
1278.67043741864
 20
-3461.930385929766
 10
1278.73954771801
 20
-3462.195255540328
 10
1278.818619457582
 20
-3462.457758663532
 10
1278.908149267747
 20
-3462.717785283437
 10
1279.008633778899
 20
-3462.975225384104
 10
1279.120566844158
 20
-3463.229968672779
 10
1279.24416159764
 20
-3463.481876877176
 10
1279.379113458047
 20
-3463.730760123817
 10
1279.525062026048
 20
-3463.976422975788
 10
1279.681646902311
 20
-3464.218669996175
 10
1279.848507687505
 20
-3464.457305748062
 10
1280.025283982299
 20
-3464.692134794537
 10
1280.211615387361
 20
-3464.922961698684
 10
1280.407141503362
 20
-3465.149591023588
 10
1280.611501930969
 20
-3465.371827332336
 10
1280.824336270851
 20
-3465.589475188012
 10
1281.045284123678
 20
-3465.802339153704
 10
1281.273985090118
 20
-3466.010223792495
 10
1281.51007877084
 20
-3466.212933667472
 10
1281.753204766513
 20
-3466.410273341718
 10
1282.003002677805
 20
-3466.602047378322
 10
1282.259112105386
 20
-3466.788060340369
 10
1282.521172649925
 20
-3466.968116790943
 10
1282.78882391209
 20
-3467.14202129313
 10
1283.061705492549
 20
-3467.309578410016
 10
1283.339456991973
 20
-3467.470592704686
 10
1283.62171801103
 20
-3467.624868740226
 10
1283.908128150389
 20
-3467.772211079722
 10
1284.198327010718
 20
-3467.912424286259
 10
1284.491954192686
 20
-3468.045312922921
 10
1284.788649296963
 20
-3468.170681552797
 10
1285.088051924217
 20
-3468.288334738969
 10
1285.389801675117
 20
-3468.398077044526
 10
1285.693538150332
 20
-3468.499713032551
 10
1285.99890095053
 20
-3468.593047266129
 10
1286.305529676381
 20
-3468.677884308349
 10
1286.613063928554
 20
-3468.754028722293
 10
1286.921143307717
 20
-3468.821285071048
 10
1287.229407414539
 20
-3468.8794579177
 10
1287.537495849689
 20
-3468.928351825333
 10
1287.845048213836
 20
-3468.967771357035
 10
1288.151704107649
 20
-3468.997521075889
 10
1288.457103131796
 20
-3469.017405544982
 10
1288.760884886947
 20
-3469.0272293274
 10
1289.06268897377
 20
-3469.026796986227
 10
1289.362154992934
 20
-3469.015913084549
 10
1289.658922545108
 20
-3468.994382185453
 10
1289.952631230962
 20
-3468.962008852023
 10
1290.242920651163
 20
-3468.918597647344
 10
1290.52943040638
 20
-3468.863953134503
 10
1290.811800097283
 20
-3468.797879876585
 10
1291.089669324541
 20
-3468.720182436677
 10
1291.362677688821
 20
-3468.630665377861
 10
1291.630464790794
 20
-3468.529133263226
 10
1291.892670231127
 20
-3468.415390655856
 10
1292.148944676736
 20
-3468.289264013817
 10
1292.39910161561
 20
-3468.150901942764
 10
1292.643078477583
 20
-3468.000698271927
 10
1292.880815800982
 20
-3467.839052980806
 10
1293.112254124135
 20
-3467.6663660489
 10
1293.33733398537
 20
-3467.483037455709
 10
1293.555995923012
 20
-3467.289467180732
 10
1293.76818047539
 20
-3467.086055203469
 10
1293.97382818083
 20
-3466.873201503417
 10
1294.172879577661
 20
-3466.651306060081
 10
1294.365275204208
 20
-3466.420768852956
 10
1294.550955598799
 20
-3466.181989861543
 10
1294.729861299761
 20
-3465.93536906534
 10
1294.901932845422
 20
-3465.681306443849
 10
1295.067110774108
 20
-3465.420201976568
 10
1295.225335624148
 20
-3465.152455642997
 10
1295.376547933867
 20
-3464.878467422636
 10
1295.520688241593
 20
-3464.598637294983
 10
1295.657697085654
 20
-3464.313365239538
 10
1295.787515004376
 20
-3464.023051235802
 10
1295.910082536087
 20
-3463.728095263273
 10
1296.025340219115
 20
-3463.42889730145
 10
1296.133228591785
 20
-3463.125857329834
 10
1296.233688192425
 20
-3462.819375327924
 10
1296.326659559363
 20
-3462.50985127522
 10
1296.412083230926
 20
-3462.19768515122
 10
1296.48989974544
 20
-3461.883276935424
 10
1296.560049641233
 20
-3461.567026607333
 10
1296.622473456633
 20
-3461.249334146445
 10
1296.677111729966
 20
-3460.930599532261
 10
1296.72390499956
 20
-3460.611222744279
 10
1296.762793803742
 20
-3460.291603761998
 10
1296.793718680838
 20
-3459.972142564919
 10
1296.816620169177
 20
-3459.653239132543
 10
1296.831438807084
 20
-3459.335293444364
 10
1296.838115132889
 20
-3459.018705479887
 10
1296.836589684917
 20
-3458.703875218609
 10
1296.826803001495
 20
-3458.391202640031
 10
1296.808695620952
 20
-3458.081087723651
 10
1296.782208081614
 20
-3457.773930448969
 10
1296.747280921809
 20
-3457.470130795485
 10
1296.703854679863
 20
-3457.170088742698
 10
1296.651869894104
 20
-3456.874204270107
 10
1296.59126710286
 20
-3456.582877357213
 10
1296.521986844456
 20
-3456.296507983513
 10
1296.44396965722
 20
-3456.01549612851
 10
1296.35715607948
 20
-3455.740241771701
 10
1296.261486649562
 20
-3455.471144892586
 10
1296.156901905795
 20
-3455.208605470665
 10
1296.043342386505
 20
-3454.953023485437
 10
1295.920748630019
 20
-3454.704798916403
 10
1295.789071156823
 20
-3454.464312917582
 10
1295.648436304854
 20
-3454.231615066672
 10
1295.499120707299
 20
-3454.006471497683
 10
1295.341405835667
 20
-3453.788639219971
 10
1295.175573161469
 20
-3453.577875242891
 10
1295.001904156213
 20
-3453.373936575797
 10
1294.820680291409
 20
-3453.176580228047
 10
1294.632183038568
 20
-3452.985563208997
 10
1294.436693869198
 20
-3452.800642528001
 10
1294.23449425481
 20
-3452.621575194416
 10
1294.025865666913
 20
-3452.448118217597
 10
1293.811089577016
 20
-3452.280028606899
 10
1293.59044745663
 20
-3452.117063371679
 10
1293.364220777263
 20
-3451.958979521293
 10
1293.132691010426
 20
-3451.805534065097
 10
1292.896139627629
 20
-3451.656484012445
 10
1292.65484810038
 20
-3451.511586372694
 10
1292.40909790019
 20
-3451.370598155199
 10
1292.159170498568
 20
-3451.233276369316
 10
1291.905347367023
 20
-3451.0993780244
 10
1291.647909977067
 20
-3450.968660129809
 10
1291.387139800207
 20
-3450.840879694897
 10
1290.856726971817
 20
-3450.593159241532
 10
1290.316360653932
 20
-3450.354272739154
 10
1289.768292618628
 20
-3450.122276262606
 10
1289.214774637983
 20
-3449.895225886736
 10
1288.100395928977
 20
-3449.448187736412
 10
1287.54403874477
 20
-3449.224312111649
 10
1286.991238703531
 20
-3448.997606886947
 10
1286.444247577336
 20
-3448.76612813715
 10
1285.905110674918
 20
-3448.528109274316
 10
1285.374217159125
 20
-3448.283206221075
 10
1284.851159683738
 20
-3448.031759044241
 10
1284.335525825578
 20
-3447.774112171371
 10
1283.826903161466
 20
-3447.51061003002
 10
1283.324879268222
 20
-3447.241597047749
 10
1282.829041722668
 20
-3446.967417652114
 10
1282.338978101624
 20
-3446.688416270673
 10
1281.85427598191
 20
-3446.404937330984
 10
1281.374522940348
 20
-3446.117325260603
 10
1280.899306553757
 20
-3445.825924487088
 10
1280.42821439896
 20
-3445.531079437998
 10
1279.960834052776
 20
-3445.23313454089
 10
1279.035559093532
 20
-3444.629322912849
 10
1278.12018229059
 20
-3444.017245023425
 10
1277.211404258517
 20
-3443.39965629308
 10
1276.305925611879
 20
-3442.779312142275
  0
LWPOLYLINE
  5
263
330
1F
100
AcDbEntity
  8
Ech.1_5
 62
   154
420
    21156
370
    20
100
AcDbPolyline
 90
       95
 70
     0
 43
0.0
 10
1293.861488781155
 20
-3454.464057304527
 10
1293.842712718736
 20
-3454.998851747719
 10
1293.823737958324
 20
-3455.543042061157
 10
1293.814113973249
 20
-3455.821596878671
 10
1293.804365801929
 20
-3456.106024115089
 10
1293.794468607116
 20
-3456.397498254192
 10
1293.784397551559
 20
-3456.697193779761
 10
1293.774127798011
 20
-3457.006285175576
 10
1293.763634509223
 20
-3457.325946925419
 10
1293.752892847945
 20
-3457.65735351307
 10
1293.741877976929
 20
-3458.001679422311
 10
1293.730565058925
 20
-3458.360099136921
 10
1293.718929256685
 20
-3458.733787140683
 10
1293.712982512335
 20
-3458.926723777176
 10
1293.706945732959
 20
-3459.123917917375
 10
1293.694695613456
 20
-3459.530922506767
 10
1293.682874789953
 20
-3459.950918704034
 10
1293.672400312507
 20
-3460.37847264135
 10
1293.664189522555
 20
-3460.808148406538
 10
1293.659159761539
 20
-3461.234510087421
 10
1293.658228370895
 20
-3461.652121771823
 10
1293.659586233663
 20
-3461.855947642787
 10
1293.662312692064
 20
-3462.055547547566
 10
1293.666522413777
 20
-3462.250241997133
 10
1293.672330066483
 20
-3462.439351502471
 10
1293.679850317861
 20
-3462.622196574555
 10
1293.689197835592
 20
-3462.798097724364
 10
1293.700487287354
 20
-3462.966375462875
 10
1293.713833340829
 20
-3463.126350301066
 10
1293.729350663695
 20
-3463.277342749916
 10
1293.747153923632
 20
-3463.418673320401
 10
1293.767357788322
 20
-3463.549662523501
 10
1293.790076925442
 20
-3463.669630870191
 10
1293.815426002674
 20
-3463.777898871453
 10
1293.843519687696
 20
-3463.873787038261
 10
1293.87447264819
 20
-3463.956615881594
 10
1293.908399551834
 20
-3464.025705912431
 10
1293.945415066308
 20
-3464.08037764175
 10
1293.985633859293
 20
-3464.119951580527
 10
1294.006980318877
 20
-3464.133864538143
 10
1294.029170598468
 20
-3464.14374823974
 10
1294.052219031527
 20
-3464.149517749192
 10
1294.076139951513
 20
-3464.151088130368
 10
1294.100946999989
 20
-3464.148376672285
 10
1294.126629638068
 20
-3464.141378428081
 10
1294.153147402898
 20
-3464.130184686151
 10
1294.180457974642
 20
-3464.114892706933
 10
1294.237288259525
 20
-3464.072403078381
 10
1294.296781934027
 20
-3464.014687625922
 10
1294.358600439454
 20
-3463.942524433054
 10
1294.422405217116
 20
-3463.856691583274
 10
1294.48785770832
 20
-3463.757967160078
 10
1294.554619354374
 20
-3463.647129246967
 10
1294.622351596586
 20
-3463.524955927434
 10
1294.690715876264
 20
-3463.392225284981
 10
1294.759373634716
 20
-3463.249715403103
 10
1294.82798631325
 20
-3463.098204365298
 10
1294.896215353174
 20
-3462.938470255062
 10
1294.963722195797
 20
-3462.771291155895
 10
1295.030168282426
 20
-3462.597445151293
 10
1295.095215054368
 20
-3462.417710324753
 10
1295.158523952933
 20
-3462.232864759775
 10
1295.219756419428
 20
-3462.043686539853
 10
1295.334637821441
 20
-3461.655444469174
 10
1295.43715079087
 20
-3461.259208780694
 10
1295.482922716637
 20
-3461.060038538523
 10
1295.524586858181
 20
-3460.861204142395
 10
1295.561804656812
 20
-3460.663483675807
 10
1295.594237553837
 20
-3460.467655222257
 10
1295.621547616555
 20
-3460.274495731918
 10
1295.643531225903
 20
-3460.084538987388
 10
1295.660285225659
 20
-3459.897774799519
 10
1295.671947237131
 20
-3459.714119153662
 10
1295.678654881622
 20
-3459.53348803517
 10
1295.680545780439
 20
-3459.355797429394
 10
1295.677757554885
 20
-3459.180963321682
 10
1295.670427826265
 20
-3459.008901697387
 10
1295.658694215886
 20
-3458.839528541862
 10
1295.642694345051
 20
-3458.672759840455
 10
1295.622565835066
 20
-3458.508511578517
 10
1295.598446307235
 20
-3458.3466997414
 10
1295.570473382865
 20
-3458.187240314456
 10
1295.538784683259
 20
-3458.030049283036
 10
1295.503517829723
 20
-3457.875042632488
 10
1295.464810443562
 20
-3457.722136348165
 10
1295.377624558584
 20
-3457.4222888196
 10
1295.278327998765
 20
-3457.129834580145
 10
1295.168021734546
 20
-3456.844101512612
 10
1295.047806736367
 20
-3456.564417499807
 10
1294.918783974666
 20
-3456.290110424537
 10
1294.782054419886
 20
-3456.020508169611
 10
1294.638719042464
 20
-3455.754938617837
 10
1294.489878812843
 20
-3455.492729652023
 10
1294.180087678759
 20
-3454.975705009507
 10
1293.861488781155
 20
-3454.464057304527
  0
LWPOLYLINE
  5
264
330
1F
100
AcDbEntity
  8
Ech.1_5
 62
   154
420
    21156
370
    20
100
AcDbPolyline
 90
      171
 70
     0
 43
0.0
 10
1263.922563005718
 20
-3448.805688644121
 10
1264.255935874055
 20
-3449.964574746874
 10
1264.415761553239
 20
-3450.54528836804
 10
1264.567354326439
 20
-3451.127526672952
 10
1264.707969891662
 20
-3451.711797889527
 10
1264.834863946913
 20
-3452.29861024568
 10
1264.892307813927
 20
-3452.593128172323
 10
1264.945292190199
 20
-3452.888471969328
 10
1264.993474037982
 20
-3453.184705165185
 10
1265.036510319524
 20
-3453.481891288383
 10
1265.074057997079
 20
-3453.780093867414
 10
1265.105774032895
 20
-3454.079376430764
 10
1265.131315389225
 20
-3454.379802506925
 10
1265.150339028318
 20
-3454.681435624386
 10
1265.162501912425
 20
-3454.984339311636
 10
1265.167461003797
 20
-3455.288577097164
 10
1265.164873264685
 20
-3455.59421250946
 10
1265.154395657339
 20
-3455.901309077014
 10
1265.135988400158
 20
-3456.20986444119
 10
1265.111298045717
 20
-3456.519509860977
 10
1265.051985849678
 20
-3457.140089328128
 10
1264.99429746015
 20
-3457.759083795602
 10
1264.971636863848
 20
-3458.06674796579
 10
1264.956071824398
 20
-3458.372529459655
 10
1264.949832210209
 20
-3458.675932801732
 10
1264.955147889689
 20
-3458.976462516549
 10
1264.974248731246
 20
-3459.273623128641
 10
1264.989665421681
 20
-3459.420785185082
 10
1265.009364603288
 20
-3459.566919162541
 10
1265.033625009619
 20
-3459.711963126585
 10
1265.062725374224
 20
-3459.855855142781
 10
1265.096944430654
 20
-3459.998533276694
 10
1265.136560912461
 20
-3460.139935593893
 10
1265.181853553196
 20
-3460.280000159943
 10
1265.233101086408
 20
-3460.418665040408
 10
1265.290582245651
 20
-3460.55586830086
 10
1265.354556311585
 20
-3460.691545631189
 10
1265.425011043188
 20
-3460.825599561843
 10
1265.501734750309
 20
-3460.957908265653
 10
1265.584511135796
 20
-3461.088349352821
 10
1265.673123902497
 20
-3461.216800433547
 10
1265.767356753262
 20
-3461.343139118035
 10
1265.866993390936
 20
-3461.467243016484
 10
1265.971817518369
 20
-3461.588989739098
 10
1266.081612838409
 20
-3461.708256896077
 10
1266.196163053904
 20
-3461.824922097624
 10
1266.315251867702
 20
-3461.938862953941
 10
1266.438662982651
 20
-3462.049957075229
 10
1266.566180101599
 20
-3462.158082071688
 10
1266.697586927394
 20
-3462.263115553523
 10
1266.832667162884
 20
-3462.364935130932
 10
1266.971204510919
 20
-3462.46341841412
 10
1267.112982674344
 20
-3462.558443013288
 10
1267.257785356009
 20
-3462.649886538636
 10
1267.405396258762
 20
-3462.737626600367
 10
1267.55559908545
 20
-3462.821540808683
 10
1267.708177538923
 20
-3462.901506773784
 10
1267.862915322027
 20
-3462.977402105874
 10
1268.019596137612
 20
-3463.049104415154
 10
1268.178003688524
 20
-3463.116491311823
 10
1268.337921677613
 20
-3463.179440406087
 10
1268.499133807726
 20
-3463.237829308145
 10
1268.661423781712
 20
-3463.2915356282
 10
1268.824575302418
 20
-3463.340436976452
 10
1268.988372072693
 20
-3463.384410963104
 10
1269.152597795384
 20
-3463.423335198357
 10
1269.317036173341
 20
-3463.457087292415
 10
1269.48147090941
 20
-3463.485544855476
 10
1269.64568570644
 20
-3463.508585497744
 10
1269.80946426728
 20
-3463.52608682942
 10
1269.972590294776
 20
-3463.537926460707
 10
1270.134847491778
 20
-3463.543982001804
 10
1270.296019561133
 20
-3463.544131062915
 10
1270.45589020569
 20
-3463.538251254241
 10
1270.614243128296
 20
-3463.526220185984
 10
1270.7708620318
 20
-3463.507915468345
 10
1270.92553061905
 20
-3463.483214711527
 10
1271.078032592893
 20
-3463.451995525729
 10
1271.228151656179
 20
-3463.414135521156
 10
1271.375671511754
 20
-3463.369512308008
 10
1271.520375862468
 20
-3463.318003496486
 10
1271.662048411167
 20
-3463.259486696793
 10
1271.800473284213
 20
-3463.193840424212
 10
1271.935489031363
 20
-3463.121059501429
 10
1272.067041654868
 20
-3463.041368386201
 10
1272.195089750973
 20
-3462.955018450721
 10
1272.319591915926
 20
-3462.86226106718
 10
1272.440506745975
 20
-3462.763347607772
 10
1272.557792837366
 20
-3462.658529444689
 10
1272.671408786345
 20
-3462.548057950121
 10
1272.78131318916
 20
-3462.432184496263
 10
1272.887464642058
 20
-3462.311160455306
 10
1272.989821741285
 20
-3462.185237199442
 10
1273.088343083089
 20
-3462.054666100865
 10
1273.182987263717
 20
-3461.919698531766
 10
1273.273712879415
 20
-3461.780585864337
 10
1273.36047852643
 20
-3461.637579470771
 10
1273.443242801009
 20
-3461.49093072326
 10
1273.521964299399
 20
-3461.340890993996
 10
1273.596601617847
 20
-3461.187711655172
 10
1273.667113352601
 20
-3461.03164407898
 10
1273.733458099906
 20
-3460.872939637612
 10
1273.79559445601
 20
-3460.71184970326
 10
1273.853481017159
 20
-3460.548625648118
 10
1273.907076379601
 20
-3460.383518844376
 10
1273.956339139582
 20
-3460.216780664228
 10
1274.00122789335
 20
-3460.048662479865
 10
1274.041701237151
 20
-3459.879415663481
 10
1274.077717767232
 20
-3459.709291587266
 10
1274.10923607984
 20
-3459.538541623415
 10
1274.136214771223
 20
-3459.367417144117
 10
1274.158612437626
 20
-3459.196169521568
 10
1274.176387675297
 20
-3459.025050127957
 10
1274.189499080483
 20
-3458.854310335479
 10
1274.19790524943
 20
-3458.684201516324
 10
1274.201564778386
 20
-3458.514975042686
 10
1274.200436263597
 20
-3458.346882286755
 10
1274.194478301311
 20
-3458.180174620727
 10
1274.183649487775
 20
-3458.015103416792
 10
1274.167908419234
 20
-3457.851920047141
 10
1274.147213691937
 20
-3457.69087588397
 10
1274.121523902129
 20
-3457.532222299466
 10
1274.090797646058
 20
-3457.376210665827
 10
1274.054993519972
 20
-3457.223092355242
 10
1274.014070120116
 20
-3457.073118739901
 10
1273.967986042738
 20
-3456.926541192004
 10
1273.916699884084
 20
-3456.783611083735
 10
1273.860170240402
 20
-3456.644579787291
 10
1273.798355707938
 20
-3456.509698674863
 10
1273.73121488294
 20
-3456.379219118645
 10
1273.658714074946
 20
-3456.253378375728
 10
1273.580943604913
 20
-3456.132186765974
 10
1273.498093855732
 20
-3456.015471498848
 10
1273.410358064446
 20
-3455.903054560808
 10
1273.317929468096
 20
-3455.794757938308
 10
1273.221001303724
 20
-3455.690403617808
 10
1273.119766808372
 20
-3455.589813585762
 10
1273.01441921908
 20
-3455.49280982863
 10
1272.905151772892
 20
-3455.399214332865
 10
1272.792157706848
 20
-3455.308849084927
 10
1272.67563025799
 20
-3455.221536071271
 10
1272.55576266336
 20
-3455.137097278354
 10
1272.432748160001
 20
-3455.055354692634
 10
1272.178051375256
 20
-3454.899246088607
 10
1271.91308580009
 20
-3454.751786150846
 10
1271.639397330837
 20
-3454.611550771006
 10
1271.358531863829
 20
-3454.477115840739
 10
1271.072035295401
 20
-3454.3470572517
 10
1270.488332439617
 20
-3454.094372663926
 10
1269.900655934151
 20
-3453.842104140914
 10
1269.609192303623
 20
-3453.71256563283
 10
1269.321372949674
 20
-3453.5788588159
 10
1269.03874376864
 20
-3453.43955958178
 10
1268.762779438445
 20
-3453.293310795769
 10
1268.493935363982
 20
-3453.139713845539
 10
1268.231905369047
 20
-3452.979086308121
 10
1267.97636497366
 20
-3452.811762973381
 10
1267.726989697846
 20
-3452.638078631187
 10
1267.483455061627
 20
-3452.458368071402
 10
1267.245436585026
 20
-3452.272966083895
 10
1267.012609788064
 20
-3452.08220745853
 10
1266.784650190764
 20
-3451.886426985173
 10
1266.561233313149
 20
-3451.685959453693
 10
1266.342034675241
 20
-3451.481139653952
 10
1266.126729797064
 20
-3451.272302375819
 10
1265.914994198638
 20
-3451.059782409159
 10
1265.706503399988
 20
-3450.843914543839
 10
1265.500932921135
 20
-3450.625033569724
 10
1265.097255002911
 20
-3450.179571454572
 10
1264.701364604147
 20
-3449.726074382637
 10
1263.922563005718
 20
-3448.805688644121
  0
LWPOLYLINE
  5
265
330
1F
100
AcDbEntity
  8
Ech.1_5
 62
   154
420
    21156
370
    20
100
AcDbPolyline
 90
       70
 70
     0
 43
0.0
 10
1272.700344026735
 20
-3456.259069768859
 10
1272.657176632678
 20
-3456.530377197585
 10
1272.6140219222
 20
-3456.806216856003
 10
1272.570892578882
 20
-3457.091120973807
 10
1272.527801286304
 20
-3457.389621780689
 10
1272.506273872661
 20
-3457.545387264314
 10
1272.484760728045
 20
-3457.706251506344
 10
1272.463263437904
 20
-3457.872781035489
 10
1272.441783587685
 20
-3458.045542380463
 10
1272.420322762836
 20
-3458.225102069975
 10
1272.398882548804
 20
-3458.412026632738
 10
1272.377464531037
 20
-3458.606882597465
 10
1272.356119878196
 20
-3458.809996596623
 10
1272.335319606502
 20
-3459.019663933044
 10
1272.31574604383
 20
-3459.233157529862
 10
1272.283014782176
 20
-3459.660684110775
 10
1272.271224951508
 20
-3459.86924739792
 10
1272.263397566488
 20
-3460.070697551557
 10
1272.260216561273
 20
-3460.26229972321
 10
1272.26236587002
 20
-3460.441319064403
 10
1272.265653121552
 20
-3460.525255533427
 10
1272.270529426885
 20
-3460.60502072666
 10
1272.277080277786
 20
-3460.680272788038
 10
1272.285391166026
 20
-3460.750669861506
 10
1272.295547583373
 20
-3460.815870091
 10
1272.307635021598
 20
-3460.875531620464
 10
1272.32173897247
 20
-3460.929312593837
 10
1272.33794492776
 20
-3460.97687115506
 10
1272.356338379235
 20
-3461.017865448073
 10
1272.377004818666
 20
-3461.051953616817
 10
1272.400029737823
 20
-3461.078793805233
 10
1272.425498628475
 20
-3461.098044157261
 10
1272.453496982392
 20
-3461.109362816842
 10
1272.484102847164
 20
-3461.112425132894
 10
1272.517244801894
 20
-3461.107251905768
 10
1272.552713125266
 20
-3461.094183575597
 10
1272.590292889626
 20
-3461.07357261541
 10
1272.62976916732
 20
-3461.04577149823
 10
1272.670927030692
 20
-3461.011132697086
 10
1272.713551552089
 20
-3460.970008685002
 10
1272.757427803854
 20
-3460.922751935005
 10
1272.802340858333
 20
-3460.869714920118
 10
1272.848075787872
 20
-3460.81125011337
 10
1272.894417664816
 20
-3460.747709987786
 10
1272.94115156151
 20
-3460.679447016392
 10
1272.988062550299
 20
-3460.606813672214
 10
1273.081556093542
 20
-3460.449845757607
 10
1273.173178873309
 20
-3460.279626028175
 10
1273.261211468361
 20
-3460.098974268124
 10
1273.343934457459
 20
-3459.91071026166
 10
1273.419628419365
 20
-3459.717653792991
 10
1273.486573932842
 20
-3459.522624646327
 10
1273.54305157665
 20
-3459.32844260587
 10
1273.587347589497
 20
-3459.137920156945
 10
1273.618496976531
 20
-3458.952904199271
 10
1273.637024668689
 20
-3458.773320271252
 10
1273.64363187124
 20
-3458.598866593461
 10
1273.639019789456
 20
-3458.429241386472
 10
1273.623889628608
 20
-3458.264142870861
 10
1273.598942593967
 20
-3458.103269267202
 10
1273.564879890804
 20
-3457.94631879607
 10
1273.52240272439
 20
-3457.792989678042
 10
1273.472212299995
 20
-3457.642980133689
 10
1273.415009822891
 20
-3457.495988383588
 10
1273.351496498348
 20
-3457.351712648314
 10
1273.282373531638
 20
-3457.209851148442
 10
1273.208342128031
 20
-3457.070102104546
 10
1273.048358831212
 20
-3456.795734266982
 10
1272.877156250058
 20
-3456.526194900221
 10
1272.700344026735
 20
-3456.259069768859
  0
LWPOLYLINE
  5
266
330
1F
100
AcDbEntity
  8
Ech.1_5
 62
   154
420
    21156
370
    20
100
AcDbPolyline
 90
      170
 70
     0
 43
0.0
 10
1282.673942783487
 20
-3433.735002483425
 10
1282.955571140577
 20
-3434.262743217121
 10
1283.232378974144
 20
-3434.79150102767
 10
1283.499545760666
 20
-3435.322292991924
 10
1283.628007347685
 20
-3435.588769618209
 10
1283.752250976622
 20
-3435.856136186738
 10
1283.871674082036
 20
-3436.124519832121
 10
1283.985674098488
 20
-3436.394047688964
 10
1284.093648460537
 20
-3436.664846891873
 10
1284.194994602743
 20
-3436.937044575454
 10
1284.289109959665
 20
-3437.210767874315
 10
1284.375391965863
 20
-3437.486143923063
 10
1284.453238055897
 20
-3437.763299856303
 10
1284.522045664327
 20
-3438.042362808642
 10
1284.581212225712
 20
-3438.323459914687
 10
1284.630135174612
 20
-3438.606718309045
 10
1284.668211945587
 20
-3438.892265126321
 10
1284.694839973196
 20
-3439.180227501125
 10
1284.709416693975
 20
-3439.470732567615
 10
1284.711861474182
 20
-3439.763790034292
 10
1284.704084589648
 20
-3440.058961687513
 10
1284.688470953564
 20
-3440.35570252798
 10
1284.643273079513
 20
-3440.951711773465
 10
1284.595347157554
 20
-3441.547457776368
 10
1284.576323461587
 20
-3441.84386956361
 10
1284.563772493217
 20
-3442.138580542316
 10
1284.560079165633
 20
-3442.431045713188
 10
1284.567628392026
 20
-3442.720720076931
 10
1284.588805085589
 20
-3443.007058634244
 10
1284.60524901793
 20
-3443.148806673211
 10
1284.625994159511
 20
-3443.289516385835
 10
1284.651338624479
 20
-3443.429119647202
 10
1284.681580526983
 20
-3443.567548332403
 10
1284.717017981173
 20
-3443.704734316522
 10
1284.757949101197
 20
-3443.840609474652
 10
1284.804672001204
 20
-3443.975105681875
 10
1284.857484795343
 20
-3444.108154813284
 10
1284.916648103621
 20
-3444.239685862131
 10
1284.982112612963
 20
-3444.369603999928
 10
1285.053676124078
 20
-3444.497802647218
 10
1285.131135360924
 20
-3444.624175141777
 10
1285.214287047454
 20
-3444.748614821388
 10
1285.302927907626
 20
-3444.87101502383
 10
1285.396854665396
 20
-3444.99126908688
 10
1285.495864044718
 20
-3445.109270348319
 10
1285.599752769551
 20
-3445.224912145928
 10
1285.708317563849
 20
-3445.338087817484
 10
1285.821355151567
 20
-3445.448690700768
 10
1285.938662256664
 20
-3445.55661413356
 10
1286.060035603093
 20
-3445.661751453637
 10
1286.185271914811
 20
-3445.763995998782
 10
1286.314167915775
 20
-3445.863241106772
 10
1286.44652032994
 20
-3445.959380115386
 10
1286.582125881262
 20
-3446.052306362406
 10
1286.720781293697
 20
-3446.141913185611
 10
1286.862283291201
 20
-3446.228093922778
 10
1287.00642859773
 20
-3446.31074191169
 10
1287.153013937239
 20
-3446.389750490124
 10
1287.301836033686
 20
-3446.465012995861
 10
1287.452691611026
 20
-3446.53642276668
 10
1287.605377393214
 20
-3446.603873140359
 10
1287.759690104208
 20
-3446.66725745468
 10
1287.915426467962
 20
-3446.726469047422
 10
1288.072383208433
 20
-3446.781401256363
 10
1288.230357049577
 20
-3446.831947419284
 10
1288.389144715349
 20
-3446.878000873963
 10
1288.548542929705
 20
-3446.919454958181
 10
1288.708348416603
 20
-3446.956203009718
 10
1288.868357899997
 20
-3446.988138366352
 10
1289.028368103843
 20
-3447.015154365863
 10
1289.188175752098
 20
-3447.03714434603
 10
1289.347577568718
 20
-3447.054001644634
 10
1289.506370277658
 20
-3447.065619599453
 10
1289.664350602874
 20
-3447.071891548268
 10
1289.821315268323
 20
-3447.072710828857
 10
1289.97706099796
 20
-3447.067970779001
 10
1290.131384515742
 20
-3447.057564736479
 10
1290.284082545623
 20
-3447.041386039068
 10
1290.434951811561
 20
-3447.019328024552
 10
1290.583789037511
 20
-3446.991284030707
 10
1290.730390947429
 20
-3446.957147395315
 10
1290.874554265271
 20
-3446.916811456153
 10
1291.016075714994
 20
-3446.870169551002
 10
1291.154752020552
 20
-3446.817115017642
 10
1291.290379905903
 20
-3446.757541193852
 10
1291.422768308822
 20
-3446.691364539275
 10
1291.551831787609
 20
-3446.618701462737
 10
1291.677538994928
 20
-3446.53977077857
 10
1291.799859021945
 20
-3446.454792131238
 10
1291.91876095983
 20
-3446.363985165209
 10
1292.034213899752
 20
-3446.267569524944
 10
1292.146186932879
 20
-3446.165764854913
 10
1292.25464915038
 20
-3446.058790799578
 10
1292.359569643425
 20
-3445.946867003407
 10
1292.460917503181
 20
-3445.830213110865
 10
1292.558661820818
 20
-3445.709048766418
 10
1292.652771687505
 20
-3445.58359361453
 10
1292.74321619441
 20
-3445.454067299668
 10
1292.829964432703
 20
-3445.320689466298
 10
1292.912985493551
 20
-3445.183679758883
 10
1292.992248468125
 20
-3445.043257821891
 10
1293.067722447592
 20
-3444.899643299786
 10
1293.139376523122
 20
-3444.753055837034
 10
1293.207179785884
 20
-3444.603715078103
 10
1293.271101327046
 20
-3444.451840667455
 10
1293.331110237777
 20
-3444.297652249556
 10
1293.387175609246
 20
-3444.141369468875
 10
1293.439266532622
 20
-3443.983211969874
 10
1293.487352099074
 20
-3443.823399397019
 10
1293.53140139977
 20
-3443.662151394777
 10
1293.57138352588
 20
-3443.499687607612
 10
1293.607267568571
 20
-3443.336227679991
 10
1293.639022619014
 20
-3443.171991256379
 10
1293.666617768377
 20
-3443.007197981241
 10
1293.690022107828
 20
-3442.842067499044
 10
1293.709204728537
 20
-3442.676819454252
 10
1293.724134721673
 20
-3442.511673491332
 10
1293.734781178403
 20
-3442.346849254747
 10
1293.741113189898
 20
-3442.182566388965
 10
1293.743099847326
 20
-3442.019044538452
 10
1293.740710241855
 20
-3441.856503347671
 10
1293.733913464655
 20
-3441.695162461089
 10
1293.722678606895
 20
-3441.535241523173
 10
1293.706974759742
 20
-3441.376960178386
 10
1293.686771014367
 20
-3441.220538071194
 10
1293.662036461938
 20
-3441.066194846064
 10
1293.632740193623
 20
-3440.914150147461
 10
1293.598851300593
 20
-3440.76462361985
 10
1293.560338874014
 20
-3440.617834907697
 10
1293.517172005058
 20
-3440.474003655467
 10
1293.469319784891
 20
-3440.333349507627
 10
1293.416751304683
 20
-3440.19609210864
 10
1293.359435655603
 20
-3440.062451102974
 10
1293.29734192882
 20
-3439.932646135094
 10
1293.230441211816
 20
-3439.806893022027
 10
1293.158780122872
 20
-3439.685262769176
 10
1293.082502213122
 20
-3439.56764053717
 10
1293.001757394112
 20
-3439.453899292123
 10
1292.916695577386
 20
-3439.343912000151
 10
1292.82746667449
 20
-3439.237551627368
 10
1292.734220596969
 20
-3439.134691139888
 10
1292.637107256367
 20
-3439.035203503827
 10
1292.536276564231
 20
-3438.938961685298
 10
1292.431878432106
 20
-3438.845838650415
 10
1292.324062771535
 20
-3438.755707365295
 10
1292.212979494065
 20
-3438.668440796049
 10
1292.098778511241
 20
-3438.583911908795
 10
1291.861623075711
 20
-3438.422559044715
 10
1291.613795757306
 20
-3438.270632501972
 10
1291.356495848387
 20
-3438.12711600948
 10
1291.090922641316
 20
-3437.990993296156
 10
1290.818275428453
 20
-3437.861248090916
 10
1290.539753502161
 20
-3437.736864122676
 10
1290.256556154801
 20
-3437.616825120353
 10
1289.969882678732
 20
-3437.500114812861
 10
1288.812413334613
 20
-3437.046235109536
 10
1288.526348600427
 20
-3436.930924209945
 10
1288.243857306743
 20
-3436.812966465865
 10
1287.965104005813
 20
-3436.692209775165
 10
1287.689919360891
 20
-3436.568780884969
 10
1287.418133435976
 20
-3436.442807042874
 10
1287.149576295067
 20
-3436.314415496474
 10
1286.62146862127
 20
-3436.050888281138
 10
1286.104236851497
 20
-3435.779217219723
 10
1285.596521497743
 20
-3435.500420292989
 10
1285.096963072007
 20
-3435.215515481695
 10
1284.604202086286
 20
-3434.9255207666
 10
1284.116879052576
 20
-3434.631454128466
 10
1283.633634482875
 20
-3434.334333548052
 10
1282.673942783487
 20
-3433.735002483425
  0
LWPOLYLINE
  5
267
330
1F
100
AcDbEntity
  8
Ech.1_5
 62
   154
420
    21156
370
    20
100
AcDbPolyline
 90
      167
 70
     0
 43
0.0
 10
1263.109837777212
 20
-3437.143587289351
 10
1263.43020184329
 20
-3437.636324405109
 10
1263.744281085847
 20
-3438.130538252296
 10
1263.896999890956
 20
-3438.378660428746
 10
1264.045790681365
 20
-3438.627705562341
 10
1264.189867854133
 20
-3438.877858244506
 10
1264.328445806321
 20
-3439.129303066672
 10
1264.46073893499
 20
-3439.382224620267
 10
1264.585961637197
 20
-3439.636807496719
 10
1264.703328310005
 20
-3439.893236287457
 10
1264.812053350473
 20
-3440.15169558391
 10
1264.91135115566
 20
-3440.412369977506
 10
1265.000436122627
 20
-3440.675444059675
 10
1265.078522648433
 20
-3440.941102421844
 10
1265.144825130139
 20
-3441.209529655443
 10
1265.198557964805
 20
-3441.480910351898
 10
1265.238935549491
 20
-3441.75542910264
 10
1265.265178059981
 20
-3442.033269124007
 10
1265.277448685695
 20
-3442.314389235325
 10
1265.277890533451
 20
-3442.59827712004
 10
1265.268896375196
 20
-3442.884361051956
 10
1265.252858982875
 20
-3443.172069304873
 10
1265.232171128436
 20
-3443.460830152593
 10
1265.186415120991
 20
-3444.039222727639
 10
1265.166132511876
 20
-3444.327711002567
 10
1265.15077052843
 20
-3444.6149649675
 10
1265.142721942598
 20
-3444.900412896239
 10
1265.144379526327
 20
-3445.183483062585
 10
1265.158136051564
 20
-3445.463603740337
 10
1265.170299158481
 20
-3445.602379356555
 10
1265.186384290256
 20
-3445.740203203298
 10
1265.20669054338
 20
-3445.877003814794
 10
1265.231517014347
 20
-3446.012709725266
 10
1265.261162799652
 20
-3446.147249468943
 10
1265.295926995787
 20
-3446.280551580046
 10
1265.336108699245
 20
-3446.412544592801
 10
1265.38200700652
 20
-3446.543157041433
 10
1265.433920176084
 20
-3446.672317419403
 10
1265.492002584304
 20
-3446.799947220837
 10
1265.556102775025
 20
-3446.925953062249
 10
1265.626030166822
 20
-3447.050239656851
 10
1265.701594178272
 20
-3447.172711717859
 10
1265.78260422795
 20
-3447.293273958486
 10
1265.868869734431
 20
-3447.411831091944
 10
1265.96020011629
 20
-3447.52828783145
 10
1266.056404792105
 20
-3447.642548890216
 10
1266.15729318045
 20
-3447.754518981455
 10
1266.2626746999
 20
-3447.864102818382
 10
1266.372358769032
 20
-3447.97120511421
 10
1266.486154806421
 20
-3448.075730582153
 10
1266.603872230643
 20
-3448.177583935425
 10
1266.725320460273
 20
-3448.27666988724
 10
1266.850308913887
 20
-3448.372893150811
 10
1266.97864701006
 20
-3448.466158439352
 10
1267.110144167369
 20
-3448.556370466077
 10
1267.244609804388
 20
-3448.6434339442
 10
1267.381853339694
 20
-3448.727253586934
 10
1267.521684191862
 20
-3448.807734107494
 10
1267.663911779467
 20
-3448.884780219092
 10
1267.808345521085
 20
-3448.958296634943
 10
1267.954794835292
 20
-3449.02818806826
 10
1268.103069140664
 20
-3449.094359232257
 10
1268.252977855775
 20
-3449.156714840149
 10
1268.404330399203
 20
-3449.215159605148
 10
1268.556936189521
 20
-3449.269598240468
 10
1268.710604645307
 20
-3449.319935459324
 10
1268.865145185134
 20
-3449.366075974929
 10
1269.02036722758
 20
-3449.407924500496
 10
1269.17608019122
 20
-3449.445385749241
 10
1269.332093494628
 20
-3449.478364434375
 10
1269.488216556382
 20
-3449.506765269113
 10
1269.644258795056
 20
-3449.53049296667
 10
1269.800029629227
 20
-3449.549452240257
 10
1269.955338477469
 20
-3449.56354780309
 10
1270.109994758358
 20
-3449.572684368382
 10
1270.263807890471
 20
-3449.576766649348
 10
1270.416587292382
 20
-3449.575699359198
 10
1270.568142382667
 20
-3449.56938721115
 10
1270.718282579902
 20
-3449.557734918415
 10
1270.866817302662
 20
-3449.540647194209
 10
1271.013555969524
 20
-3449.518028751744
 10
1271.158307999062
 20
-3449.489784304235
 10
1271.300882809852
 20
-3449.455818564894
 10
1271.441089820471
 20
-3449.416036246937
 10
1271.578738449492
 20
-3449.370342063576
 10
1271.713638115493
 20
-3449.318640728026
 10
1271.845598237048
 20
-3449.260836953499
 10
1271.974441032116
 20
-3449.196858139133
 10
1272.100091280209
 20
-3449.126813466555
 10
1272.222523042627
 20
-3449.050899465572
 10
1272.341710693657
 20
-3448.969313220748
 10
1272.457628607588
 20
-3448.882251816643
 10
1272.570251158708
 20
-3448.789912337817
 10
1272.679552721308
 20
-3448.692491868833
 10
1272.785507669674
 20
-3448.59018749425
 10
1272.888090378096
 20
-3448.483196298631
 10
1272.987275220862
 20
-3448.371715366536
 10
1273.083036572261
 20
-3448.255941782525
 10
1273.175348806582
 20
-3448.136072631161
 10
1273.264186298112
 20
-3448.012304997004
 10
1273.349523421142
 20
-3447.884835964615
 10
1273.431334549959
 20
-3447.753862618556
 10
1273.509594058851
 20
-3447.619582043385
 10
1273.584276322108
 20
-3447.482191323667
 10
1273.655355714018
 20
-3447.341887543961
 10
1273.722806608869
 20
-3447.198867788828
 10
1273.786603380951
 20
-3447.05332914283
 10
1273.846720404552
 20
-3446.905468690527
 10
1273.90313205396
 20
-3446.75548351648
 10
1273.955812703465
 20
-3446.603570705251
 10
1274.004736727354
 20
-3446.4499273414
 10
1274.049878499916
 20
-3446.294750509488
 10
1274.091212395441
 20
-3446.138237294077
 10
1274.162354052529
 20
-3445.821990051001
 10
1274.217956692929
 20
-3445.502762288658
 10
1274.257815310948
 20
-3445.182130683539
 10
1274.271776547286
 20
-3445.02178115134
 10
1274.281724900896
 20
-3444.86167191213
 10
1274.287634746065
 20
-3444.70200005047
 10
1274.289480457081
 20
-3444.542962650919
 10
1274.287236408234
 20
-3444.384756798041
 10
1274.280876973812
 20
-3444.227579576396
 10
1274.270376528104
 20
-3444.071628070545
 10
1274.255709445399
 20
-3443.917099365049
 10
1274.236850099984
 20
-3443.764190544468
 10
1274.213772866149
 20
-3443.613098693364
 10
1274.186452118182
 20
-3443.464020896299
 10
1274.154862230371
 20
-3443.317154237832
 10
1274.118977577006
 20
-3443.172695802526
 10
1274.078772532376
 20
-3443.03084267494
 10
1274.034221470768
 20
-3442.891791939636
 10
1273.985298766471
 20
-3442.755740681177
 10
1273.931978793773
 20
-3442.622885984119
 10
1273.874235926965
 20
-3442.493424933028
 10
1273.812044540332
 20
-3442.367554612463
 10
1273.745401674952
 20
-3442.245428851085
 10
1273.674406812856
 20
-3442.127005985543
 10
1273.599188362233
 20
-3442.012189151586
 10
1273.519874732997
 20
-3441.900881481672
 10
1273.436594335062
 20
-3441.79298610826
 10
1273.349475578341
 20
-3441.68840616381
 10
1273.258646872748
 20
-3441.587044780779
 10
1273.164236628198
 20
-3441.488805091627
 10
1273.066373254604
 20
-3441.393590228809
 10
1272.96518516188
 20
-3441.301303324788
 10
1272.860800759941
 20
-3441.211847512019
 10
1272.642956668069
 20
-3441.041041690075
 10
1272.413868258302
 20
-3440.880397822648
 10
1272.174562809948
 20
-3440.729140969403
 10
1271.926067602321
 20
-3440.586496190008
 10
1271.669409914732
 20
-3440.451688544134
 10
1271.405617026491
 20
-3440.323943091446
 10
1271.135716216909
 20
-3440.202484891613
 10
1270.8607347653
 20
-3440.086539004302
 10
1270.581699950972
 20
-3439.975330489182
 10
1270.01557935141
 20
-3439.764025814186
 10
1269.445572652714
 20
-3439.562371343967
 10
1268.879863998567
 20
-3439.364191047877
 10
1268.323569739125
 20
-3439.16542291448
 10
1267.776345885723
 20
-3438.965767656637
 10
1267.237285397755
 20
-3438.765313986794
 10
1266.705481234619
 20
-3438.564150617394
 10
1266.18002635571
 20
-3438.362366260882
 10
1265.660013720425
 20
-3438.160049629702
 10
1265.144536288159
 20
-3437.957289436299
 10
1264.12355887027
 20
-3437.550793212603
 10
1263.109837777212
 20
-3437.143587289351
  0
LWPOLYLINE
  5
268
330
1F
100
AcDbEntity
  8
Ech.1_5
 62
   154
420
    21156
370
    20
100
AcDbPolyline
 90
       70
 70
     0
 43
0.0
 10
1272.808196839766
 20
-3442.295530026217
 10
1272.765029445708
 20
-3442.566837454942
 10
1272.721874735231
 20
-3442.84267711336
 10
1272.678745391912
 20
-3443.127581231163
 10
1272.635654099333
 20
-3443.426082038045
 10
1272.61412668569
 20
-3443.58184752167
 10
1272.592613541074
 20
-3443.742711763699
 10
1272.571116250933
 20
-3443.909241292845
 10
1272.549636400714
 20
-3444.082002637818
 10
1272.528175575864
 20
-3444.26156232733
 10
1272.506735361833
 20
-3444.448486890095
 10
1272.485317344066
 20
-3444.64334285482
 10
1272.463972691224
 20
-3444.846456853977
 10
1272.443172419531
 20
-3445.0561241904
 10
1272.423598856858
 20
-3445.269617787216
 10
1272.390867595204
 20
-3445.697144368129
 10
1272.379077764536
 20
-3445.905707655274
 10
1272.371250379516
 20
-3446.107157808911
 10
1272.368069374301
 20
-3446.298759980564
 10
1272.370218683048
 20
-3446.477779321757
 10
1272.373505934582
 20
-3446.561715790782
 10
1272.378382239913
 20
-3446.641480984013
 10
1272.384933090814
 20
-3446.716733045393
 10
1272.393243979054
 20
-3446.78713011886
 10
1272.403400396402
 20
-3446.852330348354
 10
1272.415487834627
 20
-3446.911991877818
 10
1272.429591785499
 20
-3446.965772851191
 10
1272.445797740788
 20
-3447.013331412414
 10
1272.464191192264
 20
-3447.054325705427
 10
1272.484857631695
 20
-3447.088413874172
 10
1272.507882550852
 20
-3447.115254062588
 10
1272.533351441504
 20
-3447.134504414615
 10
1272.56134979542
 20
-3447.145823074196
 10
1272.591955660193
 20
-3447.148885390248
 10
1272.625097614922
 20
-3447.143712163122
 10
1272.660565938295
 20
-3447.130643832951
 10
1272.698145702655
 20
-3447.110032872763
 10
1272.737621980348
 20
-3447.082231755584
 10
1272.778779843721
 20
-3447.04759295444
 10
1272.821404365117
 20
-3447.006468942356
 10
1272.865280616883
 20
-3446.959212192358
 10
1272.910193671362
 20
-3446.906175177472
 10
1272.955928600901
 20
-3446.847710370724
 10
1273.002270477845
 20
-3446.78417024514
 10
1273.049004374539
 20
-3446.715907273746
 10
1273.095915363327
 20
-3446.643273929567
 10
1273.189408906571
 20
-3446.486306014962
 10
1273.281031686338
 20
-3446.316086285529
 10
1273.36906428139
 20
-3446.135434525478
 10
1273.451787270488
 20
-3445.947170519014
 10
1273.527481232394
 20
-3445.754114050347
 10
1273.594426745871
 20
-3445.55908490368
 10
1273.650904389679
 20
-3445.364902863224
 10
1273.695200402526
 20
-3445.174380414299
 10
1273.72634978956
 20
-3444.989364456626
 10
1273.744877481717
 20
-3444.809780528607
 10
1273.751484684269
 20
-3444.635326850815
 10
1273.746872602485
 20
-3444.465701643826
 10
1273.731742441637
 20
-3444.300603128216
 10
1273.706795406996
 20
-3444.139729524557
 10
1273.672732703833
 20
-3443.982779053426
 10
1273.630255537419
 20
-3443.829449935397
 10
1273.580065113024
 20
-3443.679440391044
 10
1273.522862635921
 20
-3443.532448640945
 10
1273.459349311378
 20
-3443.38817290567
 10
1273.390226344668
 20
-3443.246311405798
 10
1273.316194941061
 20
-3443.106562361902
 10
1273.156211644242
 20
-3442.832194524338
 10
1272.985009063088
 20
-3442.562655157576
 10
1272.808196839766
 20
-3442.295530026217
  0
LWPOLYLINE
  5
269
330
1F
100
AcDbEntity
  8
Ech.1_5
 62
   154
420
    21156
370
    20
100
AcDbPolyline
 90
       70
 70
     0
 43
0.0
 10
1291.240607252651
 20
-3439.33086959997
 10
1291.197439858593
 20
-3439.602177028695
 10
1291.154285148116
 20
-3439.878016687113
 10
1291.111155804798
 20
-3440.162920804918
 10
1291.068064512219
 20
-3440.461421611801
 10
1291.046537098576
 20
-3440.617187095425
 10
1291.02502395396
 20
-3440.778051337455
 10
1291.003526663819
 20
-3440.944580866601
 10
1290.9820468136
 20
-3441.117342211574
 10
1290.960585988751
 20
-3441.296901901087
 10
1290.939145774719
 20
-3441.483826463851
 10
1290.917727756952
 20
-3441.678682428578
 10
1290.896383104111
 20
-3441.881796427736
 10
1290.875582832417
 20
-3442.091463764158
 10
1290.856009269744
 20
-3442.304957360976
 10
1290.82327800809
 20
-3442.73248394189
 10
1290.811488177422
 20
-3442.941047229036
 10
1290.803660792402
 20
-3443.142497382672
 10
1290.800479787187
 20
-3443.334099554325
 10
1290.802629095934
 20
-3443.513118895517
 10
1290.805916347467
 20
-3443.597055364542
 10
1290.810792652799
 20
-3443.676820557775
 10
1290.817343503701
 20
-3443.752072619154
 10
1290.82565439194
 20
-3443.82246969262
 10
1290.835810809288
 20
-3443.887669922116
 10
1290.847898247513
 20
-3443.947331451579
 10
1290.862002198385
 20
-3444.001112424952
 10
1290.878208153674
 20
-3444.048670986176
 10
1290.89660160515
 20
-3444.089665279189
 10
1290.917268044581
 20
-3444.123753447934
 10
1290.940292963738
 20
-3444.150593636349
 10
1290.96576185439
 20
-3444.169843988377
 10
1290.993760208307
 20
-3444.181162647957
 10
1291.02436607308
 20
-3444.18422496401
 10
1291.057508027809
 20
-3444.179051736883
 10
1291.092976351181
 20
-3444.165983406713
 10
1291.130556115542
 20
-3444.145372446525
 10
1291.170032393236
 20
-3444.117571329346
 10
1291.211190256608
 20
-3444.082932528201
 10
1291.253814778004
 20
-3444.041808516117
 10
1291.29769102977
 20
-3443.994551766119
 10
1291.34260408425
 20
-3443.941514751233
 10
1291.388339013789
 20
-3443.883049944485
 10
1291.434680890732
 20
-3443.819509818901
 10
1291.481414787426
 20
-3443.751246847507
 10
1291.528325776215
 20
-3443.678613503328
 10
1291.621819319459
 20
-3443.521645588722
 10
1291.713442099226
 20
-3443.351425859289
 10
1291.801474694278
 20
-3443.170774099237
 10
1291.884197683376
 20
-3442.982510092773
 10
1291.959891645283
 20
-3442.789453624106
 10
1292.026837158759
 20
-3442.594424477439
 10
1292.083314802567
 20
-3442.400242436983
 10
1292.127610815414
 20
-3442.209719988058
 10
1292.158760202448
 20
-3442.024704030384
 10
1292.177287894605
 20
-3441.845120102365
 10
1292.183895097157
 20
-3441.670666424573
 10
1292.179283015373
 20
-3441.501041217584
 10
1292.164152854525
 20
-3441.335942701974
 10
1292.139205819884
 20
-3441.175069098314
 10
1292.105143116721
 20
-3441.018118627183
 10
1292.062665950306
 20
-3440.864789509153
 10
1292.012475525911
 20
-3440.714779964801
 10
1291.955273048807
 20
-3440.5677882147
 10
1291.891759724264
 20
-3440.423512479426
 10
1291.822636757554
 20
-3440.281650979554
 10
1291.748605353947
 20
-3440.141901935657
 10
1291.588622057128
 20
-3439.867534098093
 10
1291.417419475973
 20
-3439.597994731331
 10
1291.240607252651
 20
-3439.33086959997
  0
LWPOLYLINE
  5
26A
330
1F
100
AcDbEntity
  8
Ech.1_5
 62
     7
370
    20
100
AcDbPolyline
 90
        3
 70
     0
 43
0.0
 10
1104.523890248653
 20
-3608.204504975587
 10
1093.723890248653
 20
-3608.204504975587
 10
1093.723890248653
 20
-3457.957858198673
  0
HATCH
  5
26B
330
1F
100
AcDbEntity
  8
Ech.1_5
 62
    17
420
  8405056
440
 33554687
370
    20
100
AcDbHatch
 10
0.0
 20
0.0
 30
0.0
210
0.0
220
0.0
230
1.0
  2
SOLID
 70
     1
 71
     1
 91
        1
 92
        3
 72
     0
 73
     1
 93
        4
 10
1082.923890248653
 20
-3608.204504975587
 10
1082.901055762069
 20
-3457.957858198673
 10
1074.901055762069
 20
-3457.957858198673
 10
1074.901055762069
 20
-3608.204504975587
 97
        0
 75
     0
 76
     1
 98
        0
  0
LWPOLYLINE
  5
26C
330
1F
100
AcDbEntity
  8
Ech.1_5
 62
     7
370
    20
100
AcDbPolyline
 90
        5
 70
     0
 43
0.0
 10
1082.923890248653
 20
-3608.204504975587
 10
1082.901055762069
 20
-3457.957858198673
 10
1074.901055762069
 20
-3457.957858198673
 10
1074.901055762069
 20
-3608.204504975587
 10
1082.923890248653
 20
-3608.204504975587
  0
HATCH
  5
26D
330
1F
100
AcDbEntity
  8
Ech.1_5
 62
    35
420
  9529928
440
 33554687
370
    20
100
AcDbHatch
 10
0.0
 20
0.0
 30
0.0
210
0.0
220
0.0
230
1.0
  2
SOLID
 70
     1
 71
     1
 91
        1
 92
        3
 72
     0
 73
     1
 93
        4
 10
1082.923890248653
 20
-3592.204504784734
 10
1082.923890248653
 20
-3608.204504975587
 10
1093.723890248653
 20
-3608.204504975587
 10
1093.723890248653
 20
-3592.204504975587
 97
        0
 75
     0
 76
     1
 98
        0
  0
LWPOLYLINE
  5
26E
330
1F
100
AcDbEntity
  8
Ech.1_5
 62
   190
370
    20
100
AcDbPolyline
 90
        5
 70
     0
 43
0.0
 10
1082.923890248653
 20
-3592.204504784734
 10
1082.923890248653
 20
-3608.204504975587
 10
1093.723890248653
 20
-3608.204504975587
 10
1093.723890248653
 20
-3592.204504975587
 10
1082.923890248653
 20
-3592.204504784734
  0
LWPOLYLINE
  5
26F
330
1F
100
AcDbEntity
  8
Ech.1_5
 62
   190
370
    20
100
AcDbPolyline
 90
        4
 70
     0
 43
0.0
 10
1093.723890248653
 20
-3592.204504975587
 10
1082.923890248653
 20
-3608.204504975587
 10
1093.723890248653
 20
-3608.204504975587
 10
1082.923890248653
 20
-3592.204550109207
  0
LWPOLYLINE
  5
270
330
1F
100
AcDbEntity
  8
Ech.1_5
 62
     5
370
    20
100
AcDbPolyline
 90
        5
 70
     0
 43
0.0
 10
1082.923890248653
 20
-3592.204550109207
 10
1082.923890248653
 20
-3608.204504975587
 10
1093.723890248653
 20
-3608.204504975587
 10
1093.723890248653
 20
-3592.204504975587
 10
1082.923890248653
 20
-3592.204550109207
  0
LWPOLYLINE
  5
271
330
1F
100
AcDbEntity
  8
Ech.1_5
 62
     7
370
    20
100
AcDbPolyline
 90
        4
 70
     0
 43
0.0
 10
1074.901055762069
 20
-3457.957858198673
 10
1074.901055762069
 20
-3608.204504975587
 10
1082.923890248653
 20
-3608.204504975587
 10
1082.901055762069
 20
-3457.957858198673
  0
LINE
  5
272
330
1F
100
AcDbEntity
  8
Ech.1_5
 62
   190
370
     9
100
AcDbLine
 10
1074.678833362358
 20
-3599.197004975591
 30
0.0
 11
1074.556611361997
 21
-3599.197004975591
 31
0.0
  0
LINE
  5
273
330
1F
100
AcDbEntity
  8
Ech.1_5
 62
   190
370
     9
100
AcDbLine
 10
1074.556611361997
 20
-3599.197004975591
 30
0.0
 11
1074.556611361997
 21
-3601.212004975582
 31
0.0
  0
LINE
  5
274
330
1F
100
AcDbEntity
  8
Ech.1_5
 62
   190
370
     9
100
AcDbLine
 10
1074.678833362357
 20
-3601.212004975582
 30
0.0
 11
1074.556611361997
 21
-3601.212004975582
 31
0.0
  0
HATCH
  5
275
330
1F
100
AcDbEntity
  8
Ech.1_5
 62
   252
440
 33554687
370
     5
100
AcDbHatch
 10
0.0
 20
0.0
 30
0.0
210
0.0
220
0.0
230
1.0
  2
SOLID
 70
     1
 71
     1
 91
        1
 92
        3
 72
     0
 73
     1
 93
        4
 10
1090.601055362835
 20
-3600.656449375607
 10
1090.934388962403
 20
-3600.656449375607
 10
1090.934388962403
 20
-3599.752560575589
 10
1090.601055362835
 20
-3599.752560575589
 97
        0
 75
     0
 76
     1
 98
        0
  0
LWPOLYLINE
  5
276
330
1F
100
AcDbEntity
  8
Ech.1_5
 62
     7
370
     9
100
AcDbPolyline
 90
        5
 70
     0
 43
0.0
 10
1090.601055362835
 20
-3600.656449375607
 10
1090.934388962403
 20
-3600.656449375607
 10
1090.934388962403
 20
-3599.752560575589
 10
1090.601055362835
 20
-3599.752560575589
 10
1090.601055362835
 20
-3600.656449375607
  0
LINE
  5
277
330
1F
100
AcDbEntity
  8
Ech.1_5
 62
   190
370
     9
100
AcDbLine
 10
1091.814022561805
 20
-3599.752560575589
 30
0.0
 11
1074.901055762069
 21
-3599.752560575589
 31
0.0
  0
LINE
  5
278
330
1F
100
AcDbEntity
  8
Ech.1_5
 62
   190
370
     9
100
AcDbLine
 10
1091.814022561805
 20
-3600.656449375607
 30
0.0
 11
1074.901055762069
 21
-3600.656449375607
 31
0.0
  0
ARC
  5
279
330
1F
100
AcDbEntity
  8
Ech.1_5
 62
   190
370
     9
100
AcDbCircle
 10
1079.581892718323
 20
-3600.204504975598
 30
0.0
 40
5.125281356326382
100
AcDbArc
 50
168.6632793503001
 51
191.3367206496999
  0
LINE
  5
27A
330
1F
100
AcDbEntity
  8
Ech.1_5
 62
   190
370
     9
100
AcDbLine
 10
1074.678833362358
 20
-3599.197004975591
 30
0.0
 11
1074.678833362357
 21
-3599.530338175572
 31
0.0
  0
ARC
  5
27B
330
1F
100
AcDbEntity
  8
Ech.1_5
 62
   190
370
     9
100
AcDbCircle
 10
1074.901055758317
 20
-3599.530338179629
 30
0.0
 40
0.2222223959597047
100
AcDbArc
 50
179.9999989537972
 51
270.0000009673536
  0
LINE
  5
27C
330
1F
100
AcDbEntity
  8
Ech.1_5
 62
   190
370
     9
100
AcDbLine
 10
1074.678833362357
 20
-3599.530338175572
 30
0.0
 11
1074.678833362357
 21
-3600.878671775598
 31
0.0
  0
ARC
  5
27D
330
1F
100
AcDbEntity
  8
Ech.1_5
 62
   190
370
     9
100
AcDbCircle
 10
1074.901055758273
 20
-3600.878671771523
 30
0.0
 40
0.2222223959154556
100
AcDbArc
 50
89.99999902121473
 51
180.0000010507755
  0
LINE
  5
27E
330
1F
100
AcDbEntity
  8
Ech.1_5
 62
   190
370
     9
100
AcDbLine
 10
1074.678833362357
 20
-3601.212004975582
 30
0.0
 11
1074.678833362357
 21
-3600.878671775598
 31
0.0
  0
LINE
  5
27F
330
1F
100
AcDbEntity
  8
Ech.1_5
 62
   190
370
     9
100
AcDbLine
 10
1078.934388962403
 20
-3599.752560575589
 30
0.0
 11
1078.934388962403
 21
-3600.656449375607
 31
0.0
  0
LINE
  5
280
330
1F
100
AcDbEntity
  8
Ech.1_5
 62
   190
370
     9
100
AcDbLine
 10
1079.267722162619
 20
-3599.752560575589
 30
0.0
 11
1079.267722162619
 21
-3600.656449375607
 31
0.0
  0
LINE
  5
281
330
1F
100
AcDbEntity
  8
Ech.1_5
 62
   190
370
     9
100
AcDbLine
 10
1077.934388962403
 20
-3599.752560575589
 30
0.0
 11
1077.934388962403
 21
-3600.656449375607
 31
0.0
  0
LINE
  5
282
330
1F
100
AcDbEntity
  8
Ech.1_5
 62
   190
370
     9
100
AcDbLine
 10
1078.267722162619
 20
-3599.752560575589
 30
0.0
 11
1078.267722162619
 21
-3600.656449375607
 31
0.0
  0
LINE
  5
283
330
1F
100
AcDbEntity
  8
Ech.1_5
 62
   190
370
     9
100
AcDbLine
 10
1078.601055362835
 20
-3599.752560575589
 30
0.0
 11
1078.601055362835
 21
-3600.656449375607
 31
0.0
  0
LINE
  5
284
330
1F
100
AcDbEntity
  8
Ech.1_5
 62
   190
370
     9
100
AcDbLine
 10
1076.934388962403
 20
-3599.752560575589
 30
0.0
 11
1076.934388962403
 21
-3600.656449375607
 31
0.0
  0
LINE
  5
285
330
1F
100
AcDbEntity
  8
Ech.1_5
 62
   190
370
     9
100
AcDbLine
 10
1077.26772216262
 20
-3599.752560575589
 30
0.0
 11
1077.26772216262
 21
-3600.656449375607
 31
0.0
  0
LINE
  5
286
330
1F
100
AcDbEntity
  8
Ech.1_5
 62
   190
370
     9
100
AcDbLine
 10
1077.601055362836
 20
-3599.752560575589
 30
0.0
 11
1077.601055362836
 21
-3600.656449375607
 31
0.0
  0
LINE
  5
287
330
1F
100
AcDbEntity
  8
Ech.1_5
 62
   190
370
     9
100
AcDbLine
 10
1076.601055362835
 20
-3599.752560575589
 30
0.0
 11
1076.601055362835
 21
-3600.656449375607
 31
0.0
  0
LINE
  5
288
330
1F
100
AcDbEntity
  8
Ech.1_5
 62
   190
370
     9
100
AcDbLine
 10
1076.267722162619
 20
-3599.752560575589
 30
0.0
 11
1076.267722162619
 21
-3600.656449375607
 31
0.0
  0
LINE
  5
289
330
1F
100
AcDbEntity
  8
Ech.1_5
 62
   190
370
     9
100
AcDbLine
 10
1075.934388962403
 20
-3599.752560575589
 30
0.0
 11
1075.934388962403
 21
-3600.656449375607
 31
0.0
  0
LINE
  5
28A
330
1F
100
AcDbEntity
  8
Ech.1_5
 62
   190
370
     9
100
AcDbLine
 10
1075.601055362835
 20
-3599.752560575589
 30
0.0
 11
1075.601055362835
 21
-3600.656449375605
 31
0.0
  0
LINE
  5
28B
330
1F
100
AcDbEntity
  8
Ech.1_5
 62
   190
370
     9
100
AcDbLine
 10
1089.601055362835
 20
-3599.752560575589
 30
0.0
 11
1089.601055362835
 21
-3600.656449375607
 31
0.0
  0
LINE
  5
28C
330
1F
100
AcDbEntity
  8
Ech.1_5
 62
   190
370
     9
100
AcDbLine
 10
1089.267722162619
 20
-3599.752560575589
 30
0.0
 11
1089.267722162619
 21
-3600.656449375607
 31
0.0
  0
LINE
  5
28D
330
1F
100
AcDbEntity
  8
Ech.1_5
 62
   190
370
     9
100
AcDbLine
 10
1089.934388962403
 20
-3599.752560575589
 30
0.0
 11
1089.934388962403
 21
-3600.656449375607
 31
0.0
  0
LINE
  5
28E
330
1F
100
AcDbEntity
  8
Ech.1_5
 62
   190
370
     9
100
AcDbLine
 10
1088.267722162619
 20
-3599.752560575589
 30
0.0
 11
1088.267722162619
 21
-3600.656449375607
 31
0.0
  0
LINE
  5
28F
330
1F
100
AcDbEntity
  8
Ech.1_5
 62
   190
370
     9
100
AcDbLine
 10
1088.601055362835
 20
-3599.752560575589
 30
0.0
 11
1088.601055362835
 21
-3600.656449375607
 31
0.0
  0
LINE
  5
290
330
1F
100
AcDbEntity
  8
Ech.1_5
 62
   190
370
     9
100
AcDbLine
 10
1088.934388962403
 20
-3599.752560575589
 30
0.0
 11
1088.934388962403
 21
-3600.656449375607
 31
0.0
  0
LINE
  5
291
330
1F
100
AcDbEntity
  8
Ech.1_5
 62
   190
370
     9
100
AcDbLine
 10
1087.267722162619
 20
-3599.752560575589
 30
0.0
 11
1087.267722162619
 21
-3600.656449375607
 31
0.0
  0
LINE
  5
292
330
1F
100
AcDbEntity
  8
Ech.1_5
 62
   190
370
     9
100
AcDbLine
 10
1087.601055362835
 20
-3599.752560575589
 30
0.0
 11
1087.601055362835
 21
-3600.656449375607
 31
0.0
  0
LINE
  5
293
330
1F
100
AcDbEntity
  8
Ech.1_5
 62
   190
370
     9
100
AcDbLine
 10
1087.934388962403
 20
-3599.752560575589
 30
0.0
 11
1087.934388962403
 21
-3600.656449375607
 31
0.0
  0
LINE
  5
294
330
1F
100
AcDbEntity
  8
Ech.1_5
 62
   190
370
     9
100
AcDbLine
 10
1086.267722162619
 20
-3599.752560575589
 30
0.0
 11
1086.267722162619
 21
-3600.656449375607
 31
0.0
  0
LINE
  5
295
330
1F
100
AcDbEntity
  8
Ech.1_5
 62
   190
370
     9
100
AcDbLine
 10
1086.601055362835
 20
-3599.752560575589
 30
0.0
 11
1086.601055362835
 21
-3600.656449375607
 31
0.0
  0
LINE
  5
296
330
1F
100
AcDbEntity
  8
Ech.1_5
 62
   190
370
     9
100
AcDbLine
 10
1086.934388962403
 20
-3599.752560575589
 30
0.0
 11
1086.934388962403
 21
-3600.656449375607
 31
0.0
  0
LINE
  5
297
330
1F
100
AcDbEntity
  8
Ech.1_5
 62
   190
370
     9
100
AcDbLine
 10
1085.934388962403
 20
-3599.752560575589
 30
0.0
 11
1085.934388962403
 21
-3600.656449375607
 31
0.0
  0
LINE
  5
298
330
1F
100
AcDbEntity
  8
Ech.1_5
 62
   190
370
     9
100
AcDbLine
 10
1080.601055362835
 20
-3599.752560575589
 30
0.0
 11
1080.601055362835
 21
-3600.656449375607
 31
0.0
  0
LINE
  5
299
330
1F
100
AcDbEntity
  8
Ech.1_5
 62
   190
370
     9
100
AcDbLine
 10
1080.934388962403
 20
-3599.752560575589
 30
0.0
 11
1080.934388962403
 21
-3600.656449375607
 31
0.0
  0
LINE
  5
29A
330
1F
100
AcDbEntity
  8
Ech.1_5
 62
   190
370
     9
100
AcDbLine
 10
1081.267722162619
 20
-3599.752560575589
 30
0.0
 11
1081.267722162619
 21
-3600.656449375607
 31
0.0
  0
LINE
  5
29B
330
1F
100
AcDbEntity
  8
Ech.1_5
 62
   190
370
     9
100
AcDbLine
 10
1081.601055362835
 20
-3599.752560575589
 30
0.0
 11
1081.601055362835
 21
-3600.656449375607
 31
0.0
  0
LINE
  5
29C
330
1F
100
AcDbEntity
  8
Ech.1_5
 62
   190
370
     9
100
AcDbLine
 10
1082.601055362835
 20
-3599.752560575589
 30
0.0
 11
1082.601055362835
 21
-3600.656449375607
 31
0.0
  0
LINE
  5
29D
330
1F
100
AcDbEntity
  8
Ech.1_5
 62
   190
370
     9
100
AcDbLine
 10
1082.267722162619
 20
-3599.752560575589
 30
0.0
 11
1082.267722162619
 21
-3600.656449375607
 31
0.0
  0
LINE
  5
29E
330
1F
100
AcDbEntity
  8
Ech.1_5
 62
   190
370
     9
100
AcDbLine
 10
1081.934388962403
 20
-3599.752560575589
 30
0.0
 11
1081.934388962403
 21
-3600.656449375607
 31
0.0
  0
LINE
  5
29F
330
1F
100
AcDbEntity
  8
Ech.1_5
 62
   190
370
     9
100
AcDbLine
 10
1083.601055362835
 20
-3599.752560575589
 30
0.0
 11
1083.601055362835
 21
-3600.656449375607
 31
0.0
  0
LINE
  5
2A0
330
1F
100
AcDbEntity
  8
Ech.1_5
 62
   190
370
     9
100
AcDbLine
 10
1083.267722162619
 20
-3599.752560575589
 30
0.0
 11
1083.267722162619
 21
-3600.656449375607
 31
0.0
  0
LINE
  5
2A1
330
1F
100
AcDbEntity
  8
Ech.1_5
 62
   190
370
     9
100
AcDbLine
 10
1082.934388962403
 20
-3599.752560575589
 30
0.0
 11
1082.934388962403
 21
-3600.656449375607
 31
0.0
  0
LINE
  5
2A2
330
1F
100
AcDbEntity
  8
Ech.1_5
 62
   190
370
     9
100
AcDbLine
 10
1084.601055362835
 20
-3599.752560575589
 30
0.0
 11
1084.601055362835
 21
-3600.656449375607
 31
0.0
  0
LINE
  5
2A3
330
1F
100
AcDbEntity
  8
Ech.1_5
 62
   190
370
     9
100
AcDbLine
 10
1084.267722162619
 20
-3599.752560575589
 30
0.0
 11
1084.267722162619
 21
-3600.656449375607
 31
0.0
  0
LINE
  5
2A4
330
1F
100
AcDbEntity
  8
Ech.1_5
 62
   190
370
     9
100
AcDbLine
 10
1083.934388962403
 20
-3599.752560575589
 30
0.0
 11
1083.934388962403
 21
-3600.656449375607
 31
0.0
  0
LINE
  5
2A5
330
1F
100
AcDbEntity
  8
Ech.1_5
 62
   190
370
     9
100
AcDbLine
 10
1085.601055362835
 20
-3599.752560575589
 30
0.0
 11
1085.601055362835
 21
-3600.656449375607
 31
0.0
  0
LINE
  5
2A6
330
1F
100
AcDbEntity
  8
Ech.1_5
 62
   190
370
     9
100
AcDbLine
 10
1085.267722162619
 20
-3599.752560575589
 30
0.0
 11
1085.267722162619
 21
-3600.656449375607
 31
0.0
  0
LINE
  5
2A7
330
1F
100
AcDbEntity
  8
Ech.1_5
 62
   190
370
     9
100
AcDbLine
 10
1084.934388962403
 20
-3599.752560575589
 30
0.0
 11
1084.934388962403
 21
-3600.656449375607
 31
0.0
  0
LINE
  5
2A8
330
1F
100
AcDbEntity
  8
Ech.1_5
 62
   190
370
     9
100
AcDbLine
 10
1079.934388962403
 20
-3599.752560575589
 30
0.0
 11
1079.934388962403
 21
-3600.656449375607
 31
0.0
  0
LINE
  5
2A9
330
1F
100
AcDbEntity
  8
Ech.1_5
 62
   190
370
     9
100
AcDbLine
 10
1080.267722162619
 20
-3599.752560575589
 30
0.0
 11
1080.267722162619
 21
-3600.656449375607
 31
0.0
  0
LINE
  5
2AA
330
1F
100
AcDbEntity
  8
Ech.1_5
 62
   190
370
     9
100
AcDbLine
 10
1080.601055362835
 20
-3599.752560575589
 30
0.0
 11
1080.601055362835
 21
-3600.656449375607
 31
0.0
  0
LINE
  5
2AB
330
1F
100
AcDbEntity
  8
Ech.1_5
 62
   190
370
     9
100
AcDbLine
 10
1079.601055362835
 20
-3599.752560575589
 30
0.0
 11
1079.601055362835
 21
-3600.656449375607
 31
0.0
  0
LINE
  5
2AC
330
1F
100
AcDbEntity
  8
Ech.1_5
 62
   190
370
     9
100
AcDbLine
 10
1092.878833362357
 20
-3600.204504975587
 30
0.0
 11
1091.814022561805
 21
-3599.752560575589
 31
0.0
  0
ARC
  5
2AD
330
1F
100
AcDbEntity
  8
Ech.1_5
 62
   190
370
     9
100
AcDbCircle
 10
1092.377762958045
 20
-3600.204504975585
 30
0.0
 40
0.7225351986669323
100
AcDbArc
 50
141.2812399142404
 51
218.7187600857596
  0
LINE
  5
2AE
330
1F
100
AcDbEntity
  8
Ech.1_5
 62
   190
370
     9
100
AcDbLine
 10
1092.878833362357
 20
-3600.204504975587
 30
0.0
 11
1091.814022561805
 21
-3600.656449375607
 31
0.0
  0
HATCH
  5
2AF
330
1F
100
AcDbEntity
  8
Ech.1_5
 62
   252
440
 33554687
370
     5
100
AcDbHatch
 10
0.0
 20
0.0
 30
0.0
210
0.0
220
0.0
230
1.0
  2
SOLID
 70
     1
 71
     1
 91
        1
 92
        3
 72
     0
 73
     1
 93
        4
 10
1075.601055362835
 20
-3600.656449375605
 10
1075.934388962403
 20
-3600.656449375607
 10
1075.934388962403
 20
-3599.752560575589
 10
1075.601055362835
 20
-3599.752560575589
 97
        0
 75
     0
 76
     1
 98
        0
  0
LWPOLYLINE
  5
2B0
330
1F
100
AcDbEntity
  8
Ech.1_5
 62
     7
370
     9
100
AcDbPolyline
 90
        5
 70
     0
 43
0.0
 10
1075.601055362835
 20
-3600.656449375605
 10
1075.934388962403
 20
-3600.656449375607
 10
1075.934388962403
 20
-3599.752560575589
 10
1075.601055362835
 20
-3599.752560575589
 10
1075.601055362835
 20
-3600.656449375605
  0
HATCH
  5
2B1
330
1F
100
AcDbEntity
  8
Ech.1_5
 62
   252
440
 33554687
370
     5
100
AcDbHatch
 10
0.0
 20
0.0
 30
0.0
210
0.0
220
0.0
230
1.0
  2
SOLID
 70
     1
 71
     1
 91
        1
 92
        3
 72
     0
 73
     1
 93
        4
 10
1075.934388962403
 20
-3600.656449375607
 10
1076.26772256197
 20
-3600.656449375607
 10
1076.26772256197
 20
-3599.752560575589
 10
1075.934388962403
 20
-3599.752560575589
 97
        0
 75
     0
 76
     1
 98
        0
  0
LWPOLYLINE
  5
2B2
330
1F
100
AcDbEntity
  8
Ech.1_5
 62
     7
370
     9
100
AcDbPolyline
 90
        5
 70
     0
 43
0.0
 10
1075.934388962403
 20
-3600.656449375607
 10
1076.26772256197
 20
-3600.656449375607
 10
1076.26772256197
 20
-3599.752560575589
 10
1075.934388962403
 20
-3599.752560575589
 10
1075.934388962403
 20
-3600.656449375607
  0
HATCH
  5
2B3
330
1F
100
AcDbEntity
  8
Ech.1_5
 62
   252
440
 33554687
370
     5
100
AcDbHatch
 10
0.0
 20
0.0
 30
0.0
210
0.0
220
0.0
230
1.0
  2
SOLID
 70
     1
 71
     1
 91
        1
 92
        3
 72
     0
 73
     1
 93
        4
 10
1076.26772256197
 20
-3600.656449375607
 10
1076.601056161538
 20
-3600.656449375607
 10
1076.601056161538
 20
-3599.752560575589
 10
1076.26772256197
 20
-3599.752560575589
 97
        0
 75
     0
 76
     1
 98
        0
  0
LWPOLYLINE
  5
2B4
330
1F
100
AcDbEntity
  8
Ech.1_5
 62
     7
370
     9
100
AcDbPolyline
 90
        5
 70
     0
 43
0.0
 10
1076.26772256197
 20
-3600.656449375607
 10
1076.601056161538
 20
-3600.656449375607
 10
1076.601056161538
 20
-3599.752560575589
 10
1076.26772256197
 20
-3599.752560575589
 10
1076.26772256197
 20
-3600.656449375607
  0
HATCH
  5
2B5
330
1F
100
AcDbEntity
  8
Ech.1_5
 62
   252
440
 33554687
370
     5
100
AcDbHatch
 10
0.0
 20
0.0
 30
0.0
210
0.0
220
0.0
230
1.0
  2
SOLID
 70
     1
 71
     1
 91
        1
 92
        3
 72
     0
 73
     1
 93
        4
 10
1076.601056161538
 20
-3600.656449375607
 10
1076.934389761105
 20
-3600.656449375607
 10
1076.934389761105
 20
-3599.752560575589
 10
1076.601056161538
 20
-3599.752560575589
 97
        0
 75
     0
 76
     1
 98
        0
  0
LWPOLYLINE
  5
2B6
330
1F
100
AcDbEntity
  8
Ech.1_5
 62
     7
370
     9
100
AcDbPolyline
 90
        5
 70
     0
 43
0.0
 10
1076.601056161538
 20
-3600.656449375607
 10
1076.934389761105
 20
-3600.656449375607
 10
1076.934389761105
 20
-3599.752560575589
 10
1076.601056161538
 20
-3599.752560575589
 10
1076.601056161538
 20
-3600.656449375607
  0
HATCH
  5
2B7
330
1F
100
AcDbEntity
  8
Ech.1_5
 62
   252
440
 33554687
370
     5
100
AcDbHatch
 10
0.0
 20
0.0
 30
0.0
210
0.0
220
0.0
230
1.0
  2
SOLID
 70
     1
 71
     1
 91
        1
 92
        3
 72
     0
 73
     1
 93
        4
 10
1076.934388962403
 20
-3600.656449375607
 10
1077.267722561971
 20
-3600.656449375607
 10
1077.267722561971
 20
-3599.752560575589
 10
1076.934388962403
 20
-3599.752560575589
 97
        0
 75
     0
 76
     1
 98
        0
  0
LWPOLYLINE
  5
2B8
330
1F
100
AcDbEntity
  8
Ech.1_5
 62
     7
370
     9
100
AcDbPolyline
 90
        5
 70
     0
 43
0.0
 10
1076.934388962403
 20
-3600.656449375607
 10
1077.267722561971
 20
-3600.656449375607
 10
1077.267722561971
 20
-3599.752560575589
 10
1076.934388962403
 20
-3599.752560575589
 10
1076.934388962403
 20
-3600.656449375607
  0
HATCH
  5
2B9
330
1F
100
AcDbEntity
  8
Ech.1_5
 62
   252
440
 33554687
370
     5
100
AcDbHatch
 10
0.0
 20
0.0
 30
0.0
210
0.0
220
0.0
230
1.0
  2
SOLID
 70
     1
 71
     1
 91
        1
 92
        3
 72
     0
 73
     1
 93
        4
 10
1077.26772216262
 20
-3600.656449375607
 10
1077.601055762187
 20
-3600.656449375607
 10
1077.601055762187
 20
-3599.752560575586
 10
1077.26772216262
 20
-3599.752560575589
 97
        0
 75
     0
 76
     1
 98
        0
  0
LWPOLYLINE
  5
2BA
330
1F
100
AcDbEntity
  8
Ech.1_5
 62
     7
370
     9
100
AcDbPolyline
 90
        5
 70
     0
 43
0.0
 10
1077.26772216262
 20
-3600.656449375607
 10
1077.601055762187
 20
-3600.656449375607
 10
1077.601055762187
 20
-3599.752560575586
 10
1077.26772216262
 20
-3599.752560575589
 10
1077.26772216262
 20
-3600.656449375607
  0
HATCH
  5
2BB
330
1F
100
AcDbEntity
  8
Ech.1_5
 62
   252
440
 33554687
370
     5
100
AcDbHatch
 10
0.0
 20
0.0
 30
0.0
210
0.0
220
0.0
230
1.0
  2
SOLID
 70
     1
 71
     1
 91
        1
 92
        3
 72
     0
 73
     1
 93
        4
 10
1077.601055762187
 20
-3600.656449375607
 10
1077.934389361754
 20
-3600.656449375607
 10
1077.934389361754
 20
-3599.752560575589
 10
1077.601055762187
 20
-3599.752560575586
 97
        0
 75
     0
 76
     1
 98
        0
  0
LWPOLYLINE
  5
2BC
330
1F
100
AcDbEntity
  8
Ech.1_5
 62
     7
370
     9
100
AcDbPolyline
 90
        5
 70
     0
 43
0.0
 10
1077.601055762187
 20
-3600.656449375607
 10
1077.934389361754
 20
-3600.656449375607
 10
1077.934389361754
 20
-3599.752560575589
 10
1077.601055762187
 20
-3599.752560575586
 10
1077.601055762187
 20
-3600.656449375607
  0
HATCH
  5
2BD
330
1F
100
AcDbEntity
  8
Ech.1_5
 62
   252
440
 33554687
370
     5
100
AcDbHatch
 10
0.0
 20
0.0
 30
0.0
210
0.0
220
0.0
230
1.0
  2
SOLID
 70
     1
 71
     1
 91
        1
 92
        3
 72
     0
 73
     1
 93
        4
 10
1077.934388962403
 20
-3600.656449375607
 10
1078.26772256197
 20
-3600.656449375607
 10
1078.26772256197
 20
-3599.752560575589
 10
1077.934388962403
 20
-3599.752560575589
 97
        0
 75
     0
 76
     1
 98
        0
  0
LWPOLYLINE
  5
2BE
330
1F
100
AcDbEntity
  8
Ech.1_5
 62
     7
370
     9
100
AcDbPolyline
 90
        5
 70
     0
 43
0.0
 10
1077.934388962403
 20
-3600.656449375607
 10
1078.26772256197
 20
-3600.656449375607
 10
1078.26772256197
 20
-3599.752560575589
 10
1077.934388962403
 20
-3599.752560575589
 10
1077.934388962403
 20
-3600.656449375607
  0
HATCH
  5
2BF
330
1F
100
AcDbEntity
  8
Ech.1_5
 62
   252
440
 33554687
370
     5
100
AcDbHatch
 10
0.0
 20
0.0
 30
0.0
210
0.0
220
0.0
230
1.0
  2
SOLID
 70
     1
 71
     1
 91
        1
 92
        3
 72
     0
 73
     1
 93
        4
 10
1078.26772256197
 20
-3600.656449375607
 10
1078.601056161538
 20
-3600.656449375607
 10
1078.601056161538
 20
-3599.752560575589
 10
1078.26772256197
 20
-3599.752560575589
 97
        0
 75
     0
 76
     1
 98
        0
  0
LWPOLYLINE
  5
2C0
330
1F
100
AcDbEntity
  8
Ech.1_5
 62
     7
370
     9
100
AcDbPolyline
 90
        5
 70
     0
 43
0.0
 10
1078.26772256197
 20
-3600.656449375607
 10
1078.601056161538
 20
-3600.656449375607
 10
1078.601056161538
 20
-3599.752560575589
 10
1078.26772256197
 20
-3599.752560575589
 10
1078.26772256197
 20
-3600.656449375607
  0
HATCH
  5
2C1
330
1F
100
AcDbEntity
  8
Ech.1_5
 62
   252
440
 33554687
370
     5
100
AcDbHatch
 10
0.0
 20
0.0
 30
0.0
210
0.0
220
0.0
230
1.0
  2
SOLID
 70
     1
 71
     1
 91
        1
 92
        3
 72
     0
 73
     1
 93
        4
 10
1078.601055362835
 20
-3600.656449375607
 10
1078.934388962403
 20
-3600.656449375607
 10
1078.934388962403
 20
-3599.752560575589
 10
1078.601055362835
 20
-3599.752560575589
 97
        0
 75
     0
 76
     1
 98
        0
  0
LWPOLYLINE
  5
2C2
330
1F
100
AcDbEntity
  8
Ech.1_5
 62
     7
370
     9
100
AcDbPolyline
 90
        5
 70
     0
 43
0.0
 10
1078.601055362835
 20
-3600.656449375607
 10
1078.934388962403
 20
-3600.656449375607
 10
1078.934388962403
 20
-3599.752560575589
 10
1078.601055362835
 20
-3599.752560575589
 10
1078.601055362835
 20
-3600.656449375607
  0
HATCH
  5
2C3
330
1F
100
AcDbEntity
  8
Ech.1_5
 62
   252
440
 33554687
370
     5
100
AcDbHatch
 10
0.0
 20
0.0
 30
0.0
210
0.0
220
0.0
230
1.0
  2
SOLID
 70
     1
 71
     1
 91
        1
 92
        3
 72
     0
 73
     1
 93
        4
 10
1078.934388962403
 20
-3600.656449375607
 10
1079.26772256197
 20
-3600.656449375607
 10
1079.26772256197
 20
-3599.752560575589
 10
1078.934388962403
 20
-3599.752560575589
 97
        0
 75
     0
 76
     1
 98
        0
  0
LWPOLYLINE
  5
2C4
330
1F
100
AcDbEntity
  8
Ech.1_5
 62
     7
370
     9
100
AcDbPolyline
 90
        5
 70
     0
 43
0.0
 10
1078.934388962403
 20
-3600.656449375607
 10
1079.26772256197
 20
-3600.656449375607
 10
1079.26772256197
 20
-3599.752560575589
 10
1078.934388962403
 20
-3599.752560575589
 10
1078.934388962403
 20
-3600.656449375607
  0
HATCH
  5
2C5
330
1F
100
AcDbEntity
  8
Ech.1_5
 62
   252
440
 33554687
370
     5
100
AcDbHatch
 10
0.0
 20
0.0
 30
0.0
210
0.0
220
0.0
230
1.0
  2
SOLID
 70
     1
 71
     1
 91
        1
 92
        3
 72
     0
 73
     1
 93
        4
 10
1079.26772256197
 20
-3600.656449375607
 10
1079.601056161538
 20
-3600.656449375607
 10
1079.601056161539
 20
-3599.752560575589
 10
1079.26772256197
 20
-3599.752560575589
 97
        0
 75
     0
 76
     1
 98
        0
  0
LWPOLYLINE
  5
2C6
330
1F
100
AcDbEntity
  8
Ech.1_5
 62
     7
370
     9
100
AcDbPolyline
 90
        5
 70
     0
 43
0.0
 10
1079.26772256197
 20
-3600.656449375607
 10
1079.601056161538
 20
-3600.656449375607
 10
1079.601056161539
 20
-3599.752560575589
 10
1079.26772256197
 20
-3599.752560575589
 10
1079.26772256197
 20
-3600.656449375607
  0
HATCH
  5
2C7
330
1F
100
AcDbEntity
  8
Ech.1_5
 62
   252
440
 33554687
370
     5
100
AcDbHatch
 10
0.0
 20
0.0
 30
0.0
210
0.0
220
0.0
230
1.0
  2
SOLID
 70
     1
 71
     1
 91
        1
 92
        3
 72
     0
 73
     1
 93
        4
 10
1079.601056161538
 20
-3600.656449375607
 10
1079.934389761105
 20
-3600.656449375607
 10
1079.934389761105
 20
-3599.752560575589
 10
1079.601056161539
 20
-3599.752560575589
 97
        0
 75
     0
 76
     1
 98
        0
  0
LWPOLYLINE
  5
2C8
330
1F
100
AcDbEntity
  8
Ech.1_5
 62
     7
370
     9
100
AcDbPolyline
 90
        5
 70
     0
 43
0.0
 10
1079.601056161538
 20
-3600.656449375607
 10
1079.934389761105
 20
-3600.656449375607
 10
1079.934389761105
 20
-3599.752560575589
 10
1079.601056161539
 20
-3599.752560575589
 10
1079.601056161538
 20
-3600.656449375607
  0
HATCH
  5
2C9
330
1F
100
AcDbEntity
  8
Ech.1_5
 62
   252
440
 33554687
370
     5
100
AcDbHatch
 10
0.0
 20
0.0
 30
0.0
210
0.0
220
0.0
230
1.0
  2
SOLID
 70
     1
 71
     1
 91
        1
 92
        3
 72
     0
 73
     1
 93
        4
 10
1079.934389761105
 20
-3600.656449375607
 10
1080.267723360673
 20
-3600.656449375607
 10
1080.267723360673
 20
-3599.752560575589
 10
1079.934389761105
 20
-3599.752560575589
 97
        0
 75
     0
 76
     1
 98
        0
  0
LWPOLYLINE
  5
2CA
330
1F
100
AcDbEntity
  8
Ech.1_5
 62
     7
370
     9
100
AcDbPolyline
 90
        5
 70
     0
 43
0.0
 10
1079.934389761105
 20
-3600.656449375607
 10
1080.267723360673
 20
-3600.656449375607
 10
1080.267723360673
 20
-3599.752560575589
 10
1079.934389761105
 20
-3599.752560575589
 10
1079.934389761105
 20
-3600.656449375607
  0
HATCH
  5
2CB
330
1F
100
AcDbEntity
  8
Ech.1_5
 62
   252
440
 33554687
370
     5
100
AcDbHatch
 10
0.0
 20
0.0
 30
0.0
210
0.0
220
0.0
230
1.0
  2
SOLID
 70
     1
 71
     1
 91
        1
 92
        3
 72
     0
 73
     1
 93
        4
 10
1080.26772256197
 20
-3600.656449375607
 10
1080.601056161538
 20
-3600.656449375607
 10
1080.601056161538
 20
-3599.752560575589
 10
1080.26772256197
 20
-3599.752560575589
 97
        0
 75
     0
 76
     1
 98
        0
  0
LWPOLYLINE
  5
2CC
330
1F
100
AcDbEntity
  8
Ech.1_5
 62
     7
370
     9
100
AcDbPolyline
 90
        5
 70
     0
 43
0.0
 10
1080.26772256197
 20
-3600.656449375607
 10
1080.601056161538
 20
-3600.656449375607
 10
1080.601056161538
 20
-3599.752560575589
 10
1080.26772256197
 20
-3599.752560575589
 10
1080.26772256197
 20
-3600.656449375607
  0
HATCH
  5
2CD
330
1F
100
AcDbEntity
  8
Ech.1_5
 62
   252
440
 33554687
370
     5
100
AcDbHatch
 10
0.0
 20
0.0
 30
0.0
210
0.0
220
0.0
230
1.0
  2
SOLID
 70
     1
 71
     1
 91
        1
 92
        3
 72
     0
 73
     1
 93
        4
 10
1080.601055762187
 20
-3600.656449375607
 10
1080.934389361754
 20
-3600.656449375607
 10
1080.934389361754
 20
-3599.752560575589
 10
1080.601055762187
 20
-3599.752560575589
 97
        0
 75
     0
 76
     1
 98
        0
  0
LWPOLYLINE
  5
2CE
330
1F
100
AcDbEntity
  8
Ech.1_5
 62
     7
370
     9
100
AcDbPolyline
 90
        5
 70
     0
 43
0.0
 10
1080.601055762187
 20
-3600.656449375607
 10
1080.934389361754
 20
-3600.656449375607
 10
1080.934389361754
 20
-3599.752560575589
 10
1080.601055762187
 20
-3599.752560575589
 10
1080.601055762187
 20
-3600.656449375607
  0
HATCH
  5
2CF
330
1F
100
AcDbEntity
  8
Ech.1_5
 62
   252
440
 33554687
370
     5
100
AcDbHatch
 10
0.0
 20
0.0
 30
0.0
210
0.0
220
0.0
230
1.0
  2
SOLID
 70
     1
 71
     1
 91
        1
 92
        3
 72
     0
 73
     1
 93
        4
 10
1080.934389361754
 20
-3600.656449375607
 10
1081.267722961322
 20
-3600.656449375607
 10
1081.267722961322
 20
-3599.752560575589
 10
1080.934389361754
 20
-3599.752560575589
 97
        0
 75
     0
 76
     1
 98
        0
  0
LWPOLYLINE
  5
2D0
330
1F
100
AcDbEntity
  8
Ech.1_5
 62
     7
370
     9
100
AcDbPolyline
 90
        5
 70
     0
 43
0.0
 10
1080.934389361754
 20
-3600.656449375607
 10
1081.267722961322
 20
-3600.656449375607
 10
1081.267722961322
 20
-3599.752560575589
 10
1080.934389361754
 20
-3599.752560575589
 10
1080.934389361754
 20
-3600.656449375607
  0
HATCH
  5
2D1
330
1F
100
AcDbEntity
  8
Ech.1_5
 62
   252
440
 33554687
370
     5
100
AcDbHatch
 10
0.0
 20
0.0
 30
0.0
210
0.0
220
0.0
230
1.0
  2
SOLID
 70
     1
 71
     1
 91
        1
 92
        3
 72
     0
 73
     1
 93
        4
 10
1081.26772256197
 20
-3600.656449375607
 10
1081.601056161538
 20
-3600.656449375607
 10
1081.601056161538
 20
-3599.752560575589
 10
1081.26772256197
 20
-3599.752560575589
 97
        0
 75
     0
 76
     1
 98
        0
  0
LWPOLYLINE
  5
2D2
330
1F
100
AcDbEntity
  8
Ech.1_5
 62
     7
370
     9
100
AcDbPolyline
 90
        5
 70
     0
 43
0.0
 10
1081.26772256197
 20
-3600.656449375607
 10
1081.601056161538
 20
-3600.656449375607
 10
1081.601056161538
 20
-3599.752560575589
 10
1081.26772256197
 20
-3599.752560575589
 10
1081.26772256197
 20
-3600.656449375607
  0
HATCH
  5
2D3
330
1F
100
AcDbEntity
  8
Ech.1_5
 62
   252
440
 33554687
370
     5
100
AcDbHatch
 10
0.0
 20
0.0
 30
0.0
210
0.0
220
0.0
230
1.0
  2
SOLID
 70
     1
 71
     1
 91
        1
 92
        3
 72
     0
 73
     1
 93
        4
 10
1081.601056161538
 20
-3600.656449375607
 10
1081.934389761105
 20
-3600.656449375607
 10
1081.934389761105
 20
-3599.752560575589
 10
1081.601056161538
 20
-3599.752560575589
 97
        0
 75
     0
 76
     1
 98
        0
  0
LWPOLYLINE
  5
2D4
330
1F
100
AcDbEntity
  8
Ech.1_5
 62
     7
370
     9
100
AcDbPolyline
 90
        5
 70
     0
 43
0.0
 10
1081.601056161538
 20
-3600.656449375607
 10
1081.934389761105
 20
-3600.656449375607
 10
1081.934389761105
 20
-3599.752560575589
 10
1081.601056161538
 20
-3599.752560575589
 10
1081.601056161538
 20
-3600.656449375607
  0
HATCH
  5
2D5
330
1F
100
AcDbEntity
  8
Ech.1_5
 62
   252
440
 33554687
370
     5
100
AcDbHatch
 10
0.0
 20
0.0
 30
0.0
210
0.0
220
0.0
230
1.0
  2
SOLID
 70
     1
 71
     1
 91
        1
 92
        3
 72
     0
 73
     1
 93
        4
 10
1081.934388962403
 20
-3600.656449375607
 10
1082.26772256197
 20
-3600.656449375607
 10
1082.26772256197
 20
-3599.752560575589
 10
1081.934388962403
 20
-3599.752560575589
 97
        0
 75
     0
 76
     1
 98
        0
  0
LWPOLYLINE
  5
2D6
330
1F
100
AcDbEntity
  8
Ech.1_5
 62
     7
370
     9
100
AcDbPolyline
 90
        5
 70
     0
 43
0.0
 10
1081.934388962403
 20
-3600.656449375607
 10
1082.26772256197
 20
-3600.656449375607
 10
1082.26772256197
 20
-3599.752560575589
 10
1081.934388962403
 20
-3599.752560575589
 10
1081.934388962403
 20
-3600.656449375607
  0
HATCH
  5
2D7
330
1F
100
AcDbEntity
  8
Ech.1_5
 62
   252
440
 33554687
370
     5
100
AcDbHatch
 10
0.0
 20
0.0
 30
0.0
210
0.0
220
0.0
230
1.0
  2
SOLID
 70
     1
 71
     1
 91
        1
 92
        3
 72
     0
 73
     1
 93
        4
 10
1082.26772256197
 20
-3600.656449375607
 10
1082.601056161538
 20
-3600.656449375607
 10
1082.601056161538
 20
-3599.752560575589
 10
1082.26772256197
 20
-3599.752560575589
 97
        0
 75
     0
 76
     1
 98
        0
  0
LWPOLYLINE
  5
2D8
330
1F
100
AcDbEntity
  8
Ech.1_5
 62
     7
370
     9
100
AcDbPolyline
 90
        5
 70
     0
 43
0.0
 10
1082.26772256197
 20
-3600.656449375607
 10
1082.601056161538
 20
-3600.656449375607
 10
1082.601056161538
 20
-3599.752560575589
 10
1082.26772256197
 20
-3599.752560575589
 10
1082.26772256197
 20
-3600.656449375607
  0
HATCH
  5
2D9
330
1F
100
AcDbEntity
  8
Ech.1_5
 62
   252
440
 33554687
370
     5
100
AcDbHatch
 10
0.0
 20
0.0
 30
0.0
210
0.0
220
0.0
230
1.0
  2
SOLID
 70
     1
 71
     1
 91
        1
 92
        3
 72
     0
 73
     1
 93
        4
 10
1082.601056161538
 20
-3600.656449375607
 10
1082.934389761105
 20
-3600.656449375607
 10
1082.934389761105
 20
-3599.752560575589
 10
1082.601056161538
 20
-3599.752560575589
 97
        0
 75
     0
 76
     1
 98
        0
  0
LWPOLYLINE
  5
2DA
330
1F
100
AcDbEntity
  8
Ech.1_5
 62
     7
370
     9
100
AcDbPolyline
 90
        5
 70
     0
 43
0.0
 10
1082.601056161538
 20
-3600.656449375607
 10
1082.934389761105
 20
-3600.656449375607
 10
1082.934389761105
 20
-3599.752560575589
 10
1082.601056161538
 20
-3599.752560575589
 10
1082.601056161538
 20
-3600.656449375607
  0
HATCH
  5
2DB
330
1F
100
AcDbEntity
  8
Ech.1_5
 62
   252
440
 33554687
370
     5
100
AcDbHatch
 10
0.0
 20
0.0
 30
0.0
210
0.0
220
0.0
230
1.0
  2
SOLID
 70
     1
 71
     1
 91
        1
 92
        3
 72
     0
 73
     1
 93
        4
 10
1082.934389761105
 20
-3600.656449375607
 10
1083.267723360673
 20
-3600.656449375607
 10
1083.267723360673
 20
-3599.752560575589
 10
1082.934389761105
 20
-3599.752560575589
 97
        0
 75
     0
 76
     1
 98
        0
  0
LWPOLYLINE
  5
2DC
330
1F
100
AcDbEntity
  8
Ech.1_5
 62
     7
370
     9
100
AcDbPolyline
 90
        5
 70
     0
 43
0.0
 10
1082.934389761105
 20
-3600.656449375607
 10
1083.267723360673
 20
-3600.656449375607
 10
1083.267723360673
 20
-3599.752560575589
 10
1082.934389761105
 20
-3599.752560575589
 10
1082.934389761105
 20
-3600.656449375607
  0
HATCH
  5
2DD
330
1F
100
AcDbEntity
  8
Ech.1_5
 62
   252
440
 33554687
370
     5
100
AcDbHatch
 10
0.0
 20
0.0
 30
0.0
210
0.0
220
0.0
230
1.0
  2
SOLID
 70
     1
 71
     1
 91
        1
 92
        3
 72
     0
 73
     1
 93
        4
 10
1083.267723360673
 20
-3600.656449375607
 10
1083.60105696024
 20
-3600.656449375607
 10
1083.60105696024
 20
-3599.752560575589
 10
1083.267723360673
 20
-3599.752560575589
 97
        0
 75
     0
 76
     1
 98
        0
  0
LWPOLYLINE
  5
2DE
330
1F
100
AcDbEntity
  8
Ech.1_5
 62
     7
370
     9
100
AcDbPolyline
 90
        5
 70
     0
 43
0.0
 10
1083.267723360673
 20
-3600.656449375607
 10
1083.60105696024
 20
-3600.656449375607
 10
1083.60105696024
 20
-3599.752560575589
 10
1083.267723360673
 20
-3599.752560575589
 10
1083.267723360673
 20
-3600.656449375607
  0
HATCH
  5
2DF
330
1F
100
AcDbEntity
  8
Ech.1_5
 62
   252
440
 33554687
370
     5
100
AcDbHatch
 10
0.0
 20
0.0
 30
0.0
210
0.0
220
0.0
230
1.0
  2
SOLID
 70
     1
 71
     1
 91
        1
 92
        3
 72
     0
 73
     1
 93
        4
 10
1083.601056161538
 20
-3600.656449375607
 10
1083.934389761105
 20
-3600.656449375607
 10
1083.934389761105
 20
-3599.752560575589
 10
1083.601056161538
 20
-3599.752560575589
 97
        0
 75
     0
 76
     1
 98
        0
  0
LWPOLYLINE
  5
2E0
330
1F
100
AcDbEntity
  8
Ech.1_5
 62
     7
370
     9
100
AcDbPolyline
 90
        5
 70
     0
 43
0.0
 10
1083.601056161538
 20
-3600.656449375607
 10
1083.934389761105
 20
-3600.656449375607
 10
1083.934389761105
 20
-3599.752560575589
 10
1083.601056161538
 20
-3599.752560575589
 10
1083.601056161538
 20
-3600.656449375607
  0
HATCH
  5
2E1
330
1F
100
AcDbEntity
  8
Ech.1_5
 62
   252
440
 33554687
370
     5
100
AcDbHatch
 10
0.0
 20
0.0
 30
0.0
210
0.0
220
0.0
230
1.0
  2
SOLID
 70
     1
 71
     1
 91
        1
 92
        3
 72
     0
 73
     1
 93
        4
 10
1083.934389361754
 20
-3600.656449375607
 10
1084.267722961322
 20
-3600.656449375607
 10
1084.267722961322
 20
-3599.752560575589
 10
1083.934389361754
 20
-3599.752560575589
 97
        0
 75
     0
 76
     1
 98
        0
  0
LWPOLYLINE
  5
2E2
330
1F
100
AcDbEntity
  8
Ech.1_5
 62
     7
370
     9
100
AcDbPolyline
 90
        5
 70
     0
 43
0.0
 10
1083.934389361754
 20
-3600.656449375607
 10
1084.267722961322
 20
-3600.656449375607
 10
1084.267722961322
 20
-3599.752560575589
 10
1083.934389361754
 20
-3599.752560575589
 10
1083.934389361754
 20
-3600.656449375607
  0
HATCH
  5
2E3
330
1F
100
AcDbEntity
  8
Ech.1_5
 62
   252
440
 33554687
370
     5
100
AcDbHatch
 10
0.0
 20
0.0
 30
0.0
210
0.0
220
0.0
230
1.0
  2
SOLID
 70
     1
 71
     1
 91
        1
 92
        3
 72
     0
 73
     1
 93
        4
 10
1084.267722961322
 20
-3600.656449375607
 10
1084.601056560889
 20
-3600.656449375607
 10
1084.601056560889
 20
-3599.752560575589
 10
1084.267722961322
 20
-3599.752560575589
 97
        0
 75
     0
 76
     1
 98
        0
  0
LWPOLYLINE
  5
2E4
330
1F
100
AcDbEntity
  8
Ech.1_5
 62
     7
370
     9
100
AcDbPolyline
 90
        5
 70
     0
 43
0.0
 10
1084.267722961322
 20
-3600.656449375607
 10
1084.601056560889
 20
-3600.656449375607
 10
1084.601056560889
 20
-3599.752560575589
 10
1084.267722961322
 20
-3599.752560575589
 10
1084.267722961322
 20
-3600.656449375607
  0
HATCH
  5
2E5
330
1F
100
AcDbEntity
  8
Ech.1_5
 62
   252
440
 33554687
370
     5
100
AcDbHatch
 10
0.0
 20
0.0
 30
0.0
210
0.0
220
0.0
230
1.0
  2
SOLID
 70
     1
 71
     1
 91
        1
 92
        3
 72
     0
 73
     1
 93
        4
 10
1084.601056161538
 20
-3600.656449375607
 10
1084.934389761105
 20
-3600.656449375607
 10
1084.934389761105
 20
-3599.752560575589
 10
1084.601056161538
 20
-3599.752560575589
 97
        0
 75
     0
 76
     1
 98
        0
  0
LWPOLYLINE
  5
2E6
330
1F
100
AcDbEntity
  8
Ech.1_5
 62
     7
370
     9
100
AcDbPolyline
 90
        5
 70
     0
 43
0.0
 10
1084.601056161538
 20
-3600.656449375607
 10
1084.934389761105
 20
-3600.656449375607
 10
1084.934389761105
 20
-3599.752560575589
 10
1084.601056161538
 20
-3599.752560575589
 10
1084.601056161538
 20
-3600.656449375607
  0
HATCH
  5
2E7
330
1F
100
AcDbEntity
  8
Ech.1_5
 62
   252
440
 33554687
370
     5
100
AcDbHatch
 10
0.0
 20
0.0
 30
0.0
210
0.0
220
0.0
230
1.0
  2
SOLID
 70
     1
 71
     1
 91
        1
 92
        3
 72
     0
 73
     1
 93
        4
 10
1084.934389761105
 20
-3600.656449375607
 10
1085.267723360673
 20
-3600.656449375607
 10
1085.267723360673
 20
-3599.752560575589
 10
1084.934389761105
 20
-3599.752560575589
 97
        0
 75
     0
 76
     1
 98
        0
  0
LWPOLYLINE
  5
2E8
330
1F
100
AcDbEntity
  8
Ech.1_5
 62
     7
370
     9
100
AcDbPolyline
 90
        5
 70
     0
 43
0.0
 10
1084.934389761105
 20
-3600.656449375607
 10
1085.267723360673
 20
-3600.656449375607
 10
1085.267723360673
 20
-3599.752560575589
 10
1084.934389761105
 20
-3599.752560575589
 10
1084.934389761105
 20
-3600.656449375607
  0
HATCH
  5
2E9
330
1F
100
AcDbEntity
  8
Ech.1_5
 62
   252
440
 33554687
370
     5
100
AcDbHatch
 10
0.0
 20
0.0
 30
0.0
210
0.0
220
0.0
230
1.0
  2
SOLID
 70
     1
 71
     1
 91
        1
 92
        3
 72
     0
 73
     1
 93
        4
 10
1085.26772256197
 20
-3600.656449375607
 10
1085.601056161538
 20
-3600.656449375607
 10
1085.601056161538
 20
-3599.752560575589
 10
1085.26772256197
 20
-3599.752560575589
 97
        0
 75
     0
 76
     1
 98
        0
  0
LWPOLYLINE
  5
2EA
330
1F
100
AcDbEntity
  8
Ech.1_5
 62
     7
370
     9
100
AcDbPolyline
 90
        5
 70
     0
 43
0.0
 10
1085.26772256197
 20
-3600.656449375607
 10
1085.601056161538
 20
-3600.656449375607
 10
1085.601056161538
 20
-3599.752560575589
 10
1085.26772256197
 20
-3599.752560575589
 10
1085.26772256197
 20
-3600.656449375607
  0
HATCH
  5
2EB
330
1F
100
AcDbEntity
  8
Ech.1_5
 62
   252
440
 33554687
370
     5
100
AcDbHatch
 10
0.0
 20
0.0
 30
0.0
210
0.0
220
0.0
230
1.0
  2
SOLID
 70
     1
 71
     1
 91
        1
 92
        3
 72
     0
 73
     1
 93
        4
 10
1085.601055362835
 20
-3600.656449375607
 10
1085.934388962403
 20
-3600.656449375607
 10
1085.934388962403
 20
-3599.752560575589
 10
1085.601055362835
 20
-3599.752560575589
 97
        0
 75
     0
 76
     1
 98
        0
  0
LWPOLYLINE
  5
2EC
330
1F
100
AcDbEntity
  8
Ech.1_5
 62
     7
370
     9
100
AcDbPolyline
 90
        5
 70
     0
 43
0.0
 10
1085.601055362835
 20
-3600.656449375607
 10
1085.934388962403
 20
-3600.656449375607
 10
1085.934388962403
 20
-3599.752560575589
 10
1085.601055362835
 20
-3599.752560575589
 10
1085.601055362835
 20
-3600.656449375607
  0
HATCH
  5
2ED
330
1F
100
AcDbEntity
  8
Ech.1_5
 62
   252
440
 33554687
370
     5
100
AcDbHatch
 10
0.0
 20
0.0
 30
0.0
210
0.0
220
0.0
230
1.0
  2
SOLID
 70
     1
 71
     1
 91
        1
 92
        3
 72
     0
 73
     1
 93
        4
 10
1085.934388962403
 20
-3600.656449375607
 10
1086.26772256197
 20
-3600.656449375607
 10
1086.26772256197
 20
-3599.752560575589
 10
1085.934388962403
 20
-3599.752560575589
 97
        0
 75
     0
 76
     1
 98
        0
  0
LWPOLYLINE
  5
2EE
330
1F
100
AcDbEntity
  8
Ech.1_5
 62
     7
370
     9
100
AcDbPolyline
 90
        5
 70
     0
 43
0.0
 10
1085.934388962403
 20
-3600.656449375607
 10
1086.26772256197
 20
-3600.656449375607
 10
1086.26772256197
 20
-3599.752560575589
 10
1085.934388962403
 20
-3599.752560575589
 10
1085.934388962403
 20
-3600.656449375607
  0
HATCH
  5
2EF
330
1F
100
AcDbEntity
  8
Ech.1_5
 62
   252
440
 33554687
370
     5
100
AcDbHatch
 10
0.0
 20
0.0
 30
0.0
210
0.0
220
0.0
230
1.0
  2
SOLID
 70
     1
 71
     1
 91
        1
 92
        3
 72
     0
 73
     1
 93
        4
 10
1086.26772256197
 20
-3600.656449375607
 10
1086.601056161538
 20
-3600.656449375607
 10
1086.601056161538
 20
-3599.752560575589
 10
1086.26772256197
 20
-3599.752560575589
 97
        0
 75
     0
 76
     1
 98
        0
  0
LWPOLYLINE
  5
2F0
330
1F
100
AcDbEntity
  8
Ech.1_5
 62
     7
370
     9
100
AcDbPolyline
 90
        5
 70
     0
 43
0.0
 10
1086.26772256197
 20
-3600.656449375607
 10
1086.601056161538
 20
-3600.656449375607
 10
1086.601056161538
 20
-3599.752560575589
 10
1086.26772256197
 20
-3599.752560575589
 10
1086.26772256197
 20
-3600.656449375607
  0
HATCH
  5
2F1
330
1F
100
AcDbEntity
  8
Ech.1_5
 62
   252
440
 33554687
370
     5
100
AcDbHatch
 10
0.0
 20
0.0
 30
0.0
210
0.0
220
0.0
230
1.0
  2
SOLID
 70
     1
 71
     1
 91
        1
 92
        3
 72
     0
 73
     1
 93
        4
 10
1086.601056161538
 20
-3600.656449375607
 10
1086.934389761105
 20
-3600.656449375607
 10
1086.934389761105
 20
-3599.752560575589
 10
1086.601056161538
 20
-3599.752560575589
 97
        0
 75
     0
 76
     1
 98
        0
  0
LWPOLYLINE
  5
2F2
330
1F
100
AcDbEntity
  8
Ech.1_5
 62
     7
370
     9
100
AcDbPolyline
 90
        5
 70
     0
 43
0.0
 10
1086.601056161538
 20
-3600.656449375607
 10
1086.934389761105
 20
-3600.656449375607
 10
1086.934389761105
 20
-3599.752560575589
 10
1086.601056161538
 20
-3599.752560575589
 10
1086.601056161538
 20
-3600.656449375607
  0
HATCH
  5
2F3
330
1F
100
AcDbEntity
  8
Ech.1_5
 62
   252
440
 33554687
370
     5
100
AcDbHatch
 10
0.0
 20
0.0
 30
0.0
210
0.0
220
0.0
230
1.0
  2
SOLID
 70
     1
 71
     1
 91
        1
 92
        3
 72
     0
 73
     1
 93
        4
 10
1086.934388962403
 20
-3600.656449375607
 10
1087.26772256197
 20
-3600.656449375607
 10
1087.26772256197
 20
-3599.752560575589
 10
1086.934388962403
 20
-3599.752560575589
 97
        0
 75
     0
 76
     1
 98
        0
  0
LWPOLYLINE
  5
2F4
330
1F
100
AcDbEntity
  8
Ech.1_5
 62
     7
370
     9
100
AcDbPolyline
 90
        5
 70
     0
 43
0.0
 10
1086.934388962403
 20
-3600.656449375607
 10
1087.26772256197
 20
-3600.656449375607
 10
1087.26772256197
 20
-3599.752560575589
 10
1086.934388962403
 20
-3599.752560575589
 10
1086.934388962403
 20
-3600.656449375607
  0
HATCH
  5
2F5
330
1F
100
AcDbEntity
  8
Ech.1_5
 62
   252
440
 33554687
370
     5
100
AcDbHatch
 10
0.0
 20
0.0
 30
0.0
210
0.0
220
0.0
230
1.0
  2
SOLID
 70
     1
 71
     1
 91
        1
 92
        3
 72
     0
 73
     1
 93
        4
 10
1087.267722162619
 20
-3600.656449375607
 10
1087.601055762187
 20
-3600.656449375607
 10
1087.601055762187
 20
-3599.752560575589
 10
1087.267722162619
 20
-3599.752560575589
 97
        0
 75
     0
 76
     1
 98
        0
  0
LWPOLYLINE
  5
2F6
330
1F
100
AcDbEntity
  8
Ech.1_5
 62
     7
370
     9
100
AcDbPolyline
 90
        5
 70
     0
 43
0.0
 10
1087.267722162619
 20
-3600.656449375607
 10
1087.601055762187
 20
-3600.656449375607
 10
1087.601055762187
 20
-3599.752560575589
 10
1087.267722162619
 20
-3599.752560575589
 10
1087.267722162619
 20
-3600.656449375607
  0
HATCH
  5
2F7
330
1F
100
AcDbEntity
  8
Ech.1_5
 62
   252
440
 33554687
370
     5
100
AcDbHatch
 10
0.0
 20
0.0
 30
0.0
210
0.0
220
0.0
230
1.0
  2
SOLID
 70
     1
 71
     1
 91
        1
 92
        3
 72
     0
 73
     1
 93
        4
 10
1087.601055762187
 20
-3600.656449375607
 10
1087.934389361754
 20
-3600.656449375607
 10
1087.934389361754
 20
-3599.752560575589
 10
1087.601055762187
 20
-3599.752560575589
 97
        0
 75
     0
 76
     1
 98
        0
  0
LWPOLYLINE
  5
2F8
330
1F
100
AcDbEntity
  8
Ech.1_5
 62
     7
370
     9
100
AcDbPolyline
 90
        5
 70
     0
 43
0.0
 10
1087.601055762187
 20
-3600.656449375607
 10
1087.934389361754
 20
-3600.656449375607
 10
1087.934389361754
 20
-3599.752560575589
 10
1087.601055762187
 20
-3599.752560575589
 10
1087.601055762187
 20
-3600.656449375607
  0
HATCH
  5
2F9
330
1F
100
AcDbEntity
  8
Ech.1_5
 62
   252
440
 33554687
370
     5
100
AcDbHatch
 10
0.0
 20
0.0
 30
0.0
210
0.0
220
0.0
230
1.0
  2
SOLID
 70
     1
 71
     1
 91
        1
 92
        3
 72
     0
 73
     1
 93
        4
 10
1087.934388962403
 20
-3600.656449375607
 10
1088.26772256197
 20
-3600.656449375607
 10
1088.26772256197
 20
-3599.752560575589
 10
1087.934388962403
 20
-3599.752560575589
 97
        0
 75
     0
 76
     1
 98
        0
  0
LWPOLYLINE
  5
2FA
330
1F
100
AcDbEntity
  8
Ech.1_5
 62
     7
370
     9
100
AcDbPolyline
 90
        5
 70
     0
 43
0.0
 10
1087.934388962403
 20
-3600.656449375607
 10
1088.26772256197
 20
-3600.656449375607
 10
1088.26772256197
 20
-3599.752560575589
 10
1087.934388962403
 20
-3599.752560575589
 10
1087.934388962403
 20
-3600.656449375607
  0
HATCH
  5
2FB
330
1F
100
AcDbEntity
  8
Ech.1_5
 62
   252
440
 33554687
370
     5
100
AcDbHatch
 10
0.0
 20
0.0
 30
0.0
210
0.0
220
0.0
230
1.0
  2
SOLID
 70
     1
 71
     1
 91
        1
 92
        3
 72
     0
 73
     1
 93
        4
 10
1088.26772256197
 20
-3600.656449375607
 10
1088.601056161538
 20
-3600.656449375607
 10
1088.601056161538
 20
-3599.752560575589
 10
1088.26772256197
 20
-3599.752560575589
 97
        0
 75
     0
 76
     1
 98
        0
  0
LWPOLYLINE
  5
2FC
330
1F
100
AcDbEntity
  8
Ech.1_5
 62
     7
370
     9
100
AcDbPolyline
 90
        5
 70
     0
 43
0.0
 10
1088.26772256197
 20
-3600.656449375607
 10
1088.601056161538
 20
-3600.656449375607
 10
1088.601056161538
 20
-3599.752560575589
 10
1088.26772256197
 20
-3599.752560575589
 10
1088.26772256197
 20
-3600.656449375607
  0
HATCH
  5
2FD
330
1F
100
AcDbEntity
  8
Ech.1_5
 62
   252
440
 33554687
370
     5
100
AcDbHatch
 10
0.0
 20
0.0
 30
0.0
210
0.0
220
0.0
230
1.0
  2
SOLID
 70
     1
 71
     1
 91
        1
 92
        3
 72
     0
 73
     1
 93
        4
 10
1088.601055362835
 20
-3600.656449375607
 10
1088.934388962403
 20
-3600.656449375607
 10
1088.934388962403
 20
-3599.752560575589
 10
1088.601055362835
 20
-3599.752560575589
 97
        0
 75
     0
 76
     1
 98
        0
  0
LWPOLYLINE
  5
2FE
330
1F
100
AcDbEntity
  8
Ech.1_5
 62
     7
370
     9
100
AcDbPolyline
 90
        5
 70
     0
 43
0.0
 10
1088.601055362835
 20
-3600.656449375607
 10
1088.934388962403
 20
-3600.656449375607
 10
1088.934388962403
 20
-3599.752560575589
 10
1088.601055362835
 20
-3599.752560575589
 10
1088.601055362835
 20
-3600.656449375607
  0
HATCH
  5
2FF
330
1F
100
AcDbEntity
  8
Ech.1_5
 62
   252
440
 33554687
370
     5
100
AcDbHatch
 10
0.0
 20
0.0
 30
0.0
210
0.0
220
0.0
230
1.0
  2
SOLID
 70
     1
 71
     1
 91
        1
 92
        3
 72
     0
 73
     1
 93
        4
 10
1088.934388962403
 20
-3600.656449375607
 10
1089.26772256197
 20
-3600.656449375607
 10
1089.26772256197
 20
-3599.752560575589
 10
1088.934388962403
 20
-3599.752560575589
 97
        0
 75
     0
 76
     1
 98
        0
  0
LWPOLYLINE
  5
300
330
1F
100
AcDbEntity
  8
Ech.1_5
 62
     7
370
     9
100
AcDbPolyline
 90
        5
 70
     0
 43
0.0
 10
1088.934388962403
 20
-3600.656449375607
 10
1089.26772256197
 20
-3600.656449375607
 10
1089.26772256197
 20
-3599.752560575589
 10
1088.934388962403
 20
-3599.752560575589
 10
1088.934388962403
 20
-3600.656449375607
  0
HATCH
  5
301
330
1F
100
AcDbEntity
  8
Ech.1_5
 62
   252
440
 33554687
370
     5
100
AcDbHatch
 10
0.0
 20
0.0
 30
0.0
210
0.0
220
0.0
230
1.0
  2
SOLID
 70
     1
 71
     1
 91
        1
 92
        3
 72
     0
 73
     1
 93
        4
 10
1089.26772256197
 20
-3600.656449375607
 10
1089.601056161538
 20
-3600.656449375607
 10
1089.601056161538
 20
-3599.752560575589
 10
1089.26772256197
 20
-3599.752560575589
 97
        0
 75
     0
 76
     1
 98
        0
  0
LWPOLYLINE
  5
302
330
1F
100
AcDbEntity
  8
Ech.1_5
 62
     7
370
     9
100
AcDbPolyline
 90
        5
 70
     0
 43
0.0
 10
1089.26772256197
 20
-3600.656449375607
 10
1089.601056161538
 20
-3600.656449375607
 10
1089.601056161538
 20
-3599.752560575589
 10
1089.26772256197
 20
-3599.752560575589
 10
1089.26772256197
 20
-3600.656449375607
  0
HATCH
  5
303
330
1F
100
AcDbEntity
  8
Ech.1_5
 62
   252
440
 33554687
370
     5
100
AcDbHatch
 10
0.0
 20
0.0
 30
0.0
210
0.0
220
0.0
230
1.0
  2
SOLID
 70
     1
 71
     1
 91
        1
 92
        3
 72
     0
 73
     1
 93
        4
 10
1089.601056161538
 20
-3600.656449375607
 10
1089.934389761105
 20
-3600.656449375607
 10
1089.934389761105
 20
-3599.752560575589
 10
1089.601056161538
 20
-3599.752560575589
 97
        0
 75
     0
 76
     1
 98
        0
  0
LWPOLYLINE
  5
304
330
1F
100
AcDbEntity
  8
Ech.1_5
 62
     7
370
     9
100
AcDbPolyline
 90
        5
 70
     0
 43
0.0
 10
1089.601056161538
 20
-3600.656449375607
 10
1089.934389761105
 20
-3600.656449375607
 10
1089.934389761105
 20
-3599.752560575589
 10
1089.601056161538
 20
-3599.752560575589
 10
1089.601056161538
 20
-3600.656449375607
  0
HATCH
  5
305
330
1F
100
AcDbEntity
  8
Ech.1_5
 62
   252
440
 33554687
370
     5
100
AcDbHatch
 10
0.0
 20
0.0
 30
0.0
210
0.0
220
0.0
230
1.0
  2
SOLID
 70
     1
 71
     1
 91
        1
 92
        3
 72
     1
 73
     1
 93
        4
 10
1091.814022561805
 20
-3599.752560575589
 42
0.0
 10
1091.267721763268
 20
-3599.752560575589
 42
0.0
 10
1091.267721763268
 20
-3600.656449375607
 42
0.0
 10
1091.814022561805
 20
-3600.656449375607
 42
-0.3513591548521035
 97
        0
 75
     0
 76
     1
 98
        0
  0
LWPOLYLINE
  5
306
330
1F
100
AcDbEntity
  8
Ech.1_5
 62
     7
370
     9
100
AcDbPolyline
 90
        5
 70
     0
 43
0.0
 10
1091.814022561805
 20
-3599.752560575589
 10
1091.267721763268
 20
-3599.752560575589
 10
1091.267721763268
 20
-3600.656449375607
 10
1091.814022561805
 20
-3600.656449375607
 42
-0.3513591548518972
 10
1091.814022561805
 20
-3599.752560575589
  0
HATCH
  5
307
330
1F
100
AcDbEntity
  8
Ech.1_5
 62
   252
440
 33554687
370
     5
100
AcDbHatch
 10
0.0
 20
0.0
 30
0.0
210
0.0
220
0.0
230
1.0
  2
SOLID
 70
     1
 71
     1
 91
        1
 92
        3
 72
     1
 73
     1
 93
        3
 10
1092.878833362357
 20
-3600.204504975587
 42
0.0
 10
1091.814022561805
 20
-3599.752560575589
 42
0.3513591548519267
 10
1091.814022561805
 20
-3600.656449375607
 42
0.0
 97
        0
 75
     0
 76
     1
 98
        0
  0
LWPOLYLINE
  5
308
330
1F
100
AcDbEntity
  8
Ech.1_5
 62
     7
370
     9
100
AcDbPolyline
 90
        4
 70
     0
 43
0.0
 10
1092.878833362357
 20
-3600.204504975587
 10
1091.814022561805
 20
-3599.752560575589
 42
0.3513591548518956
 10
1091.814022561805
 20
-3600.656449375607
 10
1092.878833362357
 20
-3600.204504975587
  0
HATCH
  5
309
330
1F
100
AcDbEntity
  8
Ech.1_5
 62
   252
440
 33554687
370
     5
100
AcDbHatch
 10
0.0
 20
0.0
 30
0.0
210
0.0
220
0.0
230
1.0
  2
SOLID
 70
     1
 71
     1
 91
        1
 92
        3
 72
     1
 73
     1
 93
        6
 10
1075.601055362835
 20
-3600.656449375605
 42
0.0
 10
1074.901055762069
 20
-3600.656449375607
 42
0.4142135727498601
 10
1074.678833362357
 20
-3600.878671775598
 42
0.0
 10
1074.678833362357
 20
-3599.530338175572
 42
0.4142135726669576
 10
1074.901055762069
 20
-3599.752560575589
 42
0.0
 10
1075.601055362835
 20
-3599.752560575589
 42
0.0
 97
        0
 75
     0
 76
     1
 98
        0
  0
LWPOLYLINE
  5
30A
330
1F
100
AcDbEntity
  8
Ech.1_5
 62
     7
370
     9
100
AcDbPolyline
 90
        7
 70
     0
 43
0.0
 10
1075.601055362835
 20
-3600.656449375605
 10
1074.901055762069
 20
-3600.656449375607
 42
0.4142135727497837
 10
1074.678833362357
 20
-3600.878671775598
 10
1074.678833362357
 20
-3599.530338175572
 42
0.414213572666436
 10
1074.901055762069
 20
-3599.752560575589
 10
1075.601055362835
 20
-3599.752560575589
 10
1075.601055362835
 20
-3600.656449375605
  0
HATCH
  5
30B
330
1F
100
AcDbEntity
  8
Ech.1_5
 62
   252
440
 33554687
370
     5
100
AcDbHatch
 10
0.0
 20
0.0
 30
0.0
210
0.0
220
0.0
230
1.0
  2
SOLID
 70
     1
 71
     1
 91
        1
 92
        1
 93
        2
 72
     1
 10
1074.556611361997
 20
-3601.212004986152
 11
1074.556611361997
 21
-3599.197004965044
 72
     2
 10
1079.581892718326
 20
-3600.204504975598
 40
5.125281356329573
 50
168.6632793503046
 51
191.3367206496955
 73
     1
 97
        0
 75
     0
 76
     1
 98
        0
  0
LWPOLYLINE
  5
30C
330
1F
100
AcDbEntity
  8
Ech.1_5
 62
     7
370
     9
100
AcDbPolyline
 90
        3
 70
     0
 43
0.0
 10
1074.556611361997
 20
-3601.212004986152
 10
1074.556611361997
 20
-3599.197004965044
 42
0.0992555820868614
 10
1074.556611361997
 20
-3601.212004986152
  0
HATCH
  5
30D
330
1F
100
AcDbEntity
  8
Ech.1_5
 62
   252
440
 33554687
370
     5
100
AcDbHatch
 10
0.0
 20
0.0
 30
0.0
210
0.0
220
0.0
230
1.0
  2
SOLID
 70
     1
 71
     1
 91
        1
 92
        3
 72
     0
 73
     1
 93
        6
 10
1074.678833362357
 20
-3601.212004975582
 10
1074.678833362357
 20
-3600.878671775598
 10
1074.678833362357
 20
-3599.530338175572
 10
1074.678833362358
 20
-3599.197004975591
 10
1074.556611361997
 20
-3599.197004965044
 10
1074.556611361997
 20
-3601.212004986152
 97
        0
 75
     0
 76
     1
 98
        0
  0
LWPOLYLINE
  5
30E
330
1F
100
AcDbEntity
  8
Ech.1_5
 62
     7
370
     9
100
AcDbPolyline
 90
        7
 70
     0
 43
0.0
 10
1074.678833362357
 20
-3601.212004975582
 10
1074.678833362357
 20
-3600.878671775598
 10
1074.678833362357
 20
-3599.530338175572
 10
1074.678833362358
 20
-3599.197004975591
 10
1074.556611361997
 20
-3599.197004965044
 10
1074.556611361997
 20
-3601.212004986152
 10
1074.678833362357
 20
-3601.212004975582
  0
HATCH
  5
30F
330
1F
100
AcDbEntity
  8
Ech.1_5
 62
   252
440
 33554687
370
     5
100
AcDbHatch
 10
0.0
 20
0.0
 30
0.0
210
0.0
220
0.0
230
1.0
  2
SOLID
 70
     1
 71
     1
 91
        1
 92
        3
 72
     0
 73
     1
 93
        4
 10
1089.934389761105
 20
-3600.656449375607
 10
1090.267723360673
 20
-3600.656449375607
 10
1090.267723360673
 20
-3599.752560575589
 10
1089.934389761105
 20
-3599.752560575589
 97
        0
 75
     0
 76
     1
 98
        0
  0
LWPOLYLINE
  5
310
330
1F
100
AcDbEntity
  8
Ech.1_5
 62
     7
370
     9
100
AcDbPolyline
 90
        5
 70
     0
 43
0.0
 10
1089.934389761105
 20
-3600.656449375607
 10
1090.267723360673
 20
-3600.656449375607
 10
1090.267723360673
 20
-3599.752560575589
 10
1089.934389761105
 20
-3599.752560575589
 10
1089.934389761105
 20
-3600.656449375607
  0
LINE
  5
311
330
1F
100
AcDbEntity
  8
Ech.1_5
 62
   190
370
     9
100
AcDbLine
 10
1090.601055362835
 20
-3599.752560575589
 30
0.0
 11
1090.601055362835
 21
-3600.656449375607
 31
0.0
  0
LINE
  5
312
330
1F
100
AcDbEntity
  8
Ech.1_5
 62
   190
370
     9
100
AcDbLine
 10
1090.934388962403
 20
-3599.752560575589
 30
0.0
 11
1090.934388962403
 21
-3600.656449375607
 31
0.0
  0
LINE
  5
313
330
1F
100
AcDbEntity
  8
Ech.1_5
 62
   190
370
     9
100
AcDbLine
 10
1091.267721763268
 20
-3599.752560575589
 30
0.0
 11
1091.267721763268
 21
-3600.656449375607
 31
0.0
  0
LINE
  5
314
330
1F
100
AcDbEntity
  8
Ech.1_5
 62
   190
370
     9
100
AcDbLine
 10
1090.26772256197
 20
-3599.752560575589
 30
0.0
 11
1090.26772256197
 21
-3600.656449375607
 31
0.0
  0
HATCH
  5
315
330
1F
100
AcDbEntity
  8
Ech.1_5
 62
   252
440
 33554687
370
     5
100
AcDbHatch
 10
0.0
 20
0.0
 30
0.0
210
0.0
220
0.0
230
1.0
  2
SOLID
 70
     1
 71
     1
 91
        1
 92
        3
 72
     0
 73
     1
 93
        4
 10
1090.267721763268
 20
-3600.656449375607
 10
1090.601055362835
 20
-3600.656449375607
 10
1090.601055362835
 20
-3599.752560575589
 10
1090.267721763268
 20
-3599.752560575589
 97
        0
 75
     0
 76
     1
 98
        0
  0
LWPOLYLINE
  5
316
330
1F
100
AcDbEntity
  8
Ech.1_5
 62
     7
370
     9
100
AcDbPolyline
 90
        5
 70
     0
 43
0.0
 10
1090.267721763268
 20
-3600.656449375607
 10
1090.601055362835
 20
-3600.656449375607
 10
1090.601055362835
 20
-3599.752560575589
 10
1090.267721763268
 20
-3599.752560575589
 10
1090.267721763268
 20
-3600.656449375607
  0
HATCH
  5
317
330
1F
100
AcDbEntity
  8
Ech.1_5
 62
   252
440
 33554687
370
     5
100
AcDbHatch
 10
0.0
 20
0.0
 30
0.0
210
0.0
220
0.0
230
1.0
  2
SOLID
 70
     1
 71
     1
 91
        1
 92
        3
 72
     0
 73
     1
 93
        4
 10
1090.934388163701
 20
-3600.656449375607
 10
1091.267721763268
 20
-3600.656449375607
 10
1091.267721763268
 20
-3599.752560575589
 10
1090.934388163701
 20
-3599.752560575589
 97
        0
 75
     0
 76
     1
 98
        0
  0
LWPOLYLINE
  5
318
330
1F
100
AcDbEntity
  8
Ech.1_5
 62
     7
370
     9
100
AcDbPolyline
 90
        5
 70
     0
 43
0.0
 10
1090.934388163701
 20
-3600.656449375607
 10
1091.267721763268
 20
-3600.656449375607
 10
1091.267721763268
 20
-3599.752560575589
 10
1090.934388163701
 20
-3599.752560575589
 10
1090.934388163701
 20
-3600.656449375607
  0
HATCH
  5
319
330
1F
100
AcDbEntity
  8
Ech.1_5
 62
    35
420
  9529928
440
 33554687
370
    20
100
AcDbHatch
 10
0.0
 20
0.0
 30
0.0
210
0.0
220
0.0
230
1.0
  2
SOLID
 70
     1
 71
     1
 91
        1
 92
        3
 72
     0
 73
     1
 93
        4
 10
1104.523890248653
 20
-3608.204504975587
 10
1104.523890248654
 20
-3457.957858198673
 10
1093.723890248625
 20
-3457.957858198673
 10
1093.723890248653
 20
-3608.204504975587
 97
        0
 75
     0
 76
     1
 98
        0
  0
LWPOLYLINE
  5
31A
330
1F
100
AcDbEntity
  8
Ech.1_5
 62
   190
370
    20
100
AcDbPolyline
 90
        5
 70
     0
 43
0.0
 10
1104.523890248653
 20
-3608.204504975587
 10
1104.523890248654
 20
-3457.957858198673
 10
1093.723890248625
 20
-3457.957858198673
 10
1093.723890248653
 20
-3608.204504975587
 10
1104.523890248653
 20
-3608.204504975587
  0
LWPOLYLINE
  5
31B
330
1F
100
AcDbEntity
  8
Ech.1_5
 62
   202
420
  8519880
370
    50
100
AcDbPolyline
 90
        4
 70
     0
 43
0.0
 10
1088.592868656652
 20
-3609.409524723586
 10
1099.646074248654
 20
-3608.967811771587
 42
0.351643470000531
 10
1103.836837636655
 20
-3605.001688407586
 10
1103.836837636655
 20
-3585.664431899585
  0
LWPOLYLINE
  5
31C
330
1F
100
AcDbEntity
  8
Ech.1_5
 62
   202
420
  8519880
370
    50
100
AcDbPolyline
 90
        4
 70
     0
 43
0.0
 10
1104.523890248653
 20
-3579.417854676508
 10
1104.523890248653
 20
-3584.613508044508
 10
1102.251645064653
 20
-3586.187400900507
 10
1102.251645064653
 20
-3591.578772900508
  0
LWPOLYLINE
  5
31D
330
1F
100
AcDbEntity
  8
Ech.1_5
 62
   190
370
    20
100
AcDbPolyline
 90
        3
 70
     0
 43
0.0
 10
1103.836837636655
 20
-3599.133944429828
 10
1062.704042605844
 20
-3583.882589908774
 10
1054.704042605844
 20
-3583.882589908774
  0
INSERT
  5
31E
330
1F
100
AcDbEntity
  8
Ech.1_5
 62
   190
370
    20
100
AcDbBlockReference
  2
cw-line-extremity4
 10
1103.836837636655
 20
-3599.133944429828
 30
0.0
 50
159.6560595042136
  0
LWPOLYLINE
  5
31F
330
1F
100
AcDbEntity
  8
Ech.1_5
 62
   190
370
    20
100
AcDbPolyline
 90
        3
 70
     0
 43
0.0
 10
1141.553846225204
 20
-3495.20980532972
 10
1062.704042605844
 20
-3495.20980532972
 10
1054.704042605844
 20
-3495.20980532972
  0
INSERT
  5
320
330
1F
100
AcDbEntity
  8
Ech.1_5
 62
   190
370
    20
100
AcDbBlockReference
  2
cw-line-extremity4
 10
1141.553846225204
 20
-3495.20980532972
 30
0.0
 50
180.0
  0
LWPOLYLINE
  5
321
330
1F
100
AcDbEntity
  8
Ech.1_5
 62
   190
370
    20
100
AcDbPolyline
 90
        3
 70
     0
 43
0.0
 10
1078.306690305076
 20
-3526.563469846009
 10
1062.704042605844
 20
-3526.563469846009
 10
1054.704042605844
 20
-3526.563469846009
  0
INSERT
  5
322
330
1F
100
AcDbEntity
  8
Ech.1_5
 62
   190
370
    20
100
AcDbBlockReference
  2
cw-line-extremity4
 10
1078.306690305076
 20
-3526.563469846009
 30
0.0
 50
180.0
  0
LWPOLYLINE
  5
323
330
1F
100
AcDbEntity
  8
Ech.1_5
 62
   190
370
    20
100
AcDbPolyline
 90
        3
 70
     0
 43
0.0
 10
1098.72102952383
 20
-3471.042683519348
 10
1062.704042605844
 20
-3471.042683519348
 10
1054.704042605844
 20
-3471.042683519348
  0
INSERT
  5
324
330
1F
100
AcDbEntity
  8
Ech.1_5
 62
   190
370
    20
100
AcDbBlockReference
  2
cw-line-extremity4
 10
1098.72102952383
 20
-3471.042683519348
 30
0.0
 50
180.0
  0
LWPOLYLINE
  5
325
330
1F
100
AcDbEntity
  8
Ech.1_5
 62
   190
370
    20
100
AcDbPolyline
 90
        6
 70
     0
 43
0.0
 10
1068.901055762069
 20
-3457.957879016663
 10
1143.623890248653
 20
-3457.957619753457
 10
1150.218091512654
 20
-3450.766680393457
 10
1144.574115504655
 20
-3465.148960397457
 10
1151.168657136655
 20
-3457.957619753457
 10
1185.523890248654
 20
-3457.957816086358
  0
HATCH
  5
326
330
1F
100
AcDbEntity
  8
Ech.1_5
 62
    35
420
  9529928
440
 33554687
370
    20
100
AcDbHatch
 10
0.0
 20
0.0
 30
0.0
210
0.0
220
0.0
230
1.0
  2
SOLID
 70
     1
 71
     1
 91
        1
 92
        3
 72
     0
 73
     1
 93
        4
 10
1104.523890248653
 20
-3615.621859559586
 10
1093.723890248653
 20
-3615.621859559586
 10
1093.723890248629
 20
-3779.113531980709
 10
1104.523890248654
 20
-3779.113531980709
 97
        0
 75
     0
 76
     1
 98
        0
  0
LWPOLYLINE
  5
327
330
1F
100
AcDbEntity
  8
Ech.1_5
 62
   190
370
    20
100
AcDbPolyline
 90
        5
 70
     0
 43
0.0
 10
1104.523890248653
 20
-3615.621859559586
 10
1093.723890248653
 20
-3615.621859559586
 10
1093.723890248629
 20
-3779.113531980709
 10
1104.523890248654
 20
-3779.113531980709
 10
1104.523890248653
 20
-3615.621859559586
  0
LWPOLYLINE
  5
328
330
1F
100
AcDbEntity
  8
Ech.1_5
 62
     7
370
    20
100
AcDbPolyline
 90
        3
 70
     0
 43
0.0
 10
1104.523890248653
 20
-3615.621859559586
 10
1093.723890248653
 20
-3615.621859559586
 10
1093.723890248653
 20
-3779.113531980709
  0
HATCH
  5
329
330
1F
100
AcDbEntity
  8
Ech.1_5
 62
    17
420
  8405056
440
 33554687
370
    20
100
AcDbHatch
 10
0.0
 20
0.0
 30
0.0
210
0.0
220
0.0
230
1.0
  2
SOLID
 70
     1
 71
     1
 91
        1
 92
        3
 72
     0
 73
     1
 93
        4
 10
1082.923890248653
 20
-3615.621859559586
 10
1074.901055762069
 20
-3615.621859559586
 10
1074.901055762069
 20
-3779.11352229166
 10
1082.903827987319
 20
-3779.11352229166
 97
        0
 75
     0
 76
     1
 98
        0
  0
LWPOLYLINE
  5
32A
330
1F
100
AcDbEntity
  8
Ech.1_5
 62
     7
370
    20
100
AcDbPolyline
 90
        5
 70
     0
 43
0.0
 10
1082.923890248653
 20
-3615.621859559586
 10
1074.901055762069
 20
-3615.621859559586
 10
1074.901055762069
 20
-3779.11352229166
 10
1082.903827987319
 20
-3779.11352229166
 10
1082.923890248653
 20
-3615.621859559586
  0
HATCH
  5
32B
330
1F
100
AcDbEntity
  8
Ech.1_5
 62
    35
420
  9529928
440
 33554687
370
    20
100
AcDbHatch
 10
0.0
 20
0.0
 30
0.0
210
0.0
220
0.0
230
1.0
  2
SOLID
 70
     1
 71
     1
 91
        1
 92
        3
 72
     0
 73
     1
 93
        4
 10
1082.923890248653
 20
-3631.621859750438
 10
1082.923890248653
 20
-3615.621859559586
 10
1093.723890248653
 20
-3615.621859559586
 10
1093.723890248653
 20
-3631.621859559586
 97
        0
 75
     0
 76
     1
 98
        0
  0
LWPOLYLINE
  5
32C
330
1F
100
AcDbEntity
  8
Ech.1_5
 62
   190
370
    20
100
AcDbPolyline
 90
        5
 70
     0
 43
0.0
 10
1082.923890248653
 20
-3631.621859750438
 10
1082.923890248653
 20
-3615.621859559586
 10
1093.723890248653
 20
-3615.621859559586
 10
1093.723890248653
 20
-3631.621859559586
 10
1082.923890248653
 20
-3631.621859750438
  0
LWPOLYLINE
  5
32D
330
1F
100
AcDbEntity
  8
Ech.1_5
 62
   190
370
    20
100
AcDbPolyline
 90
        4
 70
     0
 43
0.0
 10
1093.723890248653
 20
-3631.621859559586
 10
1082.923890248653
 20
-3615.621859559586
 10
1093.723890248653
 20
-3615.621859559586
 10
1082.923890248653
 20
-3631.621814425965
  0
LWPOLYLINE
  5
32E
330
1F
100
AcDbEntity
  8
Ech.1_5
 62
     5
370
    20
100
AcDbPolyline
 90
        5
 70
     0
 43
0.0
 10
1082.923890248653
 20
-3631.621814425965
 10
1082.923890248653
 20
-3615.621859559586
 10
1093.723890248653
 20
-3615.621859559586
 10
1093.723890248653
 20
-3631.621859559586
 10
1082.923890248653
 20
-3631.621814425965
  0
LWPOLYLINE
  5
32F
330
1F
100
AcDbEntity
  8
Ech.1_5
 62
     7
370
    20
100
AcDbPolyline
 90
        4
 70
     0
 43
0.0
 10
1074.901055762069
 20
-3779.11352229166
 10
1074.901055762069
 20
-3615.621859559586
 10
1082.923890248653
 20
-3615.621859559586
 10
1082.903827987319
 20
-3779.11352229166
  0
LINE
  5
330
330
1F
100
AcDbEntity
  8
Ech.1_5
 62
   190
370
     9
100
AcDbLine
 10
1074.678833362358
 20
-3624.629359559581
 30
0.0
 11
1074.556611361997
 21
-3624.629359559581
 31
0.0
  0
LINE
  5
331
330
1F
100
AcDbEntity
  8
Ech.1_5
 62
   190
370
     9
100
AcDbLine
 10
1074.556611361997
 20
-3624.629359559581
 30
0.0
 11
1074.556611361997
 21
-3622.61435955959
 31
0.0
  0
LINE
  5
332
330
1F
100
AcDbEntity
  8
Ech.1_5
 62
   190
370
     9
100
AcDbLine
 10
1074.678833362358
 20
-3622.61435955959
 30
0.0
 11
1074.556611361997
 21
-3622.61435955959
 31
0.0
  0
HATCH
  5
333
330
1F
100
AcDbEntity
  8
Ech.1_5
 62
   252
440
 33554687
370
     5
100
AcDbHatch
 10
0.0
 20
0.0
 30
0.0
210
0.0
220
0.0
230
1.0
  2
SOLID
 70
     1
 71
     1
 91
        1
 92
        3
 72
     0
 73
     1
 93
        4
 10
1090.601055362836
 20
-3623.169915159565
 10
1090.934388962403
 20
-3623.169915159565
 10
1090.934388962403
 20
-3624.073803959584
 10
1090.601055362836
 20
-3624.073803959584
 97
        0
 75
     0
 76
     1
 98
        0
  0
LWPOLYLINE
  5
334
330
1F
100
AcDbEntity
  8
Ech.1_5
 62
     7
370
     9
100
AcDbPolyline
 90
        5
 70
     0
 43
0.0
 10
1090.601055362836
 20
-3623.169915159565
 10
1090.934388962403
 20
-3623.169915159565
 10
1090.934388962403
 20
-3624.073803959584
 10
1090.601055362836
 20
-3624.073803959584
 10
1090.601055362836
 20
-3623.169915159565
  0
LINE
  5
335
330
1F
100
AcDbEntity
  8
Ech.1_5
 62
   190
370
     9
100
AcDbLine
 10
1091.814022561805
 20
-3624.073803959584
 30
0.0
 11
1074.901055762069
 21
-3624.073803959584
 31
0.0
  0
LINE
  5
336
330
1F
100
AcDbEntity
  8
Ech.1_5
 62
   190
370
     9
100
AcDbLine
 10
1091.814022561805
 20
-3623.169915159565
 30
0.0
 11
1074.901055762069
 21
-3623.169915159565
 31
0.0
  0
ARC
  5
337
330
1F
100
AcDbEntity
  8
Ech.1_5
 62
   190
370
     9
100
AcDbCircle
 10
1079.581892718335
 20
-3623.621859559574
 30
0.0
 40
5.12528135633781
100
AcDbArc
 50
168.6632793503256
 51
191.3367206496744
  0
LINE
  5
338
330
1F
100
AcDbEntity
  8
Ech.1_5
 62
   190
370
     9
100
AcDbLine
 10
1074.678833362358
 20
-3624.629359559581
 30
0.0
 11
1074.678833362358
 21
-3624.296026359601
 31
0.0
  0
ARC
  5
339
330
1F
100
AcDbEntity
  8
Ech.1_5
 62
   190
370
     9
100
AcDbCircle
 10
1074.901055758317
 20
-3624.296026355543
 30
0.0
 40
0.2222223959593166
100
AcDbArc
 50
89.99999903252916
 51
180.0000010462028
  0
LINE
  5
33A
330
1F
100
AcDbEntity
  8
Ech.1_5
 62
   190
370
     9
100
AcDbLine
 10
1074.678833362358
 20
-3624.296026359601
 30
0.0
 11
1074.678833362358
 21
-3622.947692759574
 31
0.0
  0
ARC
  5
33B
330
1F
100
AcDbEntity
  8
Ech.1_5
 62
   190
370
     9
100
AcDbCircle
 10
1074.901055758272
 20
-3622.947692763651
 30
0.0
 40
0.2222223959142911
100
AcDbArc
 50
179.9999989488728
 51
270.0000009790784
  0
LINE
  5
33C
330
1F
100
AcDbEntity
  8
Ech.1_5
 62
   190
370
     9
100
AcDbLine
 10
1074.678833362358
 20
-3622.61435955959
 30
0.0
 11
1074.678833362358
 21
-3622.947692759574
 31
0.0
  0
LINE
  5
33D
330
1F
100
AcDbEntity
  8
Ech.1_5
 62
   190
370
     9
100
AcDbLine
 10
1078.934388962403
 20
-3624.073803959584
 30
0.0
 11
1078.934388962403
 21
-3623.169915159565
 31
0.0
  0
LINE
  5
33E
330
1F
100
AcDbEntity
  8
Ech.1_5
 62
   190
370
     9
100
AcDbLine
 10
1079.26772216262
 20
-3624.073803959584
 30
0.0
 11
1079.26772216262
 21
-3623.169915159565
 31
0.0
  0
LINE
  5
33F
330
1F
100
AcDbEntity
  8
Ech.1_5
 62
   190
370
     9
100
AcDbLine
 10
1077.934388962403
 20
-3624.073803959584
 30
0.0
 11
1077.934388962403
 21
-3623.169915159565
 31
0.0
  0
LINE
  5
340
330
1F
100
AcDbEntity
  8
Ech.1_5
 62
   190
370
     9
100
AcDbLine
 10
1078.26772216262
 20
-3624.073803959584
 30
0.0
 11
1078.26772216262
 21
-3623.169915159565
 31
0.0
  0
LINE
  5
341
330
1F
100
AcDbEntity
  8
Ech.1_5
 62
   190
370
     9
100
AcDbLine
 10
1078.601055362836
 20
-3624.073803959584
 30
0.0
 11
1078.601055362836
 21
-3623.169915159565
 31
0.0
  0
LINE
  5
342
330
1F
100
AcDbEntity
  8
Ech.1_5
 62
   190
370
     9
100
AcDbLine
 10
1076.934388962403
 20
-3624.073803959584
 30
0.0
 11
1076.934388962403
 21
-3623.169915159565
 31
0.0
  0
LINE
  5
343
330
1F
100
AcDbEntity
  8
Ech.1_5
 62
   190
370
     9
100
AcDbLine
 10
1077.26772216262
 20
-3624.073803959584
 30
0.0
 11
1077.26772216262
 21
-3623.169915159565
 31
0.0
  0
LINE
  5
344
330
1F
100
AcDbEntity
  8
Ech.1_5
 62
   190
370
     9
100
AcDbLine
 10
1077.601055362837
 20
-3624.073803959584
 30
0.0
 11
1077.601055362837
 21
-3623.169915159565
 31
0.0
  0
LINE
  5
345
330
1F
100
AcDbEntity
  8
Ech.1_5
 62
   190
370
     9
100
AcDbLine
 10
1076.601055362836
 20
-3624.073803959584
 30
0.0
 11
1076.601055362836
 21
-3623.169915159565
 31
0.0
  0
LINE
  5
346
330
1F
100
AcDbEntity
  8
Ech.1_5
 62
   190
370
     9
100
AcDbLine
 10
1076.26772216262
 20
-3624.073803959584
 30
0.0
 11
1076.26772216262
 21
-3623.169915159565
 31
0.0
  0
LINE
  5
347
330
1F
100
AcDbEntity
  8
Ech.1_5
 62
   190
370
     9
100
AcDbLine
 10
1075.934388962403
 20
-3624.073803959584
 30
0.0
 11
1075.934388962403
 21
-3623.169915159565
 31
0.0
  0
LINE
  5
348
330
1F
100
AcDbEntity
  8
Ech.1_5
 62
   190
370
     9
100
AcDbLine
 10
1075.601055362836
 20
-3624.073803959584
 30
0.0
 11
1075.601055362836
 21
-3623.169915159568
 31
0.0
  0
LINE
  5
349
330
1F
100
AcDbEntity
  8
Ech.1_5
 62
   190
370
     9
100
AcDbLine
 10
1089.601055362836
 20
-3624.073803959584
 30
0.0
 11
1089.601055362836
 21
-3623.169915159565
 31
0.0
  0
LINE
  5
34A
330
1F
100
AcDbEntity
  8
Ech.1_5
 62
   190
370
     9
100
AcDbLine
 10
1089.26772216262
 20
-3624.073803959584
 30
0.0
 11
1089.26772216262
 21
-3623.169915159565
 31
0.0
  0
LINE
  5
34B
330
1F
100
AcDbEntity
  8
Ech.1_5
 62
   190
370
     9
100
AcDbLine
 10
1089.934388962403
 20
-3624.073803959584
 30
0.0
 11
1089.934388962403
 21
-3623.169915159565
 31
0.0
  0
LINE
  5
34C
330
1F
100
AcDbEntity
  8
Ech.1_5
 62
   190
370
     9
100
AcDbLine
 10
1088.26772216262
 20
-3624.073803959584
 30
0.0
 11
1088.26772216262
 21
-3623.169915159565
 31
0.0
  0
LINE
  5
34D
330
1F
100
AcDbEntity
  8
Ech.1_5
 62
   190
370
     9
100
AcDbLine
 10
1088.601055362836
 20
-3624.073803959584
 30
0.0
 11
1088.601055362836
 21
-3623.169915159565
 31
0.0
  0
LINE
  5
34E
330
1F
100
AcDbEntity
  8
Ech.1_5
 62
   190
370
     9
100
AcDbLine
 10
1088.934388962403
 20
-3624.073803959584
 30
0.0
 11
1088.934388962403
 21
-3623.169915159565
 31
0.0
  0
LINE
  5
34F
330
1F
100
AcDbEntity
  8
Ech.1_5
 62
   190
370
     9
100
AcDbLine
 10
1087.26772216262
 20
-3624.073803959584
 30
0.0
 11
1087.26772216262
 21
-3623.169915159565
 31
0.0
  0
LINE
  5
350
330
1F
100
AcDbEntity
  8
Ech.1_5
 62
   190
370
     9
100
AcDbLine
 10
1087.601055362836
 20
-3624.073803959584
 30
0.0
 11
1087.601055362836
 21
-3623.169915159565
 31
0.0
  0
LINE
  5
351
330
1F
100
AcDbEntity
  8
Ech.1_5
 62
   190
370
     9
100
AcDbLine
 10
1087.934388962403
 20
-3624.073803959584
 30
0.0
 11
1087.934388962403
 21
-3623.169915159565
 31
0.0
  0
LINE
  5
352
330
1F
100
AcDbEntity
  8
Ech.1_5
 62
   190
370
     9
100
AcDbLine
 10
1086.26772216262
 20
-3624.073803959584
 30
0.0
 11
1086.26772216262
 21
-3623.169915159565
 31
0.0
  0
LINE
  5
353
330
1F
100
AcDbEntity
  8
Ech.1_5
 62
   190
370
     9
100
AcDbLine
 10
1086.601055362836
 20
-3624.073803959584
 30
0.0
 11
1086.601055362836
 21
-3623.169915159565
 31
0.0
  0
LINE
  5
354
330
1F
100
AcDbEntity
  8
Ech.1_5
 62
   190
370
     9
100
AcDbLine
 10
1086.934388962403
 20
-3624.073803959584
 30
0.0
 11
1086.934388962403
 21
-3623.169915159565
 31
0.0
  0
LINE
  5
355
330
1F
100
AcDbEntity
  8
Ech.1_5
 62
   190
370
     9
100
AcDbLine
 10
1085.934388962403
 20
-3624.073803959584
 30
0.0
 11
1085.934388962403
 21
-3623.169915159565
 31
0.0
  0
LINE
  5
356
330
1F
100
AcDbEntity
  8
Ech.1_5
 62
   190
370
     9
100
AcDbLine
 10
1080.601055362836
 20
-3624.073803959584
 30
0.0
 11
1080.601055362836
 21
-3623.169915159565
 31
0.0
  0
LINE
  5
357
330
1F
100
AcDbEntity
  8
Ech.1_5
 62
   190
370
     9
100
AcDbLine
 10
1080.934388962403
 20
-3624.073803959584
 30
0.0
 11
1080.934388962403
 21
-3623.169915159565
 31
0.0
  0
LINE
  5
358
330
1F
100
AcDbEntity
  8
Ech.1_5
 62
   190
370
     9
100
AcDbLine
 10
1081.26772216262
 20
-3624.073803959584
 30
0.0
 11
1081.26772216262
 21
-3623.169915159565
 31
0.0
  0
LINE
  5
359
330
1F
100
AcDbEntity
  8
Ech.1_5
 62
   190
370
     9
100
AcDbLine
 10
1081.601055362836
 20
-3624.073803959584
 30
0.0
 11
1081.601055362836
 21
-3623.169915159565
 31
0.0
  0
LINE
  5
35A
330
1F
100
AcDbEntity
  8
Ech.1_5
 62
   190
370
     9
100
AcDbLine
 10
1082.601055362836
 20
-3624.073803959584
 30
0.0
 11
1082.601055362836
 21
-3623.169915159565
 31
0.0
  0
LINE
  5
35B
330
1F
100
AcDbEntity
  8
Ech.1_5
 62
   190
370
     9
100
AcDbLine
 10
1082.26772216262
 20
-3624.073803959584
 30
0.0
 11
1082.26772216262
 21
-3623.169915159565
 31
0.0
  0
LINE
  5
35C
330
1F
100
AcDbEntity
  8
Ech.1_5
 62
   190
370
     9
100
AcDbLine
 10
1081.934388962403
 20
-3624.073803959584
 30
0.0
 11
1081.934388962403
 21
-3623.169915159565
 31
0.0
  0
LINE
  5
35D
330
1F
100
AcDbEntity
  8
Ech.1_5
 62
   190
370
     9
100
AcDbLine
 10
1083.601055362836
 20
-3624.073803959584
 30
0.0
 11
1083.601055362836
 21
-3623.169915159565
 31
0.0
  0
LINE
  5
35E
330
1F
100
AcDbEntity
  8
Ech.1_5
 62
   190
370
     9
100
AcDbLine
 10
1083.26772216262
 20
-3624.073803959584
 30
0.0
 11
1083.26772216262
 21
-3623.169915159565
 31
0.0
  0
LINE
  5
35F
330
1F
100
AcDbEntity
  8
Ech.1_5
 62
   190
370
     9
100
AcDbLine
 10
1082.934388962403
 20
-3624.073803959584
 30
0.0
 11
1082.934388962403
 21
-3623.169915159565
 31
0.0
  0
LINE
  5
360
330
1F
100
AcDbEntity
  8
Ech.1_5
 62
   190
370
     9
100
AcDbLine
 10
1084.601055362836
 20
-3624.073803959584
 30
0.0
 11
1084.601055362836
 21
-3623.169915159565
 31
0.0
  0
LINE
  5
361
330
1F
100
AcDbEntity
  8
Ech.1_5
 62
   190
370
     9
100
AcDbLine
 10
1084.26772216262
 20
-3624.073803959584
 30
0.0
 11
1084.26772216262
 21
-3623.169915159565
 31
0.0
  0
LINE
  5
362
330
1F
100
AcDbEntity
  8
Ech.1_5
 62
   190
370
     9
100
AcDbLine
 10
1083.934388962403
 20
-3624.073803959584
 30
0.0
 11
1083.934388962403
 21
-3623.169915159565
 31
0.0
  0
LINE
  5
363
330
1F
100
AcDbEntity
  8
Ech.1_5
 62
   190
370
     9
100
AcDbLine
 10
1085.601055362836
 20
-3624.073803959584
 30
0.0
 11
1085.601055362836
 21
-3623.169915159565
 31
0.0
  0
LINE
  5
364
330
1F
100
AcDbEntity
  8
Ech.1_5
 62
   190
370
     9
100
AcDbLine
 10
1085.26772216262
 20
-3624.073803959584
 30
0.0
 11
1085.26772216262
 21
-3623.169915159565
 31
0.0
  0
LINE
  5
365
330
1F
100
AcDbEntity
  8
Ech.1_5
 62
   190
370
     9
100
AcDbLine
 10
1084.934388962403
 20
-3624.073803959584
 30
0.0
 11
1084.934388962403
 21
-3623.169915159565
 31
0.0
  0
LINE
  5
366
330
1F
100
AcDbEntity
  8
Ech.1_5
 62
   190
370
     9
100
AcDbLine
 10
1079.934388962403
 20
-3624.073803959584
 30
0.0
 11
1079.934388962403
 21
-3623.169915159565
 31
0.0
  0
LINE
  5
367
330
1F
100
AcDbEntity
  8
Ech.1_5
 62
   190
370
     9
100
AcDbLine
 10
1080.26772216262
 20
-3624.073803959584
 30
0.0
 11
1080.26772216262
 21
-3623.169915159565
 31
0.0
  0
LINE
  5
368
330
1F
100
AcDbEntity
  8
Ech.1_5
 62
   190
370
     9
100
AcDbLine
 10
1080.601055362836
 20
-3624.073803959584
 30
0.0
 11
1080.601055362836
 21
-3623.169915159565
 31
0.0
  0
LINE
  5
369
330
1F
100
AcDbEntity
  8
Ech.1_5
 62
   190
370
     9
100
AcDbLine
 10
1079.601055362836
 20
-3624.073803959584
 30
0.0
 11
1079.601055362836
 21
-3623.169915159565
 31
0.0
  0
LINE
  5
36A
330
1F
100
AcDbEntity
  8
Ech.1_5
 62
   190
370
     9
100
AcDbLine
 10
1092.878833362358
 20
-3623.621859559586
 30
0.0
 11
1091.814022561805
 21
-3624.073803959584
 31
0.0
  0
ARC
  5
36B
330
1F
100
AcDbEntity
  8
Ech.1_5
 62
   190
370
     9
100
AcDbCircle
 10
1092.377762958045
 20
-3623.621859559587
 30
0.0
 40
0.7225351986669323
100
AcDbArc
 50
141.2812399142404
 51
218.7187600857596
  0
LINE
  5
36C
330
1F
100
AcDbEntity
  8
Ech.1_5
 62
   190
370
     9
100
AcDbLine
 10
1092.878833362358
 20
-3623.621859559586
 30
0.0
 11
1091.814022561805
 21
-3623.169915159565
 31
0.0
  0
HATCH
  5
36D
330
1F
100
AcDbEntity
  8
Ech.1_5
 62
   252
440
 33554687
370
     5
100
AcDbHatch
 10
0.0
 20
0.0
 30
0.0
210
0.0
220
0.0
230
1.0
  2
SOLID
 70
     1
 71
     1
 91
        1
 92
        3
 72
     0
 73
     1
 93
        4
 10
1075.601055362836
 20
-3623.169915159568
 10
1075.934388962403
 20
-3623.169915159565
 10
1075.934388962403
 20
-3624.073803959584
 10
1075.601055362836
 20
-3624.073803959584
 97
        0
 75
     0
 76
     1
 98
        0
  0
LWPOLYLINE
  5
36E
330
1F
100
AcDbEntity
  8
Ech.1_5
 62
     7
370
     9
100
AcDbPolyline
 90
        5
 70
     0
 43
0.0
 10
1075.601055362836
 20
-3623.169915159568
 10
1075.934388962403
 20
-3623.169915159565
 10
1075.934388962403
 20
-3624.073803959584
 10
1075.601055362836
 20
-3624.073803959584
 10
1075.601055362836
 20
-3623.169915159568
  0
HATCH
  5
36F
330
1F
100
AcDbEntity
  8
Ech.1_5
 62
   252
440
 33554687
370
     5
100
AcDbHatch
 10
0.0
 20
0.0
 30
0.0
210
0.0
220
0.0
230
1.0
  2
SOLID
 70
     1
 71
     1
 91
        1
 92
        3
 72
     0
 73
     1
 93
        4
 10
1075.934388962403
 20
-3623.169915159565
 10
1076.267722561971
 20
-3623.169915159565
 10
1076.267722561971
 20
-3624.073803959584
 10
1075.934388962403
 20
-3624.073803959584
 97
        0
 75
     0
 76
     1
 98
        0
  0
LWPOLYLINE
  5
370
330
1F
100
AcDbEntity
  8
Ech.1_5
 62
     7
370
     9
100
AcDbPolyline
 90
        5
 70
     0
 43
0.0
 10
1075.934388962403
 20
-3623.169915159565
 10
1076.267722561971
 20
-3623.169915159565
 10
1076.267722561971
 20
-3624.073803959584
 10
1075.934388962403
 20
-3624.073803959584
 10
1075.934388962403
 20
-3623.169915159565
  0
HATCH
  5
371
330
1F
100
AcDbEntity
  8
Ech.1_5
 62
   252
440
 33554687
370
     5
100
AcDbHatch
 10
0.0
 20
0.0
 30
0.0
210
0.0
220
0.0
230
1.0
  2
SOLID
 70
     1
 71
     1
 91
        1
 92
        3
 72
     0
 73
     1
 93
        4
 10
1076.267722561971
 20
-3623.169915159565
 10
1076.601056161538
 20
-3623.169915159565
 10
1076.601056161538
 20
-3624.073803959584
 10
1076.267722561971
 20
-3624.073803959584
 97
        0
 75
     0
 76
     1
 98
        0
  0
LWPOLYLINE
  5
372
330
1F
100
AcDbEntity
  8
Ech.1_5
 62
     7
370
     9
100
AcDbPolyline
 90
        5
 70
     0
 43
0.0
 10
1076.267722561971
 20
-3623.169915159565
 10
1076.601056161538
 20
-3623.169915159565
 10
1076.601056161538
 20
-3624.073803959584
 10
1076.267722561971
 20
-3624.073803959584
 10
1076.267722561971
 20
-3623.169915159565
  0
HATCH
  5
373
330
1F
100
AcDbEntity
  8
Ech.1_5
 62
   252
440
 33554687
370
     5
100
AcDbHatch
 10
0.0
 20
0.0
 30
0.0
210
0.0
220
0.0
230
1.0
  2
SOLID
 70
     1
 71
     1
 91
        1
 92
        3
 72
     0
 73
     1
 93
        4
 10
1076.601056161538
 20
-3623.169915159565
 10
1076.934389761106
 20
-3623.169915159565
 10
1076.934389761106
 20
-3624.073803959584
 10
1076.601056161538
 20
-3624.073803959584
 97
        0
 75
     0
 76
     1
 98
        0
  0
LWPOLYLINE
  5
374
330
1F
100
AcDbEntity
  8
Ech.1_5
 62
     7
370
     9
100
AcDbPolyline
 90
        5
 70
     0
 43
0.0
 10
1076.601056161538
 20
-3623.169915159565
 10
1076.934389761106
 20
-3623.169915159565
 10
1076.934389761106
 20
-3624.073803959584
 10
1076.601056161538
 20
-3624.073803959584
 10
1076.601056161538
 20
-3623.169915159565
  0
HATCH
  5
375
330
1F
100
AcDbEntity
  8
Ech.1_5
 62
   252
440
 33554687
370
     5
100
AcDbHatch
 10
0.0
 20
0.0
 30
0.0
210
0.0
220
0.0
230
1.0
  2
SOLID
 70
     1
 71
     1
 91
        1
 92
        3
 72
     0
 73
     1
 93
        4
 10
1076.934388962403
 20
-3623.169915159565
 10
1077.267722561972
 20
-3623.169915159565
 10
1077.267722561972
 20
-3624.073803959584
 10
1076.934388962403
 20
-3624.073803959584
 97
        0
 75
     0
 76
     1
 98
        0
  0
LWPOLYLINE
  5
376
330
1F
100
AcDbEntity
  8
Ech.1_5
 62
     7
370
     9
100
AcDbPolyline
 90
        5
 70
     0
 43
0.0
 10
1076.934388962403
 20
-3623.169915159565
 10
1077.267722561972
 20
-3623.169915159565
 10
1077.267722561972
 20
-3624.073803959584
 10
1076.934388962403
 20
-3624.073803959584
 10
1076.934388962403
 20
-3623.169915159565
  0
HATCH
  5
377
330
1F
100
AcDbEntity
  8
Ech.1_5
 62
   252
440
 33554687
370
     5
100
AcDbHatch
 10
0.0
 20
0.0
 30
0.0
210
0.0
220
0.0
230
1.0
  2
SOLID
 70
     1
 71
     1
 91
        1
 92
        3
 72
     0
 73
     1
 93
        4
 10
1077.26772216262
 20
-3623.169915159565
 10
1077.601055762188
 20
-3623.169915159565
 10
1077.601055762188
 20
-3624.073803959586
 10
1077.26772216262
 20
-3624.073803959584
 97
        0
 75
     0
 76
     1
 98
        0
  0
LWPOLYLINE
  5
378
330
1F
100
AcDbEntity
  8
Ech.1_5
 62
     7
370
     9
100
AcDbPolyline
 90
        5
 70
     0
 43
0.0
 10
1077.26772216262
 20
-3623.169915159565
 10
1077.601055762188
 20
-3623.169915159565
 10
1077.601055762188
 20
-3624.073803959586
 10
1077.26772216262
 20
-3624.073803959584
 10
1077.26772216262
 20
-3623.169915159565
  0
HATCH
  5
379
330
1F
100
AcDbEntity
  8
Ech.1_5
 62
   252
440
 33554687
370
     5
100
AcDbHatch
 10
0.0
 20
0.0
 30
0.0
210
0.0
220
0.0
230
1.0
  2
SOLID
 70
     1
 71
     1
 91
        1
 92
        3
 72
     0
 73
     1
 93
        4
 10
1077.601055762188
 20
-3623.169915159565
 10
1077.934389361754
 20
-3623.169915159565
 10
1077.934389361754
 20
-3624.073803959584
 10
1077.601055762188
 20
-3624.073803959586
 97
        0
 75
     0
 76
     1
 98
        0
  0
LWPOLYLINE
  5
37A
330
1F
100
AcDbEntity
  8
Ech.1_5
 62
     7
370
     9
100
AcDbPolyline
 90
        5
 70
     0
 43
0.0
 10
1077.601055762188
 20
-3623.169915159565
 10
1077.934389361754
 20
-3623.169915159565
 10
1077.934389361754
 20
-3624.073803959584
 10
1077.601055762188
 20
-3624.073803959586
 10
1077.601055762188
 20
-3623.169915159565
  0
HATCH
  5
37B
330
1F
100
AcDbEntity
  8
Ech.1_5
 62
   252
440
 33554687
370
     5
100
AcDbHatch
 10
0.0
 20
0.0
 30
0.0
210
0.0
220
0.0
230
1.0
  2
SOLID
 70
     1
 71
     1
 91
        1
 92
        3
 72
     0
 73
     1
 93
        4
 10
1077.934388962403
 20
-3623.169915159565
 10
1078.267722561971
 20
-3623.169915159565
 10
1078.267722561971
 20
-3624.073803959584
 10
1077.934388962403
 20
-3624.073803959584
 97
        0
 75
     0
 76
     1
 98
        0
  0
LWPOLYLINE
  5
37C
330
1F
100
AcDbEntity
  8
Ech.1_5
 62
     7
370
     9
100
AcDbPolyline
 90
        5
 70
     0
 43
0.0
 10
1077.934388962403
 20
-3623.169915159565
 10
1078.267722561971
 20
-3623.169915159565
 10
1078.267722561971
 20
-3624.073803959584
 10
1077.934388962403
 20
-3624.073803959584
 10
1077.934388962403
 20
-3623.169915159565
  0
HATCH
  5
37D
330
1F
100
AcDbEntity
  8
Ech.1_5
 62
   252
440
 33554687
370
     5
100
AcDbHatch
 10
0.0
 20
0.0
 30
0.0
210
0.0
220
0.0
230
1.0
  2
SOLID
 70
     1
 71
     1
 91
        1
 92
        3
 72
     0
 73
     1
 93
        4
 10
1078.267722561971
 20
-3623.169915159565
 10
1078.601056161538
 20
-3623.169915159565
 10
1078.601056161538
 20
-3624.073803959584
 10
1078.267722561971
 20
-3624.073803959584
 97
        0
 75
     0
 76
     1
 98
        0
  0
LWPOLYLINE
  5
37E
330
1F
100
AcDbEntity
  8
Ech.1_5
 62
     7
370
     9
100
AcDbPolyline
 90
        5
 70
     0
 43
0.0
 10
1078.267722561971
 20
-3623.169915159565
 10
1078.601056161538
 20
-3623.169915159565
 10
1078.601056161538
 20
-3624.073803959584
 10
1078.267722561971
 20
-3624.073803959584
 10
1078.267722561971
 20
-3623.169915159565
  0
HATCH
  5
37F
330
1F
100
AcDbEntity
  8
Ech.1_5
 62
   252
440
 33554687
370
     5
100
AcDbHatch
 10
0.0
 20
0.0
 30
0.0
210
0.0
220
0.0
230
1.0
  2
SOLID
 70
     1
 71
     1
 91
        1
 92
        3
 72
     0
 73
     1
 93
        4
 10
1078.601055362836
 20
-3623.169915159565
 10
1078.934388962403
 20
-3623.169915159565
 10
1078.934388962403
 20
-3624.073803959584
 10
1078.601055362836
 20
-3624.073803959584
 97
        0
 75
     0
 76
     1
 98
        0
  0
LWPOLYLINE
  5
380
330
1F
100
AcDbEntity
  8
Ech.1_5
 62
     7
370
     9
100
AcDbPolyline
 90
        5
 70
     0
 43
0.0
 10
1078.601055362836
 20
-3623.169915159565
 10
1078.934388962403
 20
-3623.169915159565
 10
1078.934388962403
 20
-3624.073803959584
 10
1078.601055362836
 20
-3624.073803959584
 10
1078.601055362836
 20
-3623.169915159565
  0
HATCH
  5
381
330
1F
100
AcDbEntity
  8
Ech.1_5
 62
   252
440
 33554687
370
     5
100
AcDbHatch
 10
0.0
 20
0.0
 30
0.0
210
0.0
220
0.0
230
1.0
  2
SOLID
 70
     1
 71
     1
 91
        1
 92
        3
 72
     0
 73
     1
 93
        4
 10
1078.934388962403
 20
-3623.169915159565
 10
1079.267722561971
 20
-3623.169915159565
 10
1079.267722561971
 20
-3624.073803959584
 10
1078.934388962403
 20
-3624.073803959584
 97
        0
 75
     0
 76
     1
 98
        0
  0
LWPOLYLINE
  5
382
330
1F
100
AcDbEntity
  8
Ech.1_5
 62
     7
370
     9
100
AcDbPolyline
 90
        5
 70
     0
 43
0.0
 10
1078.934388962403
 20
-3623.169915159565
 10
1079.267722561971
 20
-3623.169915159565
 10
1079.267722561971
 20
-3624.073803959584
 10
1078.934388962403
 20
-3624.073803959584
 10
1078.934388962403
 20
-3623.169915159565
  0
HATCH
  5
383
330
1F
100
AcDbEntity
  8
Ech.1_5
 62
   252
440
 33554687
370
     5
100
AcDbHatch
 10
0.0
 20
0.0
 30
0.0
210
0.0
220
0.0
230
1.0
  2
SOLID
 70
     1
 71
     1
 91
        1
 92
        3
 72
     0
 73
     1
 93
        4
 10
1079.267722561971
 20
-3623.169915159565
 10
1079.601056161538
 20
-3623.169915159565
 10
1079.601056161539
 20
-3624.073803959584
 10
1079.267722561971
 20
-3624.073803959584
 97
        0
 75
     0
 76
     1
 98
        0
  0
LWPOLYLINE
  5
384
330
1F
100
AcDbEntity
  8
Ech.1_5
 62
     7
370
     9
100
AcDbPolyline
 90
        5
 70
     0
 43
0.0
 10
1079.267722561971
 20
-3623.169915159565
 10
1079.601056161538
 20
-3623.169915159565
 10
1079.601056161539
 20
-3624.073803959584
 10
1079.267722561971
 20
-3624.073803959584
 10
1079.267722561971
 20
-3623.169915159565
  0
HATCH
  5
385
330
1F
100
AcDbEntity
  8
Ech.1_5
 62
   252
440
 33554687
370
     5
100
AcDbHatch
 10
0.0
 20
0.0
 30
0.0
210
0.0
220
0.0
230
1.0
  2
SOLID
 70
     1
 71
     1
 91
        1
 92
        3
 72
     0
 73
     1
 93
        4
 10
1079.601056161538
 20
-3623.169915159565
 10
1079.934389761106
 20
-3623.169915159565
 10
1079.934389761106
 20
-3624.073803959584
 10
1079.601056161539
 20
-3624.073803959584
 97
        0
 75
     0
 76
     1
 98
        0
  0
LWPOLYLINE
  5
386
330
1F
100
AcDbEntity
  8
Ech.1_5
 62
     7
370
     9
100
AcDbPolyline
 90
        5
 70
     0
 43
0.0
 10
1079.601056161538
 20
-3623.169915159565
 10
1079.934389761106
 20
-3623.169915159565
 10
1079.934389761106
 20
-3624.073803959584
 10
1079.601056161539
 20
-3624.073803959584
 10
1079.601056161538
 20
-3623.169915159565
  0
HATCH
  5
387
330
1F
100
AcDbEntity
  8
Ech.1_5
 62
   252
440
 33554687
370
     5
100
AcDbHatch
 10
0.0
 20
0.0
 30
0.0
210
0.0
220
0.0
230
1.0
  2
SOLID
 70
     1
 71
     1
 91
        1
 92
        3
 72
     0
 73
     1
 93
        4
 10
1079.934389761106
 20
-3623.169915159565
 10
1080.267723360673
 20
-3623.169915159565
 10
1080.267723360673
 20
-3624.073803959584
 10
1079.934389761106
 20
-3624.073803959584
 97
        0
 75
     0
 76
     1
 98
        0
  0
LWPOLYLINE
  5
388
330
1F
100
AcDbEntity
  8
Ech.1_5
 62
     7
370
     9
100
AcDbPolyline
 90
        5
 70
     0
 43
0.0
 10
1079.934389761106
 20
-3623.169915159565
 10
1080.267723360673
 20
-3623.169915159565
 10
1080.267723360673
 20
-3624.073803959584
 10
1079.934389761106
 20
-3624.073803959584
 10
1079.934389761106
 20
-3623.169915159565
  0
HATCH
  5
389
330
1F
100
AcDbEntity
  8
Ech.1_5
 62
   252
440
 33554687
370
     5
100
AcDbHatch
 10
0.0
 20
0.0
 30
0.0
210
0.0
220
0.0
230
1.0
  2
SOLID
 70
     1
 71
     1
 91
        1
 92
        3
 72
     0
 73
     1
 93
        4
 10
1080.267722561971
 20
-3623.169915159565
 10
1080.601056161538
 20
-3623.169915159565
 10
1080.601056161538
 20
-3624.073803959584
 10
1080.267722561971
 20
-3624.073803959584
 97
        0
 75
     0
 76
     1
 98
        0
  0
LWPOLYLINE
  5
38A
330
1F
100
AcDbEntity
  8
Ech.1_5
 62
     7
370
     9
100
AcDbPolyline
 90
        5
 70
     0
 43
0.0
 10
1080.267722561971
 20
-3623.169915159565
 10
1080.601056161538
 20
-3623.169915159565
 10
1080.601056161538
 20
-3624.073803959584
 10
1080.267722561971
 20
-3624.073803959584
 10
1080.267722561971
 20
-3623.169915159565
  0
HATCH
  5
38B
330
1F
100
AcDbEntity
  8
Ech.1_5
 62
   252
440
 33554687
370
     5
100
AcDbHatch
 10
0.0
 20
0.0
 30
0.0
210
0.0
220
0.0
230
1.0
  2
SOLID
 70
     1
 71
     1
 91
        1
 92
        3
 72
     0
 73
     1
 93
        4
 10
1080.601055762187
 20
-3623.169915159565
 10
1080.934389361754
 20
-3623.169915159565
 10
1080.934389361754
 20
-3624.073803959584
 10
1080.601055762187
 20
-3624.073803959584
 97
        0
 75
     0
 76
     1
 98
        0
  0
LWPOLYLINE
  5
38C
330
1F
100
AcDbEntity
  8
Ech.1_5
 62
     7
370
     9
100
AcDbPolyline
 90
        5
 70
     0
 43
0.0
 10
1080.601055762187
 20
-3623.169915159565
 10
1080.934389361754
 20
-3623.169915159565
 10
1080.934389361754
 20
-3624.073803959584
 10
1080.601055762187
 20
-3624.073803959584
 10
1080.601055762187
 20
-3623.169915159565
  0
HATCH
  5
38D
330
1F
100
AcDbEntity
  8
Ech.1_5
 62
   252
440
 33554687
370
     5
100
AcDbHatch
 10
0.0
 20
0.0
 30
0.0
210
0.0
220
0.0
230
1.0
  2
SOLID
 70
     1
 71
     1
 91
        1
 92
        3
 72
     0
 73
     1
 93
        4
 10
1080.934389361754
 20
-3623.169915159565
 10
1081.267722961322
 20
-3623.169915159565
 10
1081.267722961322
 20
-3624.073803959584
 10
1080.934389361754
 20
-3624.073803959584
 97
        0
 75
     0
 76
     1
 98
        0
  0
LWPOLYLINE
  5
38E
330
1F
100
AcDbEntity
  8
Ech.1_5
 62
     7
370
     9
100
AcDbPolyline
 90
        5
 70
     0
 43
0.0
 10
1080.934389361754
 20
-3623.169915159565
 10
1081.267722961322
 20
-3623.169915159565
 10
1081.267722961322
 20
-3624.073803959584
 10
1080.934389361754
 20
-3624.073803959584
 10
1080.934389361754
 20
-3623.169915159565
  0
HATCH
  5
38F
330
1F
100
AcDbEntity
  8
Ech.1_5
 62
   252
440
 33554687
370
     5
100
AcDbHatch
 10
0.0
 20
0.0
 30
0.0
210
0.0
220
0.0
230
1.0
  2
SOLID
 70
     1
 71
     1
 91
        1
 92
        3
 72
     0
 73
     1
 93
        4
 10
1081.267722561971
 20
-3623.169915159565
 10
1081.601056161538
 20
-3623.169915159565
 10
1081.601056161538
 20
-3624.073803959584
 10
1081.267722561971
 20
-3624.073803959584
 97
        0
 75
     0
 76
     1
 98
        0
  0
LWPOLYLINE
  5
390
330
1F
100
AcDbEntity
  8
Ech.1_5
 62
     7
370
     9
100
AcDbPolyline
 90
        5
 70
     0
 43
0.0
 10
1081.267722561971
 20
-3623.169915159565
 10
1081.601056161538
 20
-3623.169915159565
 10
1081.601056161538
 20
-3624.073803959584
 10
1081.267722561971
 20
-3624.073803959584
 10
1081.267722561971
 20
-3623.169915159565
  0
HATCH
  5
391
330
1F
100
AcDbEntity
  8
Ech.1_5
 62
   252
440
 33554687
370
     5
100
AcDbHatch
 10
0.0
 20
0.0
 30
0.0
210
0.0
220
0.0
230
1.0
  2
SOLID
 70
     1
 71
     1
 91
        1
 92
        3
 72
     0
 73
     1
 93
        4
 10
1081.601056161538
 20
-3623.169915159565
 10
1081.934389761106
 20
-3623.169915159565
 10
1081.934389761106
 20
-3624.073803959584
 10
1081.601056161538
 20
-3624.073803959584
 97
        0
 75
     0
 76
     1
 98
        0
  0
LWPOLYLINE
  5
392
330
1F
100
AcDbEntity
  8
Ech.1_5
 62
     7
370
     9
100
AcDbPolyline
 90
        5
 70
     0
 43
0.0
 10
1081.601056161538
 20
-3623.169915159565
 10
1081.934389761106
 20
-3623.169915159565
 10
1081.934389761106
 20
-3624.073803959584
 10
1081.601056161538
 20
-3624.073803959584
 10
1081.601056161538
 20
-3623.169915159565
  0
HATCH
  5
393
330
1F
100
AcDbEntity
  8
Ech.1_5
 62
   252
440
 33554687
370
     5
100
AcDbHatch
 10
0.0
 20
0.0
 30
0.0
210
0.0
220
0.0
230
1.0
  2
SOLID
 70
     1
 71
     1
 91
        1
 92
        3
 72
     0
 73
     1
 93
        4
 10
1081.934388962403
 20
-3623.169915159565
 10
1082.267722561971
 20
-3623.169915159565
 10
1082.267722561971
 20
-3624.073803959584
 10
1081.934388962403
 20
-3624.073803959584
 97
        0
 75
     0
 76
     1
 98
        0
  0
LWPOLYLINE
  5
394
330
1F
100
AcDbEntity
  8
Ech.1_5
 62
     7
370
     9
100
AcDbPolyline
 90
        5
 70
     0
 43
0.0
 10
1081.934388962403
 20
-3623.169915159565
 10
1082.267722561971
 20
-3623.169915159565
 10
1082.267722561971
 20
-3624.073803959584
 10
1081.934388962403
 20
-3624.073803959584
 10
1081.934388962403
 20
-3623.169915159565
  0
HATCH
  5
395
330
1F
100
AcDbEntity
  8
Ech.1_5
 62
   252
440
 33554687
370
     5
100
AcDbHatch
 10
0.0
 20
0.0
 30
0.0
210
0.0
220
0.0
230
1.0
  2
SOLID
 70
     1
 71
     1
 91
        1
 92
        3
 72
     0
 73
     1
 93
        4
 10
1082.267722561971
 20
-3623.169915159565
 10
1082.601056161538
 20
-3623.169915159565
 10
1082.601056161538
 20
-3624.073803959584
 10
1082.267722561971
 20
-3624.073803959584
 97
        0
 75
     0
 76
     1
 98
        0
  0
LWPOLYLINE
  5
396
330
1F
100
AcDbEntity
  8
Ech.1_5
 62
     7
370
     9
100
AcDbPolyline
 90
        5
 70
     0
 43
0.0
 10
1082.267722561971
 20
-3623.169915159565
 10
1082.601056161538
 20
-3623.169915159565
 10
1082.601056161538
 20
-3624.073803959584
 10
1082.267722561971
 20
-3624.073803959584
 10
1082.267722561971
 20
-3623.169915159565
  0
HATCH
  5
397
330
1F
100
AcDbEntity
  8
Ech.1_5
 62
   252
440
 33554687
370
     5
100
AcDbHatch
 10
0.0
 20
0.0
 30
0.0
210
0.0
220
0.0
230
1.0
  2
SOLID
 70
     1
 71
     1
 91
        1
 92
        3
 72
     0
 73
     1
 93
        4
 10
1082.601056161538
 20
-3623.169915159565
 10
1082.934389761106
 20
-3623.169915159565
 10
1082.934389761106
 20
-3624.073803959584
 10
1082.601056161538
 20
-3624.073803959584
 97
        0
 75
     0
 76
     1
 98
        0
  0
LWPOLYLINE
  5
398
330
1F
100
AcDbEntity
  8
Ech.1_5
 62
     7
370
     9
100
AcDbPolyline
 90
        5
 70
     0
 43
0.0
 10
1082.601056161538
 20
-3623.169915159565
 10
1082.934389761106
 20
-3623.169915159565
 10
1082.934389761106
 20
-3624.073803959584
 10
1082.601056161538
 20
-3624.073803959584
 10
1082.601056161538
 20
-3623.169915159565
  0
HATCH
  5
399
330
1F
100
AcDbEntity
  8
Ech.1_5
 62
   252
440
 33554687
370
     5
100
AcDbHatch
 10
0.0
 20
0.0
 30
0.0
210
0.0
220
0.0
230
1.0
  2
SOLID
 70
     1
 71
     1
 91
        1
 92
        3
 72
     0
 73
     1
 93
        4
 10
1082.934389761106
 20
-3623.169915159565
 10
1083.267723360674
 20
-3623.169915159565
 10
1083.267723360673
 20
-3624.073803959584
 10
1082.934389761106
 20
-3624.073803959584
 97
        0
 75
     0
 76
     1
 98
        0
  0
LWPOLYLINE
  5
39A
330
1F
100
AcDbEntity
  8
Ech.1_5
 62
     7
370
     9
100
AcDbPolyline
 90
        5
 70
     0
 43
0.0
 10
1082.934389761106
 20
-3623.169915159565
 10
1083.267723360674
 20
-3623.169915159565
 10
1083.267723360673
 20
-3624.073803959584
 10
1082.934389761106
 20
-3624.073803959584
 10
1082.934389761106
 20
-3623.169915159565
  0
HATCH
  5
39B
330
1F
100
AcDbEntity
  8
Ech.1_5
 62
   252
440
 33554687
370
     5
100
AcDbHatch
 10
0.0
 20
0.0
 30
0.0
210
0.0
220
0.0
230
1.0
  2
SOLID
 70
     1
 71
     1
 91
        1
 92
        3
 72
     0
 73
     1
 93
        4
 10
1083.267723360674
 20
-3623.169915159565
 10
1083.60105696024
 20
-3623.169915159565
 10
1083.60105696024
 20
-3624.073803959584
 10
1083.267723360673
 20
-3624.073803959584
 97
        0
 75
     0
 76
     1
 98
        0
  0
LWPOLYLINE
  5
39C
330
1F
100
AcDbEntity
  8
Ech.1_5
 62
     7
370
     9
100
AcDbPolyline
 90
        5
 70
     0
 43
0.0
 10
1083.267723360674
 20
-3623.169915159565
 10
1083.60105696024
 20
-3623.169915159565
 10
1083.60105696024
 20
-3624.073803959584
 10
1083.267723360673
 20
-3624.073803959584
 10
1083.267723360674
 20
-3623.169915159565
  0
HATCH
  5
39D
330
1F
100
AcDbEntity
  8
Ech.1_5
 62
   252
440
 33554687
370
     5
100
AcDbHatch
 10
0.0
 20
0.0
 30
0.0
210
0.0
220
0.0
230
1.0
  2
SOLID
 70
     1
 71
     1
 91
        1
 92
        3
 72
     0
 73
     1
 93
        4
 10
1083.601056161538
 20
-3623.169915159565
 10
1083.934389761106
 20
-3623.169915159565
 10
1083.934389761106
 20
-3624.073803959584
 10
1083.601056161538
 20
-3624.073803959584
 97
        0
 75
     0
 76
     1
 98
        0
  0
LWPOLYLINE
  5
39E
330
1F
100
AcDbEntity
  8
Ech.1_5
 62
     7
370
     9
100
AcDbPolyline
 90
        5
 70
     0
 43
0.0
 10
1083.601056161538
 20
-3623.169915159565
 10
1083.934389761106
 20
-3623.169915159565
 10
1083.934389761106
 20
-3624.073803959584
 10
1083.601056161538
 20
-3624.073803959584
 10
1083.601056161538
 20
-3623.169915159565
  0
HATCH
  5
39F
330
1F
100
AcDbEntity
  8
Ech.1_5
 62
   252
440
 33554687
370
     5
100
AcDbHatch
 10
0.0
 20
0.0
 30
0.0
210
0.0
220
0.0
230
1.0
  2
SOLID
 70
     1
 71
     1
 91
        1
 92
        3
 72
     0
 73
     1
 93
        4
 10
1083.934389361754
 20
-3623.169915159565
 10
1084.267722961322
 20
-3623.169915159565
 10
1084.267722961322
 20
-3624.073803959584
 10
1083.934389361754
 20
-3624.073803959584
 97
        0
 75
     0
 76
     1
 98
        0
  0
LWPOLYLINE
  5
3A0
330
1F
100
AcDbEntity
  8
Ech.1_5
 62
     7
370
     9
100
AcDbPolyline
 90
        5
 70
     0
 43
0.0
 10
1083.934389361754
 20
-3623.169915159565
 10
1084.267722961322
 20
-3623.169915159565
 10
1084.267722961322
 20
-3624.073803959584
 10
1083.934389361754
 20
-3624.073803959584
 10
1083.934389361754
 20
-3623.169915159565
  0
HATCH
  5
3A1
330
1F
100
AcDbEntity
  8
Ech.1_5
 62
   252
440
 33554687
370
     5
100
AcDbHatch
 10
0.0
 20
0.0
 30
0.0
210
0.0
220
0.0
230
1.0
  2
SOLID
 70
     1
 71
     1
 91
        1
 92
        3
 72
     0
 73
     1
 93
        4
 10
1084.267722961322
 20
-3623.169915159565
 10
1084.601056560889
 20
-3623.169915159565
 10
1084.601056560889
 20
-3624.073803959584
 10
1084.267722961322
 20
-3624.073803959584
 97
        0
 75
     0
 76
     1
 98
        0
  0
LWPOLYLINE
  5
3A2
330
1F
100
AcDbEntity
  8
Ech.1_5
 62
     7
370
     9
100
AcDbPolyline
 90
        5
 70
     0
 43
0.0
 10
1084.267722961322
 20
-3623.169915159565
 10
1084.601056560889
 20
-3623.169915159565
 10
1084.601056560889
 20
-3624.073803959584
 10
1084.267722961322
 20
-3624.073803959584
 10
1084.267722961322
 20
-3623.169915159565
  0
HATCH
  5
3A3
330
1F
100
AcDbEntity
  8
Ech.1_5
 62
   252
440
 33554687
370
     5
100
AcDbHatch
 10
0.0
 20
0.0
 30
0.0
210
0.0
220
0.0
230
1.0
  2
SOLID
 70
     1
 71
     1
 91
        1
 92
        3
 72
     0
 73
     1
 93
        4
 10
1084.601056161538
 20
-3623.169915159565
 10
1084.934389761106
 20
-3623.169915159565
 10
1084.934389761106
 20
-3624.073803959584
 10
1084.601056161538
 20
-3624.073803959584
 97
        0
 75
     0
 76
     1
 98
        0
  0
LWPOLYLINE
  5
3A4
330
1F
100
AcDbEntity
  8
Ech.1_5
 62
     7
370
     9
100
AcDbPolyline
 90
        5
 70
     0
 43
0.0
 10
1084.601056161538
 20
-3623.169915159565
 10
1084.934389761106
 20
-3623.169915159565
 10
1084.934389761106
 20
-3624.073803959584
 10
1084.601056161538
 20
-3624.073803959584
 10
1084.601056161538
 20
-3623.169915159565
  0
HATCH
  5
3A5
330
1F
100
AcDbEntity
  8
Ech.1_5
 62
   252
440
 33554687
370
     5
100
AcDbHatch
 10
0.0
 20
0.0
 30
0.0
210
0.0
220
0.0
230
1.0
  2
SOLID
 70
     1
 71
     1
 91
        1
 92
        3
 72
     0
 73
     1
 93
        4
 10
1084.934389761106
 20
-3623.169915159565
 10
1085.267723360673
 20
-3623.169915159565
 10
1085.267723360673
 20
-3624.073803959584
 10
1084.934389761106
 20
-3624.073803959584
 97
        0
 75
     0
 76
     1
 98
        0
  0
LWPOLYLINE
  5
3A6
330
1F
100
AcDbEntity
  8
Ech.1_5
 62
     7
370
     9
100
AcDbPolyline
 90
        5
 70
     0
 43
0.0
 10
1084.934389761106
 20
-3623.169915159565
 10
1085.267723360673
 20
-3623.169915159565
 10
1085.267723360673
 20
-3624.073803959584
 10
1084.934389761106
 20
-3624.073803959584
 10
1084.934389761106
 20
-3623.169915159565
  0
HATCH
  5
3A7
330
1F
100
AcDbEntity
  8
Ech.1_5
 62
   252
440
 33554687
370
     5
100
AcDbHatch
 10
0.0
 20
0.0
 30
0.0
210
0.0
220
0.0
230
1.0
  2
SOLID
 70
     1
 71
     1
 91
        1
 92
        3
 72
     0
 73
     1
 93
        4
 10
1085.267722561971
 20
-3623.169915159565
 10
1085.601056161538
 20
-3623.169915159565
 10
1085.601056161538
 20
-3624.073803959584
 10
1085.267722561971
 20
-3624.073803959584
 97
        0
 75
     0
 76
     1
 98
        0
  0
LWPOLYLINE
  5
3A8
330
1F
100
AcDbEntity
  8
Ech.1_5
 62
     7
370
     9
100
AcDbPolyline
 90
        5
 70
     0
 43
0.0
 10
1085.267722561971
 20
-3623.169915159565
 10
1085.601056161538
 20
-3623.169915159565
 10
1085.601056161538
 20
-3624.073803959584
 10
1085.267722561971
 20
-3624.073803959584
 10
1085.267722561971
 20
-3623.169915159565
  0
HATCH
  5
3A9
330
1F
100
AcDbEntity
  8
Ech.1_5
 62
   252
440
 33554687
370
     5
100
AcDbHatch
 10
0.0
 20
0.0
 30
0.0
210
0.0
220
0.0
230
1.0
  2
SOLID
 70
     1
 71
     1
 91
        1
 92
        3
 72
     0
 73
     1
 93
        4
 10
1085.601055362836
 20
-3623.169915159565
 10
1085.934388962403
 20
-3623.169915159565
 10
1085.934388962403
 20
-3624.073803959584
 10
1085.601055362836
 20
-3624.073803959584
 97
        0
 75
     0
 76
     1
 98
        0
  0
LWPOLYLINE
  5
3AA
330
1F
100
AcDbEntity
  8
Ech.1_5
 62
     7
370
     9
100
AcDbPolyline
 90
        5
 70
     0
 43
0.0
 10
1085.601055362836
 20
-3623.169915159565
 10
1085.934388962403
 20
-3623.169915159565
 10
1085.934388962403
 20
-3624.073803959584
 10
1085.601055362836
 20
-3624.073803959584
 10
1085.601055362836
 20
-3623.169915159565
  0
HATCH
  5
3AB
330
1F
100
AcDbEntity
  8
Ech.1_5
 62
   252
440
 33554687
370
     5
100
AcDbHatch
 10
0.0
 20
0.0
 30
0.0
210
0.0
220
0.0
230
1.0
  2
SOLID
 70
     1
 71
     1
 91
        1
 92
        3
 72
     0
 73
     1
 93
        4
 10
1085.934388962403
 20
-3623.169915159565
 10
1086.267722561971
 20
-3623.169915159565
 10
1086.267722561971
 20
-3624.073803959584
 10
1085.934388962403
 20
-3624.073803959584
 97
        0
 75
     0
 76
     1
 98
        0
  0
LWPOLYLINE
  5
3AC
330
1F
100
AcDbEntity
  8
Ech.1_5
 62
     7
370
     9
100
AcDbPolyline
 90
        5
 70
     0
 43
0.0
 10
1085.934388962403
 20
-3623.169915159565
 10
1086.267722561971
 20
-3623.169915159565
 10
1086.267722561971
 20
-3624.073803959584
 10
1085.934388962403
 20
-3624.073803959584
 10
1085.934388962403
 20
-3623.169915159565
  0
HATCH
  5
3AD
330
1F
100
AcDbEntity
  8
Ech.1_5
 62
   252
440
 33554687
370
     5
100
AcDbHatch
 10
0.0
 20
0.0
 30
0.0
210
0.0
220
0.0
230
1.0
  2
SOLID
 70
     1
 71
     1
 91
        1
 92
        3
 72
     0
 73
     1
 93
        4
 10
1086.267722561971
 20
-3623.169915159565
 10
1086.601056161538
 20
-3623.169915159565
 10
1086.601056161538
 20
-3624.073803959584
 10
1086.267722561971
 20
-3624.073803959584
 97
        0
 75
     0
 76
     1
 98
        0
  0
LWPOLYLINE
  5
3AE
330
1F
100
AcDbEntity
  8
Ech.1_5
 62
     7
370
     9
100
AcDbPolyline
 90
        5
 70
     0
 43
0.0
 10
1086.267722561971
 20
-3623.169915159565
 10
1086.601056161538
 20
-3623.169915159565
 10
1086.601056161538
 20
-3624.073803959584
 10
1086.267722561971
 20
-3624.073803959584
 10
1086.267722561971
 20
-3623.169915159565
  0
HATCH
  5
3AF
330
1F
100
AcDbEntity
  8
Ech.1_5
 62
   252
440
 33554687
370
     5
100
AcDbHatch
 10
0.0
 20
0.0
 30
0.0
210
0.0
220
0.0
230
1.0
  2
SOLID
 70
     1
 71
     1
 91
        1
 92
        3
 72
     0
 73
     1
 93
        4
 10
1086.601056161538
 20
-3623.169915159565
 10
1086.934389761106
 20
-3623.169915159565
 10
1086.934389761106
 20
-3624.073803959584
 10
1086.601056161538
 20
-3624.073803959584
 97
        0
 75
     0
 76
     1
 98
        0
  0
LWPOLYLINE
  5
3B0
330
1F
100
AcDbEntity
  8
Ech.1_5
 62
     7
370
     9
100
AcDbPolyline
 90
        5
 70
     0
 43
0.0
 10
1086.601056161538
 20
-3623.169915159565
 10
1086.934389761106
 20
-3623.169915159565
 10
1086.934389761106
 20
-3624.073803959584
 10
1086.601056161538
 20
-3624.073803959584
 10
1086.601056161538
 20
-3623.169915159565
  0
HATCH
  5
3B1
330
1F
100
AcDbEntity
  8
Ech.1_5
 62
   252
440
 33554687
370
     5
100
AcDbHatch
 10
0.0
 20
0.0
 30
0.0
210
0.0
220
0.0
230
1.0
  2
SOLID
 70
     1
 71
     1
 91
        1
 92
        3
 72
     0
 73
     1
 93
        4
 10
1086.934388962403
 20
-3623.169915159565
 10
1087.267722561971
 20
-3623.169915159565
 10
1087.267722561971
 20
-3624.073803959584
 10
1086.934388962403
 20
-3624.073803959584
 97
        0
 75
     0
 76
     1
 98
        0
  0
LWPOLYLINE
  5
3B2
330
1F
100
AcDbEntity
  8
Ech.1_5
 62
     7
370
     9
100
AcDbPolyline
 90
        5
 70
     0
 43
0.0
 10
1086.934388962403
 20
-3623.169915159565
 10
1087.267722561971
 20
-3623.169915159565
 10
1087.267722561971
 20
-3624.073803959584
 10
1086.934388962403
 20
-3624.073803959584
 10
1086.934388962403
 20
-3623.169915159565
  0
HATCH
  5
3B3
330
1F
100
AcDbEntity
  8
Ech.1_5
 62
   252
440
 33554687
370
     5
100
AcDbHatch
 10
0.0
 20
0.0
 30
0.0
210
0.0
220
0.0
230
1.0
  2
SOLID
 70
     1
 71
     1
 91
        1
 92
        3
 72
     0
 73
     1
 93
        4
 10
1087.26772216262
 20
-3623.169915159565
 10
1087.601055762187
 20
-3623.169915159565
 10
1087.601055762187
 20
-3624.073803959584
 10
1087.26772216262
 20
-3624.073803959584
 97
        0
 75
     0
 76
     1
 98
        0
  0
LWPOLYLINE
  5
3B4
330
1F
100
AcDbEntity
  8
Ech.1_5
 62
     7
370
     9
100
AcDbPolyline
 90
        5
 70
     0
 43
0.0
 10
1087.26772216262
 20
-3623.169915159565
 10
1087.601055762187
 20
-3623.169915159565
 10
1087.601055762187
 20
-3624.073803959584
 10
1087.26772216262
 20
-3624.073803959584
 10
1087.26772216262
 20
-3623.169915159565
  0
HATCH
  5
3B5
330
1F
100
AcDbEntity
  8
Ech.1_5
 62
   252
440
 33554687
370
     5
100
AcDbHatch
 10
0.0
 20
0.0
 30
0.0
210
0.0
220
0.0
230
1.0
  2
SOLID
 70
     1
 71
     1
 91
        1
 92
        3
 72
     0
 73
     1
 93
        4
 10
1087.601055762187
 20
-3623.169915159565
 10
1087.934389361754
 20
-3623.169915159565
 10
1087.934389361754
 20
-3624.073803959584
 10
1087.601055762187
 20
-3624.073803959584
 97
        0
 75
     0
 76
     1
 98
        0
  0
LWPOLYLINE
  5
3B6
330
1F
100
AcDbEntity
  8
Ech.1_5
 62
     7
370
     9
100
AcDbPolyline
 90
        5
 70
     0
 43
0.0
 10
1087.601055762187
 20
-3623.169915159565
 10
1087.934389361754
 20
-3623.169915159565
 10
1087.934389361754
 20
-3624.073803959584
 10
1087.601055762187
 20
-3624.073803959584
 10
1087.601055762187
 20
-3623.169915159565
  0
HATCH
  5
3B7
330
1F
100
AcDbEntity
  8
Ech.1_5
 62
   252
440
 33554687
370
     5
100
AcDbHatch
 10
0.0
 20
0.0
 30
0.0
210
0.0
220
0.0
230
1.0
  2
SOLID
 70
     1
 71
     1
 91
        1
 92
        3
 72
     0
 73
     1
 93
        4
 10
1087.934388962403
 20
-3623.169915159565
 10
1088.267722561971
 20
-3623.169915159565
 10
1088.267722561971
 20
-3624.073803959584
 10
1087.934388962403
 20
-3624.073803959584
 97
        0
 75
     0
 76
     1
 98
        0
  0
LWPOLYLINE
  5
3B8
330
1F
100
AcDbEntity
  8
Ech.1_5
 62
     7
370
     9
100
AcDbPolyline
 90
        5
 70
     0
 43
0.0
 10
1087.934388962403
 20
-3623.169915159565
 10
1088.267722561971
 20
-3623.169915159565
 10
1088.267722561971
 20
-3624.073803959584
 10
1087.934388962403
 20
-3624.073803959584
 10
1087.934388962403
 20
-3623.169915159565
  0
HATCH
  5
3B9
330
1F
100
AcDbEntity
  8
Ech.1_5
 62
   252
440
 33554687
370
     5
100
AcDbHatch
 10
0.0
 20
0.0
 30
0.0
210
0.0
220
0.0
230
1.0
  2
SOLID
 70
     1
 71
     1
 91
        1
 92
        3
 72
     0
 73
     1
 93
        4
 10
1088.267722561971
 20
-3623.169915159565
 10
1088.601056161538
 20
-3623.169915159565
 10
1088.601056161538
 20
-3624.073803959584
 10
1088.267722561971
 20
-3624.073803959584
 97
        0
 75
     0
 76
     1
 98
        0
  0
LWPOLYLINE
  5
3BA
330
1F
100
AcDbEntity
  8
Ech.1_5
 62
     7
370
     9
100
AcDbPolyline
 90
        5
 70
     0
 43
0.0
 10
1088.267722561971
 20
-3623.169915159565
 10
1088.601056161538
 20
-3623.169915159565
 10
1088.601056161538
 20
-3624.073803959584
 10
1088.267722561971
 20
-3624.073803959584
 10
1088.267722561971
 20
-3623.169915159565
  0
HATCH
  5
3BB
330
1F
100
AcDbEntity
  8
Ech.1_5
 62
   252
440
 33554687
370
     5
100
AcDbHatch
 10
0.0
 20
0.0
 30
0.0
210
0.0
220
0.0
230
1.0
  2
SOLID
 70
     1
 71
     1
 91
        1
 92
        3
 72
     0
 73
     1
 93
        4
 10
1088.601055362836
 20
-3623.169915159565
 10
1088.934388962403
 20
-3623.169915159565
 10
1088.934388962403
 20
-3624.073803959584
 10
1088.601055362836
 20
-3624.073803959584
 97
        0
 75
     0
 76
     1
 98
        0
  0
LWPOLYLINE
  5
3BC
330
1F
100
AcDbEntity
  8
Ech.1_5
 62
     7
370
     9
100
AcDbPolyline
 90
        5
 70
     0
 43
0.0
 10
1088.601055362836
 20
-3623.169915159565
 10
1088.934388962403
 20
-3623.169915159565
 10
1088.934388962403
 20
-3624.073803959584
 10
1088.601055362836
 20
-3624.073803959584
 10
1088.601055362836
 20
-3623.169915159565
  0
HATCH
  5
3BD
330
1F
100
AcDbEntity
  8
Ech.1_5
 62
   252
440
 33554687
370
     5
100
AcDbHatch
 10
0.0
 20
0.0
 30
0.0
210
0.0
220
0.0
230
1.0
  2
SOLID
 70
     1
 71
     1
 91
        1
 92
        3
 72
     0
 73
     1
 93
        4
 10
1088.934388962403
 20
-3623.169915159565
 10
1089.267722561971
 20
-3623.169915159565
 10
1089.267722561971
 20
-3624.073803959584
 10
1088.934388962403
 20
-3624.073803959584
 97
        0
 75
     0
 76
     1
 98
        0
  0
LWPOLYLINE
  5
3BE
330
1F
100
AcDbEntity
  8
Ech.1_5
 62
     7
370
     9
100
AcDbPolyline
 90
        5
 70
     0
 43
0.0
 10
1088.934388962403
 20
-3623.169915159565
 10
1089.267722561971
 20
-3623.169915159565
 10
1089.267722561971
 20
-3624.073803959584
 10
1088.934388962403
 20
-3624.073803959584
 10
1088.934388962403
 20
-3623.169915159565
  0
HATCH
  5
3BF
330
1F
100
AcDbEntity
  8
Ech.1_5
 62
   252
440
 33554687
370
     5
100
AcDbHatch
 10
0.0
 20
0.0
 30
0.0
210
0.0
220
0.0
230
1.0
  2
SOLID
 70
     1
 71
     1
 91
        1
 92
        3
 72
     0
 73
     1
 93
        4
 10
1089.267722561971
 20
-3623.169915159565
 10
1089.601056161538
 20
-3623.169915159565
 10
1089.601056161538
 20
-3624.073803959584
 10
1089.267722561971
 20
-3624.073803959584
 97
        0
 75
     0
 76
     1
 98
        0
  0
LWPOLYLINE
  5
3C0
330
1F
100
AcDbEntity
  8
Ech.1_5
 62
     7
370
     9
100
AcDbPolyline
 90
        5
 70
     0
 43
0.0
 10
1089.267722561971
 20
-3623.169915159565
 10
1089.601056161538
 20
-3623.169915159565
 10
1089.601056161538
 20
-3624.073803959584
 10
1089.267722561971
 20
-3624.073803959584
 10
1089.267722561971
 20
-3623.169915159565
  0
HATCH
  5
3C1
330
1F
100
AcDbEntity
  8
Ech.1_5
 62
   252
440
 33554687
370
     5
100
AcDbHatch
 10
0.0
 20
0.0
 30
0.0
210
0.0
220
0.0
230
1.0
  2
SOLID
 70
     1
 71
     1
 91
        1
 92
        3
 72
     0
 73
     1
 93
        4
 10
1089.601056161538
 20
-3623.169915159565
 10
1089.934389761106
 20
-3623.169915159565
 10
1089.934389761106
 20
-3624.073803959584
 10
1089.601056161538
 20
-3624.073803959584
 97
        0
 75
     0
 76
     1
 98
        0
  0
LWPOLYLINE
  5
3C2
330
1F
100
AcDbEntity
  8
Ech.1_5
 62
     7
370
     9
100
AcDbPolyline
 90
        5
 70
     0
 43
0.0
 10
1089.601056161538
 20
-3623.169915159565
 10
1089.934389761106
 20
-3623.169915159565
 10
1089.934389761106
 20
-3624.073803959584
 10
1089.601056161538
 20
-3624.073803959584
 10
1089.601056161538
 20
-3623.169915159565
  0
HATCH
  5
3C3
330
1F
100
AcDbEntity
  8
Ech.1_5
 62
   252
440
 33554687
370
     5
100
AcDbHatch
 10
0.0
 20
0.0
 30
0.0
210
0.0
220
0.0
230
1.0
  2
SOLID
 70
     1
 71
     1
 91
        1
 92
        3
 72
     1
 73
     1
 93
        4
 10
1091.814022561805
 20
-3624.073803959584
 42
0.0
 10
1091.267721763269
 20
-3624.073803959584
 42
0.0
 10
1091.267721763269
 20
-3623.169915159565
 42
0.0
 10
1091.814022561805
 20
-3623.169915159565
 42
0.3513591548519267
 97
        0
 75
     0
 76
     1
 98
        0
  0
LWPOLYLINE
  5
3C4
330
1F
100
AcDbEntity
  8
Ech.1_5
 62
     7
370
     9
100
AcDbPolyline
 90
        5
 70
     0
 43
0.0
 10
1091.814022561805
 20
-3624.073803959584
 10
1091.267721763269
 20
-3624.073803959584
 10
1091.267721763269
 20
-3623.169915159565
 10
1091.814022561805
 20
-3623.169915159565
 42
0.3513591548518972
 10
1091.814022561805
 20
-3624.073803959584
  0
HATCH
  5
3C5
330
1F
100
AcDbEntity
  8
Ech.1_5
 62
   252
440
 33554687
370
     5
100
AcDbHatch
 10
0.0
 20
0.0
 30
0.0
210
0.0
220
0.0
230
1.0
  2
SOLID
 70
     1
 71
     1
 91
        1
 92
        3
 72
     1
 73
     1
 93
        3
 10
1092.878833362358
 20
-3623.621859559586
 42
0.0
 10
1091.814022561805
 20
-3624.073803959584
 42
-0.3513591548519267
 10
1091.814022561805
 20
-3623.169915159565
 42
0.0
 97
        0
 75
     0
 76
     1
 98
        0
  0
LWPOLYLINE
  5
3C6
330
1F
100
AcDbEntity
  8
Ech.1_5
 62
     7
370
     9
100
AcDbPolyline
 90
        4
 70
     0
 43
0.0
 10
1092.878833362358
 20
-3623.621859559586
 10
1091.814022561805
 20
-3624.073803959584
 42
-0.3513591548518956
 10
1091.814022561805
 20
-3623.169915159565
 10
1092.878833362358
 20
-3623.621859559586
  0
HATCH
  5
3C7
330
1F
100
AcDbEntity
  8
Ech.1_5
 62
   252
440
 33554687
370
     5
100
AcDbHatch
 10
0.0
 20
0.0
 30
0.0
210
0.0
220
0.0
230
1.0
  2
SOLID
 70
     1
 71
     1
 91
        1
 92
        3
 72
     1
 73
     1
 93
        6
 10
1075.601055362836
 20
-3623.169915159568
 42
0.0
 10
1074.901055762069
 20
-3623.169915159565
 42
-0.4142135727478138
 10
1074.678833362358
 20
-3622.947692759574
 42
0.0
 10
1074.678833362358
 20
-3624.296026359601
 42
-0.4142135726673814
 10
1074.901055762069
 20
-3624.073803959584
 42
0.0
 10
1075.601055362836
 20
-3624.073803959584
 42
0.0
 97
        0
 75
     0
 76
     1
 98
        0
  0
LWPOLYLINE
  5
3C8
330
1F
100
AcDbEntity
  8
Ech.1_5
 62
     7
370
     9
100
AcDbPolyline
 90
        7
 70
     0
 43
0.0
 10
1075.601055362836
 20
-3623.169915159568
 10
1074.901055762069
 20
-3623.169915159565
 42
-0.4142135727497837
 10
1074.678833362358
 20
-3622.947692759574
 10
1074.678833362358
 20
-3624.296026359601
 42
-0.414213572666436
 10
1074.901055762069
 20
-3624.073803959584
 10
1075.601055362836
 20
-3624.073803959584
 10
1075.601055362836
 20
-3623.169915159568
  0
HATCH
  5
3C9
330
1F
100
AcDbEntity
  8
Ech.1_5
 62
   252
440
 33554687
370
     5
100
AcDbHatch
 10
0.0
 20
0.0
 30
0.0
210
0.0
220
0.0
230
1.0
  2
SOLID
 70
     1
 71
     1
 91
        1
 92
        1
 93
        2
 72
     1
 10
1074.556611361997
 20
-3622.61435954902
 11
1074.556611361997
 21
-3624.629359570128
 72
     2
 10
1079.581892718327
 20
-3623.621859559574
 40
5.125281356329573
 50
168.6632793503046
 51
191.3367206496955
 73
     0
 97
        0
 75
     0
 76
     1
 98
        0
  0
LWPOLYLINE
  5
3CA
330
1F
100
AcDbEntity
  8
Ech.1_5
 62
     7
370
     9
100
AcDbPolyline
 90
        3
 70
     0
 43
0.0
 10
1074.556611361997
 20
-3622.61435954902
 10
1074.556611361997
 20
-3624.629359570128
 42
-0.0992555820868614
 10
1074.556611361997
 20
-3622.61435954902
  0
HATCH
  5
3CB
330
1F
100
AcDbEntity
  8
Ech.1_5
 62
   252
440
 33554687
370
     5
100
AcDbHatch
 10
0.0
 20
0.0
 30
0.0
210
0.0
220
0.0
230
1.0
  2
SOLID
 70
     1
 71
     1
 91
        1
 92
        3
 72
     0
 73
     1
 93
        6
 10
1074.678833362358
 20
-3622.61435955959
 10
1074.678833362358
 20
-3622.947692759574
 10
1074.678833362358
 20
-3624.296026359601
 10
1074.678833362358
 20
-3624.629359559581
 10
1074.556611361997
 20
-3624.629359570128
 10
1074.556611361997
 20
-3622.61435954902
 97
        0
 75
     0
 76
     1
 98
        0
  0
LWPOLYLINE
  5
3CC
330
1F
100
AcDbEntity
  8
Ech.1_5
 62
     7
370
     9
100
AcDbPolyline
 90
        7
 70
     0
 43
0.0
 10
1074.678833362358
 20
-3622.61435955959
 10
1074.678833362358
 20
-3622.947692759574
 10
1074.678833362358
 20
-3624.296026359601
 10
1074.678833362358
 20
-3624.629359559581
 10
1074.556611361997
 20
-3624.629359570128
 10
1074.556611361997
 20
-3622.61435954902
 10
1074.678833362358
 20
-3622.61435955959
  0
HATCH
  5
3CD
330
1F
100
AcDbEntity
  8
Ech.1_5
 62
   252
440
 33554687
370
     5
100
AcDbHatch
 10
0.0
 20
0.0
 30
0.0
210
0.0
220
0.0
230
1.0
  2
SOLID
 70
     1
 71
     1
 91
        1
 92
        3
 72
     0
 73
     1
 93
        4
 10
1089.934389761106
 20
-3623.169915159565
 10
1090.267723360673
 20
-3623.169915159565
 10
1090.267723360673
 20
-3624.073803959584
 10
1089.934389761106
 20
-3624.073803959584
 97
        0
 75
     0
 76
     1
 98
        0
  0
LWPOLYLINE
  5
3CE
330
1F
100
AcDbEntity
  8
Ech.1_5
 62
     7
370
     9
100
AcDbPolyline
 90
        5
 70
     0
 43
0.0
 10
1089.934389761106
 20
-3623.169915159565
 10
1090.267723360673
 20
-3623.169915159565
 10
1090.267723360673
 20
-3624.073803959584
 10
1089.934389761106
 20
-3624.073803959584
 10
1089.934389761106
 20
-3623.169915159565
  0
LINE
  5
3CF
330
1F
100
AcDbEntity
  8
Ech.1_5
 62
   190
370
     9
100
AcDbLine
 10
1090.601055362836
 20
-3624.073803959584
 30
0.0
 11
1090.601055362836
 21
-3623.169915159565
 31
0.0
  0
LINE
  5
3D0
330
1F
100
AcDbEntity
  8
Ech.1_5
 62
   190
370
     9
100
AcDbLine
 10
1090.934388962403
 20
-3624.073803959584
 30
0.0
 11
1090.934388962403
 21
-3623.169915159565
 31
0.0
  0
LINE
  5
3D1
330
1F
100
AcDbEntity
  8
Ech.1_5
 62
   190
370
     9
100
AcDbLine
 10
1091.267721763269
 20
-3624.073803959584
 30
0.0
 11
1091.267721763269
 21
-3623.169915159565
 31
0.0
  0
LINE
  5
3D2
330
1F
100
AcDbEntity
  8
Ech.1_5
 62
   190
370
     9
100
AcDbLine
 10
1090.267722561971
 20
-3624.073803959584
 30
0.0
 11
1090.267722561971
 21
-3623.169915159565
 31
0.0
  0
HATCH
  5
3D3
330
1F
100
AcDbEntity
  8
Ech.1_5
 62
   252
440
 33554687
370
     5
100
AcDbHatch
 10
0.0
 20
0.0
 30
0.0
210
0.0
220
0.0
230
1.0
  2
SOLID
 70
     1
 71
     1
 91
        1
 92
        3
 72
     0
 73
     1
 93
        4
 10
1090.267721763269
 20
-3623.169915159565
 10
1090.601055362836
 20
-3623.169915159565
 10
1090.601055362836
 20
-3624.073803959584
 10
1090.267721763269
 20
-3624.073803959584
 97
        0
 75
     0
 76
     1
 98
        0
  0
LWPOLYLINE
  5
3D4
330
1F
100
AcDbEntity
  8
Ech.1_5
 62
     7
370
     9
100
AcDbPolyline
 90
        5
 70
     0
 43
0.0
 10
1090.267721763269
 20
-3623.169915159565
 10
1090.601055362836
 20
-3623.169915159565
 10
1090.601055362836
 20
-3624.073803959584
 10
1090.267721763269
 20
-3624.073803959584
 10
1090.267721763269
 20
-3623.169915159565
  0
HATCH
  5
3D5
330
1F
100
AcDbEntity
  8
Ech.1_5
 62
   252
440
 33554687
370
     5
100
AcDbHatch
 10
0.0
 20
0.0
 30
0.0
210
0.0
220
0.0
230
1.0
  2
SOLID
 70
     1
 71
     1
 91
        1
 92
        3
 72
     0
 73
     1
 93
        4
 10
1090.934388163701
 20
-3623.169915159565
 10
1091.267721763269
 20
-3623.169915159565
 10
1091.267721763269
 20
-3624.073803959584
 10
1090.934388163701
 20
-3624.073803959584
 97
        0
 75
     0
 76
     1
 98
        0
  0
LWPOLYLINE
  5
3D6
330
1F
100
AcDbEntity
  8
Ech.1_5
 62
     7
370
     9
100
AcDbPolyline
 90
        5
 70
     0
 43
0.0
 10
1090.934388163701
 20
-3623.169915159565
 10
1091.267721763269
 20
-3623.169915159565
 10
1091.267721763269
 20
-3624.073803959584
 10
1090.934388163701
 20
-3624.073803959584
 10
1090.934388163701
 20
-3623.169915159565
  0
LWPOLYLINE
  5
3D7
330
1F
100
AcDbEntity
  8
Ech.1_5
 62
   202
420
  8519880
370
    50
100
AcDbPolyline
 90
        4
 70
     0
 43
0.0
 10
1104.523890248654
 20
-3643.589605503104
 10
1104.523890248654
 20
-3637.593952135105
 10
1102.251645064654
 20
-3636.020059279104
 10
1102.251645064654
 20
-3628.628687275104
  0
LWPOLYLINE
  5
3D8
330
1F
100
AcDbEntity
  8
Ech.1_5
 62
   202
420
  8519880
370
    50
100
AcDbPolyline
 90
        4
 70
     0
 43
0.0
 10
1088.455358380654
 20
-3615.009255911586
 10
1099.491369416654
 20
-3614.624795663585
 42
-0.3516434700004065
 10
1103.682132804655
 20
-3618.590919027585
 10
1103.682132804655
 20
-3636.190899935586
  0
LWPOLYLINE
  5
3D9
330
1F
100
AcDbEntity
  8
Ech.1_5
 62
   190
370
    20
100
AcDbPolyline
 90
        3
 70
     0
 43
0.0
 10
1090.054117769097
 20
-3627.553711954353
 10
1062.704042605844
 20
-3656.470883821242
 10
1054.704042605844
 20
-3656.470883821242
  0
INSERT
  5
3DA
330
1F
100
AcDbEntity
  8
Ech.1_5
 62
   190
370
    20
100
AcDbBlockReference
  2
cw-line-extremity4
 10
1090.054117769097
 20
-3627.553711954353
 30
0.0
 50
226.5953299170678
  0
MTEXT
  5
3DB
330
1F
100
AcDbEntity
  8
Ech.1_5
 62
     7
100
AcDbMText
 10
1238.30594154609
 20
-3629.113659027586
 30
0.0
 40
5.5
 41
61.47618331299168
 46
0.0
 71
     1
 72
     1
  1
{\fArial|b0|i0;\W1.000000;\H5.500000;\c16711848;Gaine Ø < 16mm}
 73
     1
 44
1.07999975538982
  0
MTEXT
  5
3DC
330
1F
100
AcDbEntity
  8
Ech.1_5
 62
     4
420
    65535
100
AcDbMText
 10
1170.549107637575
 20
-3857.515243748199
 30
0.0
 40
5.0
 41
195.3371538540771
 46
0.0
 71
     2
 72
     1
  1
{\fArial|b0|i0;\W1.000000;\H5.000000;\c16711848;Vue en coupe verticale}
 73
     1
 44
1.07999975538982
  0
MTEXT
  5
3DD
330
1F
100
AcDbEntity
  8
Ech.1_5
 62
     4
420
    65535
100
AcDbMText
 10
1298.677151645913
 20
-3857.448373151139
 30
0.0
 40
5.0
 41
50.91893416259836
 46
0.0
 71
     2
 72
     1
  1
{\fArial|b0|i0;\W1.000000;\H5.000000;\c16711848;Ech 1/5 }
 73
     1
 44
1.07999975538982
  0
MTEXT
  5
3DE
330
1F
100
AcDbEntity
  8
Ech.1_5
 62
     4
420
    65535
100
AcDbMText
 10
1039.149487111466
 20
-3857.339670630146
 30
0.0
 40
5.0
 41
57.46208719814172
 46
0.0
 71
     2
 72
     1
  1
{\fArial|b0|i0;\W1.000000;\H5.000000;\c16711848;BLEVT40-04}
 73
     1
 44
1.07999975538982
  0
MTEXT
  5
3DF
330
1F
100
AcDbEntity
  8
Ech.1_5
 62
   200
420
 11010303
100
AcDbMText
 10
1129.636618727212
 20
-3865.92231756488
 30
0.0
 40
2.25
 41
391.75
 46
0.0
 71
     2
 72
     1
  3
{\fArial|b0|i1;\W1.000000;\H2.250000;\c16711848; Il est rappelé à l'utilisateur qui consulte le site et utilise les informations qu'il contient, qu'il doit les utiliser sous sa seule responsabilité en vérifiant leur pertinence, leur cohérence et leur
  1
 non obsolescence.}
 73
     1
 44
1.07999975538982
  0
MTEXT
  5
3E0
330
1F
100
AcDbEntity
  8
Ech.1_5
 62
   200
420
 11010303
100
AcDbMText
 10
1129.636618727212
 20
-3879.463128722283
 30
0.0
 40
2.75
 41
391.25
 46
0.0
 71
     2
 72
     1
  1
{\fArial|b0|i1;\W1.000000;\H2.750000;\c16711848;www.catalogue-bois-construction.fr}
 73
     1
 44
1.07999975538982
  0
MTEXT
  5
3E1
330
1F
100
AcDbEntity
  8
Ech.1_5
 62
     4
420
    65535
100
AcDbMText
 10
1129.636618727212
 20
-3397.368888425389
 30
0.0
 40
6.0
 41
388.0
 46
0.0
 71
     2
 72
     1
  1
{\fArial|b0|i0;\W1.000000;\H6.000000;\c16711848;Traversée de paroi - Détail sur Fourreau - Compatible niveau étanchéité Ee2}
 73
     1
 44
1.07999975538982
  0
MTEXT
  5
3E2
330
1F
100
AcDbEntity
  8
Ech.1_5
 62
     4
420
    65535
100
AcDbMText
 10
1054.704042605844
 20
-3571.232590171034
 30
0.0
 40
5.5
 41
111.527883776577
 46
0.0
 71
     3
 72
     1
  1
{\fArial|b0|i0;\W1.000000;\H5.500000;\c16711848;Manchon ou manchette élastique en caoutchouc EPDM - diamètre fonction du fourreau}
 73
     1
 44
1.07999975538982
  0
MTEXT
  5
3E3
330
1F
100
AcDbEntity
  8
Ech.1_5
 62
     4
420
    65535
100
AcDbMText
 10
1051.954042605844
 20
-3463.380941327268
 30
0.0
 40
5.5
 41
90.93480449709318
 46
0.0
 71
     3
 72
     1
  1
{\fArial|b0|i0;\W1.000000;\H5.500000;\c16711848;Doube-tasseautage bois support de bardage}
 73
     1
 44
1.07999975538982
  0
MTEXT
  5
3E4
330
1F
100
AcDbEntity
  8
Ech.1_5
 62
     4
420
    65535
100
AcDbMText
 10
1051.954042605844
 20
-3492.45980532972
 30
0.0
 40
5.5
 41
73.49250351114301
 46
0.0
 71
     3
 72
     1
  1
{\fArial|b0|i0;\W1.000000;\H5.500000;\c16711848;Paroi support}
 73
     1
 44
1.07999975538982
  0
MTEXT
  5
3E5
330
1F
100
AcDbEntity
  8
Ech.1_5
 62
     4
420
    65535
100
AcDbMText
 10
1051.954042605844
 20
-3513.913470108269
 30
0.0
 40
5.5
 41
111.82184558722
 46
0.0
 71
     3
 72
     1
  1
{\fArial|b0|i0;\W1.000000;\H5.500000;\c16711848;Bardage bois en lames à emboitement en pose verticale - épaisseur 18 mm mini}
 73
     1
 44
1.07999975538982
  0
MTEXT
  5
3E6
330
1F
100
AcDbEntity
  8
Ech.1_5
 62
     4
420
    65535
100
AcDbMText
 10
1054.704042605844
 20
-3643.820884083503
 30
0.0
 40
5.5
 41
106.1882031679153
 46
0.0
 71
     3
 72
     1
  1
{\fArial|b0|i0;\W1.000000;\H5.500000;\c16711848;Tasseaux à prévoir de part et d'autre du percement pour fixation des lames de bardage}
 73
     1
 44
1.07999975538982
  0
TEXT
  5
3E8
330
1F
100
AcDbEntity
  8
Ech.1_5
 62
   190
100
AcDbText
 10
1069.324178060574
 20
-3608.346414923587
 30
0.0
 40
4.999999999999999
  1
2 mm
 50
89.99999749996337
  7
arial-
100
AcDbText
  0
TEXT
  5
3E9
330
1F
100
AcDbEntity
  8
Ech.1_5
 62
   190
100
AcDbText
 10
953.3654710081287
 20
-3862.31203037003
 30
0.0
 40
5.0
  1
28/09/2020
  7
arial-
100
AcDbText
  0
TEXT
  5
3EA
330
1F
100
AcDbEntity
  8
Ech.1_5
 62
   190
100
AcDbText
 10
1003.332511061198
 20
-3391.25828657245
 30
0.0
 40
6.6
  1
Epaisseur mini selon NF DTU 41.2 - hors exigences feu façade
  7
arial-
100
AcDbText
  0
TEXT
  5
3EC
330
1F
100
AcDbEntity
  8
Ech.1_5
 62
   190
100
AcDbText
 10
996.280448072917
 20
-3378.304899456194
 30
0.0
 40
6.6
  1
BARDAGES EN LAMES : lames à emboitement - pose verticale
  7
arial-b
100
AcDbText
  0
TEXT
  5
3EE
330
1F
100
AcDbEntity
  8
Ech.1_5
 62
   154
420
    21156
100
AcDbText
 10
1268.079861762844
 20
-3432.257310189301
 30
0.0
 40
6.000000000000001
  1
m
 50
8.975659904396963
 41
0.8000000000000002
  7
tahoma-b
100
AcDbText
  0
TEXT
  5
3EF
330
1F
100
AcDbEntity
  8
Ech.1_5
 62
   154
420
    21156
100
AcDbText
 10
1261.228383345312
 20
-3434.50450693137
 30
0.0
 40
6.0
  1
C
 50
20.66888961044281
 41
0.8000000000000002
  7
tahoma-b
100
AcDbText
  0
TEXT
  5
3F0
330
1F
100
AcDbEntity
  8
Ech.1_5
 62
   154
420
    21156
100
AcDbText
 10
1264.780772410418
 20
-3433.164374795031
 30
0.0
 40
6.0
  1
o
 50
15.37326472327919
 41
0.8000000000000002
  7
tahoma-b
100
AcDbText
  0
TEXT
  5
3F1
330
1F
100
AcDbEntity
  8
Ech.1_5
 62
   154
420
    21156
100
AcDbText
 10
1273.311804248509
 20
-3431.430930115885
 30
0.0
 40
6.000000000000001
  1
p
 50
2.547444553694536
 41
0.8000000000000002
  7
tahoma-b
100
AcDbText
  0
TEXT
  5
3F2
330
1F
100
AcDbEntity
  8
Ech.1_5
 62
   154
420
    21156
100
AcDbText
 10
1276.771594140937
 20
-3431.277001934805
 30
0.0
 40
6.0
  1
a
 50
357.5885357786794
 41
0.8000000000000002
  7
tahoma-b
100
AcDbText
  0
TEXT
  5
3F3
330
1F
100
AcDbEntity
  8
Ech.1_5
 62
   154
420
    21156
100
AcDbText
 10
1280.065087232492
 20
-3431.415700347023
 30
0.0
 40
6.0
  1
t
 50
353.6091644148265
 41
0.8000000000000002
  7
tahoma-b
100
AcDbText
  0
TEXT
  5
3F4
330
1F
100
AcDbEntity
  8
Ech.1_5
 62
   154
420
    21156
100
AcDbText
 10
1282.180292878297
 20
-3431.652616098809
 30
0.0
 40
6.0
  1
i
 50
350.9766571715782
 41
0.8000000000000002
  7
tahoma-b
100
AcDbText
  0
TEXT
  5
3F5
330
1F
100
AcDbEntity
  8
Ech.1_5
 62
   154
420
    21156
100
AcDbText
 10
1283.622999369057
 20
-3431.881720914362
 30
0.0
 40
6.0
  1
b
 50
347.3646125172335
 41
0.8000000000000002
  7
tahoma-b
100
AcDbText
  0
TEXT
  5
3F6
330
1F
100
AcDbEntity
  8
Ech.1_5
 62
   154
420
    21156
100
AcDbText
 10
1287.002339132206
 20
-3432.63928460796
 30
0.0
 40
5.999999999999999
  1
l
 50
343.752567862822
 41
0.8
  7
tahoma-b
100
AcDbText
  0
TEXT
  5
3F7
330
1F
100
AcDbEntity
  8
Ech.1_5
 62
   154
420
    21156
100
AcDbText
 10
1288.404783292117
 20
-3433.047991609756
 30
0.0
 40
6.0
  1
e
 50
340.2629653356198
 41
0.8000000000000002
  7
tahoma-b
100
AcDbText
  0
TEXT
  5
3F8
330
1F
100
AcDbEntity
  8
Ech.1_5
 62
   154
420
    21156
100
AcDbText
 10
1255.162853762025
 20
-3484.505783161102
 30
0.0
 40
6.0
  1
s
 50
329.3124952401241
 41
0.8000000000000002
  7
tahoma-b
100
AcDbText
  0
TEXT
  5
3F9
330
1F
100
AcDbEntity
  8
Ech.1_5
 62
   154
420
    21156
100
AcDbText
 10
1257.961798441595
 20
-3486.166849405377
 30
0.0
 40
6.0
  1
u
 50
334.6276163794161
 41
0.8000000000000002
  7
tahoma-b
100
AcDbText
  0
TEXT
  5
3FA
330
1F
100
AcDbEntity
  8
Ech.1_5
 62
   154
420
    21156
100
AcDbText
 10
1261.61835288843
 20
-3487.900949781624
 30
0.0
 40
6.0
  1
r
 50
339.5478999136961
 41
0.8000000000000002
  7
tahoma-b
100
AcDbText
  0
TEXT
  5
3FB
330
1F
100
AcDbEntity
  8
Ech.1_5
 62
   154
420
    21156
100
AcDbText
 10
1265.687274512198
 20
-3489.324896117801
 30
0.0
 40
6.0
  1
p
 50
346.7359685598498
 41
0.8000000000000002
  7
tahoma-b
100
AcDbText
  0
TEXT
  5
3FC
330
1F
100
AcDbEntity
  8
Ech.1_5
 62
   154
420
    21156
100
AcDbText
 10
1269.54508109466
 20
-3490.234286183329
 30
0.0
 40
6.000000000000002
  1
a
 50
352.3548109071144
 41
0.8
  7
tahoma-b
100
AcDbText
  0
TEXT
  5
3FD
330
1F
100
AcDbEntity
  8
Ech.1_5
 62
   154
420
    21156
100
AcDbText
 10
1273.266798576268
 20
-3490.733857203288
 30
0.0
 40
6.000000000000001
  1
r
 50
357.0624896304939
 41
0.8
  7
tahoma-b
100
AcDbText
  0
TEXT
  5
3FE
330
1F
100
AcDbEntity
  8
Ech.1_5
 62
   154
420
    21156
100
AcDbText
 10
1275.975741052162
 20
-3490.872864408462
 30
0.0
 40
6.0
  1
o
 50
1.861284750937963
 41
0.8000000000000002
  7
tahoma-b
100
AcDbText
  0
TEXT
  5
3FF
330
1F
100
AcDbEntity
  8
Ech.1_5
 62
   154
420
    21156
100
AcDbText
 10
1279.85386083356
 20
-3490.746837229442
 30
0.0
 40
6.000000000000001
  1
i
 50
6.083009645690362
 41
0.8
  7
tahoma-b
100
AcDbText
  0
TEXT
  5
400
330
1F
100
AcDbEntity
  8
Ech.1_5
 62
   154
420
    21156
100
AcDbText
 10
1283.344576515705
 20
-3490.302930853906
 30
0.0
 40
6.0
  1
b
 50
12.69400806612471
 41
0.7999999999999999
  7
tahoma-b
100
AcDbText
  0
TEXT
  5
401
330
1F
100
AcDbEntity
  8
Ech.1_5
 62
   154
420
    21156
100
AcDbText
 10
1287.211239356854
 20
-3489.431965646884
 30
0.0
 40
5.999999999999999
  1
o
 50
18.40396681044791
 41
0.8
  7
tahoma-b
100
AcDbText
  0
TEXT
  5
402
330
1F
100
AcDbEntity
  8
Ech.1_5
 62
   154
420
    21156
100
AcDbText
 10
1290.892951932595
 20
-3488.206939770278
 30
0.0
 40
6.0
  1
i
 50
22.62569170520616
 41
0.8000000000000002
  7
tahoma-b
100
AcDbText
  0
TEXT
  5
403
330
1F
100
AcDbEntity
  8
Ech.1_5
 62
   154
420
    21156
100
AcDbText
 10
1292.665008966178
 20
-3487.468371166024
 30
0.0
 40
5.999999999999999
  1
s
 50
26.39183478797532
 41
0.8000000000000003
  7
tahoma-b
100
AcDbText
  0
TEXT
  5
404
330
1F
100
AcDbEntity
  8
Ech.1_5
 62
   154
420
    21156
100
AcDbText
 10
1266.933289095277
 20
-3475.646819947819
 30
0.0
 40
10.0
  1
E
 50
345.222214497101
 41
0.8
  7
tahoma-b
100
AcDbText
  0
TEXT
  5
405
330
1F
100
AcDbEntity
  8
Ech.1_5
 62
   154
420
    21156
100
AcDbText
 10
1273.172750090241
 20
-3477.292768903301
 30
0.0
 40
10.0
  1
e
 50
359.2406769519218
 41
0.8
  7
tahoma-b
100
AcDbText
  0
TEXT
  5
406
330
1F
100
AcDbEntity
  8
Ech.1_5
 62
   154
420
    21156
100
AcDbText
 10
1279.417973538147
 20
-3477.37553974246
 30
0.0
 40
10.0
  1
2
 50
13.48894999980685
 41
0.8
  7
tahoma-b
100
AcDbText
  0
VIEWPORT
  5
233
330
22D
100
AcDbEntity
 67
     1
  8
0
100
AcDbViewport
 10
98.8
 20
135.8
 30
0.0
 40
209.0608
 41
287.3528000000001
 68
     1
 69
     1
 12
128.5
 22
97.5
 13
0.0
 23
0.0
 14
10.0
 24
10.0
 15
10.0
 25
10.0
 16
0.0
 26
0.0
 36
1.0
 17
0.0
 27
0.0
 37
0.0
 42
50.0
 43
0.0
 44
0.0
 45
222.18
 50
0.0
 51
0.0
 72
   100
 90
   557152
  1

281
     0
 71
     1
 74
     0
110
0.0
120
0.0
130
0.0
111
1.0
121
0.0
131
0.0
112
0.0
122
1.0
132
0.0
 79
     0
146
0.0
170
     0
 61
     5
348
2F
292
     1
282
     1
141
0.0
142
0.0
 63
   256
361
234
  0
VIEWPORT
  5
235
330
22D
100
AcDbEntity
 67
     1
  8
0
 60
     1
100
AcDbViewport
 10
98.8
 20
135.8
 30
0.0
 40
197.6
 41
271.6
 68
     2
 69
     2
 12
1129.636618727212
 22
-3640.004899456169
 13
0.0
 23
0.0
 14
10.0
 24
10.0
 15
10.0
 25
10.0
 16
0.0
 26
0.0
 36
1.0
 17
0.0
 27
0.0
 37
0.0
 42
50.0
 43
0.0
 44
0.0
 45
543.2
 50
0.0
 51
0.0
 72
   100
 90
   557152
  1

281
     0
 71
     1
 74
     0
110
0.0
120
0.0
130
0.0
111
1.0
121
0.0
131
0.0
112
0.0
122
1.0
132
0.0
 79
     0
146
0.0
170
     0
 61
     5
348
2F
292
     1
282
     1
141
0.0
142
0.0
 63
   256
  0
ENDSEC
  0
SECTION
  2
OBJECTS
  0
DICTIONARY
  5
C
330
0
100
AcDbDictionary
281
     1
  3
ACAD_DETAILVIEWSTYLE
350
40E
  3
ACAD_GROUP
350
D
  3
ACAD_IMAGE_DICT
350
255
  3
ACAD_IMAGE_VARS
350
6F
  3
ACAD_LAYOUT
350
1A
  3
ACAD_MATERIAL
350
43
  3
ACAD_MLEADERSTYLE
350
6B
  3
ACAD_MLINESTYLE
350
17
  3
ACAD_PLOTSETTINGS
350
19
  3
ACAD_PLOTSTYLENAME
350
E
  3
ACAD_SCALELIST
350
47
  3
ACAD_SECTIONVIEWSTYLE
350
40F
  3
ACAD_TABLESTYLE
350
69
  3
ACAD_VISUALSTYLE
350
2A
  3
ACDB_RECOMPOSE_DATA
350
40B
  3
AcDbVariableDictionary
350
407
  0
SUN
  5
6D
330
29
100
AcDbSun
 90
        1
290
     0
 63
     7
421
 16777215
 40
1.0
291
     1
 91
  2455826
 92
 54000000
292
     0
 70
     2
 71
   256
280
     1
  0
IMAGEDEF_REACTOR
  5
258
330
257
100
AcDbRasterImageDefReactor
 90
        2
330
257
  0
IMAGEDEF_REACTOR
  5
25B
330
25A
100
AcDbRasterImageDefReactor
 90
        2
330
25A
  0
IMAGEDEF_REACTOR
  5
25E
330
25D
100
AcDbRasterImageDefReactor
 90
        2
330
25D
  0
SUN
  5
234
330
233
100
AcDbSun
 90
        1
290
     0
 63
     7
421
 16777215
 40
1.0
291
     1
 91
  2455826
 92
 54000000
292
     0
 70
     2
 71
   256
280
     1
  0
DICTIONARY
  5
40E
102
{ACAD_REACTORS
330
C
102
}
330
C
100
AcDbDictionary
281
     1
  0
DICTIONARY
  5
D
102
{ACAD_REACTORS
330
C
102
}
330
C
100
AcDbDictionary
281
     1
  0
DICTIONARY
  5
255
102
{ACAD_REACTORS
330
C
102
}
330
C
100
AcDbDictionary
281
     1
  3
C:\Users\MAIFFR~1\AppData\Local\Temp\EXE_LOGO_FBF_soutien_Q_L.jpg1
350
259
  3
C:\Users\MAIFFR~1\AppData\Local\Temp\fcba.jpg0
350
256
  3
C:\Users\MAIFFR~1\AppData\Local\Temp\logo_codifab_baseline_soutien.jpg2
350
25C
  0
RASTERVARIABLES
  5
6F
102
{ACAD_REACTORS
330
C
102
}
330
C
100
AcDbRasterVariables
 90
        0
 70
     0
 71
     1
 72
     1
  0
DICTIONARY
  5
1A
102
{ACAD_REACTORS
330
C
102
}
330
C
100
AcDbDictionary
281
     1
  3
CompleteLayout
350
1E
  3
Model
350
22
  3
PrintFrame_44
350
22E
  0
DICTIONARY
  5
43
102
{ACAD_REACTORS
330
C
102
}
330
C
100
AcDbDictionary
281
     1
  3
ByBlock
350
45
  3
ByLayer
350
44
  3
Global
350
46
  0
DICTIONARY
  5
6B
102
{ACAD_REACTORS
330
C
102
}
330
C
100
AcDbDictionary
281
     1
  3
Standard
350
6C
  0
DICTIONARY
  5
17
102
{ACAD_REACTORS
330
C
102
}
330
C
100
AcDbDictionary
281
     1
  3
Standard
350
18
  0
DICTIONARY
  5
19
102
{ACAD_REACTORS
330
C
102
}
330
C
100
AcDbDictionary
281
     1
  3
PlotSettings_
350
231
  0
ACDBDICTIONARYWDFLT
  5
E
102
{ACAD_REACTORS
330
C
102
}
330
C
100
AcDbDictionary
281
     1
  3
Normal
350
F
100
AcDbDictionaryWithDefault
340
F
  0
DICTIONARY
  5
47
102
{ACAD_REACTORS
330
C
102
}
330
C
100
AcDbDictionary
281
     1
  3
A0
350
48
  3
A1
350
49
  3
A2
350
4A
  3
A3
350
4B
  3
A4
350
4C
  3
A5
350
4D
  3
A6
350
4E
  3
A7
350
4F
  3
A8
350
50
  3
A9
350
51
  3
B0
350
52
  3
B1
350
53
  3
B2
350
54
  3
B3
350
55
  3
B4
350
56
  3
B5
350
57
  3
B6
350
58
  3
B7
350
59
  3
B8
350
5A
  3
B9
350
5B
  3
C0
350
5C
  3
C1
350
5D
  3
C2
350
5E
  3
C3
350
5F
  3
C4
350
60
  3
C5
350
61
  3
C6
350
62
  3
C7
350
63
  3
C8
350
64
  3
C9
350
65
  3
D0
350
66
  3
D1
350
67
  3
D2
350
68
  0
DICTIONARY
  5
40F
102
{ACAD_REACTORS
330
C
102
}
330
C
100
AcDbDictionary
281
     1
  0
DICTIONARY
  5
69
102
{ACAD_REACTORS
330
C
102
}
330
C
100
AcDbDictionary
281
     1
  3
Standard
350
6A
  0
DICTIONARY
  5
2A
102
{ACAD_REACTORS
330
C
102
}
330
C
100
AcDbDictionary
281
     1
  3
2dWireframe
350
2F
  3
Basic
350
32
  3
Brighten
350
36
  3
ColorChange
350
3A
  3
Conceptual
350
34
  3
Dim
350
35
  3
EdgeColorOff
350
3D
  3
Facepattern
350
39
  3
Flat
350
2B
  3
FlatWithEdges
350
2C
  3
Gouraud
350
2D
  3
GouraudWithEdges
350
2E
  3
Hidden
350
31
  3
JitterOff
350
3B
  3
Linepattern
350
38
  3
OverhangOff
350
3C
  3
Realistic
350
33
  3
Shaded
350
42
  3
Shaded with edges
350
41
  3
Shades of Gray
350
3E
  3
Sketchy
350
3F
  3
Thicken
350
37
  3
Wireframe
350
30
  3
X-Ray
350
40
  0
XRECORD
  5
40B
102
{ACAD_REACTORS
330
C
102
}
330
C
100
AcDbXrecord
280
     1
 90
        1
330
6A
  0
DICTIONARY
  5
407
102
{ACAD_REACTORS
330
C
102
}
330
C
100
AcDbDictionary
281
     1
  3
CANNOSCALE
350
408
  3
CMLEADERSTYLE
350
40D
  3
CTABLESTYLE
350
40C
  3
WIPEOUTFRAME
350
410
  0
IMAGEDEF
  5
259
102
{ACAD_REACTORS
330
255
330
25B
102
}
330
255
100
AcDbRasterImageDef
 90
        0
  1
EXE_LOGO_FBF_soutien_Q_L.jpg
 10
200.0
 20
133.0
 11
0.3527336860670194
 21
0.3527336860670194
280
     1
281
     3
  0
IMAGEDEF
  5
256
102
{ACAD_REACTORS
330
255
330
258
102
}
330
255
100
AcDbRasterImageDef
 90
        0
  1
fcba.jpg
 10
247.0
 20
171.0
 11
0.3527336860670194
 21
0.3527336860670194
280
     1
281
     3
  0
IMAGEDEF
  5
25C
102
{ACAD_REACTORS
330
255
330
25E
102
}
330
255
100
AcDbRasterImageDef
 90
        0
  1
logo_codifab_baseline_soutien.jpg
 10
1326.0
 20
580.0
 11
0.08466683600033867
 21
0.08466683600033867
280
     1
281
     3
  0
LAYOUT
  5
1E
102
{ACAD_REACTORS
330
1A
102
}
330
1A
100
AcDbPlotSettings
  1

  2
none_device
  4

  6

 40
0.0
 41
0.0
 42
0.0
 43
0.0
 44
0.0
 45
0.0
 46
0.0
 47
0.0
 48
0.0
 49
0.0
140
0.0
141
0.0
142
1.0
143
1.0
 70
   688
 72
     0
 73
     0
 74
     5
  7

 75
    16
 76
     0
 77
     2
 78
   300
147
1.0
148
0.0
149
0.0
100
AcDbLayout
  1
CompleteLayout
 70
     1
 71
     1
 10
0.0
 20
0.0
 11
12.0
 21
9.0
 12
0.0
 22
0.0
 32
0.0
 14
1.000000000000000E+20
 24
1.000000000000000E+20
 34
1.000000000000000E+20
 15
-1.000000000000000E+20
 25
-1.000000000000000E+20
 35
-1.000000000000000E+20
146
0.0
 13
0.0
 23
0.0
 33
0.0
 16
1.0
 26
0.0
 36
0.0
 17
0.0
 27
1.0
 37
0.0
 76
     0
330
1B
  0
LAYOUT
  5
22
102
{ACAD_REACTORS
330
1A
102
}
330
1A
100
AcDbPlotSettings
  1

  2
none_device
  4
Letter_(8.50_x_11.00_Inches)
  6

 40
6.35
 41
6.35
 42
6.35000508
 43
6.35000508
 44
215.9
 45
279.4
 46
0.0
 47
0.0
 48
0.0
 49
0.0
140
0.0
141
0.0
142
1.0
143
1.0
 70
  1712
 72
     0
 73
     0
 74
     0
  7

 75
     0
 76
     0
 77
     2
 78
   300
147
1.0
148
0.0
149
0.0
100
AcDbLayout
  1
Model
 70
     1
 71
     0
 10
0.0
 20
0.0
 11
12.0
 21
9.0
 12
0.0
 22
0.0
 32
0.0
 14
932.6366187272117
 24
-3911.004899456169
 34
0.0
 15
1326.636618727215
 25
-3369.004899456169
 35
0.0
146
0.0
 13
0.0
 23
0.0
 33
0.0
 16
1.0
 26
0.0
 36
0.0
 17
0.0
 27
1.0
 37
0.0
 76
     0
330
1F
331
29
  0
LAYOUT
  5
22E
102
{ACAD_REACTORS
330
1A
102
}
330
1A
100
AcDbPlotSettings
  1
PlotSettings_
  2
Custom Device
  4
Custom_210.000000x297.000000_12.700000_12.700000_6.200000_6.200000
  6

 40
6.2
 41
12.7
 42
6.2
 43
12.7
 44
210.0
 45
297.0
 46
0.0
 47
0.0
 48
0.0
 49
0.0
140
0.0
141
0.0
142
1.0
143
1.0
 70
   752
 72
     1
 73
     0
 74
     5
  7

 75
    16
 76
     0
 77
     2
 78
   300
147
1.0
148
0.0
149
0.0
100
AcDbLayout
  1
PrintFrame_44
 70
     0
 71
     2
 10
-20.0
 20
-7.5
 11
277.0
 21
202.5
 12
0.0
 22
0.0
 32
0.0
 14
0.0
 24
0.0
 34
0.0
 15
197.6
 25
271.6
 35
0.0
146
0.0
 13
0.0
 23
0.0
 33
0.0
 16
1.0
 26
0.0
 36
0.0
 17
0.0
 27
1.0
 37
0.0
 76
     0
330
22D
331
233
1001
PLOTTRANSPARENCY
1071
        1
1000
layout-user-created
1070
     1
1000
layout-line-weight-scale
1042
1.0
  0
MATERIAL
  5
45
102
{ACAD_REACTORS
330
43
102
}
330
43
100
AcDbMaterial
  1
ByBlock
 72
     1
 94
      127
  0
MATERIAL
  5
44
102
{ACAD_REACTORS
330
43
102
}
330
43
100
AcDbMaterial
  1
ByLayer
 72
     1
 94
      127
  0
MATERIAL
  5
46
102
{ACAD_REACTORS
330
43
102
}
330
43
100
AcDbMaterial
  1
Global
 72
     1
 94
      127
  0
MLEADERSTYLE
  5
6C
102
{ACAD_REACTORS
330
6B
102
}
330
6B
100
AcDbMLeaderStyle
179
     2
170
     2
171
     1
172
     0
 90
        2
 40
0.0
 41
0.0
173
     1
 91
-1056964608
340
14
 92
       -2
290
     1
 42
0.09
291
     1
 43
0.36
  3
Standard
341
0
 44
0.18
300

342
11
174
     1
178
     6
175
     1
176
     0
 93
-1056964608
 45
0.18
292
     0
297
     0
 46
0.18
343
0
 94
-1056964608
 47
1.0
 49
1.0
140
1.0
293
     1
141
0.0
294
     1
177
     0
142
1.0
295
     0
296
     0
143
0.125
271
     0
272
     9
273
     9
298
     0
  0
MLINESTYLE
  5
18
102
{ACAD_REACTORS
330
17
102
}
330
17
100
AcDbMlineStyle
  2
Standard
 70
     0
  3

 62
   256
 51
90.0
 52
90.0
 71
     2
 49
0.5
 62
   256
  6
BYLAYER
 49
-0.5
 62
   256
  6
BYLAYER
  0
PLOTSETTINGS
  5
231
102
{ACAD_REACTORS
330
19
102
}
330
19
100
AcDbPlotSettings
  1
PlotSettings_
  2
Custom Device
  4
Custom_210.000000x297.000000_12.700000_12.700000_6.200000_6.200000
  6

 40
6.2
 41
12.7
 42
6.2
 43
12.7
 44
210.0
 45
297.0
 46
0.0
 47
0.0
 48
0.0
 49
0.0
140
0.0
141
0.0
142
1.0
143
1.0
 70
   752
 72
     1
 73
     0
 74
     5
  7

 75
    16
 76
     0
 77
     2
 78
   300
147
1.0
148
0.0
149
0.0
1001
PLOTTRANSPARENCY
1071
        1
1000
layout-user-created
1070
     1
1000
layout-line-weight-scale
1042
1.0
  0
ACDBPLACEHOLDER
  5
F
102
{ACAD_REACTORS
330
E
102
}
330
E
  0
SCALE
  5
48
102
{ACAD_REACTORS
330
47
102
}
330
47
100
AcDbScale
 70
     0
300
1:1
140
1.0
141
1.0
290
     1
  0
SCALE
  5
49
102
{ACAD_REACTORS
330
47
102
}
330
47
100
AcDbScale
 70
     0
300
1:2
140
1.0
141
2.0
290
     0
  0
SCALE
  5
4A
102
{ACAD_REACTORS
330
47
102
}
330
47
100
AcDbScale
 70
     0
300
1:4
140
1.0
141
4.0
290
     0
  0
SCALE
  5
4B
102
{ACAD_REACTORS
330
47
102
}
330
47
100
AcDbScale
 70
     0
300
1:5
140
1.0
141
5.0
290
     0
  0
SCALE
  5
4C
102
{ACAD_REACTORS
330
47
102
}
330
47
100
AcDbScale
 70
     0
300
1:8
140
1.0
141
8.0
290
     0
  0
SCALE
  5
4D
102
{ACAD_REACTORS
330
47
102
}
330
47
100
AcDbScale
 70
     0
300
1:10
140
1.0
141
10.0
290
     0
  0
SCALE
  5
4E
102
{ACAD_REACTORS
330
47
102
}
330
47
100
AcDbScale
 70
     0
300
1:16
140
1.0
141
16.0
290
     0
  0
SCALE
  5
4F
102
{ACAD_REACTORS
330
47
102
}
330
47
100
AcDbScale
 70
     0
300
1:20
140
1.0
141
20.0
290
     0
  0
SCALE
  5
50
102
{ACAD_REACTORS
330
47
102
}
330
47
100
AcDbScale
 70
     0
300
1:30
140
1.0
141
30.0
290
     0
  0
SCALE
  5
51
102
{ACAD_REACTORS
330
47
102
}
330
47
100
AcDbScale
 70
     0
300
1:40
140
1.0
141
40.0
290
     0
  0
SCALE
  5
52
102
{ACAD_REACTORS
330
47
102
}
330
47
100
AcDbScale
 70
     0
300
1:50
140
1.0
141
50.0
290
     0
  0
SCALE
  5
53
102
{ACAD_REACTORS
330
47
102
}
330
47
100
AcDbScale
 70
     0
300
1:100
140
1.0
141
100.0
290
     0
  0
SCALE
  5
54
102
{ACAD_REACTORS
330
47
102
}
330
47
100
AcDbScale
 70
     0
300
2:1
140
2.0
141
1.0
290
     0
  0
SCALE
  5
55
102
{ACAD_REACTORS
330
47
102
}
330
47
100
AcDbScale
 70
     0
300
4:1
140
4.0
141
1.0
290
     0
  0
SCALE
  5
56
102
{ACAD_REACTORS
330
47
102
}
330
47
100
AcDbScale
 70
     0
300
8:1
140
8.0
141
1.0
290
     0
  0
SCALE
  5
57
102
{ACAD_REACTORS
330
47
102
}
330
47
100
AcDbScale
 70
     0
300
10:1
140
10.0
141
1.0
290
     0
  0
SCALE
  5
58
102
{ACAD_REACTORS
330
47
102
}
330
47
100
AcDbScale
 70
     0
300
100:1
140
100.0
141
1.0
290
     0
  0
SCALE
  5
59
102
{ACAD_REACTORS
330
47
102
}
330
47
100
AcDbScale
 70
     0
300
1/128" = 1'-0"
140
0.0078125
141
12.0
290
     0
  0
SCALE
  5
5A
102
{ACAD_REACTORS
330
47
102
}
330
47
100
AcDbScale
 70
     0
300
1/64" = 1'-0"
140
0.015625
141
12.0
290
     0
  0
SCALE
  5
5B
102
{ACAD_REACTORS
330
47
102
}
330
47
100
AcDbScale
 70
     0
300
1/32" = 1'-0"
140
0.03125
141
12.0
290
     0
  0
SCALE
  5
5C
102
{ACAD_REACTORS
330
47
102
}
330
47
100
AcDbScale
 70
     0
300
1/16" = 1'-0"
140
0.0625
141
12.0
290
     0
  0
SCALE
  5
5D
102
{ACAD_REACTORS
330
47
102
}
330
47
100
AcDbScale
 70
     0
300
3/32" = 1'-0"
140
0.09375
141
12.0
290
     0
  0
SCALE
  5
5E
102
{ACAD_REACTORS
330
47
102
}
330
47
100
AcDbScale
 70
     0
300
1/8" = 1'-0"
140
0.125
141
12.0
290
     0
  0
SCALE
  5
5F
102
{ACAD_REACTORS
330
47
102
}
330
47
100
AcDbScale
 70
     0
300
3/16" = 1'-0"
140
0.1875
141
12.0
290
     0
  0
SCALE
  5
60
102
{ACAD_REACTORS
330
47
102
}
330
47
100
AcDbScale
 70
     0
300
1/4" = 1'-0"
140
0.25
141
12.0
290
     0
  0
SCALE
  5
61
102
{ACAD_REACTORS
330
47
102
}
330
47
100
AcDbScale
 70
     0
300
3/8" = 1'-0"
140
0.375
141
12.0
290
     0
  0
SCALE
  5
62
102
{ACAD_REACTORS
330
47
102
}
330
47
100
AcDbScale
 70
     0
300
1/2" = 1'-0"
140
0.5
141
12.0
290
     0
  0
SCALE
  5
63
102
{ACAD_REACTORS
330
47
102
}
330
47
100
AcDbScale
 70
     0
300
3/4" = 1'-0"
140
0.75
141
12.0
290
     0
  0
SCALE
  5
64
102
{ACAD_REACTORS
330
47
102
}
330
47
100
AcDbScale
 70
     0
300
1" = 1'-0"
140
1.0
141
12.0
290
     0
  0
SCALE
  5
65
102
{ACAD_REACTORS
330
47
102
}
330
47
100
AcDbScale
 70
     0
300
1-1/2" = 1'-0"
140
1.5
141
12.0
290
     0
  0
SCALE
  5
66
102
{ACAD_REACTORS
330
47
102
}
330
47
100
AcDbScale
 70
     0
300
3" = 1'-0"
140
3.0
141
12.0
290
     0
  0
SCALE
  5
67
102
{ACAD_REACTORS
330
47
102
}
330
47
100
AcDbScale
 70
     0
300
6" = 1'-0"
140
6.0
141
12.0
290
     0
  0
SCALE
  5
68
102
{ACAD_REACTORS
330
47
102
}
330
47
100
AcDbScale
 70
     0
300
1'-0" = 1'-0"
140
12.0
141
12.0
290
     0
  0
TABLESTYLE
  5
6A
102
{ACAD_REACTORS
330
69
102
}
102
{ACAD_XDICTIONARY
360
409
102
}
330
69
100
AcDbTableStyle
  3
Standard
 70
     0
 71
     0
 40
0.06
 41
0.06
280
     0
281
     0
  7
Standard
140
0.18
170
     2
 62
     0
 63
   257
283
     0
 90
        4
 91
        0
  1

274
    -2
284
     1
 64
     0
275
    -2
285
     1
 65
     0
276
    -2
286
     1
 66
     0
277
    -2
287
     1
 67
     0
278
    -2
288
     1
 68
     0
279
    -2
289
     1
 69
     0
  7
Standard
140
0.25
170
     5
 62
     0
 63
   257
283
     0
 90
        4
 91
        0
  1

274
    -2
284
     1
 64
     0
275
    -2
285
     1
 65
     0
276
    -2
286
     1
 66
     0
277
    -2
287
     1
 67
     0
278
    -2
288
     1
 68
     0
279
    -2
289
     1
 69
     0
  7
Standard
140
0.18
170
     5
 62
     0
 63
   257
283
     0
 90
        4
 91
        0
  1

274
    -2
284
     1
 64
     0
275
    -2
285
     1
 65
     0
276
    -2
286
     1
 66
     0
277
    -2
287
     1
 67
     0
278
    -2
288
     1
 68
     0
279
    -2
289
     1
 69
     0
  0
VISUALSTYLE
  5
2F
102
{ACAD_REACTORS
330
2A
102
}
330
2A
100
AcDbVisualStyle
  2
2dWireframe
 70
     4
177
     3
291
     0
 70
    58
 90
        0
176
     1
 90
        2
176
     1
 90
        0
176
     1
 90
        0
176
     1
 40
0.6
176
     1
 40
30.0
176
     1
 62
     7
420
 16777215
176
     1
 90
        1
176
     1
 90
        4
176
     1
 62
     7
176
     1
 62
   257
176
     1
 90
        1
176
     1
 90
        1
176
     1
 40
1.0
176
     1
 90
        0
176
     1
 62
   257
176
     1
 40
1.0
176
     1
 90
        1
176
     1
 90
        6
176
     1
 90
        2
176
     1
 62
     7
176
     1
 90
        5
176
     1
 90
        0
176
     1
 90
        0
176
     1
290
     0
176
     1
 90
        1
176
     1
 40
0.0
176
     1
 90
        0
176
     1
290
     1
176
     1
290
     1
176
     1
290
     0
176
     1
290
     0
176
     1
290
     0
176
     1
290
     0
176
     1
290
     0
176
     1
290
     0
176
     1
290
     0
176
     1
 90
       50
176
     1
 40
0.0
176
     1
 40
1.0
176
     1
 90
        0
176
     1
 62
    18
420
        0
176
     1
 90
       50
176
     1
 90
        3
176
     1
 62
     5
420
      255
176
     1
290
     0
176
     1
 90
       50
176
     1
 90
       50
176
     1
 90
       50
176
     1
290
     0
176
     1
 90
       50
176
     1
 62
   256
176
     0
 40
1.0
176
     0
 90
        2
176
     1
  1
strokes_ogs.tif
176
     1
290
     0
176
     1
 40
1.0
176
     1
 40
1.0
176
     1
  0
VISUALSTYLE
  5
32
102
{ACAD_REACTORS
330
2A
102
}
330
2A
100
AcDbVisualStyle
  2
Basic
 70
     7
177
     3
291
     1
 70
    58
 90
        1
176
     1
 90
        0
176
     1
 90
        1
176
     1
 90
        0
176
     1
 40
0.6
176
     1
 40
30.0
176
     1
 62
     7
420
 16777215
176
     1
 90
        0
176
     1
 90
        4
176
     1
 62
     7
176
     1
 62
   257
176
     1
 90
        1
176
     1
 90
        1
176
     1
 40
1.0
176
     1
 90
        8
176
     1
 62
     7
176
     1
 40
1.0
176
     1
 90
        1
176
     1
 90
        6
176
     1
 90
        2
176
     1
 62
     7
176
     1
 90
        5
176
     1
 90
        0
176
     1
 90
        0
176
     1
290
     0
176
     1
 90
        1
176
     1
 40
0.0
176
     1
 90
        0
176
     1
290
     0
176
     1
290
     1
176
     1
290
     1
176
     1
290
     0
176
     1
290
     0
176
     1
290
     0
176
     1
290
     0
176
     1
290
     0
176
     1
290
     0
176
     1
 90
       50
176
     1
 40
0.0
176
     1
 40
1.0
176
     1
 90
        0
176
     1
 62
    18
420
        0
176
     1
 90
       50
176
     1
 90
        3
176
     1
 62
     5
420
      255
176
     1
290
     0
176
     1
 90
       50
176
     1
 90
       50
176
     1
 90
       50
176
     1
290
     0
176
     1
 90
       50
176
     1
 62
   256
176
     0
 40
1.0
176
     0
 90
        2
176
     1
  1
strokes_ogs.tif
176
     1
290
     0
176
     1
 40
1.0
176
     1
 40
1.0
176
     1
  0
VISUALSTYLE
  5
36
102
{ACAD_REACTORS
330
2A
102
}
330
2A
100
AcDbVisualStyle
  2
Brighten
 70
    12
177
     3
291
     1
 70
    58
 90
        2
176
     1
 90
        2
176
     1
 90
        0
176
     1
 90
        0
176
     1
 40
0.6
176
     1
 40
30.0
176
     1
 62
     7
420
 16777215
176
     1
 90
        1
176
     1
 90
        4
176
     1
 62
     7
176
     1
 62
   257
176
     1
 90
        1
176
     1
 90
        1
176
     1
 40
1.0
176
     1
 90
        8
176
     1
 62
     7
176
     1
 40
1.0
176
     1
 90
        1
176
     1
 90
        6
176
     1
 90
        2
176
     1
 62
     7
176
     1
 90
        5
176
     1
 90
        0
176
     1
 90
        0
176
     1
290
     0
176
     1
 90
        1
176
     1
 40
50.0
176
     1
 90
        0
176
     1
290
     0
176
     1
290
     1
176
     1
290
     1
176
     1
290
     0
176
     1
290
     0
176
     1
290
     0
176
     1
290
     0
176
     1
290
     0
176
     1
290
     0
176
     1
 90
       50
176
     1
 40
0.0
176
     1
 40
1.0
176
     1
 90
        0
176
     1
 62
    18
420
        0
176
     1
 90
       50
176
     1
 90
        3
176
     1
 62
     5
420
      255
176
     1
290
     0
176
     1
 90
       50
176
     1
 90
       50
176
     1
 90
       50
176
     1
290
     0
176
     1
 90
       50
176
     1
 62
   256
176
     0
 40
1.0
176
     0
 90
        2
176
     1
  1
strokes_ogs.tif
176
     1
290
     0
176
     1
 40
1.0
176
     1
 40
1.0
176
     1
  0
VISUALSTYLE
  5
3A
102
{ACAD_REACTORS
330
2A
102
}
330
2A
100
AcDbVisualStyle
  2
ColorChange
 70
    16
177
     3
291
     1
 70
    58
 90
        2
176
     1
 90
        2
176
     1
 90
        3
176
     1
 90
        0
176
     1
 40
0.6
176
     1
 40
30.0
176
     1
 62
     8
420
  8421504
176
     1
 90
        1
176
     1
 90
        4
176
     1
 62
     7
176
     1
 62
   257
176
     1
 90
        1
176
     1
 90
        1
176
     1
 40
1.0
176
     1
 90
        8
176
     1
 62
     8
420
  8421504
176
     1
 40
1.0
176
     1
 90
        1
176
     1
 90
        6
176
     1
 90
        2
176
     1
 62
     7
176
     1
 90
        5
176
     1
 90
        0
176
     1
 90
        0
176
     1
290
     0
176
     1
 90
        1
176
     1
 40
0.0
176
     1
 90
        0
176
     1
290
     0
176
     1
290
     1
176
     1
290
     1
176
     1
290
     0
176
     1
290
     0
176
     1
290
     0
176
     1
290
     0
176
     1
290
     0
176
     1
290
     0
176
     1
 90
       50
176
     1
 40
0.0
176
     1
 40
1.0
176
     1
 90
        0
176
     1
 62
    18
420
        0
176
     1
 90
       50
176
     1
 90
        3
176
     1
 62
     5
420
      255
176
     1
290
     0
176
     1
 90
       50
176
     1
 90
       50
176
     1
 90
       50
176
     1
290
     0
176
     1
 90
       50
176
     1
 62
   256
176
     0
 40
1.0
176
     0
 90
        2
176
     1
  1
strokes_ogs.tif
176
     1
290
     0
176
     1
 40
1.0
176
     1
 40
1.0
176
     1
  0
VISUALSTYLE
  5
34
102
{ACAD_REACTORS
330
2A
102
}
330
2A
100
AcDbVisualStyle
  2
Conceptual
 70
     9
177
     3
291
     0
 70
    58
 90
        3
176
     1
 90
        2
176
     1
 90
        0
176
     1
 90
        0
176
     1
 40
0.6
176
     1
 40
30.0
176
     1
 62
     7
420
 16777215
176
     1
 90
        2
176
     1
 90
        2
176
     1
 62
     7
176
     1
 62
   257
176
     1
 90
        1
176
     1
 90
        1
176
     1
 40
179.0
176
     1
 90
        8
176
     1
 62
     7
176
     1
 40
1.0
176
     1
 90
        1
176
     1
 90
        6
176
     1
 90
        2
176
     1
 62
     7
176
     1
 90
        3
176
     1
 90
        0
176
     1
 90
        0
176
     1
290
     0
176
     1
 90
        1
176
     1
 40
0.0
176
     1
 90
        0
176
     1
290
     0
176
     1
290
     1
176
     1
290
     1
176
     1
290
     0
176
     1
290
     0
176
     1
290
     0
176
     1
290
     0
176
     1
290
     0
176
     1
290
     0
176
     1
 90
       50
176
     1
 40
0.0
176
     1
 40
1.0
176
     1
 90
        0
176
     1
 62
    18
420
        0
176
     1
 90
       50
176
     1
 90
        3
176
     1
 62
     5
420
      255
176
     1
290
     0
176
     1
 90
       50
176
     1
 90
       50
176
     1
 90
       50
176
     1
290
     0
176
     1
 90
       50
176
     1
 62
   256
176
     0
 40
1.0
176
     0
 90
        2
176
     1
  1
strokes_ogs.tif
176
     1
290
     0
176
     1
 40
1.0
176
     1
 40
1.0
176
     1
  0
VISUALSTYLE
  5
35
102
{ACAD_REACTORS
330
2A
102
}
330
2A
100
AcDbVisualStyle
  2
Dim
 70
    11
177
     3
291
     1
 70
    58
 90
        2
176
     1
 90
        2
176
     1
 90
        0
176
     1
 90
        0
176
     1
 40
0.6
176
     1
 40
30.0
176
     1
 62
     7
420
 16777215
176
     1
 90
        1
176
     1
 90
        4
176
     1
 62
     7
176
     1
 62
   257
176
     1
 90
        1
176
     1
 90
        1
176
     1
 40
1.0
176
     1
 90
        8
176
     1
 62
     7
176
     1
 40
1.0
176
     1
 90
        1
176
     1
 90
        6
176
     1
 90
        2
176
     1
 62
     7
176
     1
 90
        5
176
     1
 90
        0
176
     1
 90
        0
176
     1
290
     0
176
     1
 90
        1
176
     1
 40
-50.0
176
     1
 90
        0
176
     1
290
     0
176
     1
290
     1
176
     1
290
     1
176
     1
290
     0
176
     1
290
     0
176
     1
290
     0
176
     1
290
     0
176
     1
290
     0
176
     1
290
     0
176
     1
 90
       50
176
     1
 40
0.0
176
     1
 40
1.0
176
     1
 90
        0
176
     1
 62
    18
420
        0
176
     1
 90
       50
176
     1
 90
        3
176
     1
 62
     5
420
      255
176
     1
290
     0
176
     1
 90
       50
176
     1
 90
       50
176
     1
 90
       50
176
     1
290
     0
176
     1
 90
       50
176
     1
 62
   256
176
     0
 40
1.0
176
     0
 90
        2
176
     1
  1
strokes_ogs.tif
176
     1
290
     0
176
     1
 40
1.0
176
     1
 40
1.0
176
     1
  0
VISUALSTYLE
  5
3D
102
{ACAD_REACTORS
330
2A
102
}
330
2A
100
AcDbVisualStyle
  2
EdgeColorOff
 70
    22
177
     3
291
     1
 70
    58
 90
        2
176
     0
 90
        2
176
     0
 90
        0
176
     0
 90
        0
176
     0
 40
0.6
176
     0
 40
30.0
176
     0
 62
     7
420
 16777215
176
     0
 90
        1
176
     0
 90
        4
176
     0
 62
     7
176
     0
 62
   257
176
     0
 90
        1
176
     0
 90
        1
176
     0
 40
1.0
176
     0
 90
        8
176
     2
 62
     7
176
     0
 40
1.0
176
     0
 90
        1
176
     0
 90
        6
176
     0
 90
        2
176
     0
 62
     7
176
     0
 90
        5
176
     0
 90
        0
176
     0
 90
        0
176
     0
290
     0
176
     0
 90
        1
176
     0
 40
0.0
176
     0
 90
        0
176
     0
290
     0
176
     0
290
     1
176
     0
290
     1
176
     0
290
     0
176
     0
290
     0
176
     0
290
     0
176
     0
290
     0
176
     0
290
     0
176
     0
290
     0
176
     0
 90
       50
176
     0
 40
0.0
176
     0
 40
1.0
176
     0
 90
        0
176
     0
 62
    18
420
        0
176
     0
 90
       50
176
     0
 90
        3
176
     0
 62
     5
420
      255
176
     0
290
     0
176
     0
 90
       50
176
     0
 90
       50
176
     0
 90
       50
176
     0
290
     0
176
     0
 90
       50
176
     0
 62
   256
176
     0
 40
1.0
176
     0
 90
        2
176
     0
  1
strokes_ogs.tif
176
     0
290
     0
176
     0
 40
1.0
176
     0
 40
1.0
176
     0
  0
VISUALSTYLE
  5
39
102
{ACAD_REACTORS
330
2A
102
}
330
2A
100
AcDbVisualStyle
  2
Facepattern
 70
    15
177
     3
291
     1
 70
    58
 90
        2
176
     1
 90
        2
176
     1
 90
        0
176
     1
 90
        0
176
     1
 40
0.6
176
     1
 40
30.0
176
     1
 62
     7
420
 16777215
176
     1
 90
        1
176
     1
 90
        4
176
     1
 62
     7
176
     1
 62
   257
176
     1
 90
        1
176
     1
 90
        1
176
     1
 40
1.0
176
     1
 90
        8
176
     1
 62
     7
176
     1
 40
1.0
176
     1
 90
        1
176
     1
 90
        6
176
     1
 90
        2
176
     1
 62
     7
176
     1
 90
        5
176
     1
 90
        0
176
     1
 90
        0
176
     1
290
     0
176
     1
 90
        1
176
     1
 40
0.0
176
     1
 90
        0
176
     1
290
     0
176
     1
290
     1
176
     1
290
     1
176
     1
290
     0
176
     1
290
     0
176
     1
290
     0
176
     1
290
     0
176
     1
290
     0
176
     1
290
     0
176
     1
 90
       50
176
     1
 40
0.0
176
     1
 40
1.0
176
     1
 90
        0
176
     1
 62
    18
420
        0
176
     1
 90
       50
176
     1
 90
        3
176
     1
 62
     5
420
      255
176
     1
290
     0
176
     1
 90
       50
176
     1
 90
       50
176
     1
 90
       50
176
     1
290
     0
176
     1
 90
       50
176
     1
 62
   256
176
     0
 40
1.0
176
     0
 90
        2
176
     1
  1
strokes_ogs.tif
176
     1
290
     0
176
     1
 40
1.0
176
     1
 40
1.0
176
     1
  0
VISUALSTYLE
  5
2B
102
{ACAD_REACTORS
330
2A
102
}
330
2A
100
AcDbVisualStyle
  2
Flat
 70
     0
177
     3
291
     1
 70
    58
 90
        2
176
     1
 90
        1
176
     1
 90
        1
176
     1
 90
        2
176
     1
 40
0.6
176
     1
 40
30.0
176
     1
 62
     7
420
 16777215
176
     1
 90
        0
176
     1
 90
        0
176
     1
 62
     7
176
     1
 62
   257
176
     1
 90
        1
176
     1
 90
        1
176
     1
 40
1.0
176
     1
 90
        8
176
     1
 62
     7
176
     1
 40
1.0
176
     1
 90
        1
176
     1
 90
        6
176
     1
 90
        2
176
     1
 62
     7
176
     1
 90
        5
176
     1
 90
        0
176
     1
 90
        0
176
     1
290
     0
176
     1
 90
       13
176
     1
 40
0.0
176
     1
 90
        0
176
     1
290
     0
176
     1
290
     1
176
     1
290
     1
176
     1
290
     0
176
     1
290
     0
176
     1
290
     0
176
     1
290
     0
176
     1
290
     0
176
     1
290
     0
176
     1
 90
       50
176
     1
 40
0.0
176
     1
 40
1.0
176
     1
 90
        0
176
     1
 62
    18
420
        0
176
     1
 90
       50
176
     1
 90
        3
176
     1
 62
     5
420
      255
176
     1
290
     0
176
     1
 90
       50
176
     1
 90
       50
176
     1
 90
       50
176
     1
290
     0
176
     1
 90
       50
176
     1
 62
   256
176
     0
 40
1.0
176
     0
 90
        2
176
     1
  1
strokes_ogs.tif
176
     1
290
     0
176
     1
 40
1.0
176
     1
 40
1.0
176
     1
  0
VISUALSTYLE
  5
2C
102
{ACAD_REACTORS
330
2A
102
}
330
2A
100
AcDbVisualStyle
  2
FlatWithEdges
 70
     1
177
     3
291
     1
 70
    58
 90
        2
176
     1
 90
        1
176
     1
 90
        1
176
     1
 90
        2
176
     1
 40
0.6
176
     1
 40
30.0
176
     1
 62
     7
420
 16777215
176
     1
 90
        1
176
     1
 90
        0
176
     1
 62
     7
176
     1
 62
   257
176
     1
 90
        1
176
     1
 90
        1
176
     1
 40
1.0
176
     1
 90
        0
176
     1
 62
   257
176
     1
 40
1.0
176
     1
 90
        1
176
     1
 90
        6
176
     1
 90
        2
176
     1
 62
     7
176
     1
 90
        5
176
     1
 90
        0
176
     1
 90
        0
176
     1
290
     0
176
     1
 90
       13
176
     1
 40
0.0
176
     1
 90
        0
176
     1
290
     0
176
     1
290
     1
176
     1
290
     1
176
     1
290
     0
176
     1
290
     0
176
     1
290
     0
176
     1
290
     0
176
     1
290
     0
176
     1
290
     0
176
     1
 90
       50
176
     1
 40
0.0
176
     1
 40
1.0
176
     1
 90
        0
176
     1
 62
    18
420
        0
176
     1
 90
       50
176
     1
 90
        3
176
     1
 62
     5
420
      255
176
     1
290
     0
176
     1
 90
       50
176
     1
 90
       50
176
     1
 90
       50
176
     1
290
     0
176
     1
 90
       50
176
     1
 62
   256
176
     0
 40
1.0
176
     0
 90
        2
176
     1
  1
strokes_ogs.tif
176
     1
290
     0
176
     1
 40
1.0
176
     1
 40
1.0
176
     1
  0
VISUALSTYLE
  5
2D
102
{ACAD_REACTORS
330
2A
102
}
330
2A
100
AcDbVisualStyle
  2
Gouraud
 70
     2
177
     3
291
     1
 70
    58
 90
        2
176
     1
 90
        2
176
     1
 90
        1
176
     1
 90
        2
176
     1
 40
0.6
176
     1
 40
30.0
176
     1
 62
     7
420
 16777215
176
     1
 90
        0
176
     1
 90
        0
176
     1
 62
     7
176
     1
 62
   257
176
     1
 90
        1
176
     1
 90
        1
176
     1
 40
1.0
176
     1
 90
        0
176
     1
 62
     7
176
     1
 40
1.0
176
     1
 90
        1
176
     1
 90
        6
176
     1
 90
        2
176
     1
 62
     7
176
     1
 90
        5
176
     1
 90
        0
176
     1
 90
        0
176
     1
290
     0
176
     1
 90
       13
176
     1
 40
0.0
176
     1
 90
        0
176
     1
290
     0
176
     1
290
     1
176
     1
290
     1
176
     1
290
     0
176
     1
290
     0
176
     1
290
     0
176
     1
290
     0
176
     1
290
     0
176
     1
290
     0
176
     1
 90
       50
176
     1
 40
0.0
176
     1
 40
1.0
176
     1
 90
        0
176
     1
 62
    18
420
        0
176
     1
 90
       50
176
     1
 90
        3
176
     1
 62
     5
420
      255
176
     1
290
     0
176
     1
 90
       50
176
     1
 90
       50
176
     1
 90
       50
176
     1
290
     0
176
     1
 90
       50
176
     1
 62
   256
176
     0
 40
1.0
176
     0
 90
        2
176
     1
  1
strokes_ogs.tif
176
     1
290
     0
176
     1
 40
1.0
176
     1
 40
1.0
176
     1
  0
VISUALSTYLE
  5
2E
102
{ACAD_REACTORS
330
2A
102
}
330
2A
100
AcDbVisualStyle
  2
GouraudWithEdges
 70
     3
177
     3
291
     1
 70
    58
 90
        2
176
     1
 90
        2
176
     1
 90
        1
176
     1
 90
        2
176
     1
 40
0.6
176
     1
 40
30.0
176
     1
 62
     7
420
 16777215
176
     1
 90
        1
176
     1
 90
        0
176
     1
 62
     7
176
     1
 62
   257
176
     1
 90
        1
176
     1
 90
        1
176
     1
 40
1.0
176
     1
 90
        0
176
     1
 62
   257
176
     1
 40
1.0
176
     1
 90
        1
176
     1
 90
        6
176
     1
 90
        2
176
     1
 62
     7
176
     1
 90
        5
176
     1
 90
        0
176
     1
 90
        0
176
     1
290
     0
176
     1
 90
       13
176
     1
 40
0.0
176
     1
 90
        0
176
     1
290
     0
176
     1
290
     1
176
     1
290
     1
176
     1
290
     0
176
     1
290
     0
176
     1
290
     0
176
     1
290
     0
176
     1
290
     0
176
     1
290
     0
176
     1
 90
       50
176
     1
 40
0.0
176
     1
 40
1.0
176
     1
 90
        0
176
     1
 62
    18
420
        0
176
     1
 90
       50
176
     1
 90
        3
176
     1
 62
     5
420
      255
176
     1
290
     0
176
     1
 90
       50
176
     1
 90
       50
176
     1
 90
       50
176
     1
290
     0
176
     1
 90
       50
176
     1
 62
   256
176
     0
 40
1.0
176
     0
 90
        2
176
     1
  1
strokes_ogs.tif
176
     1
290
     0
176
     1
 40
1.0
176
     1
 40
1.0
176
     1
  0
VISUALSTYLE
  5
31
102
{ACAD_REACTORS
330
2A
102
}
330
2A
100
AcDbVisualStyle
  2
Hidden
 70
     6
177
     3
291
     0
 70
    58
 90
        1
176
     1
 90
        2
176
     1
 90
        2
176
     1
 90
        0
176
     1
 40
0.6
176
     1
 40
30.0
176
     1
 62
     7
420
 16777215
176
     1
 90
        2
176
     1
 90
        2
176
     1
 62
     7
176
     1
 62
   257
176
     1
 90
        2
176
     1
 90
        1
176
     1
 40
40.0
176
     1
 90
        0
176
     1
 62
   257
176
     1
 40
1.0
176
     1
 90
        1
176
     1
 90
        6
176
     1
 90
        2
176
     1
 62
     7
176
     1
 90
        3
176
     1
 90
        0
176
     1
 90
        0
176
     1
290
     0
176
     1
 90
        1
176
     1
 40
0.0
176
     1
 90
        0
176
     1
290
     0
176
     1
290
     1
176
     1
290
     1
176
     1
290
     0
176
     1
290
     0
176
     1
290
     0
176
     1
290
     0
176
     1
290
     0
176
     1
290
     0
176
     1
 90
       50
176
     1
 40
0.0
176
     1
 40
1.0
176
     1
 90
        0
176
     1
 62
    18
420
        0
176
     1
 90
       50
176
     1
 90
        3
176
     1
 62
     5
420
      255
176
     1
290
     0
176
     1
 90
       50
176
     1
 90
       50
176
     1
 90
       50
176
     1
290
     0
176
     1
 90
       50
176
     1
 62
   256
176
     0
 40
1.0
176
     0
 90
        2
176
     1
  1
strokes_ogs.tif
176
     1
290
     0
176
     1
 40
1.0
176
     1
 40
1.0
176
     1
  0
VISUALSTYLE
  5
3B
102
{ACAD_REACTORS
330
2A
102
}
330
2A
100
AcDbVisualStyle
  2
JitterOff
 70
    20
177
     3
291
     1
 70
    58
 90
        2
176
     0
 90
        2
176
     0
 90
        0
176
     0
 90
        0
176
     0
 40
0.6
176
     0
 40
30.0
176
     0
 62
     7
420
 16777215
176
     0
 90
        1
176
     0
 90
        4
176
     0
 62
     7
176
     0
 62
   257
176
     0
 90
        1
176
     0
 90
        1
176
     0
 40
1.0
176
     0
 90
       10
176
     2
 62
     7
176
     0
 40
1.0
176
     0
 90
        1
176
     0
 90
        6
176
     0
 90
        2
176
     0
 62
     7
176
     0
 90
        5
176
     0
 90
        0
176
     0
 90
        0
176
     0
290
     0
176
     0
 90
        1
176
     0
 40
0.0
176
     0
 90
        0
176
     0
290
     0
176
     0
290
     1
176
     0
290
     1
176
     0
290
     0
176
     0
290
     0
176
     0
290
     0
176
     0
290
     0
176
     0
290
     0
176
     0
290
     0
176
     0
 90
       50
176
     0
 40
0.0
176
     0
 40
1.0
176
     0
 90
        0
176
     0
 62
    18
420
        0
176
     0
 90
       50
176
     0
 90
        3
176
     0
 62
     5
420
      255
176
     0
290
     0
176
     0
 90
       50
176
     0
 90
       50
176
     0
 90
       50
176
     0
290
     0
176
     0
 90
       50
176
     0
 62
   256
176
     0
 40
1.0
176
     0
 90
        2
176
     0
  1
strokes_ogs.tif
176
     0
290
     0
176
     0
 40
1.0
176
     0
 40
1.0
176
     0
  0
VISUALSTYLE
  5
38
102
{ACAD_REACTORS
330
2A
102
}
330
2A
100
AcDbVisualStyle
  2
Linepattern
 70
    14
177
     3
291
     1
 70
    58
 90
        2
176
     1
 90
        2
176
     1
 90
        0
176
     1
 90
        0
176
     1
 40
0.6
176
     1
 40
30.0
176
     1
 62
     7
420
 16777215
176
     1
 90
        1
176
     1
 90
        4
176
     1
 62
     7
176
     1
 62
   257
176
     1
 90
        7
176
     1
 90
        7
176
     1
 40
1.0
176
     1
 90
        8
176
     1
 62
     7
176
     1
 40
1.0
176
     1
 90
        1
176
     1
 90
        6
176
     1
 90
        2
176
     1
 62
     7
176
     1
 90
        5
176
     1
 90
        0
176
     1
 90
        0
176
     1
290
     0
176
     1
 90
        1
176
     1
 40
0.0
176
     1
 90
        0
176
     1
290
     0
176
     1
290
     1
176
     1
290
     1
176
     1
290
     0
176
     1
290
     0
176
     1
290
     0
176
     1
290
     0
176
     1
290
     0
176
     1
290
     0
176
     1
 90
       50
176
     1
 40
0.0
176
     1
 40
1.0
176
     1
 90
        0
176
     1
 62
    18
420
        0
176
     1
 90
       50
176
     1
 90
        3
176
     1
 62
     5
420
      255
176
     1
290
     0
176
     1
 90
       50
176
     1
 90
       50
176
     1
 90
       50
176
     1
290
     0
176
     1
 90
       50
176
     1
 62
   256
176
     0
 40
1.0
176
     0
 90
        2
176
     1
  1
strokes_ogs.tif
176
     1
290
     0
176
     1
 40
1.0
176
     1
 40
1.0
176
     1
  0
VISUALSTYLE
  5
3C
102
{ACAD_REACTORS
330
2A
102
}
330
2A
100
AcDbVisualStyle
  2
OverhangOff
 70
    21
177
     3
291
     1
 70
    58
 90
        2
176
     0
 90
        2
176
     0
 90
        0
176
     0
 90
        0
176
     0
 40
0.6
176
     0
 40
30.0
176
     0
 62
     7
420
 16777215
176
     0
 90
        1
176
     0
 90
        4
176
     0
 62
     7
176
     0
 62
   257
176
     0
 90
        1
176
     0
 90
        1
176
     0
 40
1.0
176
     0
 90
        9
176
     2
 62
     7
176
     0
 40
1.0
176
     0
 90
        1
176
     0
 90
        6
176
     0
 90
        2
176
     0
 62
     7
176
     0
 90
        5
176
     0
 90
        0
176
     0
 90
        0
176
     0
290
     0
176
     0
 90
        1
176
     0
 40
0.0
176
     0
 90
        0
176
     0
290
     0
176
     0
290
     1
176
     0
290
     1
176
     0
290
     0
176
     0
290
     0
176
     0
290
     0
176
     0
290
     0
176
     0
290
     0
176
     0
290
     0
176
     0
 90
       50
176
     0
 40
0.0
176
     0
 40
1.0
176
     0
 90
        0
176
     0
 62
    18
420
        0
176
     0
 90
       50
176
     0
 90
        3
176
     0
 62
     5
420
      255
176
     0
290
     0
176
     0
 90
       50
176
     0
 90
       50
176
     0
 90
       50
176
     0
290
     0
176
     0
 90
       50
176
     0
 62
   256
176
     0
 40
1.0
176
     0
 90
        2
176
     0
  1
strokes_ogs.tif
176
     0
290
     0
176
     0
 40
1.0
176
     0
 40
1.0
176
     0
  0
VISUALSTYLE
  5
33
102
{ACAD_REACTORS
330
2A
102
}
330
2A
100
AcDbVisualStyle
  2
Realistic
 70
     8
177
     3
291
     0
 70
    58
 90
        2
176
     1
 90
        3
176
     1
 90
        0
176
     1
 90
        2
176
     1
 40
0.6
176
     1
 40
30.0
176
     1
 62
     7
420
 16777215
176
     1
 90
        0
176
     1
 90
        0
176
     1
 62
     7
176
     1
 62
   257
176
     1
 90
        1
176
     1
 90
        1
176
     1
 40
1.0
176
     1
 90
        8
176
     1
 62
   257
176
     1
 40
1.0
176
     1
 90
        1
176
     1
 90
        6
176
     1
 90
        2
176
     1
 62
     7
176
     1
 90
        3
176
     1
 90
        0
176
     1
 90
        0
176
     1
290
     0
176
     1
 90
       13
176
     1
 40
0.0
176
     1
 90
        0
176
     1
290
     0
176
     1
290
     1
176
     1
290
     1
176
     1
290
     0
176
     1
290
     0
176
     1
290
     0
176
     1
290
     0
176
     1
290
     0
176
     1
290
     0
176
     1
 90
       50
176
     1
 40
0.0
176
     1
 40
1.0
176
     1
 90
        0
176
     1
 62
    18
420
        0
176
     1
 90
       50
176
     1
 90
        3
176
     1
 62
     5
420
      255
176
     1
290
     0
176
     1
 90
       50
176
     1
 90
       50
176
     1
 90
       50
176
     1
290
     0
176
     1
 90
       50
176
     1
 62
   256
176
     0
 40
1.0
176
     0
 90
        2
176
     1
  1
strokes_ogs.tif
176
     1
290
     0
176
     1
 40
1.0
176
     1
 40
1.0
176
     1
  0
VISUALSTYLE
  5
42
102
{ACAD_REACTORS
330
2A
102
}
330
2A
100
AcDbVisualStyle
  2
Shaded
 70
    27
177
     3
291
     0
 70
    58
 90
        2
176
     1
 90
        2
176
     1
 90
        1
176
     1
 90
        2
176
     1
 40
0.6
176
     1
 40
30.0
176
     1
 62
     7
420
 16777215
176
     1
 90
        0
176
     1
 90
        4
176
     1
 62
     7
176
     1
 62
   257
176
     1
 90
        1
176
     1
 90
        1
176
     1
 40
1.0
176
     1
 90
        8
176
     1
 62
   257
176
     1
 40
1.0
176
     1
 90
        1
176
     1
 90
        6
176
     1
 90
        2
176
     1
 62
     8
420
  7895160
176
     1
 90
        3
176
     1
 90
        0
176
     1
 90
        0
176
     1
290
     0
176
     1
 90
        5
176
     1
 40
0.0
176
     1
 90
        0
176
     1
290
     0
176
     1
290
     1
176
     1
290
     1
176
     1
290
     0
176
     1
290
     0
176
     1
290
     0
176
     1
290
     0
176
     1
290
     0
176
     1
290
     0
176
     1
 90
       50
176
     1
 40
0.0
176
     1
 40
1.0
176
     1
 90
        0
176
     1
 62
    18
420
        0
176
     1
 90
       50
176
     1
 90
        3
176
     1
 62
     5
420
      255
176
     1
290
     0
176
     1
 90
       50
176
     1
 90
       50
176
     1
 90
       50
176
     1
290
     0
176
     1
 90
       50
176
     1
 62
   256
176
     0
 40
1.0
176
     0
 90
        2
176
     1
  1
strokes_ogs.tif
176
     1
290
     0
176
     1
 40
1.0
176
     1
 40
1.0
176
     1
  0
VISUALSTYLE
  5
41
102
{ACAD_REACTORS
330
2A
102
}
330
2A
100
AcDbVisualStyle
  2
Shaded with edges
 70
    26
177
     3
291
     0
 70
    58
 90
        2
176
     1
 90
        2
176
     1
 90
        1
176
     1
 90
        2
176
     1
 40
0.6
176
     1
 40
30.0
176
     1
 62
     7
420
 16777215
176
     1
 90
        1
176
     1
 90
       10
176
     1
 62
     7
176
     1
 62
   257
176
     1
 90
        2
176
     1
 90
        1
176
     1
 40
1.0
176
     1
 90
        8
176
     1
 62
   257
176
     1
 40
1.0
176
     1
 90
        1
176
     1
 90
        6
176
     1
 90
        2
176
     1
 62
     7
176
     1
 90
        3
176
     1
 90
        0
176
     1
 90
        0
176
     1
290
     0
176
     1
 90
        5
176
     1
 40
0.0
176
     1
 90
        0
176
     1
290
     0
176
     1
290
     1
176
     1
290
     1
176
     1
290
     0
176
     1
290
     0
176
     1
290
     0
176
     1
290
     0
176
     1
290
     0
176
     1
290
     0
176
     1
 90
       50
176
     1
 40
0.0
176
     1
 40
1.0
176
     1
 90
        0
176
     1
 62
    18
420
        0
176
     1
 90
       50
176
     1
 90
        3
176
     1
 62
     5
420
      255
176
     1
290
     0
176
     1
 90
       50
176
     1
 90
       50
176
     1
 90
       50
176
     1
290
     0
176
     1
 90
       50
176
     1
 62
   256
176
     0
 40
1.0
176
     0
 90
        2
176
     1
  1
strokes_ogs.tif
176
     1
290
     0
176
     1
 40
1.0
176
     1
 40
1.0
176
     1
  0
VISUALSTYLE
  5
3E
102
{ACAD_REACTORS
330
2A
102
}
330
2A
100
AcDbVisualStyle
  2
Shades of Gray
 70
    23
177
     3
291
     0
 70
    58
 90
        2
176
     1
 90
        2
176
     1
 90
        3
176
     1
 90
        0
176
     1
 40
0.6
176
     1
 40
30.0
176
     1
 62
     7
420
 16777215
176
     1
 90
        2
176
     1
 90
        2
176
     1
 62
     7
176
     1
 62
     7
176
     1
 90
        1
176
     1
 90
        1
176
     1
 40
40.0
176
     1
 90
        8
176
     1
 62
     7
176
     1
 40
1.0
176
     1
 90
        1
176
     1
 90
        6
176
     1
 90
        2
176
     1
 62
     7
176
     1
 90
        3
176
     1
 90
        0
176
     1
 90
        0
176
     1
290
     0
176
     1
 90
        1
176
     1
 40
0.0
176
     1
 90
        0
176
     1
290
     0
176
     1
290
     1
176
     1
290
     1
176
     1
290
     0
176
     1
290
     0
176
     1
290
     0
176
     1
290
     0
176
     1
290
     0
176
     1
290
     0
176
     1
 90
       50
176
     1
 40
0.0
176
     1
 40
1.0
176
     1
 90
        0
176
     1
 62
    18
420
        0
176
     1
 90
       50
176
     1
 90
        3
176
     1
 62
     5
420
      255
176
     1
290
     0
176
     1
 90
       50
176
     1
 90
       50
176
     1
 90
       50
176
     1
290
     0
176
     1
 90
       50
176
     1
 62
   256
176
     0
 40
1.0
176
     0
 90
        2
176
     1
  1
strokes_ogs.tif
176
     1
290
     0
176
     1
 40
1.0
176
     1
 40
1.0
176
     1
  0
VISUALSTYLE
  5
3F
102
{ACAD_REACTORS
330
2A
102
}
330
2A
100
AcDbVisualStyle
  2
Sketchy
 70
    24
177
     3
291
     0
 70
    58
 90
        1
176
     1
 90
        2
176
     1
 90
        2
176
     1
 90
        0
176
     1
 40
0.6
176
     1
 40
30.0
176
     1
 62
     7
420
 16777215
176
     1
 90
        2
176
     1
 90
        2
176
     1
 62
     7
176
     1
 62
     7
176
     1
 90
        1
176
     1
 90
        1
176
     1
 40
40.0
176
     1
 90
       11
176
     1
 62
     7
176
     1
 40
1.0
176
     1
 90
        1
176
     1
 90
        6
176
     1
 90
        2
176
     1
 62
     7
176
     1
 90
        6
176
     1
 90
        0
176
     1
 90
        0
176
     1
290
     0
176
     1
 90
        1
176
     1
 40
0.0
176
     1
 90
        0
176
     1
290
     0
176
     1
290
     1
176
     1
290
     1
176
     1
290
     0
176
     1
290
     0
176
     1
290
     0
176
     1
290
     0
176
     1
290
     0
176
     1
290
     0
176
     1
 90
       50
176
     1
 40
0.0
176
     1
 40
1.0
176
     1
 90
        0
176
     1
 62
    18
420
        0
176
     1
 90
       50
176
     1
 90
        3
176
     1
 62
     5
420
      255
176
     1
290
     0
176
     1
 90
       50
176
     1
 90
       50
176
     1
 90
       50
176
     1
290
     0
176
     1
 90
       50
176
     1
 62
   256
176
     0
 40
1.0
176
     0
 90
        2
176
     1
  1
strokes_ogs.tif
176
     1
290
     0
176
     1
 40
1.0
176
     1
 40
1.0
176
     1
  0
VISUALSTYLE
  5
37
102
{ACAD_REACTORS
330
2A
102
}
330
2A
100
AcDbVisualStyle
  2
Thicken
 70
    13
177
     3
291
     1
 70
    58
 90
        2
176
     1
 90
        2
176
     1
 90
        0
176
     1
 90
        0
176
     1
 40
0.6
176
     1
 40
30.0
176
     1
 62
     7
420
 16777215
176
     1
 90
        1
176
     1
 90
        4
176
     1
 62
     7
176
     1
 62
   257
176
     1
 90
        1
176
     1
 90
        1
176
     1
 40
1.0
176
     1
 90
       12
176
     1
 62
     7
176
     1
 40
1.0
176
     1
 90
        1
176
     1
 90
        6
176
     1
 90
        2
176
     1
 62
     7
176
     1
 90
        5
176
     1
 90
        0
176
     1
 90
        0
176
     1
290
     0
176
     1
 90
        1
176
     1
 40
0.0
176
     1
 90
        0
176
     1
290
     0
176
     1
290
     1
176
     1
290
     1
176
     1
290
     0
176
     1
290
     0
176
     1
290
     0
176
     1
290
     0
176
     1
290
     0
176
     1
290
     0
176
     1
 90
       50
176
     1
 40
0.0
176
     1
 40
1.0
176
     1
 90
        0
176
     1
 62
    18
420
        0
176
     1
 90
       50
176
     1
 90
        3
176
     1
 62
     5
420
      255
176
     1
290
     0
176
     1
 90
       50
176
     1
 90
       50
176
     1
 90
       50
176
     1
290
     0
176
     1
 90
       50
176
     1
 62
   256
176
     0
 40
1.0
176
     0
 90
        2
176
     1
  1
strokes_ogs.tif
176
     1
290
     0
176
     1
 40
1.0
176
     1
 40
1.0
176
     1
  0
VISUALSTYLE
  5
30
102
{ACAD_REACTORS
330
2A
102
}
330
2A
100
AcDbVisualStyle
  2
Wireframe
 70
     5
177
     3
291
     0
 70
    58
 90
        0
176
     1
 90
        2
176
     1
 90
        0
176
     1
 90
        0
176
     1
 40
0.6
176
     1
 40
30.0
176
     1
 62
     7
420
 16777215
176
     1
 90
        1
176
     1
 90
        4
176
     1
 62
     7
176
     1
 62
   257
176
     1
 90
        1
176
     1
 90
        1
176
     1
 40
1.0
176
     1
 90
        0
176
     1
 62
   257
176
     1
 40
1.0
176
     1
 90
        1
176
     1
 90
        6
176
     1
 90
        2
176
     1
 62
     7
176
     1
 90
        3
176
     1
 90
        0
176
     1
 90
        0
176
     1
290
     0
176
     1
 90
        1
176
     1
 40
0.0
176
     1
 90
        0
176
     1
290
     0
176
     1
290
     1
176
     1
290
     1
176
     1
290
     0
176
     1
290
     0
176
     1
290
     0
176
     1
290
     0
176
     1
290
     0
176
     1
290
     0
176
     1
 90
       50
176
     1
 40
0.0
176
     1
 40
1.0
176
     1
 90
        0
176
     1
 62
    18
420
        0
176
     1
 90
       50
176
     1
 90
        3
176
     1
 62
     5
420
      255
176
     1
290
     0
176
     1
 90
       50
176
     1
 90
       50
176
     1
 90
       50
176
     1
290
     0
176
     1
 90
       50
176
     1
 62
   256
176
     0
 40
1.0
176
     0
 90
        2
176
     1
  1
strokes_ogs.tif
176
     1
290
     0
176
     1
 40
1.0
176
     1
 40
1.0
176
     1
  0
VISUALSTYLE
  5
40
102
{ACAD_REACTORS
330
2A
102
}
330
2A
100
AcDbVisualStyle
  2
X-Ray
 70
    25
177
     3
291
     0
 70
    58
 90
        2
176
     1
 90
        2
176
     1
 90
        1
176
     1
 90
        1
176
     1
 40
0.5
176
     1
 40
30.0
176
     1
 62
     7
420
 16777215
176
     1
 90
        1
176
     1
 90
        0
176
     1
 62
     7
176
     1
 62
   257
176
     1
 90
        1
176
     1
 90
        1
176
     1
 40
1.0
176
     1
 90
        8
176
     1
 62
     7
176
     1
 40
1.0
176
     1
 90
        1
176
     1
 90
        6
176
     1
 90
        2
176
     1
 62
     7
176
     1
 90
        3
176
     1
 90
        0
176
     1
 90
        0
176
     1
290
     0
176
     1
 90
       13
176
     1
 40
0.0
176
     1
 90
        0
176
     1
290
     0
176
     1
290
     1
176
     1
290
     1
176
     1
290
     0
176
     1
290
     0
176
     1
290
     0
176
     1
290
     0
176
     1
290
     0
176
     1
290
     0
176
     1
 90
       50
176
     1
 40
0.0
176
     1
 40
1.0
176
     1
 90
        0
176
     1
 62
    18
420
        0
176
     1
 90
       50
176
     1
 90
        3
176
     1
 62
     5
420
      255
176
     1
290
     0
176
     1
 90
       50
176
     1
 90
       50
176
     1
 90
       50
176
     1
290
     0
176
     1
 90
       50
176
     1
 62
   256
176
     0
 40
1.0
176
     0
 90
        2
176
     1
  1
strokes_ogs.tif
176
     1
290
     0
176
     1
 40
1.0
176
     1
 40
1.0
176
     1
  0
DICTIONARYVAR
  5
408
102
{ACAD_REACTORS
330
407
102
}
330
407
100
DictionaryVariables
280
     0
  1
1:1
  0
DICTIONARYVAR
  5
40D
102
{ACAD_REACTORS
330
407
102
}
330
407
100
DictionaryVariables
280
     0
  1
Standard
  0
DICTIONARYVAR
  5
40C
102
{ACAD_REACTORS
330
407
102
}
330
407
100
DictionaryVariables
280
     0
  1
Standard
  0
DICTIONARYVAR
  5
410
102
{ACAD_REACTORS
330
407
102
}
330
407
100
DictionaryVariables
280
     0
  1
0
  0
DICTIONARY
  5
409
330
6A
100
AcDbDictionary
280
     1
281
     1
  3
ACAD_ROUNDTRIP_2008_TABLESTYLE_CELLSTYLEMAP
360
40A
  0
CELLSTYLEMAP
  5
40A
102
{ACAD_REACTORS
330
409
102
}
330
409
100
AcDbCellStyleMap
 90
        3
300
CELLSTYLE
  1
TABLEFORMAT_BEGIN
 90
        5
170
     1
 91
        0
 92
    32768
 62
   257
 93
        1
300
CONTENTFORMAT
  1
CONTENTFORMAT_BEGIN
 90
        0
 91
        0
 92
        4
 93
        0
300

 40
0.0
140
1.0
 94
        5
 62
     0
340
11
144
0.25
309
CONTENTFORMAT_END
171
     1
301
MARGIN
  1
CELLMARGIN_BEGIN
 40
0.06
 40
0.06
 40
0.06
 40
0.06
 40
0.06
 40
0.06
309
CELLMARGIN_END
 94
        6
 95
        1
302
GRIDFORMAT
  1
GRIDFORMAT_BEGIN
 90
        0
 91
        1
 62
     0
 92
       -2
340
14
 93
        0
 40
0.045
309
GRIDFORMAT_END
 95
        2
302
GRIDFORMAT
  1
GRIDFORMAT_BEGIN
 90
        0
 91
        1
 62
     0
 92
       -2
340
14
 93
        0
 40
0.045
309
GRIDFORMAT_END
 95
        4
302
GRIDFORMAT
  1
GRIDFORMAT_BEGIN
 90
        0
 91
        1
 62
     0
 92
       -2
340
14
 93
        0
 40
0.045
309
GRIDFORMAT_END
 95
        8
302
GRIDFORMAT
  1
GRIDFORMAT_BEGIN
 90
        0
 91
        1
 62
     0
 92
       -2
340
14
 93
        0
 40
0.045
309
GRIDFORMAT_END
 95
       16
302
GRIDFORMAT
  1
GRIDFORMAT_BEGIN
 90
        0
 91
        1
 62
     0
 92
       -2
340
14
 93
        0
 40
0.045
309
GRIDFORMAT_END
 95
       32
302
GRIDFORMAT
  1
GRIDFORMAT_BEGIN
 90
        0
 91
        1
 62
     0
 92
       -2
340
14
 93
        0
 40
0.045
309
GRIDFORMAT_END
309
TABLEFORMAT_END
  1
CELLSTYLE_BEGIN
 90
        1
 91
        1
300
_TITLE
309
CELLSTYLE_END
300
CELLSTYLE
  1
TABLEFORMAT_BEGIN
 90
        5
170
     1
 91
        0
 92
        0
 62
   257
 93
        1
300
CONTENTFORMAT
  1
CONTENTFORMAT_BEGIN
 90
        0
 91
        0
 92
        4
 93
        0
300

 40
0.0
140
1.0
 94
        5
 62
     0
340
11
144
0.18
309
CONTENTFORMAT_END
171
     1
301
MARGIN
  1
CELLMARGIN_BEGIN
 40
0.06
 40
0.06
 40
0.06
 40
0.06
 40
0.06
 40
0.06
309
CELLMARGIN_END
 94
        6
 95
        1
302
GRIDFORMAT
  1
GRIDFORMAT_BEGIN
 90
        0
 91
        1
 62
     0
 92
       -2
340
14
 93
        0
 40
0.045
309
GRIDFORMAT_END
 95
        2
302
GRIDFORMAT
  1
GRIDFORMAT_BEGIN
 90
        0
 91
        1
 62
     0
 92
       -2
340
14
 93
        0
 40
0.045
309
GRIDFORMAT_END
 95
        4
302
GRIDFORMAT
  1
GRIDFORMAT_BEGIN
 90
        0
 91
        1
 62
     0
 92
       -2
340
14
 93
        0
 40
0.045
309
GRIDFORMAT_END
 95
        8
302
GRIDFORMAT
  1
GRIDFORMAT_BEGIN
 90
        0
 91
        1
 62
     0
 92
       -2
340
14
 93
        0
 40
0.045
309
GRIDFORMAT_END
 95
       16
302
GRIDFORMAT
  1
GRIDFORMAT_BEGIN
 90
        0
 91
        1
 62
     0
 92
       -2
340
14
 93
        0
 40
0.045
309
GRIDFORMAT_END
 95
       32
302
GRIDFORMAT
  1
GRIDFORMAT_BEGIN
 90
        0
 91
        1
 62
     0
 92
       -2
340
14
 93
        0
 40
0.045
309
GRIDFORMAT_END
309
TABLEFORMAT_END
  1
CELLSTYLE_BEGIN
 90
        2
 91
        1
300
_HEADER
309
CELLSTYLE_END
300
CELLSTYLE
  1
TABLEFORMAT_BEGIN
 90
        5
170
     1
 91
        0
 92
        0
 62
   257
 93
        1
300
CONTENTFORMAT
  1
CONTENTFORMAT_BEGIN
 90
        0
 91
        0
 92
        4
 93
        0
300

 40
0.0
140
1.0
 94
        2
 62
     0
340
11
144
0.18
309
CONTENTFORMAT_END
171
     1
301
MARGIN
  1
CELLMARGIN_BEGIN
 40
0.06
 40
0.06
 40
0.06
 40
0.06
 40
0.06
 40
0.06
309
CELLMARGIN_END
 94
        6
 95
        1
302
GRIDFORMAT
  1
GRIDFORMAT_BEGIN
 90
        0
 91
        1
 62
     0
 92
       -2
340
14
 93
        0
 40
0.045
309
GRIDFORMAT_END
 95
        2
302
GRIDFORMAT
  1
GRIDFORMAT_BEGIN
 90
        0
 91
        1
 62
     0
 92
       -2
340
14
 93
        0
 40
0.045
309
GRIDFORMAT_END
 95
        4
302
GRIDFORMAT
  1
GRIDFORMAT_BEGIN
 90
        0
 91
        1
 62
     0
 92
       -2
340
14
 93
        0
 40
0.045
309
GRIDFORMAT_END
 95
        8
302
GRIDFORMAT
  1
GRIDFORMAT_BEGIN
 90
        0
 91
        1
 62
     0
 92
       -2
340
14
 93
        0
 40
0.045
309
GRIDFORMAT_END
 95
       16
302
GRIDFORMAT
  1
GRIDFORMAT_BEGIN
 90
        0
 91
        1
 62
     0
 92
       -2
340
14
 93
        0
 40
0.045
309
GRIDFORMAT_END
 95
       32
302
GRIDFORMAT
  1
GRIDFORMAT_BEGIN
 90
        0
 91
        1
 62
     0
 92
       -2
340
14
 93
        0
 40
0.045
309
GRIDFORMAT_END
309
TABLEFORMAT_END
  1
CELLSTYLE_BEGIN
 90
        3
 91
        2
300
_DATA
309
CELLSTYLE_END
  0
ENDSEC
  0
EOF
