  0
SECTION
  2
HEADER
  9
$ACADVER
  1
AC1014
  9
$DWGCODEPAGE
  3
ANSI_1252
  9
$INSBASE
 10
0.0
 20
0.0
 30
0.0
  9
$EXTMIN
 10
8298.84597889
 20
-43402.91253749
  9
$EXTMAX
 10
35914.26651495
 20
-5997.09001988
  9
$LIMMIN
 10
8298.84597889
 20
-43402.91253749
  9
$LIMMAX
 10
35914.26651495
 20
-5997.09001988
  9
$ORTHOMODE
 70
     0
  9
$REGENMODE
 70
     1
  9
$FILLMODE
 70
     1
  9
$QTEXTMODE
 70
     0
  9
$MIRRTEXT
 70
     1
  9
$DRAGMODE
 70
     2
  9
$LTSCALE
 40
5.0
  9
$OSMODE
 70
     0
  9
$ATTMODE
 70
     1
  9
$TEXTSIZE
 40
3.5
  9
$TRACEWID
 40
1.0
  9
$TEXTSTYLE
  7
STANDARD
  9
$CLAYER
  8
0
  9
$CELTYPE
  6
BYLAYER
  9
$CECOLOR
 62
   256
  9
$DIMSCALE
 40
1.0
  9
$DIMASZ
 40
2.0
  9
$DIMEXO
 40
5.0
  9
$DIMDLI
 40
10.0
  9
$DIMRND
 40
0.0
  9
$DIMDLE
 40
2.0
  9
$DIMEXE
 40
2.0
  9
$DIMTP
 40
0.0
  9
$DIMTM
 40
0.0
  9
$DIMTXT
 40
2.5
  9
$DIMCEN
 40
1.5
  9
$DIMTSZ
 40
0.0
  9
$DIMTOL
 70
     0
  9
$DIMLIM
 70
     0
  9
$DIMTIH
 70
     1
  9
$DIMTOH
 70
     0
  9
$DIMSE1
 70
     0
  9
$DIMSE2
 70
     0
  9
$DIMTAD
 70
     1
  9
$DIMZIN
 70
     8
  9
$DIMBLK
  1

  9
$DIMASO
 70
     1
  9
$DIMSHO
 70
     1
  9
$DIMPOST
  1

  9
$DIMAPOST
  1

  9
$DIMALT
 70
     0
  9
$DIMALTD
 70
     2
  9
$DIMALTF
 40
25.4
  9
$DIMLFAC
 40
1.0
  9
$DIMTOFL
 70
     0
  9
$DIMTVP
 40
0.0
  9
$DIMTIX
 70
     0
  9
$DIMSOXD
 70
     0
  9
$DIMSAH
 70
     0
  9
$DIMBLK1
  1

  9
$DIMBLK2
  1

  9
$DIMSTYLE
  2
*UNNAMED
  9
$DIMCLRD
 70
   190
  9
$DIMCLRE
 70
   190
  9
$DIMCLRT
 70
   190
  9
$DIMTFAC
 40
1.0
  9
$DIMGAP
 40
0.09
  9
$DIMUNIT
 70
     2
  9
$LUNITS
 70
     2
  9
$LUPREC
 70
     6
  9
$AXISMODE
 70
     0
  9
$AXISUNIT
 10
0.0
 20
0.0
  9
$SKETCHINC
 40
0.1
  9
$FILLETRAD
 40
0.0
  9
$AUNITS
 70
     0
  9
$AUPREC
 70
     0
  9
$MENU
  1
ACAD
  9
$ELEVATION
 40
0.0
  9
$PELEVATION
 40
0.0
  9
$THICKNESS
 40
0.0
  9
$LIMCHECK
 70
     0
  9
$BLIPMODE
 70
     1
  9
$CHAMFERA
 40
0.0
  9
$CHAMFERB
 40
0.0
  9
$SKPOLY
 70
     1
  9
$TDCREATE
 40
2457811.0000000000
  9
$TDUPDATE
 40
2457811.0000000000
  9
$TDINDWG
 40
0.0
  9
$TDUSRTIMER
 40
0.0
  9
$USRTIMER
 70
     1
  9
$ANGBASE
 50
0.0
  9
$ANGDIR
 70
     0
  9
$PDMODE
 70
     0
  9
$PDSIZE
 40
0.0
  9
$PLINEWID
 40
0.0
  9
$COORDS
 70
     2
  9
$SPLFRAME
 70
     0
  9
$SPLINETYPE
 70
     6
  9
$SPLINESEGS
 70
     8
  9
$ATTDIA
 70
     1
  9
$ATTREQ
 70
     1
  9
$HANDLING
 70
     1
  9
$HANDSEED
  5
     55B
  9
$SURFTAB1
 70
     6
  9
$SURFTAB2
 70
     6
  9
$SURFTYPE
 70
     6
  9
$SURFU
 70
     6
  9
$SURFV
 70
     6
  9
$UCSNAME
  2

  9
$UCSORG
 10
0.0
 20
0.0
 30
0.0
  9
$UCSXDIR
 10
1.0
 20
0.0
 30
0.0
  9
$UCSYDIR
 10
0.0
 20
1.0
 30
0.0
  9
$PUCSNAME
  2

  9
$PUCSORG
 10
0.0
 20
0.0
 30
0.0
  9
$PUCSXDIR
 10
1.0
 20
0.0
 30
0.0
  9
$PUCSYDIR
 10
0.0
 20
1.0
 30
0.0
  9
$USERI1
 70
     0
  9
$USERI2
 70
     0
  9
$USERI3
 70
     0
  9
$USERI4
 70
     0
  9
$USERI5
 70
     0
  9
$USERR1
 40
0.0
  9
$USERR2
 40
0.0
  9
$USERR3
 40
0.0
  9
$USERR4
 40
0.0
  9
$USERR5
 40
0.0
  9
$WORLDVIEW
 70
     1
  9
$SHADEDGE
 70
     3
  9
$SHADEDIF
 70
    70
  9
$TILEMODE
 70
     1
  9
$MAXACTVP
 70
    16
  9
$PINSBASE
 10
0.0
 20
0.0
 30
0.0
  9
$PLIMCHECK
 70
     0
  9
$PEXTMIN
 10
1.0000000000000E+20
 20
1.0000000000000E+20
 30
1.0000000000000E+20
  9
$PEXTMAX
 10
-1.0000000000000E+20
 20
-1.0000000000000E+20
 30
-1.0000000000000E+20
  9
$PLIMMIN
 10
0.0
 20
0.0
  9
$UNITMODE
 70
     0
  9
$VISRETAIN
 70
     0
  9
$MEASUREMENT
 70
     1
  0
ENDSEC
  0
SECTION
  2
TABLES
  0
TABLE
  2
VPORT
  5
36E
100
AcDbSymbolTable
 70
     1
  0
ENDTAB
  0
TABLE
  2
STYLE
  5
36F
100
AcDbSymbolTable
 70
     3
  0
STYLE
  5
370
100
AcDbSymbolTableRecord
100
AcDbTextStyleTableRecord
  2
STANDARD
 70
     0
 40
0.0
 41
1.0
 50
0.0
 71
     0
 42
3.5
  3
MONOTXT
  4

  0
STYLE
  5
371
100
AcDbSymbolTableRecord
100
AcDbTextStyleTableRecord
  2
SYMAP
 70
     0
 40
0.0
 41
1.0
 50
0.0
 71
     0
 42
3.5
  3
SYMAP
  4

  0
STYLE
  5
372
100
AcDbSymbolTableRecord
100
AcDbTextStyleTableRecord
  2
CADWORK1
 70
     0
 40
0.0
 41
1.0
 50
0.0
 71
     0
 42
3.5
  3
MONOTXT
  4

  0
STYLE
  5
373
100
AcDbSymbolTableRecord
100
AcDbTextStyleTableRecord
  2
MONOTXT
 70
     0
 40
0.0
 41
1.0
 50
0.0
 71
     0
 42
3.5
  3
MONOTXT
  4

  0
STYLE
  5
374
100
AcDbSymbolTableRecord
100
AcDbTextStyleTableRecord
  2
ARIAL
 70
     0
 40
0.0
 41
1.0
 50
0.0
 71
     0
 42
3.5
  3

  4

1001
ACAD
1000
Arial
1071
        0
  0
ENDTAB
  0
TABLE
  2
LTYPE
  5
375
100
AcDbSymbolTable
 70
    13
  0
LTYPE
  5
376
100
AcDbSymbolTableRecord
100
AcDbLinetypeTableRecord
  2
BYBLOCK
 70
    64
  3

 72
    65
 73
     0
 40
0.0
  0
LTYPE
  5
377
100
AcDbSymbolTableRecord
100
AcDbLinetypeTableRecord
  2
BYLAYER
 70
    64
  3

 72
    65
 73
     0
 40
0.0
  0
LTYPE
  5
378
100
AcDbSymbolTableRecord
100
AcDbLinetypeTableRecord
  2
CONTINUOUS
 70
    64
  3
Solid line
 72
    65
 73
     0
 40
0.0
  0
LTYPE
  5
379
100
AcDbSymbolTableRecord
100
AcDbLinetypeTableRecord
  2
DOT2
 70
    64
  3
...............................................
 72
    65
 73
     2
 40
1.25
 49
0.0
 74
     0
 49
-1.25
 74
     0
  0
LTYPE
  5
37A
100
AcDbSymbolTableRecord
100
AcDbLinetypeTableRecord
  2
DASHDOT
 70
    64
  3
 __ . __ . __ . __ . __ . __ . __ . __ . __ . __
 72
    65
 73
     4
 40
10.0
 49
5.0
 74
     0
 49
-2.5
 74
     0
 49
0.0
 74
     0
 49
-2.5
 74
     0
  0
LTYPE
  5
37B
100
AcDbSymbolTableRecord
100
AcDbLinetypeTableRecord
  2
CENTER
 70
    64
  3
 ____ _ ____ _ ____ _ ____ _ ____ _ ____ _ ____
 72
    65
 73
     4
 40
20.0
 49
12.5
 74
     0
 49
-2.5
 74
     0
 49
2.5
 74
     0
 49
-2.5
 74
     0
  0
LTYPE
  5
37C
100
AcDbSymbolTableRecord
100
AcDbLinetypeTableRecord
  2
CADWORK_22
 70
    64
  3
22 =======================================
 72
    65
 73
     0
 40
0.0
  0
LTYPE
  5
37D
100
AcDbSymbolTableRecord
100
AcDbLinetypeTableRecord
  2
DAL
 70
    64
  3
Solid line (for MAPS)
 72
    65
 73
     0
 40
0.0
  0
LTYPE
  5
37E
100
AcDbSymbolTableRecord
100
AcDbLinetypeTableRecord
  2
MUR
 70
    64
  3
Solid line (for MAPS)
 72
    65
 73
     0
 40
0.0
  0
LTYPE
  5
37F
100
AcDbSymbolTableRecord
100
AcDbLinetypeTableRecord
  2
SOM
 70
    64
  3
Solid line (for MAPS)
 72
    65
 73
     0
 40
0.0
  0
LTYPE
  5
380
100
AcDbSymbolTableRecord
100
AcDbLinetypeTableRecord
  2
COL
 70
    64
  3
Solid line (for MAPS)
 72
    65
 73
     0
 40
0.0
  0
LTYPE
  5
381
100
AcDbSymbolTableRecord
100
AcDbLinetypeTableRecord
  2
LGN
 70
    64
  3
Solid line (for MAPS)
 72
    65
 73
     0
 40
0.0
  0
LTYPE
  5
382
100
AcDbSymbolTableRecord
100
AcDbLinetypeTableRecord
  2
PNT
 70
    64
  3
Solid line (for MAPS)
 72
    65
 73
     0
 40
0.0
  0
ENDTAB
  0
TABLE
  2
LAYER
  5
383
100
AcDbSymbolTable
 70
    32
  0
LAYER
  5
384
100
AcDbSymbolTableRecord
100
AcDbLayerTableRecord
  2
Standard
 70
     0
 62
     7
  6
CONTINUOUS
370
    -3
  0
LAYER
  5
385
100
AcDbSymbolTableRecord
100
AcDbLayerTableRecord
  2
Ech.1_1
 70
     0
 62
     7
  6
CONTINUOUS
370
    -3
  0
LAYER
  5
386
100
AcDbSymbolTableRecord
100
AcDbLayerTableRecord
  2
Ech.1_2
 70
     0
 62
     7
  6
CONTINUOUS
370
    -3
  0
LAYER
  5
387
100
AcDbSymbolTableRecord
100
AcDbLayerTableRecord
  2
Ech.1_5
 70
     0
 62
     7
  6
CONTINUOUS
370
    -3
  0
LAYER
  5
388
100
AcDbSymbolTableRecord
100
AcDbLayerTableRecord
  2
Ech.1_10
 70
     0
 62
     7
  6
CONTINUOUS
370
    -3
  0
LAYER
  5
389
100
AcDbSymbolTableRecord
100
AcDbLayerTableRecord
  2
Ech.1_20
 70
     0
 62
     7
  6
CONTINUOUS
370
    -3
  0
LAYER
  5
38A
100
AcDbSymbolTableRecord
100
AcDbLayerTableRecord
  2
Ech.1_25
 70
     0
 62
     7
  6
CONTINUOUS
370
    -3
  0
LAYER
  5
38B
100
AcDbSymbolTableRecord
100
AcDbLayerTableRecord
  2
Ech.1_33
 70
     0
 62
     7
  6
CONTINUOUS
370
    -3
  0
LAYER
  5
38C
100
AcDbSymbolTableRecord
100
AcDbLayerTableRecord
  2
Ech.1_50
 70
     0
 62
     7
  6
CONTINUOUS
370
    -3
  0
LAYER
  5
38D
100
AcDbSymbolTableRecord
100
AcDbLayerTableRecord
  2
Ech.1_75
 70
     0
 62
     7
  6
CONTINUOUS
370
    -3
  0
LAYER
  5
38E
100
AcDbSymbolTableRecord
100
AcDbLayerTableRecord
  2
Ech.1_100
 70
     0
 62
     7
  6
CONTINUOUS
370
    -3
  0
LAYER
  5
38F
100
AcDbSymbolTableRecord
100
AcDbLayerTableRecord
  2
Ech.1_200
 70
     0
 62
     7
  6
CONTINUOUS
370
    -3
  0
LAYER
  5
390
100
AcDbSymbolTableRecord
100
AcDbLayerTableRecord
  2
Ech.1_500
 70
     0
 62
     7
  6
CONTINUOUS
370
    -3
  0
LAYER
  5
391
100
AcDbSymbolTableRecord
100
AcDbLayerTableRecord
  2
Ech.1_1000
 70
     0
 62
     7
  6
CONTINUOUS
370
    -3
  0
LAYER
  5
392
100
AcDbSymbolTableRecord
100
AcDbLayerTableRecord
  2
Cadres traceur
 70
     0
 62
     7
  6
CONTINUOUS
370
    18
  0
LAYER
  5
393
100
AcDbSymbolTableRecord
100
AcDbLayerTableRecord
  2
Cadres laser
 70
     0
 62
     7
  6
CONTINUOUS
370
    18
  0
LAYER
  5
394
100
AcDbSymbolTableRecord
100
AcDbLayerTableRecord
  2
Légende d_aide
 70
     0
 62
     7
  6
CONTINUOUS
370
    18
  0
LAYER
  5
395
100
AcDbSymbolTableRecord
100
AcDbLayerTableRecord
  2
hachures ok
 70
     0
 62
     7
  6
CONTINUOUS
370
    18
  0
LAYER
  5
396
100
AcDbSymbolTableRecord
100
AcDbLayerTableRecord
  2
ossature bois
 70
     0
 62
     7
  6
CONTINUOUS
370
    18
  0
LAYER
  5
397
100
AcDbSymbolTableRecord
100
AcDbLayerTableRecord
  2
VR
 70
     0
 62
     7
  6
CONTINUOUS
370
    25
  0
LAYER
  5
398
100
AcDbSymbolTableRecord
100
AcDbLayerTableRecord
  2
Calque1
 70
     0
 62
     7
  6
CONTINUOUS
370
     9
  0
LAYER
  5
399
100
AcDbSymbolTableRecord
100
AcDbLayerTableRecord
  2
0
 70
     0
 62
     7
  6
CONTINUOUS
370
    -3
  0
LAYER
  5
39A
100
AcDbSymbolTableRecord
100
AcDbLayerTableRecord
  2
menuiserie
 70
     0
 62
     7
  6
CONTINUOUS
370
    -3
  0
LAYER
  5
39B
100
AcDbSymbolTableRecord
100
AcDbLayerTableRecord
  2
cotation
 70
     0
 62
   250
  6
CONTINUOUS
370
     9
  0
LAYER
  5
39C
100
AcDbSymbolTableRecord
100
AcDbLayerTableRecord
  2
Defpoints
 70
     0
 62
    10
  6
CONTINUOUS
370
    -3
  0
LAYER
  5
39D
100
AcDbSymbolTableRecord
100
AcDbLayerTableRecord
  2
HACHURE
 70
     0
 62
   254
  6
CONTINUOUS
370
    25
  0
LAYER
  5
39E
100
AcDbSymbolTableRecord
100
AcDbLayerTableRecord
  2
mat1
 70
     0
 62
     7
  6
CONTINUOUS
370
    30
  0
LAYER
  5
39F
100
AcDbSymbolTableRecord
100
AcDbLayerTableRecord
  2
mat2
 70
     0
 62
     7
  6
CONTINUOUS
370
     5
  0
LAYER
  5
3A0
100
AcDbSymbolTableRecord
100
AcDbLayerTableRecord
  2
hach
 70
     0
 62
     8
  6
CONTINUOUS
370
     5
  0
LAYER
  5
3A1
100
AcDbSymbolTableRecord
100
AcDbLayerTableRecord
  2
menuiseries
 70
     0
 62
     7
  6
CONTINUOUS
370
     9
  0
LAYER
  5
3A2
100
AcDbSymbolTableRecord
100
AcDbLayerTableRecord
  2
BétonMétal
 70
     0
 62
     7
  6
CONTINUOUS
370
    80
  0
LAYER
  5
3A3
100
AcDbSymbolTableRecord
100
AcDbLayerTableRecord
  2
bois
 70
     0
 62
     7
  6
CONTINUOUS
370
    60
  0
ENDTAB
  0
TABLE
  2
VIEW
  5
3A4
100
AcDbSymbolTable
 70
     0
  0
ENDTAB
  0
TABLE
  2
UCS
  5
3A5
100
AcDbSymbolTable
 70
     0
  0
ENDTAB
  0
TABLE
  2
APPID
  5
3A6
100
AcDbSymbolTable
 70
     1
  0
APPID
  5
3A7
100
AcDbSymbolTableRecord
100
AcDbRegAppTableRecord
  2
ACAD
 70
     0
  0
ENDTAB
  0
TABLE
  2
DIMSTYLE
  5
3A8
100
AcDbSymbolTable
 70
     0
  0
ENDTAB
  0
TABLE
  2
BLOCK_RECORD
  5
3A9
100
AcDbSymbolTable
 70
     0
  0
BLOCK_RECORD
  5
3AA
100
AcDbSymbolTableRecord
100
AcDbBlockTableRecord
  2
*MODEL_SPACE
  0
BLOCK_RECORD
  5
3AB
100
AcDbSymbolTableRecord
100
AcDbBlockTableRecord
  2
*PAPER_SPACE
  0
BLOCK_RECORD
  5
3AC
100
AcDbSymbolTableRecord
100
AcDbBlockTableRecord
  2
CDWK_EXTR_0
  0
BLOCK_RECORD
  5
3AD
100
AcDbSymbolTableRecord
100
AcDbBlockTableRecord
  2
CDWK_EXTR_1D
  0
BLOCK_RECORD
  5
3AE
100
AcDbSymbolTableRecord
100
AcDbBlockTableRecord
  2
CDWK_EXTR_1G
  0
BLOCK_RECORD
  5
3AF
100
AcDbSymbolTableRecord
100
AcDbBlockTableRecord
  2
CDWK_EXTR_2
  0
BLOCK_RECORD
  5
3B0
100
AcDbSymbolTableRecord
100
AcDbBlockTableRecord
  2
CDWK_EXTR_3
  0
BLOCK_RECORD
  5
3B1
100
AcDbSymbolTableRecord
100
AcDbBlockTableRecord
  2
CDWK_EXTR_4
  0
BLOCK_RECORD
  5
3B2
100
AcDbSymbolTableRecord
100
AcDbBlockTableRecord
  2
CDWK_PTTYP0
  0
BLOCK_RECORD
  5
3B3
100
AcDbSymbolTableRecord
100
AcDbBlockTableRecord
  2
CDWK_PTTYP1
  0
BLOCK_RECORD
  5
3B4
100
AcDbSymbolTableRecord
100
AcDbBlockTableRecord
  2
CDWK_PTTYP2
  0
BLOCK_RECORD
  5
3B5
100
AcDbSymbolTableRecord
100
AcDbBlockTableRecord
  2
CDWK_PTTYP3
  0
BLOCK_RECORD
  5
3B6
100
AcDbSymbolTableRecord
100
AcDbBlockTableRecord
  2
CDWK_PTTYP4
  0
BLOCK_RECORD
  5
3B7
100
AcDbSymbolTableRecord
100
AcDbBlockTableRecord
  2
CDWK_PTTYP5
  0
BLOCK_RECORD
  5
3B8
100
AcDbSymbolTableRecord
100
AcDbBlockTableRecord
  2
CDWK_PTTYP6
  0
BLOCK_RECORD
  5
3B9
100
AcDbSymbolTableRecord
100
AcDbBlockTableRecord
  2
CDWK_PTTYP7
  0
BLOCK_RECORD
  5
3BA
100
AcDbSymbolTableRecord
100
AcDbBlockTableRecord
  2
CDWK_PTTYP8
  0
BLOCK_RECORD
  5
3BB
100
AcDbSymbolTableRecord
100
AcDbBlockTableRecord
  2
CDWK_PTTYP9
  0
BLOCK_RECORD
  5
3BC
100
AcDbSymbolTableRecord
100
AcDbBlockTableRecord
  2
CDWK_PTTYP10
  0
BLOCK_RECORD
  5
3BD
100
AcDbSymbolTableRecord
100
AcDbBlockTableRecord
  2
CDWK_PTTYP11
  0
BLOCK_RECORD
  5
3BE
100
AcDbSymbolTableRecord
100
AcDbBlockTableRecord
  2
CDWK_PTTYP12
  0
BLOCK_RECORD
  5
3BF
100
AcDbSymbolTableRecord
100
AcDbBlockTableRecord
  2
CDWK_PTTYP13
  0
BLOCK_RECORD
  5
3C0
100
AcDbSymbolTableRecord
100
AcDbBlockTableRecord
  2
CDWK_PTTYP14
  0
BLOCK_RECORD
  5
3C1
100
AcDbSymbolTableRecord
100
AcDbBlockTableRecord
  2
CDWK_PTTYP15
  0
BLOCK_RECORD
  5
3C2
100
AcDbSymbolTableRecord
100
AcDbBlockTableRecord
  2
CDWK_PTTYP16
  0
BLOCK_RECORD
  5
3C3
100
AcDbSymbolTableRecord
100
AcDbBlockTableRecord
  2
CDWK_PTTYP17
  0
BLOCK_RECORD
  5
3C4
100
AcDbSymbolTableRecord
100
AcDbBlockTableRecord
  2
CDWK_PTTYP18
  0
BLOCK_RECORD
  5
3C5
100
AcDbSymbolTableRecord
100
AcDbBlockTableRecord
  2
CDWK_PTTYP19
  0
BLOCK_RECORD
  5
3C6
100
AcDbSymbolTableRecord
100
AcDbBlockTableRecord
  2
CDWK_PTTYP20
  0
BLOCK_RECORD
  5
3C7
100
AcDbSymbolTableRecord
100
AcDbBlockTableRecord
  2
CDWK_PTTYP21
  0
BLOCK_RECORD
  5
3C8
100
AcDbSymbolTableRecord
100
AcDbBlockTableRecord
  2
CDWK_PTTYP22
  0
BLOCK_RECORD
  5
3C9
100
AcDbSymbolTableRecord
100
AcDbBlockTableRecord
  2
CDWK_PTTYP23
  0
BLOCK_RECORD
  5
3CA
100
AcDbSymbolTableRecord
100
AcDbBlockTableRecord
  2
CDWK_PTTYP24
  0
BLOCK_RECORD
  5
3CB
100
AcDbSymbolTableRecord
100
AcDbBlockTableRecord
  2
CDWK_PTTYP25
  0
BLOCK_RECORD
  5
3CC
100
AcDbSymbolTableRecord
100
AcDbBlockTableRecord
  2
CDWK_PTTYP26
  0
BLOCK_RECORD
  5
3CD
100
AcDbSymbolTableRecord
100
AcDbBlockTableRecord
  2
CDWK_PTTYP27
  0
BLOCK_RECORD
  5
3CE
100
AcDbSymbolTableRecord
100
AcDbBlockTableRecord
  2
CDWK_PTTYP28
  0
BLOCK_RECORD
  5
3CF
100
AcDbSymbolTableRecord
100
AcDbBlockTableRecord
  2
CDWK_PTTYP29
  0
BLOCK_RECORD
  5
3D0
100
AcDbSymbolTableRecord
100
AcDbBlockTableRecord
  2
CDWK_PTTYP30
  0
BLOCK_RECORD
  5
3D1
100
AcDbSymbolTableRecord
100
AcDbBlockTableRecord
  2
CDWK_PTTYP31
  0
BLOCK_RECORD
  5
3D2
100
AcDbSymbolTableRecord
100
AcDbBlockTableRecord
  2
CDWK_PTTYP32
  0
BLOCK_RECORD
  5
3D3
100
AcDbSymbolTableRecord
100
AcDbBlockTableRecord
  2
CDWK_PTTYP33
  0
BLOCK_RECORD
  5
3D4
100
AcDbSymbolTableRecord
100
AcDbBlockTableRecord
  2
CDWK_PTTYP34
  0
BLOCK_RECORD
  5
3D5
100
AcDbSymbolTableRecord
100
AcDbBlockTableRecord
  2
CDWK_PTTYP35
  0
BLOCK_RECORD
  5
3D6
100
AcDbSymbolTableRecord
100
AcDbBlockTableRecord
  2
CDWK_PTTYP36
  0
BLOCK_RECORD
  5
3D7
100
AcDbSymbolTableRecord
100
AcDbBlockTableRecord
  2
CDWK_PTTYP37
  0
BLOCK_RECORD
  5
3D8
100
AcDbSymbolTableRecord
100
AcDbBlockTableRecord
  2
CDWK_PTTYP38
  0
BLOCK_RECORD
  5
3D9
100
AcDbSymbolTableRecord
100
AcDbBlockTableRecord
  2
*X1
  0
BLOCK_RECORD
  5
3DA
100
AcDbSymbolTableRecord
100
AcDbBlockTableRecord
  2
*X2
  0
BLOCK_RECORD
  5
3DB
100
AcDbSymbolTableRecord
100
AcDbBlockTableRecord
  2
*X3
  0
BLOCK_RECORD
  5
3DC
100
AcDbSymbolTableRecord
100
AcDbBlockTableRecord
  2
*X4
  0
BLOCK_RECORD
  5
3DD
100
AcDbSymbolTableRecord
100
AcDbBlockTableRecord
  2
*X5
  0
BLOCK_RECORD
  5
3DE
100
AcDbSymbolTableRecord
100
AcDbBlockTableRecord
  2
*D5
  0
ENDTAB
  0
ENDSEC
  0
SECTION
  2
BLOCKS
  0
BLOCK
  5
3DF
100
AcDbEntity
  8
0
100
AcDbBlockBegin
  2
*MODEL_SPACE
 70
     0
 10
0.0
 20
0.0
 30
0.0
  3
*MODEL_SPACE
  1

  0
ENDBLK
  5
3E0
100
AcDbEntity
100
AcDbBlockEnd
  0
BLOCK
  5
3E1
100
AcDbEntity
  8
0
100
AcDbBlockBegin
  2
*PAPER_SPACE
 70
     0
 10
0.0
 20
0.0
 30
0.0
  3
*PAPER_SPACE
  1

  0
ENDBLK
  5
3E2
100
AcDbEntity
100
AcDbBlockEnd
  0
BLOCK
  5
3E3
100
AcDbEntity
  8
0
100
AcDbBlockBegin
  2
CDWK_EXTR_0
 70
     0
 10
0.0
 20
0.0
 30
0.0
  3
CDWK_EXTR_0
  1

  4
Cadwork line-extremity
  0
LINE
  5
3E4
100
AcDbEntity
  8
0
 62
     0
370
    -2
100
AcDbLine
 10
0.0
 20
0.0
 30
0.0
 11
2.0
 21
0.5
 31
0.0
  0
LINE
  5
3E5
100
AcDbEntity
  8
0
 62
     0
370
    -2
100
AcDbLine
 10
0.0
 20
0.0
 30
0.0
 11
2.0
 21
-0.5
 31
0.0
  0
LINE
  5
3E6
100
AcDbEntity
  8
0
 62
     0
370
    -2
100
AcDbLine
 10
2.0
 20
0.5
 30
0.0
 11
2.0
 21
-0.5
 31
0.0
  0
ENDBLK
  5
3E7
100
AcDbEntity
100
AcDbBlockEnd
  0
BLOCK
  5
3E8
100
AcDbEntity
  8
0
100
AcDbBlockBegin
  2
CDWK_EXTR_1D
 70
     0
 10
0.0
 20
0.0
 30
0.0
  3
CDWK_EXTR_1D
  1

  4
Cadwork line-extremity
  0
LINE
  5
3E9
100
AcDbEntity
  8
0
 62
     0
370
    -2
100
AcDbLine
 10
0.0
 20
0.0
 30
0.0
 11
0.0
 21
1.0
 31
0.0
  0
LINE
  5
3EA
100
AcDbEntity
  8
0
 62
     0
370
    -2
100
AcDbLine
 10
0.0
 20
1.0
 30
0.0
 11
0.5
 21
1.5
 31
0.0
  0
LINE
  5
3EB
100
AcDbEntity
  8
0
 62
     0
370
    -2
100
AcDbLine
 10
0.5
 20
1.5
 30
0.0
 11
1.5
 21
1.5
 31
0.0
  0
ENDBLK
  5
3EC
100
AcDbEntity
100
AcDbBlockEnd
  0
BLOCK
  5
3ED
100
AcDbEntity
  8
0
100
AcDbBlockBegin
  2
CDWK_EXTR_1G
 70
     0
 10
0.0
 20
0.0
 30
0.0
  3
CDWK_EXTR_1G
  1

  4
Cadwork line-extremity
  0
LINE
  5
3EE
100
AcDbEntity
  8
0
 62
     0
370
    -2
100
AcDbLine
 10
0.0
 20
0.0
 30
0.0
 11
0.0
 21
-1.0
 31
0.0
  0
LINE
  5
3EF
100
AcDbEntity
  8
0
 62
     0
370
    -2
100
AcDbLine
 10
0.0
 20
-1.0
 30
0.0
 11
0.5
 21
-1.5
 31
0.0
  0
LINE
  5
3F0
100
AcDbEntity
  8
0
 62
     0
370
    -2
100
AcDbLine
 10
0.5
 20
-1.5
 30
0.0
 11
1.5
 21
-1.5
 31
0.0
  0
ENDBLK
  5
3F1
100
AcDbEntity
100
AcDbBlockEnd
  0
BLOCK
  5
3F2
100
AcDbEntity
  8
0
100
AcDbBlockBegin
  2
CDWK_EXTR_2
 70
     0
 10
0.0
 20
0.0
 30
0.0
  3
CDWK_EXTR_2
  1

  4
Cadwork line-extremity
  0
SOLID
  5
3F3
100
AcDbEntity
  8
0
 62
     0
100
AcDbTrace
 10
0.0
 20
0.0
 11
2.0
 21
0.5
 12
2.0
 22
-0.5
 13
2.0
 23
-0.5
  0
ENDBLK
  5
3F4
100
AcDbEntity
100
AcDbBlockEnd
  0
BLOCK
  5
3F5
100
AcDbEntity
  8
0
100
AcDbBlockBegin
  2
CDWK_EXTR_3
 70
     0
 10
0.0
 20
0.0
 30
0.0
  3
CDWK_EXTR_3
  1

  4
Cadwork line-extremity
  0
SOLID
  5
3F6
100
AcDbEntity
  8
0
 62
     0
100
AcDbTrace
 10
0.0
 20
0.0
 11
2.0
 21
0.5
 12
2.0
 22
-0.5
 13
2.0
 23
-0.5
  0
LINE
  5
3F7
100
AcDbEntity
  8
0
 62
     0
370
    -2
100
AcDbLine
 10
0.0
 20
1.0
 30
0.0
 11
0.0
 21
-1.0
 31
0.0
  0
ENDBLK
  5
3F8
100
AcDbEntity
100
AcDbBlockEnd
  0
BLOCK
  5
3F9
100
AcDbEntity
  8
0
100
AcDbBlockBegin
  2
CDWK_EXTR_4
 70
     0
 10
0.0
 20
0.0
 30
0.0
  3
CDWK_EXTR_4
  1

  4
Cadwork line-extremity
  0
HATCH
  5
3FA
100
AcDbEntity
  8
0
 62
     0
370
    -2
100
AcDbHatch
 10
0.0
 20
0.0
 30
0.0
210
0.0
220
0.0
230
1.0
  2
SOLID
 70
     1
 71
     0
 91
        1
 92
        1
 93
        1
 72
     2
 10
0.0
 20
0.0
 40
0.5
 50
0.0
 51
360.0
 73
     1
 97
        0
 75
     0
 76
     1
 98
        1
 10
0.0
 20
0.0
  0
ENDBLK
  5
3FB
100
AcDbEntity
100
AcDbBlockEnd
  0
BLOCK
  5
3FC
100
AcDbEntity
  8
0
100
AcDbBlockBegin
  2
CDWK_PTTYP0
 70
     0
 10
0.0
 20
0.0
 30
0.0
  3
CDWK_PTTYP0
  1

  4
Cadwork point
  0
POINT
  5
3FD
100
AcDbEntity
  8
0
 62
     0
100
AcDbPoint
 10
0.0
 20
0.0
 30
0.0
  0
ENDBLK
  5
3FE
100
AcDbEntity
100
AcDbBlockEnd
  0
BLOCK
  5
3FF
100
AcDbEntity
  8
0
100
AcDbBlockBegin
  2
CDWK_PTTYP1
 70
     0
 10
0.0
 20
0.0
 30
0.0
  3
CDWK_PTTYP1
  1

  4
Cadwork node
  0
LINE
  5
400
100
AcDbEntity
  8
0
 62
     0
370
    -2
100
AcDbLine
 10
-0.5
 20
0.5
 30
0.0
 11
0.5
 21
0.5
 31
0.0
  0
LINE
  5
401
100
AcDbEntity
  8
0
 62
     0
370
    -2
100
AcDbLine
 10
0.5
 20
0.5
 30
0.0
 11
0.5
 21
-0.5
 31
0.0
  0
LINE
  5
402
100
AcDbEntity
  8
0
 62
     0
370
    -2
100
AcDbLine
 10
0.5
 20
-0.5
 30
0.0
 11
-0.5
 21
-0.5
 31
0.0
  0
LINE
  5
403
100
AcDbEntity
  8
0
 62
     0
370
    -2
100
AcDbLine
 10
-0.5
 20
-0.5
 30
0.0
 11
-0.5
 21
0.5
 31
0.0
  0
ENDBLK
  5
404
100
AcDbEntity
100
AcDbBlockEnd
  0
BLOCK
  5
405
100
AcDbEntity
  8
0
100
AcDbBlockBegin
  2
CDWK_PTTYP2
 70
     0
 10
0.0
 20
0.0
 30
0.0
  3
CDWK_PTTYP2
  1

  4
Cadwork node
  0
LINE
  5
406
100
AcDbEntity
  8
0
 62
     0
370
    -2
100
AcDbLine
 10
0.0
 20
0.5
 30
0.0
 11
0.0
 21
-0.5
 31
0.0
  0
LINE
  5
407
100
AcDbEntity
  8
0
 62
     0
370
    -2
100
AcDbLine
 10
-0.5
 20
0.0
 30
0.0
 11
0.5
 21
0.0
 31
0.0
  0
ENDBLK
  5
408
100
AcDbEntity
100
AcDbBlockEnd
  0
BLOCK
  5
409
100
AcDbEntity
  8
0
100
AcDbBlockBegin
  2
CDWK_PTTYP3
 70
     0
 10
0.0
 20
0.0
 30
0.0
  3
CDWK_PTTYP3
  1

  4
Cadwork node
  0
CIRCLE
  5
40A
100
AcDbEntity
  8
0
 62
     0
370
    -2
100
AcDbCircle
 10
0.0
 20
0.0
 30
0.0
 40
0.5
  0
ENDBLK
  5
40B
100
AcDbEntity
100
AcDbBlockEnd
  0
BLOCK
  5
40C
100
AcDbEntity
  8
0
100
AcDbBlockBegin
  2
CDWK_PTTYP4
 70
     0
 10
0.0
 20
0.0
 30
0.0
  3
CDWK_PTTYP4
  1

  4
Cadwork node
  0
HATCH
  5
40D
100
AcDbEntity
  8
0
 62
     0
370
    -2
100
AcDbHatch
 10
0.0
 20
0.0
 30
0.0
210
0.0
220
0.0
230
1.0
  2
SOLID
 70
     1
 71
     0
 91
        1
 92
        1
 93
        1
 72
     2
 10
0.0
 20
0.0
 40
0.5
 50
0.0
 51
360.0
 73
     1
 97
        0
 75
     0
 76
     1
 98
        1
 10
0.0
 20
0.0
  0
ENDBLK
  5
40E
100
AcDbEntity
100
AcDbBlockEnd
  0
BLOCK
  5
40F
100
AcDbEntity
  8
0
100
AcDbBlockBegin
  2
CDWK_PTTYP5
 70
     0
 10
0.0
 20
0.0
 30
0.0
  3
CDWK_PTTYP5
  1

  4
Cadwork node
  0
LINE
  5
410
100
AcDbEntity
  8
0
 62
     0
370
    -2
100
AcDbLine
 10
-0.5
 20
0.5
 30
0.0
 11
0.5
 21
0.5
 31
0.0
  0
LINE
  5
411
100
AcDbEntity
  8
0
 62
     0
370
    -2
100
AcDbLine
 10
0.5
 20
0.5
 30
0.0
 11
0.5
 21
-0.5
 31
0.0
  0
LINE
  5
412
100
AcDbEntity
  8
0
 62
     0
370
    -2
100
AcDbLine
 10
0.5
 20
-0.5
 30
0.0
 11
-0.5
 21
-0.5
 31
0.0
  0
LINE
  5
413
100
AcDbEntity
  8
0
 62
     0
370
    -2
100
AcDbLine
 10
-0.5
 20
-0.5
 30
0.0
 11
-0.5
 21
0.5
 31
0.0
  0
SOLID
  5
414
100
AcDbEntity
  8
0
 62
     0
100
AcDbTrace
 10
-0.5
 20
-0.5
 11
-0.5
 21
0.0
 12
0.0
 22
-0.5
 13
0.0
 23
0.0
  0
SOLID
  5
415
100
AcDbEntity
  8
0
 62
     0
100
AcDbTrace
 10
0.0
 20
0.0
 11
0.0
 21
0.5
 12
0.5
 22
0.0
 13
0.5
 23
0.5
  0
ENDBLK
  5
416
100
AcDbEntity
100
AcDbBlockEnd
  0
BLOCK
  5
417
100
AcDbEntity
  8
0
100
AcDbBlockBegin
  2
CDWK_PTTYP6
 70
     0
 10
0.0
 20
0.0
 30
0.0
  3
CDWK_PTTYP6
  1

  4
Cadwork node
  0
LINE
  5
418
100
AcDbEntity
  8
0
 62
     0
370
    -2
100
AcDbLine
 10
-0.5
 20
0.5
 30
0.0
 11
0.5
 21
0.5
 31
0.0
  0
LINE
  5
419
100
AcDbEntity
  8
0
 62
     0
370
    -2
100
AcDbLine
 10
0.5
 20
0.5
 30
0.0
 11
0.5
 21
-0.5
 31
0.0
  0
LINE
  5
41A
100
AcDbEntity
  8
0
 62
     0
370
    -2
100
AcDbLine
 10
0.5
 20
-0.5
 30
0.0
 11
-0.5
 21
-0.5
 31
0.0
  0
LINE
  5
41B
100
AcDbEntity
  8
0
 62
     0
370
    -2
100
AcDbLine
 10
-0.5
 20
-0.5
 30
0.0
 11
-0.5
 21
0.5
 31
0.0
  0
SOLID
  5
41C
100
AcDbEntity
  8
0
 62
     0
100
AcDbTrace
 10
-0.5
 20
-0.5
 11
-0.5
 21
0.5
 12
0.5
 22
0.5
 13
0.5
 23
0.5
  0
ENDBLK
  5
41D
100
AcDbEntity
100
AcDbBlockEnd
  0
BLOCK
  5
41E
100
AcDbEntity
  8
0
100
AcDbBlockBegin
  2
CDWK_PTTYP7
 70
     0
 10
0.0
 20
0.0
 30
0.0
  3
CDWK_PTTYP7
  1

  4
Cadwork node
  0
LINE
  5
41F
100
AcDbEntity
  8
0
 62
     0
370
    -2
100
AcDbLine
 10
-0.5
 20
0.5
 30
0.0
 11
0.5
 21
0.5
 31
0.0
  0
LINE
  5
420
100
AcDbEntity
  8
0
 62
     0
370
    -2
100
AcDbLine
 10
0.5
 20
0.5
 30
0.0
 11
0.5
 21
-0.5
 31
0.0
  0
LINE
  5
421
100
AcDbEntity
  8
0
 62
     0
370
    -2
100
AcDbLine
 10
0.5
 20
-0.5
 30
0.0
 11
-0.5
 21
-0.5
 31
0.0
  0
LINE
  5
422
100
AcDbEntity
  8
0
 62
     0
370
    -2
100
AcDbLine
 10
-0.5
 20
-0.5
 30
0.0
 11
-0.5
 21
0.5
 31
0.0
  0
LINE
  5
423
100
AcDbEntity
  8
0
 62
     0
370
    -2
100
AcDbLine
 10
0.0
 20
0.5
 30
0.0
 11
0.0
 21
-0.5
 31
0.0
  0
LINE
  5
424
100
AcDbEntity
  8
0
 62
     0
370
    -2
100
AcDbLine
 10
-0.5
 20
0.0
 30
0.0
 11
0.5
 21
0.0
 31
0.0
  0
ENDBLK
  5
425
100
AcDbEntity
100
AcDbBlockEnd
  0
BLOCK
  5
426
100
AcDbEntity
  8
0
100
AcDbBlockBegin
  2
CDWK_PTTYP8
 70
     0
 10
0.0
 20
0.0
 30
0.0
  3
CDWK_PTTYP8
  1

  4
Cadwork node
  0
SOLID
  5
427
100
AcDbEntity
  8
0
 62
     0
100
AcDbTrace
 10
-0.5
 20
0.5
 11
0.5
 21
0.5
 12
-0.5
 22
-0.5
 13
0.5
 23
-0.5
  0
ENDBLK
  5
428
100
AcDbEntity
100
AcDbBlockEnd
  0
BLOCK
  5
429
100
AcDbEntity
  8
0
100
AcDbBlockBegin
  2
CDWK_PTTYP9
 70
     0
 10
0.0
 20
0.0
 30
0.0
  3
CDWK_PTTYP9
  1

  4
Cadwork node
  0
CIRCLE
  5
42A
100
AcDbEntity
  8
0
 62
     0
370
    -2
100
AcDbCircle
 10
0.0
 20
0.0
 30
0.0
 40
0.5
  0
CIRCLE
  5
42B
100
AcDbEntity
  8
0
 62
     0
370
    -2
100
AcDbCircle
 10
0.0
 20
0.0
 30
0.0
 40
0.16666667
  0
ENDBLK
  5
42C
100
AcDbEntity
100
AcDbBlockEnd
  0
BLOCK
  5
42D
100
AcDbEntity
  8
0
100
AcDbBlockBegin
  2
CDWK_PTTYP10
 70
     0
 10
0.0
 20
0.0
 30
0.0
  3
CDWK_PTTYP10
  1

  4
Cadwork node
  0
CIRCLE
  5
42E
100
AcDbEntity
  8
0
 62
     0
370
    -2
100
AcDbCircle
 10
0.0
 20
0.0
 30
0.0
 40
0.5
  0
ENDBLK
  5
42F
100
AcDbEntity
100
AcDbBlockEnd
  0
BLOCK
  5
430
100
AcDbEntity
  8
0
100
AcDbBlockBegin
  2
CDWK_PTTYP11
 70
     0
 10
0.0
 20
0.0
 30
0.0
  3
CDWK_PTTYP11
  1

  4
Cadwork node
  0
CIRCLE
  5
431
100
AcDbEntity
  8
0
 62
     0
370
    -2
100
AcDbCircle
 10
0.0
 20
0.0
 30
0.0
 40
0.5
  0
CIRCLE
  5
432
100
AcDbEntity
  8
0
 62
     0
370
    -2
100
AcDbCircle
 10
0.0
 20
0.0
 30
0.0
 40
0.25
  0
ENDBLK
  5
433
100
AcDbEntity
100
AcDbBlockEnd
  0
BLOCK
  5
434
100
AcDbEntity
  8
0
100
AcDbBlockBegin
  2
CDWK_PTTYP12
 70
     0
 10
0.0
 20
0.0
 30
0.0
  3
CDWK_PTTYP12
  1

  4
Cadwork node
  0
CIRCLE
  5
435
100
AcDbEntity
  8
0
 62
     0
370
    -2
100
AcDbCircle
 10
0.0
 20
0.0
 30
0.0
 40
0.5
  0
CIRCLE
  5
436
100
AcDbEntity
  8
0
 62
     0
370
    -2
100
AcDbCircle
 10
0.25
 20
0.0
 30
0.0
 40
0.25
  0
ENDBLK
  5
437
100
AcDbEntity
100
AcDbBlockEnd
  0
BLOCK
  5
438
100
AcDbEntity
  8
0
100
AcDbBlockBegin
  2
CDWK_PTTYP13
 70
     0
 10
0.0
 20
0.0
 30
0.0
  3
CDWK_PTTYP13
  1

  4
Cadwork node
  0
CIRCLE
  5
439
100
AcDbEntity
  8
0
 62
     0
370
    -2
100
AcDbCircle
 10
0.0
 20
0.0
 30
0.0
 40
0.5
  0
CIRCLE
  5
43A
100
AcDbEntity
  8
0
 62
     0
370
    -2
100
AcDbCircle
 10
0.25
 20
0.0
 30
0.0
 40
0.25
  0
CIRCLE
  5
43B
100
AcDbEntity
  8
0
 62
     0
370
    -2
100
AcDbCircle
 10
-0.25
 20
0.0
 30
0.0
 40
0.25
  0
ENDBLK
  5
43C
100
AcDbEntity
100
AcDbBlockEnd
  0
BLOCK
  5
43D
100
AcDbEntity
  8
0
100
AcDbBlockBegin
  2
CDWK_PTTYP14
 70
     0
 10
0.0
 20
0.0
 30
0.0
  3
CDWK_PTTYP14
  1

  4
Cadwork node
  0
POINT
  5
43E
100
AcDbEntity
  8
0
 62
     0
100
AcDbPoint
 10
0.0
 20
0.0
 30
0.0
  0
ENDBLK
  5
43F
100
AcDbEntity
100
AcDbBlockEnd
  0
BLOCK
  5
440
100
AcDbEntity
  8
0
100
AcDbBlockBegin
  2
CDWK_PTTYP15
 70
     0
 10
0.0
 20
0.0
 30
0.0
  3
CDWK_PTTYP15
  1

  4
Cadwork node
  0
POINT
  5
441
100
AcDbEntity
  8
0
 62
     0
100
AcDbPoint
 10
0.0
 20
0.0
 30
0.0
  0
ENDBLK
  5
442
100
AcDbEntity
100
AcDbBlockEnd
  0
BLOCK
  5
443
100
AcDbEntity
  8
0
100
AcDbBlockBegin
  2
CDWK_PTTYP16
 70
     0
 10
0.0
 20
0.0
 30
0.0
  3
CDWK_PTTYP16
  1

  4
Cadwork node
  0
LINE
  5
444
100
AcDbEntity
  8
0
 62
     0
370
    -2
100
AcDbLine
 10
-0.5
 20
-0.28867513
 30
0.0
 11
0.5
 21
-0.28867513
 31
0.0
  0
LINE
  5
445
100
AcDbEntity
  8
0
 62
     0
370
    -2
100
AcDbLine
 10
0.5
 20
-0.28867513
 30
0.0
 11
0.0
 21
0.57735027
 31
0.0
  0
LINE
  5
446
100
AcDbEntity
  8
0
 62
     0
370
    -2
100
AcDbLine
 10
0.0
 20
0.57735027
 30
0.0
 11
-0.5
 21
-0.28867513
 31
0.0
  0
CIRCLE
  5
447
100
AcDbEntity
  8
0
 62
     0
370
    -2
100
AcDbCircle
 10
0.0
 20
0.0
 30
0.0
 40
0.28867513
  0
ENDBLK
  5
448
100
AcDbEntity
100
AcDbBlockEnd
  0
BLOCK
  5
449
100
AcDbEntity
  8
0
100
AcDbBlockBegin
  2
CDWK_PTTYP17
 70
     0
 10
0.0
 20
0.0
 30
0.0
  3
CDWK_PTTYP17
  1

  4
Cadwork node
  0
CIRCLE
  5
44A
100
AcDbEntity
  8
0
 62
     0
370
    -2
100
AcDbCircle
 10
0.0
 20
0.0
 30
0.0
 40
0.5
  0
HATCH
  5
44B
100
AcDbEntity
  8
0
 62
     0
370
    -2
100
AcDbHatch
 10
0.0
 20
0.0
 30
0.0
210
0.0
220
0.0
230
1.0
  2
SOLID
 70
     1
 71
     0
 91
        1
 92
        1
 93
        1
 72
     2
 10
0.0
 20
0.0
 40
0.25
 50
0.0
 51
360.0
 73
     1
 97
        0
 75
     0
 76
     1
 98
        1
 10
0.0
 20
0.0
  0
ENDBLK
  5
44C
100
AcDbEntity
100
AcDbBlockEnd
  0
BLOCK
  5
44D
100
AcDbEntity
  8
0
100
AcDbBlockBegin
  2
CDWK_PTTYP18
 70
     0
 10
0.0
 20
0.0
 30
0.0
  3
CDWK_PTTYP18
  1

  4
Cadwork node
  0
CIRCLE
  5
44E
100
AcDbEntity
  8
0
 62
     0
370
    -2
100
AcDbCircle
 10
0.0
 20
0.0
 30
0.0
 40
0.5
  0
CIRCLE
  5
44F
100
AcDbEntity
  8
0
 62
     0
370
    -2
100
AcDbCircle
 10
0.0
 20
0.0
 30
0.0
 40
0.2
  0
ENDBLK
  5
450
100
AcDbEntity
100
AcDbBlockEnd
  0
BLOCK
  5
451
100
AcDbEntity
  8
0
100
AcDbBlockBegin
  2
CDWK_PTTYP19
 70
     0
 10
0.0
 20
0.0
 30
0.0
  3
CDWK_PTTYP19
  1

  4
Cadwork node
  0
CIRCLE
  5
452
100
AcDbEntity
  8
0
 62
     0
370
    -2
100
AcDbCircle
 10
0.0
 20
0.0
 30
0.0
 40
0.4
  0
CIRCLE
  5
453
100
AcDbEntity
  8
0
 62
     0
370
    -2
100
AcDbCircle
 10
0.0
 20
0.0
 30
0.0
 40
0.25
  0
LINE
  5
454
100
AcDbEntity
  8
0
 62
     0
370
    -2
100
AcDbLine
 10
-0.25
 20
0.0
 30
0.0
 11
0.25
 21
0.0
 31
0.0
  0
ENDBLK
  5
455
100
AcDbEntity
100
AcDbBlockEnd
  0
BLOCK
  5
456
100
AcDbEntity
  8
0
100
AcDbBlockBegin
  2
CDWK_PTTYP20
 70
     0
 10
0.0
 20
0.0
 30
0.0
  3
CDWK_PTTYP20
  1

  4
Cadwork node
  0
CIRCLE
  5
457
100
AcDbEntity
  8
0
 62
     0
370
    -2
100
AcDbCircle
 10
0.0
 20
0.0
 30
0.0
 40
0.5
  0
CIRCLE
  5
458
100
AcDbEntity
  8
0
 62
     0
370
    -2
100
AcDbCircle
 10
0.0
 20
0.0
 30
0.0
 40
0.3
  0
ENDBLK
  5
459
100
AcDbEntity
100
AcDbBlockEnd
  0
BLOCK
  5
45A
100
AcDbEntity
  8
0
100
AcDbBlockBegin
  2
CDWK_PTTYP21
 70
     0
 10
0.0
 20
0.0
 30
0.0
  3
CDWK_PTTYP21
  1

  4
Cadwork node
  0
CIRCLE
  5
45B
100
AcDbEntity
  8
0
 62
     0
370
    -2
100
AcDbCircle
 10
0.0
 20
0.0
 30
0.0
 40
0.5
  0
LINE
  5
45C
100
AcDbEntity
  8
0
 62
     0
370
    -2
100
AcDbLine
 10
-0.5
 20
0.0
 30
0.0
 11
0.5
 21
0.0
 31
0.0
  0
ENDBLK
  5
45D
100
AcDbEntity
100
AcDbBlockEnd
  0
BLOCK
  5
45E
100
AcDbEntity
  8
0
100
AcDbBlockBegin
  2
CDWK_PTTYP22
 70
     0
 10
0.0
 20
0.0
 30
0.0
  3
CDWK_PTTYP22
  1

  4
Cadwork node
  0
POINT
  5
45F
100
AcDbEntity
  8
0
 62
     0
100
AcDbPoint
 10
0.0
 20
0.0
 30
0.0
  0
ENDBLK
  5
460
100
AcDbEntity
100
AcDbBlockEnd
  0
BLOCK
  5
461
100
AcDbEntity
  8
0
100
AcDbBlockBegin
  2
CDWK_PTTYP23
 70
     0
 10
0.0
 20
0.0
 30
0.0
  3
CDWK_PTTYP23
  1

  4
Cadwork node
  0
POINT
  5
462
100
AcDbEntity
  8
0
 62
     0
100
AcDbPoint
 10
0.0
 20
0.0
 30
0.0
  0
ENDBLK
  5
463
100
AcDbEntity
100
AcDbBlockEnd
  0
BLOCK
  5
464
100
AcDbEntity
  8
0
100
AcDbBlockBegin
  2
CDWK_PTTYP24
 70
     0
 10
0.0
 20
0.0
 30
0.0
  3
CDWK_PTTYP24
  1

  4
Cadwork node
  0
POINT
  5
465
100
AcDbEntity
  8
0
 62
     0
100
AcDbPoint
 10
0.0
 20
0.0
 30
0.0
  0
ENDBLK
  5
466
100
AcDbEntity
100
AcDbBlockEnd
  0
BLOCK
  5
467
100
AcDbEntity
  8
0
100
AcDbBlockBegin
  2
CDWK_PTTYP25
 70
     0
 10
0.0
 20
0.0
 30
0.0
  3
CDWK_PTTYP25
  1

  4
Cadwork node
  0
LINE
  5
468
100
AcDbEntity
  8
0
 62
     0
370
    -2
100
AcDbLine
 10
-0.43290044
 20
-0.25
 30
0.0
 11
0.43290044
 21
-0.25
 31
0.0
  0
LINE
  5
469
100
AcDbEntity
  8
0
 62
     0
370
    -2
100
AcDbLine
 10
-0.43290044
 20
-0.25
 30
0.0
 11
0.0
 21
0.5
 31
0.0
  0
LINE
  5
46A
100
AcDbEntity
  8
0
 62
     0
370
    -2
100
AcDbLine
 10
0.43290044
 20
-0.25
 30
0.0
 11
0.0
 21
0.5
 31
0.0
  0
CIRCLE
  5
46B
100
AcDbEntity
  8
0
 62
     0
370
    -2
100
AcDbCircle
 10
0.0
 20
0.0
 30
0.0
 40
0.5
  0
ENDBLK
  5
46C
100
AcDbEntity
100
AcDbBlockEnd
  0
BLOCK
  5
46D
100
AcDbEntity
  8
0
100
AcDbBlockBegin
  2
CDWK_PTTYP26
 70
     0
 10
0.0
 20
0.0
 30
0.0
  3
CDWK_PTTYP26
  1

  4
Cadwork node
  0
LINE
  5
46E
100
AcDbEntity
  8
0
 62
     0
370
    -2
100
AcDbLine
 10
-0.5
 20
-0.28850001
 30
0.0
 11
0.5
 21
-0.28850001
 31
0.0
  0
LINE
  5
46F
100
AcDbEntity
  8
0
 62
     0
370
    -2
100
AcDbLine
 10
-0.5
 20
-0.28850001
 30
0.0
 11
0.0
 21
0.57736721
 31
0.0
  0
LINE
  5
470
100
AcDbEntity
  8
0
 62
     0
370
    -2
100
AcDbLine
 10
0.5
 20
-0.28850001
 30
0.0
 11
0.0
 21
0.57736721
 31
0.0
  0
CIRCLE
  5
471
100
AcDbEntity
  8
0
 62
     0
370
    -2
100
AcDbCircle
 10
0.0
 20
0.0
 30
0.0
 40
0.1312336
  0
ENDBLK
  5
472
100
AcDbEntity
100
AcDbBlockEnd
  0
BLOCK
  5
473
100
AcDbEntity
  8
0
100
AcDbBlockBegin
  2
CDWK_PTTYP27
 70
     0
 10
0.0
 20
0.0
 30
0.0
  3
CDWK_PTTYP27
  1

  4
Cadwork node
  0
LINE
  5
474
100
AcDbEntity
  8
0
 62
     0
370
    -2
100
AcDbLine
 10
-0.43290044
 20
-0.25
 30
0.0
 11
0.43290044
 21
-0.25
 31
0.0
  0
LINE
  5
475
100
AcDbEntity
  8
0
 62
     0
370
    -2
100
AcDbLine
 10
-0.43290044
 20
-0.25
 30
0.0
 11
0.0
 21
0.5
 31
0.0
  0
LINE
  5
476
100
AcDbEntity
  8
0
 62
     0
370
    -2
100
AcDbLine
 10
0.43290044
 20
-0.25
 30
0.0
 11
0.0
 21
0.5
 31
0.0
  0
CIRCLE
  5
477
100
AcDbEntity
  8
0
 62
     0
370
    -2
100
AcDbCircle
 10
0.0
 20
0.0
 30
0.0
 40
0.5
  0
CIRCLE
  5
478
100
AcDbEntity
  8
0
 62
     0
370
    -2
100
AcDbCircle
 10
0.0
 20
0.0
 30
0.0
 40
0.1312336
  0
ENDBLK
  5
479
100
AcDbEntity
100
AcDbBlockEnd
  0
BLOCK
  5
47A
100
AcDbEntity
  8
0
100
AcDbBlockBegin
  2
CDWK_PTTYP28
 70
     0
 10
0.0
 20
0.0
 30
0.0
  3
CDWK_PTTYP28
  1

  4
Cadwork node
  0
POINT
  5
47B
100
AcDbEntity
  8
0
 62
     0
100
AcDbPoint
 10
0.0
 20
0.0
 30
0.0
  0
ENDBLK
  5
47C
100
AcDbEntity
100
AcDbBlockEnd
  0
BLOCK
  5
47D
100
AcDbEntity
  8
0
100
AcDbBlockBegin
  2
CDWK_PTTYP29
 70
     0
 10
0.0
 20
0.0
 30
0.0
  3
CDWK_PTTYP29
  1

  4
Cadwork node
  0
CIRCLE
  5
47E
100
AcDbEntity
  8
0
 62
     0
370
    -2
100
AcDbCircle
 10
0.0
 20
0.0
 30
0.0
 40
0.5
  0
CIRCLE
  5
47F
100
AcDbEntity
  8
0
 62
     0
370
    -2
100
AcDbCircle
 10
0.0
 20
0.0
 30
0.0
 40
0.375
  0
CIRCLE
  5
480
100
AcDbEntity
  8
0
 62
     0
370
    -2
100
AcDbCircle
 10
0.0
 20
0.0
 30
0.0
 40
0.21875
  0
ENDBLK
  5
481
100
AcDbEntity
100
AcDbBlockEnd
  0
BLOCK
  5
482
100
AcDbEntity
  8
0
100
AcDbBlockBegin
  2
CDWK_PTTYP30
 70
     0
 10
0.0
 20
0.0
 30
0.0
  3
CDWK_PTTYP30
  1

  4
Cadwork node
  0
LINE
  5
483
100
AcDbEntity
  8
0
 62
     0
370
    -2
100
AcDbLine
 10
0.17680339
 20
0.17680339
 30
0.0
 11
0.5
 21
0.5
 31
0.0
  0
LINE
  5
484
100
AcDbEntity
  8
0
 62
     0
370
    -2
100
AcDbLine
 10
-0.17680339
 20
0.17680339
 30
0.0
 11
-0.5
 21
0.5
 31
0.0
  0
LINE
  5
485
100
AcDbEntity
  8
0
 62
     0
370
    -2
100
AcDbLine
 10
0.17680339
 20
-0.17680339
 30
0.0
 11
0.5
 21
-0.5
 31
0.0
  0
LINE
  5
486
100
AcDbEntity
  8
0
 62
     0
370
    -2
100
AcDbLine
 10
-0.17680339
 20
-0.17680339
 30
0.0
 11
-0.5
 21
-0.5
 31
0.0
  0
ENDBLK
  5
487
100
AcDbEntity
100
AcDbBlockEnd
  0
BLOCK
  5
488
100
AcDbEntity
  8
0
100
AcDbBlockBegin
  2
CDWK_PTTYP31
 70
     0
 10
0.0
 20
0.0
 30
0.0
  3
CDWK_PTTYP31
  1

  4
Cadwork node
  0
CIRCLE
  5
489
100
AcDbEntity
  8
0
 62
     0
370
    -2
100
AcDbCircle
 10
0.0
 20
0.0
 30
0.0
 40
0.075
  0
LINE
  5
48A
100
AcDbEntity
  8
0
 62
     0
370
    -2
100
AcDbLine
 10
0.075
 20
0.0
 30
0.0
 11
0.5
 21
0.0
 31
0.0
  0
LINE
  5
48B
100
AcDbEntity
  8
0
 62
     0
370
    -2
100
AcDbLine
 10
-0.075
 20
0.0
 30
0.0
 11
-0.5
 21
0.0
 31
0.0
  0
LINE
  5
48C
100
AcDbEntity
  8
0
 62
     0
370
    -2
100
AcDbLine
 10
0.0
 20
0.075
 30
0.0
 11
0.0
 21
0.5
 31
0.0
  0
LINE
  5
48D
100
AcDbEntity
  8
0
 62
     0
370
    -2
100
AcDbLine
 10
0.0
 20
-0.075
 30
0.0
 11
0.0
 21
-0.5
 31
0.0
  0
ENDBLK
  5
48E
100
AcDbEntity
100
AcDbBlockEnd
  0
BLOCK
  5
48F
100
AcDbEntity
  8
0
100
AcDbBlockBegin
  2
CDWK_PTTYP32
 70
     0
 10
0.0
 20
0.0
 30
0.0
  3
CDWK_PTTYP32
  1

  4
Cadwork node
  0
CIRCLE
  5
490
100
AcDbEntity
  8
0
 62
     0
370
    -2
100
AcDbCircle
 10
0.0
 20
0.0
 30
0.0
 40
0.5
  0
CIRCLE
  5
491
100
AcDbEntity
  8
0
 62
     0
370
    -2
100
AcDbCircle
 10
0.0
 20
0.0
 30
0.0
 40
0.16666667
  0
LINE
  5
492
100
AcDbEntity
  8
0
 62
     0
370
    -2
100
AcDbLine
 10
0.11786893
 20
0.11786893
 30
0.0
 11
0.35360678
 21
0.35360678
 31
0.0
  0
LINE
  5
493
100
AcDbEntity
  8
0
 62
     0
370
    -2
100
AcDbLine
 10
-0.11786893
 20
0.11786893
 30
0.0
 11
-0.35360678
 21
0.35360678
 31
0.0
  0
LINE
  5
494
100
AcDbEntity
  8
0
 62
     0
370
    -2
100
AcDbLine
 10
0.11786893
 20
-0.11786893
 30
0.0
 11
0.35360678
 21
-0.35360678
 31
0.0
  0
LINE
  5
495
100
AcDbEntity
  8
0
 62
     0
370
    -2
100
AcDbLine
 10
-0.11786893
 20
-0.11786893
 30
0.0
 11
-0.35360678
 21
-0.35360678
 31
0.0
  0
ENDBLK
  5
496
100
AcDbEntity
100
AcDbBlockEnd
  0
BLOCK
  5
497
100
AcDbEntity
  8
0
100
AcDbBlockBegin
  2
CDWK_PTTYP33
 70
     0
 10
0.0
 20
0.0
 30
0.0
  3
CDWK_PTTYP33
  1

  4
Cadwork node
  0
CIRCLE
  5
498
100
AcDbEntity
  8
0
 62
     0
370
    -2
100
AcDbCircle
 10
0.0
 20
0.0
 30
0.0
 40
0.5
  0
LINE
  5
499
100
AcDbEntity
  8
0
 62
     0
370
    -2
100
AcDbLine
 10
0.0
 20
0.5
 30
0.0
 11
0.0
 21
-0.5
 31
0.0
  0
LINE
  5
49A
100
AcDbEntity
  8
0
 62
     0
370
    -2
100
AcDbLine
 10
-0.5
 20
0.0
 30
0.0
 11
0.5
 21
0.0
 31
0.0
  0
ENDBLK
  5
49B
100
AcDbEntity
100
AcDbBlockEnd
  0
BLOCK
  5
49C
100
AcDbEntity
  8
0
100
AcDbBlockBegin
  2
CDWK_PTTYP34
 70
     0
 10
0.0
 20
0.0
 30
0.0
  3
CDWK_PTTYP34
  1

  4
Cadwork node
  0
CIRCLE
  5
49D
100
AcDbEntity
  8
0
 62
     0
370
    -2
100
AcDbCircle
 10
0.0
 20
0.0
 30
0.0
 40
0.5
  0
LINE
  5
49E
100
AcDbEntity
  8
0
 62
     0
370
    -2
100
AcDbLine
 10
-0.30360678
 20
-0.40360678
 30
0.0
 11
0.40360678
 21
0.30360678
 31
0.0
  0
LINE
  5
49F
100
AcDbEntity
  8
0
 62
     0
370
    -2
100
AcDbLine
 10
-0.40360678
 20
-0.30360678
 30
0.0
 11
0.30360678
 21
0.40360678
 31
0.0
  0
ENDBLK
  5
4A0
100
AcDbEntity
100
AcDbBlockEnd
  0
BLOCK
  5
4A1
100
AcDbEntity
  8
0
100
AcDbBlockBegin
  2
CDWK_PTTYP35
 70
     0
 10
0.0
 20
0.0
 30
0.0
  3
CDWK_PTTYP35
  1

  4
Cadwork node
  0
CIRCLE
  5
4A2
100
AcDbEntity
  8
0
 62
     0
370
    -2
100
AcDbCircle
 10
0.0
 20
0.0
 30
0.0
 40
0.21431634
  0
LINE
  5
4A3
100
AcDbEntity
  8
0
 62
     0
370
    -2
100
AcDbLine
 10
0.0
 20
0.21431634
 30
0.0
 11
0.0
 21
0.5
 31
0.0
  0
LINE
  5
4A4
100
AcDbEntity
  8
0
 62
     0
370
    -2
100
AcDbLine
 10
0.0
 20
-0.21431634
 30
0.0
 11
0.0
 21
-0.5
 31
0.0
  0
ENDBLK
  5
4A5
100
AcDbEntity
100
AcDbBlockEnd
  0
BLOCK
  5
4A6
100
AcDbEntity
  8
0
100
AcDbBlockBegin
  2
CDWK_PTTYP36
 70
     0
 10
0.0
 20
0.0
 30
0.0
  3
CDWK_PTTYP36
  1

  4
Cadwork node
  0
LINE
  5
4A7
100
AcDbEntity
  8
0
 62
     0
370
    -2
100
AcDbLine
 10
-0.5
 20
-0.16666667
 30
0.0
 11
0.5
 21
-0.16666667
 31
0.0
  0
LINE
  5
4A8
100
AcDbEntity
  8
0
 62
     0
370
    -2
100
AcDbLine
 10
0.5
 20
-0.16666667
 30
0.0
 11
0.5
 21
0.16666667
 31
0.0
  0
LINE
  5
4A9
100
AcDbEntity
  8
0
 62
     0
370
    -2
100
AcDbLine
 10
0.5
 20
0.16666667
 30
0.0
 11
-0.5
 21
0.16666667
 31
0.0
  0
LINE
  5
4AA
100
AcDbEntity
  8
0
 62
     0
370
    -2
100
AcDbLine
 10
-0.5
 20
0.16666667
 30
0.0
 11
-0.5
 21
-0.16666667
 31
0.0
  0
SOLID
  5
4AB
100
AcDbEntity
  8
0
 62
     0
100
AcDbTrace
 10
-0.5
 20
-0.16666667
 11
0.5
 21
0.16666667
 12
0.5
 22
-0.16666667
 13
0.5
 23
-0.16666667
  0
ENDBLK
  5
4AC
100
AcDbEntity
100
AcDbBlockEnd
  0
BLOCK
  5
4AD
100
AcDbEntity
  8
0
100
AcDbBlockBegin
  2
CDWK_PTTYP37
 70
     0
 10
0.0
 20
0.0
 30
0.0
  3
CDWK_PTTYP37
  1

  4
Cadwork node
  0
CIRCLE
  5
4AE
100
AcDbEntity
  8
0
 62
     0
370
    -2
100
AcDbCircle
 10
0.0
 20
0.0
 30
0.0
 40
0.5
  0
SOLID
  5
4AF
100
AcDbEntity
  8
0
 62
     0
100
AcDbTrace
 10
0.0
 20
0.0
 11
0.35350001
 21
0.35350001
 12
0.5
 22
0.0
 13
0.46200001
 23
0.19149999
  0
SOLID
  5
4B0
100
AcDbEntity
  8
0
 62
     0
100
AcDbTrace
 10
0.0
 20
0.0
 11
0.35350001
 21
-0.35350001
 12
0.5
 22
0.0
 13
0.46200001
 23
-0.19149999
  0
SOLID
  5
4B1
100
AcDbEntity
  8
0
 62
     0
100
AcDbTrace
 10
0.0
 20
0.0
 11
0.0
 21
-0.5
 12
0.35350001
 22
-0.35350001
 13
0.19149999
 23
-0.46200001
  0
SOLID
  5
4B2
100
AcDbEntity
  8
0
 62
     0
100
AcDbTrace
 10
0.0
 20
0.0
 11
0.0
 21
-0.5
 12
-0.35350001
 22
-0.35350001
 13
-0.19149999
 23
-0.46200001
  0
ENDBLK
  5
4B3
100
AcDbEntity
100
AcDbBlockEnd
  0
BLOCK
  5
4B4
100
AcDbEntity
  8
0
100
AcDbBlockBegin
  2
CDWK_PTTYP38
 70
     0
 10
0.0
 20
0.0
 30
0.0
  3
CDWK_PTTYP38
  1

  4
Cadwork node
  0
CIRCLE
  5
4B5
100
AcDbEntity
  8
0
 62
     0
370
    -2
100
AcDbCircle
 10
0.0
 20
0.0
 30
0.0
 40
0.5
  0
SOLID
  5
4B6
100
AcDbEntity
  8
0
 62
     0
100
AcDbTrace
 10
0.0
 20
0.0
 11
0.35350001
 21
0.35350001
 12
0.0
 22
0.5
 13
0.19149999
 23
0.46200001
  0
SOLID
  5
4B7
100
AcDbEntity
  8
0
 62
     0
100
AcDbTrace
 10
0.0
 20
0.0
 11
0.5
 21
0.0
 12
0.35350001
 22
0.35350001
 13
0.46200001
 23
0.19149999
  0
SOLID
  5
4B8
100
AcDbEntity
  8
0
 62
     0
100
AcDbTrace
 10
0.0
 20
0.0
 11
0.0
 21
-0.5
 12
-0.35350001
 22
-0.35350001
 13
-0.19149999
 23
-0.46200001
  0
SOLID
  5
4B9
100
AcDbEntity
  8
0
 62
     0
100
AcDbTrace
 10
0.0
 20
0.0
 11
-0.5
 21
0.0
 12
-0.35350001
 22
-0.35350001
 13
-0.46200001
 23
-0.19149999
  0
ENDBLK
  5
4BA
100
AcDbEntity
100
AcDbBlockEnd
  0
BLOCK
  5
4BB
100
AcDbEntity
  8
Ech.1_5
100
AcDbBlockBegin
  2
*X1
 70
     1
 10
0.0
 20
0.0
 30
0.0
  3
*X1
  1

  4
Cadwork hatch
  0
LINE
  5
4BC
100
AcDbEntity
  8
Ech.1_5
 62
   190
  6
CONTINUOUS
370
    -2
100
AcDbLine
 10
35421.65428998
 20
-42675.86722697
 30
0.0
 11
35466.65062479
 21
-42455.86717051
 31
0.0
  0
LINE
  5
4BD
100
AcDbEntity
  8
Ech.1_5
 62
   190
  6
CONTINUOUS
370
    -2
100
AcDbLine
 10
35466.65062479
 20
-42675.86722697
 30
0.0
 11
35421.65428998
 21
-42455.86717051
 31
0.0
  0
ENDBLK
  5
4BE
100
AcDbEntity
100
AcDbBlockEnd
  0
BLOCK
  5
4BF
100
AcDbEntity
  8
Ech.1_5
100
AcDbBlockBegin
  2
*X2
 70
     1
 10
0.0
 20
0.0
 30
0.0
  3
*X2
  1

  4
Cadwork hatch
  0
LINE
  5
4C0
100
AcDbEntity
  8
Ech.1_5
 62
   190
  6
CONTINUOUS
370
    -2
100
AcDbLine
 10
35169.15552364
 20
-42680.86707997
 30
0.0
 11
35267.65493638
 21
-42725.86726262
 31
0.0
  0
LINE
  5
4C1
100
AcDbEntity
  8
Ech.1_5
 62
   190
  6
CONTINUOUS
370
    -2
100
AcDbLine
 10
35169.15552364
 20
-42725.86726262
 30
0.0
 11
35267.65493638
 21
-42680.86707997
 31
0.0
  0
ENDBLK
  5
4C2
100
AcDbEntity
100
AcDbBlockEnd
  0
BLOCK
  5
4C3
100
AcDbEntity
  8
Ech.1_5
100
AcDbBlockBegin
  2
*X3
 70
     1
 10
0.0
 20
0.0
 30
0.0
  3
*X3
  1

  4
Cadwork hatch
  0
LINE
  5
4C4
100
AcDbEntity
  8
Ech.1_5
 62
   190
  6
CONTINUOUS
370
    -2
100
AcDbLine
 10
35169.15552364
 20
-42383.80377365
 30
0.0
 11
35267.65493638
 21
-42428.803789
 31
0.0
  0
LINE
  5
4C5
100
AcDbEntity
  8
Ech.1_5
 62
   190
  6
CONTINUOUS
370
    -2
100
AcDbLine
 10
35169.15552364
 20
-42428.803789
 30
0.0
 11
35267.65493638
 21
-42383.80377365
 31
0.0
  0
ENDBLK
  5
4C6
100
AcDbEntity
100
AcDbBlockEnd
  0
BLOCK
  5
4C7
100
AcDbEntity
  8
Ech.1_5
100
AcDbBlockBegin
  2
*X4
 70
     1
 10
0.0
 20
0.0
 30
0.0
  3
*X4
  1

  4
Cadwork hatch
  0
LINE
  5
4C8
100
AcDbEntity
  8
Ech.1_5
 62
   190
  6
CONTINUOUS
370
    -2
100
AcDbLine
 10
35169.15552364
 20
-42179.19458503
 30
0.0
 11
35267.65493638
 21
-42224.19460038
 31
0.0
  0
LINE
  5
4C9
100
AcDbEntity
  8
Ech.1_5
 62
   190
  6
CONTINUOUS
370
    -2
100
AcDbLine
 10
35169.15552364
 20
-42224.19460038
 30
0.0
 11
35267.65493638
 21
-42179.19458503
 31
0.0
  0
ENDBLK
  5
4CA
100
AcDbEntity
100
AcDbBlockEnd
  0
BLOCK
  5
4CB
100
AcDbEntity
  8
Ech.1_5
100
AcDbBlockBegin
  2
*X5
 70
     1
 10
0.0
 20
0.0
 30
0.0
  3
*X5
  1

  4
Cadwork hatch
  0
LINE
  5
4CC
100
AcDbEntity
  8
Ech.1_5
 62
   190
  6
CONTINUOUS
370
    -2
100
AcDbLine
 10
35178.09054836
 20
-42735.2991609
 30
0.0
 11
35267.65493638
 21
-42780.29934355
 31
0.0
  0
LINE
  5
4CD
100
AcDbEntity
  8
Ech.1_5
 62
   190
  6
CONTINUOUS
370
    -2
100
AcDbLine
 10
35178.09054836
 20
-42780.29934355
 30
0.0
 11
35267.65493638
 21
-42735.2991609
 31
0.0
  0
ENDBLK
  5
4CE
100
AcDbEntity
100
AcDbBlockEnd
  0
BLOCK
  5
4CF
100
AcDbEntity
  8
Ech.1_5
100
AcDbBlockBegin
  2
*D5
 70
     1
 10
0.0
 20
0.0
 30
0.0
  3
*D5
  1

  4
Cadwork dimension
  0
TEXT
  5
4D0
100
AcDbEntity
  8
Ech.1_5
 62
   190
370
    18
100
AcDbText
 10
35098.33643292
 20
-42750.37060045
 30
0.0
 40
12.5
  1
30
  7
ARIAL
 50
89.9999975
 41
1.0
 51
0.0
100
AcDbText
  0
LINE
  5
4D1
100
AcDbEntity
  8
Ech.1_5
 62
   190
370
    -2
100
AcDbLine
 10
35098.33643292
 20
-42755.86714299
 30
0.0
 11
35115.18427136
 21
-42755.86714299
 31
0.0
  0
LINE
  5
4D2
100
AcDbEntity
  8
Ech.1_5
 62
   190
370
    -2
100
AcDbLine
 10
35098.33643292
 20
-42725.86720862
 30
0.0
 11
35162.30453408
 21
-42725.86720862
 31
0.0
  0
LINE
  5
4D3
100
AcDbEntity
  8
Ech.1_5
 62
   190
370
    -2
100
AcDbLine
 10
35103.33643292
 20
-42760.86714299
 30
0.0
 11
35103.33643292
 21
-42720.86720862
 31
0.0
  0
LINE
  5
4D4
100
AcDbEntity
  8
Ech.1_5
 62
   190
370
    -2
100
AcDbLine
 10
35105.83643292
 20
-42758.36714299
 30
0.0
 11
35100.83643292
 21
-42753.36714299
 31
0.0
  0
LINE
  5
4D5
100
AcDbEntity
  8
Ech.1_5
 62
   190
370
    -2
100
AcDbLine
 10
35105.83643292
 20
-42728.36720862
 30
0.0
 11
35100.83643292
 21
-42723.36720862
 31
0.0
  0
ENDBLK
  5
4D6
100
AcDbEntity
100
AcDbBlockEnd
  0
ENDSEC
  0
SECTION
  2
ENTITIES
  0
INSERT
  5
4D7
100
AcDbEntity
  8
Ech.1_5
 62
     0
370
    -3
100
AcDbBlockReference
  2
*X1
 10
0.0
 20
0.0
 30
0.0
  0
INSERT
  5
4D8
100
AcDbEntity
  8
Ech.1_5
 62
     0
370
    -3
100
AcDbBlockReference
  2
*X2
 10
0.0
 20
0.0
 30
0.0
  0
INSERT
  5
4D9
100
AcDbEntity
  8
Ech.1_5
 62
     0
370
    -3
100
AcDbBlockReference
  2
*X3
 10
0.0
 20
0.0
 30
0.0
  0
INSERT
  5
4DA
100
AcDbEntity
  8
Ech.1_5
 62
     0
370
    -3
100
AcDbBlockReference
  2
*X4
 10
0.0
 20
0.0
 30
0.0
  0
INSERT
  5
4DB
100
AcDbEntity
  8
Ech.1_5
 62
     0
370
    -3
100
AcDbBlockReference
  2
*X5
 10
0.0
 20
0.0
 30
0.0
  0
LWPOLYLINE
  5
4DC
102
{ACAD_REACTORS
330
4DD
102
}
100
AcDbEntity
  8
Ech.1_5
 62
     9
  6
CONTINUOUS
370
    -3
100
AcDbPolyline
 90
       10
 70
     1
 43
0.0
 38
2500.0
 39
-2500.0
 10
35481.65419355
 20
-43129.51586719
 10
35481.65413019
 20
-43055.86804619
 10
35481.65419355
 20
-42925.86804618
 10
35481.65419355
 20
-42725.86717335
 10
35281.65419355
 20
-42725.86717335
 10
35281.65419355
 20
-43129.51586719
 10
35369.02834535
 20
-43129.51586719
 10
35385.51469943
 20
-43111.53751559
 10
35371.40475941
 20
-43147.4932156
 10
35387.89026257
 20
-43129.51586719
  0
HATCH
  5
4DD
100
AcDbEntity
  8
Ech.1_5
 62
     9
  6
CONTINUOUS
100
AcDbHatch
 10
0.0
 20
0.0
 30
0.0
210
0.0
220
0.0
230
1.0
  2
AR-CONC
 70
     0
 71
     1
 91
        1
 92
        7
 72
     0
 73
     1
 93
       10
 10
35481.65419355
 20
-43129.51586719
 10
35481.65413019
 20
-43055.86804619
 10
35481.65419355
 20
-42925.86804618
 10
35481.65419355
 20
-42725.86717335
 10
35281.65419355
 20
-42725.86717335
 10
35281.65419355
 20
-43129.51586719
 10
35369.02834535
 20
-43129.51586719
 10
35385.51469943
 20
-43111.53751559
 10
35371.40475941
 20
-43147.4932156
 10
35387.89026257
 20
-43129.51586719
 97
        1
330
4DC
 75
     0
 76
     2
 52
0.0
 41
0.11811097
 77
     0
 78
    13
 53
50.0
 43
0.0
 44
0.0
 45
-18.84283637
 46
1.64853443
 79
     2
 49
1.97029307
 49
-21.67322338
 53
355.0
 43
0.0
 44
0.0
 45
-3.64507756
 46
19.76051824
 79
     2
 49
1.57623377
 49
-17.3385787
 53
100.45140076
 43
1.57023568
 44
-0.13737749
 45
-15.19777228
 46
-18.11197244
 79
     2
 49
1.67449124
 49
-18.41940522
 53
46.18420029
 43
0.0
 44
5.25411576
 45
-28.03703353
 46
4.34827878
 79
     2
 49
2.95543872
 49
-32.50983238
 53
96.63559723
 43
2.33641885
 44
4.89175692
 45
-24.55412615
 46
-25.59063404
 79
     2
 49
2.51173697
 49
-27.62910426
 53
351.1842041
 43
0.0
 44
5.25411576
 45
24.55410288
 46
25.59065715
 79
     2
 49
2.36435249
 49
-26.00786805
 53
21.0
 43
2.62705699
 44
3.94058615
 45
-15.68109068
 46
10.57702905
 79
     2
 49
1.97029307
 49
-21.67322338
 53
326.0
 43
2.62705699
 44
3.94058615
 45
6.39203268
 46
19.05010734
 79
     2
 49
1.57623377
 49
-17.3385787
 53
71.45140076
 43
3.93381357
 44
3.05916555
 45
-22.07312962
 46
-8.47306182
 79
     2
 49
1.67449124
 49
-18.41940522
 53
37.5
 43
0.0
 44
0.0
 45
0.31944534
 46
8.74531245
 79
     6
 49
0.01875
 49
-17.12841332
 49
0.01875
 49
-17.60128498
 49
0.01875
 49
-17.40425348
 53
7.5
 43
0.0
 44
0.0
 45
6.91098818
 46
10.3614222
 79
     6
 49
0.01875
 49
-10.03535807
 49
0.01875
 49
-16.7343539
 49
0.01875
 49
-6.6333206
 53
-32.5
 43
-5.85833833
 44
0.0
 45
14.02382061
 46
-0.59253003
 79
     6
 49
0.01875
 49
-6.56764314
 49
0.01875
 49
-20.49104869
 49
0.01875
 49
-27.19004452
 53
-42.5
 43
-8.48539531
 44
0.0
 45
15.32063571
 46
2.62981542
 79
     6
 49
0.01875
 49
-8.53793621
 49
0.01875
 49
-13.60815793
 49
0.01875
 49
-19.30887222
 47
0.775229
 98
        1
 10
0.0
 20
0.0
  0
LWPOLYLINE
  5
4DE
100
AcDbEntity
  8
Ech.1_5
 62
   190
  6
CONTINUOUS
370
    -3
100
AcDbPolyline
 90
        5
 70
     0
 43
0.0
 10
34929.26651495
 20
-43402.91253749
 10
35914.26651495
 20
-43402.91253749
 10
35914.26651495
 20
-42047.91253749
 10
34929.26651495
 20
-42047.91253749
 10
34929.26651495
 20
-43402.91253749
  0
LWPOLYLINE
  5
4DF
100
AcDbEntity
  8
Ech.1_5
 62
   204
  6
DASHDOT
370
    70
100
AcDbPolyline
 90
        4
 70
     0
 43
0.0
 38
2500.0
 10
35274.41676715
 20
-42728.80544377
 10
35269.4919842
 20
-42728.80544377
 10
35430.57943086
 20
-42728.80544377
 10
35440.05523512
 20
-42728.80544377
  0
LWPOLYLINE
  5
4E0
100
AcDbEntity
  8
Ech.1_5
 62
     7
  6
CONTINUOUS
370
    -3
100
AcDbPolyline
 90
       12
 70
     1
 43
0.0
 10
35276.65419355
 20
-42680.86717335
 10
35276.65419355
 20
-42725.86717335
 10
35311.41384569
 20
-42725.86717335
 10
35311.41388366
 20
-42725.8667928
 10
35337.23841474
 20
-42725.8667928
 10
35337.23837678
 20
-42725.86717335
 10
35351.47576145
 20
-42725.86717335
 10
35351.47579941
 20
-42725.8661234
 10
35377.30033049
 20
-42725.8661234
 10
35377.30029253
 20
-42725.86717335
 10
35421.65419355
 20
-42725.86717335
 10
35421.65419355
 20
-42680.86717335
  0
LWPOLYLINE
  5
4E1
100
AcDbEntity
  8
Ech.1_5
 62
   190
  6
CONTINUOUS
370
    -3
100
AcDbPolyline
 90
        8
 70
     1
 43
0.0
 10
35276.65419355
 20
-42635.86717335
 10
35421.65419355
 20
-42635.86717335
 10
35421.65419355
 20
-42141.66655122
 10
35352.19692715
 20
-42141.66692218
 10
35335.71057307
 20
-42159.64527379
 10
35349.82051309
 20
-42123.68957378
 10
35333.33500993
 20
-42141.66692218
 10
35276.65419355
 20
-42141.66692218
  0
LWPOLYLINE
  5
4E2
100
AcDbEntity
  8
Ech.1_5
 62
     7
  6
CONTINUOUS
370
    -3
100
AcDbPolyline
 90
        4
 70
     1
 43
0.0
 10
35276.65419355
 20
-42635.86717335
 10
35276.65419355
 20
-42680.86717335
 10
35421.65419355
 20
-42680.86717335
 10
35421.65419355
 20
-42635.86717335
  0
LWPOLYLINE
  5
4E3
100
AcDbEntity
  8
Ech.1_5
 62
   190
  6
CONTINUOUS
370
    -3
100
AcDbPolyline
 90
        4
 70
     0
 43
0.0
 10
35276.65419355
 20
-42725.86717335
 10
35421.65419355
 20
-42680.86717335
 10
35421.65419355
 20
-42725.86717335
 10
35276.65419355
 20
-42680.86717335
  0
LWPOLYLINE
  5
4E4
100
AcDbEntity
  8
Ech.1_5
 62
   190
  6
CONTINUOUS
370
    -3
100
AcDbPolyline
 90
        4
 70
     0
 43
0.0
 10
35276.65419355
 20
-42680.86717335
 10
35421.65419355
 20
-42635.86717335
 10
35421.65419355
 20
-42680.86717335
 10
35276.65419355
 20
-42635.86717335
  0
LWPOLYLINE
  5
4E5
100
AcDbEntity
  8
Ech.1_5
 62
     5
  6
CONTINUOUS
370
    -3
100
AcDbPolyline
 90
        5
 70
     0
 43
0.0
 10
35276.65419355
 20
-42635.86717335
 10
35421.65419355
 20
-42635.86717335
 10
35421.65419355
 20
-42680.86717335
 10
35276.65419355
 20
-42680.86717335
 10
35276.65419355
 20
-42635.86717335
  0
LWPOLYLINE
  5
4E6
100
AcDbEntity
  8
Ech.1_5
 62
     5
  6
CONTINUOUS
370
    -3
100
AcDbPolyline
 90
       13
 70
     0
 43
0.0
 10
35276.65419355
 20
-42680.86717335
 10
35276.65419355
 20
-42725.86717335
 10
35311.41384569
 20
-42725.86717335
 10
35311.41388366
 20
-42725.8667928
 10
35337.23841474
 20
-42725.8667928
 10
35337.23837678
 20
-42725.86717335
 10
35351.47576145
 20
-42725.86717335
 10
35351.47579941
 20
-42725.8661234
 10
35377.30033049
 20
-42725.8661234
 10
35377.30029253
 20
-42725.86717335
 10
35421.65419355
 20
-42725.86717335
 10
35421.65419355
 20
-42680.86717335
 10
35276.65419355
 20
-42680.86717335
  0
CIRCLE
  5
4E7
100
AcDbEntity
  8
Ech.1_5
 62
     7
  6
CONTINUOUS
100
AcDbCircle
 10
35447.1107314
 20
-42721.72447383
 30
0.0
 40
6.16444121
  0
LWPOLYLINE
  5
4E8
100
AcDbEntity
  8
Ech.1_5
 62
   190
  6
CONTINUOUS
370
    -3
100
AcDbPolyline
 90
        6
 70
     0
 43
0.0
 10
35097.01099055
 20
-42141.66692218
 10
35333.33500993
 20
-42141.66692218
 10
35349.82051309
 20
-42123.68957378
 10
35335.71057307
 20
-42159.64527379
 10
35352.19692715
 20
-42141.66692218
 10
35514.19692715
 20
-42141.6662936
  0
LWPOLYLINE
  5
4E9
100
AcDbEntity
  8
Ech.1_5
 62
     7
  6
BYBLOCK
100
AcDbPolyline
 90
        5
 70
     0
 43
0.0
 10
35386.47576145
 20
-42735.29933771
 10
35412.30029253
 20
-42735.29933771
 10
35412.30029253
 20
-42725.86667765
 10
35386.47576145
 20
-42725.86667765
 10
35386.47576145
 20
-42735.29933771
  0
LWPOLYLINE
  5
4EA
100
AcDbEntity
  8
Ech.1_5
 62
   190
  6
CONTINUOUS
370
    -3
100
AcDbPolyline
 90
        4
 70
     1
 43
0.0
 10
35276.65419355
 20
-42141.66692218
 10
35267.65419355
 20
-42141.66692218
 10
35267.65419355
 20
-42715.86717335
 10
35276.65419355
 20
-42715.86717335
  0
LINE
  5
4EB
100
AcDbEntity
  8
Ech.1_5
 62
   150
  6
CADWORK_22
370
    35
100
AcDbLine
 10
35266.15419355
 20
-42207.10762185
 30
2500.0
 11
35266.15419355
 21
-42725.86717335
 31
2500.0
  0
LWPOLYLINE
  5
4EC
102
{ACAD_REACTORS
330
4ED
102
}
100
AcDbEntity
  8
Ech.1_5
 62
     7
  6
CONTINUOUS
370
     5
100
AcDbPolyline
 90
        4
 70
     1
 43
0.0
 10
35311.41384569
 20
-42735.29933771
 10
35337.23837678
 20
-42735.29933771
 10
35337.23837678
 20
-42725.86667765
 10
35311.41384569
 20
-42725.86667765
  0
HATCH
  5
4ED
100
AcDbEntity
  8
Ech.1_5
 62
     2
  6
CONTINUOUS
100
AcDbHatch
 10
0.0
 20
0.0
 30
0.0
210
0.0
220
0.0
230
1.0
  2
SOLID
 70
     1
 71
     1
 91
        1
 92
        7
 72
     0
 73
     1
 93
        4
 10
35311.41384569
 20
-42735.29933771
 10
35337.23837678
 20
-42735.29933771
 10
35337.23837678
 20
-42725.86667765
 10
35311.41384569
 20
-42725.86667765
 97
        1
330
4EC
 75
     0
 76
     2
 47
0.775229
 98
        1
 10
0.0
 20
0.0
  0
HATCH
  5
4EE
100
AcDbEntity
  8
Ech.1_5
 62
     7
100
AcDbHatch
 10
0.0
 20
0.0
 30
0.0
210
0.0
220
0.0
230
1.0
  2
ANSI37
 70
     0
 71
     0
 91
        1
 92
        7
 72
     0
 73
     1
 93
        4
 10
35311.41384569
 20
-42735.29933771
 10
35337.23837678
 20
-42735.29933771
 10
35337.23837678
 20
-42725.86667765
 10
35311.41384569
 20
-42725.86667765
 97
        0
 75
     0
 76
     2
 52
0.0
 41
1.87498831
 77
     0
 78
     2
 53
45.0
 43
0.0
 44
0.0
 45
4.20946876
 46
-4.20946876
 79
     0
 53
-45.0
 43
0.0
 44
0.0
 45
4.20946876
 46
4.20946876
 79
     0
 47
0.775229
 98
        1
 10
0.0
 20
0.0
  0
LWPOLYLINE
  5
4EF
102
{ACAD_REACTORS
330
4F0
102
}
100
AcDbEntity
  8
Ech.1_5
 62
     7
  6
CONTINUOUS
370
     5
100
AcDbPolyline
 90
        4
 70
     1
 43
0.0
 10
35386.47576145
 20
-42735.29933771
 10
35412.30029253
 20
-42735.29933771
 10
35412.30029253
 20
-42725.86667765
 10
35386.47576145
 20
-42725.86667765
  0
HATCH
  5
4F0
100
AcDbEntity
  8
Ech.1_5
 62
     2
  6
CONTINUOUS
100
AcDbHatch
 10
0.0
 20
0.0
 30
0.0
210
0.0
220
0.0
230
1.0
  2
SOLID
 70
     1
 71
     1
 91
        1
 92
        7
 72
     0
 73
     1
 93
        4
 10
35386.47576145
 20
-42735.29933771
 10
35412.30029253
 20
-42735.29933771
 10
35412.30029253
 20
-42725.86667765
 10
35386.47576145
 20
-42725.86667765
 97
        1
330
4EF
 75
     0
 76
     2
 47
0.775229
 98
        1
 10
0.0
 20
0.0
  0
HATCH
  5
4F1
100
AcDbEntity
  8
Ech.1_5
 62
     7
100
AcDbHatch
 10
0.0
 20
0.0
 30
0.0
210
0.0
220
0.0
230
1.0
  2
ANSI37
 70
     0
 71
     0
 91
        1
 92
        7
 72
     0
 73
     1
 93
        4
 10
35386.47576145
 20
-42735.29933771
 10
35412.30029253
 20
-42735.29933771
 10
35412.30029253
 20
-42725.86667765
 10
35386.47576145
 20
-42725.86667765
 97
        0
 75
     0
 76
     2
 52
0.0
 41
1.87498831
 77
     0
 78
     2
 53
45.0
 43
0.0
 44
0.0
 45
4.20946876
 46
-4.20946876
 79
     0
 53
-45.0
 43
0.0
 44
0.0
 45
4.20946876
 46
4.20946876
 79
     0
 47
0.775229
 98
        1
 10
0.0
 20
0.0
  0
LWPOLYLINE
  5
4F2
100
AcDbEntity
  8
Ech.1_5
 62
     7
  6
CONTINUOUS
370
    -3
100
AcDbPolyline
 90
        8
 70
     1
 43
0.0
 10
35861.57865999
 20
-42590.35023592
 10
35897.53436
 20
-42604.46017594
 10
35879.5570116
 20
-42587.97467278
 10
35879.55649992
 20
-42455.86717335
 10
35468.65419355
 20
-42455.86717335
 10
35468.65419355
 20
-42675.86717335
 10
35879.55618931
 20
-42675.86717335
 10
35879.5570116
 20
-42606.83659
  0
LINE
  5
4F3
100
AcDbEntity
  8
Ech.1_5
 62
     7
  6
CONTINUOUS
370
    -3
100
AcDbLine
 10
35566.65419355
 20
-42675.86717335
 30
0.0
 11
35466.65419355
 21
-42675.86717335
 31
0.0
  0
LWPOLYLINE
  5
4F4
100
AcDbEntity
  8
Ech.1_5
 62
   190
  6
CONTINUOUS
370
    -3
100
AcDbPolyline
 90
        4
 70
     1
 43
0.0
 10
35466.65419355
 20
-42455.86717335
 10
35421.65419355
 20
-42455.86717335
 10
35421.65419355
 20
-42675.86717335
 10
35466.65419355
 20
-42675.86717335
  0
LWPOLYLINE
  5
4F5
100
AcDbEntity
  8
Ech.1_5
 62
   190
  6
CONTINUOUS
370
    -3
100
AcDbPolyline
 90
        4
 70
     1
 43
0.0
 10
35421.65419355
 20
-42675.86717335
 10
35466.65419355
 20
-42675.86717335
 10
35466.65419355
 20
-42455.86717335
 10
35421.65419355
 20
-42455.86717335
  0
LWPOLYLINE
  5
4F6
100
AcDbEntity
  8
Ech.1_5
 62
   190
  6
CONTINUOUS
370
    -3
100
AcDbPolyline
 90
        4
 70
     1
 43
0.0
 10
35474.65419355
 20
-42141.6662936
 10
35461.65419355
 20
-42141.6662936
 10
35461.65419355
 20
-42426.86717335
 10
35474.65419355
 20
-42426.86717335
  0
LWPOLYLINE
  5
4F7
100
AcDbEntity
  8
Ech.1_5
 62
   190
  6
CONTINUOUS
370
    -3
100
AcDbPolyline
 90
        4
 70
     1
 43
0.0
 10
35421.65419355
 20
-42455.86717335
 10
35421.65419355
 20
-42436.86717335
 10
35879.55649992
 20
-42436.86717335
 10
35879.55649992
 20
-42455.86717335
  0
LWPOLYLINE
  5
4F8
102
{ACAD_REACTORS
330
4F9
102
}
100
AcDbEntity
  8
Ech.1_5
 62
     7
  6
CONTINUOUS
370
    -3
100
AcDbPolyline
 90
        4
 70
     1
 43
0.0
 10
35421.65419355
 20
-42455.86717335
 10
35421.65419355
 20
-42436.86717335
 10
35879.55649992
 20
-42436.86717335
 10
35879.55649992
 20
-42455.86717335
  0
HATCH
  5
4F9
100
AcDbEntity
  8
Ech.1_5
 62
   190
  6
CONTINUOUS
100
AcDbHatch
 10
0.0
 20
0.0
 30
0.0
210
0.0
220
0.0
230
1.0
  2
ANSI38
 70
     0
 71
     1
 91
        1
 92
        7
 72
     0
 73
     1
 93
        4
 10
35421.65419355
 20
-42455.86717335
 10
35421.65419355
 20
-42436.86717335
 10
35879.55649992
 20
-42436.86717335
 10
35879.55649992
 20
-42455.86717335
 97
        1
330
4F8
 75
     0
 76
     2
 52
0.0
 41
1.0
 77
     0
 78
     2
 53
45.0
 43
0.0
 44
0.0
 45
-8.48528171
 46
8.48528171
 79
     2
 49
960.00003815
 49
0.0
 53
135.0
 43
0.0
 44
0.0
 45
-25.45584513
 46
8.48528171
 79
     2
 49
30.00000119
 49
-18.00000072
 47
0.775229
 98
        1
 10
0.0
 20
0.0
  0
LWPOLYLINE
  5
4FA
100
AcDbEntity
  8
Ech.1_5
 62
   190
  6
CONTINUOUS
370
    -3
100
AcDbPolyline
 90
        4
 70
     1
 43
0.0
 10
35421.65419355
 20
-42426.86717335
 10
35461.65419355
 20
-42426.86717335
 10
35461.65419355
 20
-42381.86717335
 10
35421.65419355
 20
-42381.86717335
  0
LWPOLYLINE
  5
4FB
100
AcDbEntity
  8
Ech.1_5
 62
   190
370
    18
100
AcDbPolyline
 90
        4
 70
     0
 43
0.0
 10
35421.65419355
 20
-42381.86717335
 10
35461.65419355
 20
-42426.86717335
 10
35461.65419355
 20
-42381.86717335
 10
35421.65419355
 20
-42426.86717335
  0
LWPOLYLINE
  5
4FC
100
AcDbEntity
  8
Ech.1_5
 62
     5
  6
CONTINUOUS
370
    -3
100
AcDbPolyline
 90
        5
 70
     0
 43
0.0
 10
35421.65419355
 20
-42455.86717335
 10
35466.65419355
 20
-42455.86717335
 10
35466.65419355
 20
-42675.86717335
 10
35421.65419355
 20
-42675.86717335
 10
35421.65419355
 20
-42455.86717335
  0
LWPOLYLINE
  5
4FD
100
AcDbEntity
  8
Ech.1_5
 62
     5
100
AcDbPolyline
 90
        5
 70
     0
 43
0.0
 10
35421.65419355
 20
-42426.86717335
 10
35461.65419355
 20
-42426.86717335
 10
35461.65419355
 20
-42381.86717335
 10
35421.65419355
 20
-42381.86717335
 10
35421.65419355
 20
-42426.86717335
  0
LWPOLYLINE
  5
4FE
100
AcDbEntity
  8
Ech.1_5
100
AcDbPolyline
 90
        6
 70
     0
 43
0.0
 10
35474.65560874
 20
-42357.20233345
 10
35477.65419354
 20
-42357.20240238
 42
-0.41421356
 10
35487.65419354
 20
-42367.20240238
 10
35487.65419354
 20
-42422.86717569
 10
35474.65419355
 20
-42422.86717802
 10
35474.65419355
 20
-42357.20240471
  0
LWPOLYLINE
  5
4FF
102
{ACAD_REACTORS
330
500
102
}
100
AcDbEntity
  8
Ech.1_5
 62
   190
  6
CONTINUOUS
370
    -3
100
AcDbPolyline
 90
        4
 70
     1
 43
0.0
 10
35879.55599253
 20
-42436.86717569
 10
35879.55598082
 20
-42422.86717569
 10
35484.65419355
 20
-42422.86717569
 10
35484.65419355
 20
-42436.86717569
  0
HATCH
  5
500
100
AcDbEntity
  8
Ech.1_5
 62
   190
  6
CONTINUOUS
100
AcDbHatch
 10
0.0
 20
0.0
 30
0.0
210
0.0
220
0.0
230
1.0
  2
ANSI31
 70
     0
 71
     1
 91
        1
 92
        7
 72
     0
 73
     1
 93
        4
 10
35879.55599253
 20
-42436.86717569
 10
35879.55598082
 20
-42422.86717569
 10
35484.65419355
 20
-42422.86717569
 10
35484.65419355
 20
-42436.86717569
 97
        1
330
4FF
 75
     0
 76
     2
 52
90.0
 41
3.14962605
 77
     0
 78
     1
 53
-45.0
 43
0.0
 44
0.0
 45
7.07106781
 46
7.07106781
 79
     0
 47
0.775229
 98
        1
 10
0.0
 20
0.0
  0
LWPOLYLINE
  5
501
100
AcDbEntity
  8
Ech.1_5
 62
     1
  6
CADWORK_22
 48
-5.0
370
    35
100
AcDbPolyline
 90
        6
 70
     0
 43
0.0
 10
35421.65419355
 20
-42141.6665459
 10
35421.65419355
 20
-42724.36526833
 10
35438.90296907
 20
-42724.36526833
 10
35447.1107314
 20
-42716.26507514
 10
35453.69008881
 20
-42724.36508925
 10
35480.34924068
 20
-42724.36508925
  0
LWPOLYLINE
  5
502
100
AcDbEntity
  8
Ech.1_5
 62
   190
  6
CONTINUOUS
370
    -3
100
AcDbPolyline
 90
        4
 70
     1
 43
0.0
 10
35267.65419355
 20
-42141.66642933
 10
35169.15810192
 20
-42141.66679105
 10
35169.15810192
 20
-42680.970545
 10
35267.65419355
 20
-42680.97052372
  0
LWPOLYLINE
  5
503
100
AcDbEntity
  8
Ech.1_5
 62
   190
  6
CONTINUOUS
370
    -3
100
AcDbPolyline
 90
       66
 70
     0
 43
0.0
 10
35251.35517341
 20
-42680.91251552
 42
1.14028181
 10
35247.04752775
 20
-42648.88158885
 10
35190.33071197
 20
-42664.22775041
 42
-1.30322619
 10
35190.24311765
 20
-42632.74046649
 10
35247.04443774
 20
-42647.77083248
 42
1.30322619
 10
35246.95684341
 20
-42616.28354856
 10
35190.24002764
 20
-42631.62971011
 42
-1.30322619
 10
35190.15243331
 20
-42600.14242619
 10
35246.9537534
 20
-42615.17279218
 42
1.30322619
 10
35246.86615908
 20
-42583.68550826
 10
35190.14934331
 20
-42599.03166982
 42
-1.30322619
 10
35190.06174898
 20
-42567.5443859
 10
35246.86306907
 20
-42582.57475189
 42
1.30322619
 10
35246.77547474
 20
-42551.08746797
 10
35190.05865897
 20
-42566.43362952
 42
-1.30322619
 10
35189.97106465
 20
-42534.9463456
 10
35246.77238474
 20
-42549.97671159
 42
1.30322619
 10
35246.68479041
 20
-42518.48942767
 10
35189.96797464
 20
-42533.83558923
 42
-1.30322619
 10
35189.88038031
 20
-42502.34830531
 10
35246.6817004
 20
-42517.3786713
 42
1.30322619
 10
35246.59410608
 20
-42485.89138738
 10
35189.8772903
 20
-42501.23754893
 42
-1.30322619
 10
35189.78969598
 20
-42469.75026501
 10
35246.59101607
 20
-42484.780631
 42
1.30322619
 10
35246.50342174
 20
-42453.29334708
 10
35189.78660597
 20
-42468.63950864
 42
-1.30322619
 10
35189.69901164
 20
-42437.15222472
 10
35246.50033173
 20
-42452.18259071
 42
1.30322619
 10
35246.41273741
 20
-42420.69530679
 10
35189.69592164
 20
-42436.04146834
 42
-1.30322619
 10
35189.60832731
 20
-42404.55418442
 10
35246.4096474
 20
-42419.58455041
 42
1.30322619
 10
35246.32205307
 20
-42388.09726649
 10
35189.6052373
 20
-42403.44342805
 42
-1.30322619
 10
35189.51764298
 20
-42371.95614413
 10
35246.31896307
 20
-42386.98651012
 42
1.30322619
 10
35246.23136874
 20
-42355.4992262
 10
35189.51455297
 20
-42370.84538775
 42
-1.30322619
 10
35189.42695864
 20
-42339.35810383
 10
35246.22827873
 20
-42354.38846982
 42
1.30322619
 10
35246.14068441
 20
-42322.9011859
 10
35189.42386863
 20
-42338.24734746
 42
-1.30322619
 10
35189.33627431
 20
-42306.76006354
 10
35246.1375944
 20
-42321.79042953
 42
1.30322619
 10
35246.05000007
 20
-42290.30314561
 10
35189.3331843
 20
-42305.64930716
 42
-1.30322619
 10
35189.24558997
 20
-42274.16202324
 10
35246.04691006
 20
-42289.19238923
 42
1.30322619
 10
35245.95931574
 20
-42257.70510531
 10
35189.24249997
 20
-42273.05126687
 42
-1.30322619
 10
35189.15490564
 20
-42241.56398295
 10
35245.95622573
 20
-42256.59434894
 42
1.30322619
 10
35245.8686314
 20
-42225.10706502
 10
35189.15181563
 20
-42240.45322657
 42
-1.30322619
 10
35189.0642213
 20
-42208.96594265
 10
35245.8655414
 20
-42223.99630864
 42
1.30322619
 10
35245.77794707
 20
-42192.50902472
 10
35189.0611313
 20
-42207.85518628
 42
-1.30322619
 10
35188.97353697
 20
-42176.36790236
 10
35245.77485706
 20
-42191.39826835
 42
1.30322619
 10
35245.68726273
 20
-42159.91098443
 10
35188.97044696
 20
-42175.25714598
 42
-1.30322619
 10
35188.88285264
 20
-42143.76986206
 10
35245.68417273
 20
-42158.80022805
 42
0.51885702
 10
35266.09958653
 20
-42141.66658124
  0
LWPOLYLINE
  5
504
100
AcDbEntity
  8
Ech.1_5
 62
     9
  6
CONTINUOUS
370
    -3
100
AcDbPolyline
 90
        4
 70
     1
 43
0.0
 10
35169.08978533
 20
-42141.66679105
 10
35144.08978533
 20
-42141.66692218
 10
35144.08982235
 20
-42711.27259193
 10
35169.08982235
 20
-42711.27259193
  0
LWPOLYLINE
  5
505
100
AcDbEntity
  8
Ech.1_5
 62
     7
  6
CONTINUOUS
100
AcDbPolyline
 90
       27
 70
     0
 43
0.0
 10
35130.96320523
 20
-42491.48165185
 10
35131.08982235
 20
-42491.14717805
 10
35131.08982235
 20
-42463.76371396
 10
35138.08982235
 20
-42463.76371396
 10
35138.08982235
 20
-42472.76371396
 10
35144.08982235
 20
-42472.76371396
 10
35144.08982235
 20
-42445.76371396
 10
35140.08982235
 20
-42441.76371396
 10
35144.08982235
 20
-42437.76371396
 10
35144.08982235
 20
-42373.76371396
 10
35140.08982235
 20
-42369.76371396
 10
35144.08982235
 20
-42365.76371396
 10
35144.08982235
 20
-42330.76371396
 10
35137.08982235
 20
-42330.76371396
 10
35137.08982235
 20
-42324.76371396
 10
35134.58982235
 20
-42319.76371396
 10
35132.08982235
 20
-42324.76371396
 10
35132.08982235
 20
-42355.69264615
 10
35131.70922002
 20
-42357.60606331
 10
35125.55428845
 20
-42364.29924787
 10
35124.08982235
 20
-42367.83478177
 10
35124.08982235
 20
-42486.92152619
 10
35125.05014475
 20
-42488.55139483
 10
35129.78626561
 20
-42491.52274476
 10
35130.19826697
 20
-42491.76371396
 10
35130.51208446
 20
-42491.76371396
 10
35130.96320523
 20
-42491.48165185
  0
LWPOLYLINE
  5
506
100
AcDbEntity
  8
Ech.1_5
 62
    25
  6
CONTINUOUS
370
    -3
100
AcDbPolyline
 90
       27
 70
     0
 43
0.0
 10
35130.96320523
 20
-42636.48165185
 10
35131.08982235
 20
-42636.14717805
 10
35131.08982235
 20
-42608.76371396
 10
35138.08982235
 20
-42608.76371396
 10
35138.08982235
 20
-42617.76371396
 10
35144.08982235
 20
-42617.76371396
 10
35144.08982235
 20
-42590.76371396
 10
35140.08982235
 20
-42586.76371396
 10
35144.08982235
 20
-42582.76371396
 10
35144.08982235
 20
-42518.76371396
 10
35140.08982235
 20
-42514.76371396
 10
35144.08982235
 20
-42510.76371396
 10
35144.08982235
 20
-42475.76371396
 10
35137.08982235
 20
-42475.76371396
 10
35137.08982235
 20
-42469.76371396
 10
35134.58982235
 20
-42464.76371396
 10
35132.08982235
 20
-42469.76371396
 10
35132.08982235
 20
-42500.69264615
 10
35131.70922002
 20
-42502.60606331
 10
35125.55428845
 20
-42509.29924787
 10
35124.08982235
 20
-42512.83478177
 10
35124.08982235
 20
-42631.92152619
 10
35125.05014475
 20
-42633.55139483
 10
35129.78626561
 20
-42636.52274476
 10
35130.19826697
 20
-42636.76371396
 10
35130.51208446
 20
-42636.76371396
 10
35130.96320523
 20
-42636.48165185
  0
LWPOLYLINE
  5
507
100
AcDbEntity
  8
Ech.1_5
 62
     7
  6
CONTINUOUS
100
AcDbPolyline
 90
       16
 70
     0
 43
0.0
 10
35124.08982235
 20
-42141.66702709
 10
35124.08982235
 20
-42196.92152619
 10
35125.05014475
 20
-42198.55139483
 10
35129.78626561
 20
-42201.52274476
 10
35130.19826697
 20
-42201.76371396
 10
35130.51208446
 20
-42201.76371396
 10
35130.96320523
 20
-42201.48165185
 10
35131.08982235
 20
-42201.14717805
 10
35131.08982235
 20
-42173.76371396
 10
35138.08982235
 20
-42173.76371396
 10
35138.08982235
 20
-42182.76371396
 10
35144.08982235
 20
-42182.76371396
 10
35144.08982235
 20
-42155.76371396
 10
35140.08982235
 20
-42151.76371396
 10
35144.08982235
 20
-42147.76371396
 10
35144.08982235
 20
-42141.66692218
  0
LWPOLYLINE
  5
508
100
AcDbEntity
  8
Ech.1_5
 62
     7
  6
CONTINUOUS
100
AcDbPolyline
 90
       27
 70
     0
 43
0.0
 10
35130.96320523
 20
-42346.48165185
 10
35131.08982235
 20
-42346.14717805
 10
35131.08982235
 20
-42318.76371396
 10
35138.08982235
 20
-42318.76371396
 10
35138.08982235
 20
-42327.76371396
 10
35144.08982235
 20
-42327.76371396
 10
35144.08982235
 20
-42300.76371396
 10
35140.08982235
 20
-42296.76371396
 10
35144.08982235
 20
-42292.76371396
 10
35144.08982235
 20
-42228.76371396
 10
35140.08982235
 20
-42224.76371396
 10
35144.08982235
 20
-42220.76371396
 10
35144.08982235
 20
-42185.76371396
 10
35137.08982235
 20
-42185.76371396
 10
35137.08982235
 20
-42179.76371396
 10
35134.58982235
 20
-42174.76371396
 10
35132.08982235
 20
-42179.76371396
 10
35132.08982235
 20
-42210.69264615
 10
35131.70922002
 20
-42212.60606331
 10
35125.55428845
 20
-42219.29924787
 10
35124.08982235
 20
-42222.83478177
 10
35124.08982235
 20
-42341.92152619
 10
35125.05014475
 20
-42343.55139483
 10
35129.78626561
 20
-42346.52274476
 10
35130.19826697
 20
-42346.76371396
 10
35130.51208446
 20
-42346.76371396
 10
35130.96320523
 20
-42346.48165185
  0
LWPOLYLINE
  5
509
100
AcDbEntity
  8
Ech.1_5
 62
     7
  6
BYBLOCK
100
AcDbPolyline
 90
       23
 70
     0
 43
0.0
 10
35124.08982235
 20
-42754.24529757
 10
35124.08982235
 20
-42657.83478177
 10
35125.55428845
 20
-42654.29924787
 10
35131.70922002
 20
-42647.60606331
 10
35132.08982235
 20
-42645.69264615
 10
35132.08982235
 20
-42614.76371396
 10
35134.58982235
 20
-42609.76371396
 10
35137.08982235
 20
-42614.76371396
 10
35137.08982235
 20
-42620.76371396
 10
35144.08982235
 20
-42620.76371396
 10
35144.08982235
 20
-42655.76371396
 10
35140.08982235
 20
-42659.76371396
 10
35144.08982235
 20
-42663.76371396
 10
35144.08982235
 20
-42727.76371396
 10
35140.08982235
 20
-42731.76371396
 10
35144.08982235
 20
-42735.76371396
 10
35144.08982235
 20
-42735.76371396
 10
35131.84590875
 20
-42751.6609884
 10
35129.02911192
 20
-42755.31826611
 10
35127.93965187
 20
-42755.86714299
 10
35125.18427136
 20
-42755.86714299
 10
35124.08982235
 20
-42754.24529757
 10
35124.08982235
 20
-42748.93666945
  0
LWPOLYLINE
  5
50A
100
AcDbEntity
  8
Ech.1_5
 62
     9
  6
CONTINUOUS
370
    -3
100
AcDbPolyline
 90
       26
 70
     1
 43
0.0
 10
35130.96320523
 20
-42636.48165185
 10
35131.08982235
 20
-42636.14717805
 10
35131.08982235
 20
-42608.76371396
 10
35138.08982235
 20
-42608.76371396
 10
35138.08982235
 20
-42617.76371396
 10
35144.08982235
 20
-42617.76371396
 10
35144.08982235
 20
-42590.76371396
 10
35140.08982235
 20
-42586.76371396
 10
35144.08982235
 20
-42582.76371396
 10
35144.08982235
 20
-42518.76371396
 10
35140.08982235
 20
-42514.76371396
 10
35144.08982235
 20
-42510.76371396
 10
35144.08982235
 20
-42475.76371396
 10
35137.08982235
 20
-42475.76371396
 10
35137.08982235
 20
-42469.76371396
 10
35134.58982235
 20
-42464.76371396
 10
35132.08982235
 20
-42469.76371396
 10
35132.08982235
 20
-42500.69264615
 10
35131.70922002
 20
-42502.60606331
 10
35125.55428845
 20
-42509.29924787
 10
35124.08982235
 20
-42512.83478177
 10
35124.08982235
 20
-42631.92152619
 10
35125.05014475
 20
-42633.55139483
 10
35129.78626561
 20
-42636.52274476
 10
35130.19826697
 20
-42636.76371396
 10
35130.51208446
 20
-42636.76371396
  0
LWPOLYLINE
  5
50B
100
AcDbEntity
  8
Ech.1_5
 62
     9
  6
CONTINUOUS
370
    -3
100
AcDbPolyline
 90
       26
 70
     1
 43
0.0
 10
35130.96320523
 20
-42491.48165185
 10
35131.08982235
 20
-42491.14717805
 10
35131.08982235
 20
-42463.76371396
 10
35138.08982235
 20
-42463.76371396
 10
35138.08982235
 20
-42472.76371396
 10
35144.08982235
 20
-42472.76371396
 10
35144.08982235
 20
-42445.76371396
 10
35140.08982235
 20
-42441.76371396
 10
35144.08982235
 20
-42437.76371396
 10
35144.08982235
 20
-42373.76371396
 10
35140.08982235
 20
-42369.76371396
 10
35144.08982235
 20
-42365.76371396
 10
35144.08982235
 20
-42330.76371396
 10
35137.08982235
 20
-42330.76371396
 10
35137.08982235
 20
-42324.76371396
 10
35134.58982235
 20
-42319.76371396
 10
35132.08982235
 20
-42324.76371396
 10
35132.08982235
 20
-42355.69264615
 10
35131.70922002
 20
-42357.60606331
 10
35125.55428845
 20
-42364.29924787
 10
35124.08982235
 20
-42367.83478177
 10
35124.08982235
 20
-42486.92152619
 10
35125.05014475
 20
-42488.55139483
 10
35129.78626561
 20
-42491.52274476
 10
35130.19826697
 20
-42491.76371396
 10
35130.51208446
 20
-42491.76371396
  0
LWPOLYLINE
  5
50C
100
AcDbEntity
  8
Ech.1_5
 62
     9
  6
CONTINUOUS
370
    -3
100
AcDbPolyline
 90
       26
 70
     1
 43
0.0
 10
35130.96320523
 20
-42346.48165185
 10
35131.08982235
 20
-42346.14717805
 10
35131.08982235
 20
-42318.76371396
 10
35138.08982235
 20
-42318.76371396
 10
35138.08982235
 20
-42327.76371396
 10
35144.08982235
 20
-42327.76371396
 10
35144.08982235
 20
-42300.76371396
 10
35140.08982235
 20
-42296.76371396
 10
35144.08982235
 20
-42292.76371396
 10
35144.08982235
 20
-42228.76371396
 10
35140.08982235
 20
-42224.76371396
 10
35144.08982235
 20
-42220.76371396
 10
35144.08982235
 20
-42185.76371396
 10
35137.08982235
 20
-42185.76371396
 10
35137.08982235
 20
-42179.76371396
 10
35134.58982235
 20
-42174.76371396
 10
35132.08982235
 20
-42179.76371396
 10
35132.08982235
 20
-42210.69264615
 10
35131.70922002
 20
-42212.60606331
 10
35125.55428845
 20
-42219.29924787
 10
35124.08982235
 20
-42222.83478177
 10
35124.08982235
 20
-42341.92152619
 10
35125.05014475
 20
-42343.55139483
 10
35129.78626561
 20
-42346.52274476
 10
35130.19826697
 20
-42346.76371396
 10
35130.51208446
 20
-42346.76371396
  0
LWPOLYLINE
  5
50D
100
AcDbEntity
  8
Ech.1_5
 62
     9
  6
CONTINUOUS
370
    -3
100
AcDbPolyline
 90
       16
 70
     1
 43
0.0
 10
35144.08982235
 20
-42141.66692218
 10
35124.08982235
 20
-42141.66702709
 10
35124.08982235
 20
-42196.92152619
 10
35125.05014475
 20
-42198.55139483
 10
35129.78626561
 20
-42201.52274476
 10
35130.19826697
 20
-42201.76371396
 10
35130.51208446
 20
-42201.76371396
 10
35130.96320523
 20
-42201.48165185
 10
35131.08982235
 20
-42201.14717805
 10
35131.08982235
 20
-42173.76371396
 10
35138.08982235
 20
-42173.76371396
 10
35138.08982235
 20
-42182.76371396
 10
35144.08982235
 20
-42182.76371396
 10
35144.08982235
 20
-42155.76371396
 10
35140.08982235
 20
-42151.76371396
 10
35144.08982235
 20
-42147.76371396
  0
LWPOLYLINE
  5
50E
100
AcDbEntity
  8
Ech.1_5
 62
     9
  6
CONTINUOUS
370
    -3
100
AcDbPolyline
 90
       20
 70
     1
 43
0.0
 10
35124.08982235
 20
-42754.24529757
 10
35125.18427136
 20
-42755.86714299
 10
35127.93965187
 20
-42755.86714299
 10
35129.02911192
 20
-42755.31826611
 10
35131.84590875
 20
-42751.6609884
 10
35144.08982235
 20
-42735.76371396
 10
35140.08982235
 20
-42731.76371396
 10
35144.08982235
 20
-42727.76371396
 10
35144.08982235
 20
-42663.76371396
 10
35140.08982235
 20
-42659.76371396
 10
35144.08982235
 20
-42655.76371396
 10
35144.08982235
 20
-42620.76371396
 10
35137.08982235
 20
-42620.76371396
 10
35137.08982235
 20
-42614.76371396
 10
35134.58982235
 20
-42609.76371396
 10
35132.08982235
 20
-42614.76371396
 10
35132.08982235
 20
-42645.69264615
 10
35131.70922002
 20
-42647.60606331
 10
35125.55428845
 20
-42654.29924787
 10
35124.08982235
 20
-42657.83478177
  0
LWPOLYLINE
  5
50F
100
AcDbEntity
  8
Ech.1_5
 62
     7
  6
CONTINUOUS
370
    -3
100
AcDbPolyline
 90
        4
 70
     1
 43
0.0
 10
35169.15810192
 20
-42680.86717335
 10
35169.15810192
 20
-42725.86717335
 10
35267.65419355
 20
-42725.86717335
 10
35267.65419355
 20
-42680.86717335
  0
LWPOLYLINE
  5
510
100
AcDbEntity
  8
Ech.1_5
 62
   190
  6
CONTINUOUS
370
    -3
100
AcDbPolyline
 90
        4
 70
     1
 43
0.0
 10
35169.15810192
 20
-42680.86717335
 10
35169.15810192
 20
-42725.86717335
 10
35267.65419355
 20
-42725.86717335
 10
35267.65419355
 20
-42680.86717335
  0
LWPOLYLINE
  5
511
100
AcDbEntity
  8
Ech.1_5
 62
     5
  6
CONTINUOUS
370
    -3
100
AcDbPolyline
 90
        5
 70
     0
 43
0.0
 10
35169.15810192
 20
-42680.86717335
 10
35267.65419355
 20
-42680.86717335
 10
35267.65419355
 20
-42725.86717335
 10
35169.15810192
 20
-42725.86717335
 10
35169.15810192
 20
-42680.86717335
  0
LWPOLYLINE
  5
512
100
AcDbEntity
  8
Ech.1_5
 62
     7
  6
CONTINUOUS
370
    -3
100
AcDbPolyline
 90
        4
 70
     1
 43
0.0
 10
35169.15810192
 20
-42383.80379208
 10
35169.15810192
 20
-42428.80379208
 10
35267.65419355
 20
-42428.80379208
 10
35267.65419355
 20
-42383.80379208
  0
LWPOLYLINE
  5
513
100
AcDbEntity
  8
Ech.1_5
 62
   190
  6
CONTINUOUS
370
    -3
100
AcDbPolyline
 90
        4
 70
     1
 43
0.0
 10
35169.15810192
 20
-42383.80379208
 10
35169.15810192
 20
-42428.80379208
 10
35267.65419355
 20
-42428.80379208
 10
35267.65419355
 20
-42383.80379208
  0
LWPOLYLINE
  5
514
100
AcDbEntity
  8
Ech.1_5
 62
     5
  6
CONTINUOUS
370
    -3
100
AcDbPolyline
 90
        5
 70
     0
 43
0.0
 10
35169.15810192
 20
-42383.80379208
 10
35267.65419355
 20
-42383.80379208
 10
35267.65419355
 20
-42428.80379208
 10
35169.15810192
 20
-42428.80379208
 10
35169.15810192
 20
-42383.80379208
  0
LWPOLYLINE
  5
515
100
AcDbEntity
  8
Ech.1_5
 62
     7
  6
CONTINUOUS
370
    -3
100
AcDbPolyline
 90
        4
 70
     1
 43
0.0
 10
35169.15810192
 20
-42179.19458611
 10
35169.15810192
 20
-42224.19458611
 10
35267.65419355
 20
-42224.19458611
 10
35267.65419355
 20
-42179.19458611
  0
LWPOLYLINE
  5
516
100
AcDbEntity
  8
Ech.1_5
 62
   190
  6
CONTINUOUS
370
    -3
100
AcDbPolyline
 90
        4
 70
     1
 43
0.0
 10
35169.15810192
 20
-42179.19458611
 10
35169.15810192
 20
-42224.19458611
 10
35267.65419355
 20
-42224.19458611
 10
35267.65419355
 20
-42179.19458611
  0
LWPOLYLINE
  5
517
100
AcDbEntity
  8
Ech.1_5
 62
     5
  6
CONTINUOUS
370
    -3
100
AcDbPolyline
 90
        5
 70
     0
 43
0.0
 10
35169.15810192
 20
-42179.19458611
 10
35267.65419355
 20
-42179.19458611
 10
35267.65419355
 20
-42224.19458611
 10
35169.15810192
 20
-42224.19458611
 10
35169.15810192
 20
-42179.19458611
  0
LWPOLYLINE
  5
518
100
AcDbEntity
  8
Ech.1_5
 62
     5
  6
CONTINUOUS
370
    -3
100
AcDbPolyline
 90
        5
 70
     0
 43
0.0
 10
35169.15810192
 20
-42179.19458611
 10
35267.65419355
 20
-42179.19458611
 10
35267.65419355
 20
-42224.19458611
 10
35169.15810192
 20
-42224.19458611
 10
35169.15810192
 20
-42179.19458611
  0
LWPOLYLINE
  5
519
100
AcDbEntity
  8
Ech.1_5
 62
     8
  6
CONTINUOUS
370
    70
100
AcDbPolyline
 90
        3
 70
     0
 43
0.0
 10
35146.44274726
 20
-42725.86717335
 10
35164.93755607
 20
-42725.86717335
 10
35164.93755607
 20
-42687.61941251
  0
LWPOLYLINE
  5
51A
100
AcDbEntity
  8
Ech.1_5
 62
   190
  6
CONTINUOUS
370
    -3
100
AcDbPolyline
 90
        5
 70
     1
 43
0.0
 10
35268.08982235
 20
-42735.29983341
 10
35181.56080846
 20
-42735.29983341
 10
35178.08982235
 20
-42735.29983341
 10
35178.08982235
 20
-43129.51586719
 10
35268.08982235
 20
-43129.51586719
  0
LINE
  5
51B
100
AcDbEntity
  8
Ech.1_5
 62
     0
  6
CONTINUOUS
100
AcDbLine
 10
35268.08982235
 20
-42808.05197469
 30
0.0
 11
35268.08982235
 21
-43129.51586719
 31
0.0
  0
LINE
  5
51C
100
AcDbEntity
  8
Ech.1_5
 62
   190
  6
CONTINUOUS
370
    -3
100
AcDbLine
 10
35268.08982235
 20
-43129.51586719
 30
0.0
 11
35268.08982235
 21
-42808.05140344
 31
0.0
  0
LWPOLYLINE
  5
51D
100
AcDbEntity
  8
Ech.1_5
 62
     0
  6
BYBLOCK
100
AcDbPolyline
 90
        3
 70
     0
 43
0.0
 10
35174.27078746
 20
-43082.15484444
 42
1.0
 10
35176.77078746
 20
-43082.15484444
 42
1.0
 10
35174.27078746
 20
-43082.15484444
  0
LINE
  5
51E
100
AcDbEntity
  8
Ech.1_5
 62
     0
  6
BYBLOCK
100
AcDbLine
 10
35173.02078746
 20
-43082.15484444
 30
0.0
 11
35170.52078746
 21
-43082.15484444
 31
0.0
  0
LWPOLYLINE
  5
51F
100
AcDbEntity
  8
Ech.1_5
 62
   190
  6
CONTINUOUS
370
    -3
100
AcDbPolyline
 90
        4
 70
     1
 43
0.0
 10
35178.08982235
 20
-42735.29983341
 10
35169.08982235
 20
-42735.29983341
 10
35169.08982235
 20
-43129.51586719
 10
35178.08982235
 20
-43129.51586719
  0
LINE
  5
520
100
AcDbEntity
  8
Ech.1_5
 62
     7
  6
CONTINUOUS
370
    18
100
AcDbLine
 10
35169.09378243
 20
-42808.0519251
 30
0.0
 11
35169.09378243
 21
-43129.51586719
 31
0.0
  0
LWPOLYLINE
  5
521
100
AcDbEntity
  8
Ech.1_5
 62
     0
  6
BYBLOCK
100
AcDbPolyline
 90
        3
 70
     0
 43
0.0
 10
35165.84378476
 20
-42979.05755726
 42
1.0
 10
35168.34378476
 20
-42979.05755726
 42
1.0
 10
35165.84378476
 20
-42979.05755726
  0
LINE
  5
522
100
AcDbEntity
  8
Ech.1_5
 62
     0
  6
BYBLOCK
100
AcDbLine
 10
35164.59378476
 20
-42979.05755726
 30
0.0
 11
35162.09378476
 21
-42979.05755726
 31
0.0
  0
LWPOLYLINE
  5
523
100
AcDbEntity
  8
Ech.1_5
 62
     7
  6
CONTINUOUS
370
    -3
100
AcDbPolyline
 90
        4
 70
     1
 43
0.0
 10
35178.08982235
 20
-42735.29923355
 10
35178.08982235
 20
-42780.29923355
 10
35267.65419355
 20
-42780.29923355
 10
35267.65419355
 20
-42735.29923355
  0
LWPOLYLINE
  5
524
100
AcDbEntity
  8
Ech.1_5
 62
   190
  6
CONTINUOUS
370
    -3
100
AcDbPolyline
 90
        4
 70
     1
 43
0.0
 10
35178.08982235
 20
-42735.29923355
 10
35178.08982235
 20
-42780.29923355
 10
35267.65419355
 20
-42780.29923355
 10
35267.65419355
 20
-42735.29923355
  0
LWPOLYLINE
  5
525
100
AcDbEntity
  8
Ech.1_5
 62
     5
  6
CONTINUOUS
370
    -3
100
AcDbPolyline
 90
        5
 70
     0
 43
0.0
 10
35178.08982235
 20
-42735.29923355
 10
35267.65419355
 20
-42735.29923355
 10
35267.65419355
 20
-42780.29923355
 10
35178.08982235
 20
-42780.29923355
 10
35178.08982235
 20
-42735.29923355
  0
LWPOLYLINE
  5
526
100
AcDbEntity
  8
Ech.1_5
 62
     9
100
AcDbPolyline
 90
       27
 70
     0
 43
0.0
 10
35130.96320523
 20
-42964.01236764
 10
35131.08982235
 20
-42963.67789403
 10
35131.08982235
 20
-42936.29442922
 10
35138.08982235
 20
-42936.29442922
 10
35138.08982235
 20
-42945.29442922
 10
35144.08982235
 20
-42945.29442922
 10
35144.08982235
 20
-42918.29442922
 10
35140.08982235
 20
-42914.29442922
 10
35144.08982235
 20
-42910.29442922
 10
35144.08982235
 20
-42846.29442922
 10
35140.08982235
 20
-42842.29442922
 10
35144.08982235
 20
-42838.29442922
 10
35144.08982235
 20
-42803.29442922
 10
35137.08982235
 20
-42803.29442922
 10
35137.08982235
 20
-42797.29442922
 10
35134.58982235
 20
-42792.29442922
 10
35132.08982235
 20
-42797.29442922
 10
35132.08982235
 20
-42828.22336141
 10
35131.70922002
 20
-42830.13677923
 10
35125.55428845
 20
-42836.82996312
 10
35124.08982235
 20
-42840.36549703
 10
35124.08982235
 20
-42959.45224134
 10
35125.05014475
 20
-42961.0821108
 10
35129.78626561
 20
-42964.05346051
 10
35130.19826697
 20
-42964.29442922
 10
35130.51208446
 20
-42964.29442922
 10
35130.96320523
 20
-42964.01236764
  0
LWPOLYLINE
  5
527
100
AcDbEntity
  8
Ech.1_5
 62
     7
  6
CONTINUOUS
370
    50
100
AcDbPolyline
 90
        5
 70
     0
 43
0.0
 10
35167.08982235
 20
-42742.65392376
 10
35167.08982235
 20
-42767.52706186
 10
35115.56339752
 20
-42787.52706186
 10
35115.56339752
 20
-42817.52706186
 10
35117.76641086
 20
-42812.26803056
  0
LWPOLYLINE
  5
528
100
AcDbEntity
  8
Ech.1_5
 62
     9
  6
CONTINUOUS
370
    -3
100
AcDbPolyline
 90
        4
 70
     1
 43
0.0
 10
35144.08982235
 20
-42797.3929765
 10
35144.08982235
 20
-43129.51586719
 10
35169.08982235
 20
-43129.51586719
 10
35169.08982235
 20
-42797.3929765
  0
LWPOLYLINE
  5
529
100
AcDbEntity
  8
Ech.1_5
 62
     9
  6
CONTINUOUS
100
AcDbPolyline
 90
       27
 70
     0
 43
0.0
 10
35130.96320523
 20
-43109.01236764
 10
35131.08982235
 20
-43108.67789403
 10
35131.08982235
 20
-43081.29442922
 10
35138.08982235
 20
-43081.29442922
 10
35138.08982235
 20
-43090.29442922
 10
35144.08982235
 20
-43090.29442922
 10
35144.08982235
 20
-43063.29442922
 10
35140.08982235
 20
-43059.29442922
 10
35144.08982235
 20
-43055.29442922
 10
35144.08982235
 20
-42991.29442922
 10
35140.08982235
 20
-42987.29442922
 10
35144.08982235
 20
-42983.29442922
 10
35144.08982235
 20
-42948.29442922
 10
35137.08982235
 20
-42948.29442922
 10
35137.08982235
 20
-42942.29442922
 10
35134.58982235
 20
-42937.29442922
 10
35132.08982235
 20
-42942.29442922
 10
35132.08982235
 20
-42973.22336141
 10
35131.70922002
 20
-42975.13677923
 10
35125.55428845
 20
-42981.82996312
 10
35124.08982235
 20
-42985.36549703
 10
35124.08982235
 20
-43104.45224134
 10
35125.05014475
 20
-43106.0821108
 10
35129.78626561
 20
-43109.05346051
 10
35130.19826697
 20
-43109.29442922
 10
35130.51208446
 20
-43109.29442922
 10
35130.96320523
 20
-43109.01236764
  0
LWPOLYLINE
  5
52A
100
AcDbEntity
  8
Ech.1_5
 62
     9
  6
CONTINUOUS
100
AcDbPolyline
 90
       11
 70
     0
 43
0.0
 10
35142.86838438
 20
-43129.51586719
 10
35144.08982235
 20
-43128.29442922
 10
35144.08982235
 20
-43093.29442922
 10
35137.08982235
 20
-43093.29442922
 10
35137.08982235
 20
-43087.29442922
 10
35134.58982235
 20
-43082.29442922
 10
35132.08982235
 20
-43087.29442922
 10
35132.08982235
 20
-43118.22336141
 10
35131.70922002
 20
-43120.13677923
 10
35125.55428845
 20
-43126.82996312
 10
35124.44175055
 20
-43129.51586719
  0
LWPOLYLINE
  5
52B
100
AcDbEntity
  8
Ech.1_5
 62
   190
  6
CONTINUOUS
370
    -3
100
AcDbPolyline
 90
       46
 70
     0
 43
0.0
 10
35253.08984569
 20
-43129.53457885
 42
1.14028181
 10
35249.17077159
 20
-43100.05058263
 10
35196.95287819
 20
-43114.09349172
 42
-1.30322619
 10
35196.91673006
 20
-43085.11576671
 10
35249.16949642
 20
-43099.02835432
 42
1.30322619
 10
35249.13334828
 20
-43070.05062931
 10
35196.91545488
 20
-43084.0935384
 42
-1.30322619
 10
35196.87930674
 20
-43055.11581339
 10
35249.1320731
 20
-43069.02840101
 42
1.30322619
 10
35249.09592496
 20
-43040.050676
 10
35196.87803157
 20
-43054.09358509
 42
-1.30322619
 10
35196.84188343
 20
-43025.11586008
 10
35249.09464979
 20
-43039.02844769
 42
1.30322619
 10
35249.05850165
 20
-43010.05072268
 10
35196.84060825
 20
-43024.09363177
 42
-1.30322619
 10
35196.80446011
 20
-42995.11590676
 10
35249.05722648
 20
-43009.02849437
 42
1.30322619
 10
35249.02107834
 20
-42980.05076936
 10
35196.80318494
 20
-42994.09367846
 42
-1.30322619
 10
35196.7670368
 20
-42965.11595344
 10
35249.01980316
 20
-42979.02854106
 42
1.30322619
 10
35248.98365502
 20
-42950.05081605
 10
35196.76576163
 20
-42964.09372514
 42
-1.30322619
 10
35196.72961349
 20
-42935.11600013
 10
35248.98237985
 20
-42949.02858774
 42
1.30322619
 10
35248.94623171
 20
-42920.05086273
 10
35196.72833831
 20
-42934.09377182
 42
-1.30322619
 10
35196.69219017
 20
-42905.11604681
 10
35248.94495653
 20
-42919.02863442
 42
1.30322619
 10
35248.9088084
 20
-42890.05090941
 10
35196.690915
 20
-42904.09381851
 42
-1.30322619
 10
35196.65476686
 20
-42875.11609349
 10
35248.90753322
 20
-42889.02868111
 42
1.30322619
 10
35248.87138508
 20
-42860.0509561
 10
35196.65349168
 20
-42874.09386519
 42
-1.30322619
 10
35196.61734355
 20
-42845.11614018
 10
35248.87010991
 20
-42859.02872779
 42
1.30322619
 10
35248.83396177
 20
-42830.05100278
 10
35196.61606837
 20
-42844.09391187
 42
-1.30322619
 10
35196.57992023
 20
-42815.11618686
 10
35248.83268659
 20
-42829.02877448
 42
1.30322619
 10
35248.79653845
 20
-42800.05104946
 10
35196.57864506
 20
-42814.09395856
 42
-1.30322619
 10
35196.54249692
 20
-42785.11623355
 10
35248.79526328
 20
-42799.02882116
 42
0.58510577
 10
35267.0491734
 20
-42780.29998828
  0
LWPOLYLINE
  5
52C
100
AcDbEntity
  8
Ech.1_5
 62
   190
  6
CONTINUOUS
370
    -3
100
AcDbPolyline
 90
       32
 70
     0
 43
0.0
 10
35397.48752689
 20
-42545.86717335
 42
1.14028181
 10
35391.23271921
 20
-42498.35730299
 10
35307.07566789
 20
-42520.87704371
 42
-1.30322619
 10
35307.07566789
 20
-42474.19063632
 10
35391.23271921
 20
-42496.71037705
 42
1.30322619
 10
35391.23271921
 20
-42450.02396966
 10
35307.07566789
 20
-42472.54371038
 42
-1.30322619
 10
35307.07566789
 20
-42425.85730299
 10
35391.23271921
 20
-42448.37704371
 42
1.30322619
 10
35391.23271921
 20
-42401.69063632
 10
35307.07566789
 20
-42424.21037705
 42
-1.30322619
 10
35307.07566789
 20
-42377.52396966
 10
35391.23271921
 20
-42400.04371038
 42
1.30322619
 10
35391.23271921
 20
-42353.35730299
 10
35307.07566789
 20
-42375.87704371
 42
-1.30322619
 10
35307.07566789
 20
-42329.19063632
 10
35391.23271921
 20
-42351.71037705
 42
1.30322619
 10
35391.23271921
 20
-42305.02396966
 10
35307.07566789
 20
-42327.54371038
 42
-1.30322619
 10
35307.07566789
 20
-42280.85730299
 10
35391.23271921
 20
-42303.37704371
 42
1.30322619
 10
35391.23271921
 20
-42256.69063632
 10
35307.07566789
 20
-42279.21037705
 42
-1.30322619
 10
35307.07566789
 20
-42232.52396966
 10
35391.23271921
 20
-42255.04371038
 42
1.30322619
 10
35391.23271921
 20
-42208.35730299
 10
35307.07566789
 20
-42230.87704371
 42
-1.30322619
 10
35307.07566789
 20
-42184.19063632
 10
35391.23271921
 20
-42206.71037705
 42
1.30322619
 10
35391.23271921
 20
-42160.02396966
 10
35307.07566789
 20
-42182.54371038
 42
-0.77787678
 10
35284.18991967
 20
-42141.66655122
  0
LWPOLYLINE
  5
52D
102
{ACAD_REACTORS
330
52E
102
}
100
AcDbEntity
  8
Ech.1_5
 62
     7
  6
CONTINUOUS
370
     5
100
AcDbPolyline
 90
        4
 70
     1
 43
0.0
 10
35169.15810192
 20
-42735.29983345
 10
35194.982633
 20
-42735.29983345
 10
35194.982633
 20
-42725.86717335
 10
35169.15810192
 20
-42725.86717335
  0
HATCH
  5
52E
100
AcDbEntity
  8
Ech.1_5
 62
     2
  6
CONTINUOUS
100
AcDbHatch
 10
0.0
 20
0.0
 30
0.0
210
0.0
220
0.0
230
1.0
  2
SOLID
 70
     1
 71
     1
 91
        1
 92
        7
 72
     0
 73
     1
 93
        4
 10
35169.15810192
 20
-42735.29983345
 10
35194.982633
 20
-42735.29983345
 10
35194.982633
 20
-42725.86717335
 10
35169.15810192
 20
-42725.86717335
 97
        1
330
52D
 75
     0
 76
     2
 47
0.775229
 98
        1
 10
0.0
 20
0.0
  0
HATCH
  5
52F
100
AcDbEntity
  8
Ech.1_5
 62
     7
100
AcDbHatch
 10
0.0
 20
0.0
 30
0.0
210
0.0
220
0.0
230
1.0
  2
ANSI37
 70
     0
 71
     0
 91
        1
 92
        7
 72
     0
 73
     1
 93
        4
 10
35169.15810192
 20
-42735.29983345
 10
35194.982633
 20
-42735.29983345
 10
35194.982633
 20
-42725.86717335
 10
35169.15810192
 20
-42725.86717335
 97
        0
 75
     0
 76
     2
 52
0.0
 41
1.87498831
 77
     0
 78
     2
 53
45.0
 43
0.0
 44
0.0
 45
4.20946876
 46
-4.20946876
 79
     0
 53
-45.0
 43
0.0
 44
0.0
 45
4.20946876
 46
4.20946876
 79
     0
 47
0.775229
 98
        1
 10
0.0
 20
0.0
  0
LWPOLYLINE
  5
530
100
AcDbEntity
  8
Ech.1_5
 62
   190
  6
CONTINUOUS
370
    -3
100
AcDbPolyline
 90
        4
 70
     1
 43
0.0
 10
35194.982633
 20
-42735.29983341
 10
35267.65419355
 20
-42735.29894983
 10
35267.65419355
 20
-42725.86628977
 10
35194.982633
 20
-42725.86717335
  0
LWPOLYLINE
  5
531
100
AcDbEntity
  8
Ech.1_5
 62
   190
  6
CONTINUOUS
370
    -3
100
AcDbPolyline
 90
        4
 70
     0
 43
0.0
 10
35267.65419355
 20
-42725.86628977
 10
35194.982633
 20
-42735.29983341
 10
35194.982633
 20
-42725.86717335
 10
35267.65419355
 20
-42735.29894983
  0
LWPOLYLINE
  5
532
100
AcDbEntity
  8
Ech.1_5
 62
   150
  6
CADWORK_22
370
    35
100
AcDbPolyline
 90
        3
 70
     0
 43
0.0
 38
2500.0
 10
35167.65419355
 20
-42141.6667435
 10
35167.65419355
 20
-42725.86717335
 10
35210.31824809
 20
-42725.86717335
  0
LWPOLYLINE
  5
533
100
AcDbEntity
  8
Ech.1_5
 62
   150
  6
CADWORK_22
370
    35
100
AcDbPolyline
 90
        3
 70
     0
 43
0.0
 38
2500.0
 10
35167.58982235
 20
-43129.51586719
 10
35167.58982235
 20
-42735.29983341
 10
35234.17412045
 20
-42735.29983341
  0
LWPOLYLINE
  5
534
100
AcDbEntity
  8
Ech.1_5
 62
     1
  6
CADWORK_22
370
    35
100
AcDbPolyline
 90
        3
 70
     0
 43
0.0
 10
35269.58982235
 20
-43129.51586719
 10
35269.58982235
 20
-42734.9877035
 10
35234.17412045
 20
-42734.9877035
  0
LWPOLYLINE
  5
535
100
AcDbEntity
  8
Ech.1_5
 62
   190
  6
CONTINUOUS
370
    -3
100
AcDbPolyline
 90
        4
 70
     1
 43
0.0
 10
35879.55618931
 20
-42853.86701085
 10
35879.55618931
 20
-42840.86701085
 10
35481.65419355
 20
-42840.86701085
 10
35481.65419355
 20
-42853.86701085
  0
LWPOLYLINE
  5
536
102
{ACAD_REACTORS
330
537
102
}
100
AcDbEntity
  8
Ech.1_5
 62
     7
  6
CONTINUOUS
370
    -3
100
AcDbPolyline
 90
        4
 70
     1
 43
0.0
 10
35481.65419355
 20
-42840.86717335
 10
35481.65419355
 20
-42853.86717335
 10
35879.55618931
 20
-42853.86710593
 10
35879.55618931
 20
-42840.86710593
  0
HATCH
  5
537
100
AcDbEntity
  8
Ech.1_5
 62
   190
  6
CONTINUOUS
100
AcDbHatch
 10
0.0
 20
0.0
 30
0.0
210
0.0
220
0.0
230
1.0
  2
DOTS2
 70
     0
 71
     1
 91
        1
 92
        7
 72
     0
 73
     1
 93
        4
 10
35481.65419355
 20
-42840.86717335
 10
35481.65419355
 20
-42853.86717335
 10
35879.55618931
 20
-42853.86710593
 10
35879.55618931
 20
-42840.86710593
 97
        1
330
536
 75
     0
 76
     2
 52
0.0
 41
4.72440952
 77
     0
 78
     1
 53
0.0
 43
0.0
 44
0.0
 45
3.75
 46
3.535
 79
     2
 49
0.0
 49
-3.535
 47
0.775229
 98
        1
 10
0.0
 20
0.0
  0
LWPOLYLINE
  5
538
100
AcDbEntity
  8
Ech.1_5
 62
   190
  6
CONTINUOUS
370
    -3
100
AcDbPolyline
 90
        4
 70
     1
 43
0.0
 10
35879.55618931
 20
-42840.86717335
 10
35879.55618931
 20
-42740.86717335
 10
35481.65419355
 20
-42740.86717335
 10
35481.65419355
 20
-42840.86717335
  0
LWPOLYLINE
  5
539
100
AcDbEntity
  8
Ech.1_5
 62
     3
370
    70
100
AcDbPolyline
 90
        4
 70
     0
 43
0.0
 10
35424.80607795
 20
-42721.09157876
 10
35424.80607795
 20
-42708.10244534
 10
35430.48669091
 20
-42704.1677132
 10
35430.48669091
 20
-42690.6892832
  0
LWPOLYLINE
  5
53A
100
AcDbEntity
  8
Ech.1_5
370
    50
100
AcDbPolyline
 90
        3
 70
     0
 43
0.0
 10
35481.84083385
 20
-42817.55106506
 10
35481.84083385
 20
-42840.62958197
 10
35512.34136358
 20
-42840.62958197
  0
LINE
  5
53B
100
AcDbEntity
  8
Ech.1_5
 62
     7
  6
CONTINUOUS
370
    -3
100
AcDbLine
 10
35555.0607748
 20
-42688.18091993
 30
0.0
 11
35555.0607748
 21
-42840.86717335
 31
0.0
  0
LINE
  5
53C
100
AcDbEntity
  8
Ech.1_5
 62
     7
  6
CONTINUOUS
370
    -3
100
AcDbLine
 10
35879.55618931
 20
-42825.94752761
 30
0.0
 11
35486.38436855
 21
-42825.94752761
 31
0.0
  0
LINE
  5
53D
100
AcDbEntity
  8
Ech.1_5
 62
     7
  6
CONTINUOUS
370
    -3
100
AcDbLine
 10
35852.38927906
 20
-42688.18091993
 30
0.0
 11
35852.38927906
 21
-42840.86717335
 31
0.0
  0
LWPOLYLINE
  5
53E
100
AcDbEntity
  8
Ech.1_5
 62
   190
  6
CONTINUOUS
370
    -3
100
AcDbPolyline
 90
        6
 70
     0
 43
0.0
 10
35879.55553578
 20
-42402.86717335
 10
35879.5570116
 20
-42587.97467278
 10
35897.53436
 20
-42604.46017594
 10
35861.57865999
 20
-42590.35023592
 10
35879.5570116
 20
-42606.83659
 10
35879.55618931
 20
-42874.53355027
  0
LWPOLYLINE
  5
53F
100
AcDbEntity
  8
Ech.1_5
 62
   190
  6
CONTINUOUS
370
    -3
100
AcDbPolyline
 90
       46
 70
     0
 43
0.0
 10
35879.55618931
 20
-42757.53381293
 42
1.14028181
 10
35846.79081472
 20
-42761.84746639
 10
35862.32164515
 20
-42819.88671781
 42
-1.30322619
 10
35830.12417514
 20
-42819.88671781
 10
35845.65500557
 20
-42761.84746639
 42
1.30322619
 10
35813.45753555
 20
-42761.84746639
 10
35828.98836599
 20
-42819.88671781
 42
-1.30322619
 10
35796.79089597
 20
-42819.88671781
 10
35812.3217264
 20
-42761.84746639
 42
1.30322619
 10
35780.12425639
 20
-42761.84746639
 10
35795.65508682
 20
-42819.88671781
 42
-1.30322619
 10
35763.45761681
 20
-42819.88671781
 10
35778.98844724
 20
-42761.84746639
 42
1.30322619
 10
35746.79097722
 20
-42761.84746639
 10
35762.32180766
 20
-42819.88671781
 42
-1.30322619
 10
35730.12433764
 20
-42819.88671781
 10
35745.65516807
 20
-42761.84746639
 42
1.30322619
 10
35713.45769806
 20
-42761.84746639
 10
35728.98852849
 20
-42819.88671781
 42
-1.30322619
 10
35696.79105847
 20
-42819.88671781
 10
35712.32188891
 20
-42761.84746639
 42
1.30322619
 10
35680.12441889
 20
-42761.84746639
 10
35695.65524932
 20
-42819.88671781
 42
-1.30322619
 10
35663.45777931
 20
-42819.88671781
 10
35678.98860974
 20
-42761.84746639
 42
1.30322619
 10
35646.79113972
 20
-42761.84746639
 10
35662.32197016
 20
-42819.88671781
 42
-1.30322619
 10
35630.12450014
 20
-42819.88671781
 10
35645.65533057
 20
-42761.84746639
 42
1.30322619
 10
35613.45786056
 20
-42761.84746639
 10
35628.98869099
 20
-42819.88671781
 42
-1.30322619
 10
35596.79122097
 20
-42819.88671781
 10
35612.32205141
 20
-42761.84746639
 42
1.30322619
 10
35580.12458139
 20
-42761.84746639
 10
35595.65541182
 20
-42819.88671781
 42
-1.30322619
 10
35563.45794181
 20
-42819.88671781
 10
35578.98877224
 20
-42761.84746639
 42
1.30322619
 10
35546.79130222
 20
-42761.84746639
 10
35562.32213266
 20
-42819.88671781
 42
-1.30322619
 10
35530.12466264
 20
-42819.88671781
 10
35545.65549308
 20
-42761.84746639
 42
1.30322619
 10
35513.45802306
 20
-42761.84746639
 10
35528.98885349
 20
-42819.88671781
 42
-1.30322619
 10
35496.79138348
 20
-42819.88671781
 10
35512.32221391
 20
-42761.84746639
 42
0.88430204
 10
35481.65419355
 20
-42749.43981519
  0
LWPOLYLINE
  5
540
100
AcDbEntity
  8
Ech.1_5
 62
   190
  6
CONTINUOUS
370
    -3
100
AcDbPolyline
 90
        9
 70
     1
 43
0.0
 10
35879.55657739
 20
-42597.40508008
 10
35861.57904805
 20
-42590.35023591
 10
35879.55657739
 20
-42606.83583596
 10
35879.55657739
 20
-42675.86715208
 10
35466.65419355
 20
-42675.86717335
 10
35466.65419355
 20
-42475.86717335
 10
35879.55657739
 20
-42475.86717335
 10
35879.55657739
 20
-42587.97467278
 10
35897.53474808
 20
-42604.46017594
  0
LWPOLYLINE
  5
541
100
AcDbEntity
  8
Ech.1_5
 62
   190
  6
CONTINUOUS
370
    -3
100
AcDbPolyline
 90
       24
 70
     0
 43
0.0
 10
35879.55657739
 20
-42509.20050668
 42
1.14028181
 10
35814.02572171
 20
-42517.82782761
 10
35845.08743306
 20
-42633.90651909
 42
-1.30322619
 10
35780.69238838
 20
-42633.90651909
 10
35811.75409972
 20
-42517.82782761
 42
1.30322619
 10
35747.35905505
 20
-42517.82782761
 10
35778.42076639
 20
-42633.90651909
 42
-1.30322619
 10
35714.02572171
 20
-42633.90651909
 10
35745.08743306
 20
-42517.82782761
 42
1.30322619
 10
35680.69238838
 20
-42517.82782761
 10
35711.75409972
 20
-42633.90651909
 42
-1.30322619
 10
35647.35905505
 20
-42633.90651909
 10
35678.42076639
 20
-42517.82782761
 42
1.30322619
 10
35614.02572171
 20
-42517.82782761
 10
35645.08743306
 20
-42633.90651909
 42
-1.30322619
 10
35580.69238838
 20
-42633.90651909
 10
35611.75409972
 20
-42517.82782761
 42
1.30322619
 10
35547.35905505
 20
-42517.82782761
 10
35578.42076639
 20
-42633.90651909
 42
-1.30322619
 10
35514.02572171
 20
-42633.90651909
 10
35545.08743306
 20
-42517.82782761
 42
1.30322619
 10
35480.69238838
 20
-42517.82782761
 10
35511.75409972
 20
-42633.90651909
 42
-0.62348958
 10
35466.65419355
 20
-42673.26882989
  0
LWPOLYLINE
  5
542
100
AcDbEntity
  8
Ech.1_5
 62
     7
  6
CONTINUOUS
370
    -3
100
AcDbPolyline
 90
        7
 70
     0
 43
0.0
 10
35466.65419355
 20
-42455.86717335
 10
35516.65419355
 20
-42455.86717335
 10
35516.65419355
 20
-42605.86717335
 10
35566.65419355
 20
-42655.86717335
 10
35566.65419355
 20
-42677.86717335
 10
35466.65419355
 20
-42677.86717335
 10
35466.65419355
 20
-42455.86717335
  0
CIRCLE
  5
543
100
AcDbEntity
  8
Ech.1_5
 62
     7
  6
CONTINUOUS
370
    -3
100
AcDbCircle
 10
35496.65419355
 20
-42485.86717335
 30
0.0
 40
5.0
  0
CIRCLE
  5
544
100
AcDbEntity
  8
Ech.1_5
 62
     7
  6
CONTINUOUS
370
    -3
100
AcDbCircle
 10
35496.65419355
 20
-42535.86717335
 30
0.0
 40
5.0
  0
CIRCLE
  5
545
100
AcDbEntity
  8
Ech.1_5
 62
     7
  6
CONTINUOUS
370
    -3
100
AcDbCircle
 10
35496.65419355
 20
-42585.86717335
 30
0.0
 40
5.0
  0
CIRCLE
  5
546
100
AcDbEntity
  8
Ech.1_5
 62
     7
  6
CONTINUOUS
370
    -3
100
AcDbCircle
 10
35496.65419355
 20
-42635.86717335
 30
0.0
 40
5.0
  0
LINE
  5
547
100
AcDbEntity
  8
Ech.1_5
 62
     7
  6
CONTINUOUS
370
    -3
100
AcDbLine
 10
35468.65419355
 20
-42455.86717335
 30
0.0
 11
35468.65419355
 21
-42677.86717335
 31
0.0
  0
LWPOLYLINE
  5
548
100
AcDbEntity
  8
Ech.1_5
 62
   190
  6
CONTINUOUS
370
    -3
100
AcDbPolyline
 90
        4
 70
     1
 43
0.0
 10
35511.89620749
 20
-42735.86717335
 10
35551.89620749
 20
-42735.86717335
 10
35551.89620749
 20
-42675.86717335
 10
35511.89620749
 20
-42675.86717335
  0
LWPOLYLINE
  5
549
100
AcDbEntity
  8
Ech.1_5
 62
   190
370
    18
100
AcDbPolyline
 90
        4
 70
     0
 43
0.0
 10
35511.89620749
 20
-42675.86717335
 10
35551.89620749
 20
-42735.86717335
 10
35551.89620749
 20
-42675.86717335
 10
35511.89620749
 20
-42735.86717335
  0
LWPOLYLINE
  5
54A
100
AcDbEntity
  8
Ech.1_5
 62
     5
100
AcDbPolyline
 90
        5
 70
     0
 43
0.0
 10
35511.89620749
 20
-42735.86717335
 10
35551.89620749
 20
-42735.86717335
 10
35551.89620749
 20
-42675.86717335
 10
35511.89620749
 20
-42675.86717335
 10
35511.89620749
 20
-42735.86717335
  0
LWPOLYLINE
  5
54B
100
AcDbEntity
  8
Ech.1_5
 62
   190
  6
CONTINUOUS
370
    -3
100
AcDbPolyline
 90
        4
 70
     1
 43
0.0
 10
35809.22471175
 20
-42735.86717335
 10
35849.22471175
 20
-42735.86717335
 10
35849.22471175
 20
-42675.86717335
 10
35809.22471175
 20
-42675.86717335
  0
LWPOLYLINE
  5
54C
100
AcDbEntity
  8
Ech.1_5
 62
   190
370
    18
100
AcDbPolyline
 90
        4
 70
     0
 43
0.0
 10
35809.22471175
 20
-42675.86717335
 10
35849.22471175
 20
-42735.86717335
 10
35849.22471175
 20
-42675.86717335
 10
35809.22471175
 20
-42735.86717335
  0
LWPOLYLINE
  5
54D
100
AcDbEntity
  8
Ech.1_5
 62
     5
100
AcDbPolyline
 90
        5
 70
     0
 43
0.0
 10
35809.22471175
 20
-42735.86717335
 10
35849.22471175
 20
-42735.86717335
 10
35849.22471175
 20
-42675.86717335
 10
35809.22471175
 20
-42675.86717335
 10
35809.22471175
 20
-42735.86717335
  0
LWPOLYLINE
  5
54E
100
AcDbEntity
  8
Ech.1_5
 62
     1
  6
CADWORK_22
 48
-5.0
370
    35
100
AcDbPolyline
 90
        3
 70
     0
 43
0.0
 10
35879.55618931
 20
-42675.86717335
 10
35425.59574569
 20
-42675.86717335
 10
35425.59574569
 20
-42701.86169771
  0
LWPOLYLINE
  5
54F
100
AcDbEntity
  8
Ech.1_5
 62
     1
  6
CADWORK_22
 48
-5.0
370
    35
100
AcDbPolyline
 90
        3
 70
     0
 43
0.0
 10
35879.55598082
 20
-42455.86717335
 10
35425.78552876
 20
-42455.98946884
 10
35425.78225396
 20
-42391.25057579
  0
LWPOLYLINE
  5
550
100
AcDbEntity
  8
Ech.1_5
 62
     3
370
    70
100
AcDbPolyline
 90
        4
 70
     0
 43
0.0
 10
35424.48558078
 20
-42373.49605927
 10
35424.48558078
 20
-42386.48519269
 10
35430.16619374
 20
-42390.41992483
 10
35430.16619374
 20
-42403.89835483
  0
LWPOLYLINE
  5
551
100
AcDbEntity
  8
Ech.1_5
 62
     9
  6
CONTINUOUS
370
    -3
100
AcDbPolyline
 90
        6
 70
     0
 43
0.0
 10
35091.65185559
 20
-43129.51586719
 10
35369.02834535
 20
-43129.51586719
 10
35385.5138485
 20
-43111.53851886
 10
35371.40390849
 20
-43147.49421878
 10
35387.89026257
 20
-43129.51586719
 10
35502.64644593
 20
-43129.51586719
  0
LWPOLYLINE
  5
552
100
AcDbEntity
  8
Ech.1_5
 62
   190
100
AcDbPolyline
 90
        4
 70
     1
 43
0.0
 10
35742.4408779
 20
-43046.4183302
 10
35876.86965688
 20
-43046.4183302
 10
35876.86965688
 20
-43103.14128901
 10
35742.4408779
 20
-43103.14128901
  0
HATCH
  5
553
100
AcDbEntity
  8
Ech.1_5
 62
   190
100
AcDbHatch
 10
0.0
 20
0.0
 30
0.0
210
0.0
220
0.0
230
1.0
  2
SOLID
 70
     1
 71
     0
 91
        1
 92
        7
 72
     0
 73
     1
 93
        4
 10
35760.72092368
 20
-43080.07514133
 10
35810.72092368
 20
-43080.07514133
 10
35810.72092368
 20
-43072.66000379
 10
35760.72092368
 20
-43072.66000379
 97
        0
 75
     0
 76
     2
 47
0.775229
 98
        1
 10
0.0
 20
0.0
  0
LWPOLYLINE
  5
554
100
AcDbEntity
  8
Ech.1_5
 62
   190
100
AcDbPolyline
 90
        5
 70
     0
 43
0.0
 10
35760.72092368
 20
-43080.07514133
 10
35810.72092368
 20
-43080.07514133
 10
35810.72092368
 20
-43072.66000379
 10
35760.72092368
 20
-43072.66000379
 10
35760.72092368
 20
-43080.07514133
  0
LWPOLYLINE
  5
555
100
AcDbEntity
  8
Ech.1_5
 62
   190
100
AcDbPolyline
 90
        5
 70
     0
 43
0.0
 10
35810.72092368
 20
-43080.07514133
 10
35860.72092368
 20
-43080.07514133
 10
35860.72092368
 20
-43072.66000379
 10
35810.72092368
 20
-43072.66000379
 10
35810.72092368
 20
-43080.07514133
  0
TEXT
  5
556
100
AcDbEntity
  8
Ech.1_5
 62
   190
100
AcDbText
 10
35772.01521631
 20
-43063.07400071
 30
0.0
 40
8.00000012
  1
Echelle en mm
  7
ARIAL
 50
0.0
 41
1.0
 51
0.0
100
AcDbText
  0
TEXT
  5
557
100
AcDbEntity
  8
Ech.1_5
 62
   190
100
AcDbText
 10
35758.03463156
 20
-43091.28383624
 30
0.0
 40
8.00000012
  1
0
  7
ARIAL
 50
0.0
 41
1.0
 51
0.0
100
AcDbText
  0
TEXT
  5
558
100
AcDbEntity
  8
Ech.1_5
 62
   190
100
AcDbText
 10
35844.63168945
 20
-43091.28383624
 30
0.0
 40
8.00000012
  1
100
  7
ARIAL
 50
0.0
 41
1.0
 51
0.0
100
AcDbText
  0
TEXT
  5
559
100
AcDbEntity
  8
Ech.1_5
 62
   190
100
AcDbText
 10
35805.89125788
 20
-43091.28383624
 30
0.0
 40
8.00000012
  1
50
  7
ARIAL
 50
0.0
 41
1.0
 51
0.0
100
AcDbText
  0
INSERT
  5
55A
100
AcDbEntity
  8
Ech.1_5
 62
     0
370
    -3
100
AcDbBlockReference
  2
*D5
 10
0.0
 20
0.0
 30
0.0
  0
ENDSEC
  0
SECTION
  2
OBJECTS
  0
DICTIONARY
  5
1
100
AcDbDictionary
  3
ACAD_GROUP
350
2
  3
ACAD_MLINESTYLE
350
3
  0
DICTIONARY
  5
2
102
{CDWK_REACTORS
330
1
102
}
100
AcDbDictionary
  0
DICTIONARY
  5
3
102
{CDWK_REACTORS
330
1
102
}
100
AcDbDictionary
  3
STANDARD
350
4
  0
MLINESTYLE
  5
4
102
{CDWK_REACTORS
330
3
102
}
100
AcDbMlineStyle
  2
STANDARD
 70
     0
  3

 62
     0
 51
90.0
 52
90.0
 71
     2
 49
0.5
 62
   256
  6
BYLAYER
 49
-0.5
 62
   256
  6
BYLAYER
  0
ENDSEC
  0
EOF
