  0
SECTION
  2
HEADER
  9
$ACADVER
  1
AC1014
  9
$DWGCODEPAGE
  3
ANSI_1252
  9
$INSBASE
 10
0.0
 20
0.0
 30
0.0
  9
$EXTMIN
 10
8298.84597889
 20
-39288.88717453
  9
$EXTMAX
 10
35914.26651495
 20
-5997.09001988
  9
$LIMMIN
 10
8298.84597889
 20
-39288.88717453
  9
$LIMMAX
 10
35914.26651495
 20
-5997.09001988
  9
$ORTHOMODE
 70
     0
  9
$REGENMODE
 70
     1
  9
$FILLMODE
 70
     1
  9
$QTEXTMODE
 70
     0
  9
$MIRRTEXT
 70
     1
  9
$DRAGMODE
 70
     2
  9
$LTSCALE
 40
5.0
  9
$OSMODE
 70
     0
  9
$ATTMODE
 70
     1
  9
$TEXTSIZE
 40
3.5
  9
$TRACEWID
 40
1.0
  9
$TEXTSTYLE
  7
STANDARD
  9
$CLAYER
  8
0
  9
$CELTYPE
  6
BYLAYER
  9
$CECOLOR
 62
   256
  9
$DIMSCALE
 40
1.0
  9
$DIMASZ
 40
2.0
  9
$DIMEXO
 40
5.0
  9
$DIMDLI
 40
10.0
  9
$DIMRND
 40
0.0
  9
$DIMDLE
 40
2.0
  9
$DIMEXE
 40
2.0
  9
$DIMTP
 40
0.0
  9
$DIMTM
 40
0.0
  9
$DIMTXT
 40
2.5
  9
$DIMCEN
 40
1.5
  9
$DIMTSZ
 40
0.0
  9
$DIMTOL
 70
     0
  9
$DIMLIM
 70
     0
  9
$DIMTIH
 70
     1
  9
$DIMTOH
 70
     0
  9
$DIMSE1
 70
     0
  9
$DIMSE2
 70
     0
  9
$DIMTAD
 70
     1
  9
$DIMZIN
 70
     8
  9
$DIMBLK
  1

  9
$DIMASO
 70
     1
  9
$DIMSHO
 70
     1
  9
$DIMPOST
  1

  9
$DIMAPOST
  1

  9
$DIMALT
 70
     0
  9
$DIMALTD
 70
     2
  9
$DIMALTF
 40
25.4
  9
$DIMLFAC
 40
1.0
  9
$DIMTOFL
 70
     0
  9
$DIMTVP
 40
0.0
  9
$DIMTIX
 70
     0
  9
$DIMSOXD
 70
     0
  9
$DIMSAH
 70
     0
  9
$DIMBLK1
  1

  9
$DIMBLK2
  1

  9
$DIMSTYLE
  2
*UNNAMED
  9
$DIMCLRD
 70
   190
  9
$DIMCLRE
 70
   190
  9
$DIMCLRT
 70
   190
  9
$DIMTFAC
 40
1.0
  9
$DIMGAP
 40
0.09
  9
$DIMUNIT
 70
     2
  9
$LUNITS
 70
     2
  9
$LUPREC
 70
     6
  9
$AXISMODE
 70
     0
  9
$AXISUNIT
 10
0.0
 20
0.0
  9
$SKETCHINC
 40
0.1
  9
$FILLETRAD
 40
0.0
  9
$AUNITS
 70
     0
  9
$AUPREC
 70
     0
  9
$MENU
  1
ACAD
  9
$ELEVATION
 40
0.0
  9
$PELEVATION
 40
0.0
  9
$THICKNESS
 40
0.0
  9
$LIMCHECK
 70
     0
  9
$BLIPMODE
 70
     1
  9
$CHAMFERA
 40
0.0
  9
$CHAMFERB
 40
0.0
  9
$SKPOLY
 70
     1
  9
$TDCREATE
 40
2457811.0000000000
  9
$TDUPDATE
 40
2457811.0000000000
  9
$TDINDWG
 40
0.0
  9
$TDUSRTIMER
 40
0.0
  9
$USRTIMER
 70
     1
  9
$ANGBASE
 50
0.0
  9
$ANGDIR
 70
     0
  9
$PDMODE
 70
     0
  9
$PDSIZE
 40
0.0
  9
$PLINEWID
 40
0.0
  9
$COORDS
 70
     2
  9
$SPLFRAME
 70
     0
  9
$SPLINETYPE
 70
     6
  9
$SPLINESEGS
 70
     8
  9
$ATTDIA
 70
     1
  9
$ATTREQ
 70
     1
  9
$HANDLING
 70
     1
  9
$HANDSEED
  5
     559
  9
$SURFTAB1
 70
     6
  9
$SURFTAB2
 70
     6
  9
$SURFTYPE
 70
     6
  9
$SURFU
 70
     6
  9
$SURFV
 70
     6
  9
$UCSNAME
  2

  9
$UCSORG
 10
0.0
 20
0.0
 30
0.0
  9
$UCSXDIR
 10
1.0
 20
0.0
 30
0.0
  9
$UCSYDIR
 10
0.0
 20
1.0
 30
0.0
  9
$PUCSNAME
  2

  9
$PUCSORG
 10
0.0
 20
0.0
 30
0.0
  9
$PUCSXDIR
 10
1.0
 20
0.0
 30
0.0
  9
$PUCSYDIR
 10
0.0
 20
1.0
 30
0.0
  9
$USERI1
 70
     0
  9
$USERI2
 70
     0
  9
$USERI3
 70
     0
  9
$USERI4
 70
     0
  9
$USERI5
 70
     0
  9
$USERR1
 40
0.0
  9
$USERR2
 40
0.0
  9
$USERR3
 40
0.0
  9
$USERR4
 40
0.0
  9
$USERR5
 40
0.0
  9
$WORLDVIEW
 70
     1
  9
$SHADEDGE
 70
     3
  9
$SHADEDIF
 70
    70
  9
$TILEMODE
 70
     1
  9
$MAXACTVP
 70
    16
  9
$PINSBASE
 10
0.0
 20
0.0
 30
0.0
  9
$PLIMCHECK
 70
     0
  9
$PEXTMIN
 10
1.0000000000000E+20
 20
1.0000000000000E+20
 30
1.0000000000000E+20
  9
$PEXTMAX
 10
-1.0000000000000E+20
 20
-1.0000000000000E+20
 30
-1.0000000000000E+20
  9
$PLIMMIN
 10
0.0
 20
0.0
  9
$UNITMODE
 70
     0
  9
$VISRETAIN
 70
     0
  9
$MEASUREMENT
 70
     1
  0
ENDSEC
  0
SECTION
  2
TABLES
  0
TABLE
  2
VPORT
  5
36E
100
AcDbSymbolTable
 70
     1
  0
ENDTAB
  0
TABLE
  2
STYLE
  5
36F
100
AcDbSymbolTable
 70
     3
  0
STYLE
  5
370
100
AcDbSymbolTableRecord
100
AcDbTextStyleTableRecord
  2
STANDARD
 70
     0
 40
0.0
 41
1.0
 50
0.0
 71
     0
 42
3.5
  3
MONOTXT
  4

  0
STYLE
  5
371
100
AcDbSymbolTableRecord
100
AcDbTextStyleTableRecord
  2
SYMAP
 70
     0
 40
0.0
 41
1.0
 50
0.0
 71
     0
 42
3.5
  3
SYMAP
  4

  0
STYLE
  5
372
100
AcDbSymbolTableRecord
100
AcDbTextStyleTableRecord
  2
CADWORK1
 70
     0
 40
0.0
 41
1.0
 50
0.0
 71
     0
 42
3.5
  3
MONOTXT
  4

  0
STYLE
  5
373
100
AcDbSymbolTableRecord
100
AcDbTextStyleTableRecord
  2
MONOTXT
 70
     0
 40
0.0
 41
1.0
 50
0.0
 71
     0
 42
3.5
  3
MONOTXT
  4

  0
STYLE
  5
374
100
AcDbSymbolTableRecord
100
AcDbTextStyleTableRecord
  2
ARIAL
 70
     0
 40
0.0
 41
1.0
 50
0.0
 71
     0
 42
3.5
  3

  4

1001
ACAD
1000
Arial
1071
        0
  0
ENDTAB
  0
TABLE
  2
LTYPE
  5
375
100
AcDbSymbolTable
 70
    13
  0
LTYPE
  5
376
100
AcDbSymbolTableRecord
100
AcDbLinetypeTableRecord
  2
BYBLOCK
 70
    64
  3

 72
    65
 73
     0
 40
0.0
  0
LTYPE
  5
377
100
AcDbSymbolTableRecord
100
AcDbLinetypeTableRecord
  2
BYLAYER
 70
    64
  3

 72
    65
 73
     0
 40
0.0
  0
LTYPE
  5
378
100
AcDbSymbolTableRecord
100
AcDbLinetypeTableRecord
  2
CONTINUOUS
 70
    64
  3
Solid line
 72
    65
 73
     0
 40
0.0
  0
LTYPE
  5
379
100
AcDbSymbolTableRecord
100
AcDbLinetypeTableRecord
  2
DOT2
 70
    64
  3
...............................................
 72
    65
 73
     2
 40
1.25
 49
0.0
 74
     0
 49
-1.25
 74
     0
  0
LTYPE
  5
37A
100
AcDbSymbolTableRecord
100
AcDbLinetypeTableRecord
  2
DASHDOT
 70
    64
  3
 __ . __ . __ . __ . __ . __ . __ . __ . __ . __
 72
    65
 73
     4
 40
10.0
 49
5.0
 74
     0
 49
-2.5
 74
     0
 49
0.0
 74
     0
 49
-2.5
 74
     0
  0
LTYPE
  5
37B
100
AcDbSymbolTableRecord
100
AcDbLinetypeTableRecord
  2
CENTER
 70
    64
  3
 ____ _ ____ _ ____ _ ____ _ ____ _ ____ _ ____
 72
    65
 73
     4
 40
20.0
 49
12.5
 74
     0
 49
-2.5
 74
     0
 49
2.5
 74
     0
 49
-2.5
 74
     0
  0
LTYPE
  5
37C
100
AcDbSymbolTableRecord
100
AcDbLinetypeTableRecord
  2
CADWORK_22
 70
    64
  3
22 =======================================
 72
    65
 73
     0
 40
0.0
  0
LTYPE
  5
37D
100
AcDbSymbolTableRecord
100
AcDbLinetypeTableRecord
  2
DAL
 70
    64
  3
Solid line (for MAPS)
 72
    65
 73
     0
 40
0.0
  0
LTYPE
  5
37E
100
AcDbSymbolTableRecord
100
AcDbLinetypeTableRecord
  2
MUR
 70
    64
  3
Solid line (for MAPS)
 72
    65
 73
     0
 40
0.0
  0
LTYPE
  5
37F
100
AcDbSymbolTableRecord
100
AcDbLinetypeTableRecord
  2
SOM
 70
    64
  3
Solid line (for MAPS)
 72
    65
 73
     0
 40
0.0
  0
LTYPE
  5
380
100
AcDbSymbolTableRecord
100
AcDbLinetypeTableRecord
  2
COL
 70
    64
  3
Solid line (for MAPS)
 72
    65
 73
     0
 40
0.0
  0
LTYPE
  5
381
100
AcDbSymbolTableRecord
100
AcDbLinetypeTableRecord
  2
LGN
 70
    64
  3
Solid line (for MAPS)
 72
    65
 73
     0
 40
0.0
  0
LTYPE
  5
382
100
AcDbSymbolTableRecord
100
AcDbLinetypeTableRecord
  2
PNT
 70
    64
  3
Solid line (for MAPS)
 72
    65
 73
     0
 40
0.0
  0
ENDTAB
  0
TABLE
  2
LAYER
  5
383
100
AcDbSymbolTable
 70
    32
  0
LAYER
  5
384
100
AcDbSymbolTableRecord
100
AcDbLayerTableRecord
  2
Standard
 70
     0
 62
     7
  6
CONTINUOUS
370
    -3
  0
LAYER
  5
385
100
AcDbSymbolTableRecord
100
AcDbLayerTableRecord
  2
Ech.1_1
 70
     0
 62
     7
  6
CONTINUOUS
370
    -3
  0
LAYER
  5
386
100
AcDbSymbolTableRecord
100
AcDbLayerTableRecord
  2
Ech.1_2
 70
     0
 62
     7
  6
CONTINUOUS
370
    -3
  0
LAYER
  5
387
100
AcDbSymbolTableRecord
100
AcDbLayerTableRecord
  2
Ech.1_5
 70
     0
 62
     7
  6
CONTINUOUS
370
    -3
  0
LAYER
  5
388
100
AcDbSymbolTableRecord
100
AcDbLayerTableRecord
  2
Ech.1_10
 70
     0
 62
     7
  6
CONTINUOUS
370
    -3
  0
LAYER
  5
389
100
AcDbSymbolTableRecord
100
AcDbLayerTableRecord
  2
Ech.1_20
 70
     0
 62
     7
  6
CONTINUOUS
370
    -3
  0
LAYER
  5
38A
100
AcDbSymbolTableRecord
100
AcDbLayerTableRecord
  2
Ech.1_25
 70
     0
 62
     7
  6
CONTINUOUS
370
    -3
  0
LAYER
  5
38B
100
AcDbSymbolTableRecord
100
AcDbLayerTableRecord
  2
Ech.1_33
 70
     0
 62
     7
  6
CONTINUOUS
370
    -3
  0
LAYER
  5
38C
100
AcDbSymbolTableRecord
100
AcDbLayerTableRecord
  2
Ech.1_50
 70
     0
 62
     7
  6
CONTINUOUS
370
    -3
  0
LAYER
  5
38D
100
AcDbSymbolTableRecord
100
AcDbLayerTableRecord
  2
Ech.1_75
 70
     0
 62
     7
  6
CONTINUOUS
370
    -3
  0
LAYER
  5
38E
100
AcDbSymbolTableRecord
100
AcDbLayerTableRecord
  2
Ech.1_100
 70
     0
 62
     7
  6
CONTINUOUS
370
    -3
  0
LAYER
  5
38F
100
AcDbSymbolTableRecord
100
AcDbLayerTableRecord
  2
Ech.1_200
 70
     0
 62
     7
  6
CONTINUOUS
370
    -3
  0
LAYER
  5
390
100
AcDbSymbolTableRecord
100
AcDbLayerTableRecord
  2
Ech.1_500
 70
     0
 62
     7
  6
CONTINUOUS
370
    -3
  0
LAYER
  5
391
100
AcDbSymbolTableRecord
100
AcDbLayerTableRecord
  2
Ech.1_1000
 70
     0
 62
     7
  6
CONTINUOUS
370
    -3
  0
LAYER
  5
392
100
AcDbSymbolTableRecord
100
AcDbLayerTableRecord
  2
Cadres traceur
 70
     0
 62
     7
  6
CONTINUOUS
370
    18
  0
LAYER
  5
393
100
AcDbSymbolTableRecord
100
AcDbLayerTableRecord
  2
Cadres laser
 70
     0
 62
     7
  6
CONTINUOUS
370
    18
  0
LAYER
  5
394
100
AcDbSymbolTableRecord
100
AcDbLayerTableRecord
  2
Légende d_aide
 70
     0
 62
     7
  6
CONTINUOUS
370
    18
  0
LAYER
  5
395
100
AcDbSymbolTableRecord
100
AcDbLayerTableRecord
  2
hachures ok
 70
     0
 62
     7
  6
CONTINUOUS
370
    18
  0
LAYER
  5
396
100
AcDbSymbolTableRecord
100
AcDbLayerTableRecord
  2
ossature bois
 70
     0
 62
     7
  6
CONTINUOUS
370
    18
  0
LAYER
  5
397
100
AcDbSymbolTableRecord
100
AcDbLayerTableRecord
  2
VR
 70
     0
 62
     7
  6
CONTINUOUS
370
    25
  0
LAYER
  5
398
100
AcDbSymbolTableRecord
100
AcDbLayerTableRecord
  2
Calque1
 70
     0
 62
     7
  6
CONTINUOUS
370
     9
  0
LAYER
  5
399
100
AcDbSymbolTableRecord
100
AcDbLayerTableRecord
  2
0
 70
     0
 62
     7
  6
CONTINUOUS
370
    -3
  0
LAYER
  5
39A
100
AcDbSymbolTableRecord
100
AcDbLayerTableRecord
  2
menuiserie
 70
     0
 62
     7
  6
CONTINUOUS
370
    -3
  0
LAYER
  5
39B
100
AcDbSymbolTableRecord
100
AcDbLayerTableRecord
  2
cotation
 70
     0
 62
   250
  6
CONTINUOUS
370
     9
  0
LAYER
  5
39C
100
AcDbSymbolTableRecord
100
AcDbLayerTableRecord
  2
Defpoints
 70
     0
 62
    10
  6
CONTINUOUS
370
    -3
  0
LAYER
  5
39D
100
AcDbSymbolTableRecord
100
AcDbLayerTableRecord
  2
HACHURE
 70
     0
 62
   254
  6
CONTINUOUS
370
    25
  0
LAYER
  5
39E
100
AcDbSymbolTableRecord
100
AcDbLayerTableRecord
  2
mat1
 70
     0
 62
     7
  6
CONTINUOUS
370
    30
  0
LAYER
  5
39F
100
AcDbSymbolTableRecord
100
AcDbLayerTableRecord
  2
mat2
 70
     0
 62
     7
  6
CONTINUOUS
370
     5
  0
LAYER
  5
3A0
100
AcDbSymbolTableRecord
100
AcDbLayerTableRecord
  2
hach
 70
     0
 62
     8
  6
CONTINUOUS
370
     5
  0
LAYER
  5
3A1
100
AcDbSymbolTableRecord
100
AcDbLayerTableRecord
  2
menuiseries
 70
     0
 62
     7
  6
CONTINUOUS
370
     9
  0
LAYER
  5
3A2
100
AcDbSymbolTableRecord
100
AcDbLayerTableRecord
  2
BétonMétal
 70
     0
 62
     7
  6
CONTINUOUS
370
    80
  0
LAYER
  5
3A3
100
AcDbSymbolTableRecord
100
AcDbLayerTableRecord
  2
bois
 70
     0
 62
     7
  6
CONTINUOUS
370
    60
  0
ENDTAB
  0
TABLE
  2
VIEW
  5
3A4
100
AcDbSymbolTable
 70
     0
  0
ENDTAB
  0
TABLE
  2
UCS
  5
3A5
100
AcDbSymbolTable
 70
     0
  0
ENDTAB
  0
TABLE
  2
APPID
  5
3A6
100
AcDbSymbolTable
 70
     1
  0
APPID
  5
3A7
100
AcDbSymbolTableRecord
100
AcDbRegAppTableRecord
  2
ACAD
 70
     0
  0
ENDTAB
  0
TABLE
  2
DIMSTYLE
  5
3A8
100
AcDbSymbolTable
 70
     0
  0
ENDTAB
  0
TABLE
  2
BLOCK_RECORD
  5
3A9
100
AcDbSymbolTable
 70
     0
  0
BLOCK_RECORD
  5
3AA
100
AcDbSymbolTableRecord
100
AcDbBlockTableRecord
  2
*MODEL_SPACE
  0
BLOCK_RECORD
  5
3AB
100
AcDbSymbolTableRecord
100
AcDbBlockTableRecord
  2
*PAPER_SPACE
  0
BLOCK_RECORD
  5
3AC
100
AcDbSymbolTableRecord
100
AcDbBlockTableRecord
  2
CDWK_EXTR_0
  0
BLOCK_RECORD
  5
3AD
100
AcDbSymbolTableRecord
100
AcDbBlockTableRecord
  2
CDWK_EXTR_1D
  0
BLOCK_RECORD
  5
3AE
100
AcDbSymbolTableRecord
100
AcDbBlockTableRecord
  2
CDWK_EXTR_1G
  0
BLOCK_RECORD
  5
3AF
100
AcDbSymbolTableRecord
100
AcDbBlockTableRecord
  2
CDWK_EXTR_2
  0
BLOCK_RECORD
  5
3B0
100
AcDbSymbolTableRecord
100
AcDbBlockTableRecord
  2
CDWK_EXTR_3
  0
BLOCK_RECORD
  5
3B1
100
AcDbSymbolTableRecord
100
AcDbBlockTableRecord
  2
CDWK_EXTR_4
  0
BLOCK_RECORD
  5
3B2
100
AcDbSymbolTableRecord
100
AcDbBlockTableRecord
  2
CDWK_PTTYP0
  0
BLOCK_RECORD
  5
3B3
100
AcDbSymbolTableRecord
100
AcDbBlockTableRecord
  2
CDWK_PTTYP1
  0
BLOCK_RECORD
  5
3B4
100
AcDbSymbolTableRecord
100
AcDbBlockTableRecord
  2
CDWK_PTTYP2
  0
BLOCK_RECORD
  5
3B5
100
AcDbSymbolTableRecord
100
AcDbBlockTableRecord
  2
CDWK_PTTYP3
  0
BLOCK_RECORD
  5
3B6
100
AcDbSymbolTableRecord
100
AcDbBlockTableRecord
  2
CDWK_PTTYP4
  0
BLOCK_RECORD
  5
3B7
100
AcDbSymbolTableRecord
100
AcDbBlockTableRecord
  2
CDWK_PTTYP5
  0
BLOCK_RECORD
  5
3B8
100
AcDbSymbolTableRecord
100
AcDbBlockTableRecord
  2
CDWK_PTTYP6
  0
BLOCK_RECORD
  5
3B9
100
AcDbSymbolTableRecord
100
AcDbBlockTableRecord
  2
CDWK_PTTYP7
  0
BLOCK_RECORD
  5
3BA
100
AcDbSymbolTableRecord
100
AcDbBlockTableRecord
  2
CDWK_PTTYP8
  0
BLOCK_RECORD
  5
3BB
100
AcDbSymbolTableRecord
100
AcDbBlockTableRecord
  2
CDWK_PTTYP9
  0
BLOCK_RECORD
  5
3BC
100
AcDbSymbolTableRecord
100
AcDbBlockTableRecord
  2
CDWK_PTTYP10
  0
BLOCK_RECORD
  5
3BD
100
AcDbSymbolTableRecord
100
AcDbBlockTableRecord
  2
CDWK_PTTYP11
  0
BLOCK_RECORD
  5
3BE
100
AcDbSymbolTableRecord
100
AcDbBlockTableRecord
  2
CDWK_PTTYP12
  0
BLOCK_RECORD
  5
3BF
100
AcDbSymbolTableRecord
100
AcDbBlockTableRecord
  2
CDWK_PTTYP13
  0
BLOCK_RECORD
  5
3C0
100
AcDbSymbolTableRecord
100
AcDbBlockTableRecord
  2
CDWK_PTTYP14
  0
BLOCK_RECORD
  5
3C1
100
AcDbSymbolTableRecord
100
AcDbBlockTableRecord
  2
CDWK_PTTYP15
  0
BLOCK_RECORD
  5
3C2
100
AcDbSymbolTableRecord
100
AcDbBlockTableRecord
  2
CDWK_PTTYP16
  0
BLOCK_RECORD
  5
3C3
100
AcDbSymbolTableRecord
100
AcDbBlockTableRecord
  2
CDWK_PTTYP17
  0
BLOCK_RECORD
  5
3C4
100
AcDbSymbolTableRecord
100
AcDbBlockTableRecord
  2
CDWK_PTTYP18
  0
BLOCK_RECORD
  5
3C5
100
AcDbSymbolTableRecord
100
AcDbBlockTableRecord
  2
CDWK_PTTYP19
  0
BLOCK_RECORD
  5
3C6
100
AcDbSymbolTableRecord
100
AcDbBlockTableRecord
  2
CDWK_PTTYP20
  0
BLOCK_RECORD
  5
3C7
100
AcDbSymbolTableRecord
100
AcDbBlockTableRecord
  2
CDWK_PTTYP21
  0
BLOCK_RECORD
  5
3C8
100
AcDbSymbolTableRecord
100
AcDbBlockTableRecord
  2
CDWK_PTTYP22
  0
BLOCK_RECORD
  5
3C9
100
AcDbSymbolTableRecord
100
AcDbBlockTableRecord
  2
CDWK_PTTYP23
  0
BLOCK_RECORD
  5
3CA
100
AcDbSymbolTableRecord
100
AcDbBlockTableRecord
  2
CDWK_PTTYP24
  0
BLOCK_RECORD
  5
3CB
100
AcDbSymbolTableRecord
100
AcDbBlockTableRecord
  2
CDWK_PTTYP25
  0
BLOCK_RECORD
  5
3CC
100
AcDbSymbolTableRecord
100
AcDbBlockTableRecord
  2
CDWK_PTTYP26
  0
BLOCK_RECORD
  5
3CD
100
AcDbSymbolTableRecord
100
AcDbBlockTableRecord
  2
CDWK_PTTYP27
  0
BLOCK_RECORD
  5
3CE
100
AcDbSymbolTableRecord
100
AcDbBlockTableRecord
  2
CDWK_PTTYP28
  0
BLOCK_RECORD
  5
3CF
100
AcDbSymbolTableRecord
100
AcDbBlockTableRecord
  2
CDWK_PTTYP29
  0
BLOCK_RECORD
  5
3D0
100
AcDbSymbolTableRecord
100
AcDbBlockTableRecord
  2
CDWK_PTTYP30
  0
BLOCK_RECORD
  5
3D1
100
AcDbSymbolTableRecord
100
AcDbBlockTableRecord
  2
CDWK_PTTYP31
  0
BLOCK_RECORD
  5
3D2
100
AcDbSymbolTableRecord
100
AcDbBlockTableRecord
  2
CDWK_PTTYP32
  0
BLOCK_RECORD
  5
3D3
100
AcDbSymbolTableRecord
100
AcDbBlockTableRecord
  2
CDWK_PTTYP33
  0
BLOCK_RECORD
  5
3D4
100
AcDbSymbolTableRecord
100
AcDbBlockTableRecord
  2
CDWK_PTTYP34
  0
BLOCK_RECORD
  5
3D5
100
AcDbSymbolTableRecord
100
AcDbBlockTableRecord
  2
CDWK_PTTYP35
  0
BLOCK_RECORD
  5
3D6
100
AcDbSymbolTableRecord
100
AcDbBlockTableRecord
  2
CDWK_PTTYP36
  0
BLOCK_RECORD
  5
3D7
100
AcDbSymbolTableRecord
100
AcDbBlockTableRecord
  2
CDWK_PTTYP37
  0
BLOCK_RECORD
  5
3D8
100
AcDbSymbolTableRecord
100
AcDbBlockTableRecord
  2
CDWK_PTTYP38
  0
BLOCK_RECORD
  5
3D9
100
AcDbSymbolTableRecord
100
AcDbBlockTableRecord
  2
*X1
  0
BLOCK_RECORD
  5
3DA
100
AcDbSymbolTableRecord
100
AcDbBlockTableRecord
  2
*X2
  0
BLOCK_RECORD
  5
3DB
100
AcDbSymbolTableRecord
100
AcDbBlockTableRecord
  2
*X3
  0
BLOCK_RECORD
  5
3DC
100
AcDbSymbolTableRecord
100
AcDbBlockTableRecord
  2
*X4
  0
BLOCK_RECORD
  5
3DD
100
AcDbSymbolTableRecord
100
AcDbBlockTableRecord
  2
*X5
  0
BLOCK_RECORD
  5
3DE
100
AcDbSymbolTableRecord
100
AcDbBlockTableRecord
  2
*D3
  0
ENDTAB
  0
ENDSEC
  0
SECTION
  2
BLOCKS
  0
BLOCK
  5
3DF
100
AcDbEntity
  8
0
100
AcDbBlockBegin
  2
*MODEL_SPACE
 70
     0
 10
0.0
 20
0.0
 30
0.0
  3
*MODEL_SPACE
  1

  0
ENDBLK
  5
3E0
100
AcDbEntity
100
AcDbBlockEnd
  0
BLOCK
  5
3E1
100
AcDbEntity
  8
0
100
AcDbBlockBegin
  2
*PAPER_SPACE
 70
     0
 10
0.0
 20
0.0
 30
0.0
  3
*PAPER_SPACE
  1

  0
ENDBLK
  5
3E2
100
AcDbEntity
100
AcDbBlockEnd
  0
BLOCK
  5
3E3
100
AcDbEntity
  8
0
100
AcDbBlockBegin
  2
CDWK_EXTR_0
 70
     0
 10
0.0
 20
0.0
 30
0.0
  3
CDWK_EXTR_0
  1

  4
Cadwork line-extremity
  0
LINE
  5
3E4
100
AcDbEntity
  8
0
 62
     0
370
    -2
100
AcDbLine
 10
0.0
 20
0.0
 30
0.0
 11
2.0
 21
0.5
 31
0.0
  0
LINE
  5
3E5
100
AcDbEntity
  8
0
 62
     0
370
    -2
100
AcDbLine
 10
0.0
 20
0.0
 30
0.0
 11
2.0
 21
-0.5
 31
0.0
  0
LINE
  5
3E6
100
AcDbEntity
  8
0
 62
     0
370
    -2
100
AcDbLine
 10
2.0
 20
0.5
 30
0.0
 11
2.0
 21
-0.5
 31
0.0
  0
ENDBLK
  5
3E7
100
AcDbEntity
100
AcDbBlockEnd
  0
BLOCK
  5
3E8
100
AcDbEntity
  8
0
100
AcDbBlockBegin
  2
CDWK_EXTR_1D
 70
     0
 10
0.0
 20
0.0
 30
0.0
  3
CDWK_EXTR_1D
  1

  4
Cadwork line-extremity
  0
LINE
  5
3E9
100
AcDbEntity
  8
0
 62
     0
370
    -2
100
AcDbLine
 10
0.0
 20
0.0
 30
0.0
 11
0.0
 21
1.0
 31
0.0
  0
LINE
  5
3EA
100
AcDbEntity
  8
0
 62
     0
370
    -2
100
AcDbLine
 10
0.0
 20
1.0
 30
0.0
 11
0.5
 21
1.5
 31
0.0
  0
LINE
  5
3EB
100
AcDbEntity
  8
0
 62
     0
370
    -2
100
AcDbLine
 10
0.5
 20
1.5
 30
0.0
 11
1.5
 21
1.5
 31
0.0
  0
ENDBLK
  5
3EC
100
AcDbEntity
100
AcDbBlockEnd
  0
BLOCK
  5
3ED
100
AcDbEntity
  8
0
100
AcDbBlockBegin
  2
CDWK_EXTR_1G
 70
     0
 10
0.0
 20
0.0
 30
0.0
  3
CDWK_EXTR_1G
  1

  4
Cadwork line-extremity
  0
LINE
  5
3EE
100
AcDbEntity
  8
0
 62
     0
370
    -2
100
AcDbLine
 10
0.0
 20
0.0
 30
0.0
 11
0.0
 21
-1.0
 31
0.0
  0
LINE
  5
3EF
100
AcDbEntity
  8
0
 62
     0
370
    -2
100
AcDbLine
 10
0.0
 20
-1.0
 30
0.0
 11
0.5
 21
-1.5
 31
0.0
  0
LINE
  5
3F0
100
AcDbEntity
  8
0
 62
     0
370
    -2
100
AcDbLine
 10
0.5
 20
-1.5
 30
0.0
 11
1.5
 21
-1.5
 31
0.0
  0
ENDBLK
  5
3F1
100
AcDbEntity
100
AcDbBlockEnd
  0
BLOCK
  5
3F2
100
AcDbEntity
  8
0
100
AcDbBlockBegin
  2
CDWK_EXTR_2
 70
     0
 10
0.0
 20
0.0
 30
0.0
  3
CDWK_EXTR_2
  1

  4
Cadwork line-extremity
  0
SOLID
  5
3F3
100
AcDbEntity
  8
0
 62
     0
100
AcDbTrace
 10
0.0
 20
0.0
 11
2.0
 21
0.5
 12
2.0
 22
-0.5
 13
2.0
 23
-0.5
  0
ENDBLK
  5
3F4
100
AcDbEntity
100
AcDbBlockEnd
  0
BLOCK
  5
3F5
100
AcDbEntity
  8
0
100
AcDbBlockBegin
  2
CDWK_EXTR_3
 70
     0
 10
0.0
 20
0.0
 30
0.0
  3
CDWK_EXTR_3
  1

  4
Cadwork line-extremity
  0
SOLID
  5
3F6
100
AcDbEntity
  8
0
 62
     0
100
AcDbTrace
 10
0.0
 20
0.0
 11
2.0
 21
0.5
 12
2.0
 22
-0.5
 13
2.0
 23
-0.5
  0
LINE
  5
3F7
100
AcDbEntity
  8
0
 62
     0
370
    -2
100
AcDbLine
 10
0.0
 20
1.0
 30
0.0
 11
0.0
 21
-1.0
 31
0.0
  0
ENDBLK
  5
3F8
100
AcDbEntity
100
AcDbBlockEnd
  0
BLOCK
  5
3F9
100
AcDbEntity
  8
0
100
AcDbBlockBegin
  2
CDWK_EXTR_4
 70
     0
 10
0.0
 20
0.0
 30
0.0
  3
CDWK_EXTR_4
  1

  4
Cadwork line-extremity
  0
HATCH
  5
3FA
100
AcDbEntity
  8
0
 62
     0
370
    -2
100
AcDbHatch
 10
0.0
 20
0.0
 30
0.0
210
0.0
220
0.0
230
1.0
  2
SOLID
 70
     1
 71
     0
 91
        1
 92
        1
 93
        1
 72
     2
 10
0.0
 20
0.0
 40
0.5
 50
0.0
 51
360.0
 73
     1
 97
        0
 75
     0
 76
     1
 98
        1
 10
0.0
 20
0.0
  0
ENDBLK
  5
3FB
100
AcDbEntity
100
AcDbBlockEnd
  0
BLOCK
  5
3FC
100
AcDbEntity
  8
0
100
AcDbBlockBegin
  2
CDWK_PTTYP0
 70
     0
 10
0.0
 20
0.0
 30
0.0
  3
CDWK_PTTYP0
  1

  4
Cadwork point
  0
POINT
  5
3FD
100
AcDbEntity
  8
0
 62
     0
100
AcDbPoint
 10
0.0
 20
0.0
 30
0.0
  0
ENDBLK
  5
3FE
100
AcDbEntity
100
AcDbBlockEnd
  0
BLOCK
  5
3FF
100
AcDbEntity
  8
0
100
AcDbBlockBegin
  2
CDWK_PTTYP1
 70
     0
 10
0.0
 20
0.0
 30
0.0
  3
CDWK_PTTYP1
  1

  4
Cadwork node
  0
LINE
  5
400
100
AcDbEntity
  8
0
 62
     0
370
    -2
100
AcDbLine
 10
-0.5
 20
0.5
 30
0.0
 11
0.5
 21
0.5
 31
0.0
  0
LINE
  5
401
100
AcDbEntity
  8
0
 62
     0
370
    -2
100
AcDbLine
 10
0.5
 20
0.5
 30
0.0
 11
0.5
 21
-0.5
 31
0.0
  0
LINE
  5
402
100
AcDbEntity
  8
0
 62
     0
370
    -2
100
AcDbLine
 10
0.5
 20
-0.5
 30
0.0
 11
-0.5
 21
-0.5
 31
0.0
  0
LINE
  5
403
100
AcDbEntity
  8
0
 62
     0
370
    -2
100
AcDbLine
 10
-0.5
 20
-0.5
 30
0.0
 11
-0.5
 21
0.5
 31
0.0
  0
ENDBLK
  5
404
100
AcDbEntity
100
AcDbBlockEnd
  0
BLOCK
  5
405
100
AcDbEntity
  8
0
100
AcDbBlockBegin
  2
CDWK_PTTYP2
 70
     0
 10
0.0
 20
0.0
 30
0.0
  3
CDWK_PTTYP2
  1

  4
Cadwork node
  0
LINE
  5
406
100
AcDbEntity
  8
0
 62
     0
370
    -2
100
AcDbLine
 10
0.0
 20
0.5
 30
0.0
 11
0.0
 21
-0.5
 31
0.0
  0
LINE
  5
407
100
AcDbEntity
  8
0
 62
     0
370
    -2
100
AcDbLine
 10
-0.5
 20
0.0
 30
0.0
 11
0.5
 21
0.0
 31
0.0
  0
ENDBLK
  5
408
100
AcDbEntity
100
AcDbBlockEnd
  0
BLOCK
  5
409
100
AcDbEntity
  8
0
100
AcDbBlockBegin
  2
CDWK_PTTYP3
 70
     0
 10
0.0
 20
0.0
 30
0.0
  3
CDWK_PTTYP3
  1

  4
Cadwork node
  0
CIRCLE
  5
40A
100
AcDbEntity
  8
0
 62
     0
370
    -2
100
AcDbCircle
 10
0.0
 20
0.0
 30
0.0
 40
0.5
  0
ENDBLK
  5
40B
100
AcDbEntity
100
AcDbBlockEnd
  0
BLOCK
  5
40C
100
AcDbEntity
  8
0
100
AcDbBlockBegin
  2
CDWK_PTTYP4
 70
     0
 10
0.0
 20
0.0
 30
0.0
  3
CDWK_PTTYP4
  1

  4
Cadwork node
  0
HATCH
  5
40D
100
AcDbEntity
  8
0
 62
     0
370
    -2
100
AcDbHatch
 10
0.0
 20
0.0
 30
0.0
210
0.0
220
0.0
230
1.0
  2
SOLID
 70
     1
 71
     0
 91
        1
 92
        1
 93
        1
 72
     2
 10
0.0
 20
0.0
 40
0.5
 50
0.0
 51
360.0
 73
     1
 97
        0
 75
     0
 76
     1
 98
        1
 10
0.0
 20
0.0
  0
ENDBLK
  5
40E
100
AcDbEntity
100
AcDbBlockEnd
  0
BLOCK
  5
40F
100
AcDbEntity
  8
0
100
AcDbBlockBegin
  2
CDWK_PTTYP5
 70
     0
 10
0.0
 20
0.0
 30
0.0
  3
CDWK_PTTYP5
  1

  4
Cadwork node
  0
LINE
  5
410
100
AcDbEntity
  8
0
 62
     0
370
    -2
100
AcDbLine
 10
-0.5
 20
0.5
 30
0.0
 11
0.5
 21
0.5
 31
0.0
  0
LINE
  5
411
100
AcDbEntity
  8
0
 62
     0
370
    -2
100
AcDbLine
 10
0.5
 20
0.5
 30
0.0
 11
0.5
 21
-0.5
 31
0.0
  0
LINE
  5
412
100
AcDbEntity
  8
0
 62
     0
370
    -2
100
AcDbLine
 10
0.5
 20
-0.5
 30
0.0
 11
-0.5
 21
-0.5
 31
0.0
  0
LINE
  5
413
100
AcDbEntity
  8
0
 62
     0
370
    -2
100
AcDbLine
 10
-0.5
 20
-0.5
 30
0.0
 11
-0.5
 21
0.5
 31
0.0
  0
SOLID
  5
414
100
AcDbEntity
  8
0
 62
     0
100
AcDbTrace
 10
-0.5
 20
-0.5
 11
-0.5
 21
0.0
 12
0.0
 22
-0.5
 13
0.0
 23
0.0
  0
SOLID
  5
415
100
AcDbEntity
  8
0
 62
     0
100
AcDbTrace
 10
0.0
 20
0.0
 11
0.0
 21
0.5
 12
0.5
 22
0.0
 13
0.5
 23
0.5
  0
ENDBLK
  5
416
100
AcDbEntity
100
AcDbBlockEnd
  0
BLOCK
  5
417
100
AcDbEntity
  8
0
100
AcDbBlockBegin
  2
CDWK_PTTYP6
 70
     0
 10
0.0
 20
0.0
 30
0.0
  3
CDWK_PTTYP6
  1

  4
Cadwork node
  0
LINE
  5
418
100
AcDbEntity
  8
0
 62
     0
370
    -2
100
AcDbLine
 10
-0.5
 20
0.5
 30
0.0
 11
0.5
 21
0.5
 31
0.0
  0
LINE
  5
419
100
AcDbEntity
  8
0
 62
     0
370
    -2
100
AcDbLine
 10
0.5
 20
0.5
 30
0.0
 11
0.5
 21
-0.5
 31
0.0
  0
LINE
  5
41A
100
AcDbEntity
  8
0
 62
     0
370
    -2
100
AcDbLine
 10
0.5
 20
-0.5
 30
0.0
 11
-0.5
 21
-0.5
 31
0.0
  0
LINE
  5
41B
100
AcDbEntity
  8
0
 62
     0
370
    -2
100
AcDbLine
 10
-0.5
 20
-0.5
 30
0.0
 11
-0.5
 21
0.5
 31
0.0
  0
SOLID
  5
41C
100
AcDbEntity
  8
0
 62
     0
100
AcDbTrace
 10
-0.5
 20
-0.5
 11
-0.5
 21
0.5
 12
0.5
 22
0.5
 13
0.5
 23
0.5
  0
ENDBLK
  5
41D
100
AcDbEntity
100
AcDbBlockEnd
  0
BLOCK
  5
41E
100
AcDbEntity
  8
0
100
AcDbBlockBegin
  2
CDWK_PTTYP7
 70
     0
 10
0.0
 20
0.0
 30
0.0
  3
CDWK_PTTYP7
  1

  4
Cadwork node
  0
LINE
  5
41F
100
AcDbEntity
  8
0
 62
     0
370
    -2
100
AcDbLine
 10
-0.5
 20
0.5
 30
0.0
 11
0.5
 21
0.5
 31
0.0
  0
LINE
  5
420
100
AcDbEntity
  8
0
 62
     0
370
    -2
100
AcDbLine
 10
0.5
 20
0.5
 30
0.0
 11
0.5
 21
-0.5
 31
0.0
  0
LINE
  5
421
100
AcDbEntity
  8
0
 62
     0
370
    -2
100
AcDbLine
 10
0.5
 20
-0.5
 30
0.0
 11
-0.5
 21
-0.5
 31
0.0
  0
LINE
  5
422
100
AcDbEntity
  8
0
 62
     0
370
    -2
100
AcDbLine
 10
-0.5
 20
-0.5
 30
0.0
 11
-0.5
 21
0.5
 31
0.0
  0
LINE
  5
423
100
AcDbEntity
  8
0
 62
     0
370
    -2
100
AcDbLine
 10
0.0
 20
0.5
 30
0.0
 11
0.0
 21
-0.5
 31
0.0
  0
LINE
  5
424
100
AcDbEntity
  8
0
 62
     0
370
    -2
100
AcDbLine
 10
-0.5
 20
0.0
 30
0.0
 11
0.5
 21
0.0
 31
0.0
  0
ENDBLK
  5
425
100
AcDbEntity
100
AcDbBlockEnd
  0
BLOCK
  5
426
100
AcDbEntity
  8
0
100
AcDbBlockBegin
  2
CDWK_PTTYP8
 70
     0
 10
0.0
 20
0.0
 30
0.0
  3
CDWK_PTTYP8
  1

  4
Cadwork node
  0
SOLID
  5
427
100
AcDbEntity
  8
0
 62
     0
100
AcDbTrace
 10
-0.5
 20
0.5
 11
0.5
 21
0.5
 12
-0.5
 22
-0.5
 13
0.5
 23
-0.5
  0
ENDBLK
  5
428
100
AcDbEntity
100
AcDbBlockEnd
  0
BLOCK
  5
429
100
AcDbEntity
  8
0
100
AcDbBlockBegin
  2
CDWK_PTTYP9
 70
     0
 10
0.0
 20
0.0
 30
0.0
  3
CDWK_PTTYP9
  1

  4
Cadwork node
  0
CIRCLE
  5
42A
100
AcDbEntity
  8
0
 62
     0
370
    -2
100
AcDbCircle
 10
0.0
 20
0.0
 30
0.0
 40
0.5
  0
CIRCLE
  5
42B
100
AcDbEntity
  8
0
 62
     0
370
    -2
100
AcDbCircle
 10
0.0
 20
0.0
 30
0.0
 40
0.16666667
  0
ENDBLK
  5
42C
100
AcDbEntity
100
AcDbBlockEnd
  0
BLOCK
  5
42D
100
AcDbEntity
  8
0
100
AcDbBlockBegin
  2
CDWK_PTTYP10
 70
     0
 10
0.0
 20
0.0
 30
0.0
  3
CDWK_PTTYP10
  1

  4
Cadwork node
  0
CIRCLE
  5
42E
100
AcDbEntity
  8
0
 62
     0
370
    -2
100
AcDbCircle
 10
0.0
 20
0.0
 30
0.0
 40
0.5
  0
ENDBLK
  5
42F
100
AcDbEntity
100
AcDbBlockEnd
  0
BLOCK
  5
430
100
AcDbEntity
  8
0
100
AcDbBlockBegin
  2
CDWK_PTTYP11
 70
     0
 10
0.0
 20
0.0
 30
0.0
  3
CDWK_PTTYP11
  1

  4
Cadwork node
  0
CIRCLE
  5
431
100
AcDbEntity
  8
0
 62
     0
370
    -2
100
AcDbCircle
 10
0.0
 20
0.0
 30
0.0
 40
0.5
  0
CIRCLE
  5
432
100
AcDbEntity
  8
0
 62
     0
370
    -2
100
AcDbCircle
 10
0.0
 20
0.0
 30
0.0
 40
0.25
  0
ENDBLK
  5
433
100
AcDbEntity
100
AcDbBlockEnd
  0
BLOCK
  5
434
100
AcDbEntity
  8
0
100
AcDbBlockBegin
  2
CDWK_PTTYP12
 70
     0
 10
0.0
 20
0.0
 30
0.0
  3
CDWK_PTTYP12
  1

  4
Cadwork node
  0
CIRCLE
  5
435
100
AcDbEntity
  8
0
 62
     0
370
    -2
100
AcDbCircle
 10
0.0
 20
0.0
 30
0.0
 40
0.5
  0
CIRCLE
  5
436
100
AcDbEntity
  8
0
 62
     0
370
    -2
100
AcDbCircle
 10
0.25
 20
0.0
 30
0.0
 40
0.25
  0
ENDBLK
  5
437
100
AcDbEntity
100
AcDbBlockEnd
  0
BLOCK
  5
438
100
AcDbEntity
  8
0
100
AcDbBlockBegin
  2
CDWK_PTTYP13
 70
     0
 10
0.0
 20
0.0
 30
0.0
  3
CDWK_PTTYP13
  1

  4
Cadwork node
  0
CIRCLE
  5
439
100
AcDbEntity
  8
0
 62
     0
370
    -2
100
AcDbCircle
 10
0.0
 20
0.0
 30
0.0
 40
0.5
  0
CIRCLE
  5
43A
100
AcDbEntity
  8
0
 62
     0
370
    -2
100
AcDbCircle
 10
0.25
 20
0.0
 30
0.0
 40
0.25
  0
CIRCLE
  5
43B
100
AcDbEntity
  8
0
 62
     0
370
    -2
100
AcDbCircle
 10
-0.25
 20
0.0
 30
0.0
 40
0.25
  0
ENDBLK
  5
43C
100
AcDbEntity
100
AcDbBlockEnd
  0
BLOCK
  5
43D
100
AcDbEntity
  8
0
100
AcDbBlockBegin
  2
CDWK_PTTYP14
 70
     0
 10
0.0
 20
0.0
 30
0.0
  3
CDWK_PTTYP14
  1

  4
Cadwork node
  0
POINT
  5
43E
100
AcDbEntity
  8
0
 62
     0
100
AcDbPoint
 10
0.0
 20
0.0
 30
0.0
  0
ENDBLK
  5
43F
100
AcDbEntity
100
AcDbBlockEnd
  0
BLOCK
  5
440
100
AcDbEntity
  8
0
100
AcDbBlockBegin
  2
CDWK_PTTYP15
 70
     0
 10
0.0
 20
0.0
 30
0.0
  3
CDWK_PTTYP15
  1

  4
Cadwork node
  0
POINT
  5
441
100
AcDbEntity
  8
0
 62
     0
100
AcDbPoint
 10
0.0
 20
0.0
 30
0.0
  0
ENDBLK
  5
442
100
AcDbEntity
100
AcDbBlockEnd
  0
BLOCK
  5
443
100
AcDbEntity
  8
0
100
AcDbBlockBegin
  2
CDWK_PTTYP16
 70
     0
 10
0.0
 20
0.0
 30
0.0
  3
CDWK_PTTYP16
  1

  4
Cadwork node
  0
LINE
  5
444
100
AcDbEntity
  8
0
 62
     0
370
    -2
100
AcDbLine
 10
-0.5
 20
-0.28867513
 30
0.0
 11
0.5
 21
-0.28867513
 31
0.0
  0
LINE
  5
445
100
AcDbEntity
  8
0
 62
     0
370
    -2
100
AcDbLine
 10
0.5
 20
-0.28867513
 30
0.0
 11
0.0
 21
0.57735027
 31
0.0
  0
LINE
  5
446
100
AcDbEntity
  8
0
 62
     0
370
    -2
100
AcDbLine
 10
0.0
 20
0.57735027
 30
0.0
 11
-0.5
 21
-0.28867513
 31
0.0
  0
CIRCLE
  5
447
100
AcDbEntity
  8
0
 62
     0
370
    -2
100
AcDbCircle
 10
0.0
 20
0.0
 30
0.0
 40
0.28867513
  0
ENDBLK
  5
448
100
AcDbEntity
100
AcDbBlockEnd
  0
BLOCK
  5
449
100
AcDbEntity
  8
0
100
AcDbBlockBegin
  2
CDWK_PTTYP17
 70
     0
 10
0.0
 20
0.0
 30
0.0
  3
CDWK_PTTYP17
  1

  4
Cadwork node
  0
CIRCLE
  5
44A
100
AcDbEntity
  8
0
 62
     0
370
    -2
100
AcDbCircle
 10
0.0
 20
0.0
 30
0.0
 40
0.5
  0
HATCH
  5
44B
100
AcDbEntity
  8
0
 62
     0
370
    -2
100
AcDbHatch
 10
0.0
 20
0.0
 30
0.0
210
0.0
220
0.0
230
1.0
  2
SOLID
 70
     1
 71
     0
 91
        1
 92
        1
 93
        1
 72
     2
 10
0.0
 20
0.0
 40
0.25
 50
0.0
 51
360.0
 73
     1
 97
        0
 75
     0
 76
     1
 98
        1
 10
0.0
 20
0.0
  0
ENDBLK
  5
44C
100
AcDbEntity
100
AcDbBlockEnd
  0
BLOCK
  5
44D
100
AcDbEntity
  8
0
100
AcDbBlockBegin
  2
CDWK_PTTYP18
 70
     0
 10
0.0
 20
0.0
 30
0.0
  3
CDWK_PTTYP18
  1

  4
Cadwork node
  0
CIRCLE
  5
44E
100
AcDbEntity
  8
0
 62
     0
370
    -2
100
AcDbCircle
 10
0.0
 20
0.0
 30
0.0
 40
0.5
  0
CIRCLE
  5
44F
100
AcDbEntity
  8
0
 62
     0
370
    -2
100
AcDbCircle
 10
0.0
 20
0.0
 30
0.0
 40
0.2
  0
ENDBLK
  5
450
100
AcDbEntity
100
AcDbBlockEnd
  0
BLOCK
  5
451
100
AcDbEntity
  8
0
100
AcDbBlockBegin
  2
CDWK_PTTYP19
 70
     0
 10
0.0
 20
0.0
 30
0.0
  3
CDWK_PTTYP19
  1

  4
Cadwork node
  0
CIRCLE
  5
452
100
AcDbEntity
  8
0
 62
     0
370
    -2
100
AcDbCircle
 10
0.0
 20
0.0
 30
0.0
 40
0.4
  0
CIRCLE
  5
453
100
AcDbEntity
  8
0
 62
     0
370
    -2
100
AcDbCircle
 10
0.0
 20
0.0
 30
0.0
 40
0.25
  0
LINE
  5
454
100
AcDbEntity
  8
0
 62
     0
370
    -2
100
AcDbLine
 10
-0.25
 20
0.0
 30
0.0
 11
0.25
 21
0.0
 31
0.0
  0
ENDBLK
  5
455
100
AcDbEntity
100
AcDbBlockEnd
  0
BLOCK
  5
456
100
AcDbEntity
  8
0
100
AcDbBlockBegin
  2
CDWK_PTTYP20
 70
     0
 10
0.0
 20
0.0
 30
0.0
  3
CDWK_PTTYP20
  1

  4
Cadwork node
  0
CIRCLE
  5
457
100
AcDbEntity
  8
0
 62
     0
370
    -2
100
AcDbCircle
 10
0.0
 20
0.0
 30
0.0
 40
0.5
  0
CIRCLE
  5
458
100
AcDbEntity
  8
0
 62
     0
370
    -2
100
AcDbCircle
 10
0.0
 20
0.0
 30
0.0
 40
0.3
  0
ENDBLK
  5
459
100
AcDbEntity
100
AcDbBlockEnd
  0
BLOCK
  5
45A
100
AcDbEntity
  8
0
100
AcDbBlockBegin
  2
CDWK_PTTYP21
 70
     0
 10
0.0
 20
0.0
 30
0.0
  3
CDWK_PTTYP21
  1

  4
Cadwork node
  0
CIRCLE
  5
45B
100
AcDbEntity
  8
0
 62
     0
370
    -2
100
AcDbCircle
 10
0.0
 20
0.0
 30
0.0
 40
0.5
  0
LINE
  5
45C
100
AcDbEntity
  8
0
 62
     0
370
    -2
100
AcDbLine
 10
-0.5
 20
0.0
 30
0.0
 11
0.5
 21
0.0
 31
0.0
  0
ENDBLK
  5
45D
100
AcDbEntity
100
AcDbBlockEnd
  0
BLOCK
  5
45E
100
AcDbEntity
  8
0
100
AcDbBlockBegin
  2
CDWK_PTTYP22
 70
     0
 10
0.0
 20
0.0
 30
0.0
  3
CDWK_PTTYP22
  1

  4
Cadwork node
  0
POINT
  5
45F
100
AcDbEntity
  8
0
 62
     0
100
AcDbPoint
 10
0.0
 20
0.0
 30
0.0
  0
ENDBLK
  5
460
100
AcDbEntity
100
AcDbBlockEnd
  0
BLOCK
  5
461
100
AcDbEntity
  8
0
100
AcDbBlockBegin
  2
CDWK_PTTYP23
 70
     0
 10
0.0
 20
0.0
 30
0.0
  3
CDWK_PTTYP23
  1

  4
Cadwork node
  0
POINT
  5
462
100
AcDbEntity
  8
0
 62
     0
100
AcDbPoint
 10
0.0
 20
0.0
 30
0.0
  0
ENDBLK
  5
463
100
AcDbEntity
100
AcDbBlockEnd
  0
BLOCK
  5
464
100
AcDbEntity
  8
0
100
AcDbBlockBegin
  2
CDWK_PTTYP24
 70
     0
 10
0.0
 20
0.0
 30
0.0
  3
CDWK_PTTYP24
  1

  4
Cadwork node
  0
POINT
  5
465
100
AcDbEntity
  8
0
 62
     0
100
AcDbPoint
 10
0.0
 20
0.0
 30
0.0
  0
ENDBLK
  5
466
100
AcDbEntity
100
AcDbBlockEnd
  0
BLOCK
  5
467
100
AcDbEntity
  8
0
100
AcDbBlockBegin
  2
CDWK_PTTYP25
 70
     0
 10
0.0
 20
0.0
 30
0.0
  3
CDWK_PTTYP25
  1

  4
Cadwork node
  0
LINE
  5
468
100
AcDbEntity
  8
0
 62
     0
370
    -2
100
AcDbLine
 10
-0.43290044
 20
-0.25
 30
0.0
 11
0.43290044
 21
-0.25
 31
0.0
  0
LINE
  5
469
100
AcDbEntity
  8
0
 62
     0
370
    -2
100
AcDbLine
 10
-0.43290044
 20
-0.25
 30
0.0
 11
0.0
 21
0.5
 31
0.0
  0
LINE
  5
46A
100
AcDbEntity
  8
0
 62
     0
370
    -2
100
AcDbLine
 10
0.43290044
 20
-0.25
 30
0.0
 11
0.0
 21
0.5
 31
0.0
  0
CIRCLE
  5
46B
100
AcDbEntity
  8
0
 62
     0
370
    -2
100
AcDbCircle
 10
0.0
 20
0.0
 30
0.0
 40
0.5
  0
ENDBLK
  5
46C
100
AcDbEntity
100
AcDbBlockEnd
  0
BLOCK
  5
46D
100
AcDbEntity
  8
0
100
AcDbBlockBegin
  2
CDWK_PTTYP26
 70
     0
 10
0.0
 20
0.0
 30
0.0
  3
CDWK_PTTYP26
  1

  4
Cadwork node
  0
LINE
  5
46E
100
AcDbEntity
  8
0
 62
     0
370
    -2
100
AcDbLine
 10
-0.5
 20
-0.28850001
 30
0.0
 11
0.5
 21
-0.28850001
 31
0.0
  0
LINE
  5
46F
100
AcDbEntity
  8
0
 62
     0
370
    -2
100
AcDbLine
 10
-0.5
 20
-0.28850001
 30
0.0
 11
0.0
 21
0.57736721
 31
0.0
  0
LINE
  5
470
100
AcDbEntity
  8
0
 62
     0
370
    -2
100
AcDbLine
 10
0.5
 20
-0.28850001
 30
0.0
 11
0.0
 21
0.57736721
 31
0.0
  0
CIRCLE
  5
471
100
AcDbEntity
  8
0
 62
     0
370
    -2
100
AcDbCircle
 10
0.0
 20
0.0
 30
0.0
 40
0.1312336
  0
ENDBLK
  5
472
100
AcDbEntity
100
AcDbBlockEnd
  0
BLOCK
  5
473
100
AcDbEntity
  8
0
100
AcDbBlockBegin
  2
CDWK_PTTYP27
 70
     0
 10
0.0
 20
0.0
 30
0.0
  3
CDWK_PTTYP27
  1

  4
Cadwork node
  0
LINE
  5
474
100
AcDbEntity
  8
0
 62
     0
370
    -2
100
AcDbLine
 10
-0.43290044
 20
-0.25
 30
0.0
 11
0.43290044
 21
-0.25
 31
0.0
  0
LINE
  5
475
100
AcDbEntity
  8
0
 62
     0
370
    -2
100
AcDbLine
 10
-0.43290044
 20
-0.25
 30
0.0
 11
0.0
 21
0.5
 31
0.0
  0
LINE
  5
476
100
AcDbEntity
  8
0
 62
     0
370
    -2
100
AcDbLine
 10
0.43290044
 20
-0.25
 30
0.0
 11
0.0
 21
0.5
 31
0.0
  0
CIRCLE
  5
477
100
AcDbEntity
  8
0
 62
     0
370
    -2
100
AcDbCircle
 10
0.0
 20
0.0
 30
0.0
 40
0.5
  0
CIRCLE
  5
478
100
AcDbEntity
  8
0
 62
     0
370
    -2
100
AcDbCircle
 10
0.0
 20
0.0
 30
0.0
 40
0.1312336
  0
ENDBLK
  5
479
100
AcDbEntity
100
AcDbBlockEnd
  0
BLOCK
  5
47A
100
AcDbEntity
  8
0
100
AcDbBlockBegin
  2
CDWK_PTTYP28
 70
     0
 10
0.0
 20
0.0
 30
0.0
  3
CDWK_PTTYP28
  1

  4
Cadwork node
  0
POINT
  5
47B
100
AcDbEntity
  8
0
 62
     0
100
AcDbPoint
 10
0.0
 20
0.0
 30
0.0
  0
ENDBLK
  5
47C
100
AcDbEntity
100
AcDbBlockEnd
  0
BLOCK
  5
47D
100
AcDbEntity
  8
0
100
AcDbBlockBegin
  2
CDWK_PTTYP29
 70
     0
 10
0.0
 20
0.0
 30
0.0
  3
CDWK_PTTYP29
  1

  4
Cadwork node
  0
CIRCLE
  5
47E
100
AcDbEntity
  8
0
 62
     0
370
    -2
100
AcDbCircle
 10
0.0
 20
0.0
 30
0.0
 40
0.5
  0
CIRCLE
  5
47F
100
AcDbEntity
  8
0
 62
     0
370
    -2
100
AcDbCircle
 10
0.0
 20
0.0
 30
0.0
 40
0.375
  0
CIRCLE
  5
480
100
AcDbEntity
  8
0
 62
     0
370
    -2
100
AcDbCircle
 10
0.0
 20
0.0
 30
0.0
 40
0.21875
  0
ENDBLK
  5
481
100
AcDbEntity
100
AcDbBlockEnd
  0
BLOCK
  5
482
100
AcDbEntity
  8
0
100
AcDbBlockBegin
  2
CDWK_PTTYP30
 70
     0
 10
0.0
 20
0.0
 30
0.0
  3
CDWK_PTTYP30
  1

  4
Cadwork node
  0
LINE
  5
483
100
AcDbEntity
  8
0
 62
     0
370
    -2
100
AcDbLine
 10
0.17680339
 20
0.17680339
 30
0.0
 11
0.5
 21
0.5
 31
0.0
  0
LINE
  5
484
100
AcDbEntity
  8
0
 62
     0
370
    -2
100
AcDbLine
 10
-0.17680339
 20
0.17680339
 30
0.0
 11
-0.5
 21
0.5
 31
0.0
  0
LINE
  5
485
100
AcDbEntity
  8
0
 62
     0
370
    -2
100
AcDbLine
 10
0.17680339
 20
-0.17680339
 30
0.0
 11
0.5
 21
-0.5
 31
0.0
  0
LINE
  5
486
100
AcDbEntity
  8
0
 62
     0
370
    -2
100
AcDbLine
 10
-0.17680339
 20
-0.17680339
 30
0.0
 11
-0.5
 21
-0.5
 31
0.0
  0
ENDBLK
  5
487
100
AcDbEntity
100
AcDbBlockEnd
  0
BLOCK
  5
488
100
AcDbEntity
  8
0
100
AcDbBlockBegin
  2
CDWK_PTTYP31
 70
     0
 10
0.0
 20
0.0
 30
0.0
  3
CDWK_PTTYP31
  1

  4
Cadwork node
  0
CIRCLE
  5
489
100
AcDbEntity
  8
0
 62
     0
370
    -2
100
AcDbCircle
 10
0.0
 20
0.0
 30
0.0
 40
0.075
  0
LINE
  5
48A
100
AcDbEntity
  8
0
 62
     0
370
    -2
100
AcDbLine
 10
0.075
 20
0.0
 30
0.0
 11
0.5
 21
0.0
 31
0.0
  0
LINE
  5
48B
100
AcDbEntity
  8
0
 62
     0
370
    -2
100
AcDbLine
 10
-0.075
 20
0.0
 30
0.0
 11
-0.5
 21
0.0
 31
0.0
  0
LINE
  5
48C
100
AcDbEntity
  8
0
 62
     0
370
    -2
100
AcDbLine
 10
0.0
 20
0.075
 30
0.0
 11
0.0
 21
0.5
 31
0.0
  0
LINE
  5
48D
100
AcDbEntity
  8
0
 62
     0
370
    -2
100
AcDbLine
 10
0.0
 20
-0.075
 30
0.0
 11
0.0
 21
-0.5
 31
0.0
  0
ENDBLK
  5
48E
100
AcDbEntity
100
AcDbBlockEnd
  0
BLOCK
  5
48F
100
AcDbEntity
  8
0
100
AcDbBlockBegin
  2
CDWK_PTTYP32
 70
     0
 10
0.0
 20
0.0
 30
0.0
  3
CDWK_PTTYP32
  1

  4
Cadwork node
  0
CIRCLE
  5
490
100
AcDbEntity
  8
0
 62
     0
370
    -2
100
AcDbCircle
 10
0.0
 20
0.0
 30
0.0
 40
0.5
  0
CIRCLE
  5
491
100
AcDbEntity
  8
0
 62
     0
370
    -2
100
AcDbCircle
 10
0.0
 20
0.0
 30
0.0
 40
0.16666667
  0
LINE
  5
492
100
AcDbEntity
  8
0
 62
     0
370
    -2
100
AcDbLine
 10
0.11786893
 20
0.11786893
 30
0.0
 11
0.35360678
 21
0.35360678
 31
0.0
  0
LINE
  5
493
100
AcDbEntity
  8
0
 62
     0
370
    -2
100
AcDbLine
 10
-0.11786893
 20
0.11786893
 30
0.0
 11
-0.35360678
 21
0.35360678
 31
0.0
  0
LINE
  5
494
100
AcDbEntity
  8
0
 62
     0
370
    -2
100
AcDbLine
 10
0.11786893
 20
-0.11786893
 30
0.0
 11
0.35360678
 21
-0.35360678
 31
0.0
  0
LINE
  5
495
100
AcDbEntity
  8
0
 62
     0
370
    -2
100
AcDbLine
 10
-0.11786893
 20
-0.11786893
 30
0.0
 11
-0.35360678
 21
-0.35360678
 31
0.0
  0
ENDBLK
  5
496
100
AcDbEntity
100
AcDbBlockEnd
  0
BLOCK
  5
497
100
AcDbEntity
  8
0
100
AcDbBlockBegin
  2
CDWK_PTTYP33
 70
     0
 10
0.0
 20
0.0
 30
0.0
  3
CDWK_PTTYP33
  1

  4
Cadwork node
  0
CIRCLE
  5
498
100
AcDbEntity
  8
0
 62
     0
370
    -2
100
AcDbCircle
 10
0.0
 20
0.0
 30
0.0
 40
0.5
  0
LINE
  5
499
100
AcDbEntity
  8
0
 62
     0
370
    -2
100
AcDbLine
 10
0.0
 20
0.5
 30
0.0
 11
0.0
 21
-0.5
 31
0.0
  0
LINE
  5
49A
100
AcDbEntity
  8
0
 62
     0
370
    -2
100
AcDbLine
 10
-0.5
 20
0.0
 30
0.0
 11
0.5
 21
0.0
 31
0.0
  0
ENDBLK
  5
49B
100
AcDbEntity
100
AcDbBlockEnd
  0
BLOCK
  5
49C
100
AcDbEntity
  8
0
100
AcDbBlockBegin
  2
CDWK_PTTYP34
 70
     0
 10
0.0
 20
0.0
 30
0.0
  3
CDWK_PTTYP34
  1

  4
Cadwork node
  0
CIRCLE
  5
49D
100
AcDbEntity
  8
0
 62
     0
370
    -2
100
AcDbCircle
 10
0.0
 20
0.0
 30
0.0
 40
0.5
  0
LINE
  5
49E
100
AcDbEntity
  8
0
 62
     0
370
    -2
100
AcDbLine
 10
-0.30360678
 20
-0.40360678
 30
0.0
 11
0.40360678
 21
0.30360678
 31
0.0
  0
LINE
  5
49F
100
AcDbEntity
  8
0
 62
     0
370
    -2
100
AcDbLine
 10
-0.40360678
 20
-0.30360678
 30
0.0
 11
0.30360678
 21
0.40360678
 31
0.0
  0
ENDBLK
  5
4A0
100
AcDbEntity
100
AcDbBlockEnd
  0
BLOCK
  5
4A1
100
AcDbEntity
  8
0
100
AcDbBlockBegin
  2
CDWK_PTTYP35
 70
     0
 10
0.0
 20
0.0
 30
0.0
  3
CDWK_PTTYP35
  1

  4
Cadwork node
  0
CIRCLE
  5
4A2
100
AcDbEntity
  8
0
 62
     0
370
    -2
100
AcDbCircle
 10
0.0
 20
0.0
 30
0.0
 40
0.21431634
  0
LINE
  5
4A3
100
AcDbEntity
  8
0
 62
     0
370
    -2
100
AcDbLine
 10
0.0
 20
0.21431634
 30
0.0
 11
0.0
 21
0.5
 31
0.0
  0
LINE
  5
4A4
100
AcDbEntity
  8
0
 62
     0
370
    -2
100
AcDbLine
 10
0.0
 20
-0.21431634
 30
0.0
 11
0.0
 21
-0.5
 31
0.0
  0
ENDBLK
  5
4A5
100
AcDbEntity
100
AcDbBlockEnd
  0
BLOCK
  5
4A6
100
AcDbEntity
  8
0
100
AcDbBlockBegin
  2
CDWK_PTTYP36
 70
     0
 10
0.0
 20
0.0
 30
0.0
  3
CDWK_PTTYP36
  1

  4
Cadwork node
  0
LINE
  5
4A7
100
AcDbEntity
  8
0
 62
     0
370
    -2
100
AcDbLine
 10
-0.5
 20
-0.16666667
 30
0.0
 11
0.5
 21
-0.16666667
 31
0.0
  0
LINE
  5
4A8
100
AcDbEntity
  8
0
 62
     0
370
    -2
100
AcDbLine
 10
0.5
 20
-0.16666667
 30
0.0
 11
0.5
 21
0.16666667
 31
0.0
  0
LINE
  5
4A9
100
AcDbEntity
  8
0
 62
     0
370
    -2
100
AcDbLine
 10
0.5
 20
0.16666667
 30
0.0
 11
-0.5
 21
0.16666667
 31
0.0
  0
LINE
  5
4AA
100
AcDbEntity
  8
0
 62
     0
370
    -2
100
AcDbLine
 10
-0.5
 20
0.16666667
 30
0.0
 11
-0.5
 21
-0.16666667
 31
0.0
  0
SOLID
  5
4AB
100
AcDbEntity
  8
0
 62
     0
100
AcDbTrace
 10
-0.5
 20
-0.16666667
 11
0.5
 21
0.16666667
 12
0.5
 22
-0.16666667
 13
0.5
 23
-0.16666667
  0
ENDBLK
  5
4AC
100
AcDbEntity
100
AcDbBlockEnd
  0
BLOCK
  5
4AD
100
AcDbEntity
  8
0
100
AcDbBlockBegin
  2
CDWK_PTTYP37
 70
     0
 10
0.0
 20
0.0
 30
0.0
  3
CDWK_PTTYP37
  1

  4
Cadwork node
  0
CIRCLE
  5
4AE
100
AcDbEntity
  8
0
 62
     0
370
    -2
100
AcDbCircle
 10
0.0
 20
0.0
 30
0.0
 40
0.5
  0
SOLID
  5
4AF
100
AcDbEntity
  8
0
 62
     0
100
AcDbTrace
 10
0.0
 20
0.0
 11
0.35350001
 21
0.35350001
 12
0.5
 22
0.0
 13
0.46200001
 23
0.19149999
  0
SOLID
  5
4B0
100
AcDbEntity
  8
0
 62
     0
100
AcDbTrace
 10
0.0
 20
0.0
 11
0.35350001
 21
-0.35350001
 12
0.5
 22
0.0
 13
0.46200001
 23
-0.19149999
  0
SOLID
  5
4B1
100
AcDbEntity
  8
0
 62
     0
100
AcDbTrace
 10
0.0
 20
0.0
 11
0.0
 21
-0.5
 12
0.35350001
 22
-0.35350001
 13
0.19149999
 23
-0.46200001
  0
SOLID
  5
4B2
100
AcDbEntity
  8
0
 62
     0
100
AcDbTrace
 10
0.0
 20
0.0
 11
0.0
 21
-0.5
 12
-0.35350001
 22
-0.35350001
 13
-0.19149999
 23
-0.46200001
  0
ENDBLK
  5
4B3
100
AcDbEntity
100
AcDbBlockEnd
  0
BLOCK
  5
4B4
100
AcDbEntity
  8
0
100
AcDbBlockBegin
  2
CDWK_PTTYP38
 70
     0
 10
0.0
 20
0.0
 30
0.0
  3
CDWK_PTTYP38
  1

  4
Cadwork node
  0
CIRCLE
  5
4B5
100
AcDbEntity
  8
0
 62
     0
370
    -2
100
AcDbCircle
 10
0.0
 20
0.0
 30
0.0
 40
0.5
  0
SOLID
  5
4B6
100
AcDbEntity
  8
0
 62
     0
100
AcDbTrace
 10
0.0
 20
0.0
 11
0.35350001
 21
0.35350001
 12
0.0
 22
0.5
 13
0.19149999
 23
0.46200001
  0
SOLID
  5
4B7
100
AcDbEntity
  8
0
 62
     0
100
AcDbTrace
 10
0.0
 20
0.0
 11
0.5
 21
0.0
 12
0.35350001
 22
0.35350001
 13
0.46200001
 23
0.19149999
  0
SOLID
  5
4B8
100
AcDbEntity
  8
0
 62
     0
100
AcDbTrace
 10
0.0
 20
0.0
 11
0.0
 21
-0.5
 12
-0.35350001
 22
-0.35350001
 13
-0.19149999
 23
-0.46200001
  0
SOLID
  5
4B9
100
AcDbEntity
  8
0
 62
     0
100
AcDbTrace
 10
0.0
 20
0.0
 11
-0.5
 21
0.0
 12
-0.35350001
 22
-0.35350001
 13
-0.46200001
 23
-0.19149999
  0
ENDBLK
  5
4BA
100
AcDbEntity
100
AcDbBlockEnd
  0
BLOCK
  5
4BB
100
AcDbEntity
  8
Ech.1_5
100
AcDbBlockBegin
  2
*X1
 70
     1
 10
0.0
 20
0.0
 30
0.0
  3
*X1
  1

  4
Cadwork hatch
  0
LINE
  5
4BC
100
AcDbEntity
  8
Ech.1_5
 62
   190
  6
CONTINUOUS
370
    -2
100
AcDbLine
 10
35187.65394997
 20
-38496.54151077
 30
0.0
 11
35286.15025734
 21
-38541.54132031
 31
0.0
  0
LINE
  5
4BD
100
AcDbEntity
  8
Ech.1_5
 62
   190
  6
CONTINUOUS
370
    -2
100
AcDbLine
 10
35187.65394997
 20
-38541.54132031
 30
0.0
 11
35286.15025734
 21
-38496.54151077
 31
0.0
  0
ENDBLK
  5
4BE
100
AcDbEntity
100
AcDbBlockEnd
  0
BLOCK
  5
4BF
100
AcDbEntity
  8
Ech.1_5
100
AcDbBlockBegin
  2
*X2
 70
     1
 10
0.0
 20
0.0
 30
0.0
  3
*X2
  1

  4
Cadwork hatch
  0
LINE
  5
4C0
100
AcDbEntity
  8
Ech.1_5
 62
   190
  6
CONTINUOUS
370
    -2
100
AcDbLine
 10
35187.65394997
 20
-38199.47814626
 30
0.0
 11
35286.15025734
 21
-38244.4779558
 31
0.0
  0
LINE
  5
4C1
100
AcDbEntity
  8
Ech.1_5
 62
   190
  6
CONTINUOUS
370
    -2
100
AcDbLine
 10
35187.65394997
 20
-38244.4779558
 30
0.0
 11
35286.15025734
 21
-38199.47814626
 31
0.0
  0
ENDBLK
  5
4C2
100
AcDbEntity
100
AcDbBlockEnd
  0
BLOCK
  5
4C3
100
AcDbEntity
  8
Ech.1_5
100
AcDbBlockBegin
  2
*X3
 70
     1
 10
0.0
 20
0.0
 30
0.0
  3
*X3
  1

  4
Cadwork hatch
  0
LINE
  5
4C4
100
AcDbEntity
  8
Ech.1_5
 62
   190
  6
CONTINUOUS
370
    -2
100
AcDbLine
 10
35187.65394997
 20
-37994.86882761
 30
0.0
 11
35286.15025734
 21
-38039.86893495
 31
0.0
  0
LINE
  5
4C5
100
AcDbEntity
  8
Ech.1_5
 62
   190
  6
CONTINUOUS
370
    -2
100
AcDbLine
 10
35187.65394997
 20
-38039.86893495
 30
0.0
 11
35286.15025734
 21
-37994.86882761
 31
0.0
  0
ENDBLK
  5
4C6
100
AcDbEntity
100
AcDbBlockEnd
  0
BLOCK
  5
4C7
100
AcDbEntity
  8
Ech.1_5
100
AcDbBlockBegin
  2
*X4
 70
     1
 10
0.0
 20
0.0
 30
0.0
  3
*X4
  1

  4
Cadwork hatch
  0
LINE
  5
4C8
100
AcDbEntity
  8
Ech.1_5
 62
   190
  6
CONTINUOUS
370
    -2
100
AcDbLine
 10
35440.15079673
 20
-38341.54246458
 30
0.0
 11
35485.14881951
 21
-38121.54250232
 31
0.0
  0
LINE
  5
4C9
100
AcDbEntity
  8
Ech.1_5
 62
   190
  6
CONTINUOUS
370
    -2
100
AcDbLine
 10
35485.14881951
 20
-38341.54246458
 30
0.0
 11
35440.15079673
 21
-38121.54250232
 31
0.0
  0
ENDBLK
  5
4CA
100
AcDbEntity
100
AcDbBlockEnd
  0
BLOCK
  5
4CB
100
AcDbEntity
  8
Ech.1_5
100
AcDbBlockBegin
  2
*X5
 70
     1
 10
0.0
 20
0.0
 30
0.0
  3
*X5
  1

  4
Cadwork hatch
  0
LINE
  5
4CC
100
AcDbEntity
  8
Ech.1_5
 62
   190
  6
CONTINUOUS
370
    -2
100
AcDbLine
 10
35196.58303666
 20
-38550.97338283
 30
0.0
 11
35286.15025734
 21
-38595.97349017
 31
0.0
  0
LINE
  5
4CD
100
AcDbEntity
  8
Ech.1_5
 62
   190
  6
CONTINUOUS
370
    -2
100
AcDbLine
 10
35196.58303666
 20
-38595.97349017
 30
0.0
 11
35286.15025734
 21
-38550.97338283
 31
0.0
  0
ENDBLK
  5
4CE
100
AcDbEntity
100
AcDbBlockEnd
  0
BLOCK
  5
4CF
100
AcDbEntity
  8
Ech.1_5
100
AcDbBlockBegin
  2
*D3
 70
     1
 10
0.0
 20
0.0
 30
0.0
  3
*D3
  1

  4
Cadwork dimension
  0
TEXT
  5
4D0
100
AcDbEntity
  8
Ech.1_5
 62
   190
370
    18
100
AcDbText
 10
35116.8318556
 20
-38566.04484086
 30
0.0
 40
12.5
  1
30
  7
ARIAL
 50
89.9999975
 41
1.0
 51
0.0
100
AcDbText
  0
LINE
  5
4D1
100
AcDbEntity
  8
Ech.1_5
 62
   190
370
    -2
100
AcDbLine
 10
35116.8318556
 20
-38571.54138341
 30
0.0
 11
35133.67969403
 21
-38571.54138341
 31
0.0
  0
LINE
  5
4D2
100
AcDbEntity
  8
Ech.1_5
 62
   190
370
    -2
100
AcDbLine
 10
35116.8318556
 20
-38541.54144903
 30
0.0
 11
35180.79995676
 21
-38541.54144903
 31
0.0
  0
LINE
  5
4D3
100
AcDbEntity
  8
Ech.1_5
 62
   190
370
    -2
100
AcDbLine
 10
35121.8318556
 20
-38576.54138341
 30
0.0
 11
35121.8318556
 21
-38536.54144903
 31
0.0
  0
LINE
  5
4D4
100
AcDbEntity
  8
Ech.1_5
 62
   190
370
    -2
100
AcDbLine
 10
35124.3318556
 20
-38574.04138341
 30
0.0
 11
35119.3318556
 21
-38569.04138341
 31
0.0
  0
LINE
  5
4D5
100
AcDbEntity
  8
Ech.1_5
 62
   190
370
    -2
100
AcDbLine
 10
35124.3318556
 20
-38544.04144903
 30
0.0
 11
35119.3318556
 21
-38539.04144903
 31
0.0
  0
ENDBLK
  5
4D6
100
AcDbEntity
100
AcDbBlockEnd
  0
ENDSEC
  0
SECTION
  2
ENTITIES
  0
INSERT
  5
4D7
100
AcDbEntity
  8
Ech.1_5
 62
     0
370
    -3
100
AcDbBlockReference
  2
*X1
 10
0.0
 20
0.0
 30
0.0
  0
INSERT
  5
4D8
100
AcDbEntity
  8
Ech.1_5
 62
     0
370
    -3
100
AcDbBlockReference
  2
*X2
 10
0.0
 20
0.0
 30
0.0
  0
INSERT
  5
4D9
100
AcDbEntity
  8
Ech.1_5
 62
     0
370
    -3
100
AcDbBlockReference
  2
*X3
 10
0.0
 20
0.0
 30
0.0
  0
INSERT
  5
4DA
100
AcDbEntity
  8
Ech.1_5
 62
     0
370
    -3
100
AcDbBlockReference
  2
*X4
 10
0.0
 20
0.0
 30
0.0
  0
INSERT
  5
4DB
100
AcDbEntity
  8
Ech.1_5
 62
     0
370
    -3
100
AcDbBlockReference
  2
*X5
 10
0.0
 20
0.0
 30
0.0
  0
LWPOLYLINE
  5
4DC
100
AcDbEntity
  8
Ech.1_5
 62
     7
  6
CONTINUOUS
370
    -3
100
AcDbPolyline
 90
        8
 70
     1
 43
0.0
 10
35870.99175523
 20
-38256.02567437
 10
35906.94745524
 20
-38270.13561439
 10
35888.97010683
 20
-38253.65011123
 10
35888.96959516
 20
-38121.5426118
 10
35487.14961623
 20
-38121.5426118
 10
35487.14961623
 20
-38341.5426118
 10
35888.96928455
 20
-38341.5426118
 10
35888.97010683
 20
-38272.51202845
  0
LWPOLYLINE
  5
4DD
100
AcDbEntity
  8
Ech.1_5
 62
   190
  6
CONTINUOUS
370
    -3
100
AcDbPolyline
 90
        9
 70
     1
 43
0.0
 10
35888.96928455
 20
-38263.08051853
 10
35870.99175521
 20
-38256.02567436
 10
35888.96928455
 20
-38272.51127441
 10
35888.96928455
 20
-38341.54259053
 10
35485.14961623
 20
-38341.5426118
 10
35485.14961623
 20
-38141.5426118
 10
35888.96928455
 20
-38141.5426118
 10
35888.96928455
 20
-38253.65011123
 10
35906.94745524
 20
-38270.13561439
  0
LWPOLYLINE
  5
4DE
100
AcDbEntity
  8
Ech.1_5
 62
   190
  6
CONTINUOUS
370
    -3
100
AcDbPolyline
 90
        4
 70
     1
 43
0.0
 10
35449.14961623
 20
-38353.5426118
 10
35888.96928455
 20
-38353.5426118
 10
35888.96928455
 20
-38341.5426118
 10
35449.14961623
 20
-38341.5426118
  0
LWPOLYLINE
  5
4DF
102
{ACAD_REACTORS
330
4E0
102
}
100
AcDbEntity
  8
Ech.1_5
 62
     7
  6
CONTINUOUS
370
    -3
100
AcDbPolyline
 90
        4
 70
     1
 43
0.0
 10
35449.14961623
 20
-38353.5426118
 10
35888.96928455
 20
-38353.5426118
 10
35888.96928455
 20
-38341.5426118
 10
35449.14961623
 20
-38341.5426118
  0
HATCH
  5
4E0
100
AcDbEntity
  8
Ech.1_5
 62
   190
  6
CONTINUOUS
100
AcDbHatch
 10
0.0
 20
0.0
 30
0.0
210
0.0
220
0.0
230
1.0
  2
ANSI38
 70
     0
 71
     1
 91
        1
 92
        7
 72
     0
 73
     1
 93
        4
 10
35449.14961623
 20
-38353.5426118
 10
35888.96928455
 20
-38353.5426118
 10
35888.96928455
 20
-38341.5426118
 10
35449.14961623
 20
-38341.5426118
 97
        1
330
4DF
 75
     0
 76
     2
 52
0.0
 41
1.0
 77
     0
 78
     2
 53
45.0
 43
0.0
 44
0.0
 45
-8.48528171
 46
8.48528171
 79
     2
 49
960.00003815
 49
0.0
 53
135.0
 43
0.0
 44
0.0
 45
-25.45584513
 46
8.48528171
 79
     2
 49
30.00000119
 49
-18.00000072
 47
0.775229
 98
        1
 10
0.0
 20
0.0
  0
LWPOLYLINE
  5
4E1
100
AcDbEntity
  8
Ech.1_5
 62
   190
  6
CONTINUOUS
370
    -3
100
AcDbPolyline
 90
        4
 70
     1
 43
0.0
 10
35286.14961623
 20
-37957.34066974
 10
35187.65352459
 20
-37957.34103146
 10
35187.65352459
 20
-38496.64478541
 10
35286.14961623
 20
-38496.64476414
  0
LWPOLYLINE
  5
4E2
100
AcDbEntity
  8
Ech.1_5
 62
   190
  6
CONTINUOUS
370
    -3
100
AcDbPolyline
 90
       66
 70
     0
 43
0.0
 10
35269.85059608
 20
-38496.58675593
 42
1.14028181
 10
35265.54295042
 20
-38464.55582927
 10
35208.82613465
 20
-38479.90199082
 42
-1.30322619
 10
35208.73854033
 20
-38448.4147069
 10
35265.53986042
 20
-38463.44507289
 42
1.30322619
 10
35265.45226609
 20
-38431.95778897
 10
35208.73545032
 20
-38447.30395053
 42
-1.30322619
 10
35208.64785599
 20
-38415.81666661
 10
35265.44917608
 20
-38430.8470326
 42
1.30322619
 10
35265.36158176
 20
-38399.35974868
 10
35208.64476598
 20
-38414.70591023
 42
-1.30322619
 10
35208.55717166
 20
-38383.21862631
 10
35265.35849175
 20
-38398.2489923
 42
1.30322619
 10
35265.27089742
 20
-38366.76170838
 10
35208.55408165
 20
-38382.10786994
 42
-1.30322619
 10
35208.46648732
 20
-38350.62058602
 10
35265.26780741
 20
-38365.65095201
 42
1.30322619
 10
35265.18021309
 20
-38334.16366809
 10
35208.46339731
 20
-38349.50982964
 42
-1.30322619
 10
35208.37580299
 20
-38318.02254572
 10
35265.17712308
 20
-38333.05291171
 42
1.30322619
 10
35265.08952875
 20
-38301.56562779
 10
35208.37271298
 20
-38316.91178935
 42
-1.30322619
 10
35208.28511865
 20
-38285.42450543
 10
35265.08643875
 20
-38300.45487142
 42
1.30322619
 10
35264.99884442
 20
-38268.9675875
 10
35208.28202865
 20
-38284.31374905
 42
-1.30322619
 10
35208.19443432
 20
-38252.82646513
 10
35264.99575441
 20
-38267.85683112
 42
1.30322619
 10
35264.90816008
 20
-38236.3695472
 10
35208.19134431
 20
-38251.71570876
 42
-1.30322619
 10
35208.10374999
 20
-38220.22842484
 10
35264.90507008
 20
-38235.25879083
 42
1.30322619
 10
35264.81747575
 20
-38203.77150691
 10
35208.10065998
 20
-38219.11766846
 42
-1.30322619
 10
35208.01306565
 20
-38187.63038454
 10
35264.81438574
 20
-38202.66075053
 42
1.30322619
 10
35264.72679142
 20
-38171.17346661
 10
35208.00997564
 20
-38186.51962817
 42
-1.30322619
 10
35207.92238132
 20
-38155.03234425
 10
35264.72370141
 20
-38170.06271024
 42
1.30322619
 10
35264.63610708
 20
-38138.57542632
 10
35207.91929131
 20
-38153.92158787
 42
-1.30322619
 10
35207.83169698
 20
-38122.43430395
 10
35264.63301707
 20
-38137.46466994
 42
1.30322619
 10
35264.54542275
 20
-38105.97738602
 10
35207.82860698
 20
-38121.32354758
 42
-1.30322619
 10
35207.74101265
 20
-38089.83626366
 10
35264.54233274
 20
-38104.86662965
 42
1.30322619
 10
35264.45473841
 20
-38073.37934573
 10
35207.73792264
 20
-38088.72550728
 42
-1.30322619
 10
35207.65032832
 20
-38057.23822336
 10
35264.45164841
 20
-38072.26858935
 42
1.30322619
 10
35264.36405408
 20
-38040.78130543
 10
35207.64723831
 20
-38056.12746699
 42
-1.30322619
 10
35207.55964398
 20
-38024.64018307
 10
35264.36096407
 20
-38039.67054906
 42
1.30322619
 10
35264.27336975
 20
-38008.18326514
 10
35207.55655397
 20
-38023.52942669
 42
-1.30322619
 10
35207.46895965
 20
-37992.04214277
 10
35264.27027974
 20
-38007.07250876
 42
1.30322619
 10
35264.18268541
 20
-37975.58522484
 10
35207.46586964
 20
-37990.9313864
 42
-1.30322619
 10
35207.37827531
 20
-37959.44410248
 10
35264.1795954
 20
-37974.47446847
 42
0.51885702
 10
35284.59500921
 20
-37957.34082166
  0
LWPOLYLINE
  5
4E3
100
AcDbEntity
  8
Ech.1_5
 62
   190
  6
CONTINUOUS
370
    -3
100
AcDbPolyline
 90
        5
 70
     0
 43
0.0
 10
34929.26651495
 20
-39288.88717453
 10
35914.26651495
 20
-39288.88717453
 10
35914.26651495
 20
-37933.88717453
 10
34929.26651495
 20
-37933.88717453
 10
34929.26651495
 20
-39288.88717453
  0
LWPOLYLINE
  5
4E4
100
AcDbEntity
  8
Ech.1_5
 62
     9
  6
CONTINUOUS
370
    -3
100
AcDbPolyline
 90
        4
 70
     1
 43
0.0
 10
35187.58520801
 20
-37957.34103146
 10
35162.58520801
 20
-37957.3411626
 10
35162.58524503
 20
-38526.94683234
 10
35187.58524503
 20
-38526.94683234
  0
LWPOLYLINE
  5
4E5
100
AcDbEntity
  8
Ech.1_5
 62
     7
  6
CONTINUOUS
100
AcDbPolyline
 90
       27
 70
     0
 43
0.0
 10
35149.45862791
 20
-38307.15589226
 10
35149.58524503
 20
-38306.82141847
 10
35149.58524503
 20
-38279.43795437
 10
35156.58524503
 20
-38279.43795437
 10
35156.58524503
 20
-38288.43795437
 10
35162.58524503
 20
-38288.43795437
 10
35162.58524503
 20
-38261.43795437
 10
35158.58524503
 20
-38257.43795437
 10
35162.58524503
 20
-38253.43795437
 10
35162.58524503
 20
-38189.43795437
 10
35158.58524503
 20
-38185.43795437
 10
35162.58524503
 20
-38181.43795437
 10
35162.58524503
 20
-38146.43795437
 10
35155.58524503
 20
-38146.43795437
 10
35155.58524503
 20
-38140.43795437
 10
35153.08524503
 20
-38135.43795437
 10
35150.58524503
 20
-38140.43795437
 10
35150.58524503
 20
-38171.36688656
 10
35150.20464269
 20
-38173.28030372
 10
35144.04971112
 20
-38179.97348828
 10
35142.58524503
 20
-38183.50902219
 10
35142.58524503
 20
-38302.5957666
 10
35143.54556743
 20
-38304.22563524
 10
35148.28168828
 20
-38307.19698517
 10
35148.69368965
 20
-38307.43795437
 10
35149.00750714
 20
-38307.43795437
 10
35149.45862791
 20
-38307.15589226
  0
LWPOLYLINE
  5
4E6
100
AcDbEntity
  8
Ech.1_5
 62
    25
  6
CONTINUOUS
370
    -3
100
AcDbPolyline
 90
       27
 70
     0
 43
0.0
 10
35149.45862791
 20
-38452.15589226
 10
35149.58524503
 20
-38451.82141847
 10
35149.58524503
 20
-38424.43795437
 10
35156.58524503
 20
-38424.43795437
 10
35156.58524503
 20
-38433.43795437
 10
35162.58524503
 20
-38433.43795437
 10
35162.58524503
 20
-38406.43795437
 10
35158.58524503
 20
-38402.43795437
 10
35162.58524503
 20
-38398.43795437
 10
35162.58524503
 20
-38334.43795437
 10
35158.58524503
 20
-38330.43795437
 10
35162.58524503
 20
-38326.43795437
 10
35162.58524503
 20
-38291.43795437
 10
35155.58524503
 20
-38291.43795437
 10
35155.58524503
 20
-38285.43795437
 10
35153.08524503
 20
-38280.43795437
 10
35150.58524503
 20
-38285.43795437
 10
35150.58524503
 20
-38316.36688656
 10
35150.20464269
 20
-38318.28030372
 10
35144.04971112
 20
-38324.97348828
 10
35142.58524503
 20
-38328.50902219
 10
35142.58524503
 20
-38447.5957666
 10
35143.54556743
 20
-38449.22563524
 10
35148.28168828
 20
-38452.19698517
 10
35148.69368965
 20
-38452.43795437
 10
35149.00750714
 20
-38452.43795437
 10
35149.45862791
 20
-38452.15589226
  0
LWPOLYLINE
  5
4E7
100
AcDbEntity
  8
Ech.1_5
 62
     7
  6
CONTINUOUS
100
AcDbPolyline
 90
       16
 70
     0
 43
0.0
 10
35142.58524503
 20
-37957.3412675
 10
35142.58524503
 20
-38012.5957666
 10
35143.54556743
 20
-38014.22563524
 10
35148.28168828
 20
-38017.19698517
 10
35148.69368965
 20
-38017.43795437
 10
35149.00750714
 20
-38017.43795437
 10
35149.45862791
 20
-38017.15589226
 10
35149.58524503
 20
-38016.82141847
 10
35149.58524503
 20
-37989.43795437
 10
35156.58524503
 20
-37989.43795437
 10
35156.58524503
 20
-37998.43795437
 10
35162.58524503
 20
-37998.43795437
 10
35162.58524503
 20
-37971.43795437
 10
35158.58524503
 20
-37967.43795437
 10
35162.58524503
 20
-37963.43795437
 10
35162.58524503
 20
-37957.3411626
  0
LWPOLYLINE
  5
4E8
100
AcDbEntity
  8
Ech.1_5
 62
     7
  6
CONTINUOUS
100
AcDbPolyline
 90
       27
 70
     0
 43
0.0
 10
35149.45862791
 20
-38162.15589226
 10
35149.58524503
 20
-38161.82141847
 10
35149.58524503
 20
-38134.43795437
 10
35156.58524503
 20
-38134.43795437
 10
35156.58524503
 20
-38143.43795437
 10
35162.58524503
 20
-38143.43795437
 10
35162.58524503
 20
-38116.43795437
 10
35158.58524503
 20
-38112.43795437
 10
35162.58524503
 20
-38108.43795437
 10
35162.58524503
 20
-38044.43795437
 10
35158.58524503
 20
-38040.43795437
 10
35162.58524503
 20
-38036.43795437
 10
35162.58524503
 20
-38001.43795437
 10
35155.58524503
 20
-38001.43795437
 10
35155.58524503
 20
-37995.43795437
 10
35153.08524503
 20
-37990.43795437
 10
35150.58524503
 20
-37995.43795437
 10
35150.58524503
 20
-38026.36688656
 10
35150.20464269
 20
-38028.28030372
 10
35144.04971112
 20
-38034.97348828
 10
35142.58524503
 20
-38038.50902219
 10
35142.58524503
 20
-38157.5957666
 10
35143.54556743
 20
-38159.22563524
 10
35148.28168828
 20
-38162.19698517
 10
35148.69368965
 20
-38162.43795437
 10
35149.00750714
 20
-38162.43795437
 10
35149.45862791
 20
-38162.15589226
  0
LWPOLYLINE
  5
4E9
100
AcDbEntity
  8
Ech.1_5
 62
     7
  6
BYBLOCK
100
AcDbPolyline
 90
       23
 70
     0
 43
0.0
 10
35142.58524503
 20
-38569.91953798
 10
35142.58524503
 20
-38473.50902219
 10
35144.04971112
 20
-38469.97348828
 10
35150.20464269
 20
-38463.28030372
 10
35150.58524503
 20
-38461.36688656
 10
35150.58524503
 20
-38430.43795437
 10
35153.08524503
 20
-38425.43795437
 10
35155.58524503
 20
-38430.43795437
 10
35155.58524503
 20
-38436.43795437
 10
35162.58524503
 20
-38436.43795437
 10
35162.58524503
 20
-38471.43795437
 10
35158.58524503
 20
-38475.43795437
 10
35162.58524503
 20
-38479.43795437
 10
35162.58524503
 20
-38543.43795437
 10
35158.58524503
 20
-38547.43795437
 10
35162.58524503
 20
-38551.43795437
 10
35162.58524503
 20
-38551.43795437
 10
35150.34133143
 20
-38567.33522882
 10
35147.52453459
 20
-38570.99250653
 10
35146.43507455
 20
-38571.54138341
 10
35143.67969403
 20
-38571.54138341
 10
35142.58524503
 20
-38569.91953798
 10
35142.58524503
 20
-38564.61090986
  0
LWPOLYLINE
  5
4EA
100
AcDbEntity
  8
Ech.1_5
 62
     9
  6
CONTINUOUS
370
    -3
100
AcDbPolyline
 90
       26
 70
     1
 43
0.0
 10
35149.45862791
 20
-38452.15589226
 10
35149.58524503
 20
-38451.82141847
 10
35149.58524503
 20
-38424.43795437
 10
35156.58524503
 20
-38424.43795437
 10
35156.58524503
 20
-38433.43795437
 10
35162.58524503
 20
-38433.43795437
 10
35162.58524503
 20
-38406.43795437
 10
35158.58524503
 20
-38402.43795437
 10
35162.58524503
 20
-38398.43795437
 10
35162.58524503
 20
-38334.43795437
 10
35158.58524503
 20
-38330.43795437
 10
35162.58524503
 20
-38326.43795437
 10
35162.58524503
 20
-38291.43795437
 10
35155.58524503
 20
-38291.43795437
 10
35155.58524503
 20
-38285.43795437
 10
35153.08524503
 20
-38280.43795437
 10
35150.58524503
 20
-38285.43795437
 10
35150.58524503
 20
-38316.36688656
 10
35150.20464269
 20
-38318.28030372
 10
35144.04971112
 20
-38324.97348828
 10
35142.58524503
 20
-38328.50902219
 10
35142.58524503
 20
-38447.5957666
 10
35143.54556743
 20
-38449.22563524
 10
35148.28168828
 20
-38452.19698517
 10
35148.69368965
 20
-38452.43795437
 10
35149.00750714
 20
-38452.43795437
  0
LWPOLYLINE
  5
4EB
100
AcDbEntity
  8
Ech.1_5
 62
     9
  6
CONTINUOUS
370
    -3
100
AcDbPolyline
 90
       26
 70
     1
 43
0.0
 10
35149.45862791
 20
-38307.15589226
 10
35149.58524503
 20
-38306.82141847
 10
35149.58524503
 20
-38279.43795437
 10
35156.58524503
 20
-38279.43795437
 10
35156.58524503
 20
-38288.43795437
 10
35162.58524503
 20
-38288.43795437
 10
35162.58524503
 20
-38261.43795437
 10
35158.58524503
 20
-38257.43795437
 10
35162.58524503
 20
-38253.43795437
 10
35162.58524503
 20
-38189.43795437
 10
35158.58524503
 20
-38185.43795437
 10
35162.58524503
 20
-38181.43795437
 10
35162.58524503
 20
-38146.43795437
 10
35155.58524503
 20
-38146.43795437
 10
35155.58524503
 20
-38140.43795437
 10
35153.08524503
 20
-38135.43795437
 10
35150.58524503
 20
-38140.43795437
 10
35150.58524503
 20
-38171.36688656
 10
35150.20464269
 20
-38173.28030372
 10
35144.04971112
 20
-38179.97348828
 10
35142.58524503
 20
-38183.50902219
 10
35142.58524503
 20
-38302.5957666
 10
35143.54556743
 20
-38304.22563524
 10
35148.28168828
 20
-38307.19698517
 10
35148.69368965
 20
-38307.43795437
 10
35149.00750714
 20
-38307.43795437
  0
LWPOLYLINE
  5
4EC
100
AcDbEntity
  8
Ech.1_5
 62
     9
  6
CONTINUOUS
370
    -3
100
AcDbPolyline
 90
       26
 70
     1
 43
0.0
 10
35149.45862791
 20
-38162.15589226
 10
35149.58524503
 20
-38161.82141847
 10
35149.58524503
 20
-38134.43795437
 10
35156.58524503
 20
-38134.43795437
 10
35156.58524503
 20
-38143.43795437
 10
35162.58524503
 20
-38143.43795437
 10
35162.58524503
 20
-38116.43795437
 10
35158.58524503
 20
-38112.43795437
 10
35162.58524503
 20
-38108.43795437
 10
35162.58524503
 20
-38044.43795437
 10
35158.58524503
 20
-38040.43795437
 10
35162.58524503
 20
-38036.43795437
 10
35162.58524503
 20
-38001.43795437
 10
35155.58524503
 20
-38001.43795437
 10
35155.58524503
 20
-37995.43795437
 10
35153.08524503
 20
-37990.43795437
 10
35150.58524503
 20
-37995.43795437
 10
35150.58524503
 20
-38026.36688656
 10
35150.20464269
 20
-38028.28030372
 10
35144.04971112
 20
-38034.97348828
 10
35142.58524503
 20
-38038.50902219
 10
35142.58524503
 20
-38157.5957666
 10
35143.54556743
 20
-38159.22563524
 10
35148.28168828
 20
-38162.19698517
 10
35148.69368965
 20
-38162.43795437
 10
35149.00750714
 20
-38162.43795437
  0
LWPOLYLINE
  5
4ED
100
AcDbEntity
  8
Ech.1_5
 62
     9
  6
CONTINUOUS
370
    -3
100
AcDbPolyline
 90
       16
 70
     1
 43
0.0
 10
35162.58524503
 20
-37957.3411626
 10
35142.58524503
 20
-37957.3412675
 10
35142.58524503
 20
-38012.5957666
 10
35143.54556743
 20
-38014.22563524
 10
35148.28168828
 20
-38017.19698517
 10
35148.69368965
 20
-38017.43795437
 10
35149.00750714
 20
-38017.43795437
 10
35149.45862791
 20
-38017.15589226
 10
35149.58524503
 20
-38016.82141847
 10
35149.58524503
 20
-37989.43795437
 10
35156.58524503
 20
-37989.43795437
 10
35156.58524503
 20
-37998.43795437
 10
35162.58524503
 20
-37998.43795437
 10
35162.58524503
 20
-37971.43795437
 10
35158.58524503
 20
-37967.43795437
 10
35162.58524503
 20
-37963.43795437
  0
LWPOLYLINE
  5
4EE
100
AcDbEntity
  8
Ech.1_5
 62
     9
  6
CONTINUOUS
370
    -3
100
AcDbPolyline
 90
       20
 70
     1
 43
0.0
 10
35142.58524503
 20
-38569.91953798
 10
35143.67969403
 20
-38571.54138341
 10
35146.43507455
 20
-38571.54138341
 10
35147.52453459
 20
-38570.99250653
 10
35150.34133143
 20
-38567.33522882
 10
35162.58524503
 20
-38551.43795437
 10
35158.58524503
 20
-38547.43795437
 10
35162.58524503
 20
-38543.43795437
 10
35162.58524503
 20
-38479.43795437
 10
35158.58524503
 20
-38475.43795437
 10
35162.58524503
 20
-38471.43795437
 10
35162.58524503
 20
-38436.43795437
 10
35155.58524503
 20
-38436.43795437
 10
35155.58524503
 20
-38430.43795437
 10
35153.08524503
 20
-38425.43795437
 10
35150.58524503
 20
-38430.43795437
 10
35150.58524503
 20
-38461.36688656
 10
35150.20464269
 20
-38463.28030372
 10
35144.04971112
 20
-38469.97348828
 10
35142.58524503
 20
-38473.50902219
  0
LWPOLYLINE
  5
4EF
100
AcDbEntity
  8
Ech.1_5
 62
     7
  6
CONTINUOUS
370
    -3
100
AcDbPolyline
 90
        4
 70
     1
 43
0.0
 10
35187.65352459
 20
-38496.54141376
 10
35187.65352459
 20
-38541.54141376
 10
35286.14961623
 20
-38541.54141376
 10
35286.14961623
 20
-38496.54141376
  0
LWPOLYLINE
  5
4F0
100
AcDbEntity
  8
Ech.1_5
 62
   190
  6
CONTINUOUS
370
    -3
100
AcDbPolyline
 90
        4
 70
     1
 43
0.0
 10
35187.65352459
 20
-38496.54141376
 10
35187.65352459
 20
-38541.54141376
 10
35286.14961623
 20
-38541.54141376
 10
35286.14961623
 20
-38496.54141376
  0
LWPOLYLINE
  5
4F1
100
AcDbEntity
  8
Ech.1_5
 62
     5
  6
CONTINUOUS
370
    -3
100
AcDbPolyline
 90
        5
 70
     0
 43
0.0
 10
35187.65352459
 20
-38496.54141376
 10
35286.14961623
 20
-38496.54141376
 10
35286.14961623
 20
-38541.54141376
 10
35187.65352459
 20
-38541.54141376
 10
35187.65352459
 20
-38496.54141376
  0
LWPOLYLINE
  5
4F2
100
AcDbEntity
  8
Ech.1_5
 62
     7
  6
CONTINUOUS
370
    -3
100
AcDbPolyline
 90
        4
 70
     1
 43
0.0
 10
35187.65352459
 20
-38199.47803249
 10
35187.65352459
 20
-38244.47803249
 10
35286.14961623
 20
-38244.47803249
 10
35286.14961623
 20
-38199.47803249
  0
LWPOLYLINE
  5
4F3
100
AcDbEntity
  8
Ech.1_5
 62
   190
  6
CONTINUOUS
370
    -3
100
AcDbPolyline
 90
        4
 70
     1
 43
0.0
 10
35187.65352459
 20
-38199.47803249
 10
35187.65352459
 20
-38244.47803249
 10
35286.14961623
 20
-38244.47803249
 10
35286.14961623
 20
-38199.47803249
  0
LWPOLYLINE
  5
4F4
100
AcDbEntity
  8
Ech.1_5
 62
     5
  6
CONTINUOUS
370
    -3
100
AcDbPolyline
 90
        5
 70
     0
 43
0.0
 10
35187.65352459
 20
-38199.47803249
 10
35286.14961623
 20
-38199.47803249
 10
35286.14961623
 20
-38244.47803249
 10
35187.65352459
 20
-38244.47803249
 10
35187.65352459
 20
-38199.47803249
  0
LWPOLYLINE
  5
4F5
100
AcDbEntity
  8
Ech.1_5
 62
     7
  6
CONTINUOUS
370
    -3
100
AcDbPolyline
 90
        4
 70
     1
 43
0.0
 10
35187.65352459
 20
-37994.86882652
 10
35187.65352459
 20
-38039.86882652
 10
35286.14961623
 20
-38039.86882652
 10
35286.14961623
 20
-37994.86882652
  0
LWPOLYLINE
  5
4F6
100
AcDbEntity
  8
Ech.1_5
 62
   190
  6
CONTINUOUS
370
    -3
100
AcDbPolyline
 90
        4
 70
     1
 43
0.0
 10
35187.65352459
 20
-37994.86882652
 10
35187.65352459
 20
-38039.86882652
 10
35286.14961623
 20
-38039.86882652
 10
35286.14961623
 20
-37994.86882652
  0
LWPOLYLINE
  5
4F7
100
AcDbEntity
  8
Ech.1_5
 62
     5
  6
CONTINUOUS
370
    -3
100
AcDbPolyline
 90
        5
 70
     0
 43
0.0
 10
35187.65352459
 20
-37994.86882652
 10
35286.14961623
 20
-37994.86882652
 10
35286.14961623
 20
-38039.86882652
 10
35187.65352459
 20
-38039.86882652
 10
35187.65352459
 20
-37994.86882652
  0
LWPOLYLINE
  5
4F8
100
AcDbEntity
  8
Ech.1_5
 62
     5
  6
CONTINUOUS
370
    -3
100
AcDbPolyline
 90
        5
 70
     0
 43
0.0
 10
35187.65352459
 20
-37994.86882652
 10
35286.14961623
 20
-37994.86882652
 10
35286.14961623
 20
-38039.86882652
 10
35187.65352459
 20
-38039.86882652
 10
35187.65352459
 20
-37994.86882652
  0
LWPOLYLINE
  5
4F9
100
AcDbEntity
  8
Ech.1_5
 62
     8
  6
CONTINUOUS
370
    70
100
AcDbPolyline
 90
        3
 70
     0
 43
0.0
 10
35164.93816994
 20
-38541.54141376
 10
35183.43297875
 20
-38541.54141376
 10
35183.43297875
 20
-38503.29365293
  0
LWPOLYLINE
  5
4FA
100
AcDbEntity
  8
Ech.1_5
 62
   190
  6
CONTINUOUS
370
    -3
100
AcDbPolyline
 90
        8
 70
     1
 43
0.0
 10
35295.14961623
 20
-38451.54141376
 10
35440.14961623
 20
-38451.54141376
 10
35440.14961623
 20
-37957.34029878
 10
35370.69234983
 20
-37957.34066974
 10
35354.20599575
 20
-37975.31902135
 10
35368.31593576
 20
-37939.36332134
 10
35351.83043261
 20
-37957.34066974
 10
35295.14961623
 20
-37957.34066974
  0
LWPOLYLINE
  5
4FB
100
AcDbEntity
  8
Ech.1_5
 62
   204
  6
DASHDOT
370
    70
100
AcDbPolyline
 90
        4
 70
     0
 43
0.0
 38
2500.0
 10
35292.91218983
 20
-38544.47968418
 10
35287.98740687
 20
-38544.47968418
 10
35449.07485353
 20
-38544.47968418
 10
35458.55065779
 20
-38544.47968418
  0
LWPOLYLINE
  5
4FC
100
AcDbEntity
  8
Ech.1_5
 62
     7
  6
CONTINUOUS
370
    -3
100
AcDbPolyline
 90
       12
 70
     1
 43
0.0
 10
35295.14961623
 20
-38496.54141376
 10
35295.14961623
 20
-38541.54141376
 10
35329.90926837
 20
-38541.54141376
 10
35329.90930633
 20
-38541.54103321
 10
35355.73383742
 20
-38541.54103321
 10
35355.73379945
 20
-38541.54141376
 10
35369.97118412
 20
-38541.54141377
 10
35369.97122209
 20
-38541.54036381
 10
35395.79575317
 20
-38541.54036381
 10
35395.79571521
 20
-38541.54141376
 10
35440.14961623
 20
-38541.54141376
 10
35440.14961623
 20
-38496.54141376
  0
LWPOLYLINE
  5
4FD
100
AcDbEntity
  8
Ech.1_5
 62
     7
  6
CONTINUOUS
370
    -3
100
AcDbPolyline
 90
        4
 70
     1
 43
0.0
 10
35295.14961623
 20
-38451.54141376
 10
35295.14961623
 20
-38496.54141376
 10
35440.14961623
 20
-38496.54141376
 10
35440.14961623
 20
-38451.54141376
  0
LWPOLYLINE
  5
4FE
100
AcDbEntity
  8
Ech.1_5
 62
   190
  6
CONTINUOUS
370
    -3
100
AcDbPolyline
 90
        4
 70
     0
 43
0.0
 10
35295.14961623
 20
-38541.54141376
 10
35440.14961623
 20
-38496.54141376
 10
35440.14961623
 20
-38541.54141376
 10
35295.14961623
 20
-38496.54141376
  0
LWPOLYLINE
  5
4FF
100
AcDbEntity
  8
Ech.1_5
 62
   190
  6
CONTINUOUS
370
    -3
100
AcDbPolyline
 90
        4
 70
     0
 43
0.0
 10
35295.14961623
 20
-38496.54141376
 10
35440.14961623
 20
-38451.54141376
 10
35440.14961623
 20
-38496.54141376
 10
35295.14961623
 20
-38451.54141376
  0
LWPOLYLINE
  5
500
100
AcDbEntity
  8
Ech.1_5
 62
     5
  6
CONTINUOUS
370
    -3
100
AcDbPolyline
 90
        5
 70
     0
 43
0.0
 10
35295.14961623
 20
-38451.54141376
 10
35440.14961623
 20
-38451.54141376
 10
35440.14961623
 20
-38496.54141376
 10
35295.14961623
 20
-38496.54141376
 10
35295.14961623
 20
-38451.54141376
  0
LWPOLYLINE
  5
501
100
AcDbEntity
  8
Ech.1_5
 62
     5
  6
CONTINUOUS
370
    -3
100
AcDbPolyline
 90
       13
 70
     0
 43
0.0
 10
35295.14961623
 20
-38496.54141376
 10
35295.14961623
 20
-38541.54141376
 10
35329.90926837
 20
-38541.54141376
 10
35329.90930633
 20
-38541.54103321
 10
35355.73383742
 20
-38541.54103321
 10
35355.73379945
 20
-38541.54141376
 10
35369.97118412
 20
-38541.54141377
 10
35369.97122209
 20
-38541.54036381
 10
35395.79575317
 20
-38541.54036381
 10
35395.79571521
 20
-38541.54141376
 10
35440.14961623
 20
-38541.54141376
 10
35440.14961623
 20
-38496.54141376
 10
35295.14961623
 20
-38496.54141376
  0
LWPOLYLINE
  5
502
100
AcDbEntity
  8
Ech.1_5
 62
     7
  6
BYBLOCK
100
AcDbPolyline
 90
        5
 70
     0
 43
0.0
 10
35404.97118412
 20
-38550.97357812
 10
35430.79571521
 20
-38550.97357812
 10
35430.79571521
 20
-38541.54091806
 10
35404.97118412
 20
-38541.54091806
 10
35404.97118412
 20
-38550.97357812
  0
LWPOLYLINE
  5
503
100
AcDbEntity
  8
Ech.1_5
 62
   190
  6
CONTINUOUS
370
    -3
100
AcDbPolyline
 90
        4
 70
     1
 43
0.0
 10
35295.14961623
 20
-37957.34066974
 10
35286.14961623
 20
-37957.34066974
 10
35286.14961623
 20
-38531.54141376
 10
35295.14961623
 20
-38531.54141376
  0
LWPOLYLINE
  5
504
102
{ACAD_REACTORS
330
505
102
}
100
AcDbEntity
  8
Ech.1_5
 62
     9
  6
CONTINUOUS
370
    -3
100
AcDbPolyline
 90
       17
 70
     1
 43
0.0
 38
2500.0
 39
-2500.0
 10
35860.85037238
 20
-38871.5422866
 10
35500.14961623
 20
-38871.5422866
 10
35500.1496796
 20
-38945.19010761
 10
35406.38568524
 20
-38945.19010761
 10
35389.90018209
 20
-38963.16745601
 10
35404.01012211
 20
-38927.211756
 10
35387.52376802
 20
-38945.19010761
 10
35300.14961623
 20
-38945.19010761
 10
35300.14961623
 20
-38541.54141376
 10
35500.14961623
 20
-38541.54141376
 10
35500.14961623
 20
-38741.5422866
 10
35798.89604051
 20
-38741.54038158
 10
35860.84975082
 20
-38741.5422866
 10
35860.85024638
 20
-38797.11090252
 10
35878.82859799
 20
-38813.59725661
 10
35842.87289797
 20
-38799.48731659
 10
35860.85024638
 20
-38815.97281974
  0
HATCH
  5
505
100
AcDbEntity
  8
Ech.1_5
 62
     9
  6
CONTINUOUS
100
AcDbHatch
 10
0.0
 20
0.0
 30
0.0
210
0.0
220
0.0
230
1.0
  2
AR-CONC
 70
     0
 71
     1
 91
        1
 92
        7
 72
     0
 73
     1
 93
       17
 10
35860.85037238
 20
-38871.5422866
 10
35500.14961623
 20
-38871.5422866
 10
35500.1496796
 20
-38945.19010761
 10
35406.38568524
 20
-38945.19010761
 10
35389.90018209
 20
-38963.16745601
 10
35404.01012211
 20
-38927.211756
 10
35387.52376802
 20
-38945.19010761
 10
35300.14961623
 20
-38945.19010761
 10
35300.14961623
 20
-38541.54141376
 10
35500.14961623
 20
-38541.54141376
 10
35500.14961623
 20
-38741.5422866
 10
35798.89604051
 20
-38741.54038158
 10
35860.84975082
 20
-38741.5422866
 10
35860.85024638
 20
-38797.11090252
 10
35878.82859799
 20
-38813.59725661
 10
35842.87289797
 20
-38799.48731659
 10
35860.85024638
 20
-38815.97281974
 97
        1
330
504
 75
     0
 76
     2
 52
0.0
 41
0.11811097
 77
     0
 78
    13
 53
50.0
 43
0.0
 44
0.0
 45
-18.84283637
 46
1.64853443
 79
     2
 49
1.97029307
 49
-21.67322338
 53
355.0
 43
0.0
 44
0.0
 45
-3.64507756
 46
19.76051824
 79
     2
 49
1.57623377
 49
-17.3385787
 53
100.45140076
 43
1.57023568
 44
-0.13737749
 45
-15.19777228
 46
-18.11197244
 79
     2
 49
1.67449124
 49
-18.41940522
 53
46.18420029
 43
0.0
 44
5.25411576
 45
-28.03703353
 46
4.34827878
 79
     2
 49
2.95543872
 49
-32.50983238
 53
96.63559723
 43
2.33641885
 44
4.89175692
 45
-24.55412615
 46
-25.59063404
 79
     2
 49
2.51173697
 49
-27.62910426
 53
351.1842041
 43
0.0
 44
5.25411576
 45
24.55410288
 46
25.59065715
 79
     2
 49
2.36435249
 49
-26.00786805
 53
21.0
 43
2.62705699
 44
3.94058615
 45
-15.68109068
 46
10.57702905
 79
     2
 49
1.97029307
 49
-21.67322338
 53
326.0
 43
2.62705699
 44
3.94058615
 45
6.39203268
 46
19.05010734
 79
     2
 49
1.57623377
 49
-17.3385787
 53
71.45140076
 43
3.93381357
 44
3.05916555
 45
-22.07312962
 46
-8.47306182
 79
     2
 49
1.67449124
 49
-18.41940522
 53
37.5
 43
0.0
 44
0.0
 45
0.31944534
 46
8.74531245
 79
     6
 49
0.01875
 49
-17.12841332
 49
0.01875
 49
-17.60128498
 49
0.01875
 49
-17.40425348
 53
7.5
 43
0.0
 44
0.0
 45
6.91098818
 46
10.3614222
 79
     6
 49
0.01875
 49
-10.03535807
 49
0.01875
 49
-16.7343539
 49
0.01875
 49
-6.6333206
 53
-32.5
 43
-5.85833833
 44
0.0
 45
14.02382061
 46
-0.59253003
 79
     6
 49
0.01875
 49
-6.56764314
 49
0.01875
 49
-20.49104869
 49
0.01875
 49
-27.19004452
 53
-42.5
 43
-8.48539531
 44
0.0
 45
15.32063571
 46
2.62981542
 79
     6
 49
0.01875
 49
-8.53793621
 49
0.01875
 49
-13.60815793
 49
0.01875
 49
-19.30887222
 47
0.775229
 98
        1
 10
0.0
 20
0.0
  0
LINE
  5
506
100
AcDbEntity
  8
Ech.1_5
 62
     7
  6
CONTINUOUS
370
    -3
100
AcDbLine
 10
35585.14961623
 20
-38341.5426118
 30
0.0
 11
35485.14961623
 21
-38341.5426118
 31
0.0
  0
LWPOLYLINE
  5
507
100
AcDbEntity
  8
Ech.1_5
 62
   190
  6
CONTINUOUS
370
    -3
100
AcDbPolyline
 90
        4
 70
     1
 43
0.0
 10
35485.14961623
 20
-38121.5426118
 10
35440.14961623
 20
-38121.5426118
 10
35440.14961623
 20
-38341.5426118
 10
35485.14961623
 20
-38341.5426118
  0
LWPOLYLINE
  5
508
100
AcDbEntity
  8
Ech.1_5
 62
   190
  6
CONTINUOUS
370
    -3
100
AcDbPolyline
 90
        4
 70
     1
 43
0.0
 10
35440.14961623
 20
-38341.5426118
 10
35485.14961623
 20
-38341.5426118
 10
35485.14961623
 20
-38121.5426118
 10
35440.14961623
 20
-38121.5426118
  0
LWPOLYLINE
  5
509
100
AcDbEntity
  8
Ech.1_5
 62
   190
  6
CONTINUOUS
370
    -3
100
AcDbPolyline
 90
        4
 70
     1
 43
0.0
 10
35493.14961623
 20
-37957.34029878
 10
35480.14961623
 20
-37957.34029878
 10
35480.14961623
 20
-38092.5426118
 10
35493.14961623
 20
-38092.5426118
  0
LWPOLYLINE
  5
50A
100
AcDbEntity
  8
Ech.1_5
 62
   190
  6
CONTINUOUS
370
    -3
100
AcDbPolyline
 90
        4
 70
     1
 43
0.0
 10
35440.14961623
 20
-38121.5426118
 10
35440.14961623
 20
-38102.5426118
 10
35888.96959516
 20
-38102.5426118
 10
35888.96959516
 20
-38121.5426118
  0
LWPOLYLINE
  5
50B
102
{ACAD_REACTORS
330
50C
102
}
100
AcDbEntity
  8
Ech.1_5
 62
     7
  6
CONTINUOUS
370
    -3
100
AcDbPolyline
 90
        4
 70
     1
 43
0.0
 10
35440.14961623
 20
-38121.5426118
 10
35440.14961623
 20
-38102.5426118
 10
35888.96959516
 20
-38102.5426118
 10
35888.96959516
 20
-38121.5426118
  0
HATCH
  5
50C
100
AcDbEntity
  8
Ech.1_5
 62
   190
  6
CONTINUOUS
100
AcDbHatch
 10
0.0
 20
0.0
 30
0.0
210
0.0
220
0.0
230
1.0
  2
ANSI38
 70
     0
 71
     1
 91
        1
 92
        7
 72
     0
 73
     1
 93
        4
 10
35440.14961623
 20
-38121.5426118
 10
35440.14961623
 20
-38102.5426118
 10
35888.96959516
 20
-38102.5426118
 10
35888.96959516
 20
-38121.5426118
 97
        1
330
50B
 75
     0
 76
     2
 52
0.0
 41
1.0
 77
     0
 78
     2
 53
45.0
 43
0.0
 44
0.0
 45
-8.48528171
 46
8.48528171
 79
     2
 49
960.00003815
 49
0.0
 53
135.0
 43
0.0
 44
0.0
 45
-25.45584513
 46
8.48528171
 79
     2
 49
30.00000119
 49
-18.00000072
 47
0.775229
 98
        1
 10
0.0
 20
0.0
  0
LWPOLYLINE
  5
50D
100
AcDbEntity
  8
Ech.1_5
 62
   190
  6
CONTINUOUS
370
    -3
100
AcDbPolyline
 90
        4
 70
     1
 43
0.0
 10
35440.14961623
 20
-38092.5426118
 10
35480.14961623
 20
-38092.5426118
 10
35480.14961623
 20
-38047.5426118
 10
35440.14961623
 20
-38047.5426118
  0
LWPOLYLINE
  5
50E
100
AcDbEntity
  8
Ech.1_5
 62
   190
370
    18
100
AcDbPolyline
 90
        4
 70
     0
 43
0.0
 10
35440.14961623
 20
-38047.5426118
 10
35480.14961623
 20
-38092.5426118
 10
35480.14961623
 20
-38047.5426118
 10
35440.14961623
 20
-38092.5426118
  0
LWPOLYLINE
  5
50F
100
AcDbEntity
  8
Ech.1_5
 62
     5
100
AcDbPolyline
 90
        5
 70
     0
 43
0.0
 10
35440.14961623
 20
-38092.5426118
 10
35480.14961623
 20
-38092.5426118
 10
35480.14961623
 20
-38047.5426118
 10
35440.14961623
 20
-38047.5426118
 10
35440.14961623
 20
-38092.5426118
  0
LWPOLYLINE
  5
510
100
AcDbEntity
  8
Ech.1_5
100
AcDbPolyline
 90
        6
 70
     0
 43
0.0
 10
35493.15103142
 20
-38022.8777719
 10
35496.14961622
 20
-38022.87784083
 42
-0.41421356
 10
35506.14961622
 20
-38032.87784083
 10
35506.14961622
 20
-38088.54261414
 10
35493.14961623
 20
-38088.54261647
 10
35493.14961623
 20
-38022.87784316
  0
LWPOLYLINE
  5
511
102
{ACAD_REACTORS
330
512
102
}
100
AcDbEntity
  8
Ech.1_5
 62
   190
  6
CONTINUOUS
370
    -3
100
AcDbPolyline
 90
        4
 70
     1
 43
0.0
 10
35888.96908777
 20
-38102.54261414
 10
35888.96907606
 20
-38088.54261414
 10
35503.14961623
 20
-38088.54261414
 10
35503.14961623
 20
-38102.54261414
  0
HATCH
  5
512
100
AcDbEntity
  8
Ech.1_5
 62
   190
  6
CONTINUOUS
100
AcDbHatch
 10
0.0
 20
0.0
 30
0.0
210
0.0
220
0.0
230
1.0
  2
ANSI31
 70
     0
 71
     1
 91
        1
 92
        7
 72
     0
 73
     1
 93
        4
 10
35888.96908777
 20
-38102.54261414
 10
35888.96907606
 20
-38088.54261414
 10
35503.14961623
 20
-38088.54261414
 10
35503.14961623
 20
-38102.54261414
 97
        1
330
511
 75
     0
 76
     2
 52
90.0
 41
3.14962605
 77
     0
 78
     1
 53
-45.0
 43
0.0
 44
0.0
 45
7.07106781
 46
7.07106781
 79
     0
 47
0.775229
 98
        1
 10
0.0
 20
0.0
  0
LWPOLYLINE
  5
513
100
AcDbEntity
  8
Ech.1_5
 62
   190
  6
CONTINUOUS
370
    -3
100
AcDbPolyline
 90
       40
 70
     0
 43
0.0
 10
35415.98294956
 20
-38451.54141376
 42
1.14028181
 10
35409.72814189
 20
-38404.0315434
 10
35325.57109057
 20
-38426.55128413
 42
-1.30322619
 10
35325.57109057
 20
-38379.86487674
 10
35409.72814189
 20
-38402.38461746
 42
1.30322619
 10
35409.72814189
 20
-38355.69821007
 10
35325.57109057
 20
-38378.21795079
 42
-1.30322619
 10
35325.57109057
 20
-38331.5315434
 10
35409.72814189
 20
-38354.05128413
 42
1.30322619
 10
35409.72814189
 20
-38307.36487674
 10
35325.57109057
 20
-38329.88461746
 42
-1.30322619
 10
35325.57109057
 20
-38283.19821007
 10
35409.72814189
 20
-38305.71795079
 42
1.30322619
 10
35409.72814189
 20
-38259.0315434
 10
35325.57109057
 20
-38281.55128413
 42
-1.30322619
 10
35325.57109057
 20
-38234.86487674
 10
35409.72814189
 20
-38257.38461746
 42
1.30322619
 10
35409.72814189
 20
-38210.69821007
 10
35325.57109057
 20
-38233.21795079
 42
-1.30322619
 10
35325.57109057
 20
-38186.5315434
 10
35409.72814189
 20
-38209.05128413
 42
1.30322619
 10
35409.72814189
 20
-38162.36487674
 10
35325.57109057
 20
-38184.88461746
 42
-1.30322619
 10
35325.57109057
 20
-38138.19821007
 10
35409.72814189
 20
-38160.71795079
 42
1.30322619
 10
35409.72814189
 20
-38114.0315434
 10
35325.57109057
 20
-38136.55128413
 42
-1.30322619
 10
35325.57109057
 20
-38089.86487674
 10
35409.72814189
 20
-38112.38461746
 42
1.30322619
 10
35409.72814189
 20
-38065.69821007
 10
35325.57109057
 20
-38088.21795079
 42
-1.30322619
 10
35325.57109057
 20
-38041.5315434
 10
35409.72814189
 20
-38064.05128413
 42
1.30322619
 10
35409.72814189
 20
-38017.36487674
 10
35325.57109057
 20
-38039.88461746
 42
-1.30322619
 10
35325.57109057
 20
-37993.19821007
 10
35409.72814189
 20
-38015.71795079
 42
1.30322619
 10
35409.72814189
 20
-37969.0315434
 10
35325.57109057
 20
-37991.55128413
 42
-0.64770022
 10
35297.73112365
 20
-37957.34029878
  0
LWPOLYLINE
  5
514
100
AcDbEntity
  8
Ech.1_5
 62
   190
  6
CONTINUOUS
370
    -3
100
AcDbPolyline
 90
        3
 70
     0
 43
0.0
 10
35372.192175
 20
-37957.34029878
 10
35409.72814189
 20
-37967.38461746
 42
0.32305157
 10
35436.16133986
 20
-37957.34029878
  0
CIRCLE
  5
515
100
AcDbEntity
  8
Ech.1_5
 62
     7
  6
CONTINUOUS
100
AcDbCircle
 10
35465.60615407
 20
-38537.39871424
 30
0.0
 40
6.16444121
  0
LWPOLYLINE
  5
516
100
AcDbEntity
  8
Ech.1_5
 62
   190
  6
CONTINUOUS
370
    -3
100
AcDbPolyline
 90
        4
 70
     1
 43
0.0
 10
35449.14961623
 20
-38341.5426118
 10
35440.14961623
 20
-38341.5426118
 10
35440.14961623
 20
-38541.54141376
 10
35449.14961623
 20
-38541.54141376
  0
LWPOLYLINE
  5
517
100
AcDbEntity
  8
Ech.1_5
 62
   190
  6
CONTINUOUS
370
    -3
100
AcDbPolyline
 90
        6
 70
     0
 43
0.0
 10
35888.97010683
 20
-38059.7233054
 10
35888.97010683
 20
-38253.65011123
 10
35906.94745516
 20
-38270.13561439
 10
35870.99175524
 20
-38256.02567437
 10
35888.97010683
 20
-38272.51202845
 10
35888.97010683
 20
-38365.85658022
  0
LWPOLYLINE
  5
518
100
AcDbEntity
  8
Ech.1_5
 62
     9
  6
CONTINUOUS
370
    -3
100
AcDbPolyline
 90
        6
 70
     0
 43
0.0
 10
35110.14727827
 20
-38945.19010761
 10
35387.52376802
 20
-38945.19010761
 10
35404.00927118
 20
-38927.21275928
 10
35389.89933116
 20
-38963.1684592
 10
35406.38568524
 20
-38945.19010761
 10
35521.1418686
 20
-38945.19010761
  0
LINE
  5
519
100
AcDbEntity
  8
Ech.1_5
 62
   190
  6
CONTINUOUS
370
    -3
100
AcDbLine
 10
35571.97969427
 20
-38341.5426118
 30
0.0
 11
35571.97969427
 21
-38741.5422866
 31
0.0
  0
INSERT
  5
51A
100
AcDbEntity
  8
Ech.1_5
 62
   190
  6
CONTINUOUS
370
    -3
100
AcDbBlockReference
  2
CDWK_EXTR_3
 10
35571.97969427
 20
-38341.5426118
 30
0.0
 41
10.0
 42
10.0
 43
10.0
 50
270.0
  0
INSERT
  5
51B
100
AcDbEntity
  8
Ech.1_5
 62
   190
  6
CONTINUOUS
370
    -3
100
AcDbBlockReference
  2
CDWK_EXTR_3
 10
35571.97969427
 20
-38741.5422866
 30
0.0
 41
10.0
 42
10.0
 43
10.0
 50
90.0
  0
LWPOLYLINE
  5
51C
100
AcDbEntity
  8
Ech.1_5
 62
   190
  6
CONTINUOUS
370
    -3
100
AcDbPolyline
 90
        6
 70
     0
 43
0.0
 10
35127.30935077
 20
-37957.34066974
 10
35351.83043261
 20
-37957.34066974
 10
35368.31593576
 20
-37939.36332142
 10
35354.20599575
 20
-37975.31902134
 10
35370.69234983
 20
-37957.34066974
 10
35505.84677459
 20
-37957.34066974
  0
LWPOLYLINE
  5
51D
100
AcDbEntity
  8
Ech.1_5
 62
   190
  6
CONTINUOUS
370
    -3
100
AcDbPolyline
 90
        5
 70
     1
 43
0.0
 10
35286.58524503
 20
-38550.97407383
 10
35200.05623114
 20
-38550.97407383
 10
35196.58524503
 20
-38550.97407383
 10
35196.58524503
 20
-38945.19010761
 10
35286.58524503
 20
-38945.19010761
  0
LINE
  5
51E
100
AcDbEntity
  8
Ech.1_5
 62
     0
  6
CONTINUOUS
100
AcDbLine
 10
35286.58524503
 20
-38623.72621511
 30
0.0
 11
35286.58524503
 21
-38945.19010761
 31
0.0
  0
LINE
  5
51F
100
AcDbEntity
  8
Ech.1_5
 62
   190
  6
CONTINUOUS
370
    -3
100
AcDbLine
 10
35286.58524503
 20
-38945.19010761
 30
0.0
 11
35286.58524503
 21
-38623.72564385
 31
0.0
  0
LWPOLYLINE
  5
520
100
AcDbEntity
  8
Ech.1_5
 62
   190
  6
CONTINUOUS
370
    -3
100
AcDbPolyline
 90
        4
 70
     1
 43
0.0
 10
35196.58524503
 20
-38550.97407383
 10
35187.58524503
 20
-38550.97407383
 10
35187.58524503
 20
-38945.19010761
 10
35196.58524503
 20
-38945.19010761
  0
LINE
  5
521
100
AcDbEntity
  8
Ech.1_5
 62
     7
  6
CONTINUOUS
370
    18
100
AcDbLine
 10
35187.58920511
 20
-38623.72616551
 30
0.0
 11
35187.58920511
 21
-38945.19010761
 31
0.0
  0
LWPOLYLINE
  5
522
100
AcDbEntity
  8
Ech.1_5
 62
     0
  6
BYBLOCK
100
AcDbPolyline
 90
        3
 70
     0
 43
0.0
 10
35184.33920743
 20
-38794.73179768
 42
1.0
 10
35186.83920743
 20
-38794.73179768
 42
1.0
 10
35184.33920743
 20
-38794.73179768
  0
LINE
  5
523
100
AcDbEntity
  8
Ech.1_5
 62
     0
  6
BYBLOCK
100
AcDbLine
 10
35183.08920743
 20
-38794.73179768
 30
0.0
 11
35180.58920743
 21
-38794.73179768
 31
0.0
  0
LWPOLYLINE
  5
524
100
AcDbEntity
  8
Ech.1_5
 62
     7
  6
CONTINUOUS
370
    -3
100
AcDbPolyline
 90
        4
 70
     1
 43
0.0
 10
35196.58524503
 20
-38550.97347396
 10
35196.58524503
 20
-38595.97347396
 10
35286.14961623
 20
-38595.97347396
 10
35286.14961623
 20
-38550.97347396
  0
LWPOLYLINE
  5
525
100
AcDbEntity
  8
Ech.1_5
 62
   190
  6
CONTINUOUS
370
    -3
100
AcDbPolyline
 90
        4
 70
     1
 43
0.0
 10
35196.58524503
 20
-38550.97347396
 10
35196.58524503
 20
-38595.97347396
 10
35286.14961623
 20
-38595.97347396
 10
35286.14961623
 20
-38550.97347396
  0
LWPOLYLINE
  5
526
100
AcDbEntity
  8
Ech.1_5
 62
     5
  6
CONTINUOUS
370
    -3
100
AcDbPolyline
 90
        5
 70
     0
 43
0.0
 10
35196.58524503
 20
-38550.97347396
 10
35286.14961623
 20
-38550.97347396
 10
35286.14961623
 20
-38595.97347396
 10
35196.58524503
 20
-38595.97347396
 10
35196.58524503
 20
-38550.97347396
  0
LWPOLYLINE
  5
527
100
AcDbEntity
  8
Ech.1_5
 62
     9
100
AcDbPolyline
 90
       27
 70
     0
 43
0.0
 10
35149.45862791
 20
-38779.68660806
 10
35149.58524503
 20
-38779.35213445
 10
35149.58524503
 20
-38751.96866963
 10
35156.58524503
 20
-38751.96866963
 10
35156.58524503
 20
-38760.96866963
 10
35162.58524503
 20
-38760.96866963
 10
35162.58524503
 20
-38733.96866963
 10
35158.58524503
 20
-38729.96866963
 10
35162.58524503
 20
-38725.96866963
 10
35162.58524503
 20
-38661.96866963
 10
35158.58524503
 20
-38657.96866963
 10
35162.58524503
 20
-38653.96866963
 10
35162.58524503
 20
-38618.96866963
 10
35155.58524503
 20
-38618.96866963
 10
35155.58524503
 20
-38612.96866963
 10
35153.08524503
 20
-38607.96866963
 10
35150.58524503
 20
-38612.96866963
 10
35150.58524503
 20
-38643.89760182
 10
35150.20464269
 20
-38645.81101964
 10
35144.04971112
 20
-38652.50420354
 10
35142.58524503
 20
-38656.03973744
 10
35142.58524503
 20
-38775.12648175
 10
35143.54556743
 20
-38776.75635121
 10
35148.28168828
 20
-38779.72770093
 10
35148.69368965
 20
-38779.96866963
 10
35149.00750714
 20
-38779.96866963
 10
35149.45862791
 20
-38779.68660806
  0
LWPOLYLINE
  5
528
100
AcDbEntity
  8
Ech.1_5
 62
     7
  6
CONTINUOUS
370
    50
100
AcDbPolyline
 90
        5
 70
     0
 43
0.0
 10
35185.58524503
 20
-38558.32816418
 10
35185.58524503
 20
-38583.20130227
 10
35134.05882019
 20
-38603.20130227
 10
35134.05882019
 20
-38633.20130227
 10
35136.26183354
 20
-38627.94227097
  0
LWPOLYLINE
  5
529
100
AcDbEntity
  8
Ech.1_5
 62
     9
  6
CONTINUOUS
370
    -3
100
AcDbPolyline
 90
        4
 70
     1
 43
0.0
 10
35162.58524503
 20
-38613.06721692
 10
35162.58524503
 20
-38945.19010761
 10
35187.58524503
 20
-38945.19010761
 10
35187.58524503
 20
-38613.06721692
  0
LWPOLYLINE
  5
52A
100
AcDbEntity
  8
Ech.1_5
 62
     9
  6
CONTINUOUS
100
AcDbPolyline
 90
       27
 70
     0
 43
0.0
 10
35149.45862791
 20
-38924.68660806
 10
35149.58524503
 20
-38924.35213445
 10
35149.58524503
 20
-38896.96866963
 10
35156.58524503
 20
-38896.96866963
 10
35156.58524503
 20
-38905.96866963
 10
35162.58524503
 20
-38905.96866963
 10
35162.58524503
 20
-38878.96866963
 10
35158.58524503
 20
-38874.96866963
 10
35162.58524503
 20
-38870.96866963
 10
35162.58524503
 20
-38806.96866963
 10
35158.58524503
 20
-38802.96866963
 10
35162.58524503
 20
-38798.96866963
 10
35162.58524503
 20
-38763.96866963
 10
35155.58524503
 20
-38763.96866963
 10
35155.58524503
 20
-38757.96866963
 10
35153.08524503
 20
-38752.96866963
 10
35150.58524503
 20
-38757.96866963
 10
35150.58524503
 20
-38788.89760182
 10
35150.20464269
 20
-38790.81101964
 10
35144.04971112
 20
-38797.50420354
 10
35142.58524503
 20
-38801.03973744
 10
35142.58524503
 20
-38920.12648175
 10
35143.54556743
 20
-38921.75635121
 10
35148.28168828
 20
-38924.72770093
 10
35148.69368965
 20
-38924.96866963
 10
35149.00750714
 20
-38924.96866963
 10
35149.45862791
 20
-38924.68660806
  0
LWPOLYLINE
  5
52B
102
{ACAD_REACTORS
330
52C
102
}
100
AcDbEntity
  8
Ech.1_5
 62
     7
  6
CONTINUOUS
370
     5
100
AcDbPolyline
 90
        4
 70
     1
 43
0.0
 10
35329.90926837
 20
-38550.97357812
 10
35355.73379945
 20
-38550.97357812
 10
35355.73379945
 20
-38541.54091806
 10
35329.90926837
 20
-38541.54091806
  0
HATCH
  5
52C
100
AcDbEntity
  8
Ech.1_5
 62
     2
  6
CONTINUOUS
100
AcDbHatch
 10
0.0
 20
0.0
 30
0.0
210
0.0
220
0.0
230
1.0
  2
SOLID
 70
     1
 71
     1
 91
        1
 92
        7
 72
     0
 73
     1
 93
        4
 10
35329.90926837
 20
-38550.97357812
 10
35355.73379945
 20
-38550.97357812
 10
35355.73379945
 20
-38541.54091806
 10
35329.90926837
 20
-38541.54091806
 97
        1
330
52B
 75
     0
 76
     2
 47
0.775229
 98
        1
 10
0.0
 20
0.0
  0
HATCH
  5
52D
100
AcDbEntity
  8
Ech.1_5
 62
     7
100
AcDbHatch
 10
0.0
 20
0.0
 30
0.0
210
0.0
220
0.0
230
1.0
  2
ANSI37
 70
     0
 71
     0
 91
        1
 92
        7
 72
     0
 73
     1
 93
        4
 10
35329.90926837
 20
-38550.97357812
 10
35355.73379945
 20
-38550.97357812
 10
35355.73379945
 20
-38541.54091806
 10
35329.90926837
 20
-38541.54091806
 97
        0
 75
     0
 76
     2
 52
0.0
 41
1.87498831
 77
     0
 78
     2
 53
45.0
 43
0.0
 44
0.0
 45
4.20946876
 46
-4.20946876
 79
     0
 53
-45.0
 43
0.0
 44
0.0
 45
4.20946876
 46
4.20946876
 79
     0
 47
0.775229
 98
        1
 10
0.0
 20
0.0
  0
LWPOLYLINE
  5
52E
102
{ACAD_REACTORS
330
52F
102
}
100
AcDbEntity
  8
Ech.1_5
 62
     7
  6
CONTINUOUS
370
     5
100
AcDbPolyline
 90
        4
 70
     1
 43
0.0
 10
35404.97118412
 20
-38550.97357812
 10
35430.79571521
 20
-38550.97357812
 10
35430.79571521
 20
-38541.54091806
 10
35404.97118412
 20
-38541.54091806
  0
HATCH
  5
52F
100
AcDbEntity
  8
Ech.1_5
 62
     2
  6
CONTINUOUS
100
AcDbHatch
 10
0.0
 20
0.0
 30
0.0
210
0.0
220
0.0
230
1.0
  2
SOLID
 70
     1
 71
     1
 91
        1
 92
        7
 72
     0
 73
     1
 93
        4
 10
35404.97118412
 20
-38550.97357812
 10
35430.79571521
 20
-38550.97357812
 10
35430.79571521
 20
-38541.54091806
 10
35404.97118412
 20
-38541.54091806
 97
        1
330
52E
 75
     0
 76
     2
 47
0.775229
 98
        1
 10
0.0
 20
0.0
  0
HATCH
  5
530
100
AcDbEntity
  8
Ech.1_5
 62
     7
100
AcDbHatch
 10
0.0
 20
0.0
 30
0.0
210
0.0
220
0.0
230
1.0
  2
ANSI37
 70
     0
 71
     0
 91
        1
 92
        7
 72
     0
 73
     1
 93
        4
 10
35404.97118412
 20
-38550.97357812
 10
35430.79571521
 20
-38550.97357812
 10
35430.79571521
 20
-38541.54091806
 10
35404.97118412
 20
-38541.54091806
 97
        0
 75
     0
 76
     2
 52
0.0
 41
1.87498831
 77
     0
 78
     2
 53
45.0
 43
0.0
 44
0.0
 45
4.20946876
 46
-4.20946876
 79
     0
 53
-45.0
 43
0.0
 44
0.0
 45
4.20946876
 46
4.20946876
 79
     0
 47
0.775229
 98
        1
 10
0.0
 20
0.0
  0
LWPOLYLINE
  5
531
100
AcDbEntity
  8
Ech.1_5
 62
   190
  6
CONTINUOUS
370
    -3
100
AcDbPolyline
 90
       46
 70
     0
 43
0.0
 10
35271.58526837
 20
-38945.20881926
 42
1.14028181
 10
35267.66619427
 20
-38915.72482304
 10
35215.44830087
 20
-38929.76773213
 42
-1.30322619
 10
35215.41215273
 20
-38900.79000712
 10
35267.66491909
 20
-38914.70259474
 42
1.30322619
 10
35267.62877095
 20
-38885.72486973
 10
35215.41087756
 20
-38899.76777882
 42
-1.30322619
 10
35215.37472942
 20
-38870.79005381
 10
35267.62749578
 20
-38884.70264142
 42
1.30322619
 10
35267.59134764
 20
-38855.72491641
 10
35215.37345424
 20
-38869.7678255
 42
-1.30322619
 10
35215.3373061
 20
-38840.79010049
 10
35267.59007247
 20
-38854.7026881
 42
1.30322619
 10
35267.55392433
 20
-38825.72496309
 10
35215.33603093
 20
-38839.76787219
 42
-1.30322619
 10
35215.29988279
 20
-38810.79014717
 10
35267.55264915
 20
-38824.70273479
 42
1.30322619
 10
35267.51650101
 20
-38795.72500978
 10
35215.29860762
 20
-38809.76791887
 42
-1.30322619
 10
35215.26245948
 20
-38780.79019386
 10
35267.51522584
 20
-38794.70278147
 42
1.30322619
 10
35267.4790777
 20
-38765.72505646
 10
35215.2611843
 20
-38779.76796555
 42
-1.30322619
 10
35215.22503616
 20
-38750.79024054
 10
35267.47780253
 20
-38764.70282816
 42
1.30322619
 10
35267.44165439
 20
-38735.72510314
 10
35215.22376099
 20
-38749.76801224
 42
-1.30322619
 10
35215.18761285
 20
-38720.79028722
 10
35267.44037921
 20
-38734.70287484
 42
1.30322619
 10
35267.40423107
 20
-38705.72514983
 10
35215.18633768
 20
-38719.76805892
 42
-1.30322619
 10
35215.15018954
 20
-38690.79033391
 10
35267.4029559
 20
-38704.70292152
 42
1.30322619
 10
35267.36680776
 20
-38675.72519651
 10
35215.14891436
 20
-38689.7681056
 42
-1.30322619
 10
35215.11276622
 20
-38660.79038059
 10
35267.36553258
 20
-38674.70296821
 42
1.30322619
 10
35267.32938444
 20
-38645.72524319
 10
35215.11149105
 20
-38659.76815229
 42
-1.30322619
 10
35215.07534291
 20
-38630.79042728
 10
35267.32810927
 20
-38644.70301489
 42
1.30322619
 10
35267.29196113
 20
-38615.72528988
 10
35215.07406773
 20
-38629.76819897
 42
-1.30322619
 10
35215.03791959
 20
-38600.79047396
 10
35267.29068596
 20
-38614.70306157
 42
0.58510577
 10
35285.54459607
 20
-38595.97422869
  0
LWPOLYLINE
  5
532
102
{ACAD_REACTORS
330
533
102
}
100
AcDbEntity
  8
Ech.1_5
 62
     7
  6
CONTINUOUS
370
     5
100
AcDbPolyline
 90
        4
 70
     1
 43
0.0
 10
35187.65352459
 20
-38550.97407387
 10
35213.47805568
 20
-38550.97407387
 10
35213.47805568
 20
-38541.54141376
 10
35187.65352459
 20
-38541.54141376
  0
HATCH
  5
533
100
AcDbEntity
  8
Ech.1_5
 62
     2
  6
CONTINUOUS
100
AcDbHatch
 10
0.0
 20
0.0
 30
0.0
210
0.0
220
0.0
230
1.0
  2
SOLID
 70
     1
 71
     1
 91
        1
 92
        7
 72
     0
 73
     1
 93
        4
 10
35187.65352459
 20
-38550.97407387
 10
35213.47805568
 20
-38550.97407387
 10
35213.47805568
 20
-38541.54141376
 10
35187.65352459
 20
-38541.54141376
 97
        1
330
532
 75
     0
 76
     2
 47
0.775229
 98
        1
 10
0.0
 20
0.0
  0
HATCH
  5
534
100
AcDbEntity
  8
Ech.1_5
 62
     7
100
AcDbHatch
 10
0.0
 20
0.0
 30
0.0
210
0.0
220
0.0
230
1.0
  2
ANSI37
 70
     0
 71
     0
 91
        1
 92
        7
 72
     0
 73
     1
 93
        4
 10
35187.65352459
 20
-38550.97407387
 10
35213.47805568
 20
-38550.97407387
 10
35213.47805568
 20
-38541.54141376
 10
35187.65352459
 20
-38541.54141376
 97
        0
 75
     0
 76
     2
 52
0.0
 41
1.87498831
 77
     0
 78
     2
 53
45.0
 43
0.0
 44
0.0
 45
4.20946876
 46
-4.20946876
 79
     0
 53
-45.0
 43
0.0
 44
0.0
 45
4.20946876
 46
4.20946876
 79
     0
 47
0.775229
 98
        1
 10
0.0
 20
0.0
  0
LWPOLYLINE
  5
535
100
AcDbEntity
  8
Ech.1_5
 62
   190
  6
CONTINUOUS
370
    -3
100
AcDbPolyline
 90
        4
 70
     1
 43
0.0
 10
35213.47805568
 20
-38550.97407383
 10
35286.14961623
 20
-38550.97319025
 10
35286.14961623
 20
-38541.54053019
 10
35213.47805568
 20
-38541.54141376
  0
LWPOLYLINE
  5
536
100
AcDbEntity
  8
Ech.1_5
 62
   190
  6
CONTINUOUS
370
    -3
100
AcDbPolyline
 90
        4
 70
     0
 43
0.0
 10
35286.14961623
 20
-38541.54053019
 10
35213.47805568
 20
-38550.97407383
 10
35213.47805568
 20
-38541.54141376
 10
35286.14961623
 20
-38550.97319025
  0
LWPOLYLINE
  5
537
100
AcDbEntity
  8
Ech.1_5
 62
   150
  6
CADWORK_22
370
    35
100
AcDbPolyline
 90
        3
 70
     0
 43
0.0
 38
2500.0
 10
35186.14961623
 20
-37957.34098392
 10
35186.14961623
 20
-38541.54141376
 10
35228.81367077
 20
-38541.54141376
  0
LWPOLYLINE
  5
538
100
AcDbEntity
  8
Ech.1_5
 62
   150
  6
CADWORK_22
370
    35
100
AcDbPolyline
 90
        3
 70
     0
 43
0.0
 38
2500.0
 10
35186.08524503
 20
-38945.19010761
 10
35186.08524503
 20
-38550.97407383
 10
35252.66954313
 20
-38550.97407383
  0
LWPOLYLINE
  5
539
100
AcDbEntity
  8
Ech.1_5
 62
     1
  6
CADWORK_22
370
    35
100
AcDbPolyline
 90
        3
 70
     0
 43
0.0
 10
35288.08524503
 20
-38945.19010761
 10
35288.08524503
 20
-38550.66194391
 10
35252.66954313
 20
-38550.66194391
  0
LWPOLYLINE
  5
53A
100
AcDbEntity
  8
Ech.1_5
 62
     3
370
    70
100
AcDbPolyline
 90
        4
 70
     0
 43
0.0
 10
35445.56270528
 20
-38031.02509336
 10
35445.56270528
 20
-38044.01422678
 10
35451.24331824
 20
-38047.94895892
 10
35451.24331824
 20
-38061.42738892
  0
LINE
  5
53B
100
AcDbEntity
  8
Ech.1_5
 62
     7
  6
CONTINUOUS
370
    -3
100
AcDbLine
 10
35487.14961623
 20
-38121.5426118
 30
0.0
 11
35487.14961623
 21
-38343.5426118
 31
0.0
  0
LWPOLYLINE
  5
53C
100
AcDbEntity
  8
Ech.1_5
 62
   190
  6
CONTINUOUS
370
    -3
100
AcDbPolyline
 90
       24
 70
     0
 43
0.0
 10
35888.97010683
 20
-38174.87594513
 42
1.14028181
 10
35823.43925116
 20
-38183.50326606
 10
35854.5009625
 20
-38299.58195754
 42
-1.30322619
 10
35790.10591783
 20
-38299.58195754
 10
35821.16762917
 20
-38183.50326606
 42
1.30322619
 10
35756.7725845
 20
-38183.50326606
 10
35787.83429584
 20
-38299.58195754
 42
-1.30322619
 10
35723.43925116
 20
-38299.58195754
 10
35754.5009625
 20
-38183.50326606
 42
1.30322619
 10
35690.10591783
 20
-38183.50326606
 10
35721.16762917
 20
-38299.58195754
 42
-1.30322619
 10
35656.7725845
 20
-38299.58195754
 10
35687.83429584
 20
-38183.50326606
 42
1.30322619
 10
35623.43925116
 20
-38183.50326606
 10
35654.5009625
 20
-38299.58195754
 42
-1.30322619
 10
35590.10591783
 20
-38299.58195754
 10
35621.16762917
 20
-38183.50326606
 42
1.30322619
 10
35556.7725845
 20
-38183.50326606
 10
35587.83429584
 20
-38299.58195754
 42
-1.30322619
 10
35523.43925116
 20
-38299.58195754
 10
35554.5009625
 20
-38183.50326606
 42
1.30322619
 10
35490.10591783
 20
-38183.50326606
 10
35521.16762917
 20
-38299.58195754
 42
-0.52936905
 10
35485.14961623
 20
-38341.32294578
  0
CIRCLE
  5
53D
100
AcDbEntity
  8
Ech.1_5
 62
     7
  6
CONTINUOUS
370
    -3
100
AcDbCircle
 10
35515.14961623
 20
-38151.5426118
 30
0.0
 40
5.0
  0
CIRCLE
  5
53E
100
AcDbEntity
  8
Ech.1_5
 62
     7
  6
CONTINUOUS
370
    -3
100
AcDbCircle
 10
35515.14961623
 20
-38201.5426118
 30
0.0
 40
5.0
  0
CIRCLE
  5
53F
100
AcDbEntity
  8
Ech.1_5
 62
     7
  6
CONTINUOUS
370
    -3
100
AcDbCircle
 10
35515.14961623
 20
-38251.5426118
 30
0.0
 40
5.0
  0
CIRCLE
  5
540
100
AcDbEntity
  8
Ech.1_5
 62
     7
  6
CONTINUOUS
370
    -3
100
AcDbCircle
 10
35515.14961623
 20
-38301.5426118
 30
0.0
 40
5.0
  0
LWPOLYLINE
  5
541
100
AcDbEntity
  8
Ech.1_5
 62
     7
  6
CONTINUOUS
370
    -3
100
AcDbPolyline
 90
        7
 70
     0
 43
0.0
 10
35485.14961623
 20
-38121.5426118
 10
35535.14961623
 20
-38121.5426118
 10
35535.14961623
 20
-38271.5426118
 10
35585.14961623
 20
-38321.5426118
 10
35585.14961623
 20
-38343.5426118
 10
35485.14961623
 20
-38343.5426118
 10
35485.14961623
 20
-38121.5426118
  0
LWPOLYLINE
  5
542
100
AcDbEntity
  8
Ech.1_5
 62
     5
  6
CONTINUOUS
370
    -3
100
AcDbPolyline
 90
        5
 70
     0
 43
0.0
 10
35440.14961623
 20
-38121.5426118
 10
35485.14961623
 20
-38121.5426118
 10
35485.14961623
 20
-38341.5426118
 10
35440.14961623
 20
-38341.5426118
 10
35440.14961623
 20
-38121.5426118
  0
LWPOLYLINE
  5
543
100
AcDbEntity
  8
Ech.1_5
 62
     1
  6
CADWORK_22
 48
-5.0
370
    35
100
AcDbPolyline
 90
        6
 70
     0
 43
0.0
 10
35440.14961623
 20
-37957.34029878
 10
35440.14961623
 20
-38540.03950875
 10
35457.39839175
 20
-38540.03950875
 10
35465.60615407
 20
-38531.93931555
 10
35472.18551149
 20
-38540.03932967
 10
35498.84466336
 20
-38540.03932967
  0
LWPOLYLINE
  5
544
100
AcDbEntity
  8
Ech.1_5
 62
     1
  6
CADWORK_22
 48
-5.0
370
    35
100
AcDbPolyline
 90
        3
 70
     0
 43
0.0
 10
35888.96907606
 20
-38121.5426118
 10
35446.82166701
 20
-38121.5426118
 10
35446.81839221
 20
-38054.82855206
  0
LWPOLYLINE
  5
545
100
AcDbEntity
  8
Ech.1_5
 62
   190
  6
CONTINUOUS
370
    -3
100
AcDbPolyline
 90
        4
 70
     1
 43
0.0
 10
35860.85024638
 20
-38925.21331184
 10
35860.85024638
 20
-38912.21331184
 10
35500.14961623
 20
-38912.21331184
 10
35500.14961623
 20
-38925.21331184
  0
LWPOLYLINE
  5
546
102
{ACAD_REACTORS
330
547
102
}
100
AcDbEntity
  8
Ech.1_5
 62
     9
  6
CONTINUOUS
370
    -3
100
AcDbPolyline
 90
        4
 70
     1
 43
0.0
 10
35500.14961623
 20
-38912.21347434
 10
35500.14961623
 20
-38925.21347434
 10
35860.85024638
 20
-38925.21341322
 10
35860.85024638
 20
-38912.21341322
  0
HATCH
  5
547
100
AcDbEntity
  8
Ech.1_5
 62
     9
  6
CONTINUOUS
100
AcDbHatch
 10
0.0
 20
0.0
 30
0.0
210
0.0
220
0.0
230
1.0
  2
DOTS2
 70
     0
 71
     1
 91
        1
 92
        7
 72
     0
 73
     1
 93
        4
 10
35500.14961623
 20
-38912.21347434
 10
35500.14961623
 20
-38925.21347434
 10
35860.85024638
 20
-38925.21341322
 10
35860.85024638
 20
-38912.21341322
 97
        1
330
546
 75
     0
 76
     2
 52
0.0
 41
4.72440952
 77
     0
 78
     1
 53
0.0
 43
0.0
 44
0.0
 45
3.75
 46
3.535
 79
     2
 49
0.0
 49
-3.535
 47
0.775229
 98
        1
 10
0.0
 20
0.0
  0
3DFACE
  5
548
100
AcDbEntity
  8
Ech.1_5
 62
     9
  6
CONTINUOUS
370
    -3
100
AcDbFace
 70
     0
 10
35860.85024638
 20
-38912.21347434
 30
2500.0
 11
35860.85024638
 21
-38871.5422866
 31
2500.0
 12
35500.14961623
 22
-38871.5422866
 32
2500.0
 13
35500.14961623
 23
-38912.21347434
 33
2500.0
  0
LWPOLYLINE
  5
549
100
AcDbEntity
  8
Ech.1_5
 62
     9
  6
CONTINUOUS
370
    -3
100
AcDbPolyline
 90
        6
 70
     0
 43
0.0
 10
35860.85024638
 20
-38697.34782482
 10
35860.85024638
 20
-38797.11090252
 10
35878.82759471
 20
-38813.59640568
 10
35842.87189479
 20
-38799.48646566
 10
35860.85024638
 20
-38815.97281974
 10
35860.85024638
 20
-38950.98162361
  0
LWPOLYLINE
  5
54A
100
AcDbEntity
  8
Ech.1_5
 62
     9
  6
CONTINUOUS
370
    -3
100
AcDbPolyline
 90
      106
 70
     0
 43
0.0
 10
35860.85037238
 20
-38878.32081789
 42
1.14028181
 10
35847.52428371
 20
-38880.07523483
 10
35853.84086718
 20
-38903.6805261
 42
-1.30322619
 10
35840.74575242
 20
-38903.6805261
 10
35847.06233589
 20
-38880.07523483
 42
1.30322619
 10
35833.96722113
 20
-38880.07523483
 10
35840.2838046
 20
-38903.6805261
 42
-1.30322619
 10
35827.18868984
 20
-38903.6805261
 10
35833.50527331
 20
-38880.07523483
 42
1.30322619
 10
35820.41015855
 20
-38880.07523483
 10
35826.72674202
 20
-38903.6805261
 42
-1.30322619
 10
35813.63162726
 20
-38903.6805261
 10
35819.94821073
 20
-38880.07523483
 42
1.30322619
 10
35806.85309597
 20
-38880.07523483
 10
35813.16967944
 20
-38903.6805261
 42
-1.30322619
 10
35800.07456468
 20
-38903.6805261
 10
35806.39114815
 20
-38880.07523483
 42
1.30322619
 10
35793.29603339
 20
-38880.07523483
 10
35799.61261686
 20
-38903.6805261
 42
-1.30322619
 10
35786.5175021
 20
-38903.68052611
 10
35792.83408557
 20
-38880.07523483
 42
1.30322619
 10
35779.73897081
 20
-38880.07523483
 10
35786.05555428
 20
-38903.68052611
 42
-1.30322619
 10
35772.96043952
 20
-38903.68052611
 10
35779.27702298
 20
-38880.07523483
 42
1.30322619
 10
35766.18190823
 20
-38880.07523484
 10
35772.49849169
 20
-38903.68052611
 42
-1.30322619
 10
35759.40337694
 20
-38903.68052611
 10
35765.7199604
 20
-38880.07523484
 42
1.30322619
 10
35752.62484564
 20
-38880.07523484
 10
35758.94142911
 20
-38903.68052611
 42
-1.30322619
 10
35745.84631435
 20
-38903.68052611
 10
35752.16289782
 20
-38880.07523484
 42
1.30322619
 10
35739.06778306
 20
-38880.07523484
 10
35745.38436653
 20
-38903.68052611
 42
-1.30322619
 10
35732.28925177
 20
-38903.68052611
 10
35738.60583524
 20
-38880.07523484
 42
1.30322619
 10
35725.51072048
 20
-38880.07523484
 10
35731.82730395
 20
-38903.68052611
 42
-1.30322619
 10
35718.73218919
 20
-38903.68052611
 10
35725.04877266
 20
-38880.07523484
 42
1.30322619
 10
35711.9536579
 20
-38880.07523484
 10
35718.27024137
 20
-38903.68052611
 42
-1.30322619
 10
35705.17512661
 20
-38903.68052611
 10
35711.49171008
 20
-38880.07523484
 42
1.30322619
 10
35698.39659532
 20
-38880.07523484
 10
35704.71317879
 20
-38903.68052611
 42
-1.30322619
 10
35691.61806403
 20
-38903.68052611
 10
35697.9346475
 20
-38880.07523484
 42
1.30322619
 10
35684.83953274
 20
-38880.07523484
 10
35691.15611621
 20
-38903.68052611
 42
-1.30322619
 10
35678.06100145
 20
-38903.68052611
 10
35684.37758492
 20
-38880.07523484
 42
1.30322619
 10
35671.28247016
 20
-38880.07523484
 10
35677.59905362
 20
-38903.68052611
 42
-1.30322619
 10
35664.50393887
 20
-38903.68052611
 10
35670.82052233
 20
-38880.07523484
 42
1.30322619
 10
35657.72540757
 20
-38880.07523484
 10
35664.04199104
 20
-38903.68052611
 42
-1.30322619
 10
35650.94687628
 20
-38903.68052611
 10
35657.26345975
 20
-38880.07523484
 42
1.30322619
 10
35644.16834499
 20
-38880.07523484
 10
35650.48492846
 20
-38903.68052611
 42
-1.30322619
 10
35637.3898137
 20
-38903.68052611
 10
35643.70639717
 20
-38880.07523484
 42
1.30322619
 10
35630.61128241
 20
-38880.07523484
 10
35636.92786588
 20
-38903.68052611
 42
-1.30322619
 10
35623.83275112
 20
-38903.68052611
 10
35630.14933459
 20
-38880.07523484
 42
1.30322619
 10
35617.05421983
 20
-38880.07523484
 10
35623.3708033
 20
-38903.68052611
 42
-1.30322619
 10
35610.27568854
 20
-38903.68052611
 10
35616.59227201
 20
-38880.07523484
 42
1.30322619
 10
35603.49715725
 20
-38880.07523484
 10
35609.81374072
 20
-38903.68052611
 42
-1.30322619
 10
35596.71862596
 20
-38903.68052611
 10
35603.03520943
 20
-38880.07523484
 42
1.30322619
 10
35589.94009467
 20
-38880.07523484
 10
35596.25667814
 20
-38903.68052611
 42
-1.30322619
 10
35583.16156338
 20
-38903.68052611
 10
35589.47814685
 20
-38880.07523484
 42
1.30322619
 10
35576.38303209
 20
-38880.07523484
 10
35582.69961556
 20
-38903.68052611
 42
-1.30322619
 10
35569.6045008
 20
-38903.68052611
 10
35575.92108426
 20
-38880.07523484
 42
1.30322619
 10
35562.82596951
 20
-38880.07523484
 10
35569.14255297
 20
-38903.68052611
 42
-1.30322619
 10
35556.04743821
 20
-38903.68052611
 10
35562.36402168
 20
-38880.07523484
 42
1.30322619
 10
35549.26890692
 20
-38880.07523484
 10
35555.58549039
 20
-38903.68052611
 42
-1.30322619
 10
35542.49037563
 20
-38903.68052611
 10
35548.8069591
 20
-38880.07523484
 42
1.30322619
 10
35535.71184434
 20
-38880.07523484
 10
35542.02842781
 20
-38903.68052611
 42
-1.30322619
 10
35528.93331305
 20
-38903.68052611
 10
35535.24989652
 20
-38880.07523484
 42
1.30322619
 10
35522.15478176
 20
-38880.07523484
 10
35528.47136523
 20
-38903.68052611
 42
-1.30322619
 10
35515.37625047
 20
-38903.68052611
 10
35521.69283394
 20
-38880.07523484
 42
1.30322619
 10
35508.59771918
 20
-38880.07523484
 10
35514.91430265
 20
-38903.68052611
 42
-1.30322619
 10
35501.81918789
 20
-38903.68052611
 10
35508.13577136
 20
-38880.07523484
 42
0.56147804
 10
35500.14961623
 20
-38871.69670112
  0
CIRCLE
  5
54B
100
AcDbEntity
  8
Ech.1_5
 62
     7
  6
CONTINUOUS
100
AcDbCircle
 10
34950.60974283
 20
-38985.67244873
 30
0.0
 40
6.16444111
  0
LWPOLYLINE
  5
54C
102
{ACAD_REACTORS
330
54D
102
}
100
AcDbEntity
  8
Ech.1_5
 62
     7
  6
CONTINUOUS
370
     5
100
AcDbPolyline
 90
        4
 70
     1
 43
0.0
 10
34937.38522709
 20
-38965.43413696
 10
34963.20975818
 20
-38965.43413696
 10
34963.20975818
 20
-38956.00147686
 10
34937.38522709
 20
-38956.00147686
  0
HATCH
  5
54D
100
AcDbEntity
  8
Ech.1_5
 62
     2
  6
CONTINUOUS
100
AcDbHatch
 10
0.0
 20
0.0
 30
0.0
210
0.0
220
0.0
230
1.0
  2
SOLID
 70
     1
 71
     1
 91
        1
 92
        7
 72
     0
 73
     1
 93
        4
 10
34937.38522709
 20
-38965.43413696
 10
34963.20975818
 20
-38965.43413696
 10
34963.20975818
 20
-38956.00147686
 10
34937.38522709
 20
-38956.00147686
 97
        1
330
54C
 75
     0
 76
     2
 47
0.775229
 98
        1
 10
0.0
 20
0.0
  0
HATCH
  5
54E
100
AcDbEntity
  8
Ech.1_5
 62
     7
100
AcDbHatch
 10
0.0
 20
0.0
 30
0.0
210
0.0
220
0.0
230
1.0
  2
ANSI37
 70
     0
 71
     0
 91
        1
 92
        7
 72
     0
 73
     1
 93
        4
 10
34937.38522709
 20
-38965.43413696
 10
34963.20975818
 20
-38965.43413696
 10
34963.20975818
 20
-38956.00147686
 10
34937.38522709
 20
-38956.00147686
 97
        0
 75
     0
 76
     2
 52
0.0
 41
1.87498831
 77
     0
 78
     2
 53
45.0
 43
0.0
 44
0.0
 45
4.20946876
 46
-4.20946876
 79
     0
 53
-45.0
 43
0.0
 44
0.0
 45
4.20946876
 46
4.20946876
 79
     0
 47
0.775229
 98
        1
 10
0.0
 20
0.0
  0
LWPOLYLINE
  5
54F
100
AcDbEntity
  8
Ech.1_5
 62
     3
370
    90
100
AcDbPolyline
 90
        4
 70
     0
 43
0.0
 10
34967.75930826
 20
-39012.08775196
 10
34954.77017484
 20
-39012.08775196
 10
34950.8354427
 20
-39006.4071394
 10
34937.3570127
 20
-39006.4071394
  0
LWPOLYLINE
  5
550
100
AcDbEntity
  8
Ech.1_5
 62
   190
100
AcDbPolyline
 90
        4
 70
     1
 43
0.0
 10
34951.64340433
 20
-37963.7763318
 10
35086.07218332
 20
-37963.7763318
 10
35086.07218332
 20
-38020.49929061
 10
34951.64340433
 20
-38020.49929061
  0
HATCH
  5
551
100
AcDbEntity
  8
Ech.1_5
 62
   190
100
AcDbHatch
 10
0.0
 20
0.0
 30
0.0
210
0.0
220
0.0
230
1.0
  2
SOLID
 70
     1
 71
     0
 91
        1
 92
        7
 72
     0
 73
     1
 93
        4
 10
34969.92345012
 20
-37997.43314293
 10
35019.92345012
 20
-37997.43314293
 10
35019.92345012
 20
-37990.0180054
 10
34969.92345012
 20
-37990.0180054
 97
        0
 75
     0
 76
     2
 47
0.775229
 98
        1
 10
0.0
 20
0.0
  0
LWPOLYLINE
  5
552
100
AcDbEntity
  8
Ech.1_5
 62
   190
100
AcDbPolyline
 90
        5
 70
     0
 43
0.0
 10
34969.92345012
 20
-37997.43314293
 10
35019.92345012
 20
-37997.43314293
 10
35019.92345012
 20
-37990.0180054
 10
34969.92345012
 20
-37990.0180054
 10
34969.92345012
 20
-37997.43314293
  0
LWPOLYLINE
  5
553
100
AcDbEntity
  8
Ech.1_5
 62
   190
100
AcDbPolyline
 90
        5
 70
     0
 43
0.0
 10
35019.92345012
 20
-37997.43314293
 10
35069.92345012
 20
-37997.43314293
 10
35069.92345012
 20
-37990.0180054
 10
35019.92345012
 20
-37990.0180054
 10
35019.92345012
 20
-37997.43314293
  0
TEXT
  5
554
100
AcDbEntity
  8
Ech.1_5
 62
   190
100
AcDbText
 10
34981.21774274
 20
-37980.43200232
 30
0.0
 40
8.00000012
  1
Echelle en mm
  7
ARIAL
 50
0.0
 41
1.0
 51
0.0
100
AcDbText
  0
TEXT
  5
555
100
AcDbEntity
  8
Ech.1_5
 62
   190
100
AcDbText
 10
34967.237158
 20
-38008.64183785
 30
0.0
 40
8.00000012
  1
0
  7
ARIAL
 50
0.0
 41
1.0
 51
0.0
100
AcDbText
  0
TEXT
  5
556
100
AcDbEntity
  8
Ech.1_5
 62
   190
100
AcDbText
 10
35053.83421589
 20
-38008.64183785
 30
0.0
 40
8.00000012
  1
100
  7
ARIAL
 50
0.0
 41
1.0
 51
0.0
100
AcDbText
  0
TEXT
  5
557
100
AcDbEntity
  8
Ech.1_5
 62
   190
100
AcDbText
 10
35015.09378432
 20
-38008.64183785
 30
0.0
 40
8.00000012
  1
50
  7
ARIAL
 50
0.0
 41
1.0
 51
0.0
100
AcDbText
  0
INSERT
  5
558
100
AcDbEntity
  8
Ech.1_5
 62
     0
370
    -3
100
AcDbBlockReference
  2
*D3
 10
0.0
 20
0.0
 30
0.0
  0
ENDSEC
  0
SECTION
  2
OBJECTS
  0
DICTIONARY
  5
1
100
AcDbDictionary
  3
ACAD_GROUP
350
2
  3
ACAD_MLINESTYLE
350
3
  0
DICTIONARY
  5
2
102
{CDWK_REACTORS
330
1
102
}
100
AcDbDictionary
  0
DICTIONARY
  5
3
102
{CDWK_REACTORS
330
1
102
}
100
AcDbDictionary
  3
STANDARD
350
4
  0
MLINESTYLE
  5
4
102
{CDWK_REACTORS
330
3
102
}
100
AcDbMlineStyle
  2
STANDARD
 70
     0
  3

 62
     0
 51
90.0
 52
90.0
 71
     2
 49
0.5
 62
   256
  6
BYLAYER
 49
-0.5
 62
   256
  6
BYLAYER
  0
ENDSEC
  0
EOF
