  0
SECTION
  2
HEADER
  9
$ACADVER
  1
AC1014
  9
$DWGCODEPAGE
  3
ANSI_1252
  9
$INSBASE
 10
0.0
 20
0.0
 30
0.0
  9
$EXTMIN
 10
8298.84597889
 20
-37327.28475935
  9
$EXTMAX
 10
35914.26651495
 20
-5997.09001988
  9
$LIMMIN
 10
8298.84597889
 20
-37327.28475935
  9
$LIMMAX
 10
35914.26651495
 20
-5997.09001988
  9
$ORTHOMODE
 70
     0
  9
$REGENMODE
 70
     1
  9
$FILLMODE
 70
     1
  9
$QTEXTMODE
 70
     0
  9
$MIRRTEXT
 70
     1
  9
$DRAGMODE
 70
     2
  9
$LTSCALE
 40
5.0
  9
$OSMODE
 70
     0
  9
$ATTMODE
 70
     1
  9
$TEXTSIZE
 40
3.5
  9
$TRACEWID
 40
1.0
  9
$TEXTSTYLE
  7
STANDARD
  9
$CLAYER
  8
0
  9
$CELTYPE
  6
BYLAYER
  9
$CECOLOR
 62
   256
  9
$DIMSCALE
 40
1.0
  9
$DIMASZ
 40
2.0
  9
$DIMEXO
 40
5.0
  9
$DIMDLI
 40
10.0
  9
$DIMRND
 40
0.0
  9
$DIMDLE
 40
2.0
  9
$DIMEXE
 40
2.0
  9
$DIMTP
 40
0.0
  9
$DIMTM
 40
0.0
  9
$DIMTXT
 40
2.5
  9
$DIMCEN
 40
1.5
  9
$DIMTSZ
 40
0.0
  9
$DIMTOL
 70
     0
  9
$DIMLIM
 70
     0
  9
$DIMTIH
 70
     1
  9
$DIMTOH
 70
     0
  9
$DIMSE1
 70
     0
  9
$DIMSE2
 70
     0
  9
$DIMTAD
 70
     1
  9
$DIMZIN
 70
     8
  9
$DIMBLK
  1

  9
$DIMASO
 70
     1
  9
$DIMSHO
 70
     1
  9
$DIMPOST
  1

  9
$DIMAPOST
  1

  9
$DIMALT
 70
     0
  9
$DIMALTD
 70
     2
  9
$DIMALTF
 40
25.4
  9
$DIMLFAC
 40
1.0
  9
$DIMTOFL
 70
     0
  9
$DIMTVP
 40
0.0
  9
$DIMTIX
 70
     0
  9
$DIMSOXD
 70
     0
  9
$DIMSAH
 70
     0
  9
$DIMBLK1
  1

  9
$DIMBLK2
  1

  9
$DIMSTYLE
  2
*UNNAMED
  9
$DIMCLRD
 70
   190
  9
$DIMCLRE
 70
   190
  9
$DIMCLRT
 70
   190
  9
$DIMTFAC
 40
1.0
  9
$DIMGAP
 40
0.09
  9
$DIMUNIT
 70
     2
  9
$LUNITS
 70
     2
  9
$LUPREC
 70
     6
  9
$AXISMODE
 70
     0
  9
$AXISUNIT
 10
0.0
 20
0.0
  9
$SKETCHINC
 40
0.1
  9
$FILLETRAD
 40
0.0
  9
$AUNITS
 70
     0
  9
$AUPREC
 70
     0
  9
$MENU
  1
ACAD
  9
$ELEVATION
 40
0.0
  9
$PELEVATION
 40
0.0
  9
$THICKNESS
 40
0.0
  9
$LIMCHECK
 70
     0
  9
$BLIPMODE
 70
     1
  9
$CHAMFERA
 40
0.0
  9
$CHAMFERB
 40
0.0
  9
$SKPOLY
 70
     1
  9
$TDCREATE
 40
2457811.0000000000
  9
$TDUPDATE
 40
2457811.0000000000
  9
$TDINDWG
 40
0.0
  9
$TDUSRTIMER
 40
0.0
  9
$USRTIMER
 70
     1
  9
$ANGBASE
 50
0.0
  9
$ANGDIR
 70
     0
  9
$PDMODE
 70
     0
  9
$PDSIZE
 40
0.0
  9
$PLINEWID
 40
0.0
  9
$COORDS
 70
     2
  9
$SPLFRAME
 70
     0
  9
$SPLINETYPE
 70
     6
  9
$SPLINESEGS
 70
     8
  9
$ATTDIA
 70
     1
  9
$ATTREQ
 70
     1
  9
$HANDLING
 70
     1
  9
$HANDSEED
  5
     52F
  9
$SURFTAB1
 70
     6
  9
$SURFTAB2
 70
     6
  9
$SURFTYPE
 70
     6
  9
$SURFU
 70
     6
  9
$SURFV
 70
     6
  9
$UCSNAME
  2

  9
$UCSORG
 10
0.0
 20
0.0
 30
0.0
  9
$UCSXDIR
 10
1.0
 20
0.0
 30
0.0
  9
$UCSYDIR
 10
0.0
 20
1.0
 30
0.0
  9
$PUCSNAME
  2

  9
$PUCSORG
 10
0.0
 20
0.0
 30
0.0
  9
$PUCSXDIR
 10
1.0
 20
0.0
 30
0.0
  9
$PUCSYDIR
 10
0.0
 20
1.0
 30
0.0
  9
$USERI1
 70
     0
  9
$USERI2
 70
     0
  9
$USERI3
 70
     0
  9
$USERI4
 70
     0
  9
$USERI5
 70
     0
  9
$USERR1
 40
0.0
  9
$USERR2
 40
0.0
  9
$USERR3
 40
0.0
  9
$USERR4
 40
0.0
  9
$USERR5
 40
0.0
  9
$WORLDVIEW
 70
     1
  9
$SHADEDGE
 70
     3
  9
$SHADEDIF
 70
    70
  9
$TILEMODE
 70
     1
  9
$MAXACTVP
 70
    16
  9
$PINSBASE
 10
0.0
 20
0.0
 30
0.0
  9
$PLIMCHECK
 70
     0
  9
$PEXTMIN
 10
1.0000000000000E+20
 20
1.0000000000000E+20
 30
1.0000000000000E+20
  9
$PEXTMAX
 10
-1.0000000000000E+20
 20
-1.0000000000000E+20
 30
-1.0000000000000E+20
  9
$PLIMMIN
 10
0.0
 20
0.0
  9
$UNITMODE
 70
     0
  9
$VISRETAIN
 70
     0
  9
$MEASUREMENT
 70
     1
  0
ENDSEC
  0
SECTION
  2
TABLES
  0
TABLE
  2
VPORT
  5
36E
100
AcDbSymbolTable
 70
     1
  0
ENDTAB
  0
TABLE
  2
STYLE
  5
36F
100
AcDbSymbolTable
 70
     3
  0
STYLE
  5
370
100
AcDbSymbolTableRecord
100
AcDbTextStyleTableRecord
  2
STANDARD
 70
     0
 40
0.0
 41
1.0
 50
0.0
 71
     0
 42
3.5
  3
MONOTXT
  4

  0
STYLE
  5
371
100
AcDbSymbolTableRecord
100
AcDbTextStyleTableRecord
  2
SYMAP
 70
     0
 40
0.0
 41
1.0
 50
0.0
 71
     0
 42
3.5
  3
SYMAP
  4

  0
STYLE
  5
372
100
AcDbSymbolTableRecord
100
AcDbTextStyleTableRecord
  2
CADWORK1
 70
     0
 40
0.0
 41
1.0
 50
0.0
 71
     0
 42
3.5
  3
MONOTXT
  4

  0
STYLE
  5
373
100
AcDbSymbolTableRecord
100
AcDbTextStyleTableRecord
  2
MONOTXT
 70
     0
 40
0.0
 41
1.0
 50
0.0
 71
     0
 42
3.5
  3
MONOTXT
  4

  0
STYLE
  5
374
100
AcDbSymbolTableRecord
100
AcDbTextStyleTableRecord
  2
ARIAL
 70
     0
 40
0.0
 41
1.0
 50
0.0
 71
     0
 42
3.5
  3

  4

1001
ACAD
1000
Arial
1071
        0
  0
ENDTAB
  0
TABLE
  2
LTYPE
  5
375
100
AcDbSymbolTable
 70
    13
  0
LTYPE
  5
376
100
AcDbSymbolTableRecord
100
AcDbLinetypeTableRecord
  2
BYBLOCK
 70
    64
  3

 72
    65
 73
     0
 40
0.0
  0
LTYPE
  5
377
100
AcDbSymbolTableRecord
100
AcDbLinetypeTableRecord
  2
BYLAYER
 70
    64
  3

 72
    65
 73
     0
 40
0.0
  0
LTYPE
  5
378
100
AcDbSymbolTableRecord
100
AcDbLinetypeTableRecord
  2
CONTINUOUS
 70
    64
  3
Solid line
 72
    65
 73
     0
 40
0.0
  0
LTYPE
  5
379
100
AcDbSymbolTableRecord
100
AcDbLinetypeTableRecord
  2
DOT2
 70
    64
  3
...............................................
 72
    65
 73
     2
 40
1.25
 49
0.0
 74
     0
 49
-1.25
 74
     0
  0
LTYPE
  5
37A
100
AcDbSymbolTableRecord
100
AcDbLinetypeTableRecord
  2
DASHDOT
 70
    64
  3
 __ . __ . __ . __ . __ . __ . __ . __ . __ . __
 72
    65
 73
     4
 40
10.0
 49
5.0
 74
     0
 49
-2.5
 74
     0
 49
0.0
 74
     0
 49
-2.5
 74
     0
  0
LTYPE
  5
37B
100
AcDbSymbolTableRecord
100
AcDbLinetypeTableRecord
  2
CENTER
 70
    64
  3
 ____ _ ____ _ ____ _ ____ _ ____ _ ____ _ ____
 72
    65
 73
     4
 40
20.0
 49
12.5
 74
     0
 49
-2.5
 74
     0
 49
2.5
 74
     0
 49
-2.5
 74
     0
  0
LTYPE
  5
37C
100
AcDbSymbolTableRecord
100
AcDbLinetypeTableRecord
  2
CADWORK_22
 70
    64
  3
22 =======================================
 72
    65
 73
     0
 40
0.0
  0
LTYPE
  5
37D
100
AcDbSymbolTableRecord
100
AcDbLinetypeTableRecord
  2
DAL
 70
    64
  3
Solid line (for MAPS)
 72
    65
 73
     0
 40
0.0
  0
LTYPE
  5
37E
100
AcDbSymbolTableRecord
100
AcDbLinetypeTableRecord
  2
MUR
 70
    64
  3
Solid line (for MAPS)
 72
    65
 73
     0
 40
0.0
  0
LTYPE
  5
37F
100
AcDbSymbolTableRecord
100
AcDbLinetypeTableRecord
  2
SOM
 70
    64
  3
Solid line (for MAPS)
 72
    65
 73
     0
 40
0.0
  0
LTYPE
  5
380
100
AcDbSymbolTableRecord
100
AcDbLinetypeTableRecord
  2
COL
 70
    64
  3
Solid line (for MAPS)
 72
    65
 73
     0
 40
0.0
  0
LTYPE
  5
381
100
AcDbSymbolTableRecord
100
AcDbLinetypeTableRecord
  2
LGN
 70
    64
  3
Solid line (for MAPS)
 72
    65
 73
     0
 40
0.0
  0
LTYPE
  5
382
100
AcDbSymbolTableRecord
100
AcDbLinetypeTableRecord
  2
PNT
 70
    64
  3
Solid line (for MAPS)
 72
    65
 73
     0
 40
0.0
  0
ENDTAB
  0
TABLE
  2
LAYER
  5
383
100
AcDbSymbolTable
 70
    32
  0
LAYER
  5
384
100
AcDbSymbolTableRecord
100
AcDbLayerTableRecord
  2
Standard
 70
     0
 62
     7
  6
CONTINUOUS
370
    -3
  0
LAYER
  5
385
100
AcDbSymbolTableRecord
100
AcDbLayerTableRecord
  2
Ech.1_1
 70
     0
 62
     7
  6
CONTINUOUS
370
    -3
  0
LAYER
  5
386
100
AcDbSymbolTableRecord
100
AcDbLayerTableRecord
  2
Ech.1_2
 70
     0
 62
     7
  6
CONTINUOUS
370
    -3
  0
LAYER
  5
387
100
AcDbSymbolTableRecord
100
AcDbLayerTableRecord
  2
Ech.1_5
 70
     0
 62
     7
  6
CONTINUOUS
370
    -3
  0
LAYER
  5
388
100
AcDbSymbolTableRecord
100
AcDbLayerTableRecord
  2
Ech.1_10
 70
     0
 62
     7
  6
CONTINUOUS
370
    -3
  0
LAYER
  5
389
100
AcDbSymbolTableRecord
100
AcDbLayerTableRecord
  2
Ech.1_20
 70
     0
 62
     7
  6
CONTINUOUS
370
    -3
  0
LAYER
  5
38A
100
AcDbSymbolTableRecord
100
AcDbLayerTableRecord
  2
Ech.1_25
 70
     0
 62
     7
  6
CONTINUOUS
370
    -3
  0
LAYER
  5
38B
100
AcDbSymbolTableRecord
100
AcDbLayerTableRecord
  2
Ech.1_33
 70
     0
 62
     7
  6
CONTINUOUS
370
    -3
  0
LAYER
  5
38C
100
AcDbSymbolTableRecord
100
AcDbLayerTableRecord
  2
Ech.1_50
 70
     0
 62
     7
  6
CONTINUOUS
370
    -3
  0
LAYER
  5
38D
100
AcDbSymbolTableRecord
100
AcDbLayerTableRecord
  2
Ech.1_75
 70
     0
 62
     7
  6
CONTINUOUS
370
    -3
  0
LAYER
  5
38E
100
AcDbSymbolTableRecord
100
AcDbLayerTableRecord
  2
Ech.1_100
 70
     0
 62
     7
  6
CONTINUOUS
370
    -3
  0
LAYER
  5
38F
100
AcDbSymbolTableRecord
100
AcDbLayerTableRecord
  2
Ech.1_200
 70
     0
 62
     7
  6
CONTINUOUS
370
    -3
  0
LAYER
  5
390
100
AcDbSymbolTableRecord
100
AcDbLayerTableRecord
  2
Ech.1_500
 70
     0
 62
     7
  6
CONTINUOUS
370
    -3
  0
LAYER
  5
391
100
AcDbSymbolTableRecord
100
AcDbLayerTableRecord
  2
Ech.1_1000
 70
     0
 62
     7
  6
CONTINUOUS
370
    -3
  0
LAYER
  5
392
100
AcDbSymbolTableRecord
100
AcDbLayerTableRecord
  2
Cadres traceur
 70
     0
 62
     7
  6
CONTINUOUS
370
    18
  0
LAYER
  5
393
100
AcDbSymbolTableRecord
100
AcDbLayerTableRecord
  2
Cadres laser
 70
     0
 62
     7
  6
CONTINUOUS
370
    18
  0
LAYER
  5
394
100
AcDbSymbolTableRecord
100
AcDbLayerTableRecord
  2
Légende d_aide
 70
     0
 62
     7
  6
CONTINUOUS
370
    18
  0
LAYER
  5
395
100
AcDbSymbolTableRecord
100
AcDbLayerTableRecord
  2
hachures ok
 70
     0
 62
     7
  6
CONTINUOUS
370
    18
  0
LAYER
  5
396
100
AcDbSymbolTableRecord
100
AcDbLayerTableRecord
  2
ossature bois
 70
     0
 62
     7
  6
CONTINUOUS
370
    18
  0
LAYER
  5
397
100
AcDbSymbolTableRecord
100
AcDbLayerTableRecord
  2
VR
 70
     0
 62
     7
  6
CONTINUOUS
370
    25
  0
LAYER
  5
398
100
AcDbSymbolTableRecord
100
AcDbLayerTableRecord
  2
Calque1
 70
     0
 62
     7
  6
CONTINUOUS
370
     9
  0
LAYER
  5
399
100
AcDbSymbolTableRecord
100
AcDbLayerTableRecord
  2
0
 70
     0
 62
     7
  6
CONTINUOUS
370
    -3
  0
LAYER
  5
39A
100
AcDbSymbolTableRecord
100
AcDbLayerTableRecord
  2
menuiserie
 70
     0
 62
     7
  6
CONTINUOUS
370
    -3
  0
LAYER
  5
39B
100
AcDbSymbolTableRecord
100
AcDbLayerTableRecord
  2
cotation
 70
     0
 62
   250
  6
CONTINUOUS
370
     9
  0
LAYER
  5
39C
100
AcDbSymbolTableRecord
100
AcDbLayerTableRecord
  2
Defpoints
 70
     0
 62
    10
  6
CONTINUOUS
370
    -3
  0
LAYER
  5
39D
100
AcDbSymbolTableRecord
100
AcDbLayerTableRecord
  2
HACHURE
 70
     0
 62
   254
  6
CONTINUOUS
370
    25
  0
LAYER
  5
39E
100
AcDbSymbolTableRecord
100
AcDbLayerTableRecord
  2
mat1
 70
     0
 62
     7
  6
CONTINUOUS
370
    30
  0
LAYER
  5
39F
100
AcDbSymbolTableRecord
100
AcDbLayerTableRecord
  2
mat2
 70
     0
 62
     7
  6
CONTINUOUS
370
     5
  0
LAYER
  5
3A0
100
AcDbSymbolTableRecord
100
AcDbLayerTableRecord
  2
hach
 70
     0
 62
     8
  6
CONTINUOUS
370
     5
  0
LAYER
  5
3A1
100
AcDbSymbolTableRecord
100
AcDbLayerTableRecord
  2
menuiseries
 70
     0
 62
     7
  6
CONTINUOUS
370
     9
  0
LAYER
  5
3A2
100
AcDbSymbolTableRecord
100
AcDbLayerTableRecord
  2
BétonMétal
 70
     0
 62
     7
  6
CONTINUOUS
370
    80
  0
LAYER
  5
3A3
100
AcDbSymbolTableRecord
100
AcDbLayerTableRecord
  2
bois
 70
     0
 62
     7
  6
CONTINUOUS
370
    60
  0
ENDTAB
  0
TABLE
  2
VIEW
  5
3A4
100
AcDbSymbolTable
 70
     0
  0
ENDTAB
  0
TABLE
  2
UCS
  5
3A5
100
AcDbSymbolTable
 70
     0
  0
ENDTAB
  0
TABLE
  2
APPID
  5
3A6
100
AcDbSymbolTable
 70
     1
  0
APPID
  5
3A7
100
AcDbSymbolTableRecord
100
AcDbRegAppTableRecord
  2
ACAD
 70
     0
  0
ENDTAB
  0
TABLE
  2
DIMSTYLE
  5
3A8
100
AcDbSymbolTable
 70
     0
  0
ENDTAB
  0
TABLE
  2
BLOCK_RECORD
  5
3A9
100
AcDbSymbolTable
 70
     0
  0
BLOCK_RECORD
  5
3AA
100
AcDbSymbolTableRecord
100
AcDbBlockTableRecord
  2
*MODEL_SPACE
  0
BLOCK_RECORD
  5
3AB
100
AcDbSymbolTableRecord
100
AcDbBlockTableRecord
  2
*PAPER_SPACE
  0
BLOCK_RECORD
  5
3AC
100
AcDbSymbolTableRecord
100
AcDbBlockTableRecord
  2
CDWK_EXTR_0
  0
BLOCK_RECORD
  5
3AD
100
AcDbSymbolTableRecord
100
AcDbBlockTableRecord
  2
CDWK_EXTR_1D
  0
BLOCK_RECORD
  5
3AE
100
AcDbSymbolTableRecord
100
AcDbBlockTableRecord
  2
CDWK_EXTR_1G
  0
BLOCK_RECORD
  5
3AF
100
AcDbSymbolTableRecord
100
AcDbBlockTableRecord
  2
CDWK_EXTR_2
  0
BLOCK_RECORD
  5
3B0
100
AcDbSymbolTableRecord
100
AcDbBlockTableRecord
  2
CDWK_EXTR_3
  0
BLOCK_RECORD
  5
3B1
100
AcDbSymbolTableRecord
100
AcDbBlockTableRecord
  2
CDWK_EXTR_4
  0
BLOCK_RECORD
  5
3B2
100
AcDbSymbolTableRecord
100
AcDbBlockTableRecord
  2
CDWK_PTTYP0
  0
BLOCK_RECORD
  5
3B3
100
AcDbSymbolTableRecord
100
AcDbBlockTableRecord
  2
CDWK_PTTYP1
  0
BLOCK_RECORD
  5
3B4
100
AcDbSymbolTableRecord
100
AcDbBlockTableRecord
  2
CDWK_PTTYP2
  0
BLOCK_RECORD
  5
3B5
100
AcDbSymbolTableRecord
100
AcDbBlockTableRecord
  2
CDWK_PTTYP3
  0
BLOCK_RECORD
  5
3B6
100
AcDbSymbolTableRecord
100
AcDbBlockTableRecord
  2
CDWK_PTTYP4
  0
BLOCK_RECORD
  5
3B7
100
AcDbSymbolTableRecord
100
AcDbBlockTableRecord
  2
CDWK_PTTYP5
  0
BLOCK_RECORD
  5
3B8
100
AcDbSymbolTableRecord
100
AcDbBlockTableRecord
  2
CDWK_PTTYP6
  0
BLOCK_RECORD
  5
3B9
100
AcDbSymbolTableRecord
100
AcDbBlockTableRecord
  2
CDWK_PTTYP7
  0
BLOCK_RECORD
  5
3BA
100
AcDbSymbolTableRecord
100
AcDbBlockTableRecord
  2
CDWK_PTTYP8
  0
BLOCK_RECORD
  5
3BB
100
AcDbSymbolTableRecord
100
AcDbBlockTableRecord
  2
CDWK_PTTYP9
  0
BLOCK_RECORD
  5
3BC
100
AcDbSymbolTableRecord
100
AcDbBlockTableRecord
  2
CDWK_PTTYP10
  0
BLOCK_RECORD
  5
3BD
100
AcDbSymbolTableRecord
100
AcDbBlockTableRecord
  2
CDWK_PTTYP11
  0
BLOCK_RECORD
  5
3BE
100
AcDbSymbolTableRecord
100
AcDbBlockTableRecord
  2
CDWK_PTTYP12
  0
BLOCK_RECORD
  5
3BF
100
AcDbSymbolTableRecord
100
AcDbBlockTableRecord
  2
CDWK_PTTYP13
  0
BLOCK_RECORD
  5
3C0
100
AcDbSymbolTableRecord
100
AcDbBlockTableRecord
  2
CDWK_PTTYP14
  0
BLOCK_RECORD
  5
3C1
100
AcDbSymbolTableRecord
100
AcDbBlockTableRecord
  2
CDWK_PTTYP15
  0
BLOCK_RECORD
  5
3C2
100
AcDbSymbolTableRecord
100
AcDbBlockTableRecord
  2
CDWK_PTTYP16
  0
BLOCK_RECORD
  5
3C3
100
AcDbSymbolTableRecord
100
AcDbBlockTableRecord
  2
CDWK_PTTYP17
  0
BLOCK_RECORD
  5
3C4
100
AcDbSymbolTableRecord
100
AcDbBlockTableRecord
  2
CDWK_PTTYP18
  0
BLOCK_RECORD
  5
3C5
100
AcDbSymbolTableRecord
100
AcDbBlockTableRecord
  2
CDWK_PTTYP19
  0
BLOCK_RECORD
  5
3C6
100
AcDbSymbolTableRecord
100
AcDbBlockTableRecord
  2
CDWK_PTTYP20
  0
BLOCK_RECORD
  5
3C7
100
AcDbSymbolTableRecord
100
AcDbBlockTableRecord
  2
CDWK_PTTYP21
  0
BLOCK_RECORD
  5
3C8
100
AcDbSymbolTableRecord
100
AcDbBlockTableRecord
  2
CDWK_PTTYP22
  0
BLOCK_RECORD
  5
3C9
100
AcDbSymbolTableRecord
100
AcDbBlockTableRecord
  2
CDWK_PTTYP23
  0
BLOCK_RECORD
  5
3CA
100
AcDbSymbolTableRecord
100
AcDbBlockTableRecord
  2
CDWK_PTTYP24
  0
BLOCK_RECORD
  5
3CB
100
AcDbSymbolTableRecord
100
AcDbBlockTableRecord
  2
CDWK_PTTYP25
  0
BLOCK_RECORD
  5
3CC
100
AcDbSymbolTableRecord
100
AcDbBlockTableRecord
  2
CDWK_PTTYP26
  0
BLOCK_RECORD
  5
3CD
100
AcDbSymbolTableRecord
100
AcDbBlockTableRecord
  2
CDWK_PTTYP27
  0
BLOCK_RECORD
  5
3CE
100
AcDbSymbolTableRecord
100
AcDbBlockTableRecord
  2
CDWK_PTTYP28
  0
BLOCK_RECORD
  5
3CF
100
AcDbSymbolTableRecord
100
AcDbBlockTableRecord
  2
CDWK_PTTYP29
  0
BLOCK_RECORD
  5
3D0
100
AcDbSymbolTableRecord
100
AcDbBlockTableRecord
  2
CDWK_PTTYP30
  0
BLOCK_RECORD
  5
3D1
100
AcDbSymbolTableRecord
100
AcDbBlockTableRecord
  2
CDWK_PTTYP31
  0
BLOCK_RECORD
  5
3D2
100
AcDbSymbolTableRecord
100
AcDbBlockTableRecord
  2
CDWK_PTTYP32
  0
BLOCK_RECORD
  5
3D3
100
AcDbSymbolTableRecord
100
AcDbBlockTableRecord
  2
CDWK_PTTYP33
  0
BLOCK_RECORD
  5
3D4
100
AcDbSymbolTableRecord
100
AcDbBlockTableRecord
  2
CDWK_PTTYP34
  0
BLOCK_RECORD
  5
3D5
100
AcDbSymbolTableRecord
100
AcDbBlockTableRecord
  2
CDWK_PTTYP35
  0
BLOCK_RECORD
  5
3D6
100
AcDbSymbolTableRecord
100
AcDbBlockTableRecord
  2
CDWK_PTTYP36
  0
BLOCK_RECORD
  5
3D7
100
AcDbSymbolTableRecord
100
AcDbBlockTableRecord
  2
CDWK_PTTYP37
  0
BLOCK_RECORD
  5
3D8
100
AcDbSymbolTableRecord
100
AcDbBlockTableRecord
  2
CDWK_PTTYP38
  0
BLOCK_RECORD
  5
3D9
100
AcDbSymbolTableRecord
100
AcDbBlockTableRecord
  2
*X1
  0
BLOCK_RECORD
  5
3DA
100
AcDbSymbolTableRecord
100
AcDbBlockTableRecord
  2
*X2
  0
BLOCK_RECORD
  5
3DB
100
AcDbSymbolTableRecord
100
AcDbBlockTableRecord
  2
*X3
  0
BLOCK_RECORD
  5
3DC
100
AcDbSymbolTableRecord
100
AcDbBlockTableRecord
  2
*X4
  0
BLOCK_RECORD
  5
3DD
100
AcDbSymbolTableRecord
100
AcDbBlockTableRecord
  2
*D4
  0
ENDTAB
  0
ENDSEC
  0
SECTION
  2
BLOCKS
  0
BLOCK
  5
3DE
100
AcDbEntity
  8
0
100
AcDbBlockBegin
  2
*MODEL_SPACE
 70
     0
 10
0.0
 20
0.0
 30
0.0
  3
*MODEL_SPACE
  1

  0
ENDBLK
  5
3DF
100
AcDbEntity
100
AcDbBlockEnd
  0
BLOCK
  5
3E0
100
AcDbEntity
  8
0
100
AcDbBlockBegin
  2
*PAPER_SPACE
 70
     0
 10
0.0
 20
0.0
 30
0.0
  3
*PAPER_SPACE
  1

  0
ENDBLK
  5
3E1
100
AcDbEntity
100
AcDbBlockEnd
  0
BLOCK
  5
3E2
100
AcDbEntity
  8
0
100
AcDbBlockBegin
  2
CDWK_EXTR_0
 70
     0
 10
0.0
 20
0.0
 30
0.0
  3
CDWK_EXTR_0
  1

  4
Cadwork line-extremity
  0
LINE
  5
3E3
100
AcDbEntity
  8
0
 62
     0
370
    -2
100
AcDbLine
 10
0.0
 20
0.0
 30
0.0
 11
2.0
 21
0.5
 31
0.0
  0
LINE
  5
3E4
100
AcDbEntity
  8
0
 62
     0
370
    -2
100
AcDbLine
 10
0.0
 20
0.0
 30
0.0
 11
2.0
 21
-0.5
 31
0.0
  0
LINE
  5
3E5
100
AcDbEntity
  8
0
 62
     0
370
    -2
100
AcDbLine
 10
2.0
 20
0.5
 30
0.0
 11
2.0
 21
-0.5
 31
0.0
  0
ENDBLK
  5
3E6
100
AcDbEntity
100
AcDbBlockEnd
  0
BLOCK
  5
3E7
100
AcDbEntity
  8
0
100
AcDbBlockBegin
  2
CDWK_EXTR_1D
 70
     0
 10
0.0
 20
0.0
 30
0.0
  3
CDWK_EXTR_1D
  1

  4
Cadwork line-extremity
  0
LINE
  5
3E8
100
AcDbEntity
  8
0
 62
     0
370
    -2
100
AcDbLine
 10
0.0
 20
0.0
 30
0.0
 11
0.0
 21
1.0
 31
0.0
  0
LINE
  5
3E9
100
AcDbEntity
  8
0
 62
     0
370
    -2
100
AcDbLine
 10
0.0
 20
1.0
 30
0.0
 11
0.5
 21
1.5
 31
0.0
  0
LINE
  5
3EA
100
AcDbEntity
  8
0
 62
     0
370
    -2
100
AcDbLine
 10
0.5
 20
1.5
 30
0.0
 11
1.5
 21
1.5
 31
0.0
  0
ENDBLK
  5
3EB
100
AcDbEntity
100
AcDbBlockEnd
  0
BLOCK
  5
3EC
100
AcDbEntity
  8
0
100
AcDbBlockBegin
  2
CDWK_EXTR_1G
 70
     0
 10
0.0
 20
0.0
 30
0.0
  3
CDWK_EXTR_1G
  1

  4
Cadwork line-extremity
  0
LINE
  5
3ED
100
AcDbEntity
  8
0
 62
     0
370
    -2
100
AcDbLine
 10
0.0
 20
0.0
 30
0.0
 11
0.0
 21
-1.0
 31
0.0
  0
LINE
  5
3EE
100
AcDbEntity
  8
0
 62
     0
370
    -2
100
AcDbLine
 10
0.0
 20
-1.0
 30
0.0
 11
0.5
 21
-1.5
 31
0.0
  0
LINE
  5
3EF
100
AcDbEntity
  8
0
 62
     0
370
    -2
100
AcDbLine
 10
0.5
 20
-1.5
 30
0.0
 11
1.5
 21
-1.5
 31
0.0
  0
ENDBLK
  5
3F0
100
AcDbEntity
100
AcDbBlockEnd
  0
BLOCK
  5
3F1
100
AcDbEntity
  8
0
100
AcDbBlockBegin
  2
CDWK_EXTR_2
 70
     0
 10
0.0
 20
0.0
 30
0.0
  3
CDWK_EXTR_2
  1

  4
Cadwork line-extremity
  0
SOLID
  5
3F2
100
AcDbEntity
  8
0
 62
     0
100
AcDbTrace
 10
0.0
 20
0.0
 11
2.0
 21
0.5
 12
2.0
 22
-0.5
 13
2.0
 23
-0.5
  0
ENDBLK
  5
3F3
100
AcDbEntity
100
AcDbBlockEnd
  0
BLOCK
  5
3F4
100
AcDbEntity
  8
0
100
AcDbBlockBegin
  2
CDWK_EXTR_3
 70
     0
 10
0.0
 20
0.0
 30
0.0
  3
CDWK_EXTR_3
  1

  4
Cadwork line-extremity
  0
SOLID
  5
3F5
100
AcDbEntity
  8
0
 62
     0
100
AcDbTrace
 10
0.0
 20
0.0
 11
2.0
 21
0.5
 12
2.0
 22
-0.5
 13
2.0
 23
-0.5
  0
LINE
  5
3F6
100
AcDbEntity
  8
0
 62
     0
370
    -2
100
AcDbLine
 10
0.0
 20
1.0
 30
0.0
 11
0.0
 21
-1.0
 31
0.0
  0
ENDBLK
  5
3F7
100
AcDbEntity
100
AcDbBlockEnd
  0
BLOCK
  5
3F8
100
AcDbEntity
  8
0
100
AcDbBlockBegin
  2
CDWK_EXTR_4
 70
     0
 10
0.0
 20
0.0
 30
0.0
  3
CDWK_EXTR_4
  1

  4
Cadwork line-extremity
  0
HATCH
  5
3F9
100
AcDbEntity
  8
0
 62
     0
370
    -2
100
AcDbHatch
 10
0.0
 20
0.0
 30
0.0
210
0.0
220
0.0
230
1.0
  2
SOLID
 70
     1
 71
     0
 91
        1
 92
        1
 93
        1
 72
     2
 10
0.0
 20
0.0
 40
0.5
 50
0.0
 51
360.0
 73
     1
 97
        0
 75
     0
 76
     1
 98
        1
 10
0.0
 20
0.0
  0
ENDBLK
  5
3FA
100
AcDbEntity
100
AcDbBlockEnd
  0
BLOCK
  5
3FB
100
AcDbEntity
  8
0
100
AcDbBlockBegin
  2
CDWK_PTTYP0
 70
     0
 10
0.0
 20
0.0
 30
0.0
  3
CDWK_PTTYP0
  1

  4
Cadwork point
  0
POINT
  5
3FC
100
AcDbEntity
  8
0
 62
     0
100
AcDbPoint
 10
0.0
 20
0.0
 30
0.0
  0
ENDBLK
  5
3FD
100
AcDbEntity
100
AcDbBlockEnd
  0
BLOCK
  5
3FE
100
AcDbEntity
  8
0
100
AcDbBlockBegin
  2
CDWK_PTTYP1
 70
     0
 10
0.0
 20
0.0
 30
0.0
  3
CDWK_PTTYP1
  1

  4
Cadwork node
  0
LINE
  5
3FF
100
AcDbEntity
  8
0
 62
     0
370
    -2
100
AcDbLine
 10
-0.5
 20
0.5
 30
0.0
 11
0.5
 21
0.5
 31
0.0
  0
LINE
  5
400
100
AcDbEntity
  8
0
 62
     0
370
    -2
100
AcDbLine
 10
0.5
 20
0.5
 30
0.0
 11
0.5
 21
-0.5
 31
0.0
  0
LINE
  5
401
100
AcDbEntity
  8
0
 62
     0
370
    -2
100
AcDbLine
 10
0.5
 20
-0.5
 30
0.0
 11
-0.5
 21
-0.5
 31
0.0
  0
LINE
  5
402
100
AcDbEntity
  8
0
 62
     0
370
    -2
100
AcDbLine
 10
-0.5
 20
-0.5
 30
0.0
 11
-0.5
 21
0.5
 31
0.0
  0
ENDBLK
  5
403
100
AcDbEntity
100
AcDbBlockEnd
  0
BLOCK
  5
404
100
AcDbEntity
  8
0
100
AcDbBlockBegin
  2
CDWK_PTTYP2
 70
     0
 10
0.0
 20
0.0
 30
0.0
  3
CDWK_PTTYP2
  1

  4
Cadwork node
  0
LINE
  5
405
100
AcDbEntity
  8
0
 62
     0
370
    -2
100
AcDbLine
 10
0.0
 20
0.5
 30
0.0
 11
0.0
 21
-0.5
 31
0.0
  0
LINE
  5
406
100
AcDbEntity
  8
0
 62
     0
370
    -2
100
AcDbLine
 10
-0.5
 20
0.0
 30
0.0
 11
0.5
 21
0.0
 31
0.0
  0
ENDBLK
  5
407
100
AcDbEntity
100
AcDbBlockEnd
  0
BLOCK
  5
408
100
AcDbEntity
  8
0
100
AcDbBlockBegin
  2
CDWK_PTTYP3
 70
     0
 10
0.0
 20
0.0
 30
0.0
  3
CDWK_PTTYP3
  1

  4
Cadwork node
  0
CIRCLE
  5
409
100
AcDbEntity
  8
0
 62
     0
370
    -2
100
AcDbCircle
 10
0.0
 20
0.0
 30
0.0
 40
0.5
  0
ENDBLK
  5
40A
100
AcDbEntity
100
AcDbBlockEnd
  0
BLOCK
  5
40B
100
AcDbEntity
  8
0
100
AcDbBlockBegin
  2
CDWK_PTTYP4
 70
     0
 10
0.0
 20
0.0
 30
0.0
  3
CDWK_PTTYP4
  1

  4
Cadwork node
  0
HATCH
  5
40C
100
AcDbEntity
  8
0
 62
     0
370
    -2
100
AcDbHatch
 10
0.0
 20
0.0
 30
0.0
210
0.0
220
0.0
230
1.0
  2
SOLID
 70
     1
 71
     0
 91
        1
 92
        1
 93
        1
 72
     2
 10
0.0
 20
0.0
 40
0.5
 50
0.0
 51
360.0
 73
     1
 97
        0
 75
     0
 76
     1
 98
        1
 10
0.0
 20
0.0
  0
ENDBLK
  5
40D
100
AcDbEntity
100
AcDbBlockEnd
  0
BLOCK
  5
40E
100
AcDbEntity
  8
0
100
AcDbBlockBegin
  2
CDWK_PTTYP5
 70
     0
 10
0.0
 20
0.0
 30
0.0
  3
CDWK_PTTYP5
  1

  4
Cadwork node
  0
LINE
  5
40F
100
AcDbEntity
  8
0
 62
     0
370
    -2
100
AcDbLine
 10
-0.5
 20
0.5
 30
0.0
 11
0.5
 21
0.5
 31
0.0
  0
LINE
  5
410
100
AcDbEntity
  8
0
 62
     0
370
    -2
100
AcDbLine
 10
0.5
 20
0.5
 30
0.0
 11
0.5
 21
-0.5
 31
0.0
  0
LINE
  5
411
100
AcDbEntity
  8
0
 62
     0
370
    -2
100
AcDbLine
 10
0.5
 20
-0.5
 30
0.0
 11
-0.5
 21
-0.5
 31
0.0
  0
LINE
  5
412
100
AcDbEntity
  8
0
 62
     0
370
    -2
100
AcDbLine
 10
-0.5
 20
-0.5
 30
0.0
 11
-0.5
 21
0.5
 31
0.0
  0
SOLID
  5
413
100
AcDbEntity
  8
0
 62
     0
100
AcDbTrace
 10
-0.5
 20
-0.5
 11
-0.5
 21
0.0
 12
0.0
 22
-0.5
 13
0.0
 23
0.0
  0
SOLID
  5
414
100
AcDbEntity
  8
0
 62
     0
100
AcDbTrace
 10
0.0
 20
0.0
 11
0.0
 21
0.5
 12
0.5
 22
0.0
 13
0.5
 23
0.5
  0
ENDBLK
  5
415
100
AcDbEntity
100
AcDbBlockEnd
  0
BLOCK
  5
416
100
AcDbEntity
  8
0
100
AcDbBlockBegin
  2
CDWK_PTTYP6
 70
     0
 10
0.0
 20
0.0
 30
0.0
  3
CDWK_PTTYP6
  1

  4
Cadwork node
  0
LINE
  5
417
100
AcDbEntity
  8
0
 62
     0
370
    -2
100
AcDbLine
 10
-0.5
 20
0.5
 30
0.0
 11
0.5
 21
0.5
 31
0.0
  0
LINE
  5
418
100
AcDbEntity
  8
0
 62
     0
370
    -2
100
AcDbLine
 10
0.5
 20
0.5
 30
0.0
 11
0.5
 21
-0.5
 31
0.0
  0
LINE
  5
419
100
AcDbEntity
  8
0
 62
     0
370
    -2
100
AcDbLine
 10
0.5
 20
-0.5
 30
0.0
 11
-0.5
 21
-0.5
 31
0.0
  0
LINE
  5
41A
100
AcDbEntity
  8
0
 62
     0
370
    -2
100
AcDbLine
 10
-0.5
 20
-0.5
 30
0.0
 11
-0.5
 21
0.5
 31
0.0
  0
SOLID
  5
41B
100
AcDbEntity
  8
0
 62
     0
100
AcDbTrace
 10
-0.5
 20
-0.5
 11
-0.5
 21
0.5
 12
0.5
 22
0.5
 13
0.5
 23
0.5
  0
ENDBLK
  5
41C
100
AcDbEntity
100
AcDbBlockEnd
  0
BLOCK
  5
41D
100
AcDbEntity
  8
0
100
AcDbBlockBegin
  2
CDWK_PTTYP7
 70
     0
 10
0.0
 20
0.0
 30
0.0
  3
CDWK_PTTYP7
  1

  4
Cadwork node
  0
LINE
  5
41E
100
AcDbEntity
  8
0
 62
     0
370
    -2
100
AcDbLine
 10
-0.5
 20
0.5
 30
0.0
 11
0.5
 21
0.5
 31
0.0
  0
LINE
  5
41F
100
AcDbEntity
  8
0
 62
     0
370
    -2
100
AcDbLine
 10
0.5
 20
0.5
 30
0.0
 11
0.5
 21
-0.5
 31
0.0
  0
LINE
  5
420
100
AcDbEntity
  8
0
 62
     0
370
    -2
100
AcDbLine
 10
0.5
 20
-0.5
 30
0.0
 11
-0.5
 21
-0.5
 31
0.0
  0
LINE
  5
421
100
AcDbEntity
  8
0
 62
     0
370
    -2
100
AcDbLine
 10
-0.5
 20
-0.5
 30
0.0
 11
-0.5
 21
0.5
 31
0.0
  0
LINE
  5
422
100
AcDbEntity
  8
0
 62
     0
370
    -2
100
AcDbLine
 10
0.0
 20
0.5
 30
0.0
 11
0.0
 21
-0.5
 31
0.0
  0
LINE
  5
423
100
AcDbEntity
  8
0
 62
     0
370
    -2
100
AcDbLine
 10
-0.5
 20
0.0
 30
0.0
 11
0.5
 21
0.0
 31
0.0
  0
ENDBLK
  5
424
100
AcDbEntity
100
AcDbBlockEnd
  0
BLOCK
  5
425
100
AcDbEntity
  8
0
100
AcDbBlockBegin
  2
CDWK_PTTYP8
 70
     0
 10
0.0
 20
0.0
 30
0.0
  3
CDWK_PTTYP8
  1

  4
Cadwork node
  0
SOLID
  5
426
100
AcDbEntity
  8
0
 62
     0
100
AcDbTrace
 10
-0.5
 20
0.5
 11
0.5
 21
0.5
 12
-0.5
 22
-0.5
 13
0.5
 23
-0.5
  0
ENDBLK
  5
427
100
AcDbEntity
100
AcDbBlockEnd
  0
BLOCK
  5
428
100
AcDbEntity
  8
0
100
AcDbBlockBegin
  2
CDWK_PTTYP9
 70
     0
 10
0.0
 20
0.0
 30
0.0
  3
CDWK_PTTYP9
  1

  4
Cadwork node
  0
CIRCLE
  5
429
100
AcDbEntity
  8
0
 62
     0
370
    -2
100
AcDbCircle
 10
0.0
 20
0.0
 30
0.0
 40
0.5
  0
CIRCLE
  5
42A
100
AcDbEntity
  8
0
 62
     0
370
    -2
100
AcDbCircle
 10
0.0
 20
0.0
 30
0.0
 40
0.16666667
  0
ENDBLK
  5
42B
100
AcDbEntity
100
AcDbBlockEnd
  0
BLOCK
  5
42C
100
AcDbEntity
  8
0
100
AcDbBlockBegin
  2
CDWK_PTTYP10
 70
     0
 10
0.0
 20
0.0
 30
0.0
  3
CDWK_PTTYP10
  1

  4
Cadwork node
  0
CIRCLE
  5
42D
100
AcDbEntity
  8
0
 62
     0
370
    -2
100
AcDbCircle
 10
0.0
 20
0.0
 30
0.0
 40
0.5
  0
ENDBLK
  5
42E
100
AcDbEntity
100
AcDbBlockEnd
  0
BLOCK
  5
42F
100
AcDbEntity
  8
0
100
AcDbBlockBegin
  2
CDWK_PTTYP11
 70
     0
 10
0.0
 20
0.0
 30
0.0
  3
CDWK_PTTYP11
  1

  4
Cadwork node
  0
CIRCLE
  5
430
100
AcDbEntity
  8
0
 62
     0
370
    -2
100
AcDbCircle
 10
0.0
 20
0.0
 30
0.0
 40
0.5
  0
CIRCLE
  5
431
100
AcDbEntity
  8
0
 62
     0
370
    -2
100
AcDbCircle
 10
0.0
 20
0.0
 30
0.0
 40
0.25
  0
ENDBLK
  5
432
100
AcDbEntity
100
AcDbBlockEnd
  0
BLOCK
  5
433
100
AcDbEntity
  8
0
100
AcDbBlockBegin
  2
CDWK_PTTYP12
 70
     0
 10
0.0
 20
0.0
 30
0.0
  3
CDWK_PTTYP12
  1

  4
Cadwork node
  0
CIRCLE
  5
434
100
AcDbEntity
  8
0
 62
     0
370
    -2
100
AcDbCircle
 10
0.0
 20
0.0
 30
0.0
 40
0.5
  0
CIRCLE
  5
435
100
AcDbEntity
  8
0
 62
     0
370
    -2
100
AcDbCircle
 10
0.25
 20
0.0
 30
0.0
 40
0.25
  0
ENDBLK
  5
436
100
AcDbEntity
100
AcDbBlockEnd
  0
BLOCK
  5
437
100
AcDbEntity
  8
0
100
AcDbBlockBegin
  2
CDWK_PTTYP13
 70
     0
 10
0.0
 20
0.0
 30
0.0
  3
CDWK_PTTYP13
  1

  4
Cadwork node
  0
CIRCLE
  5
438
100
AcDbEntity
  8
0
 62
     0
370
    -2
100
AcDbCircle
 10
0.0
 20
0.0
 30
0.0
 40
0.5
  0
CIRCLE
  5
439
100
AcDbEntity
  8
0
 62
     0
370
    -2
100
AcDbCircle
 10
0.25
 20
0.0
 30
0.0
 40
0.25
  0
CIRCLE
  5
43A
100
AcDbEntity
  8
0
 62
     0
370
    -2
100
AcDbCircle
 10
-0.25
 20
0.0
 30
0.0
 40
0.25
  0
ENDBLK
  5
43B
100
AcDbEntity
100
AcDbBlockEnd
  0
BLOCK
  5
43C
100
AcDbEntity
  8
0
100
AcDbBlockBegin
  2
CDWK_PTTYP14
 70
     0
 10
0.0
 20
0.0
 30
0.0
  3
CDWK_PTTYP14
  1

  4
Cadwork node
  0
POINT
  5
43D
100
AcDbEntity
  8
0
 62
     0
100
AcDbPoint
 10
0.0
 20
0.0
 30
0.0
  0
ENDBLK
  5
43E
100
AcDbEntity
100
AcDbBlockEnd
  0
BLOCK
  5
43F
100
AcDbEntity
  8
0
100
AcDbBlockBegin
  2
CDWK_PTTYP15
 70
     0
 10
0.0
 20
0.0
 30
0.0
  3
CDWK_PTTYP15
  1

  4
Cadwork node
  0
POINT
  5
440
100
AcDbEntity
  8
0
 62
     0
100
AcDbPoint
 10
0.0
 20
0.0
 30
0.0
  0
ENDBLK
  5
441
100
AcDbEntity
100
AcDbBlockEnd
  0
BLOCK
  5
442
100
AcDbEntity
  8
0
100
AcDbBlockBegin
  2
CDWK_PTTYP16
 70
     0
 10
0.0
 20
0.0
 30
0.0
  3
CDWK_PTTYP16
  1

  4
Cadwork node
  0
LINE
  5
443
100
AcDbEntity
  8
0
 62
     0
370
    -2
100
AcDbLine
 10
-0.5
 20
-0.28867513
 30
0.0
 11
0.5
 21
-0.28867513
 31
0.0
  0
LINE
  5
444
100
AcDbEntity
  8
0
 62
     0
370
    -2
100
AcDbLine
 10
0.5
 20
-0.28867513
 30
0.0
 11
0.0
 21
0.57735027
 31
0.0
  0
LINE
  5
445
100
AcDbEntity
  8
0
 62
     0
370
    -2
100
AcDbLine
 10
0.0
 20
0.57735027
 30
0.0
 11
-0.5
 21
-0.28867513
 31
0.0
  0
CIRCLE
  5
446
100
AcDbEntity
  8
0
 62
     0
370
    -2
100
AcDbCircle
 10
0.0
 20
0.0
 30
0.0
 40
0.28867513
  0
ENDBLK
  5
447
100
AcDbEntity
100
AcDbBlockEnd
  0
BLOCK
  5
448
100
AcDbEntity
  8
0
100
AcDbBlockBegin
  2
CDWK_PTTYP17
 70
     0
 10
0.0
 20
0.0
 30
0.0
  3
CDWK_PTTYP17
  1

  4
Cadwork node
  0
CIRCLE
  5
449
100
AcDbEntity
  8
0
 62
     0
370
    -2
100
AcDbCircle
 10
0.0
 20
0.0
 30
0.0
 40
0.5
  0
HATCH
  5
44A
100
AcDbEntity
  8
0
 62
     0
370
    -2
100
AcDbHatch
 10
0.0
 20
0.0
 30
0.0
210
0.0
220
0.0
230
1.0
  2
SOLID
 70
     1
 71
     0
 91
        1
 92
        1
 93
        1
 72
     2
 10
0.0
 20
0.0
 40
0.25
 50
0.0
 51
360.0
 73
     1
 97
        0
 75
     0
 76
     1
 98
        1
 10
0.0
 20
0.0
  0
ENDBLK
  5
44B
100
AcDbEntity
100
AcDbBlockEnd
  0
BLOCK
  5
44C
100
AcDbEntity
  8
0
100
AcDbBlockBegin
  2
CDWK_PTTYP18
 70
     0
 10
0.0
 20
0.0
 30
0.0
  3
CDWK_PTTYP18
  1

  4
Cadwork node
  0
CIRCLE
  5
44D
100
AcDbEntity
  8
0
 62
     0
370
    -2
100
AcDbCircle
 10
0.0
 20
0.0
 30
0.0
 40
0.5
  0
CIRCLE
  5
44E
100
AcDbEntity
  8
0
 62
     0
370
    -2
100
AcDbCircle
 10
0.0
 20
0.0
 30
0.0
 40
0.2
  0
ENDBLK
  5
44F
100
AcDbEntity
100
AcDbBlockEnd
  0
BLOCK
  5
450
100
AcDbEntity
  8
0
100
AcDbBlockBegin
  2
CDWK_PTTYP19
 70
     0
 10
0.0
 20
0.0
 30
0.0
  3
CDWK_PTTYP19
  1

  4
Cadwork node
  0
CIRCLE
  5
451
100
AcDbEntity
  8
0
 62
     0
370
    -2
100
AcDbCircle
 10
0.0
 20
0.0
 30
0.0
 40
0.4
  0
CIRCLE
  5
452
100
AcDbEntity
  8
0
 62
     0
370
    -2
100
AcDbCircle
 10
0.0
 20
0.0
 30
0.0
 40
0.25
  0
LINE
  5
453
100
AcDbEntity
  8
0
 62
     0
370
    -2
100
AcDbLine
 10
-0.25
 20
0.0
 30
0.0
 11
0.25
 21
0.0
 31
0.0
  0
ENDBLK
  5
454
100
AcDbEntity
100
AcDbBlockEnd
  0
BLOCK
  5
455
100
AcDbEntity
  8
0
100
AcDbBlockBegin
  2
CDWK_PTTYP20
 70
     0
 10
0.0
 20
0.0
 30
0.0
  3
CDWK_PTTYP20
  1

  4
Cadwork node
  0
CIRCLE
  5
456
100
AcDbEntity
  8
0
 62
     0
370
    -2
100
AcDbCircle
 10
0.0
 20
0.0
 30
0.0
 40
0.5
  0
CIRCLE
  5
457
100
AcDbEntity
  8
0
 62
     0
370
    -2
100
AcDbCircle
 10
0.0
 20
0.0
 30
0.0
 40
0.3
  0
ENDBLK
  5
458
100
AcDbEntity
100
AcDbBlockEnd
  0
BLOCK
  5
459
100
AcDbEntity
  8
0
100
AcDbBlockBegin
  2
CDWK_PTTYP21
 70
     0
 10
0.0
 20
0.0
 30
0.0
  3
CDWK_PTTYP21
  1

  4
Cadwork node
  0
CIRCLE
  5
45A
100
AcDbEntity
  8
0
 62
     0
370
    -2
100
AcDbCircle
 10
0.0
 20
0.0
 30
0.0
 40
0.5
  0
LINE
  5
45B
100
AcDbEntity
  8
0
 62
     0
370
    -2
100
AcDbLine
 10
-0.5
 20
0.0
 30
0.0
 11
0.5
 21
0.0
 31
0.0
  0
ENDBLK
  5
45C
100
AcDbEntity
100
AcDbBlockEnd
  0
BLOCK
  5
45D
100
AcDbEntity
  8
0
100
AcDbBlockBegin
  2
CDWK_PTTYP22
 70
     0
 10
0.0
 20
0.0
 30
0.0
  3
CDWK_PTTYP22
  1

  4
Cadwork node
  0
POINT
  5
45E
100
AcDbEntity
  8
0
 62
     0
100
AcDbPoint
 10
0.0
 20
0.0
 30
0.0
  0
ENDBLK
  5
45F
100
AcDbEntity
100
AcDbBlockEnd
  0
BLOCK
  5
460
100
AcDbEntity
  8
0
100
AcDbBlockBegin
  2
CDWK_PTTYP23
 70
     0
 10
0.0
 20
0.0
 30
0.0
  3
CDWK_PTTYP23
  1

  4
Cadwork node
  0
POINT
  5
461
100
AcDbEntity
  8
0
 62
     0
100
AcDbPoint
 10
0.0
 20
0.0
 30
0.0
  0
ENDBLK
  5
462
100
AcDbEntity
100
AcDbBlockEnd
  0
BLOCK
  5
463
100
AcDbEntity
  8
0
100
AcDbBlockBegin
  2
CDWK_PTTYP24
 70
     0
 10
0.0
 20
0.0
 30
0.0
  3
CDWK_PTTYP24
  1

  4
Cadwork node
  0
POINT
  5
464
100
AcDbEntity
  8
0
 62
     0
100
AcDbPoint
 10
0.0
 20
0.0
 30
0.0
  0
ENDBLK
  5
465
100
AcDbEntity
100
AcDbBlockEnd
  0
BLOCK
  5
466
100
AcDbEntity
  8
0
100
AcDbBlockBegin
  2
CDWK_PTTYP25
 70
     0
 10
0.0
 20
0.0
 30
0.0
  3
CDWK_PTTYP25
  1

  4
Cadwork node
  0
LINE
  5
467
100
AcDbEntity
  8
0
 62
     0
370
    -2
100
AcDbLine
 10
-0.43290044
 20
-0.25
 30
0.0
 11
0.43290044
 21
-0.25
 31
0.0
  0
LINE
  5
468
100
AcDbEntity
  8
0
 62
     0
370
    -2
100
AcDbLine
 10
-0.43290044
 20
-0.25
 30
0.0
 11
0.0
 21
0.5
 31
0.0
  0
LINE
  5
469
100
AcDbEntity
  8
0
 62
     0
370
    -2
100
AcDbLine
 10
0.43290044
 20
-0.25
 30
0.0
 11
0.0
 21
0.5
 31
0.0
  0
CIRCLE
  5
46A
100
AcDbEntity
  8
0
 62
     0
370
    -2
100
AcDbCircle
 10
0.0
 20
0.0
 30
0.0
 40
0.5
  0
ENDBLK
  5
46B
100
AcDbEntity
100
AcDbBlockEnd
  0
BLOCK
  5
46C
100
AcDbEntity
  8
0
100
AcDbBlockBegin
  2
CDWK_PTTYP26
 70
     0
 10
0.0
 20
0.0
 30
0.0
  3
CDWK_PTTYP26
  1

  4
Cadwork node
  0
LINE
  5
46D
100
AcDbEntity
  8
0
 62
     0
370
    -2
100
AcDbLine
 10
-0.5
 20
-0.28850001
 30
0.0
 11
0.5
 21
-0.28850001
 31
0.0
  0
LINE
  5
46E
100
AcDbEntity
  8
0
 62
     0
370
    -2
100
AcDbLine
 10
-0.5
 20
-0.28850001
 30
0.0
 11
0.0
 21
0.57736721
 31
0.0
  0
LINE
  5
46F
100
AcDbEntity
  8
0
 62
     0
370
    -2
100
AcDbLine
 10
0.5
 20
-0.28850001
 30
0.0
 11
0.0
 21
0.57736721
 31
0.0
  0
CIRCLE
  5
470
100
AcDbEntity
  8
0
 62
     0
370
    -2
100
AcDbCircle
 10
0.0
 20
0.0
 30
0.0
 40
0.1312336
  0
ENDBLK
  5
471
100
AcDbEntity
100
AcDbBlockEnd
  0
BLOCK
  5
472
100
AcDbEntity
  8
0
100
AcDbBlockBegin
  2
CDWK_PTTYP27
 70
     0
 10
0.0
 20
0.0
 30
0.0
  3
CDWK_PTTYP27
  1

  4
Cadwork node
  0
LINE
  5
473
100
AcDbEntity
  8
0
 62
     0
370
    -2
100
AcDbLine
 10
-0.43290044
 20
-0.25
 30
0.0
 11
0.43290044
 21
-0.25
 31
0.0
  0
LINE
  5
474
100
AcDbEntity
  8
0
 62
     0
370
    -2
100
AcDbLine
 10
-0.43290044
 20
-0.25
 30
0.0
 11
0.0
 21
0.5
 31
0.0
  0
LINE
  5
475
100
AcDbEntity
  8
0
 62
     0
370
    -2
100
AcDbLine
 10
0.43290044
 20
-0.25
 30
0.0
 11
0.0
 21
0.5
 31
0.0
  0
CIRCLE
  5
476
100
AcDbEntity
  8
0
 62
     0
370
    -2
100
AcDbCircle
 10
0.0
 20
0.0
 30
0.0
 40
0.5
  0
CIRCLE
  5
477
100
AcDbEntity
  8
0
 62
     0
370
    -2
100
AcDbCircle
 10
0.0
 20
0.0
 30
0.0
 40
0.1312336
  0
ENDBLK
  5
478
100
AcDbEntity
100
AcDbBlockEnd
  0
BLOCK
  5
479
100
AcDbEntity
  8
0
100
AcDbBlockBegin
  2
CDWK_PTTYP28
 70
     0
 10
0.0
 20
0.0
 30
0.0
  3
CDWK_PTTYP28
  1

  4
Cadwork node
  0
POINT
  5
47A
100
AcDbEntity
  8
0
 62
     0
100
AcDbPoint
 10
0.0
 20
0.0
 30
0.0
  0
ENDBLK
  5
47B
100
AcDbEntity
100
AcDbBlockEnd
  0
BLOCK
  5
47C
100
AcDbEntity
  8
0
100
AcDbBlockBegin
  2
CDWK_PTTYP29
 70
     0
 10
0.0
 20
0.0
 30
0.0
  3
CDWK_PTTYP29
  1

  4
Cadwork node
  0
CIRCLE
  5
47D
100
AcDbEntity
  8
0
 62
     0
370
    -2
100
AcDbCircle
 10
0.0
 20
0.0
 30
0.0
 40
0.5
  0
CIRCLE
  5
47E
100
AcDbEntity
  8
0
 62
     0
370
    -2
100
AcDbCircle
 10
0.0
 20
0.0
 30
0.0
 40
0.375
  0
CIRCLE
  5
47F
100
AcDbEntity
  8
0
 62
     0
370
    -2
100
AcDbCircle
 10
0.0
 20
0.0
 30
0.0
 40
0.21875
  0
ENDBLK
  5
480
100
AcDbEntity
100
AcDbBlockEnd
  0
BLOCK
  5
481
100
AcDbEntity
  8
0
100
AcDbBlockBegin
  2
CDWK_PTTYP30
 70
     0
 10
0.0
 20
0.0
 30
0.0
  3
CDWK_PTTYP30
  1

  4
Cadwork node
  0
LINE
  5
482
100
AcDbEntity
  8
0
 62
     0
370
    -2
100
AcDbLine
 10
0.17680339
 20
0.17680339
 30
0.0
 11
0.5
 21
0.5
 31
0.0
  0
LINE
  5
483
100
AcDbEntity
  8
0
 62
     0
370
    -2
100
AcDbLine
 10
-0.17680339
 20
0.17680339
 30
0.0
 11
-0.5
 21
0.5
 31
0.0
  0
LINE
  5
484
100
AcDbEntity
  8
0
 62
     0
370
    -2
100
AcDbLine
 10
0.17680339
 20
-0.17680339
 30
0.0
 11
0.5
 21
-0.5
 31
0.0
  0
LINE
  5
485
100
AcDbEntity
  8
0
 62
     0
370
    -2
100
AcDbLine
 10
-0.17680339
 20
-0.17680339
 30
0.0
 11
-0.5
 21
-0.5
 31
0.0
  0
ENDBLK
  5
486
100
AcDbEntity
100
AcDbBlockEnd
  0
BLOCK
  5
487
100
AcDbEntity
  8
0
100
AcDbBlockBegin
  2
CDWK_PTTYP31
 70
     0
 10
0.0
 20
0.0
 30
0.0
  3
CDWK_PTTYP31
  1

  4
Cadwork node
  0
CIRCLE
  5
488
100
AcDbEntity
  8
0
 62
     0
370
    -2
100
AcDbCircle
 10
0.0
 20
0.0
 30
0.0
 40
0.075
  0
LINE
  5
489
100
AcDbEntity
  8
0
 62
     0
370
    -2
100
AcDbLine
 10
0.075
 20
0.0
 30
0.0
 11
0.5
 21
0.0
 31
0.0
  0
LINE
  5
48A
100
AcDbEntity
  8
0
 62
     0
370
    -2
100
AcDbLine
 10
-0.075
 20
0.0
 30
0.0
 11
-0.5
 21
0.0
 31
0.0
  0
LINE
  5
48B
100
AcDbEntity
  8
0
 62
     0
370
    -2
100
AcDbLine
 10
0.0
 20
0.075
 30
0.0
 11
0.0
 21
0.5
 31
0.0
  0
LINE
  5
48C
100
AcDbEntity
  8
0
 62
     0
370
    -2
100
AcDbLine
 10
0.0
 20
-0.075
 30
0.0
 11
0.0
 21
-0.5
 31
0.0
  0
ENDBLK
  5
48D
100
AcDbEntity
100
AcDbBlockEnd
  0
BLOCK
  5
48E
100
AcDbEntity
  8
0
100
AcDbBlockBegin
  2
CDWK_PTTYP32
 70
     0
 10
0.0
 20
0.0
 30
0.0
  3
CDWK_PTTYP32
  1

  4
Cadwork node
  0
CIRCLE
  5
48F
100
AcDbEntity
  8
0
 62
     0
370
    -2
100
AcDbCircle
 10
0.0
 20
0.0
 30
0.0
 40
0.5
  0
CIRCLE
  5
490
100
AcDbEntity
  8
0
 62
     0
370
    -2
100
AcDbCircle
 10
0.0
 20
0.0
 30
0.0
 40
0.16666667
  0
LINE
  5
491
100
AcDbEntity
  8
0
 62
     0
370
    -2
100
AcDbLine
 10
0.11786893
 20
0.11786893
 30
0.0
 11
0.35360678
 21
0.35360678
 31
0.0
  0
LINE
  5
492
100
AcDbEntity
  8
0
 62
     0
370
    -2
100
AcDbLine
 10
-0.11786893
 20
0.11786893
 30
0.0
 11
-0.35360678
 21
0.35360678
 31
0.0
  0
LINE
  5
493
100
AcDbEntity
  8
0
 62
     0
370
    -2
100
AcDbLine
 10
0.11786893
 20
-0.11786893
 30
0.0
 11
0.35360678
 21
-0.35360678
 31
0.0
  0
LINE
  5
494
100
AcDbEntity
  8
0
 62
     0
370
    -2
100
AcDbLine
 10
-0.11786893
 20
-0.11786893
 30
0.0
 11
-0.35360678
 21
-0.35360678
 31
0.0
  0
ENDBLK
  5
495
100
AcDbEntity
100
AcDbBlockEnd
  0
BLOCK
  5
496
100
AcDbEntity
  8
0
100
AcDbBlockBegin
  2
CDWK_PTTYP33
 70
     0
 10
0.0
 20
0.0
 30
0.0
  3
CDWK_PTTYP33
  1

  4
Cadwork node
  0
CIRCLE
  5
497
100
AcDbEntity
  8
0
 62
     0
370
    -2
100
AcDbCircle
 10
0.0
 20
0.0
 30
0.0
 40
0.5
  0
LINE
  5
498
100
AcDbEntity
  8
0
 62
     0
370
    -2
100
AcDbLine
 10
0.0
 20
0.5
 30
0.0
 11
0.0
 21
-0.5
 31
0.0
  0
LINE
  5
499
100
AcDbEntity
  8
0
 62
     0
370
    -2
100
AcDbLine
 10
-0.5
 20
0.0
 30
0.0
 11
0.5
 21
0.0
 31
0.0
  0
ENDBLK
  5
49A
100
AcDbEntity
100
AcDbBlockEnd
  0
BLOCK
  5
49B
100
AcDbEntity
  8
0
100
AcDbBlockBegin
  2
CDWK_PTTYP34
 70
     0
 10
0.0
 20
0.0
 30
0.0
  3
CDWK_PTTYP34
  1

  4
Cadwork node
  0
CIRCLE
  5
49C
100
AcDbEntity
  8
0
 62
     0
370
    -2
100
AcDbCircle
 10
0.0
 20
0.0
 30
0.0
 40
0.5
  0
LINE
  5
49D
100
AcDbEntity
  8
0
 62
     0
370
    -2
100
AcDbLine
 10
-0.30360678
 20
-0.40360678
 30
0.0
 11
0.40360678
 21
0.30360678
 31
0.0
  0
LINE
  5
49E
100
AcDbEntity
  8
0
 62
     0
370
    -2
100
AcDbLine
 10
-0.40360678
 20
-0.30360678
 30
0.0
 11
0.30360678
 21
0.40360678
 31
0.0
  0
ENDBLK
  5
49F
100
AcDbEntity
100
AcDbBlockEnd
  0
BLOCK
  5
4A0
100
AcDbEntity
  8
0
100
AcDbBlockBegin
  2
CDWK_PTTYP35
 70
     0
 10
0.0
 20
0.0
 30
0.0
  3
CDWK_PTTYP35
  1

  4
Cadwork node
  0
CIRCLE
  5
4A1
100
AcDbEntity
  8
0
 62
     0
370
    -2
100
AcDbCircle
 10
0.0
 20
0.0
 30
0.0
 40
0.21431634
  0
LINE
  5
4A2
100
AcDbEntity
  8
0
 62
     0
370
    -2
100
AcDbLine
 10
0.0
 20
0.21431634
 30
0.0
 11
0.0
 21
0.5
 31
0.0
  0
LINE
  5
4A3
100
AcDbEntity
  8
0
 62
     0
370
    -2
100
AcDbLine
 10
0.0
 20
-0.21431634
 30
0.0
 11
0.0
 21
-0.5
 31
0.0
  0
ENDBLK
  5
4A4
100
AcDbEntity
100
AcDbBlockEnd
  0
BLOCK
  5
4A5
100
AcDbEntity
  8
0
100
AcDbBlockBegin
  2
CDWK_PTTYP36
 70
     0
 10
0.0
 20
0.0
 30
0.0
  3
CDWK_PTTYP36
  1

  4
Cadwork node
  0
LINE
  5
4A6
100
AcDbEntity
  8
0
 62
     0
370
    -2
100
AcDbLine
 10
-0.5
 20
-0.16666667
 30
0.0
 11
0.5
 21
-0.16666667
 31
0.0
  0
LINE
  5
4A7
100
AcDbEntity
  8
0
 62
     0
370
    -2
100
AcDbLine
 10
0.5
 20
-0.16666667
 30
0.0
 11
0.5
 21
0.16666667
 31
0.0
  0
LINE
  5
4A8
100
AcDbEntity
  8
0
 62
     0
370
    -2
100
AcDbLine
 10
0.5
 20
0.16666667
 30
0.0
 11
-0.5
 21
0.16666667
 31
0.0
  0
LINE
  5
4A9
100
AcDbEntity
  8
0
 62
     0
370
    -2
100
AcDbLine
 10
-0.5
 20
0.16666667
 30
0.0
 11
-0.5
 21
-0.16666667
 31
0.0
  0
SOLID
  5
4AA
100
AcDbEntity
  8
0
 62
     0
100
AcDbTrace
 10
-0.5
 20
-0.16666667
 11
0.5
 21
0.16666667
 12
0.5
 22
-0.16666667
 13
0.5
 23
-0.16666667
  0
ENDBLK
  5
4AB
100
AcDbEntity
100
AcDbBlockEnd
  0
BLOCK
  5
4AC
100
AcDbEntity
  8
0
100
AcDbBlockBegin
  2
CDWK_PTTYP37
 70
     0
 10
0.0
 20
0.0
 30
0.0
  3
CDWK_PTTYP37
  1

  4
Cadwork node
  0
CIRCLE
  5
4AD
100
AcDbEntity
  8
0
 62
     0
370
    -2
100
AcDbCircle
 10
0.0
 20
0.0
 30
0.0
 40
0.5
  0
SOLID
  5
4AE
100
AcDbEntity
  8
0
 62
     0
100
AcDbTrace
 10
0.0
 20
0.0
 11
0.35350001
 21
0.35350001
 12
0.5
 22
0.0
 13
0.46200001
 23
0.19149999
  0
SOLID
  5
4AF
100
AcDbEntity
  8
0
 62
     0
100
AcDbTrace
 10
0.0
 20
0.0
 11
0.35350001
 21
-0.35350001
 12
0.5
 22
0.0
 13
0.46200001
 23
-0.19149999
  0
SOLID
  5
4B0
100
AcDbEntity
  8
0
 62
     0
100
AcDbTrace
 10
0.0
 20
0.0
 11
0.0
 21
-0.5
 12
0.35350001
 22
-0.35350001
 13
0.19149999
 23
-0.46200001
  0
SOLID
  5
4B1
100
AcDbEntity
  8
0
 62
     0
100
AcDbTrace
 10
0.0
 20
0.0
 11
0.0
 21
-0.5
 12
-0.35350001
 22
-0.35350001
 13
-0.19149999
 23
-0.46200001
  0
ENDBLK
  5
4B2
100
AcDbEntity
100
AcDbBlockEnd
  0
BLOCK
  5
4B3
100
AcDbEntity
  8
0
100
AcDbBlockBegin
  2
CDWK_PTTYP38
 70
     0
 10
0.0
 20
0.0
 30
0.0
  3
CDWK_PTTYP38
  1

  4
Cadwork node
  0
CIRCLE
  5
4B4
100
AcDbEntity
  8
0
 62
     0
370
    -2
100
AcDbCircle
 10
0.0
 20
0.0
 30
0.0
 40
0.5
  0
SOLID
  5
4B5
100
AcDbEntity
  8
0
 62
     0
100
AcDbTrace
 10
0.0
 20
0.0
 11
0.35350001
 21
0.35350001
 12
0.0
 22
0.5
 13
0.19149999
 23
0.46200001
  0
SOLID
  5
4B6
100
AcDbEntity
  8
0
 62
     0
100
AcDbTrace
 10
0.0
 20
0.0
 11
0.5
 21
0.0
 12
0.35350001
 22
0.35350001
 13
0.46200001
 23
0.19149999
  0
SOLID
  5
4B7
100
AcDbEntity
  8
0
 62
     0
100
AcDbTrace
 10
0.0
 20
0.0
 11
0.0
 21
-0.5
 12
-0.35350001
 22
-0.35350001
 13
-0.19149999
 23
-0.46200001
  0
SOLID
  5
4B8
100
AcDbEntity
  8
0
 62
     0
100
AcDbTrace
 10
0.0
 20
0.0
 11
-0.5
 21
0.0
 12
-0.35350001
 22
-0.35350001
 13
-0.46200001
 23
-0.19149999
  0
ENDBLK
  5
4B9
100
AcDbEntity
100
AcDbBlockEnd
  0
BLOCK
  5
4BA
100
AcDbEntity
  8
Ech.1_5
100
AcDbBlockBegin
  2
*X1
 70
     1
 10
0.0
 20
0.0
 30
0.0
  3
*X1
  1

  4
Cadwork hatch
  0
LINE
  5
4BB
100
AcDbEntity
  8
Ech.1_5
 62
   190
  6
CONTINUOUS
370
    -2
100
AcDbLine
 10
35066.14899709
 20
-36583.92276295
 30
0.0
 11
35164.64402022
 21
-36628.92282798
 31
0.0
  0
LINE
  5
4BC
100
AcDbEntity
  8
Ech.1_5
 62
   190
  6
CONTINUOUS
370
    -2
100
AcDbLine
 10
35066.14899709
 20
-36628.92282798
 30
0.0
 11
35164.64402022
 21
-36583.92276295
 31
0.0
  0
ENDBLK
  5
4BD
100
AcDbEntity
100
AcDbBlockEnd
  0
BLOCK
  5
4BE
100
AcDbEntity
  8
Ech.1_5
100
AcDbBlockBegin
  2
*X2
 70
     1
 10
0.0
 20
0.0
 30
0.0
  3
*X2
  1

  4
Cadwork hatch
  0
LINE
  5
4BF
100
AcDbEntity
  8
Ech.1_5
 62
   190
  6
CONTINUOUS
370
    -2
100
AcDbLine
 10
35066.14899709
 20
-36286.85961415
 30
0.0
 11
35164.64402022
 21
-36331.85939893
 31
0.0
  0
LINE
  5
4C0
100
AcDbEntity
  8
Ech.1_5
 62
   190
  6
CONTINUOUS
370
    -2
100
AcDbLine
 10
35066.14899709
 20
-36331.85939893
 30
0.0
 11
35164.64402022
 21
-36286.85961415
 31
0.0
  0
ENDBLK
  5
4C1
100
AcDbEntity
100
AcDbBlockEnd
  0
BLOCK
  5
4C2
100
AcDbEntity
  8
Ech.1_5
100
AcDbBlockBegin
  2
*X3
 70
     1
 10
0.0
 20
0.0
 30
0.0
  3
*X3
  1

  4
Cadwork hatch
  0
LINE
  5
4C3
100
AcDbEntity
  8
Ech.1_5
 62
   190
  6
CONTINUOUS
370
    -2
100
AcDbLine
 10
35066.14899709
 20
-36082.25017118
 30
0.0
 11
35164.64402022
 21
-36127.24995596
 31
0.0
  0
LINE
  5
4C4
100
AcDbEntity
  8
Ech.1_5
 62
   190
  6
CONTINUOUS
370
    -2
100
AcDbLine
 10
35066.14899709
 20
-36127.24995596
 30
0.0
 11
35164.64402022
 21
-36082.25017118
 31
0.0
  0
ENDBLK
  5
4C5
100
AcDbEntity
100
AcDbBlockEnd
  0
BLOCK
  5
4C6
100
AcDbEntity
  8
Ech.1_5
100
AcDbBlockBegin
  2
*X4
 70
     1
 10
0.0
 20
0.0
 30
0.0
  3
*X4
  1

  4
Cadwork hatch
  0
LINE
  5
4C7
100
AcDbEntity
  8
Ech.1_5
 62
   190
  6
CONTINUOUS
370
    -2
100
AcDbLine
 10
35075.08107786
 20
-36638.3548721
 30
0.0
 11
35164.64402022
 21
-36683.35493713
 31
0.0
  0
LINE
  5
4C8
100
AcDbEntity
  8
Ech.1_5
 62
   190
  6
CONTINUOUS
370
    -2
100
AcDbLine
 10
35075.08107786
 20
-36683.35493713
 30
0.0
 11
35164.64402022
 21
-36638.3548721
 31
0.0
  0
ENDBLK
  5
4C9
100
AcDbEntity
100
AcDbBlockEnd
  0
BLOCK
  5
4CA
100
AcDbEntity
  8
Ech.1_5
100
AcDbBlockBegin
  2
*D4
 70
     1
 10
0.0
 20
0.0
 30
0.0
  3
*D4
  1

  4
Cadwork dimension
  0
TEXT
  5
4CB
100
AcDbEntity
  8
Ech.1_5
 62
   190
370
    18
100
AcDbText
 10
34995.32492584
 20
-36653.42618952
 30
0.0
 40
12.5
  1
30
  7
ARIAL
 50
89.9999975
 41
1.0
 51
0.0
100
AcDbText
  0
LINE
  5
4CC
100
AcDbEntity
  8
Ech.1_5
 62
   190
370
    -2
100
AcDbLine
 10
34995.32492584
 20
-36658.92273207
 30
0.0
 11
35012.17276428
 21
-36658.92273207
 31
0.0
  0
LINE
  5
4CD
100
AcDbEntity
  8
Ech.1_5
 62
   190
370
    -2
100
AcDbLine
 10
34995.32492584
 20
-36628.92279769
 30
0.0
 11
35059.293027
 21
-36628.92279769
 31
0.0
  0
LINE
  5
4CE
100
AcDbEntity
  8
Ech.1_5
 62
   190
370
    -2
100
AcDbLine
 10
35000.32492584
 20
-36663.92273207
 30
0.0
 11
35000.32492584
 21
-36623.92279769
 31
0.0
  0
LINE
  5
4CF
100
AcDbEntity
  8
Ech.1_5
 62
   190
370
    -2
100
AcDbLine
 10
35002.82492584
 20
-36661.42273207
 30
0.0
 11
34997.82492584
 21
-36656.42273207
 31
0.0
  0
LINE
  5
4D0
100
AcDbEntity
  8
Ech.1_5
 62
   190
370
    -2
100
AcDbLine
 10
35002.82492584
 20
-36631.42279769
 30
0.0
 11
34997.82492584
 21
-36626.42279769
 31
0.0
  0
ENDBLK
  5
4D1
100
AcDbEntity
100
AcDbBlockEnd
  0
ENDSEC
  0
SECTION
  2
ENTITIES
  0
INSERT
  5
4D2
100
AcDbEntity
  8
Ech.1_5
 62
     0
370
    -3
100
AcDbBlockReference
  2
*X1
 10
0.0
 20
0.0
 30
0.0
  0
INSERT
  5
4D3
100
AcDbEntity
  8
Ech.1_5
 62
     0
370
    -3
100
AcDbBlockReference
  2
*X2
 10
0.0
 20
0.0
 30
0.0
  0
INSERT
  5
4D4
100
AcDbEntity
  8
Ech.1_5
 62
     0
370
    -3
100
AcDbBlockReference
  2
*X3
 10
0.0
 20
0.0
 30
0.0
  0
INSERT
  5
4D5
100
AcDbEntity
  8
Ech.1_5
 62
     0
370
    -3
100
AcDbBlockReference
  2
*X4
 10
0.0
 20
0.0
 30
0.0
  0
LWPOLYLINE
  5
4D6
102
{ACAD_REACTORS
330
4D7
102
}
100
AcDbEntity
  8
Ech.1_5
 62
     7
  6
CONTINUOUS
370
     5
100
AcDbPolyline
 90
        4
 70
     1
 43
0.0
 10
35066.14659484
 20
-36638.35542252
 10
35091.97112592
 20
-36638.35542252
 10
35091.97112592
 20
-36628.92276242
 10
35066.14659484
 20
-36628.92276242
  0
HATCH
  5
4D7
100
AcDbEntity
  8
Ech.1_5
 62
     2
  6
CONTINUOUS
100
AcDbHatch
 10
0.0
 20
0.0
 30
0.0
210
0.0
220
0.0
230
1.0
  2
SOLID
 70
     1
 71
     1
 91
        1
 92
        7
 72
     0
 73
     1
 93
        4
 10
35066.14659484
 20
-36638.35542252
 10
35091.97112592
 20
-36638.35542252
 10
35091.97112592
 20
-36628.92276242
 10
35066.14659484
 20
-36628.92276242
 97
        1
330
4D6
 75
     0
 76
     2
 47
0.775229
 98
        1
 10
0.0
 20
0.0
  0
HATCH
  5
4D8
100
AcDbEntity
  8
Ech.1_5
 62
     7
100
AcDbHatch
 10
0.0
 20
0.0
 30
0.0
210
0.0
220
0.0
230
1.0
  2
ANSI37
 70
     0
 71
     0
 91
        1
 92
        7
 72
     0
 73
     1
 93
        4
 10
35066.14659484
 20
-36638.35542252
 10
35091.97112592
 20
-36638.35542252
 10
35091.97112592
 20
-36628.92276242
 10
35066.14659484
 20
-36628.92276242
 97
        0
 75
     0
 76
     2
 52
0.0
 41
1.87498831
 77
     0
 78
     2
 53
45.0
 43
0.0
 44
0.0
 45
4.20946876
 46
-4.20946876
 79
     0
 53
-45.0
 43
0.0
 44
0.0
 45
4.20946876
 46
4.20946876
 79
     0
 47
0.775229
 98
        1
 10
0.0
 20
0.0
  0
LWPOLYLINE
  5
4D9
100
AcDbEntity
  8
Ech.1_5
 62
   190
  6
CONTINUOUS
370
    -3
100
AcDbPolyline
 90
        4
 70
     1
 43
0.0
 10
35164.64268647
 20
-36044.7220184
 10
35066.14659484
 20
-36044.72238012
 10
35066.14659484
 20
-36584.02613407
 10
35164.64268647
 20
-36584.02611279
  0
LWPOLYLINE
  5
4DA
100
AcDbEntity
  8
Ech.1_5
 62
   190
  6
CONTINUOUS
370
    -3
100
AcDbPolyline
 90
        5
 70
     0
 43
0.0
 10
34929.26651495
 20
-37327.28475935
 10
35914.26651495
 20
-37327.28475935
 10
35914.26651495
 20
-35972.28475935
 10
34929.26651495
 20
-35972.28475935
 10
34929.26651495
 20
-37327.28475935
  0
LWPOLYLINE
  5
4DB
102
{ACAD_REACTORS
330
4DC
102
}
100
AcDbEntity
  8
Ech.1_5
 62
   190
  6
CONTINUOUS
370
    -3
100
AcDbPolyline
 90
        4
 70
     1
 43
0.0
 10
35328.64268647
 20
-36044.7220184
 10
35328.64268647
 20
-36628.63432868
 10
35378.64268647
 20
-36628.63432868
 10
35378.64268647
 20
-36044.72220747
  0
HATCH
  5
4DC
100
AcDbEntity
  8
Ech.1_5
 62
   190
  6
CONTINUOUS
100
AcDbHatch
 10
0.0
 20
0.0
 30
0.0
210
0.0
220
0.0
230
1.0
  2
ISOL_01
 70
     0
 71
     1
 91
        1
 92
        7
 72
     0
 73
     1
 93
        4
 10
35328.64268647
 20
-36044.7220184
 10
35328.64268647
 20
-36628.63432868
 10
35378.64268647
 20
-36628.63432868
 10
35378.64268647
 20
-36044.72220747
 97
        1
330
4DB
 75
     0
 76
     2
 52
90.0
 41
1.0
 77
     0
 78
    29
 53
90.0
 43
-6.8334372368039E-17
 44
-1.11598499
 45
-50.0
 46
3.0616169978684E-15
 79
     2
 49
2.23196998
 49
-6.10136509
 53
180.0
 43
-6.98101997
 44
-8.33333015
 45
-2.0410778039266E-15
 46
-16.66666508
 79
     2
 49
1.35231495
 49
-48.64768505
 53
180.0
 43
-41.66666508
 44
2.5513474008975E-15
 45
-2.0410778039266E-15
 46
-16.66666508
 79
     2
 49
1.35231495
 49
-48.64768505
 53
194.9324646
 43
-10.12092471
 44
8.13471019
 45
-49.99976025
 46
-16.66757926
 79
     2
 49
30.79819441
 49
-227.93804169
 53
165.0675354
 43
-10.12092471
 44
8.53195488
 45
49.99976025
 46
-16.66757926
 79
     2
 49
30.79819441
 49
-227.93804169
 53
105.25511932
 43
6.8334372368039E-17
 44
1.11598499
 45
-4.4677443522545E-07
 46
-16.66666455
 79
     2
 49
2.26520494
 49
-187.76403427
 53
254.74488831
 43
-6.8334372368039E-17
 44
-1.11598499
 45
2.6660750557239E-06
 46
-16.66666455
 79
     2
 49
2.26520494
 49
-187.76403427
 53
105.25511932
 43
-49.40398693
 44
5.03196001
 45
-4.4677443522545E-07
 46
-16.66666455
 79
     2
 49
2.26520494
 49
-187.76403427
 53
74.74488068
 43
-50.0
 44
9.44931507
 45
-4.4677443744590E-07
 46
16.66666455
 79
     2
 49
2.26520494
 49
-187.76403427
 53
120.96375656
 43
-0.59601501
 44
3.30137014
 45
1.1071673911012E-07
 46
-16.66666796
 79
     2
 49
2.17618495
 49
-95.00634193
 53
239.03623962
 43
-0.59601501
 44
-3.31369996
 45
-1.2203672739020E-06
 46
-16.66666796
 79
     2
 49
2.17618495
 49
-95.00634193
 53
120.96375656
 43
-48.28434467
 44
3.16590011
 45
1.1071673911012E-07
 46
-16.66666796
 79
     2
 49
2.17618495
 49
-95.00634193
 53
59.03624344
 43
-49.40398693
 44
11.63470507
 45
1.1071674133056E-07
 46
16.66666796
 79
     2
 49
2.17618495
 49
-95.00634193
 53
135.0
 43
-1.71565503
 44
5.16743004
 45
-1.1102230246252E-15
 46
-16.66666947
 79
     2
 49
1.85064495
 49
-68.86003494
 53
225.0
 43
-1.71565503
 44
-5.16743004
 45
-2.2204460492503E-15
 46
-16.66666947
 79
     2
 49
1.85064495
 49
-68.86003494
 53
135.0
 43
-46.97574615
 44
1.85729995
 45
-1.1102230246252E-15
 46
-16.66666947
 79
     2
 49
1.85064495
 49
-68.86003494
 53
45.0
 43
-48.28434467
 44
13.50076556
 45
1.1102230246252E-15
 46
16.66666947
 79
     2
 49
1.85064495
 49
-68.86003494
 53
146.30993271
 43
-3.02425504
 44
6.47603512
 45
1.8867262407962E-06
 46
-16.66666751
 79
     2
 49
1.94114506
 49
-58.15137386
 53
213.69006348
 43
-3.02425504
 44
-6.47603512
 45
-2.9963767456120E-06
 46
-16.66666751
 79
     2
 49
1.94114506
 49
-58.15137386
 53
146.30993271
 43
-45.36061287
 44
0.78054503
 45
1.8867262407962E-06
 46
-16.66666751
 79
     2
 49
1.94114506
 49
-58.15137386
 53
33.69006729
 43
-46.97574615
 44
14.80937004
 45
1.8867262374656E-06
 46
16.66666751
 79
     2
 49
1.94114506
 49
-58.15137386
 53
161.56504822
 43
-4.63938504
 44
7.55279005
 45
8.3555102170507E-07
 46
-16.66666869
 79
     2
 49
2.46830001
 49
-50.23633003
 53
198.43495178
 43
-4.63938504
 44
-7.55279005
 45
-8.3555102614596E-07
 46
-16.66666869
 79
     2
 49
2.46830001
 49
-50.23633003
 53
161.56504822
 43
-43.01898003
 44
2.6341528095863E-15
 45
8.3555102170507E-07
 46
-16.66666869
 79
     2
 49
2.46830001
 49
-50.23633003
 53
18.43495178
 43
-45.36061287
 44
15.8861196
 45
8.3555102614596E-07
 46
16.66666869
 79
     2
 49
2.46830001
 49
-50.23633003
 53
173.6598053
 43
-8.33333015
 44
-8.33333015
 45
100.00000505
 46
-16.66667138
 79
     2
 49
1.79859504
 49
-149.12448883
 53
186.3401947
 43
-8.33333015
 44
8.33333015
 45
-100.00000505
 46
-16.66667138
 79
     2
 49
1.79859504
 49
-149.12448883
 53
353.65982056
 43
-41.66666508
 44
2.5513474008975E-15
 45
-100.00000949
 46
16.66664475
 79
     2
 49
1.79859504
 49
-149.12448883
 53
6.3401947
 43
-41.66666508
 44
2.5513474008975E-15
 45
100.00000505
 46
16.66667138
 79
     2
 49
1.79859504
 49
-149.12448883
 47
0.775229
 98
        1
 10
0.0
 20
0.0
  0
LWPOLYLINE
  5
4DD
100
AcDbEntity
  8
Ech.1_5
 62
   204
  6
DASHDOT
370
    70
100
AcDbPolyline
 90
        4
 70
     0
 43
0.0
 38
2500.0
 10
35171.40526007
 20
-36631.86103284
 10
35166.48047712
 20
-36631.86103284
 10
35327.56792378
 20
-36631.86103284
 10
35337.04372804
 20
-36631.86103284
  0
LWPOLYLINE
  5
4DE
100
AcDbEntity
  8
Ech.1_5
 62
     7
  6
CONTINUOUS
370
    -3
100
AcDbPolyline
 90
       12
 70
     1
 43
0.0
 10
35173.64268647
 20
-36583.92276242
 10
35173.64268647
 20
-36628.92276242
 10
35208.40233861
 20
-36628.92276242
 10
35208.40237658
 20
-36628.92238187
 10
35234.22690766
 20
-36628.92238187
 10
35234.2268697
 20
-36628.92276242
 10
35248.46425437
 20
-36628.92276242
 10
35248.46429233
 20
-36628.92171247
 10
35274.28882341
 20
-36628.92171247
 10
35274.28878545
 20
-36628.92276242
 10
35318.64268647
 20
-36628.92276242
 10
35318.64268647
 20
-36583.92276242
  0
LWPOLYLINE
  5
4DF
102
{ACAD_REACTORS
330
4E0
102
}
100
AcDbEntity
  8
Ech.1_5
 62
   190
  6
CONTINUOUS
370
    -3
100
AcDbPolyline
 90
        8
 70
     1
 43
0.0
 10
35318.64268647
 20
-36538.92276242
 10
35318.64268647
 20
-36044.72220662
 10
35249.18542007
 20
-36044.72257758
 10
35232.69906599
 20
-36062.70092919
 10
35246.80900601
 20
-36026.74522918
 10
35230.32350285
 20
-36044.72257758
 10
35173.64268647
 20
-36044.72257758
 10
35173.64268647
 20
-36538.92276242
  0
HATCH
  5
4E0
100
AcDbEntity
  8
Ech.1_5
 62
   190
  6
CONTINUOUS
100
AcDbHatch
 10
0.0
 20
0.0
 30
0.0
210
0.0
220
0.0
230
1.0
  2
ISOL_01
 70
     0
 71
     1
 91
        1
 92
        7
 72
     0
 73
     1
 93
        8
 10
35318.64268647
 20
-36538.92276242
 10
35318.64268647
 20
-36044.72220662
 10
35249.18542007
 20
-36044.72257758
 10
35232.69906599
 20
-36062.70092919
 10
35246.80900601
 20
-36026.74522918
 10
35230.32350285
 20
-36044.72257758
 10
35173.64268647
 20
-36044.72257758
 10
35173.64268647
 20
-36538.92276242
 97
        1
330
4DF
 75
     0
 76
     2
 52
-90.0
 41
1.0
 77
     0
 78
    29
 53
-90.0
 43
-1.9816968638419E-16
 44
3.23635658
 45
145.00000477
 46
8.8786895857969E-15
 79
     2
 49
6.47271316
 49
-17.69395934
 53
0.0
 43
20.24495859
 44
24.16665824
 45
0.0
 46
48.33333031
 79
     2
 49
3.92171348
 49
-141.07829129
 53
0.0
 43
120.8333327
 44
7.3989077059181E-15
 45
0.0
 46
48.33333031
 79
     2
 49
3.92171348
 49
-141.07829129
 53
14.9324646
 43
29.35068263
 44
-23.59066033
 45
144.9993095
 46
48.33598144
 79
     2
 49
89.31476672
 49
-661.02034263
 53
-14.9324646
 43
29.35068263
 44
-24.74266998
 45
-144.9993095
 46
48.33598144
 79
     2
 49
89.31476672
 49
-661.02034263
 53
-74.74488068
 43
1.9816968638419E-16
 44
-3.23635658
 45
1.2956459112008E-06
 46
48.3333288
 79
     2
 49
6.56909453
 49
-544.51571729
 53
74.74488831
 43
-1.9816968638419E-16
 44
3.23635658
 45
-7.7316179319543E-06
 46
48.3333288
 79
     2
 49
6.56909453
 49
-544.51571729
 53
-74.74488068
 43
143.27156681
 44
-14.59268451
 45
1.2956459112008E-06
 46
48.3333288
 79
     2
 49
6.56909453
 49
-544.51571729
 53
-105.25511932
 43
145.00000477
 44
-27.40301461
 45
1.2956459047615E-06
 46
-48.3333288
 79
     2
 49
6.56909453
 49
-544.51571729
 53
-59.03624344
 43
1.72844358
 44
-9.57397373
 45
-3.2107856041740E-07
 46
48.33333867
 79
     2
 49
6.31093657
 49
-275.51840067
 53
59.03623962
 43
1.72844358
 44
9.6097302
 45
3.5390652332365E-06
 46
48.33333867
 79
     2
 49
6.31093657
 49
-275.51840067
 53
-59.03624344
 43
140.02460416
 44
-9.18111062
 45
-3.2107856041740E-07
 46
48.33333867
 79
     2
 49
6.31093657
 49
-275.51840067
 53
-120.96375656
 43
143.27156681
 44
-33.7406458
 45
-3.2107855397811E-07
 46
-48.33333867
 79
     2
 49
6.31093657
 49
-275.51840067
 53
-45.0
 43
4.97539975
 44
-14.98554762
 45
-3.2196468772921E-15
 46
48.33334306
 79
     2
 49
5.36687052
 49
-199.6941079
 53
45.0
 43
4.97539975
 44
14.98554762
 45
3.2196468772921E-15
 46
48.33334306
 79
     2
 49
5.36687052
 49
-199.6941079
 53
-45.0
 43
136.22966833
 44
-5.38617004
 45
-3.2196468772921E-15
 46
48.33334306
 79
     2
 49
5.36687052
 49
-199.6941079
 53
-135.0
 43
140.02460416
 44
-39.15222142
 45
3.2196468772921E-15
 46
-48.33334306
 79
     2
 49
5.36687052
 49
-199.6941079
 53
-33.69006729
 43
8.7703399
 44
-18.78050246
 45
-5.4715062685823E-06
 46
48.33333736
 79
     2
 49
5.62932087
 49
-168.63898975
 53
33.69006348
 43
8.7703399
 44
18.78050246
 45
8.6894928609103E-06
 46
48.33333736
 79
     2
 49
5.62932087
 49
-168.63898975
 53
-33.69006729
 43
131.54578165
 44
-2.26358065
 45
-5.4715062685823E-06
 46
48.33333736
 79
     2
 49
5.62932087
 49
-168.63898975
 53
-146.30993271
 43
136.22966833
 44
-42.94717453
 45
-5.4715062782413E-06
 46
-48.33333736
 79
     2
 49
5.62932087
 49
-168.63898975
 53
-18.43495178
 43
13.45421707
 44
-21.90309185
 45
-2.4230980555077E-06
 46
48.33334079
 79
     2
 49
7.15807028
 49
-145.68536188
 53
18.43495178
 43
13.45421707
 44
21.90309185
 45
2.4230980555077E-06
 46
48.33334079
 79
     2
 49
7.15807028
 49
-145.68536188
 53
-18.43495178
 43
124.75504618
 44
7.6390433990125E-15
 45
-2.4230980555077E-06
 46
48.33334079
 79
     2
 49
7.15807028
 49
-145.68536188
 53
-161.56504822
 43
131.54578165
 44
-46.06974837
 45
-2.4230980426291E-06
 46
-48.33334079
 79
     2
 49
7.15807028
 49
-145.68536188
 53
-6.3401947
 43
24.16665824
 44
24.16665824
 45
-290.00002417
 46
48.3333486
 79
     2
 49
5.21592579
 49
-432.46103183
 53
6.3401947
 43
24.16665824
 44
-24.16665824
 45
290.00002417
 46
48.3333486
 79
     2
 49
5.21592579
 49
-432.46103183
 53
173.65982056
 43
120.8333327
 44
7.3989077059181E-15
 45
290.00003705
 46
-48.33327137
 79
     2
 49
5.21592579
 49
-432.46103183
 53
-173.6598053
 43
120.8333327
 44
7.3989077059181E-15
 45
-290.00002417
 46
-48.3333486
 79
     2
 49
5.21592579
 49
-432.46103183
 47
0.775229
 98
        1
 10
0.0
 20
0.0
  0
LWPOLYLINE
  5
4E1
100
AcDbEntity
  8
Ech.1_5
 62
     7
  6
CONTINUOUS
370
    -3
100
AcDbPolyline
 90
        4
 70
     1
 43
0.0
 10
35173.64268647
 20
-36538.92276242
 10
35173.64268647
 20
-36583.92276242
 10
35318.64268647
 20
-36583.92276242
 10
35318.64268647
 20
-36538.92276242
  0
LWPOLYLINE
  5
4E2
100
AcDbEntity
  8
Ech.1_5
 62
   190
  6
CONTINUOUS
370
    -3
100
AcDbPolyline
 90
        4
 70
     0
 43
0.0
 10
35173.64268647
 20
-36628.92276242
 10
35318.64268647
 20
-36583.92276242
 10
35318.64268647
 20
-36628.92276242
 10
35173.64268647
 20
-36583.92276242
  0
LWPOLYLINE
  5
4E3
100
AcDbEntity
  8
Ech.1_5
 62
   190
  6
CONTINUOUS
370
    -3
100
AcDbPolyline
 90
        4
 70
     0
 43
0.0
 10
35173.64268647
 20
-36583.92276242
 10
35318.64268647
 20
-36538.92276242
 10
35318.64268647
 20
-36583.92276242
 10
35173.64268647
 20
-36538.92276242
  0
LWPOLYLINE
  5
4E4
100
AcDbEntity
  8
Ech.1_5
 62
     5
  6
CONTINUOUS
370
    -3
100
AcDbPolyline
 90
        5
 70
     0
 43
0.0
 10
35173.64268647
 20
-36538.92276242
 10
35318.64268647
 20
-36538.92276242
 10
35318.64268647
 20
-36583.92276242
 10
35173.64268647
 20
-36583.92276242
 10
35173.64268647
 20
-36538.92276242
  0
LWPOLYLINE
  5
4E5
100
AcDbEntity
  8
Ech.1_5
 62
     5
  6
CONTINUOUS
370
    -3
100
AcDbPolyline
 90
       13
 70
     0
 43
0.0
 10
35173.64268647
 20
-36583.92276242
 10
35173.64268647
 20
-36628.92276242
 10
35208.40233861
 20
-36628.92276242
 10
35208.40237658
 20
-36628.92238187
 10
35234.22690766
 20
-36628.92238187
 10
35234.2268697
 20
-36628.92276242
 10
35248.46425437
 20
-36628.92276242
 10
35248.46429233
 20
-36628.92171247
 10
35274.28882341
 20
-36628.92171247
 10
35274.28878545
 20
-36628.92276242
 10
35318.64268647
 20
-36628.92276242
 10
35318.64268647
 20
-36583.92276242
 10
35173.64268647
 20
-36583.92276242
  0
CIRCLE
  5
4E6
100
AcDbEntity
  8
Ech.1_5
 62
     7
  6
CONTINUOUS
100
AcDbCircle
 10
35344.8260505
 20
-36624.7800629
 30
0.0
 40
6.16444121
  0
LWPOLYLINE
  5
4E7
100
AcDbEntity
  8
Ech.1_5
 62
     7
  6
BYBLOCK
100
AcDbPolyline
 90
        5
 70
     0
 43
0.0
 10
35283.46425437
 20
-36638.35492678
 10
35309.28878545
 20
-36638.35492678
 10
35309.28878545
 20
-36628.92226672
 10
35283.46425437
 20
-36628.92226672
 10
35283.46425437
 20
-36638.35492678
  0
LWPOLYLINE
  5
4E8
100
AcDbEntity
  8
Ech.1_5
 62
   190
  6
CONTINUOUS
370
    -3
100
AcDbPolyline
 90
        4
 70
     1
 43
0.0
 10
35173.64268647
 20
-36044.72257758
 10
35164.64268647
 20
-36044.72257758
 10
35164.64268647
 20
-36618.92276242
 10
35173.64268647
 20
-36618.92276242
  0
LWPOLYLINE
  5
4E9
102
{ACAD_REACTORS
330
4EA
102
}
100
AcDbEntity
  8
Ech.1_5
 62
     7
  6
CONTINUOUS
370
     5
100
AcDbPolyline
 90
        4
 70
     1
 43
0.0
 10
35208.40233861
 20
-36638.35492678
 10
35234.2268697
 20
-36638.35492678
 10
35234.2268697
 20
-36628.92226672
 10
35208.40233861
 20
-36628.92226672
  0
HATCH
  5
4EA
100
AcDbEntity
  8
Ech.1_5
 62
     2
  6
CONTINUOUS
100
AcDbHatch
 10
0.0
 20
0.0
 30
0.0
210
0.0
220
0.0
230
1.0
  2
SOLID
 70
     1
 71
     1
 91
        1
 92
        7
 72
     0
 73
     1
 93
        4
 10
35208.40233861
 20
-36638.35492678
 10
35234.2268697
 20
-36638.35492678
 10
35234.2268697
 20
-36628.92226672
 10
35208.40233861
 20
-36628.92226672
 97
        1
330
4E9
 75
     0
 76
     2
 47
0.775229
 98
        1
 10
0.0
 20
0.0
  0
HATCH
  5
4EB
100
AcDbEntity
  8
Ech.1_5
 62
     7
100
AcDbHatch
 10
0.0
 20
0.0
 30
0.0
210
0.0
220
0.0
230
1.0
  2
ANSI37
 70
     0
 71
     0
 91
        1
 92
        7
 72
     0
 73
     1
 93
        4
 10
35208.40233861
 20
-36638.35492678
 10
35234.2268697
 20
-36638.35492678
 10
35234.2268697
 20
-36628.92226672
 10
35208.40233861
 20
-36628.92226672
 97
        0
 75
     0
 76
     2
 52
0.0
 41
1.87498831
 77
     0
 78
     2
 53
45.0
 43
0.0
 44
0.0
 45
4.20946876
 46
-4.20946876
 79
     0
 53
-45.0
 43
0.0
 44
0.0
 45
4.20946876
 46
4.20946876
 79
     0
 47
0.775229
 98
        1
 10
0.0
 20
0.0
  0
LWPOLYLINE
  5
4EC
102
{ACAD_REACTORS
330
4ED
102
}
100
AcDbEntity
  8
Ech.1_5
 62
     7
  6
CONTINUOUS
370
     5
100
AcDbPolyline
 90
        4
 70
     1
 43
0.0
 10
35283.46425437
 20
-36638.35492678
 10
35309.28878545
 20
-36638.35492678
 10
35309.28878545
 20
-36628.92226672
 10
35283.46425437
 20
-36628.92226672
  0
HATCH
  5
4ED
100
AcDbEntity
  8
Ech.1_5
 62
     2
  6
CONTINUOUS
100
AcDbHatch
 10
0.0
 20
0.0
 30
0.0
210
0.0
220
0.0
230
1.0
  2
SOLID
 70
     1
 71
     1
 91
        1
 92
        7
 72
     0
 73
     1
 93
        4
 10
35283.46425437
 20
-36638.35492678
 10
35309.28878545
 20
-36638.35492678
 10
35309.28878545
 20
-36628.92226672
 10
35283.46425437
 20
-36628.92226672
 97
        1
330
4EC
 75
     0
 76
     2
 47
0.775229
 98
        1
 10
0.0
 20
0.0
  0
HATCH
  5
4EE
100
AcDbEntity
  8
Ech.1_5
 62
     7
100
AcDbHatch
 10
0.0
 20
0.0
 30
0.0
210
0.0
220
0.0
230
1.0
  2
ANSI37
 70
     0
 71
     0
 91
        1
 92
        7
 72
     0
 73
     1
 93
        4
 10
35283.46425437
 20
-36638.35492678
 10
35309.28878545
 20
-36638.35492678
 10
35309.28878545
 20
-36628.92226672
 10
35283.46425437
 20
-36628.92226672
 97
        0
 75
     0
 76
     2
 52
0.0
 41
1.87498831
 77
     0
 78
     2
 53
45.0
 43
0.0
 44
0.0
 45
4.20946876
 46
-4.20946876
 79
     0
 53
-45.0
 43
0.0
 44
0.0
 45
4.20946876
 46
4.20946876
 79
     0
 47
0.775229
 98
        1
 10
0.0
 20
0.0
  0
LINE
  5
4EF
100
AcDbEntity
  8
Ech.1_5
 62
   190
  6
CONTINUOUS
370
    -3
100
AcDbLine
 10
35331.70849518
 20
-36615.42276246
 30
0.0
 11
35338.70849526
 21
-36622.42276238
 31
0.0
  0
LWPOLYLINE
  5
4F0
100
AcDbEntity
  8
Ech.1_5
 62
   190
  6
CONTINUOUS
370
    -3
100
AcDbPolyline
 90
        4
 70
     1
 43
0.0
 10
35391.64268647
 20
-36044.7220184
 10
35378.64268647
 20
-36044.7220184
 10
35378.64268647
 20
-36618.92276242
 10
35391.64268647
 20
-36618.92276242
  0
HATCH
  5
4F1
100
AcDbEntity
  8
Ech.1_5
 62
   190
100
AcDbHatch
 10
0.0
 20
0.0
 30
0.0
210
0.0
220
0.0
230
1.0
  2
SOLID
 70
     1
 71
     0
 91
        1
 92
        7
 72
     0
 73
     1
 93
       10
 10
35376.64268647
 20
-36598.63432843
 10
35376.64268647
 20
-36600.63432843
 10
35376.64268647
 20
-36626.63432843
 10
35332.64268647
 20
-36626.63432843
 10
35332.64268647
 20
-36600.63432843
 10
35332.64268647
 20
-36598.63432843
 10
35330.64268647
 20
-36598.63432843
 10
35330.64268647
 20
-36628.63432868
 10
35378.64268647
 20
-36628.63432868
 10
35378.63857492
 20
-36598.63432843
 97
        0
 75
     0
 76
     2
 47
0.775229
 98
        1
 10
0.0
 20
0.0
  0
LWPOLYLINE
  5
4F2
100
AcDbEntity
  8
Ech.1_5
 62
     1
  6
CADWORK_22
 48
-5.0
370
    35
100
AcDbPolyline
 90
        6
 70
     0
 43
0.0
 10
35320.14268647
 20
-36044.72220129
 10
35320.14268647
 20
-36627.4208574
 10
35337.39146199
 20
-36627.4208574
 10
35345.59922432
 20
-36619.32066421
 10
35352.17858173
 20
-36627.42067832
 10
35378.8377336
 20
-36627.42067832
  0
LWPOLYLINE
  5
4F3
100
AcDbEntity
  8
Ech.1_5
 62
   190
  6
CONTINUOUS
370
    -3
100
AcDbPolyline
 90
        6
 70
     0
 43
0.0
 10
34992.15293434
 20
-36044.72257758
 10
35230.32350285
 20
-36044.72257758
 10
35246.80900601
 20
-36026.74522918
 10
35232.69906599
 20
-36062.70092919
 10
35249.18542007
 20
-36044.72257758
 10
35411.18542007
 20
-36044.721949
  0
LWPOLYLINE
  5
4F4
100
AcDbEntity
  8
Ech.1_5
 62
     9
  6
CONTINUOUS
370
    -3
100
AcDbPolyline
 90
        6
 70
     0
 43
0.0
 10
35734.34331662
 20
-36584.72830064
 10
35734.34331662
 20
-36684.49137835
 10
35752.32066495
 20
-36700.9768815
 10
35716.36496503
 20
-36686.86694149
 10
35734.34331662
 20
-36703.35329557
 10
35734.34331662
 20
-36793.14013962
  0
LWPOLYLINE
  5
4F5
100
AcDbEntity
  8
Ech.1_5
 62
   190
  6
CONTINUOUS
370
    -3
100
AcDbPolyline
 90
       66
 70
     0
 43
0.0
 10
35148.34366633
 20
-36583.96810459
 42
1.14028181
 10
35144.03602067
 20
-36551.93717793
 10
35087.31920489
 20
-36567.28333948
 42
-1.30322619
 10
35087.23161057
 20
-36535.79605556
 10
35144.03293066
 20
-36550.82642155
 42
1.30322619
 10
35143.94533633
 20
-36519.33913763
 10
35087.22852056
 20
-36534.68529918
 42
-1.30322619
 10
35087.14092623
 20
-36503.19801527
 10
35143.94224632
 20
-36518.22838125
 42
1.30322619
 10
35143.854652
 20
-36486.74109734
 10
35087.13783623
 20
-36502.08725889
 42
-1.30322619
 10
35087.0502419
 20
-36470.59997497
 10
35143.85156199
 20
-36485.63034096
 42
1.30322619
 10
35143.76396766
 20
-36454.14305704
 10
35087.04715189
 20
-36469.48921859
 42
-1.30322619
 10
35086.95955757
 20
-36438.00193468
 10
35143.76087766
 20
-36453.03230066
 42
1.30322619
 10
35143.67328333
 20
-36421.54501675
 10
35086.95646756
 20
-36436.8911783
 42
-1.30322619
 10
35086.86887323
 20
-36405.40389438
 10
35143.67019332
 20
-36420.43426037
 42
1.30322619
 10
35143.582599
 20
-36388.94697645
 10
35086.86578322
 20
-36404.293138
 42
-1.30322619
 10
35086.7781889
 20
-36372.80585409
 10
35143.57950899
 20
-36387.83622007
 42
1.30322619
 10
35143.49191466
 20
-36356.34893616
 10
35086.77509889
 20
-36371.69509771
 42
-1.30322619
 10
35086.68750456
 20
-36340.20781379
 10
35143.48882465
 20
-36355.23817978
 42
1.30322619
 10
35143.40123033
 20
-36323.75089586
 10
35086.68441456
 20
-36339.09705741
 42
-1.30322619
 10
35086.59682023
 20
-36307.6097735
 10
35143.39814032
 20
-36322.64013948
 42
1.30322619
 10
35143.31054599
 20
-36291.15285557
 10
35086.59373022
 20
-36306.49901712
 42
-1.30322619
 10
35086.5061359
 20
-36275.0117332
 10
35143.30745599
 20
-36290.04209919
 42
1.30322619
 10
35143.21986166
 20
-36258.55481527
 10
35086.50304589
 20
-36273.90097682
 42
-1.30322619
 10
35086.41545156
 20
-36242.41369291
 10
35143.21677165
 20
-36257.44405889
 42
1.30322619
 10
35143.12917733
 20
-36225.95677498
 10
35086.41236155
 20
-36241.30293653
 42
-1.30322619
 10
35086.32476723
 20
-36209.81565261
 10
35143.12608732
 20
-36224.8460186
 42
1.30322619
 10
35143.03849299
 20
-36193.35873468
 10
35086.32167722
 20
-36208.70489623
 42
-1.30322619
 10
35086.23408289
 20
-36177.21761232
 10
35143.03540298
 20
-36192.2479783
 42
1.30322619
 10
35142.94780866
 20
-36160.76069439
 10
35086.23099289
 20
-36176.10685594
 42
-1.30322619
 10
35086.14339856
 20
-36144.61957202
 10
35142.94471865
 20
-36159.64993801
 42
1.30322619
 10
35142.85712432
 20
-36128.16265409
 10
35086.14030855
 20
-36143.50881564
 42
-1.30322619
 10
35086.05271422
 20
-36112.02153173
 10
35142.85403432
 20
-36127.05189771
 42
1.30322619
 10
35142.76643999
 20
-36095.5646138
 10
35086.04962422
 20
-36110.91077535
 42
-1.30322619
 10
35085.96202989
 20
-36079.42349143
 10
35142.76334998
 20
-36094.45385742
 42
1.30322619
 10
35142.67575565
 20
-36062.9665735
 10
35085.95893988
 20
-36078.31273505
 42
-1.30322619
 10
35085.87134556
 20
-36046.82545114
 10
35142.67266565
 20
-36061.85581712
 42
0.51885702
 10
35163.08807945
 20
-36044.72217031
  0
LWPOLYLINE
  5
4F6
100
AcDbEntity
  8
Ech.1_5
 62
     9
  6
CONTINUOUS
370
    -3
100
AcDbPolyline
 90
        4
 70
     1
 43
0.0
 10
35066.07827825
 20
-36044.72238012
 10
35041.07827825
 20
-36044.72251126
 10
35041.07831527
 20
-36614.328181
 10
35066.07831527
 20
-36614.328181
  0
LWPOLYLINE
  5
4F7
100
AcDbEntity
  8
Ech.1_5
 62
     7
  6
CONTINUOUS
100
AcDbPolyline
 90
       27
 70
     0
 43
0.0
 10
35027.95169815
 20
-36394.53724092
 10
35028.07831527
 20
-36394.20276712
 10
35028.07831527
 20
-36366.81930303
 10
35035.07831527
 20
-36366.81930303
 10
35035.07831527
 20
-36375.81930303
 10
35041.07831527
 20
-36375.81930303
 10
35041.07831527
 20
-36348.81930303
 10
35037.07831527
 20
-36344.81930303
 10
35041.07831527
 20
-36340.81930303
 10
35041.07831527
 20
-36276.81930303
 10
35037.07831527
 20
-36272.81930303
 10
35041.07831527
 20
-36268.81930303
 10
35041.07831527
 20
-36233.81930303
 10
35034.07831527
 20
-36233.81930303
 10
35034.07831527
 20
-36227.81930303
 10
35031.57831527
 20
-36222.81930303
 10
35029.07831527
 20
-36227.81930303
 10
35029.07831527
 20
-36258.74823522
 10
35028.69771294
 20
-36260.66165238
 10
35022.54278137
 20
-36267.35483694
 10
35021.07831527
 20
-36270.89037084
 10
35021.07831527
 20
-36389.97711526
 10
35022.03863767
 20
-36391.6069839
 10
35026.77475853
 20
-36394.57833383
 10
35027.18675989
 20
-36394.81930303
 10
35027.50057738
 20
-36394.81930303
 10
35027.95169815
 20
-36394.53724092
  0
LWPOLYLINE
  5
4F8
100
AcDbEntity
  8
Ech.1_5
 62
    25
  6
CONTINUOUS
370
    -3
100
AcDbPolyline
 90
       27
 70
     0
 43
0.0
 10
35027.95169815
 20
-36539.53724092
 10
35028.07831527
 20
-36539.20276712
 10
35028.07831527
 20
-36511.81930303
 10
35035.07831527
 20
-36511.81930303
 10
35035.07831527
 20
-36520.81930303
 10
35041.07831527
 20
-36520.81930303
 10
35041.07831527
 20
-36493.81930303
 10
35037.07831527
 20
-36489.81930303
 10
35041.07831527
 20
-36485.81930303
 10
35041.07831527
 20
-36421.81930303
 10
35037.07831527
 20
-36417.81930303
 10
35041.07831527
 20
-36413.81930303
 10
35041.07831527
 20
-36378.81930303
 10
35034.07831527
 20
-36378.81930303
 10
35034.07831527
 20
-36372.81930303
 10
35031.57831527
 20
-36367.81930303
 10
35029.07831527
 20
-36372.81930303
 10
35029.07831527
 20
-36403.74823522
 10
35028.69771294
 20
-36405.66165238
 10
35022.54278137
 20
-36412.35483694
 10
35021.07831527
 20
-36415.89037084
 10
35021.07831527
 20
-36534.97711526
 10
35022.03863767
 20
-36536.6069839
 10
35026.77475853
 20
-36539.57833383
 10
35027.18675989
 20
-36539.81930303
 10
35027.50057738
 20
-36539.81930303
 10
35027.95169815
 20
-36539.53724092
  0
LWPOLYLINE
  5
4F9
100
AcDbEntity
  8
Ech.1_5
 62
     7
  6
CONTINUOUS
100
AcDbPolyline
 90
       16
 70
     0
 43
0.0
 10
35021.07831527
 20
-36044.72261616
 10
35021.07831527
 20
-36099.97711526
 10
35022.03863767
 20
-36101.6069839
 10
35026.77475853
 20
-36104.57833383
 10
35027.18675989
 20
-36104.81930303
 10
35027.50057738
 20
-36104.81930303
 10
35027.95169815
 20
-36104.53724092
 10
35028.07831527
 20
-36104.20276712
 10
35028.07831527
 20
-36076.81930303
 10
35035.07831527
 20
-36076.81930303
 10
35035.07831527
 20
-36085.81930303
 10
35041.07831527
 20
-36085.81930303
 10
35041.07831527
 20
-36058.81930303
 10
35037.07831527
 20
-36054.81930303
 10
35041.07831527
 20
-36050.81930303
 10
35041.07831527
 20
-36044.72251126
  0
LWPOLYLINE
  5
4FA
100
AcDbEntity
  8
Ech.1_5
 62
     7
  6
CONTINUOUS
100
AcDbPolyline
 90
       27
 70
     0
 43
0.0
 10
35027.95169815
 20
-36249.53724092
 10
35028.07831527
 20
-36249.20276712
 10
35028.07831527
 20
-36221.81930303
 10
35035.07831527
 20
-36221.81930303
 10
35035.07831527
 20
-36230.81930303
 10
35041.07831527
 20
-36230.81930303
 10
35041.07831527
 20
-36203.81930303
 10
35037.07831527
 20
-36199.81930303
 10
35041.07831527
 20
-36195.81930303
 10
35041.07831527
 20
-36131.81930303
 10
35037.07831527
 20
-36127.81930303
 10
35041.07831527
 20
-36123.81930303
 10
35041.07831527
 20
-36088.81930303
 10
35034.07831527
 20
-36088.81930303
 10
35034.07831527
 20
-36082.81930303
 10
35031.57831527
 20
-36077.81930303
 10
35029.07831527
 20
-36082.81930303
 10
35029.07831527
 20
-36113.74823522
 10
35028.69771294
 20
-36115.66165238
 10
35022.54278137
 20
-36122.35483694
 10
35021.07831527
 20
-36125.89037084
 10
35021.07831527
 20
-36244.97711526
 10
35022.03863767
 20
-36246.6069839
 10
35026.77475853
 20
-36249.57833383
 10
35027.18675989
 20
-36249.81930303
 10
35027.50057738
 20
-36249.81930303
 10
35027.95169815
 20
-36249.53724092
  0
LWPOLYLINE
  5
4FB
100
AcDbEntity
  8
Ech.1_5
 62
     7
  6
BYBLOCK
100
AcDbPolyline
 90
       23
 70
     0
 43
0.0
 10
35021.07831527
 20
-36657.30088664
 10
35021.07831527
 20
-36560.89037084
 10
35022.54278137
 20
-36557.35483694
 10
35028.69771294
 20
-36550.66165238
 10
35029.07831527
 20
-36548.74823522
 10
35029.07831527
 20
-36517.81930303
 10
35031.57831527
 20
-36512.81930303
 10
35034.07831527
 20
-36517.81930303
 10
35034.07831527
 20
-36523.81930303
 10
35041.07831527
 20
-36523.81930303
 10
35041.07831527
 20
-36558.81930303
 10
35037.07831527
 20
-36562.81930303
 10
35041.07831527
 20
-36566.81930303
 10
35041.07831527
 20
-36630.81930303
 10
35037.07831527
 20
-36634.81930303
 10
35041.07831527
 20
-36638.81930303
 10
35041.07831527
 20
-36638.81930303
 10
35028.83440167
 20
-36654.71657747
 10
35026.01760484
 20
-36658.37385518
 10
35024.92814479
 20
-36658.92273207
 10
35022.17276428
 20
-36658.92273207
 10
35021.07831527
 20
-36657.30088664
 10
35021.07831527
 20
-36651.99225852
  0
LWPOLYLINE
  5
4FC
100
AcDbEntity
  8
Ech.1_5
 62
     9
  6
CONTINUOUS
370
    -3
100
AcDbPolyline
 90
       26
 70
     1
 43
0.0
 10
35027.95169815
 20
-36539.53724092
 10
35028.07831527
 20
-36539.20276712
 10
35028.07831527
 20
-36511.81930303
 10
35035.07831527
 20
-36511.81930303
 10
35035.07831527
 20
-36520.81930303
 10
35041.07831527
 20
-36520.81930303
 10
35041.07831527
 20
-36493.81930303
 10
35037.07831527
 20
-36489.81930303
 10
35041.07831527
 20
-36485.81930303
 10
35041.07831527
 20
-36421.81930303
 10
35037.07831527
 20
-36417.81930303
 10
35041.07831527
 20
-36413.81930303
 10
35041.07831527
 20
-36378.81930303
 10
35034.07831527
 20
-36378.81930303
 10
35034.07831527
 20
-36372.81930303
 10
35031.57831527
 20
-36367.81930303
 10
35029.07831527
 20
-36372.81930303
 10
35029.07831527
 20
-36403.74823522
 10
35028.69771294
 20
-36405.66165238
 10
35022.54278137
 20
-36412.35483694
 10
35021.07831527
 20
-36415.89037084
 10
35021.07831527
 20
-36534.97711526
 10
35022.03863767
 20
-36536.6069839
 10
35026.77475853
 20
-36539.57833383
 10
35027.18675989
 20
-36539.81930303
 10
35027.50057738
 20
-36539.81930303
  0
LWPOLYLINE
  5
4FD
100
AcDbEntity
  8
Ech.1_5
 62
     9
  6
CONTINUOUS
370
    -3
100
AcDbPolyline
 90
       26
 70
     1
 43
0.0
 10
35027.95169815
 20
-36394.53724092
 10
35028.07831527
 20
-36394.20276712
 10
35028.07831527
 20
-36366.81930303
 10
35035.07831527
 20
-36366.81930303
 10
35035.07831527
 20
-36375.81930303
 10
35041.07831527
 20
-36375.81930303
 10
35041.07831527
 20
-36348.81930303
 10
35037.07831527
 20
-36344.81930303
 10
35041.07831527
 20
-36340.81930303
 10
35041.07831527
 20
-36276.81930303
 10
35037.07831527
 20
-36272.81930303
 10
35041.07831527
 20
-36268.81930303
 10
35041.07831527
 20
-36233.81930303
 10
35034.07831527
 20
-36233.81930303
 10
35034.07831527
 20
-36227.81930303
 10
35031.57831527
 20
-36222.81930303
 10
35029.07831527
 20
-36227.81930303
 10
35029.07831527
 20
-36258.74823522
 10
35028.69771294
 20
-36260.66165238
 10
35022.54278137
 20
-36267.35483694
 10
35021.07831527
 20
-36270.89037084
 10
35021.07831527
 20
-36389.97711526
 10
35022.03863767
 20
-36391.6069839
 10
35026.77475853
 20
-36394.57833383
 10
35027.18675989
 20
-36394.81930303
 10
35027.50057738
 20
-36394.81930303
  0
LWPOLYLINE
  5
4FE
100
AcDbEntity
  8
Ech.1_5
 62
     9
  6
CONTINUOUS
370
    -3
100
AcDbPolyline
 90
       26
 70
     1
 43
0.0
 10
35027.95169815
 20
-36249.53724092
 10
35028.07831527
 20
-36249.20276712
 10
35028.07831527
 20
-36221.81930303
 10
35035.07831527
 20
-36221.81930303
 10
35035.07831527
 20
-36230.81930303
 10
35041.07831527
 20
-36230.81930303
 10
35041.07831527
 20
-36203.81930303
 10
35037.07831527
 20
-36199.81930303
 10
35041.07831527
 20
-36195.81930303
 10
35041.07831527
 20
-36131.81930303
 10
35037.07831527
 20
-36127.81930303
 10
35041.07831527
 20
-36123.81930303
 10
35041.07831527
 20
-36088.81930303
 10
35034.07831527
 20
-36088.81930303
 10
35034.07831527
 20
-36082.81930303
 10
35031.57831527
 20
-36077.81930303
 10
35029.07831527
 20
-36082.81930303
 10
35029.07831527
 20
-36113.74823522
 10
35028.69771294
 20
-36115.66165238
 10
35022.54278137
 20
-36122.35483694
 10
35021.07831527
 20
-36125.89037084
 10
35021.07831527
 20
-36244.97711526
 10
35022.03863767
 20
-36246.6069839
 10
35026.77475853
 20
-36249.57833383
 10
35027.18675989
 20
-36249.81930303
 10
35027.50057738
 20
-36249.81930303
  0
LWPOLYLINE
  5
4FF
100
AcDbEntity
  8
Ech.1_5
 62
     9
  6
CONTINUOUS
370
    -3
100
AcDbPolyline
 90
       16
 70
     1
 43
0.0
 10
35041.07831527
 20
-36044.72251126
 10
35021.07831527
 20
-36044.72261616
 10
35021.07831527
 20
-36099.97711526
 10
35022.03863767
 20
-36101.6069839
 10
35026.77475853
 20
-36104.57833383
 10
35027.18675989
 20
-36104.81930303
 10
35027.50057738
 20
-36104.81930303
 10
35027.95169815
 20
-36104.53724092
 10
35028.07831527
 20
-36104.20276712
 10
35028.07831527
 20
-36076.81930303
 10
35035.07831527
 20
-36076.81930303
 10
35035.07831527
 20
-36085.81930303
 10
35041.07831527
 20
-36085.81930303
 10
35041.07831527
 20
-36058.81930303
 10
35037.07831527
 20
-36054.81930303
 10
35041.07831527
 20
-36050.81930303
  0
LWPOLYLINE
  5
500
100
AcDbEntity
  8
Ech.1_5
 62
     9
  6
CONTINUOUS
370
    -3
100
AcDbPolyline
 90
       20
 70
     1
 43
0.0
 10
35021.07831527
 20
-36657.30088664
 10
35022.17276428
 20
-36658.92273207
 10
35024.92814479
 20
-36658.92273207
 10
35026.01760484
 20
-36658.37385518
 10
35028.83440167
 20
-36654.71657747
 10
35041.07831527
 20
-36638.81930303
 10
35037.07831527
 20
-36634.81930303
 10
35041.07831527
 20
-36630.81930303
 10
35041.07831527
 20
-36566.81930303
 10
35037.07831527
 20
-36562.81930303
 10
35041.07831527
 20
-36558.81930303
 10
35041.07831527
 20
-36523.81930303
 10
35034.07831527
 20
-36523.81930303
 10
35034.07831527
 20
-36517.81930303
 10
35031.57831527
 20
-36512.81930303
 10
35029.07831527
 20
-36517.81930303
 10
35029.07831527
 20
-36548.74823522
 10
35028.69771294
 20
-36550.66165238
 10
35022.54278137
 20
-36557.35483694
 10
35021.07831527
 20
-36560.89037084
  0
LWPOLYLINE
  5
501
100
AcDbEntity
  8
Ech.1_5
 62
     7
  6
CONTINUOUS
370
    -3
100
AcDbPolyline
 90
        4
 70
     1
 43
0.0
 10
35066.14659484
 20
-36583.92276242
 10
35066.14659484
 20
-36628.92276242
 10
35164.64268647
 20
-36628.92276242
 10
35164.64268647
 20
-36583.92276242
  0
LWPOLYLINE
  5
502
100
AcDbEntity
  8
Ech.1_5
 62
   190
  6
CONTINUOUS
370
    -3
100
AcDbPolyline
 90
        4
 70
     1
 43
0.0
 10
35066.14659484
 20
-36583.92276242
 10
35066.14659484
 20
-36628.92276242
 10
35164.64268647
 20
-36628.92276242
 10
35164.64268647
 20
-36583.92276242
  0
LWPOLYLINE
  5
503
100
AcDbEntity
  8
Ech.1_5
 62
     5
  6
CONTINUOUS
370
    -3
100
AcDbPolyline
 90
        5
 70
     0
 43
0.0
 10
35066.14659484
 20
-36583.92276242
 10
35164.64268647
 20
-36583.92276242
 10
35164.64268647
 20
-36628.92276242
 10
35066.14659484
 20
-36628.92276242
 10
35066.14659484
 20
-36583.92276242
  0
LWPOLYLINE
  5
504
100
AcDbEntity
  8
Ech.1_5
 62
     7
  6
CONTINUOUS
370
    -3
100
AcDbPolyline
 90
        4
 70
     1
 43
0.0
 10
35066.14659484
 20
-36286.85938115
 10
35066.14659484
 20
-36331.85938115
 10
35164.64268647
 20
-36331.85938115
 10
35164.64268647
 20
-36286.85938115
  0
LWPOLYLINE
  5
505
100
AcDbEntity
  8
Ech.1_5
 62
   190
  6
CONTINUOUS
370
    -3
100
AcDbPolyline
 90
        4
 70
     1
 43
0.0
 10
35066.14659484
 20
-36286.85938115
 10
35066.14659484
 20
-36331.85938115
 10
35164.64268647
 20
-36331.85938115
 10
35164.64268647
 20
-36286.85938115
  0
LWPOLYLINE
  5
506
100
AcDbEntity
  8
Ech.1_5
 62
     5
  6
CONTINUOUS
370
    -3
100
AcDbPolyline
 90
        5
 70
     0
 43
0.0
 10
35066.14659484
 20
-36286.85938115
 10
35164.64268647
 20
-36286.85938115
 10
35164.64268647
 20
-36331.85938115
 10
35066.14659484
 20
-36331.85938115
 10
35066.14659484
 20
-36286.85938115
  0
LWPOLYLINE
  5
507
100
AcDbEntity
  8
Ech.1_5
 62
     7
  6
CONTINUOUS
370
    -3
100
AcDbPolyline
 90
        4
 70
     1
 43
0.0
 10
35066.14659484
 20
-36082.25017518
 10
35066.14659484
 20
-36127.25017518
 10
35164.64268647
 20
-36127.25017518
 10
35164.64268647
 20
-36082.25017518
  0
LWPOLYLINE
  5
508
100
AcDbEntity
  8
Ech.1_5
 62
   190
  6
CONTINUOUS
370
    -3
100
AcDbPolyline
 90
        4
 70
     1
 43
0.0
 10
35066.14659484
 20
-36082.25017518
 10
35066.14659484
 20
-36127.25017518
 10
35164.64268647
 20
-36127.25017518
 10
35164.64268647
 20
-36082.25017518
  0
LWPOLYLINE
  5
509
100
AcDbEntity
  8
Ech.1_5
 62
     5
  6
CONTINUOUS
370
    -3
100
AcDbPolyline
 90
        5
 70
     0
 43
0.0
 10
35066.14659484
 20
-36082.25017518
 10
35164.64268647
 20
-36082.25017518
 10
35164.64268647
 20
-36127.25017518
 10
35066.14659484
 20
-36127.25017518
 10
35066.14659484
 20
-36082.25017518
  0
LWPOLYLINE
  5
50A
100
AcDbEntity
  8
Ech.1_5
 62
     5
  6
CONTINUOUS
370
    -3
100
AcDbPolyline
 90
        5
 70
     0
 43
0.0
 10
35066.14659484
 20
-36082.25017518
 10
35164.64268647
 20
-36082.25017518
 10
35164.64268647
 20
-36127.25017518
 10
35066.14659484
 20
-36127.25017518
 10
35066.14659484
 20
-36082.25017518
  0
LWPOLYLINE
  5
50B
100
AcDbEntity
  8
Ech.1_5
 62
     8
  6
CONTINUOUS
370
    70
100
AcDbPolyline
 90
        3
 70
     0
 43
0.0
 10
35043.43124018
 20
-36628.92276242
 10
35061.92604899
 20
-36628.92276242
 10
35061.92604899
 20
-36590.67500159
  0
LWPOLYLINE
  5
50C
100
AcDbEntity
  8
Ech.1_5
 62
   190
  6
CONTINUOUS
370
    -3
100
AcDbPolyline
 90
        5
 70
     1
 43
0.0
 10
35165.07831527
 20
-36638.35542248
 10
35078.54930138
 20
-36638.35542248
 10
35075.07831527
 20
-36638.35542248
 10
35075.07831527
 20
-37032.57145626
 10
35165.07831527
 20
-37032.57145626
  0
LINE
  5
50D
100
AcDbEntity
  8
Ech.1_5
 62
     0
  6
CONTINUOUS
100
AcDbLine
 10
35165.07831527
 20
-36711.10756376
 30
0.0
 11
35165.07831527
 21
-37032.57145626
 31
0.0
  0
LINE
  5
50E
100
AcDbEntity
  8
Ech.1_5
 62
   190
  6
CONTINUOUS
370
    -3
100
AcDbLine
 10
35165.07831527
 20
-37032.57145626
 30
0.0
 11
35165.07831527
 21
-36711.10699251
 31
0.0
  0
LWPOLYLINE
  5
50F
100
AcDbEntity
  8
Ech.1_5
 62
     0
  6
BYBLOCK
100
AcDbPolyline
 90
        3
 70
     0
 43
0.0
 10
35071.25928038
 20
-36985.21043351
 42
1.0
 10
35073.75928038
 20
-36985.21043351
 42
1.0
 10
35071.25928038
 20
-36985.21043351
  0
LINE
  5
510
100
AcDbEntity
  8
Ech.1_5
 62
     0
  6
BYBLOCK
100
AcDbLine
 10
35070.00928038
 20
-36985.21043351
 30
0.0
 11
35067.50928038
 21
-36985.21043351
 31
0.0
  0
LWPOLYLINE
  5
511
100
AcDbEntity
  8
Ech.1_5
 62
   190
  6
CONTINUOUS
370
    -3
100
AcDbPolyline
 90
        4
 70
     1
 43
0.0
 10
35075.07831527
 20
-36638.35542248
 10
35066.07831527
 20
-36638.35542248
 10
35066.07831527
 20
-37032.57145626
 10
35075.07831527
 20
-37032.57145626
  0
LINE
  5
512
100
AcDbEntity
  8
Ech.1_5
 62
     7
  6
CONTINUOUS
370
    18
100
AcDbLine
 10
35066.08227535
 20
-36711.10751417
 30
0.0
 11
35066.08227535
 21
-37032.57145626
 31
0.0
  0
LWPOLYLINE
  5
513
100
AcDbEntity
  8
Ech.1_5
 62
     0
  6
BYBLOCK
100
AcDbPolyline
 90
        3
 70
     0
 43
0.0
 10
35062.83227768
 20
-36882.11314633
 42
1.0
 10
35065.33227768
 20
-36882.11314633
 42
1.0
 10
35062.83227768
 20
-36882.11314633
  0
LINE
  5
514
100
AcDbEntity
  8
Ech.1_5
 62
     0
  6
BYBLOCK
100
AcDbLine
 10
35061.58227768
 20
-36882.11314633
 30
0.0
 11
35059.08227768
 21
-36882.11314633
 31
0.0
  0
LWPOLYLINE
  5
515
100
AcDbEntity
  8
Ech.1_5
 62
     7
  6
CONTINUOUS
370
    -3
100
AcDbPolyline
 90
        4
 70
     1
 43
0.0
 10
35075.07831527
 20
-36638.35482262
 10
35075.07831527
 20
-36683.35482262
 10
35164.64268647
 20
-36683.35482262
 10
35164.64268647
 20
-36638.35482262
  0
LWPOLYLINE
  5
516
100
AcDbEntity
  8
Ech.1_5
 62
   190
  6
CONTINUOUS
370
    -3
100
AcDbPolyline
 90
        4
 70
     1
 43
0.0
 10
35075.07831527
 20
-36638.35482262
 10
35075.07831527
 20
-36683.35482262
 10
35164.64268647
 20
-36683.35482262
 10
35164.64268647
 20
-36638.35482262
  0
LWPOLYLINE
  5
517
100
AcDbEntity
  8
Ech.1_5
 62
     5
  6
CONTINUOUS
370
    -3
100
AcDbPolyline
 90
        5
 70
     0
 43
0.0
 10
35075.07831527
 20
-36638.35482262
 10
35164.64268647
 20
-36638.35482262
 10
35164.64268647
 20
-36683.35482262
 10
35075.07831527
 20
-36683.35482262
 10
35075.07831527
 20
-36638.35482262
  0
LWPOLYLINE
  5
518
100
AcDbEntity
  8
Ech.1_5
 62
     9
100
AcDbPolyline
 90
       27
 70
     0
 43
0.0
 10
35027.95169815
 20
-36867.06795671
 10
35028.07831527
 20
-36866.7334831
 10
35028.07831527
 20
-36839.35001829
 10
35035.07831527
 20
-36839.35001829
 10
35035.07831527
 20
-36848.35001829
 10
35041.07831527
 20
-36848.35001829
 10
35041.07831527
 20
-36821.35001829
 10
35037.07831527
 20
-36817.35001829
 10
35041.07831527
 20
-36813.35001829
 10
35041.07831527
 20
-36749.35001829
 10
35037.07831527
 20
-36745.35001829
 10
35041.07831527
 20
-36741.35001829
 10
35041.07831527
 20
-36706.35001829
 10
35034.07831527
 20
-36706.35001829
 10
35034.07831527
 20
-36700.35001829
 10
35031.57831527
 20
-36695.35001829
 10
35029.07831527
 20
-36700.35001829
 10
35029.07831527
 20
-36731.27895048
 10
35028.69771294
 20
-36733.1923683
 10
35022.54278137
 20
-36739.8855522
 10
35021.07831527
 20
-36743.4210861
 10
35021.07831527
 20
-36862.50783041
 10
35022.03863767
 20
-36864.13769987
 10
35026.77475853
 20
-36867.10904959
 10
35027.18675989
 20
-36867.35001829
 10
35027.50057738
 20
-36867.35001829
 10
35027.95169815
 20
-36867.06795671
  0
LWPOLYLINE
  5
519
100
AcDbEntity
  8
Ech.1_5
 62
     7
  6
CONTINUOUS
370
    50
100
AcDbPolyline
 90
        5
 70
     0
 43
0.0
 10
35064.07831527
 20
-36645.70951284
 10
35064.07831527
 20
-36670.58265093
 10
35012.55189044
 20
-36690.58265093
 10
35012.55189044
 20
-36720.58265093
 10
35014.75490378
 20
-36715.32361963
  0
LWPOLYLINE
  5
51A
100
AcDbEntity
  8
Ech.1_5
 62
     9
  6
CONTINUOUS
370
    -3
100
AcDbPolyline
 90
        4
 70
     1
 43
0.0
 10
35041.07831527
 20
-36700.44856557
 10
35041.07831527
 20
-37032.57145626
 10
35066.07831527
 20
-37032.57145626
 10
35066.07831527
 20
-36700.44856557
  0
LWPOLYLINE
  5
51B
100
AcDbEntity
  8
Ech.1_5
 62
   190
  6
CONTINUOUS
370
    -3
100
AcDbPolyline
 90
        4
 70
     1
 43
0.0
 10
35091.97112592
 20
-36638.35542248
 10
35164.64268647
 20
-36638.35453891
 10
35164.64268647
 20
-36628.92187885
 10
35091.97112592
 20
-36628.92276242
  0
LWPOLYLINE
  5
51C
100
AcDbEntity
  8
Ech.1_5
 62
   190
  6
CONTINUOUS
370
    -3
100
AcDbPolyline
 90
        4
 70
     0
 43
0.0
 10
35164.64268647
 20
-36628.92187885
 10
35091.97112592
 20
-36638.35542248
 10
35091.97112592
 20
-36628.92276242
 10
35164.64268647
 20
-36638.35453891
  0
LWPOLYLINE
  5
51D
100
AcDbEntity
  8
Ech.1_5
 62
     9
  6
CONTINUOUS
100
AcDbPolyline
 90
       27
 70
     0
 43
0.0
 10
35027.95169815
 20
-37012.06795671
 10
35028.07831527
 20
-37011.7334831
 10
35028.07831527
 20
-36984.35001829
 10
35035.07831527
 20
-36984.35001829
 10
35035.07831527
 20
-36993.35001829
 10
35041.07831527
 20
-36993.35001829
 10
35041.07831527
 20
-36966.35001829
 10
35037.07831527
 20
-36962.35001829
 10
35041.07831527
 20
-36958.35001829
 10
35041.07831527
 20
-36894.35001829
 10
35037.07831527
 20
-36890.35001829
 10
35041.07831527
 20
-36886.35001829
 10
35041.07831527
 20
-36851.35001829
 10
35034.07831527
 20
-36851.35001829
 10
35034.07831527
 20
-36845.35001829
 10
35031.57831527
 20
-36840.35001829
 10
35029.07831527
 20
-36845.35001829
 10
35029.07831527
 20
-36876.27895048
 10
35028.69771294
 20
-36878.1923683
 10
35022.54278137
 20
-36884.8855522
 10
35021.07831527
 20
-36888.4210861
 10
35021.07831527
 20
-37007.50783041
 10
35022.03863767
 20
-37009.13769987
 10
35026.77475853
 20
-37012.10904959
 10
35027.18675989
 20
-37012.35001829
 10
35027.50057738
 20
-37012.35001829
 10
35027.95169815
 20
-37012.06795671
  0
LWPOLYLINE
  5
51E
100
AcDbEntity
  8
Ech.1_5
 62
     9
  6
CONTINUOUS
100
AcDbPolyline
 90
       11
 70
     0
 43
0.0
 10
35039.8568773
 20
-37032.57145626
 10
35041.07831527
 20
-37031.35001829
 10
35041.07831527
 20
-36996.35001829
 10
35034.07831527
 20
-36996.35001829
 10
35034.07831527
 20
-36990.35001829
 10
35031.57831527
 20
-36985.35001829
 10
35029.07831527
 20
-36990.35001829
 10
35029.07831527
 20
-37021.27895048
 10
35028.69771294
 20
-37023.1923683
 10
35022.54278137
 20
-37029.8855522
 10
35021.43024347
 20
-37032.57145626
  0
LWPOLYLINE
  5
51F
100
AcDbEntity
  8
Ech.1_5
 62
   150
  6
CADWORK_22
370
    35
100
AcDbPolyline
 90
        3
 70
     0
 43
0.0
 38
2500.0
 10
35064.57831527
 20
-37032.57145626
 10
35064.57831527
 20
-36638.35542248
 10
35131.16261337
 20
-36638.35542248
  0
LWPOLYLINE
  5
520
100
AcDbEntity
  8
Ech.1_5
 62
     1
  6
CADWORK_22
370
    35
100
AcDbPolyline
 90
        3
 70
     0
 43
0.0
 10
35166.57831527
 20
-37032.57145626
 10
35166.57831527
 20
-36638.04329257
 10
35131.16261337
 20
-36638.04329257
  0
LWPOLYLINE
  5
521
100
AcDbEntity
  8
Ech.1_5
 62
   190
  6
CONTINUOUS
370
    -3
100
AcDbPolyline
 90
       46
 70
     0
 43
0.0
 10
35150.07833861
 20
-37032.59016792
 42
1.14028181
 10
35146.15926451
 20
-37003.1061717
 10
35093.94137111
 20
-37017.14908079
 42
-1.30322619
 10
35093.90522298
 20
-36988.17135578
 10
35146.15798934
 20
-37002.08394339
 42
1.30322619
 10
35146.1218412
 20
-36973.10621838
 10
35093.9039478
 20
-36987.14912748
 42
-1.30322619
 10
35093.86779966
 20
-36958.17140246
 10
35146.12056602
 20
-36972.08399008
 42
1.30322619
 10
35146.08441788
 20
-36943.10626507
 10
35093.86652449
 20
-36957.14917416
 42
-1.30322619
 10
35093.83037635
 20
-36928.17144915
 10
35146.08314271
 20
-36942.08403676
 42
1.30322619
 10
35146.04699457
 20
-36913.10631175
 10
35093.82910117
 20
-36927.14922084
 42
-1.30322619
 10
35093.79295303
 20
-36898.17149583
 10
35146.0457194
 20
-36912.08408345
 42
1.30322619
 10
35146.00957126
 20
-36883.10635843
 10
35093.79167786
 20
-36897.14926753
 42
-1.30322619
 10
35093.75552972
 20
-36868.17154252
 10
35146.00829608
 20
-36882.08413013
 42
1.30322619
 10
35145.97214794
 20
-36853.10640512
 10
35093.75425455
 20
-36867.14931421
 42
-1.30322619
 10
35093.71810641
 20
-36838.1715892
 10
35145.97087277
 20
-36852.08417681
 42
1.30322619
 10
35145.93472463
 20
-36823.1064518
 10
35093.71683123
 20
-36837.14936089
 42
-1.30322619
 10
35093.68068309
 20
-36808.17163588
 10
35145.93344945
 20
-36822.0842235
 42
1.30322619
 10
35145.89730132
 20
-36793.10649848
 10
35093.67940792
 20
-36807.14940758
 42
-1.30322619
 10
35093.64325978
 20
-36778.17168257
 10
35145.89602614
 20
-36792.08427018
 42
1.30322619
 10
35145.859878
 20
-36763.10654517
 10
35093.6419846
 20
-36777.14945426
 42
-1.30322619
 10
35093.60583647
 20
-36748.17172925
 10
35145.85860283
 20
-36762.08431686
 42
1.30322619
 10
35145.82245469
 20
-36733.10659185
 10
35093.60456129
 20
-36747.14950094
 42
-1.30322619
 10
35093.56841315
 20
-36718.17177593
 10
35145.82117951
 20
-36732.08436355
 42
1.30322619
 10
35145.78503137
 20
-36703.10663854
 10
35093.56713798
 20
-36717.14954763
 42
-1.30322619
 10
35093.53098984
 20
-36688.17182262
 10
35145.7837562
 20
-36702.08441023
 42
0.58510577
 10
35164.03766632
 20
-36683.35557735
  0
LWPOLYLINE
  5
522
102
{ACAD_REACTORS
330
523
102
}
100
AcDbEntity
  8
Ech.1_5
 62
     9
  6
CONTINUOUS
370
    -3
100
AcDbPolyline
 90
       17
 70
     1
 43
0.0
 38
2500.0
 39
-2500.0
 10
35734.34344263
 20
-36758.92276242
 10
35373.64268647
 20
-36758.92276243
 10
35373.64274984
 20
-37032.57145626
 10
35279.87875549
 20
-37032.57145626
 10
35263.39325233
 20
-37050.54880467
 10
35277.50319235
 20
-37014.59310466
 10
35261.01683827
 20
-37032.57145626
 10
35173.64268647
 20
-37032.57145626
 10
35173.64268647
 20
-36628.92276242
 10
35373.64268647
 20
-36628.92276242
 10
35373.64268647
 20
-36628.92276242
 10
35672.38911075
 20
-36628.9208574
 10
35734.34282106
 20
-36628.92276242
 10
35734.34331662
 20
-36684.49137835
 10
35752.32166823
 20
-36700.97773243
 10
35716.36596822
 20
-36686.86779241
 10
35734.34331662
 20
-36703.35329557
  0
HATCH
  5
523
100
AcDbEntity
  8
Ech.1_5
 62
     9
  6
CONTINUOUS
100
AcDbHatch
 10
0.0
 20
0.0
 30
0.0
210
0.0
220
0.0
230
1.0
  2
AR-CONC
 70
     0
 71
     1
 91
        1
 92
        7
 72
     0
 73
     1
 93
       16
 10
35734.34344263
 20
-36758.92276242
 10
35373.64268647
 20
-36758.92276243
 10
35373.64274984
 20
-37032.57145626
 10
35279.87875549
 20
-37032.57145626
 10
35263.39325233
 20
-37050.54880467
 10
35277.50319235
 20
-37014.59310466
 10
35261.01683827
 20
-37032.57145626
 10
35173.64268647
 20
-37032.57145626
 10
35173.64268647
 20
-36628.92276242
 10
35373.64268647
 20
-36628.92276242
 10
35672.38911075
 20
-36628.9208574
 10
35734.34282106
 20
-36628.92276242
 10
35734.34331662
 20
-36684.49137835
 10
35752.32166823
 20
-36700.97773243
 10
35716.36596822
 20
-36686.86779241
 10
35734.34331662
 20
-36703.35329557
 97
        1
330
522
 75
     0
 76
     2
 52
0.0
 41
0.11811097
 77
     0
 78
    13
 53
50.0
 43
0.0
 44
0.0
 45
-18.84283637
 46
1.64853443
 79
     2
 49
1.97029307
 49
-21.67322338
 53
355.0
 43
0.0
 44
0.0
 45
-3.64507756
 46
19.76051824
 79
     2
 49
1.57623377
 49
-17.3385787
 53
100.45140076
 43
1.57023568
 44
-0.13737749
 45
-15.19777228
 46
-18.11197244
 79
     2
 49
1.67449124
 49
-18.41940522
 53
46.18420029
 43
0.0
 44
5.25411576
 45
-28.03703353
 46
4.34827878
 79
     2
 49
2.95543872
 49
-32.50983238
 53
96.63559723
 43
2.33641885
 44
4.89175692
 45
-24.55412615
 46
-25.59063404
 79
     2
 49
2.51173697
 49
-27.62910426
 53
351.1842041
 43
0.0
 44
5.25411576
 45
24.55410288
 46
25.59065715
 79
     2
 49
2.36435249
 49
-26.00786805
 53
21.0
 43
2.62705699
 44
3.94058615
 45
-15.68109068
 46
10.57702905
 79
     2
 49
1.97029307
 49
-21.67322338
 53
326.0
 43
2.62705699
 44
3.94058615
 45
6.39203268
 46
19.05010734
 79
     2
 49
1.57623377
 49
-17.3385787
 53
71.45140076
 43
3.93381357
 44
3.05916555
 45
-22.07312962
 46
-8.47306182
 79
     2
 49
1.67449124
 49
-18.41940522
 53
37.5
 43
0.0
 44
0.0
 45
0.31944534
 46
8.74531245
 79
     6
 49
0.01875
 49
-17.12841332
 49
0.01875
 49
-17.60128498
 49
0.01875
 49
-17.40425348
 53
7.5
 43
0.0
 44
0.0
 45
6.91098818
 46
10.3614222
 79
     6
 49
0.01875
 49
-10.03535807
 49
0.01875
 49
-16.7343539
 49
0.01875
 49
-6.6333206
 53
-32.5
 43
-5.85833833
 44
0.0
 45
14.02382061
 46
-0.59253003
 79
     6
 49
0.01875
 49
-6.56764314
 49
0.01875
 49
-20.49104869
 49
0.01875
 49
-27.19004452
 53
-42.5
 43
-8.48539531
 44
0.0
 45
15.32063571
 46
2.62981542
 79
     6
 49
0.01875
 49
-8.53793621
 49
0.01875
 49
-13.60815793
 49
0.01875
 49
-19.30887222
 47
0.775229
 98
        1
 10
0.0
 20
0.0
  0
LWPOLYLINE
  5
524
100
AcDbEntity
  8
Ech.1_5
 62
     9
  6
CONTINUOUS
370
    -3
100
AcDbPolyline
 90
        6
 70
     0
 43
0.0
 10
34983.64034851
 20
-37032.57145626
 10
35261.01683827
 20
-37032.57145626
 10
35277.50234142
 20
-37014.59410794
 10
35263.39240141
 20
-37050.54980786
 10
35279.87875549
 20
-37032.57145626
 10
35394.63493885
 20
-37032.57145626
  0
LWPOLYLINE
  5
525
100
AcDbEntity
  8
Ech.1_5
 62
   150
  6
CADWORK_22
370
    35
100
AcDbPolyline
 90
        3
 70
     0
 43
0.0
 38
2500.0
 10
35064.64268647
 20
-36044.72233257
 10
35064.64268647
 20
-36628.92276242
 10
35107.30674101
 20
-36628.92276242
  0
LWPOLYLINE
  5
526
100
AcDbEntity
  8
Ech.1_5
 62
   190
100
AcDbPolyline
 90
        4
 70
     1
 43
0.0
 10
35761.05817886
 20
-37003.33586046
 10
35895.48695785
 20
-37003.33586046
 10
35895.48695785
 20
-37060.05881927
 10
35761.05817886
 20
-37060.05881927
  0
HATCH
  5
527
100
AcDbEntity
  8
Ech.1_5
 62
   190
100
AcDbHatch
 10
0.0
 20
0.0
 30
0.0
210
0.0
220
0.0
230
1.0
  2
SOLID
 70
     1
 71
     0
 91
        1
 92
        7
 72
     0
 73
     1
 93
        4
 10
35779.33822465
 20
-37036.99267159
 10
35829.33822465
 20
-37036.99267159
 10
35829.33822465
 20
-37029.57753405
 10
35779.33822465
 20
-37029.57753405
 97
        0
 75
     0
 76
     2
 47
0.775229
 98
        1
 10
0.0
 20
0.0
  0
LWPOLYLINE
  5
528
100
AcDbEntity
  8
Ech.1_5
 62
   190
100
AcDbPolyline
 90
        5
 70
     0
 43
0.0
 10
35779.33822465
 20
-37036.99267159
 10
35829.33822465
 20
-37036.99267159
 10
35829.33822465
 20
-37029.57753405
 10
35779.33822465
 20
-37029.57753405
 10
35779.33822465
 20
-37036.99267159
  0
LWPOLYLINE
  5
529
100
AcDbEntity
  8
Ech.1_5
 62
   190
100
AcDbPolyline
 90
        5
 70
     0
 43
0.0
 10
35829.33822465
 20
-37036.99267159
 10
35879.33822465
 20
-37036.99267159
 10
35879.33822465
 20
-37029.57753405
 10
35829.33822465
 20
-37029.57753405
 10
35829.33822465
 20
-37036.99267159
  0
TEXT
  5
52A
100
AcDbEntity
  8
Ech.1_5
 62
   190
100
AcDbText
 10
35790.63251728
 20
-37019.99153097
 30
0.0
 40
8.00000012
  1
Echelle en mm
  7
ARIAL
 50
0.0
 41
1.0
 51
0.0
100
AcDbText
  0
TEXT
  5
52B
100
AcDbEntity
  8
Ech.1_5
 62
   190
100
AcDbText
 10
35776.65193253
 20
-37048.2013665
 30
0.0
 40
8.00000012
  1
0
  7
ARIAL
 50
0.0
 41
1.0
 51
0.0
100
AcDbText
  0
TEXT
  5
52C
100
AcDbEntity
  8
Ech.1_5
 62
   190
100
AcDbText
 10
35863.24899042
 20
-37048.2013665
 30
0.0
 40
8.00000012
  1
100
  7
ARIAL
 50
0.0
 41
1.0
 51
0.0
100
AcDbText
  0
TEXT
  5
52D
100
AcDbEntity
  8
Ech.1_5
 62
   190
100
AcDbText
 10
35824.50855885
 20
-37048.2013665
 30
0.0
 40
8.00000012
  1
50
  7
ARIAL
 50
0.0
 41
1.0
 51
0.0
100
AcDbText
  0
INSERT
  5
52E
100
AcDbEntity
  8
Ech.1_5
 62
     0
370
    -3
100
AcDbBlockReference
  2
*D4
 10
0.0
 20
0.0
 30
0.0
  0
ENDSEC
  0
SECTION
  2
OBJECTS
  0
DICTIONARY
  5
1
100
AcDbDictionary
  3
ACAD_GROUP
350
2
  3
ACAD_MLINESTYLE
350
3
  0
DICTIONARY
  5
2
102
{CDWK_REACTORS
330
1
102
}
100
AcDbDictionary
  0
DICTIONARY
  5
3
102
{CDWK_REACTORS
330
1
102
}
100
AcDbDictionary
  3
STANDARD
350
4
  0
MLINESTYLE
  5
4
102
{CDWK_REACTORS
330
3
102
}
100
AcDbMlineStyle
  2
STANDARD
 70
     0
  3

 62
     0
 51
90.0
 52
90.0
 71
     2
 49
0.5
 62
   256
  6
BYLAYER
 49
-0.5
 62
   256
  6
BYLAYER
  0
ENDSEC
  0
EOF
