  0
SECTION
  2
HEADER
  9
$ACADVER
  1
AC1014
  9
$DWGCODEPAGE
  3
ANSI_1252
  9
$INSBASE
 10
0.0
 20
0.0
 30
0.0
  9
$EXTMIN
 10
8298.84597889
 20
-41381.09367571
  9
$EXTMAX
 10
35921.52606191
 20
-5997.09001988
  9
$LIMMIN
 10
8298.84597889
 20
-41381.09367571
  9
$LIMMAX
 10
35921.52606191
 20
-5997.09001988
  9
$ORTHOMODE
 70
     0
  9
$REGENMODE
 70
     1
  9
$FILLMODE
 70
     1
  9
$QTEXTMODE
 70
     0
  9
$MIRRTEXT
 70
     1
  9
$DRAGMODE
 70
     2
  9
$LTSCALE
 40
5.0
  9
$OSMODE
 70
     0
  9
$ATTMODE
 70
     1
  9
$TEXTSIZE
 40
3.5
  9
$TRACEWID
 40
1.0
  9
$TEXTSTYLE
  7
STANDARD
  9
$CLAYER
  8
0
  9
$CELTYPE
  6
BYLAYER
  9
$CECOLOR
 62
   256
  9
$DIMSCALE
 40
1.0
  9
$DIMASZ
 40
2.0
  9
$DIMEXO
 40
5.0
  9
$DIMDLI
 40
10.0
  9
$DIMRND
 40
0.0
  9
$DIMDLE
 40
2.0
  9
$DIMEXE
 40
2.0
  9
$DIMTP
 40
0.0
  9
$DIMTM
 40
0.0
  9
$DIMTXT
 40
2.5
  9
$DIMCEN
 40
1.5
  9
$DIMTSZ
 40
0.0
  9
$DIMTOL
 70
     0
  9
$DIMLIM
 70
     0
  9
$DIMTIH
 70
     1
  9
$DIMTOH
 70
     0
  9
$DIMSE1
 70
     0
  9
$DIMSE2
 70
     0
  9
$DIMTAD
 70
     1
  9
$DIMZIN
 70
     8
  9
$DIMBLK
  1

  9
$DIMASO
 70
     1
  9
$DIMSHO
 70
     1
  9
$DIMPOST
  1

  9
$DIMAPOST
  1

  9
$DIMALT
 70
     0
  9
$DIMALTD
 70
     2
  9
$DIMALTF
 40
25.4
  9
$DIMLFAC
 40
1.0
  9
$DIMTOFL
 70
     0
  9
$DIMTVP
 40
0.0
  9
$DIMTIX
 70
     0
  9
$DIMSOXD
 70
     0
  9
$DIMSAH
 70
     0
  9
$DIMBLK1
  1

  9
$DIMBLK2
  1

  9
$DIMSTYLE
  2
*UNNAMED
  9
$DIMCLRD
 70
   190
  9
$DIMCLRE
 70
   190
  9
$DIMCLRT
 70
   190
  9
$DIMTFAC
 40
1.0
  9
$DIMGAP
 40
0.09
  9
$DIMUNIT
 70
     2
  9
$LUNITS
 70
     2
  9
$LUPREC
 70
     6
  9
$AXISMODE
 70
     0
  9
$AXISUNIT
 10
0.0
 20
0.0
  9
$SKETCHINC
 40
0.1
  9
$FILLETRAD
 40
0.0
  9
$AUNITS
 70
     0
  9
$AUPREC
 70
     0
  9
$MENU
  1
ACAD
  9
$ELEVATION
 40
0.0
  9
$PELEVATION
 40
0.0
  9
$THICKNESS
 40
0.0
  9
$LIMCHECK
 70
     0
  9
$BLIPMODE
 70
     1
  9
$CHAMFERA
 40
0.0
  9
$CHAMFERB
 40
0.0
  9
$SKPOLY
 70
     1
  9
$TDCREATE
 40
2457811.0000000000
  9
$TDUPDATE
 40
2457811.0000000000
  9
$TDINDWG
 40
0.0
  9
$TDUSRTIMER
 40
0.0
  9
$USRTIMER
 70
     1
  9
$ANGBASE
 50
0.0
  9
$ANGDIR
 70
     0
  9
$PDMODE
 70
     0
  9
$PDSIZE
 40
0.0
  9
$PLINEWID
 40
0.0
  9
$COORDS
 70
     2
  9
$SPLFRAME
 70
     0
  9
$SPLINETYPE
 70
     6
  9
$SPLINESEGS
 70
     8
  9
$ATTDIA
 70
     1
  9
$ATTREQ
 70
     1
  9
$HANDLING
 70
     1
  9
$HANDSEED
  5
     52D
  9
$SURFTAB1
 70
     6
  9
$SURFTAB2
 70
     6
  9
$SURFTYPE
 70
     6
  9
$SURFU
 70
     6
  9
$SURFV
 70
     6
  9
$UCSNAME
  2

  9
$UCSORG
 10
0.0
 20
0.0
 30
0.0
  9
$UCSXDIR
 10
1.0
 20
0.0
 30
0.0
  9
$UCSYDIR
 10
0.0
 20
1.0
 30
0.0
  9
$PUCSNAME
  2

  9
$PUCSORG
 10
0.0
 20
0.0
 30
0.0
  9
$PUCSXDIR
 10
1.0
 20
0.0
 30
0.0
  9
$PUCSYDIR
 10
0.0
 20
1.0
 30
0.0
  9
$USERI1
 70
     0
  9
$USERI2
 70
     0
  9
$USERI3
 70
     0
  9
$USERI4
 70
     0
  9
$USERI5
 70
     0
  9
$USERR1
 40
0.0
  9
$USERR2
 40
0.0
  9
$USERR3
 40
0.0
  9
$USERR4
 40
0.0
  9
$USERR5
 40
0.0
  9
$WORLDVIEW
 70
     1
  9
$SHADEDGE
 70
     3
  9
$SHADEDIF
 70
    70
  9
$TILEMODE
 70
     1
  9
$MAXACTVP
 70
    16
  9
$PINSBASE
 10
0.0
 20
0.0
 30
0.0
  9
$PLIMCHECK
 70
     0
  9
$PEXTMIN
 10
1.0000000000000E+20
 20
1.0000000000000E+20
 30
1.0000000000000E+20
  9
$PEXTMAX
 10
-1.0000000000000E+20
 20
-1.0000000000000E+20
 30
-1.0000000000000E+20
  9
$PLIMMIN
 10
0.0
 20
0.0
  9
$UNITMODE
 70
     0
  9
$VISRETAIN
 70
     0
  9
$MEASUREMENT
 70
     1
  0
ENDSEC
  0
SECTION
  2
TABLES
  0
TABLE
  2
VPORT
  5
36E
100
AcDbSymbolTable
 70
     1
  0
ENDTAB
  0
TABLE
  2
STYLE
  5
36F
100
AcDbSymbolTable
 70
     3
  0
STYLE
  5
370
100
AcDbSymbolTableRecord
100
AcDbTextStyleTableRecord
  2
STANDARD
 70
     0
 40
0.0
 41
1.0
 50
0.0
 71
     0
 42
3.5
  3
MONOTXT
  4

  0
STYLE
  5
371
100
AcDbSymbolTableRecord
100
AcDbTextStyleTableRecord
  2
SYMAP
 70
     0
 40
0.0
 41
1.0
 50
0.0
 71
     0
 42
3.5
  3
SYMAP
  4

  0
STYLE
  5
372
100
AcDbSymbolTableRecord
100
AcDbTextStyleTableRecord
  2
CADWORK1
 70
     0
 40
0.0
 41
1.0
 50
0.0
 71
     0
 42
3.5
  3
MONOTXT
  4

  0
STYLE
  5
373
100
AcDbSymbolTableRecord
100
AcDbTextStyleTableRecord
  2
MONOTXT
 70
     0
 40
0.0
 41
1.0
 50
0.0
 71
     0
 42
3.5
  3
MONOTXT
  4

  0
STYLE
  5
374
100
AcDbSymbolTableRecord
100
AcDbTextStyleTableRecord
  2
ARIAL
 70
     0
 40
0.0
 41
1.0
 50
0.0
 71
     0
 42
3.5
  3

  4

1001
ACAD
1000
Arial
1071
        0
  0
ENDTAB
  0
TABLE
  2
LTYPE
  5
375
100
AcDbSymbolTable
 70
    13
  0
LTYPE
  5
376
100
AcDbSymbolTableRecord
100
AcDbLinetypeTableRecord
  2
BYBLOCK
 70
    64
  3

 72
    65
 73
     0
 40
0.0
  0
LTYPE
  5
377
100
AcDbSymbolTableRecord
100
AcDbLinetypeTableRecord
  2
BYLAYER
 70
    64
  3

 72
    65
 73
     0
 40
0.0
  0
LTYPE
  5
378
100
AcDbSymbolTableRecord
100
AcDbLinetypeTableRecord
  2
CONTINUOUS
 70
    64
  3
Solid line
 72
    65
 73
     0
 40
0.0
  0
LTYPE
  5
379
100
AcDbSymbolTableRecord
100
AcDbLinetypeTableRecord
  2
DOT2
 70
    64
  3
...............................................
 72
    65
 73
     2
 40
1.25
 49
0.0
 74
     0
 49
-1.25
 74
     0
  0
LTYPE
  5
37A
100
AcDbSymbolTableRecord
100
AcDbLinetypeTableRecord
  2
DASHDOT
 70
    64
  3
 __ . __ . __ . __ . __ . __ . __ . __ . __ . __
 72
    65
 73
     4
 40
10.0
 49
5.0
 74
     0
 49
-2.5
 74
     0
 49
0.0
 74
     0
 49
-2.5
 74
     0
  0
LTYPE
  5
37B
100
AcDbSymbolTableRecord
100
AcDbLinetypeTableRecord
  2
CENTER
 70
    64
  3
 ____ _ ____ _ ____ _ ____ _ ____ _ ____ _ ____
 72
    65
 73
     4
 40
20.0
 49
12.5
 74
     0
 49
-2.5
 74
     0
 49
2.5
 74
     0
 49
-2.5
 74
     0
  0
LTYPE
  5
37C
100
AcDbSymbolTableRecord
100
AcDbLinetypeTableRecord
  2
CADWORK_22
 70
    64
  3
22 =======================================
 72
    65
 73
     0
 40
0.0
  0
LTYPE
  5
37D
100
AcDbSymbolTableRecord
100
AcDbLinetypeTableRecord
  2
DAL
 70
    64
  3
Solid line (for MAPS)
 72
    65
 73
     0
 40
0.0
  0
LTYPE
  5
37E
100
AcDbSymbolTableRecord
100
AcDbLinetypeTableRecord
  2
MUR
 70
    64
  3
Solid line (for MAPS)
 72
    65
 73
     0
 40
0.0
  0
LTYPE
  5
37F
100
AcDbSymbolTableRecord
100
AcDbLinetypeTableRecord
  2
SOM
 70
    64
  3
Solid line (for MAPS)
 72
    65
 73
     0
 40
0.0
  0
LTYPE
  5
380
100
AcDbSymbolTableRecord
100
AcDbLinetypeTableRecord
  2
COL
 70
    64
  3
Solid line (for MAPS)
 72
    65
 73
     0
 40
0.0
  0
LTYPE
  5
381
100
AcDbSymbolTableRecord
100
AcDbLinetypeTableRecord
  2
LGN
 70
    64
  3
Solid line (for MAPS)
 72
    65
 73
     0
 40
0.0
  0
LTYPE
  5
382
100
AcDbSymbolTableRecord
100
AcDbLinetypeTableRecord
  2
PNT
 70
    64
  3
Solid line (for MAPS)
 72
    65
 73
     0
 40
0.0
  0
ENDTAB
  0
TABLE
  2
LAYER
  5
383
100
AcDbSymbolTable
 70
    32
  0
LAYER
  5
384
100
AcDbSymbolTableRecord
100
AcDbLayerTableRecord
  2
Standard
 70
     0
 62
     7
  6
CONTINUOUS
370
    -3
  0
LAYER
  5
385
100
AcDbSymbolTableRecord
100
AcDbLayerTableRecord
  2
Ech.1_1
 70
     0
 62
     7
  6
CONTINUOUS
370
    -3
  0
LAYER
  5
386
100
AcDbSymbolTableRecord
100
AcDbLayerTableRecord
  2
Ech.1_2
 70
     0
 62
     7
  6
CONTINUOUS
370
    -3
  0
LAYER
  5
387
100
AcDbSymbolTableRecord
100
AcDbLayerTableRecord
  2
Ech.1_5
 70
     0
 62
     7
  6
CONTINUOUS
370
    -3
  0
LAYER
  5
388
100
AcDbSymbolTableRecord
100
AcDbLayerTableRecord
  2
Ech.1_10
 70
     0
 62
     7
  6
CONTINUOUS
370
    -3
  0
LAYER
  5
389
100
AcDbSymbolTableRecord
100
AcDbLayerTableRecord
  2
Ech.1_20
 70
     0
 62
     7
  6
CONTINUOUS
370
    -3
  0
LAYER
  5
38A
100
AcDbSymbolTableRecord
100
AcDbLayerTableRecord
  2
Ech.1_25
 70
     0
 62
     7
  6
CONTINUOUS
370
    -3
  0
LAYER
  5
38B
100
AcDbSymbolTableRecord
100
AcDbLayerTableRecord
  2
Ech.1_33
 70
     0
 62
     7
  6
CONTINUOUS
370
    -3
  0
LAYER
  5
38C
100
AcDbSymbolTableRecord
100
AcDbLayerTableRecord
  2
Ech.1_50
 70
     0
 62
     7
  6
CONTINUOUS
370
    -3
  0
LAYER
  5
38D
100
AcDbSymbolTableRecord
100
AcDbLayerTableRecord
  2
Ech.1_75
 70
     0
 62
     7
  6
CONTINUOUS
370
    -3
  0
LAYER
  5
38E
100
AcDbSymbolTableRecord
100
AcDbLayerTableRecord
  2
Ech.1_100
 70
     0
 62
     7
  6
CONTINUOUS
370
    -3
  0
LAYER
  5
38F
100
AcDbSymbolTableRecord
100
AcDbLayerTableRecord
  2
Ech.1_200
 70
     0
 62
     7
  6
CONTINUOUS
370
    -3
  0
LAYER
  5
390
100
AcDbSymbolTableRecord
100
AcDbLayerTableRecord
  2
Ech.1_500
 70
     0
 62
     7
  6
CONTINUOUS
370
    -3
  0
LAYER
  5
391
100
AcDbSymbolTableRecord
100
AcDbLayerTableRecord
  2
Ech.1_1000
 70
     0
 62
     7
  6
CONTINUOUS
370
    -3
  0
LAYER
  5
392
100
AcDbSymbolTableRecord
100
AcDbLayerTableRecord
  2
Cadres traceur
 70
     0
 62
     7
  6
CONTINUOUS
370
    18
  0
LAYER
  5
393
100
AcDbSymbolTableRecord
100
AcDbLayerTableRecord
  2
Cadres laser
 70
     0
 62
     7
  6
CONTINUOUS
370
    18
  0
LAYER
  5
394
100
AcDbSymbolTableRecord
100
AcDbLayerTableRecord
  2
Légende d_aide
 70
     0
 62
     7
  6
CONTINUOUS
370
    18
  0
LAYER
  5
395
100
AcDbSymbolTableRecord
100
AcDbLayerTableRecord
  2
hachures ok
 70
     0
 62
     7
  6
CONTINUOUS
370
    18
  0
LAYER
  5
396
100
AcDbSymbolTableRecord
100
AcDbLayerTableRecord
  2
ossature bois
 70
     0
 62
     7
  6
CONTINUOUS
370
    18
  0
LAYER
  5
397
100
AcDbSymbolTableRecord
100
AcDbLayerTableRecord
  2
VR
 70
     0
 62
     7
  6
CONTINUOUS
370
    25
  0
LAYER
  5
398
100
AcDbSymbolTableRecord
100
AcDbLayerTableRecord
  2
Calque1
 70
     0
 62
     7
  6
CONTINUOUS
370
     9
  0
LAYER
  5
399
100
AcDbSymbolTableRecord
100
AcDbLayerTableRecord
  2
0
 70
     0
 62
     7
  6
CONTINUOUS
370
    -3
  0
LAYER
  5
39A
100
AcDbSymbolTableRecord
100
AcDbLayerTableRecord
  2
menuiserie
 70
     0
 62
     7
  6
CONTINUOUS
370
    -3
  0
LAYER
  5
39B
100
AcDbSymbolTableRecord
100
AcDbLayerTableRecord
  2
cotation
 70
     0
 62
   250
  6
CONTINUOUS
370
     9
  0
LAYER
  5
39C
100
AcDbSymbolTableRecord
100
AcDbLayerTableRecord
  2
Defpoints
 70
     0
 62
    10
  6
CONTINUOUS
370
    -3
  0
LAYER
  5
39D
100
AcDbSymbolTableRecord
100
AcDbLayerTableRecord
  2
HACHURE
 70
     0
 62
   254
  6
CONTINUOUS
370
    25
  0
LAYER
  5
39E
100
AcDbSymbolTableRecord
100
AcDbLayerTableRecord
  2
mat1
 70
     0
 62
     7
  6
CONTINUOUS
370
    30
  0
LAYER
  5
39F
100
AcDbSymbolTableRecord
100
AcDbLayerTableRecord
  2
mat2
 70
     0
 62
     7
  6
CONTINUOUS
370
     5
  0
LAYER
  5
3A0
100
AcDbSymbolTableRecord
100
AcDbLayerTableRecord
  2
hach
 70
     0
 62
     8
  6
CONTINUOUS
370
     5
  0
LAYER
  5
3A1
100
AcDbSymbolTableRecord
100
AcDbLayerTableRecord
  2
menuiseries
 70
     0
 62
     7
  6
CONTINUOUS
370
     9
  0
LAYER
  5
3A2
100
AcDbSymbolTableRecord
100
AcDbLayerTableRecord
  2
BétonMétal
 70
     0
 62
     7
  6
CONTINUOUS
370
    80
  0
LAYER
  5
3A3
100
AcDbSymbolTableRecord
100
AcDbLayerTableRecord
  2
bois
 70
     0
 62
     7
  6
CONTINUOUS
370
    60
  0
ENDTAB
  0
TABLE
  2
VIEW
  5
3A4
100
AcDbSymbolTable
 70
     0
  0
ENDTAB
  0
TABLE
  2
UCS
  5
3A5
100
AcDbSymbolTable
 70
     0
  0
ENDTAB
  0
TABLE
  2
APPID
  5
3A6
100
AcDbSymbolTable
 70
     1
  0
APPID
  5
3A7
100
AcDbSymbolTableRecord
100
AcDbRegAppTableRecord
  2
ACAD
 70
     0
  0
ENDTAB
  0
TABLE
  2
DIMSTYLE
  5
3A8
100
AcDbSymbolTable
 70
     0
  0
ENDTAB
  0
TABLE
  2
BLOCK_RECORD
  5
3A9
100
AcDbSymbolTable
 70
     0
  0
BLOCK_RECORD
  5
3AA
100
AcDbSymbolTableRecord
100
AcDbBlockTableRecord
  2
*MODEL_SPACE
  0
BLOCK_RECORD
  5
3AB
100
AcDbSymbolTableRecord
100
AcDbBlockTableRecord
  2
*PAPER_SPACE
  0
BLOCK_RECORD
  5
3AC
100
AcDbSymbolTableRecord
100
AcDbBlockTableRecord
  2
CDWK_EXTR_0
  0
BLOCK_RECORD
  5
3AD
100
AcDbSymbolTableRecord
100
AcDbBlockTableRecord
  2
CDWK_EXTR_1D
  0
BLOCK_RECORD
  5
3AE
100
AcDbSymbolTableRecord
100
AcDbBlockTableRecord
  2
CDWK_EXTR_1G
  0
BLOCK_RECORD
  5
3AF
100
AcDbSymbolTableRecord
100
AcDbBlockTableRecord
  2
CDWK_EXTR_2
  0
BLOCK_RECORD
  5
3B0
100
AcDbSymbolTableRecord
100
AcDbBlockTableRecord
  2
CDWK_EXTR_3
  0
BLOCK_RECORD
  5
3B1
100
AcDbSymbolTableRecord
100
AcDbBlockTableRecord
  2
CDWK_EXTR_4
  0
BLOCK_RECORD
  5
3B2
100
AcDbSymbolTableRecord
100
AcDbBlockTableRecord
  2
CDWK_PTTYP0
  0
BLOCK_RECORD
  5
3B3
100
AcDbSymbolTableRecord
100
AcDbBlockTableRecord
  2
CDWK_PTTYP1
  0
BLOCK_RECORD
  5
3B4
100
AcDbSymbolTableRecord
100
AcDbBlockTableRecord
  2
CDWK_PTTYP2
  0
BLOCK_RECORD
  5
3B5
100
AcDbSymbolTableRecord
100
AcDbBlockTableRecord
  2
CDWK_PTTYP3
  0
BLOCK_RECORD
  5
3B6
100
AcDbSymbolTableRecord
100
AcDbBlockTableRecord
  2
CDWK_PTTYP4
  0
BLOCK_RECORD
  5
3B7
100
AcDbSymbolTableRecord
100
AcDbBlockTableRecord
  2
CDWK_PTTYP5
  0
BLOCK_RECORD
  5
3B8
100
AcDbSymbolTableRecord
100
AcDbBlockTableRecord
  2
CDWK_PTTYP6
  0
BLOCK_RECORD
  5
3B9
100
AcDbSymbolTableRecord
100
AcDbBlockTableRecord
  2
CDWK_PTTYP7
  0
BLOCK_RECORD
  5
3BA
100
AcDbSymbolTableRecord
100
AcDbBlockTableRecord
  2
CDWK_PTTYP8
  0
BLOCK_RECORD
  5
3BB
100
AcDbSymbolTableRecord
100
AcDbBlockTableRecord
  2
CDWK_PTTYP9
  0
BLOCK_RECORD
  5
3BC
100
AcDbSymbolTableRecord
100
AcDbBlockTableRecord
  2
CDWK_PTTYP10
  0
BLOCK_RECORD
  5
3BD
100
AcDbSymbolTableRecord
100
AcDbBlockTableRecord
  2
CDWK_PTTYP11
  0
BLOCK_RECORD
  5
3BE
100
AcDbSymbolTableRecord
100
AcDbBlockTableRecord
  2
CDWK_PTTYP12
  0
BLOCK_RECORD
  5
3BF
100
AcDbSymbolTableRecord
100
AcDbBlockTableRecord
  2
CDWK_PTTYP13
  0
BLOCK_RECORD
  5
3C0
100
AcDbSymbolTableRecord
100
AcDbBlockTableRecord
  2
CDWK_PTTYP14
  0
BLOCK_RECORD
  5
3C1
100
AcDbSymbolTableRecord
100
AcDbBlockTableRecord
  2
CDWK_PTTYP15
  0
BLOCK_RECORD
  5
3C2
100
AcDbSymbolTableRecord
100
AcDbBlockTableRecord
  2
CDWK_PTTYP16
  0
BLOCK_RECORD
  5
3C3
100
AcDbSymbolTableRecord
100
AcDbBlockTableRecord
  2
CDWK_PTTYP17
  0
BLOCK_RECORD
  5
3C4
100
AcDbSymbolTableRecord
100
AcDbBlockTableRecord
  2
CDWK_PTTYP18
  0
BLOCK_RECORD
  5
3C5
100
AcDbSymbolTableRecord
100
AcDbBlockTableRecord
  2
CDWK_PTTYP19
  0
BLOCK_RECORD
  5
3C6
100
AcDbSymbolTableRecord
100
AcDbBlockTableRecord
  2
CDWK_PTTYP20
  0
BLOCK_RECORD
  5
3C7
100
AcDbSymbolTableRecord
100
AcDbBlockTableRecord
  2
CDWK_PTTYP21
  0
BLOCK_RECORD
  5
3C8
100
AcDbSymbolTableRecord
100
AcDbBlockTableRecord
  2
CDWK_PTTYP22
  0
BLOCK_RECORD
  5
3C9
100
AcDbSymbolTableRecord
100
AcDbBlockTableRecord
  2
CDWK_PTTYP23
  0
BLOCK_RECORD
  5
3CA
100
AcDbSymbolTableRecord
100
AcDbBlockTableRecord
  2
CDWK_PTTYP24
  0
BLOCK_RECORD
  5
3CB
100
AcDbSymbolTableRecord
100
AcDbBlockTableRecord
  2
CDWK_PTTYP25
  0
BLOCK_RECORD
  5
3CC
100
AcDbSymbolTableRecord
100
AcDbBlockTableRecord
  2
CDWK_PTTYP26
  0
BLOCK_RECORD
  5
3CD
100
AcDbSymbolTableRecord
100
AcDbBlockTableRecord
  2
CDWK_PTTYP27
  0
BLOCK_RECORD
  5
3CE
100
AcDbSymbolTableRecord
100
AcDbBlockTableRecord
  2
CDWK_PTTYP28
  0
BLOCK_RECORD
  5
3CF
100
AcDbSymbolTableRecord
100
AcDbBlockTableRecord
  2
CDWK_PTTYP29
  0
BLOCK_RECORD
  5
3D0
100
AcDbSymbolTableRecord
100
AcDbBlockTableRecord
  2
CDWK_PTTYP30
  0
BLOCK_RECORD
  5
3D1
100
AcDbSymbolTableRecord
100
AcDbBlockTableRecord
  2
CDWK_PTTYP31
  0
BLOCK_RECORD
  5
3D2
100
AcDbSymbolTableRecord
100
AcDbBlockTableRecord
  2
CDWK_PTTYP32
  0
BLOCK_RECORD
  5
3D3
100
AcDbSymbolTableRecord
100
AcDbBlockTableRecord
  2
CDWK_PTTYP33
  0
BLOCK_RECORD
  5
3D4
100
AcDbSymbolTableRecord
100
AcDbBlockTableRecord
  2
CDWK_PTTYP34
  0
BLOCK_RECORD
  5
3D5
100
AcDbSymbolTableRecord
100
AcDbBlockTableRecord
  2
CDWK_PTTYP35
  0
BLOCK_RECORD
  5
3D6
100
AcDbSymbolTableRecord
100
AcDbBlockTableRecord
  2
CDWK_PTTYP36
  0
BLOCK_RECORD
  5
3D7
100
AcDbSymbolTableRecord
100
AcDbBlockTableRecord
  2
CDWK_PTTYP37
  0
BLOCK_RECORD
  5
3D8
100
AcDbSymbolTableRecord
100
AcDbBlockTableRecord
  2
CDWK_PTTYP38
  0
BLOCK_RECORD
  5
3D9
100
AcDbSymbolTableRecord
100
AcDbBlockTableRecord
  2
*X1
  0
BLOCK_RECORD
  5
3DA
100
AcDbSymbolTableRecord
100
AcDbBlockTableRecord
  2
*X2
  0
BLOCK_RECORD
  5
3DB
100
AcDbSymbolTableRecord
100
AcDbBlockTableRecord
  2
*D1
  0
BLOCK_RECORD
  5
3DC
100
AcDbSymbolTableRecord
100
AcDbBlockTableRecord
  2
*D17
  0
BLOCK_RECORD
  5
3DD
100
AcDbSymbolTableRecord
100
AcDbBlockTableRecord
  2
*D18
  0
ENDTAB
  0
ENDSEC
  0
SECTION
  2
BLOCKS
  0
BLOCK
  5
3DE
100
AcDbEntity
  8
0
100
AcDbBlockBegin
  2
*MODEL_SPACE
 70
     0
 10
0.0
 20
0.0
 30
0.0
  3
*MODEL_SPACE
  1

  0
ENDBLK
  5
3DF
100
AcDbEntity
100
AcDbBlockEnd
  0
BLOCK
  5
3E0
100
AcDbEntity
  8
0
100
AcDbBlockBegin
  2
*PAPER_SPACE
 70
     0
 10
0.0
 20
0.0
 30
0.0
  3
*PAPER_SPACE
  1

  0
ENDBLK
  5
3E1
100
AcDbEntity
100
AcDbBlockEnd
  0
BLOCK
  5
3E2
100
AcDbEntity
  8
0
100
AcDbBlockBegin
  2
CDWK_EXTR_0
 70
     0
 10
0.0
 20
0.0
 30
0.0
  3
CDWK_EXTR_0
  1

  4
Cadwork line-extremity
  0
LINE
  5
3E3
100
AcDbEntity
  8
0
 62
     0
370
    -2
100
AcDbLine
 10
0.0
 20
0.0
 30
0.0
 11
2.0
 21
0.5
 31
0.0
  0
LINE
  5
3E4
100
AcDbEntity
  8
0
 62
     0
370
    -2
100
AcDbLine
 10
0.0
 20
0.0
 30
0.0
 11
2.0
 21
-0.5
 31
0.0
  0
LINE
  5
3E5
100
AcDbEntity
  8
0
 62
     0
370
    -2
100
AcDbLine
 10
2.0
 20
0.5
 30
0.0
 11
2.0
 21
-0.5
 31
0.0
  0
ENDBLK
  5
3E6
100
AcDbEntity
100
AcDbBlockEnd
  0
BLOCK
  5
3E7
100
AcDbEntity
  8
0
100
AcDbBlockBegin
  2
CDWK_EXTR_1D
 70
     0
 10
0.0
 20
0.0
 30
0.0
  3
CDWK_EXTR_1D
  1

  4
Cadwork line-extremity
  0
LINE
  5
3E8
100
AcDbEntity
  8
0
 62
     0
370
    -2
100
AcDbLine
 10
0.0
 20
0.0
 30
0.0
 11
0.0
 21
1.0
 31
0.0
  0
LINE
  5
3E9
100
AcDbEntity
  8
0
 62
     0
370
    -2
100
AcDbLine
 10
0.0
 20
1.0
 30
0.0
 11
0.5
 21
1.5
 31
0.0
  0
LINE
  5
3EA
100
AcDbEntity
  8
0
 62
     0
370
    -2
100
AcDbLine
 10
0.5
 20
1.5
 30
0.0
 11
1.5
 21
1.5
 31
0.0
  0
ENDBLK
  5
3EB
100
AcDbEntity
100
AcDbBlockEnd
  0
BLOCK
  5
3EC
100
AcDbEntity
  8
0
100
AcDbBlockBegin
  2
CDWK_EXTR_1G
 70
     0
 10
0.0
 20
0.0
 30
0.0
  3
CDWK_EXTR_1G
  1

  4
Cadwork line-extremity
  0
LINE
  5
3ED
100
AcDbEntity
  8
0
 62
     0
370
    -2
100
AcDbLine
 10
0.0
 20
0.0
 30
0.0
 11
0.0
 21
-1.0
 31
0.0
  0
LINE
  5
3EE
100
AcDbEntity
  8
0
 62
     0
370
    -2
100
AcDbLine
 10
0.0
 20
-1.0
 30
0.0
 11
0.5
 21
-1.5
 31
0.0
  0
LINE
  5
3EF
100
AcDbEntity
  8
0
 62
     0
370
    -2
100
AcDbLine
 10
0.5
 20
-1.5
 30
0.0
 11
1.5
 21
-1.5
 31
0.0
  0
ENDBLK
  5
3F0
100
AcDbEntity
100
AcDbBlockEnd
  0
BLOCK
  5
3F1
100
AcDbEntity
  8
0
100
AcDbBlockBegin
  2
CDWK_EXTR_2
 70
     0
 10
0.0
 20
0.0
 30
0.0
  3
CDWK_EXTR_2
  1

  4
Cadwork line-extremity
  0
SOLID
  5
3F2
100
AcDbEntity
  8
0
 62
     0
100
AcDbTrace
 10
0.0
 20
0.0
 11
2.0
 21
0.5
 12
2.0
 22
-0.5
 13
2.0
 23
-0.5
  0
ENDBLK
  5
3F3
100
AcDbEntity
100
AcDbBlockEnd
  0
BLOCK
  5
3F4
100
AcDbEntity
  8
0
100
AcDbBlockBegin
  2
CDWK_EXTR_3
 70
     0
 10
0.0
 20
0.0
 30
0.0
  3
CDWK_EXTR_3
  1

  4
Cadwork line-extremity
  0
SOLID
  5
3F5
100
AcDbEntity
  8
0
 62
     0
100
AcDbTrace
 10
0.0
 20
0.0
 11
2.0
 21
0.5
 12
2.0
 22
-0.5
 13
2.0
 23
-0.5
  0
LINE
  5
3F6
100
AcDbEntity
  8
0
 62
     0
370
    -2
100
AcDbLine
 10
0.0
 20
1.0
 30
0.0
 11
0.0
 21
-1.0
 31
0.0
  0
ENDBLK
  5
3F7
100
AcDbEntity
100
AcDbBlockEnd
  0
BLOCK
  5
3F8
100
AcDbEntity
  8
0
100
AcDbBlockBegin
  2
CDWK_EXTR_4
 70
     0
 10
0.0
 20
0.0
 30
0.0
  3
CDWK_EXTR_4
  1

  4
Cadwork line-extremity
  0
HATCH
  5
3F9
100
AcDbEntity
  8
0
 62
     0
370
    -2
100
AcDbHatch
 10
0.0
 20
0.0
 30
0.0
210
0.0
220
0.0
230
1.0
  2
SOLID
 70
     1
 71
     0
 91
        1
 92
        1
 93
        1
 72
     2
 10
0.0
 20
0.0
 40
0.5
 50
0.0
 51
360.0
 73
     1
 97
        0
 75
     0
 76
     1
 98
        1
 10
0.0
 20
0.0
  0
ENDBLK
  5
3FA
100
AcDbEntity
100
AcDbBlockEnd
  0
BLOCK
  5
3FB
100
AcDbEntity
  8
0
100
AcDbBlockBegin
  2
CDWK_PTTYP0
 70
     0
 10
0.0
 20
0.0
 30
0.0
  3
CDWK_PTTYP0
  1

  4
Cadwork point
  0
POINT
  5
3FC
100
AcDbEntity
  8
0
 62
     0
100
AcDbPoint
 10
0.0
 20
0.0
 30
0.0
  0
ENDBLK
  5
3FD
100
AcDbEntity
100
AcDbBlockEnd
  0
BLOCK
  5
3FE
100
AcDbEntity
  8
0
100
AcDbBlockBegin
  2
CDWK_PTTYP1
 70
     0
 10
0.0
 20
0.0
 30
0.0
  3
CDWK_PTTYP1
  1

  4
Cadwork node
  0
LINE
  5
3FF
100
AcDbEntity
  8
0
 62
     0
370
    -2
100
AcDbLine
 10
-0.5
 20
0.5
 30
0.0
 11
0.5
 21
0.5
 31
0.0
  0
LINE
  5
400
100
AcDbEntity
  8
0
 62
     0
370
    -2
100
AcDbLine
 10
0.5
 20
0.5
 30
0.0
 11
0.5
 21
-0.5
 31
0.0
  0
LINE
  5
401
100
AcDbEntity
  8
0
 62
     0
370
    -2
100
AcDbLine
 10
0.5
 20
-0.5
 30
0.0
 11
-0.5
 21
-0.5
 31
0.0
  0
LINE
  5
402
100
AcDbEntity
  8
0
 62
     0
370
    -2
100
AcDbLine
 10
-0.5
 20
-0.5
 30
0.0
 11
-0.5
 21
0.5
 31
0.0
  0
ENDBLK
  5
403
100
AcDbEntity
100
AcDbBlockEnd
  0
BLOCK
  5
404
100
AcDbEntity
  8
0
100
AcDbBlockBegin
  2
CDWK_PTTYP2
 70
     0
 10
0.0
 20
0.0
 30
0.0
  3
CDWK_PTTYP2
  1

  4
Cadwork node
  0
LINE
  5
405
100
AcDbEntity
  8
0
 62
     0
370
    -2
100
AcDbLine
 10
0.0
 20
0.5
 30
0.0
 11
0.0
 21
-0.5
 31
0.0
  0
LINE
  5
406
100
AcDbEntity
  8
0
 62
     0
370
    -2
100
AcDbLine
 10
-0.5
 20
0.0
 30
0.0
 11
0.5
 21
0.0
 31
0.0
  0
ENDBLK
  5
407
100
AcDbEntity
100
AcDbBlockEnd
  0
BLOCK
  5
408
100
AcDbEntity
  8
0
100
AcDbBlockBegin
  2
CDWK_PTTYP3
 70
     0
 10
0.0
 20
0.0
 30
0.0
  3
CDWK_PTTYP3
  1

  4
Cadwork node
  0
CIRCLE
  5
409
100
AcDbEntity
  8
0
 62
     0
370
    -2
100
AcDbCircle
 10
0.0
 20
0.0
 30
0.0
 40
0.5
  0
ENDBLK
  5
40A
100
AcDbEntity
100
AcDbBlockEnd
  0
BLOCK
  5
40B
100
AcDbEntity
  8
0
100
AcDbBlockBegin
  2
CDWK_PTTYP4
 70
     0
 10
0.0
 20
0.0
 30
0.0
  3
CDWK_PTTYP4
  1

  4
Cadwork node
  0
HATCH
  5
40C
100
AcDbEntity
  8
0
 62
     0
370
    -2
100
AcDbHatch
 10
0.0
 20
0.0
 30
0.0
210
0.0
220
0.0
230
1.0
  2
SOLID
 70
     1
 71
     0
 91
        1
 92
        1
 93
        1
 72
     2
 10
0.0
 20
0.0
 40
0.5
 50
0.0
 51
360.0
 73
     1
 97
        0
 75
     0
 76
     1
 98
        1
 10
0.0
 20
0.0
  0
ENDBLK
  5
40D
100
AcDbEntity
100
AcDbBlockEnd
  0
BLOCK
  5
40E
100
AcDbEntity
  8
0
100
AcDbBlockBegin
  2
CDWK_PTTYP5
 70
     0
 10
0.0
 20
0.0
 30
0.0
  3
CDWK_PTTYP5
  1

  4
Cadwork node
  0
LINE
  5
40F
100
AcDbEntity
  8
0
 62
     0
370
    -2
100
AcDbLine
 10
-0.5
 20
0.5
 30
0.0
 11
0.5
 21
0.5
 31
0.0
  0
LINE
  5
410
100
AcDbEntity
  8
0
 62
     0
370
    -2
100
AcDbLine
 10
0.5
 20
0.5
 30
0.0
 11
0.5
 21
-0.5
 31
0.0
  0
LINE
  5
411
100
AcDbEntity
  8
0
 62
     0
370
    -2
100
AcDbLine
 10
0.5
 20
-0.5
 30
0.0
 11
-0.5
 21
-0.5
 31
0.0
  0
LINE
  5
412
100
AcDbEntity
  8
0
 62
     0
370
    -2
100
AcDbLine
 10
-0.5
 20
-0.5
 30
0.0
 11
-0.5
 21
0.5
 31
0.0
  0
SOLID
  5
413
100
AcDbEntity
  8
0
 62
     0
100
AcDbTrace
 10
-0.5
 20
-0.5
 11
-0.5
 21
0.0
 12
0.0
 22
-0.5
 13
0.0
 23
0.0
  0
SOLID
  5
414
100
AcDbEntity
  8
0
 62
     0
100
AcDbTrace
 10
0.0
 20
0.0
 11
0.0
 21
0.5
 12
0.5
 22
0.0
 13
0.5
 23
0.5
  0
ENDBLK
  5
415
100
AcDbEntity
100
AcDbBlockEnd
  0
BLOCK
  5
416
100
AcDbEntity
  8
0
100
AcDbBlockBegin
  2
CDWK_PTTYP6
 70
     0
 10
0.0
 20
0.0
 30
0.0
  3
CDWK_PTTYP6
  1

  4
Cadwork node
  0
LINE
  5
417
100
AcDbEntity
  8
0
 62
     0
370
    -2
100
AcDbLine
 10
-0.5
 20
0.5
 30
0.0
 11
0.5
 21
0.5
 31
0.0
  0
LINE
  5
418
100
AcDbEntity
  8
0
 62
     0
370
    -2
100
AcDbLine
 10
0.5
 20
0.5
 30
0.0
 11
0.5
 21
-0.5
 31
0.0
  0
LINE
  5
419
100
AcDbEntity
  8
0
 62
     0
370
    -2
100
AcDbLine
 10
0.5
 20
-0.5
 30
0.0
 11
-0.5
 21
-0.5
 31
0.0
  0
LINE
  5
41A
100
AcDbEntity
  8
0
 62
     0
370
    -2
100
AcDbLine
 10
-0.5
 20
-0.5
 30
0.0
 11
-0.5
 21
0.5
 31
0.0
  0
SOLID
  5
41B
100
AcDbEntity
  8
0
 62
     0
100
AcDbTrace
 10
-0.5
 20
-0.5
 11
-0.5
 21
0.5
 12
0.5
 22
0.5
 13
0.5
 23
0.5
  0
ENDBLK
  5
41C
100
AcDbEntity
100
AcDbBlockEnd
  0
BLOCK
  5
41D
100
AcDbEntity
  8
0
100
AcDbBlockBegin
  2
CDWK_PTTYP7
 70
     0
 10
0.0
 20
0.0
 30
0.0
  3
CDWK_PTTYP7
  1

  4
Cadwork node
  0
LINE
  5
41E
100
AcDbEntity
  8
0
 62
     0
370
    -2
100
AcDbLine
 10
-0.5
 20
0.5
 30
0.0
 11
0.5
 21
0.5
 31
0.0
  0
LINE
  5
41F
100
AcDbEntity
  8
0
 62
     0
370
    -2
100
AcDbLine
 10
0.5
 20
0.5
 30
0.0
 11
0.5
 21
-0.5
 31
0.0
  0
LINE
  5
420
100
AcDbEntity
  8
0
 62
     0
370
    -2
100
AcDbLine
 10
0.5
 20
-0.5
 30
0.0
 11
-0.5
 21
-0.5
 31
0.0
  0
LINE
  5
421
100
AcDbEntity
  8
0
 62
     0
370
    -2
100
AcDbLine
 10
-0.5
 20
-0.5
 30
0.0
 11
-0.5
 21
0.5
 31
0.0
  0
LINE
  5
422
100
AcDbEntity
  8
0
 62
     0
370
    -2
100
AcDbLine
 10
0.0
 20
0.5
 30
0.0
 11
0.0
 21
-0.5
 31
0.0
  0
LINE
  5
423
100
AcDbEntity
  8
0
 62
     0
370
    -2
100
AcDbLine
 10
-0.5
 20
0.0
 30
0.0
 11
0.5
 21
0.0
 31
0.0
  0
ENDBLK
  5
424
100
AcDbEntity
100
AcDbBlockEnd
  0
BLOCK
  5
425
100
AcDbEntity
  8
0
100
AcDbBlockBegin
  2
CDWK_PTTYP8
 70
     0
 10
0.0
 20
0.0
 30
0.0
  3
CDWK_PTTYP8
  1

  4
Cadwork node
  0
SOLID
  5
426
100
AcDbEntity
  8
0
 62
     0
100
AcDbTrace
 10
-0.5
 20
0.5
 11
0.5
 21
0.5
 12
-0.5
 22
-0.5
 13
0.5
 23
-0.5
  0
ENDBLK
  5
427
100
AcDbEntity
100
AcDbBlockEnd
  0
BLOCK
  5
428
100
AcDbEntity
  8
0
100
AcDbBlockBegin
  2
CDWK_PTTYP9
 70
     0
 10
0.0
 20
0.0
 30
0.0
  3
CDWK_PTTYP9
  1

  4
Cadwork node
  0
CIRCLE
  5
429
100
AcDbEntity
  8
0
 62
     0
370
    -2
100
AcDbCircle
 10
0.0
 20
0.0
 30
0.0
 40
0.5
  0
CIRCLE
  5
42A
100
AcDbEntity
  8
0
 62
     0
370
    -2
100
AcDbCircle
 10
0.0
 20
0.0
 30
0.0
 40
0.16666667
  0
ENDBLK
  5
42B
100
AcDbEntity
100
AcDbBlockEnd
  0
BLOCK
  5
42C
100
AcDbEntity
  8
0
100
AcDbBlockBegin
  2
CDWK_PTTYP10
 70
     0
 10
0.0
 20
0.0
 30
0.0
  3
CDWK_PTTYP10
  1

  4
Cadwork node
  0
CIRCLE
  5
42D
100
AcDbEntity
  8
0
 62
     0
370
    -2
100
AcDbCircle
 10
0.0
 20
0.0
 30
0.0
 40
0.5
  0
ENDBLK
  5
42E
100
AcDbEntity
100
AcDbBlockEnd
  0
BLOCK
  5
42F
100
AcDbEntity
  8
0
100
AcDbBlockBegin
  2
CDWK_PTTYP11
 70
     0
 10
0.0
 20
0.0
 30
0.0
  3
CDWK_PTTYP11
  1

  4
Cadwork node
  0
CIRCLE
  5
430
100
AcDbEntity
  8
0
 62
     0
370
    -2
100
AcDbCircle
 10
0.0
 20
0.0
 30
0.0
 40
0.5
  0
CIRCLE
  5
431
100
AcDbEntity
  8
0
 62
     0
370
    -2
100
AcDbCircle
 10
0.0
 20
0.0
 30
0.0
 40
0.25
  0
ENDBLK
  5
432
100
AcDbEntity
100
AcDbBlockEnd
  0
BLOCK
  5
433
100
AcDbEntity
  8
0
100
AcDbBlockBegin
  2
CDWK_PTTYP12
 70
     0
 10
0.0
 20
0.0
 30
0.0
  3
CDWK_PTTYP12
  1

  4
Cadwork node
  0
CIRCLE
  5
434
100
AcDbEntity
  8
0
 62
     0
370
    -2
100
AcDbCircle
 10
0.0
 20
0.0
 30
0.0
 40
0.5
  0
CIRCLE
  5
435
100
AcDbEntity
  8
0
 62
     0
370
    -2
100
AcDbCircle
 10
0.25
 20
0.0
 30
0.0
 40
0.25
  0
ENDBLK
  5
436
100
AcDbEntity
100
AcDbBlockEnd
  0
BLOCK
  5
437
100
AcDbEntity
  8
0
100
AcDbBlockBegin
  2
CDWK_PTTYP13
 70
     0
 10
0.0
 20
0.0
 30
0.0
  3
CDWK_PTTYP13
  1

  4
Cadwork node
  0
CIRCLE
  5
438
100
AcDbEntity
  8
0
 62
     0
370
    -2
100
AcDbCircle
 10
0.0
 20
0.0
 30
0.0
 40
0.5
  0
CIRCLE
  5
439
100
AcDbEntity
  8
0
 62
     0
370
    -2
100
AcDbCircle
 10
0.25
 20
0.0
 30
0.0
 40
0.25
  0
CIRCLE
  5
43A
100
AcDbEntity
  8
0
 62
     0
370
    -2
100
AcDbCircle
 10
-0.25
 20
0.0
 30
0.0
 40
0.25
  0
ENDBLK
  5
43B
100
AcDbEntity
100
AcDbBlockEnd
  0
BLOCK
  5
43C
100
AcDbEntity
  8
0
100
AcDbBlockBegin
  2
CDWK_PTTYP14
 70
     0
 10
0.0
 20
0.0
 30
0.0
  3
CDWK_PTTYP14
  1

  4
Cadwork node
  0
POINT
  5
43D
100
AcDbEntity
  8
0
 62
     0
100
AcDbPoint
 10
0.0
 20
0.0
 30
0.0
  0
ENDBLK
  5
43E
100
AcDbEntity
100
AcDbBlockEnd
  0
BLOCK
  5
43F
100
AcDbEntity
  8
0
100
AcDbBlockBegin
  2
CDWK_PTTYP15
 70
     0
 10
0.0
 20
0.0
 30
0.0
  3
CDWK_PTTYP15
  1

  4
Cadwork node
  0
POINT
  5
440
100
AcDbEntity
  8
0
 62
     0
100
AcDbPoint
 10
0.0
 20
0.0
 30
0.0
  0
ENDBLK
  5
441
100
AcDbEntity
100
AcDbBlockEnd
  0
BLOCK
  5
442
100
AcDbEntity
  8
0
100
AcDbBlockBegin
  2
CDWK_PTTYP16
 70
     0
 10
0.0
 20
0.0
 30
0.0
  3
CDWK_PTTYP16
  1

  4
Cadwork node
  0
LINE
  5
443
100
AcDbEntity
  8
0
 62
     0
370
    -2
100
AcDbLine
 10
-0.5
 20
-0.28867513
 30
0.0
 11
0.5
 21
-0.28867513
 31
0.0
  0
LINE
  5
444
100
AcDbEntity
  8
0
 62
     0
370
    -2
100
AcDbLine
 10
0.5
 20
-0.28867513
 30
0.0
 11
0.0
 21
0.57735027
 31
0.0
  0
LINE
  5
445
100
AcDbEntity
  8
0
 62
     0
370
    -2
100
AcDbLine
 10
0.0
 20
0.57735027
 30
0.0
 11
-0.5
 21
-0.28867513
 31
0.0
  0
CIRCLE
  5
446
100
AcDbEntity
  8
0
 62
     0
370
    -2
100
AcDbCircle
 10
0.0
 20
0.0
 30
0.0
 40
0.28867513
  0
ENDBLK
  5
447
100
AcDbEntity
100
AcDbBlockEnd
  0
BLOCK
  5
448
100
AcDbEntity
  8
0
100
AcDbBlockBegin
  2
CDWK_PTTYP17
 70
     0
 10
0.0
 20
0.0
 30
0.0
  3
CDWK_PTTYP17
  1

  4
Cadwork node
  0
CIRCLE
  5
449
100
AcDbEntity
  8
0
 62
     0
370
    -2
100
AcDbCircle
 10
0.0
 20
0.0
 30
0.0
 40
0.5
  0
HATCH
  5
44A
100
AcDbEntity
  8
0
 62
     0
370
    -2
100
AcDbHatch
 10
0.0
 20
0.0
 30
0.0
210
0.0
220
0.0
230
1.0
  2
SOLID
 70
     1
 71
     0
 91
        1
 92
        1
 93
        1
 72
     2
 10
0.0
 20
0.0
 40
0.25
 50
0.0
 51
360.0
 73
     1
 97
        0
 75
     0
 76
     1
 98
        1
 10
0.0
 20
0.0
  0
ENDBLK
  5
44B
100
AcDbEntity
100
AcDbBlockEnd
  0
BLOCK
  5
44C
100
AcDbEntity
  8
0
100
AcDbBlockBegin
  2
CDWK_PTTYP18
 70
     0
 10
0.0
 20
0.0
 30
0.0
  3
CDWK_PTTYP18
  1

  4
Cadwork node
  0
CIRCLE
  5
44D
100
AcDbEntity
  8
0
 62
     0
370
    -2
100
AcDbCircle
 10
0.0
 20
0.0
 30
0.0
 40
0.5
  0
CIRCLE
  5
44E
100
AcDbEntity
  8
0
 62
     0
370
    -2
100
AcDbCircle
 10
0.0
 20
0.0
 30
0.0
 40
0.2
  0
ENDBLK
  5
44F
100
AcDbEntity
100
AcDbBlockEnd
  0
BLOCK
  5
450
100
AcDbEntity
  8
0
100
AcDbBlockBegin
  2
CDWK_PTTYP19
 70
     0
 10
0.0
 20
0.0
 30
0.0
  3
CDWK_PTTYP19
  1

  4
Cadwork node
  0
CIRCLE
  5
451
100
AcDbEntity
  8
0
 62
     0
370
    -2
100
AcDbCircle
 10
0.0
 20
0.0
 30
0.0
 40
0.4
  0
CIRCLE
  5
452
100
AcDbEntity
  8
0
 62
     0
370
    -2
100
AcDbCircle
 10
0.0
 20
0.0
 30
0.0
 40
0.25
  0
LINE
  5
453
100
AcDbEntity
  8
0
 62
     0
370
    -2
100
AcDbLine
 10
-0.25
 20
0.0
 30
0.0
 11
0.25
 21
0.0
 31
0.0
  0
ENDBLK
  5
454
100
AcDbEntity
100
AcDbBlockEnd
  0
BLOCK
  5
455
100
AcDbEntity
  8
0
100
AcDbBlockBegin
  2
CDWK_PTTYP20
 70
     0
 10
0.0
 20
0.0
 30
0.0
  3
CDWK_PTTYP20
  1

  4
Cadwork node
  0
CIRCLE
  5
456
100
AcDbEntity
  8
0
 62
     0
370
    -2
100
AcDbCircle
 10
0.0
 20
0.0
 30
0.0
 40
0.5
  0
CIRCLE
  5
457
100
AcDbEntity
  8
0
 62
     0
370
    -2
100
AcDbCircle
 10
0.0
 20
0.0
 30
0.0
 40
0.3
  0
ENDBLK
  5
458
100
AcDbEntity
100
AcDbBlockEnd
  0
BLOCK
  5
459
100
AcDbEntity
  8
0
100
AcDbBlockBegin
  2
CDWK_PTTYP21
 70
     0
 10
0.0
 20
0.0
 30
0.0
  3
CDWK_PTTYP21
  1

  4
Cadwork node
  0
CIRCLE
  5
45A
100
AcDbEntity
  8
0
 62
     0
370
    -2
100
AcDbCircle
 10
0.0
 20
0.0
 30
0.0
 40
0.5
  0
LINE
  5
45B
100
AcDbEntity
  8
0
 62
     0
370
    -2
100
AcDbLine
 10
-0.5
 20
0.0
 30
0.0
 11
0.5
 21
0.0
 31
0.0
  0
ENDBLK
  5
45C
100
AcDbEntity
100
AcDbBlockEnd
  0
BLOCK
  5
45D
100
AcDbEntity
  8
0
100
AcDbBlockBegin
  2
CDWK_PTTYP22
 70
     0
 10
0.0
 20
0.0
 30
0.0
  3
CDWK_PTTYP22
  1

  4
Cadwork node
  0
POINT
  5
45E
100
AcDbEntity
  8
0
 62
     0
100
AcDbPoint
 10
0.0
 20
0.0
 30
0.0
  0
ENDBLK
  5
45F
100
AcDbEntity
100
AcDbBlockEnd
  0
BLOCK
  5
460
100
AcDbEntity
  8
0
100
AcDbBlockBegin
  2
CDWK_PTTYP23
 70
     0
 10
0.0
 20
0.0
 30
0.0
  3
CDWK_PTTYP23
  1

  4
Cadwork node
  0
POINT
  5
461
100
AcDbEntity
  8
0
 62
     0
100
AcDbPoint
 10
0.0
 20
0.0
 30
0.0
  0
ENDBLK
  5
462
100
AcDbEntity
100
AcDbBlockEnd
  0
BLOCK
  5
463
100
AcDbEntity
  8
0
100
AcDbBlockBegin
  2
CDWK_PTTYP24
 70
     0
 10
0.0
 20
0.0
 30
0.0
  3
CDWK_PTTYP24
  1

  4
Cadwork node
  0
POINT
  5
464
100
AcDbEntity
  8
0
 62
     0
100
AcDbPoint
 10
0.0
 20
0.0
 30
0.0
  0
ENDBLK
  5
465
100
AcDbEntity
100
AcDbBlockEnd
  0
BLOCK
  5
466
100
AcDbEntity
  8
0
100
AcDbBlockBegin
  2
CDWK_PTTYP25
 70
     0
 10
0.0
 20
0.0
 30
0.0
  3
CDWK_PTTYP25
  1

  4
Cadwork node
  0
LINE
  5
467
100
AcDbEntity
  8
0
 62
     0
370
    -2
100
AcDbLine
 10
-0.43290044
 20
-0.25
 30
0.0
 11
0.43290044
 21
-0.25
 31
0.0
  0
LINE
  5
468
100
AcDbEntity
  8
0
 62
     0
370
    -2
100
AcDbLine
 10
-0.43290044
 20
-0.25
 30
0.0
 11
0.0
 21
0.5
 31
0.0
  0
LINE
  5
469
100
AcDbEntity
  8
0
 62
     0
370
    -2
100
AcDbLine
 10
0.43290044
 20
-0.25
 30
0.0
 11
0.0
 21
0.5
 31
0.0
  0
CIRCLE
  5
46A
100
AcDbEntity
  8
0
 62
     0
370
    -2
100
AcDbCircle
 10
0.0
 20
0.0
 30
0.0
 40
0.5
  0
ENDBLK
  5
46B
100
AcDbEntity
100
AcDbBlockEnd
  0
BLOCK
  5
46C
100
AcDbEntity
  8
0
100
AcDbBlockBegin
  2
CDWK_PTTYP26
 70
     0
 10
0.0
 20
0.0
 30
0.0
  3
CDWK_PTTYP26
  1

  4
Cadwork node
  0
LINE
  5
46D
100
AcDbEntity
  8
0
 62
     0
370
    -2
100
AcDbLine
 10
-0.5
 20
-0.28850001
 30
0.0
 11
0.5
 21
-0.28850001
 31
0.0
  0
LINE
  5
46E
100
AcDbEntity
  8
0
 62
     0
370
    -2
100
AcDbLine
 10
-0.5
 20
-0.28850001
 30
0.0
 11
0.0
 21
0.57736721
 31
0.0
  0
LINE
  5
46F
100
AcDbEntity
  8
0
 62
     0
370
    -2
100
AcDbLine
 10
0.5
 20
-0.28850001
 30
0.0
 11
0.0
 21
0.57736721
 31
0.0
  0
CIRCLE
  5
470
100
AcDbEntity
  8
0
 62
     0
370
    -2
100
AcDbCircle
 10
0.0
 20
0.0
 30
0.0
 40
0.1312336
  0
ENDBLK
  5
471
100
AcDbEntity
100
AcDbBlockEnd
  0
BLOCK
  5
472
100
AcDbEntity
  8
0
100
AcDbBlockBegin
  2
CDWK_PTTYP27
 70
     0
 10
0.0
 20
0.0
 30
0.0
  3
CDWK_PTTYP27
  1

  4
Cadwork node
  0
LINE
  5
473
100
AcDbEntity
  8
0
 62
     0
370
    -2
100
AcDbLine
 10
-0.43290044
 20
-0.25
 30
0.0
 11
0.43290044
 21
-0.25
 31
0.0
  0
LINE
  5
474
100
AcDbEntity
  8
0
 62
     0
370
    -2
100
AcDbLine
 10
-0.43290044
 20
-0.25
 30
0.0
 11
0.0
 21
0.5
 31
0.0
  0
LINE
  5
475
100
AcDbEntity
  8
0
 62
     0
370
    -2
100
AcDbLine
 10
0.43290044
 20
-0.25
 30
0.0
 11
0.0
 21
0.5
 31
0.0
  0
CIRCLE
  5
476
100
AcDbEntity
  8
0
 62
     0
370
    -2
100
AcDbCircle
 10
0.0
 20
0.0
 30
0.0
 40
0.5
  0
CIRCLE
  5
477
100
AcDbEntity
  8
0
 62
     0
370
    -2
100
AcDbCircle
 10
0.0
 20
0.0
 30
0.0
 40
0.1312336
  0
ENDBLK
  5
478
100
AcDbEntity
100
AcDbBlockEnd
  0
BLOCK
  5
479
100
AcDbEntity
  8
0
100
AcDbBlockBegin
  2
CDWK_PTTYP28
 70
     0
 10
0.0
 20
0.0
 30
0.0
  3
CDWK_PTTYP28
  1

  4
Cadwork node
  0
POINT
  5
47A
100
AcDbEntity
  8
0
 62
     0
100
AcDbPoint
 10
0.0
 20
0.0
 30
0.0
  0
ENDBLK
  5
47B
100
AcDbEntity
100
AcDbBlockEnd
  0
BLOCK
  5
47C
100
AcDbEntity
  8
0
100
AcDbBlockBegin
  2
CDWK_PTTYP29
 70
     0
 10
0.0
 20
0.0
 30
0.0
  3
CDWK_PTTYP29
  1

  4
Cadwork node
  0
CIRCLE
  5
47D
100
AcDbEntity
  8
0
 62
     0
370
    -2
100
AcDbCircle
 10
0.0
 20
0.0
 30
0.0
 40
0.5
  0
CIRCLE
  5
47E
100
AcDbEntity
  8
0
 62
     0
370
    -2
100
AcDbCircle
 10
0.0
 20
0.0
 30
0.0
 40
0.375
  0
CIRCLE
  5
47F
100
AcDbEntity
  8
0
 62
     0
370
    -2
100
AcDbCircle
 10
0.0
 20
0.0
 30
0.0
 40
0.21875
  0
ENDBLK
  5
480
100
AcDbEntity
100
AcDbBlockEnd
  0
BLOCK
  5
481
100
AcDbEntity
  8
0
100
AcDbBlockBegin
  2
CDWK_PTTYP30
 70
     0
 10
0.0
 20
0.0
 30
0.0
  3
CDWK_PTTYP30
  1

  4
Cadwork node
  0
LINE
  5
482
100
AcDbEntity
  8
0
 62
     0
370
    -2
100
AcDbLine
 10
0.17680339
 20
0.17680339
 30
0.0
 11
0.5
 21
0.5
 31
0.0
  0
LINE
  5
483
100
AcDbEntity
  8
0
 62
     0
370
    -2
100
AcDbLine
 10
-0.17680339
 20
0.17680339
 30
0.0
 11
-0.5
 21
0.5
 31
0.0
  0
LINE
  5
484
100
AcDbEntity
  8
0
 62
     0
370
    -2
100
AcDbLine
 10
0.17680339
 20
-0.17680339
 30
0.0
 11
0.5
 21
-0.5
 31
0.0
  0
LINE
  5
485
100
AcDbEntity
  8
0
 62
     0
370
    -2
100
AcDbLine
 10
-0.17680339
 20
-0.17680339
 30
0.0
 11
-0.5
 21
-0.5
 31
0.0
  0
ENDBLK
  5
486
100
AcDbEntity
100
AcDbBlockEnd
  0
BLOCK
  5
487
100
AcDbEntity
  8
0
100
AcDbBlockBegin
  2
CDWK_PTTYP31
 70
     0
 10
0.0
 20
0.0
 30
0.0
  3
CDWK_PTTYP31
  1

  4
Cadwork node
  0
CIRCLE
  5
488
100
AcDbEntity
  8
0
 62
     0
370
    -2
100
AcDbCircle
 10
0.0
 20
0.0
 30
0.0
 40
0.075
  0
LINE
  5
489
100
AcDbEntity
  8
0
 62
     0
370
    -2
100
AcDbLine
 10
0.075
 20
0.0
 30
0.0
 11
0.5
 21
0.0
 31
0.0
  0
LINE
  5
48A
100
AcDbEntity
  8
0
 62
     0
370
    -2
100
AcDbLine
 10
-0.075
 20
0.0
 30
0.0
 11
-0.5
 21
0.0
 31
0.0
  0
LINE
  5
48B
100
AcDbEntity
  8
0
 62
     0
370
    -2
100
AcDbLine
 10
0.0
 20
0.075
 30
0.0
 11
0.0
 21
0.5
 31
0.0
  0
LINE
  5
48C
100
AcDbEntity
  8
0
 62
     0
370
    -2
100
AcDbLine
 10
0.0
 20
-0.075
 30
0.0
 11
0.0
 21
-0.5
 31
0.0
  0
ENDBLK
  5
48D
100
AcDbEntity
100
AcDbBlockEnd
  0
BLOCK
  5
48E
100
AcDbEntity
  8
0
100
AcDbBlockBegin
  2
CDWK_PTTYP32
 70
     0
 10
0.0
 20
0.0
 30
0.0
  3
CDWK_PTTYP32
  1

  4
Cadwork node
  0
CIRCLE
  5
48F
100
AcDbEntity
  8
0
 62
     0
370
    -2
100
AcDbCircle
 10
0.0
 20
0.0
 30
0.0
 40
0.5
  0
CIRCLE
  5
490
100
AcDbEntity
  8
0
 62
     0
370
    -2
100
AcDbCircle
 10
0.0
 20
0.0
 30
0.0
 40
0.16666667
  0
LINE
  5
491
100
AcDbEntity
  8
0
 62
     0
370
    -2
100
AcDbLine
 10
0.11786893
 20
0.11786893
 30
0.0
 11
0.35360678
 21
0.35360678
 31
0.0
  0
LINE
  5
492
100
AcDbEntity
  8
0
 62
     0
370
    -2
100
AcDbLine
 10
-0.11786893
 20
0.11786893
 30
0.0
 11
-0.35360678
 21
0.35360678
 31
0.0
  0
LINE
  5
493
100
AcDbEntity
  8
0
 62
     0
370
    -2
100
AcDbLine
 10
0.11786893
 20
-0.11786893
 30
0.0
 11
0.35360678
 21
-0.35360678
 31
0.0
  0
LINE
  5
494
100
AcDbEntity
  8
0
 62
     0
370
    -2
100
AcDbLine
 10
-0.11786893
 20
-0.11786893
 30
0.0
 11
-0.35360678
 21
-0.35360678
 31
0.0
  0
ENDBLK
  5
495
100
AcDbEntity
100
AcDbBlockEnd
  0
BLOCK
  5
496
100
AcDbEntity
  8
0
100
AcDbBlockBegin
  2
CDWK_PTTYP33
 70
     0
 10
0.0
 20
0.0
 30
0.0
  3
CDWK_PTTYP33
  1

  4
Cadwork node
  0
CIRCLE
  5
497
100
AcDbEntity
  8
0
 62
     0
370
    -2
100
AcDbCircle
 10
0.0
 20
0.0
 30
0.0
 40
0.5
  0
LINE
  5
498
100
AcDbEntity
  8
0
 62
     0
370
    -2
100
AcDbLine
 10
0.0
 20
0.5
 30
0.0
 11
0.0
 21
-0.5
 31
0.0
  0
LINE
  5
499
100
AcDbEntity
  8
0
 62
     0
370
    -2
100
AcDbLine
 10
-0.5
 20
0.0
 30
0.0
 11
0.5
 21
0.0
 31
0.0
  0
ENDBLK
  5
49A
100
AcDbEntity
100
AcDbBlockEnd
  0
BLOCK
  5
49B
100
AcDbEntity
  8
0
100
AcDbBlockBegin
  2
CDWK_PTTYP34
 70
     0
 10
0.0
 20
0.0
 30
0.0
  3
CDWK_PTTYP34
  1

  4
Cadwork node
  0
CIRCLE
  5
49C
100
AcDbEntity
  8
0
 62
     0
370
    -2
100
AcDbCircle
 10
0.0
 20
0.0
 30
0.0
 40
0.5
  0
LINE
  5
49D
100
AcDbEntity
  8
0
 62
     0
370
    -2
100
AcDbLine
 10
-0.30360678
 20
-0.40360678
 30
0.0
 11
0.40360678
 21
0.30360678
 31
0.0
  0
LINE
  5
49E
100
AcDbEntity
  8
0
 62
     0
370
    -2
100
AcDbLine
 10
-0.40360678
 20
-0.30360678
 30
0.0
 11
0.30360678
 21
0.40360678
 31
0.0
  0
ENDBLK
  5
49F
100
AcDbEntity
100
AcDbBlockEnd
  0
BLOCK
  5
4A0
100
AcDbEntity
  8
0
100
AcDbBlockBegin
  2
CDWK_PTTYP35
 70
     0
 10
0.0
 20
0.0
 30
0.0
  3
CDWK_PTTYP35
  1

  4
Cadwork node
  0
CIRCLE
  5
4A1
100
AcDbEntity
  8
0
 62
     0
370
    -2
100
AcDbCircle
 10
0.0
 20
0.0
 30
0.0
 40
0.21431634
  0
LINE
  5
4A2
100
AcDbEntity
  8
0
 62
     0
370
    -2
100
AcDbLine
 10
0.0
 20
0.21431634
 30
0.0
 11
0.0
 21
0.5
 31
0.0
  0
LINE
  5
4A3
100
AcDbEntity
  8
0
 62
     0
370
    -2
100
AcDbLine
 10
0.0
 20
-0.21431634
 30
0.0
 11
0.0
 21
-0.5
 31
0.0
  0
ENDBLK
  5
4A4
100
AcDbEntity
100
AcDbBlockEnd
  0
BLOCK
  5
4A5
100
AcDbEntity
  8
0
100
AcDbBlockBegin
  2
CDWK_PTTYP36
 70
     0
 10
0.0
 20
0.0
 30
0.0
  3
CDWK_PTTYP36
  1

  4
Cadwork node
  0
LINE
  5
4A6
100
AcDbEntity
  8
0
 62
     0
370
    -2
100
AcDbLine
 10
-0.5
 20
-0.16666667
 30
0.0
 11
0.5
 21
-0.16666667
 31
0.0
  0
LINE
  5
4A7
100
AcDbEntity
  8
0
 62
     0
370
    -2
100
AcDbLine
 10
0.5
 20
-0.16666667
 30
0.0
 11
0.5
 21
0.16666667
 31
0.0
  0
LINE
  5
4A8
100
AcDbEntity
  8
0
 62
     0
370
    -2
100
AcDbLine
 10
0.5
 20
0.16666667
 30
0.0
 11
-0.5
 21
0.16666667
 31
0.0
  0
LINE
  5
4A9
100
AcDbEntity
  8
0
 62
     0
370
    -2
100
AcDbLine
 10
-0.5
 20
0.16666667
 30
0.0
 11
-0.5
 21
-0.16666667
 31
0.0
  0
SOLID
  5
4AA
100
AcDbEntity
  8
0
 62
     0
100
AcDbTrace
 10
-0.5
 20
-0.16666667
 11
0.5
 21
0.16666667
 12
0.5
 22
-0.16666667
 13
0.5
 23
-0.16666667
  0
ENDBLK
  5
4AB
100
AcDbEntity
100
AcDbBlockEnd
  0
BLOCK
  5
4AC
100
AcDbEntity
  8
0
100
AcDbBlockBegin
  2
CDWK_PTTYP37
 70
     0
 10
0.0
 20
0.0
 30
0.0
  3
CDWK_PTTYP37
  1

  4
Cadwork node
  0
CIRCLE
  5
4AD
100
AcDbEntity
  8
0
 62
     0
370
    -2
100
AcDbCircle
 10
0.0
 20
0.0
 30
0.0
 40
0.5
  0
SOLID
  5
4AE
100
AcDbEntity
  8
0
 62
     0
100
AcDbTrace
 10
0.0
 20
0.0
 11
0.35350001
 21
0.35350001
 12
0.5
 22
0.0
 13
0.46200001
 23
0.19149999
  0
SOLID
  5
4AF
100
AcDbEntity
  8
0
 62
     0
100
AcDbTrace
 10
0.0
 20
0.0
 11
0.35350001
 21
-0.35350001
 12
0.5
 22
0.0
 13
0.46200001
 23
-0.19149999
  0
SOLID
  5
4B0
100
AcDbEntity
  8
0
 62
     0
100
AcDbTrace
 10
0.0
 20
0.0
 11
0.0
 21
-0.5
 12
0.35350001
 22
-0.35350001
 13
0.19149999
 23
-0.46200001
  0
SOLID
  5
4B1
100
AcDbEntity
  8
0
 62
     0
100
AcDbTrace
 10
0.0
 20
0.0
 11
0.0
 21
-0.5
 12
-0.35350001
 22
-0.35350001
 13
-0.19149999
 23
-0.46200001
  0
ENDBLK
  5
4B2
100
AcDbEntity
100
AcDbBlockEnd
  0
BLOCK
  5
4B3
100
AcDbEntity
  8
0
100
AcDbBlockBegin
  2
CDWK_PTTYP38
 70
     0
 10
0.0
 20
0.0
 30
0.0
  3
CDWK_PTTYP38
  1

  4
Cadwork node
  0
CIRCLE
  5
4B4
100
AcDbEntity
  8
0
 62
     0
370
    -2
100
AcDbCircle
 10
0.0
 20
0.0
 30
0.0
 40
0.5
  0
SOLID
  5
4B5
100
AcDbEntity
  8
0
 62
     0
100
AcDbTrace
 10
0.0
 20
0.0
 11
0.35350001
 21
0.35350001
 12
0.0
 22
0.5
 13
0.19149999
 23
0.46200001
  0
SOLID
  5
4B6
100
AcDbEntity
  8
0
 62
     0
100
AcDbTrace
 10
0.0
 20
0.0
 11
0.5
 21
0.0
 12
0.35350001
 22
0.35350001
 13
0.46200001
 23
0.19149999
  0
SOLID
  5
4B7
100
AcDbEntity
  8
0
 62
     0
100
AcDbTrace
 10
0.0
 20
0.0
 11
0.0
 21
-0.5
 12
-0.35350001
 22
-0.35350001
 13
-0.19149999
 23
-0.46200001
  0
SOLID
  5
4B8
100
AcDbEntity
  8
0
 62
     0
100
AcDbTrace
 10
0.0
 20
0.0
 11
-0.5
 21
0.0
 12
-0.35350001
 22
-0.35350001
 13
-0.46200001
 23
-0.19149999
  0
ENDBLK
  5
4B9
100
AcDbEntity
100
AcDbBlockEnd
  0
BLOCK
  5
4BA
100
AcDbEntity
  8
Ech.1_5
100
AcDbBlockBegin
  2
*X1
 70
     1
 10
0.0
 20
0.0
 30
0.0
  3
*X1
  1

  4
Cadwork hatch
  0
LINE
  5
4BB
100
AcDbEntity
  8
Ech.1_5
 62
   190
  6
CONTINUOUS
370
    -2
100
AcDbLine
 10
35816.7479872
 20
-40731.73926162
 30
0.0
 11
35636.74758132
 21
-40686.73947666
 31
0.0
  0
LINE
  5
4BC
100
AcDbEntity
  8
Ech.1_5
 62
   190
  6
CONTINUOUS
370
    -2
100
AcDbLine
 10
35816.7479872
 20
-40686.73947666
 30
0.0
 11
35636.74758132
 21
-40731.73926162
 31
0.0
  0
ENDBLK
  5
4BD
100
AcDbEntity
100
AcDbBlockEnd
  0
BLOCK
  5
4BE
100
AcDbEntity
  8
Ech.1_5
100
AcDbBlockBegin
  2
*X2
 70
     1
 10
0.0
 20
0.0
 30
0.0
  3
*X2
  1

  4
Cadwork hatch
  0
LINE
  5
4BF
100
AcDbEntity
  8
Ech.1_5
 62
   190
  6
CONTINUOUS
370
    -2
100
AcDbLine
 10
35816.7479872
 20
-40686.73947666
 30
0.0
 11
35636.74758132
 21
-40641.73937519
 31
0.0
  0
LINE
  5
4C0
100
AcDbEntity
  8
Ech.1_5
 62
   190
  6
CONTINUOUS
370
    -2
100
AcDbLine
 10
35816.7479872
 20
-40641.73937519
 30
0.0
 11
35636.74758132
 21
-40686.73947666
 31
0.0
  0
ENDBLK
  5
4C1
100
AcDbEntity
100
AcDbBlockEnd
  0
BLOCK
  5
4C2
100
AcDbEntity
  8
Ech.1_5
100
AcDbBlockBegin
  2
*D1
 70
     1
 10
0.0
 20
0.0
 30
0.0
  3
*D1
  1

  4
Cadwork dimension
  0
TEXT
  5
4C3
100
AcDbEntity
  8
Ech.1_5
 62
   190
370
    18
100
AcDbText
 10
35460.57043606
 20
-40570.92858969
 30
0.0
 40
12.5
  1
relevé min 150 mm
  7
ARIAL
 50
89.9999975
 41
1.0
 51
0.0
100
AcDbText
  0
LINE
  5
4C4
100
AcDbEntity
  8
Ech.1_5
 62
   190
370
    -2
100
AcDbLine
 10
35465.53227874
 20
-40431.7393111
 30
0.0
 11
35527.02076906
 21
-40431.7393111
 31
0.0
  0
LINE
  5
4C5
100
AcDbEntity
  8
Ech.1_5
 62
   190
370
    -2
100
AcDbLine
 10
35465.53227874
 20
-40581.7393111
 30
0.0
 11
35604.60763245
 21
-40581.7393111
 31
0.0
  0
LINE
  5
4C6
100
AcDbEntity
  8
Ech.1_5
 62
   190
370
    -2
100
AcDbLine
 10
35470.53227874
 20
-40426.7393111
 30
0.0
 11
35470.53227874
 21
-40586.7393111
 31
0.0
  0
LINE
  5
4C7
100
AcDbEntity
  8
Ech.1_5
 62
   190
370
    -2
100
AcDbLine
 10
35468.03227874
 20
-40429.2393111
 30
0.0
 11
35473.03227874
 21
-40434.2393111
 31
0.0
  0
LINE
  5
4C8
100
AcDbEntity
  8
Ech.1_5
 62
   190
370
    -2
100
AcDbLine
 10
35468.03227874
 20
-40579.2393111
 30
0.0
 11
35473.03227874
 21
-40584.2393111
 31
0.0
  0
ENDBLK
  5
4C9
100
AcDbEntity
100
AcDbBlockEnd
  0
BLOCK
  5
4CA
100
AcDbEntity
  8
Ech.1_5
100
AcDbBlockBegin
  2
*D17
 70
     1
 10
0.0
 20
0.0
 30
0.0
  3
*D17
  1

  4
Cadwork dimension
  0
TEXT
  5
4CB
100
AcDbEntity
  8
Ech.1_5
 62
   190
370
    18
100
AcDbText
 10
35590.14004166
 20
-40477.93794239
 30
0.0
 40
12.5
  1
40 mm
  7
ARIAL
 50
89.9999975
 41
1.0
 51
0.0
100
AcDbText
  0
LINE
  5
4CC
100
AcDbEntity
  8
Ech.1_5
 62
   190
370
    -2
100
AcDbLine
 10
35600.14004166
 20
-40471.7393111
 30
0.0
 11
35582.64466416
 21
-40471.7393111
 31
0.0
  0
LINE
  5
4CD
100
AcDbEntity
  8
Ech.1_5
 62
   190
370
    -2
100
AcDbLine
 10
35600.14004166
 20
-40431.7393111
 30
0.0
 11
35590.03734545
 21
-40431.7393111
 31
0.0
  0
LINE
  5
4CE
100
AcDbEntity
  8
Ech.1_5
 62
   190
370
    -2
100
AcDbLine
 10
35595.14004166
 20
-40476.7393111
 30
0.0
 11
35595.14004166
 21
-40426.7393111
 31
0.0
  0
LINE
  5
4CF
100
AcDbEntity
  8
Ech.1_5
 62
   190
370
    -2
100
AcDbLine
 10
35597.64004166
 20
-40474.2393111
 30
0.0
 11
35592.64004166
 21
-40469.2393111
 31
0.0
  0
LINE
  5
4D0
100
AcDbEntity
  8
Ech.1_5
 62
   190
370
    -2
100
AcDbLine
 10
35597.64004166
 20
-40434.2393111
 30
0.0
 11
35592.64004166
 21
-40429.2393111
 31
0.0
  0
ENDBLK
  5
4D1
100
AcDbEntity
100
AcDbBlockEnd
  0
BLOCK
  5
4D2
100
AcDbEntity
  8
Ech.1_5
100
AcDbBlockBegin
  2
*D18
 70
     1
 10
0.0
 20
0.0
 30
0.0
  3
*D18
  1

  4
Cadwork dimension
  0
TEXT
  5
4D3
100
AcDbEntity
  8
Ech.1_5
 62
   190
370
    18
100
AcDbText
 10
35543.67321304
 20
-40470.01435873
 30
0.0
 40
12.5
  1
50 mm
  7
ARIAL
 50
89.9999975
 41
1.0
 51
0.0
100
AcDbText
  0
LINE
  5
4D4
100
AcDbEntity
  8
Ech.1_5
 62
   190
370
    -2
100
AcDbLine
 10
35543.67321304
 20
-40418.93621204
 30
0.0
 11
35582.64466416
 21
-40418.93621204
 31
0.0
  0
LINE
  5
4D5
100
AcDbEntity
  8
Ech.1_5
 62
   190
370
    -2
100
AcDbLine
 10
35543.67321304
 20
-40468.69524284
 30
0.0
 11
35558.44206732
 21
-40468.69524284
 31
0.0
  0
LINE
  5
4D6
100
AcDbEntity
  8
Ech.1_5
 62
   190
370
    -2
100
AcDbLine
 10
35548.67321304
 20
-40413.93621204
 30
0.0
 11
35548.67321304
 21
-40473.69524284
 31
0.0
  0
LINE
  5
4D7
100
AcDbEntity
  8
Ech.1_5
 62
   190
370
    -2
100
AcDbLine
 10
35546.17321304
 20
-40416.43621204
 30
0.0
 11
35551.17321304
 21
-40421.43621204
 31
0.0
  0
LINE
  5
4D8
100
AcDbEntity
  8
Ech.1_5
 62
   190
370
    -2
100
AcDbLine
 10
35546.17321304
 20
-40466.19524284
 30
0.0
 11
35551.17321304
 21
-40471.19524284
 31
0.0
  0
ENDBLK
  5
4D9
100
AcDbEntity
100
AcDbBlockEnd
  0
ENDSEC
  0
SECTION
  2
ENTITIES
  0
INSERT
  5
4DA
100
AcDbEntity
  8
Ech.1_5
 62
     0
370
    -3
100
AcDbBlockReference
  2
*X1
 10
0.0
 20
0.0
 30
0.0
  0
INSERT
  5
4DB
100
AcDbEntity
  8
Ech.1_5
 62
     0
370
    -3
100
AcDbBlockReference
  2
*X2
 10
0.0
 20
0.0
 30
0.0
  0
LWPOLYLINE
  5
4DC
100
AcDbEntity
  8
Ech.1_5
 62
   190
  6
CONTINUOUS
370
    -3
100
AcDbPolyline
 90
        5
 70
     0
 43
0.0
 10
34929.26651495
 20
-41381.0936757
 10
35914.26651495
 20
-41381.0936757
 10
35914.26651495
 20
-40026.09367571
 10
34929.26651495
 20
-40026.09367571
 10
34929.26651495
 20
-41381.0936757
  0
LWPOLYLINE
  5
4DD
102
{ACAD_REACTORS
330
4DE
102
}
100
AcDbEntity
  8
Ech.1_5
 62
     9
  6
CONTINUOUS
370
    -3
100
AcDbPolyline
 90
       17
 70
     1
 43
0.0
 38
2500.0
 39
-2500.0
 10
35903.54783631
 20
-40861.7393111
 10
35168.64240005
 20
-40861.7393111
 10
35168.64246341
 20
-40997.82263493
 10
35074.87853243
 20
-40997.82263493
 10
35058.39302927
 20
-41015.79998334
 10
35072.50296929
 20
-40979.84428333
 10
35056.01661521
 20
-40997.82263493
 10
34968.64246342
 20
-40997.82263493
 10
34968.64246341
 20
-40380.09482155
 10
35168.64246342
 20
-40380.09482155
 10
35168.64246341
 20
-40731.7393111
 10
35478.62376112
 20
-40731.73740608
 10
35903.54721474
 20
-40731.7393111
 10
35903.54771031
 20
-40787.30792703
 10
35921.52606191
 20
-40803.79428111
 10
35885.5703619
 20
-40789.6843411
 10
35903.54771031
 20
-40806.16984425
  0
HATCH
  5
4DE
100
AcDbEntity
  8
Ech.1_5
 62
     9
  6
CONTINUOUS
100
AcDbHatch
 10
0.0
 20
0.0
 30
0.0
210
0.0
220
0.0
230
1.0
  2
AR-CONC
 70
     0
 71
     1
 91
        1
 92
        7
 72
     0
 73
     1
 93
       17
 10
35903.54783631
 20
-40861.7393111
 10
35168.64240005
 20
-40861.7393111
 10
35168.64246341
 20
-40997.82263493
 10
35074.87853243
 20
-40997.82263493
 10
35058.39302927
 20
-41015.79998334
 10
35072.50296929
 20
-40979.84428333
 10
35056.01661521
 20
-40997.82263493
 10
34968.64246342
 20
-40997.82263493
 10
34968.64246341
 20
-40380.09482155
 10
35168.64246342
 20
-40380.09482155
 10
35168.64246341
 20
-40731.7393111
 10
35478.62376112
 20
-40731.73740608
 10
35903.54721474
 20
-40731.7393111
 10
35903.54771031
 20
-40787.30792703
 10
35921.52606191
 20
-40803.79428111
 10
35885.5703619
 20
-40789.6843411
 10
35903.54771031
 20
-40806.16984425
 97
        1
330
4DD
 75
     0
 76
     2
 52
0.0
 41
0.11811097
 77
     0
 78
    13
 53
50.0
 43
0.0
 44
0.0
 45
-18.84283637
 46
1.64853443
 79
     2
 49
1.97029307
 49
-21.67322338
 53
355.0
 43
0.0
 44
0.0
 45
-3.64507756
 46
19.76051824
 79
     2
 49
1.57623377
 49
-17.3385787
 53
100.45140076
 43
1.57023568
 44
-0.13737749
 45
-15.19777228
 46
-18.11197244
 79
     2
 49
1.67449124
 49
-18.41940522
 53
46.18420029
 43
0.0
 44
5.25411576
 45
-28.03703353
 46
4.34827878
 79
     2
 49
2.95543872
 49
-32.50983238
 53
96.63559723
 43
2.33641885
 44
4.89175692
 45
-24.55412615
 46
-25.59063404
 79
     2
 49
2.51173697
 49
-27.62910426
 53
351.1842041
 43
0.0
 44
5.25411576
 45
24.55410288
 46
25.59065715
 79
     2
 49
2.36435249
 49
-26.00786805
 53
21.0
 43
2.62705699
 44
3.94058615
 45
-15.68109068
 46
10.57702905
 79
     2
 49
1.97029307
 49
-21.67322338
 53
326.0
 43
2.62705699
 44
3.94058615
 45
6.39203268
 46
19.05010734
 79
     2
 49
1.57623377
 49
-17.3385787
 53
71.45140076
 43
3.93381357
 44
3.05916555
 45
-22.07312962
 46
-8.47306182
 79
     2
 49
1.67449124
 49
-18.41940522
 53
37.5
 43
0.0
 44
0.0
 45
0.31944534
 46
8.74531245
 79
     6
 49
0.01875
 49
-17.12841332
 49
0.01875
 49
-17.60128498
 49
0.01875
 49
-17.40425348
 53
7.5
 43
0.0
 44
0.0
 45
6.91098818
 46
10.3614222
 79
     6
 49
0.01875
 49
-10.03535807
 49
0.01875
 49
-16.7343539
 49
0.01875
 49
-6.6333206
 53
-32.5
 43
-5.85833833
 44
0.0
 45
14.02382061
 46
-0.59253003
 79
     6
 49
0.01875
 49
-6.56764314
 49
0.01875
 49
-20.49104869
 49
0.01875
 49
-27.19004452
 53
-42.5
 43
-8.48539531
 44
0.0
 45
15.32063571
 46
2.62981542
 79
     6
 49
0.01875
 49
-8.53793621
 49
0.01875
 49
-13.60815793
 49
0.01875
 49
-19.30887222
 47
0.775229
 98
        1
 10
0.0
 20
0.0
  0
LWPOLYLINE
  5
4DF
100
AcDbEntity
  8
Ech.1_5
 62
   190
  6
CONTINUOUS
370
    -3
100
AcDbPolyline
 90
        4
 70
     1
 43
0.0
 10
35856.74562406
 20
-40208.33398267
 10
35816.74562406
 20
-40208.33398267
 10
35816.74562406
 20
-40676.7393111
 10
35856.74562406
 20
-40676.7393111
  0
LWPOLYLINE
  5
4E0
100
AcDbEntity
  8
Ech.1_5
 62
   190
  6
CONTINUOUS
370
    -3
100
AcDbPolyline
 90
        9
 70
     1
 43
0.0
 10
35816.74562406
 20
-40208.33398267
 10
35762.68605118
 20
-40208.33398267
 10
35746.1996971
 20
-40226.31233427
 10
35760.30963712
 20
-40190.35663426
 10
35743.82413396
 20
-40208.33398267
 10
35636.74562406
 20
-40208.33398267
 10
35636.74562406
 20
-40420.09482155
 10
35636.74562406
 20
-40686.7393111
 10
35816.74562406
 20
-40686.7393111
  0
LWPOLYLINE
  5
4E1
100
AcDbEntity
  8
Ech.1_5
 62
   190
  6
CONTINUOUS
370
    -3
100
AcDbPolyline
 90
        4
 70
     1
 43
0.0
 10
35627.74562406
 20
-40208.33398267
 10
35587.74562406
 20
-40208.33398267
 10
35587.74562406
 20
-40390.72922029
 10
35627.74562406
 20
-40390.72913885
  0
LWPOLYLINE
  5
4E2
100
AcDbEntity
  8
Ech.1_5
 62
   253
  6
CONTINUOUS
370
    15
100
AcDbPolyline
 90
        4
 70
     1
 43
0.0
 10
35869.74562406
 20
-40208.33398267
 10
35856.74562406
 20
-40208.33398267
 10
35856.74562406
 20
-40721.7393111
 10
35869.74562406
 20
-40721.7393111
  0
LWPOLYLINE
  5
4E3
102
{ACAD_REACTORS
330
4E4
102
}
100
AcDbEntity
  8
Ech.1_5
 62
     7
  6
CONTINUOUS
370
    -3
100
AcDbPolyline
 90
        4
 70
     1
 43
0.0
 10
35869.74562406
 20
-40208.33398267
 10
35856.74562406
 20
-40208.33398267
 10
35856.74562406
 20
-40721.7393111
 10
35869.74562406
 20
-40721.7393111
  0
HATCH
  5
4E4
100
AcDbEntity
  8
Ech.1_5
 62
   190
  6
CONTINUOUS
100
AcDbHatch
 10
0.0
 20
0.0
 30
0.0
210
0.0
220
0.0
230
1.0
  2
DOTS2
 70
     0
 71
     1
 91
        1
 92
        7
 72
     0
 73
     1
 93
        4
 10
35869.74562406
 20
-40208.33398267
 10
35856.74562406
 20
-40208.33398267
 10
35856.74562406
 20
-40721.7393111
 10
35869.74562406
 20
-40721.7393111
 97
        1
330
4E3
 75
     0
 76
     2
 52
0.0
 41
4.72440952
 77
     0
 78
     1
 53
0.0
 43
0.0
 44
0.0
 45
3.75
 46
3.535
 79
     2
 49
0.0
 49
-3.535
 47
0.775229
 98
        1
 10
0.0
 20
0.0
  0
LWPOLYLINE
  5
4E5
100
AcDbEntity
  8
Ech.1_5
 62
   190
  6
CONTINUOUS
370
    -3
100
AcDbPolyline
 90
        4
 70
     1
 43
0.0
 10
35636.74562406
 20
-40208.33398267
 10
35627.74562406
 20
-40208.33398267
 10
35627.74562406
 20
-40731.7393111
 10
35636.74562406
 20
-40731.7393111
  0
LWPOLYLINE
  5
4E6
102
{ACAD_REACTORS
330
4E7
102
}
100
AcDbEntity
  8
Ech.1_5
 62
     7
  6
CONTINUOUS
370
    -3
100
AcDbPolyline
 90
        4
 70
     1
 43
0.0
 10
35636.74562406
 20
-40208.33398267
 10
35627.74562406
 20
-40208.33398267
 10
35627.74562406
 20
-40731.7393111
 10
35636.74562406
 20
-40731.7393111
  0
HATCH
  5
4E7
100
AcDbEntity
  8
Ech.1_5
 62
   190
  6
CONTINUOUS
100
AcDbHatch
 10
0.0
 20
0.0
 30
0.0
210
0.0
220
0.0
230
1.0
  2
CDWK10A
 70
     0
 71
     1
 91
        1
 92
        7
 72
     0
 73
     1
 93
        4
 10
35636.74562406
 20
-40208.33398267
 10
35627.74562406
 20
-40208.33398267
 10
35627.74562406
 20
-40731.7393111
 10
35636.74562406
 20
-40731.7393111
 97
        1
330
4E6
 75
     0
 76
     2
 52
0.0
 41
1.0
 77
     0
 78
     3
 53
45.0
 43
0.0
 44
0.0
 45
0.0
 46
42.00000167
 79
     0
 53
45.0
 43
0.0
 44
10.80000043
 45
0.0
 46
42.00000167
 79
     0
 53
45.0
 43
0.0
 44
21.60000086
 45
0.0
 46
42.00000167
 79
     0
 47
0.775229
 98
        1
 10
0.0
 20
0.0
  0
LWPOLYLINE
  5
4E8
100
AcDbEntity
  8
Ech.1_5
 62
   190
  6
CONTINUOUS
370
    -3
100
AcDbPolyline
 90
        4
 70
     1
 43
0.0
 10
35636.74562406
 20
-40686.7393111
 10
35636.74562406
 20
-40731.7393111
 10
35816.74562406
 20
-40731.7393111
 10
35816.74562406
 20
-40686.7393111
  0
LWPOLYLINE
  5
4E9
100
AcDbEntity
  8
Ech.1_5
 62
   190
  6
CONTINUOUS
370
    -3
100
AcDbPolyline
 90
        4
 70
     1
 43
0.0
 10
35816.74562406
 20
-40731.7393111
 10
35816.74562406
 20
-40686.7393111
 10
35636.74562406
 20
-40686.7393111
 10
35636.74562406
 20
-40731.7393111
  0
LWPOLYLINE
  5
4EA
100
AcDbEntity
  8
Ech.1_5
 62
     7
100
AcDbPolyline
 90
       27
 70
     0
 43
0.0
 10
35574.61900694
 20
-40468.65414993
 10
35574.74562406
 20
-40468.31967613
 10
35574.74562406
 20
-40440.93621204
 10
35581.74562406
 20
-40440.93621204
 10
35581.74562406
 20
-40449.93621204
 10
35587.74562406
 20
-40449.93621204
 10
35587.74562406
 20
-40422.93621204
 10
35583.74562406
 20
-40418.93621204
 10
35587.74562406
 20
-40414.93621204
 10
35587.74562406
 20
-40350.93621204
 10
35583.74562406
 20
-40346.93621204
 10
35587.74562406
 20
-40342.93621204
 10
35587.74562406
 20
-40307.93621204
 10
35580.74562406
 20
-40307.93621204
 10
35580.74562406
 20
-40301.93621204
 10
35578.24562406
 20
-40296.93621204
 10
35575.74562406
 20
-40301.93621204
 10
35575.74562406
 20
-40332.86514423
 10
35575.36502173
 20
-40334.77856139
 10
35569.21009016
 20
-40341.47174595
 10
35567.74562406
 20
-40345.00727985
 10
35567.74562406
 20
-40464.09402427
 10
35568.70594646
 20
-40465.72389291
 10
35573.44206732
 20
-40468.69524284
 10
35573.85406868
 20
-40468.93621204
 10
35574.16788617
 20
-40468.93621204
 10
35574.61900694
 20
-40468.65414993
  0
LWPOLYLINE
  5
4EB
100
AcDbEntity
  8
Ech.1_5
 62
   190
  6
CONTINUOUS
370
    -3
100
AcDbPolyline
 90
        4
 70
     1
 43
0.0
 10
35816.74562406
 20
-40721.7393111
 10
35856.74562406
 20
-40721.7393111
 10
35856.74562406
 20
-40676.7393111
 10
35816.74562406
 20
-40676.7393111
  0
LWPOLYLINE
  5
4EC
100
AcDbEntity
  8
Ech.1_5
 62
   190
370
    18
100
AcDbPolyline
 90
        4
 70
     0
 43
0.0
 10
35816.74562406
 20
-40676.7393111
 10
35856.74562406
 20
-40721.7393111
 10
35856.74562406
 20
-40676.7393111
 10
35816.74562406
 20
-40721.7393111
  0
LWPOLYLINE
  5
4ED
100
AcDbEntity
  8
Ech.1_5
 62
   190
  6
CONTINUOUS
 48
0.2
370
    70
100
AcDbPolyline
 90
        5
 70
     0
 43
0.0
 10
35168.64246342
 20
-40390.09482155
 10
35168.64246342
 20
-40580.09482155
 10
35588.36081239
 20
-40580.09482155
 10
35605.03734545
 20
-40580.09482155
 10
35605.03734545
 20
-40431.7393111
  0
LWPOLYLINE
  5
4EE
100
AcDbEntity
  8
Ech.1_5
 62
     5
100
AcDbPolyline
 90
        5
 70
     0
 43
0.0
 10
35816.74562406
 20
-40721.7393111
 10
35856.74562406
 20
-40721.7393111
 10
35856.74562406
 20
-40676.7393111
 10
35816.74562406
 20
-40676.7393111
 10
35816.74562406
 20
-40721.7393111
  0
LWPOLYLINE
  5
4EF
100
AcDbEntity
  8
Ech.1_5
 62
     5
  6
CONTINUOUS
370
    -3
100
AcDbPolyline
 90
        5
 70
     0
 43
0.0
 10
35636.74562406
 20
-40731.7393111
 10
35636.74562406
 20
-40686.7393111
 10
35816.74562406
 20
-40686.7393111
 10
35816.74562406
 20
-40731.7393111
 10
35636.74562406
 20
-40731.7393111
  0
LWPOLYLINE
  5
4F0
100
AcDbEntity
  8
Ech.1_5
 62
     9
  6
CONTINUOUS
370
    -3
100
AcDbPolyline
 90
        6
 70
     0
 43
0.0
 10
35903.54723768
 20
-40602.20127853
 10
35903.5487135
 20
-40787.30877796
 10
35921.52606191
 20
-40803.79428111
 10
35885.5703619
 20
-40789.6843411
 10
35903.5487135
 20
-40806.17069518
 10
35903.54789122
 20
-40924.83266172
  0
LWPOLYLINE
  5
4F1
100
AcDbEntity
  8
Ech.1_5
 62
   190
  6
CONTINUOUS
370
    -3
100
AcDbPolyline
 90
        4
 70
     1
 43
0.0
 10
35608.74562406
 20
-40731.7393111
 10
35627.74562406
 20
-40731.7393111
 10
35627.74562406
 20
-40420.09482155
 10
35608.74562406
 20
-40420.09482155
  0
LWPOLYLINE
  5
4F2
100
AcDbEntity
  8
Ech.1_5
 62
     4
370
    70
100
AcDbPolyline
 90
        3
 70
     0
 43
0.0
 10
35587.74562406
 20
-40404.70747477
 10
35619.03040322
 20
-40404.70802199
 10
35619.03040322
 20
-40366.46026115
  0
LWPOLYLINE
  5
4F3
100
AcDbEntity
  8
Ech.1_5
 62
   150
  6
CADWORK_22
370
    35
100
AcDbPolyline
 90
        4
 70
     0
 43
0.0
 38
2500.0
 10
35626.24562406
 20
-40208.33398267
 10
35626.24562406
 20
-40329.64695622
 10
35622.4671932
 20
-40336.47063072
 10
35622.4671932
 20
-40399.39366697
  0
LWPOLYLINE
  5
4F4
102
{ACAD_REACTORS
330
4F5
102
}
100
AcDbEntity
  8
Ech.1_5
 62
     7
  6
CONTINUOUS
370
    -3
100
AcDbPolyline
 90
        4
 70
     1
 43
0.0
 10
35608.74562406
 20
-40731.7393111
 10
35627.74562406
 20
-40731.7393111
 10
35627.74562406
 20
-40420.09482155
 10
35608.74562406
 20
-40420.09482155
  0
HATCH
  5
4F5
100
AcDbEntity
  8
Ech.1_5
 62
   190
  6
CONTINUOUS
100
AcDbHatch
 10
0.0
 20
0.0
 30
0.0
210
0.0
220
0.0
230
1.0
  2
ANSI38
 70
     0
 71
     1
 91
        1
 92
        7
 72
     0
 73
     1
 93
        4
 10
35608.74562406
 20
-40731.7393111
 10
35627.74562406
 20
-40731.7393111
 10
35627.74562406
 20
-40420.09482155
 10
35608.74562406
 20
-40420.09482155
 97
        1
330
4F4
 75
     0
 76
     2
 52
0.0
 41
1.0
 77
     0
 78
     2
 53
45.0
 43
0.0
 44
0.0
 45
-8.48528171
 46
8.48528171
 79
     2
 49
960.00003815
 49
0.0
 53
135.0
 43
0.0
 44
0.0
 45
-25.45584513
 46
8.48528171
 79
     2
 49
30.00000119
 49
-18.00000072
 47
0.775229
 98
        1
 10
0.0
 20
0.0
  0
LWPOLYLINE
  5
4F6
100
AcDbEntity
  8
Ech.1_5
 62
   190
  6
CONTINUOUS
370
    -3
100
AcDbPolyline
 90
        6
 70
     0
 43
0.0
 10
35539.10143975
 20
-40208.33398267
 10
35743.82413396
 20
-40208.33398267
 10
35760.30963712
 20
-40190.35663426
 10
35746.1996971
 20
-40226.31233427
 10
35762.68605118
 20
-40208.33398267
 10
35889.74562406
 20
-40208.33398267
  0
LWPOLYLINE
  5
4F7
100
AcDbEntity
  8
Ech.1_5
 62
   177
  6
CONTINUOUS
370
    70
100
AcDbPolyline
 90
        5
 70
     0
 43
0.0
 10
35601.06074699
 20
-40466.65667052
 10
35597.64466416
 20
-40471.7393111
 10
35597.64466416
 20
-40418.93621204
 10
35626.005055
 20
-40411.65829917
 10
35626.005055
 20
-40338.5421938
  0
LWPOLYLINE
  5
4F8
100
AcDbEntity
  8
Ech.1_5
 62
    31
  6
CONTINUOUS
370
    -3
100
AcDbPolyline
 90
        4
 70
     1
 43
0.0
 10
35608.74564596
 20
-40581.7393111
 10
35168.64246342
 20
-40581.7393111
 10
35168.64246342
 20
-40731.7393111
 10
35608.74601963
 20
-40731.7393111
  0
LWPOLYLINE
  5
4F9
100
AcDbEntity
  8
Ech.1_5
 62
   190
  6
CONTINUOUS
370
    -3
100
AcDbPolyline
 90
       50
 70
     0
 43
0.0
 10
35168.64246342
 20
-40726.60860359
 42
0.71570754
 10
35207.96331804
 20
-40700.2688204
 10
35184.66703453
 20
-40613.2098018
 42
-1.3030009
 10
35232.96547676
 20
-40613.20173459
 42
1.3027756
 10
35184.66487581
 20
-40613.20173459
 42
-1.30300084
 10
35232.96331804
 20
-40613.2098018
 10
35209.66703453
 20
-40700.2688204
 42
1.30322619
 10
35257.96331804
 20
-40700.2688204
 10
35234.66703453
 20
-40613.2098018
 42
-1.3030009
 10
35282.96547676
 20
-40613.20173459
 42
1.3027756
 10
35234.66487581
 20
-40613.20173459
 42
-1.30300084
 10
35282.96331804
 20
-40613.2098018
 10
35259.66703453
 20
-40700.2688204
 42
1.30322619
 10
35307.96331804
 20
-40700.2688204
 10
35284.66703453
 20
-40613.2098018
 42
-1.3030009
 10
35332.96547676
 20
-40613.20173459
 42
1.3027756
 10
35284.66487581
 20
-40613.20173459
 42
-1.30300084
 10
35332.96331804
 20
-40613.2098018
 10
35309.66703453
 20
-40700.2688204
 42
1.30322619
 10
35357.96331804
 20
-40700.2688204
 10
35334.66703453
 20
-40613.2098018
 42
-1.3030009
 10
35382.96547676
 20
-40613.20173459
 42
1.3027756
 10
35334.66487581
 20
-40613.20173459
 42
-1.30300084
 10
35382.96331804
 20
-40613.2098018
 10
35359.66703453
 20
-40700.2688204
 42
1.30322619
 10
35407.96331804
 20
-40700.2688204
 10
35384.66703453
 20
-40613.2098018
 42
-1.3030009
 10
35432.96547676
 20
-40613.20173459
 42
1.3027756
 10
35384.66487581
 20
-40613.20173459
 42
-1.30300084
 10
35432.96331804
 20
-40613.2098018
 10
35409.66703453
 20
-40700.2688204
 42
1.30322619
 10
35457.96331804
 20
-40700.2688204
 10
35434.66703453
 20
-40613.2098018
 42
-1.3030009
 10
35482.96547676
 20
-40613.20173459
 42
1.3027756
 10
35434.66487581
 20
-40613.20173459
 42
-1.30300084
 10
35482.96331804
 20
-40613.2098018
 10
35459.66703453
 20
-40700.2688204
 42
1.30322619
 10
35507.96331804
 20
-40700.2688204
 10
35484.66703453
 20
-40613.2098018
 42
-1.3030009
 10
35532.96547676
 20
-40613.20173459
 42
1.3027756
 10
35484.66487581
 20
-40613.20173459
 42
-1.30300084
 10
35532.96331804
 20
-40613.2098018
 10
35509.66703453
 20
-40700.2688204
 42
1.30322619
 10
35557.96331804
 20
-40700.2688204
 10
35534.66703453
 20
-40613.2098018
 42
-1.3030009
 10
35582.96547676
 20
-40613.20173459
 42
1.3027756
 10
35534.66487581
 20
-40613.20173459
 42
-1.30300084
 10
35582.96331804
 20
-40613.2098018
 10
35559.66703453
 20
-40700.2688204
 42
1.09838216
 10
35608.74601963
 20
-40708.59754947
  0
LWPOLYLINE
  5
4FA
100
AcDbEntity
  8
Ech.1_5
 62
    36
  6
CONTINUOUS
370
    70
100
AcDbPolyline
 90
        3
 70
     0
 43
0.0
 38
2500.0
 10
35606.74562406
 20
-40581.7393111
 10
35606.74562406
 20
-40731.7393111
 10
35528.9331286
 20
-40731.7393111
  0
LWPOLYLINE
  5
4FB
102
{ACAD_REACTORS
330
4FC
102
}
100
AcDbEntity
  8
Ech.1_5
 62
   190
  6
CONTINUOUS
370
    -3
100
AcDbPolyline
 90
       13
 70
     1
 43
0.0
 10
35086.35175392
 20
-40372.50142749
 10
34950.00838636
 20
-40367.24108309
 10
34950.00838636
 20
-40433.32262865
 10
34957.53764846
 20
-40428.42767312
 10
34958.64246341
 20
-40430.09482155
 10
34948.49406165
 20
-40436.72547417
 10
34948.49406165
 20
-40365.18683444
 10
35191.38502291
 20
-40372.21052017
 10
35191.38502291
 20
-40439.88774734
 10
35178.64246342
 20
-40430.09482155
 10
35179.86117778
 20
-40428.50902986
 10
35189.73072678
 20
-40436.09398648
 10
35189.73072678
 20
-40374.15382178
  0
HATCH
  5
4FC
100
AcDbEntity
  8
Ech.1_5
 62
   177
  6
CONTINUOUS
100
AcDbHatch
 10
0.0
 20
0.0
 30
0.0
210
0.0
220
0.0
230
1.0
  2
SOLID
 70
     1
 71
     1
 91
        1
 92
        7
 72
     0
 73
     1
 93
       13
 10
35086.35175392
 20
-40372.50142749
 10
34950.00838636
 20
-40367.24108309
 10
34950.00838636
 20
-40433.32262865
 10
34957.53764846
 20
-40428.42767312
 10
34958.64246341
 20
-40430.09482155
 10
34948.49406165
 20
-40436.72547417
 10
34948.49406165
 20
-40365.18683444
 10
35191.38502291
 20
-40372.21052017
 10
35191.38502291
 20
-40439.88774734
 10
35178.64246342
 20
-40430.09482155
 10
35179.86117778
 20
-40428.50902986
 10
35189.73072678
 20
-40436.09398648
 10
35189.73072678
 20
-40374.15382178
 97
        1
330
4FB
 75
     0
 76
     2
 47
0.775229
 98
        1
 10
0.0
 20
0.0
  0
LWPOLYLINE
  5
4FD
100
AcDbEntity
  8
Ech.1_5
 62
   190
  6
CONTINUOUS
370
    20
100
AcDbPolyline
 90
       30
 70
     0
 43
0.0
 10
35666.74562406
 20
-40208.33398267
 42
1.14028181
 10
35674.5102129
 20
-40267.31175277
 10
35778.98103523
 20
-40239.35621256
 42
-1.30322619
 10
35778.98103523
 20
-40297.31175277
 10
35674.5102129
 20
-40269.35621256
 42
1.30322619
 10
35674.5102129
 20
-40327.31175277
 10
35778.98103523
 20
-40299.35621256
 42
-1.30322619
 10
35778.98103523
 20
-40357.31175277
 10
35674.5102129
 20
-40329.35621256
 42
1.30322619
 10
35674.5102129
 20
-40387.31175277
 10
35778.98103523
 20
-40359.35621256
 42
-1.30322619
 10
35778.98103523
 20
-40417.31175277
 10
35674.5102129
 20
-40389.35621256
 42
1.30322619
 10
35674.5102129
 20
-40447.31175277
 10
35778.98103523
 20
-40419.35621256
 42
-1.30322619
 10
35778.98103523
 20
-40477.31175277
 10
35674.5102129
 20
-40449.35621256
 42
1.30322619
 10
35674.5102129
 20
-40507.31175277
 10
35778.98103523
 20
-40479.35621256
 42
-1.30322619
 10
35778.98103523
 20
-40537.31175277
 10
35674.5102129
 20
-40509.35621256
 42
1.30322619
 10
35674.5102129
 20
-40567.31175277
 10
35778.98103523
 20
-40539.35621256
 42
-1.30322619
 10
35778.98103523
 20
-40597.31175277
 10
35674.5102129
 20
-40569.35621256
 42
1.30322619
 10
35674.5102129
 20
-40627.31175277
 10
35778.98103523
 20
-40599.35621256
 42
-1.30322619
 10
35778.98103523
 20
-40657.31175277
 10
35674.5102129
 20
-40629.35621256
 42
0.96767013
 10
35657.0948564
 20
-40686.7393111
  0
LWPOLYLINE
  5
4FE
100
AcDbEntity
  8
Ech.1_5
 62
   190
  6
CONTINUOUS
370
    20
100
AcDbPolyline
 90
      144
 70
     0
 43
0.0
 10
35850.3289574
 20
-40676.7393111
 42
1.14028181
 10
35848.66819812
 20
-40664.12462139
 10
35826.32305001
 20
-40670.10400082
 42
-1.30322619
 10
35826.32305001
 20
-40657.70795472
 10
35848.66819812
 20
-40663.68733415
 42
1.30322619
 10
35848.66819812
 20
-40651.29128805
 10
35826.32305001
 20
-40657.27066749
 42
-1.30322619
 10
35826.32305001
 20
-40644.87462139
 10
35848.66819812
 20
-40650.85400082
 42
1.30322619
 10
35848.66819812
 20
-40638.45795472
 10
35826.32305001
 20
-40644.43733415
 42
-1.30322619
 10
35826.32305001
 20
-40632.04128805
 10
35848.66819812
 20
-40638.02066749
 42
1.30322619
 10
35848.66819812
 20
-40625.62462139
 10
35826.32305001
 20
-40631.60400082
 42
-1.30322619
 10
35826.32305001
 20
-40619.20795472
 10
35848.66819812
 20
-40625.18733415
 42
1.30322619
 10
35848.66819812
 20
-40612.79128805
 10
35826.32305001
 20
-40618.77066749
 42
-1.30322619
 10
35826.32305001
 20
-40606.37462139
 10
35848.66819812
 20
-40612.35400082
 42
1.30322619
 10
35848.66819812
 20
-40599.95795472
 10
35826.32305001
 20
-40605.93733415
 42
-1.30322619
 10
35826.32305001
 20
-40593.54128805
 10
35848.66819812
 20
-40599.52066749
 42
1.30322619
 10
35848.66819812
 20
-40587.12462139
 10
35826.32305001
 20
-40593.10400082
 42
-1.30322619
 10
35826.32305001
 20
-40580.70795472
 10
35848.66819812
 20
-40586.68733415
 42
1.30322619
 10
35848.66819812
 20
-40574.29128805
 10
35826.32305001
 20
-40580.27066749
 42
-1.30322619
 10
35826.32305001
 20
-40567.87462139
 10
35848.66819812
 20
-40573.85400082
 42
1.30322619
 10
35848.66819812
 20
-40561.45795472
 10
35826.32305001
 20
-40567.43733415
 42
-1.30322619
 10
35826.32305001
 20
-40555.04128805
 10
35848.66819812
 20
-40561.02066749
 42
1.30322619
 10
35848.66819812
 20
-40548.62462139
 10
35826.32305001
 20
-40554.60400082
 42
-1.30322619
 10
35826.32305001
 20
-40542.20795472
 10
35848.66819812
 20
-40548.18733415
 42
1.30322619
 10
35848.66819812
 20
-40535.79128805
 10
35826.32305001
 20
-40541.77066749
 42
-1.30322619
 10
35826.32305001
 20
-40529.37462139
 10
35848.66819812
 20
-40535.35400082
 42
1.30322619
 10
35848.66819812
 20
-40522.95795472
 10
35826.32305001
 20
-40528.93733415
 42
-1.30322619
 10
35826.32305001
 20
-40516.54128805
 10
35848.66819812
 20
-40522.52066749
 42
1.30322619
 10
35848.66819812
 20
-40510.12462139
 10
35826.32305001
 20
-40516.10400082
 42
-1.30322619
 10
35826.32305001
 20
-40503.70795472
 10
35848.66819812
 20
-40509.68733415
 42
1.30322619
 10
35848.66819812
 20
-40497.29128805
 10
35826.32305001
 20
-40503.27066749
 42
-1.30322619
 10
35826.32305001
 20
-40490.87462139
 10
35848.66819812
 20
-40496.85400082
 42
1.30322619
 10
35848.66819812
 20
-40484.45795472
 10
35826.32305001
 20
-40490.43733415
 42
-1.30322619
 10
35826.32305001
 20
-40478.04128805
 10
35848.66819812
 20
-40484.02066749
 42
1.30322619
 10
35848.66819812
 20
-40471.62462139
 10
35826.32305001
 20
-40477.60400082
 42
-1.30322619
 10
35826.32305001
 20
-40465.20795472
 10
35848.66819812
 20
-40471.18733415
 42
1.30322619
 10
35848.66819812
 20
-40458.79128805
 10
35826.32305001
 20
-40464.77066749
 42
-1.30322619
 10
35826.32305001
 20
-40452.37462139
 10
35848.66819812
 20
-40458.35400082
 42
1.30322619
 10
35848.66819812
 20
-40445.95795472
 10
35826.32305001
 20
-40451.93733415
 42
-1.30322619
 10
35826.32305001
 20
-40439.54128805
 10
35848.66819812
 20
-40445.52066749
 42
1.30322619
 10
35848.66819812
 20
-40433.12462139
 10
35826.32305001
 20
-40439.10400082
 42
-1.30322619
 10
35826.32305001
 20
-40426.70795472
 10
35848.66819812
 20
-40432.68733415
 42
1.30322619
 10
35848.66819812
 20
-40420.29128805
 10
35826.32305001
 20
-40426.27066749
 42
-1.30322619
 10
35826.32305001
 20
-40413.87462139
 10
35848.66819812
 20
-40419.85400082
 42
1.30322619
 10
35848.66819812
 20
-40407.45795472
 10
35826.32305001
 20
-40413.43733415
 42
-1.30322619
 10
35826.32305001
 20
-40401.04128805
 10
35848.66819812
 20
-40407.02066749
 42
1.30322619
 10
35848.66819812
 20
-40394.62462139
 10
35826.32305001
 20
-40400.60400082
 42
-1.30322619
 10
35826.32305001
 20
-40388.20795472
 10
35848.66819812
 20
-40394.18733415
 42
1.30322619
 10
35848.66819812
 20
-40381.79128805
 10
35826.32305001
 20
-40387.77066749
 42
-1.30322619
 10
35826.32305001
 20
-40375.37462139
 10
35848.66819812
 20
-40381.35400082
 42
1.30322619
 10
35848.66819812
 20
-40368.95795472
 10
35826.32305001
 20
-40374.93733415
 42
-1.30322619
 10
35826.32305001
 20
-40362.54128805
 10
35848.66819812
 20
-40368.52066749
 42
1.30322619
 10
35848.66819812
 20
-40356.12462139
 10
35826.32305001
 20
-40362.10400082
 42
-1.30322619
 10
35826.32305001
 20
-40349.70795472
 10
35848.66819812
 20
-40355.68733415
 42
1.30322619
 10
35848.66819812
 20
-40343.29128805
 10
35826.32305001
 20
-40349.27066749
 42
-1.30322619
 10
35826.32305001
 20
-40336.87462139
 10
35848.66819812
 20
-40342.85400082
 42
1.30322619
 10
35848.66819812
 20
-40330.45795472
 10
35826.32305001
 20
-40336.43733415
 42
-1.30322619
 10
35826.32305001
 20
-40324.04128805
 10
35848.66819812
 20
-40330.02066749
 42
1.30322619
 10
35848.66819812
 20
-40317.62462139
 10
35826.32305001
 20
-40323.60400082
 42
-1.30322619
 10
35826.32305001
 20
-40311.20795472
 10
35848.66819812
 20
-40317.18733415
 42
1.30322619
 10
35848.66819812
 20
-40304.79128805
 10
35826.32305001
 20
-40310.77066749
 42
-1.30322619
 10
35826.32305001
 20
-40298.37462139
 10
35848.66819812
 20
-40304.35400082
 42
1.30322619
 10
35848.66819812
 20
-40291.95795472
 10
35826.32305001
 20
-40297.93733415
 42
-1.30322619
 10
35826.32305001
 20
-40285.54128805
 10
35848.66819812
 20
-40291.52066749
 42
1.30322619
 10
35848.66819812
 20
-40279.12462139
 10
35826.32305001
 20
-40285.10400082
 42
-1.30322619
 10
35826.32305001
 20
-40272.70795472
 10
35848.66819812
 20
-40278.68733415
 42
1.30322619
 10
35848.66819812
 20
-40266.29128805
 10
35826.32305001
 20
-40272.27066749
 42
-1.30322619
 10
35826.32305001
 20
-40259.87462139
 10
35848.66819812
 20
-40265.85400082
 42
1.30322619
 10
35848.66819812
 20
-40253.45795472
 10
35826.32305001
 20
-40259.43733415
 42
-1.30322619
 10
35826.32305001
 20
-40247.04128805
 10
35848.66819812
 20
-40253.02066749
 42
1.30322619
 10
35848.66819812
 20
-40240.62462139
 10
35826.32305001
 20
-40246.60400082
 42
-1.30322619
 10
35826.32305001
 20
-40234.20795472
 10
35848.66819812
 20
-40240.18733415
 42
1.30322619
 10
35848.66819812
 20
-40227.79128805
 10
35826.32305001
 20
-40233.77066749
 42
-1.30322619
 10
35826.32305001
 20
-40221.37462139
 10
35848.66819812
 20
-40227.35400082
 42
1.30322619
 10
35848.66819812
 20
-40214.95795472
 10
35826.32305001
 20
-40220.93733415
 42
-1.10665832
 10
35824.28100509
 20
-40208.33398267
  0
LWPOLYLINE
  5
4FF
100
AcDbEntity
  8
Ech.1_5
 62
   190
  6
CONTINUOUS
370
    -3
100
AcDbPolyline
 90
        4
 70
     1
 43
0.0
 10
35816.74562406
 20
-40401.44234836
 10
35856.74562406
 20
-40401.44234836
 10
35856.74562406
 20
-40356.44234836
 10
35816.74562406
 20
-40356.44234836
  0
LWPOLYLINE
  5
500
100
AcDbEntity
  8
Ech.1_5
 62
   190
370
    18
100
AcDbPolyline
 90
        4
 70
     0
 43
0.0
 10
35816.74562406
 20
-40356.44234836
 10
35856.74562406
 20
-40401.44234836
 10
35856.74562406
 20
-40356.44234836
 10
35816.74562406
 20
-40401.44234836
  0
LWPOLYLINE
  5
501
100
AcDbEntity
  8
Ech.1_5
 62
     5
100
AcDbPolyline
 90
        5
 70
     0
 43
0.0
 10
35816.74562406
 20
-40401.44234836
 10
35856.74562406
 20
-40401.44234836
 10
35856.74562406
 20
-40356.44234836
 10
35816.74562406
 20
-40356.44234836
 10
35816.74562406
 20
-40401.44234836
  0
LWPOLYLINE
  5
502
102
{ACAD_REACTORS
330
503
102
}
100
AcDbEntity
  8
Ech.1_5
 62
    36
  6
CONTINUOUS
370
    -3
100
AcDbPolyline
 90
        4
 70
     1
 43
0.0
 10
35816.74562406
 20
-40861.7393111
 10
35816.74562406
 20
-41066.84644741
 10
35636.74562406
 20
-41066.84644741
 10
35636.74562406
 20
-40861.7393111
  0
HATCH
  5
503
100
AcDbEntity
  8
Ech.1_5
 62
    38
  6
CONTINUOUS
100
AcDbHatch
 10
0.0
 20
0.0
 30
0.0
210
0.0
220
0.0
230
1.0
  2
ANSI37
 70
     0
 71
     1
 91
        1
 92
        7
 72
     0
 73
     1
 93
        4
 10
35816.74562406
 20
-40861.7393111
 10
35816.74562406
 20
-41066.84644741
 10
35636.74562406
 20
-41066.84644741
 10
35636.74562406
 20
-40861.7393111
 97
        1
330
502
 75
     0
 76
     2
 52
0.0
 41
3.14960635
 77
     0
 78
     2
 53
45.0
 43
0.0
 44
0.0
 45
7.07106781
 46
-7.07106781
 79
     0
 53
-45.0
 43
0.0
 44
0.0
 45
7.07106781
 46
7.07106781
 79
     0
 47
0.775229
 98
        1
 10
0.0
 20
0.0
  0
LWPOLYLINE
  5
504
100
AcDbEntity
  8
Ech.1_5
 62
   190
  6
CONTINUOUS
370
    -3
100
AcDbPolyline
 90
        9
 70
     0
 43
0.0
 10
35178.64246342
 20
-40580.09482155
 10
35178.64246342
 20
-40575.09482155
 10
35238.64246342
 20
-40560.09482155
 10
35248.64246342
 20
-40520.09482155
 10
35308.64246342
 20
-40520.09482155
 10
35318.64246342
 20
-40560.09482155
 10
35378.64246342
 20
-40575.09482155
 10
35378.64246342
 20
-40580.09482155
 10
35178.64246342
 20
-40580.09482155
  0
LWPOLYLINE
  5
505
100
AcDbEntity
  8
Ech.1_5
 62
   190
  6
CONTINUOUS
370
    -3
100
AcDbPolyline
 90
        5
 70
     0
 43
0.0
 10
35178.64246342
 20
-40520.09482155
 10
35598.74562406
 20
-40520.09482155
 10
35598.74562406
 20
-40480.09482155
 10
35178.64246342
 20
-40480.09482155
 10
35178.64246342
 20
-40520.09482155
  0
LWPOLYLINE
  5
506
100
AcDbEntity
  8
Ech.1_5
 62
   190
  6
CONTINUOUS
370
    -3
100
AcDbPolyline
 90
        5
 70
     0
 43
0.0
 10
35173.64246342
 20
-40453.09482155
 10
35173.64246342
 20
-40480.09482155
 10
35313.64246342
 20
-40480.09482155
 10
35313.64246342
 20
-40453.09482155
 10
35173.64246342
 20
-40453.09482155
  0
LWPOLYLINE
  5
507
100
AcDbEntity
  8
Ech.1_5
 62
   190
  6
CONTINUOUS
370
    -3
100
AcDbPolyline
 90
        5
 70
     0
 43
0.0
 10
35458.64246342
 20
-40453.09482155
 10
35458.64246342
 20
-40480.09482155
 10
35318.64246342
 20
-40480.09482155
 10
35318.64246342
 20
-40453.09482155
 10
35458.64246342
 20
-40453.09482155
  0
LWPOLYLINE
  5
508
100
AcDbEntity
  8
Ech.1_5
 62
   190
  6
CONTINUOUS
370
    -3
100
AcDbPolyline
 90
        5
 70
     0
 43
0.0
 10
35603.64246342
 20
-40453.09482155
 10
35603.64246342
 20
-40480.09482155
 10
35463.64246342
 20
-40480.09482155
 10
35463.64246342
 20
-40453.09482155
 10
35603.64246342
 20
-40453.09482155
  0
LWPOLYLINE
  5
509
100
AcDbEntity
  8
Ech.1_5
 62
   190
  6
CONTINUOUS
370
    -3
100
AcDbPolyline
 90
        9
 70
     0
 43
0.0
 10
35398.74562406
 20
-40580.09482155
 10
35398.74562406
 20
-40575.09482155
 10
35458.74562406
 20
-40560.09482155
 10
35468.74562406
 20
-40520.09482155
 10
35528.74562406
 20
-40520.09482155
 10
35538.74562406
 20
-40560.09482155
 10
35598.74562406
 20
-40575.09482155
 10
35598.74562406
 20
-40580.09482155
 10
35398.74562406
 20
-40580.09482155
  0
LWPOLYLINE
  5
50A
100
AcDbEntity
  8
Ech.1_5
 62
   190
  6
CONTINUOUS
370
    -3
100
AcDbPolyline
 90
       11
 70
     1
 43
0.0
 10
35263.91549564
 20
-41021.90677656
 10
35268.73449797
 20
-41023.24047463
 10
35355.29763362
 20
-40711.19029152
 10
35386.18725086
 20
-40734.37964981
 10
35360.18947339
 20
-40692.78898364
 10
35441.6128458
 20
-40398.58444095
 10
35436.79399131
 20
-40397.2507838
 10
35354.78409123
 20
-40693.57461232
 10
35367.71367448
 20
-40714.25907205
 10
35336.82418169
 20
-40691.06980717
 10
35349.75302506
 20
-40711.75317922
  0
LWPOLYLINE
  5
50B
100
AcDbEntity
  8
Ech.1_5
 62
     9
  6
CONTINUOUS
370
    -3
100
AcDbPolyline
 90
        6
 70
     0
 43
0.0
 10
34940.42664408
 20
-40997.82263493
 10
35056.01661521
 20
-40997.82263493
 10
35072.50211836
 20
-40979.8452866
 10
35058.39217835
 20
-41015.80098652
 10
35074.87853243
 20
-40997.82263493
 10
35189.63471579
 20
-40997.82263493
  0
LWPOLYLINE
  5
50C
100
AcDbEntity
  8
Ech.1_5
 62
    36
  6
CADWORK_22
 48
-5.0
370
    35
100
AcDbPolyline
 90
        4
 70
     0
 43
0.0
 10
35565.36716563
 20
-40725.16404766
 10
35531.16108171
 20
-40725.16404766
 10
35524.28367127
 20
-40730.82667419
 10
35349.85047497
 20
-40730.82667419
  0
LWPOLYLINE
  5
50D
100
AcDbEntity
  8
Ech.1_5
 62
    36
  6
CONTINUOUS
370
    70
100
AcDbPolyline
 90
        3
 70
     0
 43
0.0
 38
2500.0
 10
35169.99049629
 20
-40581.7393111
 10
35169.99049629
 20
-40731.7393111
 10
35247.80299176
 20
-40731.7393111
  0
LWPOLYLINE
  5
50E
100
AcDbEntity
  8
Ech.1_5
 62
    36
  6
CADWORK_22
 48
-5.0
370
    35
100
AcDbPolyline
 90
        4
 70
     0
 43
0.0
 10
35211.36895472
 20
-40725.16404766
 10
35245.57503865
 20
-40725.16404766
 10
35252.45244908
 20
-40730.82667419
 10
35340.50837727
 20
-40730.82667419
  0
LWPOLYLINE
  5
50F
100
AcDbEntity
  8
Ech.1_5
 62
   190
  6
CONTINUOUS
370
    -3
100
AcDbPolyline
 90
        4
 70
     1
 43
0.0
 10
35636.74562406
 20
-40641.7393111
 10
35636.74562406
 20
-40686.7393111
 10
35816.74562406
 20
-40686.7393111
 10
35816.74562406
 20
-40641.7393111
  0
LWPOLYLINE
  5
510
100
AcDbEntity
  8
Ech.1_5
 62
   190
  6
CONTINUOUS
370
    -3
100
AcDbPolyline
 90
        4
 70
     1
 43
0.0
 10
35816.74562406
 20
-40686.7393111
 10
35816.74562406
 20
-40641.7393111
 10
35636.74562406
 20
-40641.7393111
 10
35636.74562406
 20
-40686.7393111
  0
LWPOLYLINE
  5
511
100
AcDbEntity
  8
Ech.1_5
 62
     5
  6
CONTINUOUS
370
    -3
100
AcDbPolyline
 90
        5
 70
     0
 43
0.0
 10
35636.74562406
 20
-40686.7393111
 10
35636.74562406
 20
-40641.7393111
 10
35816.74562406
 20
-40641.7393111
 10
35816.74562406
 20
-40686.7393111
 10
35636.74562406
 20
-40686.7393111
  0
LWPOLYLINE
  5
512
100
AcDbEntity
  8
Ech.1_5
 62
   204
  6
DASHDOT
370
    70
100
AcDbPolyline
 90
        4
 70
     0
 43
0.0
 38
2500.0
 10
35641.02716404
 20
-40734.1390822
 10
35628.95363195
 20
-40734.1390822
 10
35797.18982774
 20
-40734.1390822
 10
35833.79261051
 20
-40734.1390822
  0
LWPOLYLINE
  5
513
100
AcDbEntity
  8
Ech.1_5
 62
     7
  6
BYBLOCK
100
AcDbPolyline
 90
        5
 70
     0
 43
0.0
 10
35753.08615834
 20
-40740.63297615
 10
35778.91068942
 20
-40740.63297615
 10
35778.91068942
 20
-40731.20031608
 10
35753.08615834
 20
-40731.20031608
 10
35753.08615834
 20
-40740.63297615
  0
LWPOLYLINE
  5
514
102
{ACAD_REACTORS
330
515
102
}
100
AcDbEntity
  8
Ech.1_5
 62
     7
  6
CONTINUOUS
370
     5
100
AcDbPolyline
 90
        4
 70
     1
 43
0.0
 10
35678.02424258
 20
-40740.63297615
 10
35703.84877366
 20
-40740.63297615
 10
35703.84877366
 20
-40731.20031608
 10
35678.02424258
 20
-40731.20031608
  0
HATCH
  5
515
100
AcDbEntity
  8
Ech.1_5
 62
     2
  6
CONTINUOUS
100
AcDbHatch
 10
0.0
 20
0.0
 30
0.0
210
0.0
220
0.0
230
1.0
  2
SOLID
 70
     1
 71
     1
 91
        1
 92
        7
 72
     0
 73
     1
 93
        4
 10
35678.02424258
 20
-40740.63297615
 10
35703.84877366
 20
-40740.63297615
 10
35703.84877366
 20
-40731.20031608
 10
35678.02424258
 20
-40731.20031608
 97
        1
330
514
 75
     0
 76
     2
 47
0.775229
 98
        1
 10
0.0
 20
0.0
  0
HATCH
  5
516
100
AcDbEntity
  8
Ech.1_5
 62
     7
100
AcDbHatch
 10
0.0
 20
0.0
 30
0.0
210
0.0
220
0.0
230
1.0
  2
ANSI37
 70
     0
 71
     0
 91
        1
 92
        7
 72
     0
 73
     1
 93
        4
 10
35678.02424258
 20
-40740.63297615
 10
35703.84877366
 20
-40740.63297615
 10
35703.84877366
 20
-40731.20031608
 10
35678.02424258
 20
-40731.20031608
 97
        0
 75
     0
 76
     2
 52
0.0
 41
1.87498831
 77
     0
 78
     2
 53
45.0
 43
0.0
 44
0.0
 45
4.20946876
 46
-4.20946876
 79
     0
 53
-45.0
 43
0.0
 44
0.0
 45
4.20946876
 46
4.20946876
 79
     0
 47
0.775229
 98
        1
 10
0.0
 20
0.0
  0
LWPOLYLINE
  5
517
102
{ACAD_REACTORS
330
518
102
}
100
AcDbEntity
  8
Ech.1_5
 62
     7
  6
CONTINUOUS
370
     5
100
AcDbPolyline
 90
        4
 70
     1
 43
0.0
 10
35753.08615834
 20
-40740.63297615
 10
35778.91068942
 20
-40740.63297615
 10
35778.91068942
 20
-40731.20031608
 10
35753.08615834
 20
-40731.20031608
  0
HATCH
  5
518
100
AcDbEntity
  8
Ech.1_5
 62
     2
  6
CONTINUOUS
100
AcDbHatch
 10
0.0
 20
0.0
 30
0.0
210
0.0
220
0.0
230
1.0
  2
SOLID
 70
     1
 71
     1
 91
        1
 92
        7
 72
     0
 73
     1
 93
        4
 10
35753.08615834
 20
-40740.63297615
 10
35778.91068942
 20
-40740.63297615
 10
35778.91068942
 20
-40731.20031608
 10
35753.08615834
 20
-40731.20031608
 97
        1
330
517
 75
     0
 76
     2
 47
0.775229
 98
        1
 10
0.0
 20
0.0
  0
HATCH
  5
519
100
AcDbEntity
  8
Ech.1_5
 62
     7
100
AcDbHatch
 10
0.0
 20
0.0
 30
0.0
210
0.0
220
0.0
230
1.0
  2
ANSI37
 70
     0
 71
     0
 91
        1
 92
        7
 72
     0
 73
     1
 93
        4
 10
35753.08615834
 20
-40740.63297615
 10
35778.91068942
 20
-40740.63297615
 10
35778.91068942
 20
-40731.20031608
 10
35753.08615834
 20
-40731.20031608
 97
        0
 75
     0
 76
     2
 52
0.0
 41
1.87498831
 77
     0
 78
     2
 53
45.0
 43
0.0
 44
0.0
 45
4.20946876
 46
-4.20946876
 79
     0
 53
-45.0
 43
0.0
 44
0.0
 45
4.20946876
 46
4.20946876
 79
     0
 47
0.775229
 98
        1
 10
0.0
 20
0.0
  0
CIRCLE
  5
51A
100
AcDbEntity
  8
Ech.1_5
 62
     7
  6
CONTINUOUS
100
AcDbCircle
 10
35842.20216191
 20
-40729.0985166
 30
0.0
 40
6.16444121
  0
LWPOLYLINE
  5
51B
100
AcDbEntity
  8
Ech.1_5
 62
     1
  6
CADWORK_22
 48
-5.0
370
    35
100
AcDbPolyline
 90
        6
 70
     0
 43
0.0
 10
35816.74562406
 20
-40208.33398267
 10
35816.74562406
 20
-40731.7393111
 10
35833.99439958
 20
-40731.7393111
 10
35842.20216191
 20
-40723.63911791
 10
35848.78151932
 20
-40731.73913202
 10
35875.44067119
 20
-40731.73913202
  0
LWPOLYLINE
  5
51C
100
AcDbEntity
  8
Ech.1_5
100
AcDbPolyline
 90
        6
 70
     0
 43
0.0
 10
35869.74703925
 20
-40666.07446654
 10
35872.74562405
 20
-40666.07453546
 42
-0.41421356
 10
35882.74562405
 20
-40676.07453546
 10
35882.74562405
 20
-40731.73930877
 10
35869.74562406
 20
-40731.7393111
 10
35869.74562406
 20
-40666.07453779
  0
LWPOLYLINE
  5
51D
102
{ACAD_REACTORS
330
51E
102
}
100
AcDbEntity
  8
Ech.1_5
 62
     7
  6
CONTINUOUS
370
    -3
100
AcDbPolyline
 90
       14
 70
     1
 43
0.0
 10
35072.6424636
 20
-40112.57182542
 10
35072.6424636
 20
-40331.53952465
 10
35201.42670055
 20
-40331.53952465
 10
35201.42670055
 20
-40446.2772085
 10
35168.64246342
 20
-40446.2772085
 10
35168.64246342
 20
-40380.09482155
 10
35068.64246341
 20
-40380.09482155
 10
35068.64246341
 20
-40376.09482155
 10
35172.6424636
 20
-40376.09482155
 10
35172.6424636
 20
-40442.2772085
 10
35197.42670036
 20
-40442.2772085
 10
35197.42670036
 20
-40335.53952465
 10
35068.64246341
 20
-40335.53952465
 10
35068.64246341
 20
-40112.57182542
  0
HATCH
  5
51E
100
AcDbEntity
  8
Ech.1_5
 62
     7
  6
CONTINUOUS
100
AcDbHatch
 10
0.0
 20
0.0
 30
0.0
210
0.0
220
0.0
230
1.0
  2
SOLID
 70
     1
 71
     1
 91
        1
 92
        7
 72
     0
 73
     1
 93
       14
 10
35072.6424636
 20
-40112.57182542
 10
35072.6424636
 20
-40331.53952465
 10
35201.42670055
 20
-40331.53952465
 10
35201.42670055
 20
-40446.2772085
 10
35168.64246342
 20
-40446.2772085
 10
35168.64246342
 20
-40380.09482155
 10
35068.64246341
 20
-40380.09482155
 10
35068.64246341
 20
-40376.09482155
 10
35172.6424636
 20
-40376.09482155
 10
35172.6424636
 20
-40442.2772085
 10
35197.42670036
 20
-40442.2772085
 10
35197.42670036
 20
-40335.53952465
 10
35068.64246341
 20
-40335.53952465
 10
35068.64246341
 20
-40112.57182542
 97
        1
330
51D
 75
     0
 76
     2
 47
0.775229
 98
        1
 10
0.0
 20
0.0
  0
LWPOLYLINE
  5
51F
100
AcDbEntity
  8
Ech.1_5
 62
     7
100
AcDbPolyline
 90
       16
 70
     0
 43
0.0
 10
35567.74562406
 20
-40208.33398267
 10
35567.74562406
 20
-40319.09402427
 10
35568.70594646
 20
-40320.72389291
 10
35573.44206732
 20
-40323.69524284
 10
35573.85406868
 20
-40323.93621204
 10
35574.16788617
 20
-40323.93621204
 10
35574.61900694
 20
-40323.65414993
 10
35574.74562406
 20
-40323.31967613
 10
35574.74562406
 20
-40295.93621204
 10
35581.74562406
 20
-40295.93621204
 10
35581.74562406
 20
-40304.93621204
 10
35587.74562406
 20
-40304.93621204
 10
35587.74562406
 20
-40277.93621204
 10
35583.74562406
 20
-40273.93621204
 10
35587.74562406
 20
-40269.93621204
 10
35587.74562406
 20
-40208.33398267
  0
LWPOLYLINE
  5
520
100
AcDbEntity
  8
Ech.1_5
 62
   190
  6
CONTINUOUS
370
    -3
100
AcDbPolyline
 90
       21
 70
     0
 43
0.0
 10
35583.0976261
 20
-40590.15636491
 10
35592.6785244
 20
-40588.76254528
 10
35602.0235092
 20
-40584.61540687
 10
35610.90247594
 20
-40577.81706598
 10
35619.096795
 20
-40568.53492034
 10
35626.40469504
 20
-40556.99752716
 10
35632.64623132
 20
-40543.48897537
 10
35637.6677165
 20
-40528.34189033
 10
35641.34550495
 20
-40511.92924356
 10
35643.5890373
 20
-40494.65516888
 10
35644.34307035
 20
-40476.94501135
 10
35643.5890373
 20
-40459.23485383
 10
35641.34550495
 20
-40441.96077915
 10
35637.6677165
 20
-40425.54813238
 10
35632.64623132
 20
-40410.40104734
 10
35626.40469504
 20
-40396.89249555
 10
35619.096795
 20
-40385.35510237
 10
35610.90247594
 20
-40376.07295673
 10
35602.0235092
 20
-40369.27461584
 10
35592.6785244
 20
-40365.12747743
 10
35583.0976261
 20
-40363.7336578
  0
LWPOLYLINE
  5
521
100
AcDbEntity
  8
Ech.1_5
 62
   190
  6
CONTINUOUS
370
    -3
100
AcDbPolyline
 90
       21
 70
     0
 43
0.0
 10
35583.0976261
 20
-40363.7336578
 10
35573.51672779
 20
-40365.12747743
 10
35564.17174299
 20
-40369.27461584
 10
35555.29277625
 20
-40376.07295673
 10
35547.09845719
 20
-40385.35510237
 10
35539.79055715
 20
-40396.89249555
 10
35533.54902087
 20
-40410.40104734
 10
35528.52753569
 20
-40425.54813238
 10
35524.84974725
 20
-40441.96077915
 10
35522.60621489
 20
-40459.23485383
 10
35521.85218184
 20
-40476.94501135
 10
35522.60621489
 20
-40494.65516888
 10
35524.84974725
 20
-40511.92924356
 10
35528.52753569
 20
-40528.34189033
 10
35533.54902087
 20
-40543.48897537
 10
35539.79055715
 20
-40556.99752716
 10
35547.09845719
 20
-40568.53492034
 10
35555.29277625
 20
-40577.81706598
 10
35564.17174299
 20
-40584.61540687
 10
35573.51672779
 20
-40588.76254528
 10
35583.0976261
 20
-40590.15636491
  0
LWPOLYLINE
  5
522
100
AcDbEntity
  8
Ech.1_5
 62
   190
100
AcDbPolyline
 90
        4
 70
     1
 43
0.0
 10
35762.26699934
 20
-41071.99102138
 10
35896.69577832
 20
-41071.99102138
 10
35896.69577832
 20
-41128.71398019
 10
35762.26699934
 20
-41128.71398019
  0
HATCH
  5
523
100
AcDbEntity
  8
Ech.1_5
 62
   190
100
AcDbHatch
 10
0.0
 20
0.0
 30
0.0
210
0.0
220
0.0
230
1.0
  2
SOLID
 70
     1
 71
     0
 91
        1
 92
        7
 72
     0
 73
     1
 93
        4
 10
35780.54704512
 20
-41105.64783251
 10
35830.54704512
 20
-41105.64783251
 10
35830.54704512
 20
-41098.23269498
 10
35780.54704512
 20
-41098.23269498
 97
        0
 75
     0
 76
     2
 47
0.775229
 98
        1
 10
0.0
 20
0.0
  0
LWPOLYLINE
  5
524
100
AcDbEntity
  8
Ech.1_5
 62
   190
100
AcDbPolyline
 90
        5
 70
     0
 43
0.0
 10
35780.54704512
 20
-41105.64783251
 10
35830.54704512
 20
-41105.64783251
 10
35830.54704512
 20
-41098.23269498
 10
35780.54704512
 20
-41098.23269498
 10
35780.54704512
 20
-41105.64783251
  0
LWPOLYLINE
  5
525
100
AcDbEntity
  8
Ech.1_5
 62
   190
100
AcDbPolyline
 90
        5
 70
     0
 43
0.0
 10
35830.54704512
 20
-41105.64783251
 10
35880.54704512
 20
-41105.64783251
 10
35880.54704512
 20
-41098.23269498
 10
35830.54704512
 20
-41098.23269498
 10
35830.54704512
 20
-41105.64783251
  0
TEXT
  5
526
100
AcDbEntity
  8
Ech.1_5
 62
   190
100
AcDbText
 10
35791.84133775
 20
-41088.6466919
 30
0.0
 40
8.00000012
  1
Echelle en mm
  7
ARIAL
 50
0.0
 41
1.0
 51
0.0
100
AcDbText
  0
TEXT
  5
527
100
AcDbEntity
  8
Ech.1_5
 62
   190
100
AcDbText
 10
35777.860753
 20
-41116.85652743
 30
0.0
 40
8.00000012
  1
0
  7
ARIAL
 50
0.0
 41
1.0
 51
0.0
100
AcDbText
  0
TEXT
  5
528
100
AcDbEntity
  8
Ech.1_5
 62
   190
100
AcDbText
 10
35864.45781089
 20
-41116.85652743
 30
0.0
 40
8.00000012
  1
100
  7
ARIAL
 50
0.0
 41
1.0
 51
0.0
100
AcDbText
  0
TEXT
  5
529
100
AcDbEntity
  8
Ech.1_5
 62
   190
100
AcDbText
 10
35825.71737932
 20
-41116.85652743
 30
0.0
 40
8.00000012
  1
50
  7
ARIAL
 50
0.0
 41
1.0
 51
0.0
100
AcDbText
  0
INSERT
  5
52A
100
AcDbEntity
  8
Ech.1_5
 62
     0
370
    -3
100
AcDbBlockReference
  2
*D1
 10
0.0
 20
0.0
 30
0.0
  0
INSERT
  5
52B
100
AcDbEntity
  8
Ech.1_5
 62
     0
370
    -3
100
AcDbBlockReference
  2
*D17
 10
0.0
 20
0.0
 30
0.0
  0
INSERT
  5
52C
100
AcDbEntity
  8
Ech.1_5
 62
     0
370
    -3
100
AcDbBlockReference
  2
*D18
 10
0.0
 20
0.0
 30
0.0
  0
ENDSEC
  0
SECTION
  2
OBJECTS
  0
DICTIONARY
  5
1
100
AcDbDictionary
  3
ACAD_GROUP
350
2
  3
ACAD_MLINESTYLE
350
3
  0
DICTIONARY
  5
2
102
{CDWK_REACTORS
330
1
102
}
100
AcDbDictionary
  0
DICTIONARY
  5
3
102
{CDWK_REACTORS
330
1
102
}
100
AcDbDictionary
  3
STANDARD
350
4
  0
MLINESTYLE
  5
4
102
{CDWK_REACTORS
330
3
102
}
100
AcDbMlineStyle
  2
STANDARD
 70
     0
  3

 62
     0
 51
90.0
 52
90.0
 71
     2
 49
0.5
 62
   256
  6
BYLAYER
 49
-0.5
 62
   256
  6
BYLAYER
  0
ENDSEC
  0
EOF
