  0
SECTION
  2
HEADER
  9
$ACADVER
  1
AC1014
  9
$DWGCODEPAGE
  3
ANSI_1252
  9
$INSBASE
 10
0.0
 20
0.0
 30
0.0
  9
$EXTMIN
 10
16597.69195778
 20
-68620.08872316
  9
$EXTMAX
 10
70954.1530979
 20
-11994.18003977
  9
$LIMMIN
 10
16597.69195778
 20
-68620.08872316
  9
$LIMMAX
 10
70954.1530979
 20
-11994.18003977
  9
$ORTHOMODE
 70
     0
  9
$REGENMODE
 70
     1
  9
$FILLMODE
 70
     1
  9
$QTEXTMODE
 70
     0
  9
$MIRRTEXT
 70
     1
  9
$DRAGMODE
 70
     2
  9
$LTSCALE
 40
10.0
  9
$OSMODE
 70
     0
  9
$ATTMODE
 70
     1
  9
$TEXTSIZE
 40
3.5
  9
$TRACEWID
 40
1.0
  9
$TEXTSTYLE
  7
STANDARD
  9
$CLAYER
  8
0
  9
$CELTYPE
  6
BYLAYER
  9
$CECOLOR
 62
   256
  9
$DIMSCALE
 40
1.0
  9
$DIMASZ
 40
2.0
  9
$DIMEXO
 40
5.0
  9
$DIMDLI
 40
10.0
  9
$DIMRND
 40
0.0
  9
$DIMDLE
 40
2.0
  9
$DIMEXE
 40
2.0
  9
$DIMTP
 40
0.0
  9
$DIMTM
 40
0.0
  9
$DIMTXT
 40
2.5
  9
$DIMCEN
 40
1.5
  9
$DIMTSZ
 40
0.0
  9
$DIMTOL
 70
     0
  9
$DIMLIM
 70
     0
  9
$DIMTIH
 70
     1
  9
$DIMTOH
 70
     0
  9
$DIMSE1
 70
     0
  9
$DIMSE2
 70
     0
  9
$DIMTAD
 70
     1
  9
$DIMZIN
 70
     8
  9
$DIMBLK
  1

  9
$DIMASO
 70
     1
  9
$DIMSHO
 70
     1
  9
$DIMPOST
  1

  9
$DIMAPOST
  1

  9
$DIMALT
 70
     0
  9
$DIMALTD
 70
     2
  9
$DIMALTF
 40
25.4
  9
$DIMLFAC
 40
1.0
  9
$DIMTOFL
 70
     0
  9
$DIMTVP
 40
0.0
  9
$DIMTIX
 70
     0
  9
$DIMSOXD
 70
     0
  9
$DIMSAH
 70
     0
  9
$DIMBLK1
  1

  9
$DIMBLK2
  1

  9
$DIMSTYLE
  2
*UNNAMED
  9
$DIMCLRD
 70
   190
  9
$DIMCLRE
 70
   190
  9
$DIMCLRT
 70
   190
  9
$DIMTFAC
 40
1.0
  9
$DIMGAP
 40
0.09
  9
$DIMUNIT
 70
     2
  9
$LUNITS
 70
     2
  9
$LUPREC
 70
     6
  9
$AXISMODE
 70
     0
  9
$AXISUNIT
 10
0.0
 20
0.0
  9
$SKETCHINC
 40
0.1
  9
$FILLETRAD
 40
0.0
  9
$AUNITS
 70
     0
  9
$AUPREC
 70
     0
  9
$MENU
  1
ACAD
  9
$ELEVATION
 40
0.0
  9
$PELEVATION
 40
0.0
  9
$THICKNESS
 40
0.0
  9
$LIMCHECK
 70
     0
  9
$BLIPMODE
 70
     1
  9
$CHAMFERA
 40
0.0
  9
$CHAMFERB
 40
0.0
  9
$SKPOLY
 70
     1
  9
$TDCREATE
 40
2457811.0000000000
  9
$TDUPDATE
 40
2457811.0000000000
  9
$TDINDWG
 40
0.0
  9
$TDUSRTIMER
 40
0.0
  9
$USRTIMER
 70
     1
  9
$ANGBASE
 50
0.0
  9
$ANGDIR
 70
     0
  9
$PDMODE
 70
     0
  9
$PDSIZE
 40
0.0
  9
$PLINEWID
 40
0.0
  9
$COORDS
 70
     2
  9
$SPLFRAME
 70
     0
  9
$SPLINETYPE
 70
     6
  9
$SPLINESEGS
 70
     8
  9
$ATTDIA
 70
     1
  9
$ATTREQ
 70
     1
  9
$HANDLING
 70
     1
  9
$HANDSEED
  5
     73B
  9
$SURFTAB1
 70
     6
  9
$SURFTAB2
 70
     6
  9
$SURFTYPE
 70
     6
  9
$SURFU
 70
     6
  9
$SURFV
 70
     6
  9
$UCSNAME
  2

  9
$UCSORG
 10
0.0
 20
0.0
 30
0.0
  9
$UCSXDIR
 10
1.0
 20
0.0
 30
0.0
  9
$UCSYDIR
 10
0.0
 20
1.0
 30
0.0
  9
$PUCSNAME
  2

  9
$PUCSORG
 10
0.0
 20
0.0
 30
0.0
  9
$PUCSXDIR
 10
1.0
 20
0.0
 30
0.0
  9
$PUCSYDIR
 10
0.0
 20
1.0
 30
0.0
  9
$USERI1
 70
     0
  9
$USERI2
 70
     0
  9
$USERI3
 70
     0
  9
$USERI4
 70
     0
  9
$USERI5
 70
     0
  9
$USERR1
 40
0.0
  9
$USERR2
 40
0.0
  9
$USERR3
 40
0.0
  9
$USERR4
 40
0.0
  9
$USERR5
 40
0.0
  9
$WORLDVIEW
 70
     1
  9
$SHADEDGE
 70
     3
  9
$SHADEDIF
 70
    70
  9
$TILEMODE
 70
     1
  9
$MAXACTVP
 70
    16
  9
$PINSBASE
 10
0.0
 20
0.0
 30
0.0
  9
$PLIMCHECK
 70
     0
  9
$PEXTMIN
 10
1.0000000000000E+20
 20
1.0000000000000E+20
 30
1.0000000000000E+20
  9
$PEXTMAX
 10
-1.0000000000000E+20
 20
-1.0000000000000E+20
 30
-1.0000000000000E+20
  9
$PLIMMIN
 10
0.0
 20
0.0
  9
$UNITMODE
 70
     0
  9
$VISRETAIN
 70
     0
  9
$MEASUREMENT
 70
     1
  0
ENDSEC
  0
SECTION
  2
TABLES
  0
TABLE
  2
VPORT
  5
36E
100
AcDbSymbolTable
 70
     1
  0
ENDTAB
  0
TABLE
  2
STYLE
  5
36F
100
AcDbSymbolTable
 70
     3
  0
STYLE
  5
370
100
AcDbSymbolTableRecord
100
AcDbTextStyleTableRecord
  2
STANDARD
 70
     0
 40
0.0
 41
1.0
 50
0.0
 71
     0
 42
3.5
  3
MONOTXT
  4

  0
STYLE
  5
371
100
AcDbSymbolTableRecord
100
AcDbTextStyleTableRecord
  2
SYMAP
 70
     0
 40
0.0
 41
1.0
 50
0.0
 71
     0
 42
3.5
  3
SYMAP
  4

  0
STYLE
  5
372
100
AcDbSymbolTableRecord
100
AcDbTextStyleTableRecord
  2
CADWORK1
 70
     0
 40
0.0
 41
1.0
 50
0.0
 71
     0
 42
3.5
  3
MONOTXT
  4

  0
STYLE
  5
373
100
AcDbSymbolTableRecord
100
AcDbTextStyleTableRecord
  2
MONOTXT
 70
     0
 40
0.0
 41
1.0
 50
0.0
 71
     0
 42
3.5
  3
MONOTXT
  4

  0
STYLE
  5
374
100
AcDbSymbolTableRecord
100
AcDbTextStyleTableRecord
  2
ARIAL
 70
     0
 40
0.0
 41
1.0
 50
0.0
 71
     0
 42
3.5
  3

  4

1001
ACAD
1000
Arial
1071
        0
  0
ENDTAB
  0
TABLE
  2
LTYPE
  5
375
100
AcDbSymbolTable
 70
    13
  0
LTYPE
  5
376
100
AcDbSymbolTableRecord
100
AcDbLinetypeTableRecord
  2
BYBLOCK
 70
    64
  3

 72
    65
 73
     0
 40
0.0
  0
LTYPE
  5
377
100
AcDbSymbolTableRecord
100
AcDbLinetypeTableRecord
  2
BYLAYER
 70
    64
  3

 72
    65
 73
     0
 40
0.0
  0
LTYPE
  5
378
100
AcDbSymbolTableRecord
100
AcDbLinetypeTableRecord
  2
CONTINUOUS
 70
    64
  3
Solid line
 72
    65
 73
     0
 40
0.0
  0
LTYPE
  5
379
100
AcDbSymbolTableRecord
100
AcDbLinetypeTableRecord
  2
DOT2
 70
    64
  3
...............................................
 72
    65
 73
     2
 40
1.25
 49
0.0
 74
     0
 49
-1.25
 74
     0
  0
LTYPE
  5
37A
100
AcDbSymbolTableRecord
100
AcDbLinetypeTableRecord
  2
DASHDOT
 70
    64
  3
 __ . __ . __ . __ . __ . __ . __ . __ . __ . __
 72
    65
 73
     4
 40
10.0
 49
5.0
 74
     0
 49
-2.5
 74
     0
 49
0.0
 74
     0
 49
-2.5
 74
     0
  0
LTYPE
  5
37B
100
AcDbSymbolTableRecord
100
AcDbLinetypeTableRecord
  2
CENTER
 70
    64
  3
 ____ _ ____ _ ____ _ ____ _ ____ _ ____ _ ____
 72
    65
 73
     4
 40
20.0
 49
12.5
 74
     0
 49
-2.5
 74
     0
 49
2.5
 74
     0
 49
-2.5
 74
     0
  0
LTYPE
  5
37C
100
AcDbSymbolTableRecord
100
AcDbLinetypeTableRecord
  2
CADWORK_22
 70
    64
  3
22 =======================================
 72
    65
 73
     0
 40
0.0
  0
LTYPE
  5
37D
100
AcDbSymbolTableRecord
100
AcDbLinetypeTableRecord
  2
DAL
 70
    64
  3
Solid line (for MAPS)
 72
    65
 73
     0
 40
0.0
  0
LTYPE
  5
37E
100
AcDbSymbolTableRecord
100
AcDbLinetypeTableRecord
  2
MUR
 70
    64
  3
Solid line (for MAPS)
 72
    65
 73
     0
 40
0.0
  0
LTYPE
  5
37F
100
AcDbSymbolTableRecord
100
AcDbLinetypeTableRecord
  2
SOM
 70
    64
  3
Solid line (for MAPS)
 72
    65
 73
     0
 40
0.0
  0
LTYPE
  5
380
100
AcDbSymbolTableRecord
100
AcDbLinetypeTableRecord
  2
COL
 70
    64
  3
Solid line (for MAPS)
 72
    65
 73
     0
 40
0.0
  0
LTYPE
  5
381
100
AcDbSymbolTableRecord
100
AcDbLinetypeTableRecord
  2
LGN
 70
    64
  3
Solid line (for MAPS)
 72
    65
 73
     0
 40
0.0
  0
LTYPE
  5
382
100
AcDbSymbolTableRecord
100
AcDbLinetypeTableRecord
  2
PNT
 70
    64
  3
Solid line (for MAPS)
 72
    65
 73
     0
 40
0.0
  0
ENDTAB
  0
TABLE
  2
LAYER
  5
383
100
AcDbSymbolTable
 70
    32
  0
LAYER
  5
384
100
AcDbSymbolTableRecord
100
AcDbLayerTableRecord
  2
Standard
 70
     0
 62
     7
  6
CONTINUOUS
370
    -3
  0
LAYER
  5
385
100
AcDbSymbolTableRecord
100
AcDbLayerTableRecord
  2
Ech.1_1
 70
     0
 62
     7
  6
CONTINUOUS
370
    -3
  0
LAYER
  5
386
100
AcDbSymbolTableRecord
100
AcDbLayerTableRecord
  2
Ech.1_2
 70
     0
 62
     7
  6
CONTINUOUS
370
    -3
  0
LAYER
  5
387
100
AcDbSymbolTableRecord
100
AcDbLayerTableRecord
  2
Ech.1_5
 70
     0
 62
     7
  6
CONTINUOUS
370
    -3
  0
LAYER
  5
388
100
AcDbSymbolTableRecord
100
AcDbLayerTableRecord
  2
Ech.1_10
 70
     0
 62
     7
  6
CONTINUOUS
370
    -3
  0
LAYER
  5
389
100
AcDbSymbolTableRecord
100
AcDbLayerTableRecord
  2
Ech.1_20
 70
     0
 62
     7
  6
CONTINUOUS
370
    -3
  0
LAYER
  5
38A
100
AcDbSymbolTableRecord
100
AcDbLayerTableRecord
  2
Ech.1_25
 70
     0
 62
     7
  6
CONTINUOUS
370
    -3
  0
LAYER
  5
38B
100
AcDbSymbolTableRecord
100
AcDbLayerTableRecord
  2
Ech.1_33
 70
     0
 62
     7
  6
CONTINUOUS
370
    -3
  0
LAYER
  5
38C
100
AcDbSymbolTableRecord
100
AcDbLayerTableRecord
  2
Ech.1_50
 70
     0
 62
     7
  6
CONTINUOUS
370
    -3
  0
LAYER
  5
38D
100
AcDbSymbolTableRecord
100
AcDbLayerTableRecord
  2
Ech.1_75
 70
     0
 62
     7
  6
CONTINUOUS
370
    -3
  0
LAYER
  5
38E
100
AcDbSymbolTableRecord
100
AcDbLayerTableRecord
  2
Ech.1_100
 70
     0
 62
     7
  6
CONTINUOUS
370
    -3
  0
LAYER
  5
38F
100
AcDbSymbolTableRecord
100
AcDbLayerTableRecord
  2
Ech.1_200
 70
     0
 62
     7
  6
CONTINUOUS
370
    -3
  0
LAYER
  5
390
100
AcDbSymbolTableRecord
100
AcDbLayerTableRecord
  2
Ech.1_500
 70
     0
 62
     7
  6
CONTINUOUS
370
    -3
  0
LAYER
  5
391
100
AcDbSymbolTableRecord
100
AcDbLayerTableRecord
  2
Ech.1_1000
 70
     0
 62
     7
  6
CONTINUOUS
370
    -3
  0
LAYER
  5
392
100
AcDbSymbolTableRecord
100
AcDbLayerTableRecord
  2
Cadres traceur
 70
     0
 62
     7
  6
CONTINUOUS
370
    18
  0
LAYER
  5
393
100
AcDbSymbolTableRecord
100
AcDbLayerTableRecord
  2
Cadres laser
 70
     0
 62
     7
  6
CONTINUOUS
370
    18
  0
LAYER
  5
394
100
AcDbSymbolTableRecord
100
AcDbLayerTableRecord
  2
Légende d_aide
 70
     0
 62
     7
  6
CONTINUOUS
370
    18
  0
LAYER
  5
395
100
AcDbSymbolTableRecord
100
AcDbLayerTableRecord
  2
hachures ok
 70
     0
 62
     7
  6
CONTINUOUS
370
    18
  0
LAYER
  5
396
100
AcDbSymbolTableRecord
100
AcDbLayerTableRecord
  2
ossature bois
 70
     0
 62
     7
  6
CONTINUOUS
370
    18
  0
LAYER
  5
397
100
AcDbSymbolTableRecord
100
AcDbLayerTableRecord
  2
VR
 70
     0
 62
     7
  6
CONTINUOUS
370
    25
  0
LAYER
  5
398
100
AcDbSymbolTableRecord
100
AcDbLayerTableRecord
  2
Calque1
 70
     0
 62
     7
  6
CONTINUOUS
370
     9
  0
LAYER
  5
399
100
AcDbSymbolTableRecord
100
AcDbLayerTableRecord
  2
0
 70
     0
 62
     7
  6
CONTINUOUS
370
    -3
  0
LAYER
  5
39A
100
AcDbSymbolTableRecord
100
AcDbLayerTableRecord
  2
menuiserie
 70
     0
 62
     7
  6
CONTINUOUS
370
    -3
  0
LAYER
  5
39B
100
AcDbSymbolTableRecord
100
AcDbLayerTableRecord
  2
cotation
 70
     0
 62
   250
  6
CONTINUOUS
370
     9
  0
LAYER
  5
39C
100
AcDbSymbolTableRecord
100
AcDbLayerTableRecord
  2
Defpoints
 70
     0
 62
    10
  6
CONTINUOUS
370
    -3
  0
LAYER
  5
39D
100
AcDbSymbolTableRecord
100
AcDbLayerTableRecord
  2
HACHURE
 70
     0
 62
   254
  6
CONTINUOUS
370
    25
  0
LAYER
  5
39E
100
AcDbSymbolTableRecord
100
AcDbLayerTableRecord
  2
mat1
 70
     0
 62
     7
  6
CONTINUOUS
370
    30
  0
LAYER
  5
39F
100
AcDbSymbolTableRecord
100
AcDbLayerTableRecord
  2
mat2
 70
     0
 62
     7
  6
CONTINUOUS
370
     5
  0
LAYER
  5
3A0
100
AcDbSymbolTableRecord
100
AcDbLayerTableRecord
  2
hach
 70
     0
 62
     8
  6
CONTINUOUS
370
     5
  0
LAYER
  5
3A1
100
AcDbSymbolTableRecord
100
AcDbLayerTableRecord
  2
menuiseries
 70
     0
 62
     7
  6
CONTINUOUS
370
     9
  0
LAYER
  5
3A2
100
AcDbSymbolTableRecord
100
AcDbLayerTableRecord
  2
BétonMétal
 70
     0
 62
     7
  6
CONTINUOUS
370
    80
  0
LAYER
  5
3A3
100
AcDbSymbolTableRecord
100
AcDbLayerTableRecord
  2
bois
 70
     0
 62
     7
  6
CONTINUOUS
370
    60
  0
ENDTAB
  0
TABLE
  2
VIEW
  5
3A4
100
AcDbSymbolTable
 70
     0
  0
ENDTAB
  0
TABLE
  2
UCS
  5
3A5
100
AcDbSymbolTable
 70
     0
  0
ENDTAB
  0
TABLE
  2
APPID
  5
3A6
100
AcDbSymbolTable
 70
     1
  0
APPID
  5
3A7
100
AcDbSymbolTableRecord
100
AcDbRegAppTableRecord
  2
ACAD
 70
     0
  0
ENDTAB
  0
TABLE
  2
DIMSTYLE
  5
3A8
100
AcDbSymbolTable
 70
     0
  0
ENDTAB
  0
TABLE
  2
BLOCK_RECORD
  5
3A9
100
AcDbSymbolTable
 70
     0
  0
BLOCK_RECORD
  5
3AA
100
AcDbSymbolTableRecord
100
AcDbBlockTableRecord
  2
*MODEL_SPACE
  0
BLOCK_RECORD
  5
3AB
100
AcDbSymbolTableRecord
100
AcDbBlockTableRecord
  2
*PAPER_SPACE
  0
BLOCK_RECORD
  5
3AC
100
AcDbSymbolTableRecord
100
AcDbBlockTableRecord
  2
CDWK_EXTR_0
  0
BLOCK_RECORD
  5
3AD
100
AcDbSymbolTableRecord
100
AcDbBlockTableRecord
  2
CDWK_EXTR_1D
  0
BLOCK_RECORD
  5
3AE
100
AcDbSymbolTableRecord
100
AcDbBlockTableRecord
  2
CDWK_EXTR_1G
  0
BLOCK_RECORD
  5
3AF
100
AcDbSymbolTableRecord
100
AcDbBlockTableRecord
  2
CDWK_EXTR_2
  0
BLOCK_RECORD
  5
3B0
100
AcDbSymbolTableRecord
100
AcDbBlockTableRecord
  2
CDWK_EXTR_3
  0
BLOCK_RECORD
  5
3B1
100
AcDbSymbolTableRecord
100
AcDbBlockTableRecord
  2
CDWK_EXTR_4
  0
BLOCK_RECORD
  5
3B2
100
AcDbSymbolTableRecord
100
AcDbBlockTableRecord
  2
CDWK_PTTYP0
  0
BLOCK_RECORD
  5
3B3
100
AcDbSymbolTableRecord
100
AcDbBlockTableRecord
  2
CDWK_PTTYP1
  0
BLOCK_RECORD
  5
3B4
100
AcDbSymbolTableRecord
100
AcDbBlockTableRecord
  2
CDWK_PTTYP2
  0
BLOCK_RECORD
  5
3B5
100
AcDbSymbolTableRecord
100
AcDbBlockTableRecord
  2
CDWK_PTTYP3
  0
BLOCK_RECORD
  5
3B6
100
AcDbSymbolTableRecord
100
AcDbBlockTableRecord
  2
CDWK_PTTYP4
  0
BLOCK_RECORD
  5
3B7
100
AcDbSymbolTableRecord
100
AcDbBlockTableRecord
  2
CDWK_PTTYP5
  0
BLOCK_RECORD
  5
3B8
100
AcDbSymbolTableRecord
100
AcDbBlockTableRecord
  2
CDWK_PTTYP6
  0
BLOCK_RECORD
  5
3B9
100
AcDbSymbolTableRecord
100
AcDbBlockTableRecord
  2
CDWK_PTTYP7
  0
BLOCK_RECORD
  5
3BA
100
AcDbSymbolTableRecord
100
AcDbBlockTableRecord
  2
CDWK_PTTYP8
  0
BLOCK_RECORD
  5
3BB
100
AcDbSymbolTableRecord
100
AcDbBlockTableRecord
  2
CDWK_PTTYP9
  0
BLOCK_RECORD
  5
3BC
100
AcDbSymbolTableRecord
100
AcDbBlockTableRecord
  2
CDWK_PTTYP10
  0
BLOCK_RECORD
  5
3BD
100
AcDbSymbolTableRecord
100
AcDbBlockTableRecord
  2
CDWK_PTTYP11
  0
BLOCK_RECORD
  5
3BE
100
AcDbSymbolTableRecord
100
AcDbBlockTableRecord
  2
CDWK_PTTYP12
  0
BLOCK_RECORD
  5
3BF
100
AcDbSymbolTableRecord
100
AcDbBlockTableRecord
  2
CDWK_PTTYP13
  0
BLOCK_RECORD
  5
3C0
100
AcDbSymbolTableRecord
100
AcDbBlockTableRecord
  2
CDWK_PTTYP14
  0
BLOCK_RECORD
  5
3C1
100
AcDbSymbolTableRecord
100
AcDbBlockTableRecord
  2
CDWK_PTTYP15
  0
BLOCK_RECORD
  5
3C2
100
AcDbSymbolTableRecord
100
AcDbBlockTableRecord
  2
CDWK_PTTYP16
  0
BLOCK_RECORD
  5
3C3
100
AcDbSymbolTableRecord
100
AcDbBlockTableRecord
  2
CDWK_PTTYP17
  0
BLOCK_RECORD
  5
3C4
100
AcDbSymbolTableRecord
100
AcDbBlockTableRecord
  2
CDWK_PTTYP18
  0
BLOCK_RECORD
  5
3C5
100
AcDbSymbolTableRecord
100
AcDbBlockTableRecord
  2
CDWK_PTTYP19
  0
BLOCK_RECORD
  5
3C6
100
AcDbSymbolTableRecord
100
AcDbBlockTableRecord
  2
CDWK_PTTYP20
  0
BLOCK_RECORD
  5
3C7
100
AcDbSymbolTableRecord
100
AcDbBlockTableRecord
  2
CDWK_PTTYP21
  0
BLOCK_RECORD
  5
3C8
100
AcDbSymbolTableRecord
100
AcDbBlockTableRecord
  2
CDWK_PTTYP22
  0
BLOCK_RECORD
  5
3C9
100
AcDbSymbolTableRecord
100
AcDbBlockTableRecord
  2
CDWK_PTTYP23
  0
BLOCK_RECORD
  5
3CA
100
AcDbSymbolTableRecord
100
AcDbBlockTableRecord
  2
CDWK_PTTYP24
  0
BLOCK_RECORD
  5
3CB
100
AcDbSymbolTableRecord
100
AcDbBlockTableRecord
  2
CDWK_PTTYP25
  0
BLOCK_RECORD
  5
3CC
100
AcDbSymbolTableRecord
100
AcDbBlockTableRecord
  2
CDWK_PTTYP26
  0
BLOCK_RECORD
  5
3CD
100
AcDbSymbolTableRecord
100
AcDbBlockTableRecord
  2
CDWK_PTTYP27
  0
BLOCK_RECORD
  5
3CE
100
AcDbSymbolTableRecord
100
AcDbBlockTableRecord
  2
CDWK_PTTYP28
  0
BLOCK_RECORD
  5
3CF
100
AcDbSymbolTableRecord
100
AcDbBlockTableRecord
  2
CDWK_PTTYP29
  0
BLOCK_RECORD
  5
3D0
100
AcDbSymbolTableRecord
100
AcDbBlockTableRecord
  2
CDWK_PTTYP30
  0
BLOCK_RECORD
  5
3D1
100
AcDbSymbolTableRecord
100
AcDbBlockTableRecord
  2
CDWK_PTTYP31
  0
BLOCK_RECORD
  5
3D2
100
AcDbSymbolTableRecord
100
AcDbBlockTableRecord
  2
CDWK_PTTYP32
  0
BLOCK_RECORD
  5
3D3
100
AcDbSymbolTableRecord
100
AcDbBlockTableRecord
  2
CDWK_PTTYP33
  0
BLOCK_RECORD
  5
3D4
100
AcDbSymbolTableRecord
100
AcDbBlockTableRecord
  2
CDWK_PTTYP34
  0
BLOCK_RECORD
  5
3D5
100
AcDbSymbolTableRecord
100
AcDbBlockTableRecord
  2
CDWK_PTTYP35
  0
BLOCK_RECORD
  5
3D6
100
AcDbSymbolTableRecord
100
AcDbBlockTableRecord
  2
CDWK_PTTYP36
  0
BLOCK_RECORD
  5
3D7
100
AcDbSymbolTableRecord
100
AcDbBlockTableRecord
  2
CDWK_PTTYP37
  0
BLOCK_RECORD
  5
3D8
100
AcDbSymbolTableRecord
100
AcDbBlockTableRecord
  2
CDWK_PTTYP38
  0
BLOCK_RECORD
  5
3D9
100
AcDbSymbolTableRecord
100
AcDbBlockTableRecord
  2
*X1
  0
BLOCK_RECORD
  5
3DA
100
AcDbSymbolTableRecord
100
AcDbBlockTableRecord
  2
*X2
  0
BLOCK_RECORD
  5
3DB
100
AcDbSymbolTableRecord
100
AcDbBlockTableRecord
  2
*X3
  0
BLOCK_RECORD
  5
3DC
100
AcDbSymbolTableRecord
100
AcDbBlockTableRecord
  2
*X4
  0
BLOCK_RECORD
  5
3DD
100
AcDbSymbolTableRecord
100
AcDbBlockTableRecord
  2
*X5
  0
BLOCK_RECORD
  5
3DE
100
AcDbSymbolTableRecord
100
AcDbBlockTableRecord
  2
*X6
  0
BLOCK_RECORD
  5
3DF
100
AcDbSymbolTableRecord
100
AcDbBlockTableRecord
  2
*X7
  0
BLOCK_RECORD
  5
3E0
100
AcDbSymbolTableRecord
100
AcDbBlockTableRecord
  2
*X8
  0
BLOCK_RECORD
  5
3E1
100
AcDbSymbolTableRecord
100
AcDbBlockTableRecord
  2
*X9
  0
BLOCK_RECORD
  5
3E2
100
AcDbSymbolTableRecord
100
AcDbBlockTableRecord
  2
*X10
  0
BLOCK_RECORD
  5
3E3
100
AcDbSymbolTableRecord
100
AcDbBlockTableRecord
  2
*X11
  0
BLOCK_RECORD
  5
3E4
100
AcDbSymbolTableRecord
100
AcDbBlockTableRecord
  2
*X12
  0
BLOCK_RECORD
  5
3E5
100
AcDbSymbolTableRecord
100
AcDbBlockTableRecord
  2
*X13
  0
BLOCK_RECORD
  5
3E6
100
AcDbSymbolTableRecord
100
AcDbBlockTableRecord
  2
*X14
  0
BLOCK_RECORD
  5
3E7
100
AcDbSymbolTableRecord
100
AcDbBlockTableRecord
  2
*D20
  0
ENDTAB
  0
ENDSEC
  0
SECTION
  2
BLOCKS
  0
BLOCK
  5
3E8
100
AcDbEntity
  8
0
100
AcDbBlockBegin
  2
*MODEL_SPACE
 70
     0
 10
0.0
 20
0.0
 30
0.0
  3
*MODEL_SPACE
  1

  0
ENDBLK
  5
3E9
100
AcDbEntity
100
AcDbBlockEnd
  0
BLOCK
  5
3EA
100
AcDbEntity
  8
0
100
AcDbBlockBegin
  2
*PAPER_SPACE
 70
     0
 10
0.0
 20
0.0
 30
0.0
  3
*PAPER_SPACE
  1

  0
ENDBLK
  5
3EB
100
AcDbEntity
100
AcDbBlockEnd
  0
BLOCK
  5
3EC
100
AcDbEntity
  8
0
100
AcDbBlockBegin
  2
CDWK_EXTR_0
 70
     0
 10
0.0
 20
0.0
 30
0.0
  3
CDWK_EXTR_0
  1

  4
Cadwork line-extremity
  0
LINE
  5
3ED
100
AcDbEntity
  8
0
 62
     0
370
    -2
100
AcDbLine
 10
0.0
 20
0.0
 30
0.0
 11
2.0
 21
0.5
 31
0.0
  0
LINE
  5
3EE
100
AcDbEntity
  8
0
 62
     0
370
    -2
100
AcDbLine
 10
0.0
 20
0.0
 30
0.0
 11
2.0
 21
-0.5
 31
0.0
  0
LINE
  5
3EF
100
AcDbEntity
  8
0
 62
     0
370
    -2
100
AcDbLine
 10
2.0
 20
0.5
 30
0.0
 11
2.0
 21
-0.5
 31
0.0
  0
ENDBLK
  5
3F0
100
AcDbEntity
100
AcDbBlockEnd
  0
BLOCK
  5
3F1
100
AcDbEntity
  8
0
100
AcDbBlockBegin
  2
CDWK_EXTR_1D
 70
     0
 10
0.0
 20
0.0
 30
0.0
  3
CDWK_EXTR_1D
  1

  4
Cadwork line-extremity
  0
LINE
  5
3F2
100
AcDbEntity
  8
0
 62
     0
370
    -2
100
AcDbLine
 10
0.0
 20
0.0
 30
0.0
 11
0.0
 21
1.0
 31
0.0
  0
LINE
  5
3F3
100
AcDbEntity
  8
0
 62
     0
370
    -2
100
AcDbLine
 10
0.0
 20
1.0
 30
0.0
 11
0.5
 21
1.5
 31
0.0
  0
LINE
  5
3F4
100
AcDbEntity
  8
0
 62
     0
370
    -2
100
AcDbLine
 10
0.5
 20
1.5
 30
0.0
 11
1.5
 21
1.5
 31
0.0
  0
ENDBLK
  5
3F5
100
AcDbEntity
100
AcDbBlockEnd
  0
BLOCK
  5
3F6
100
AcDbEntity
  8
0
100
AcDbBlockBegin
  2
CDWK_EXTR_1G
 70
     0
 10
0.0
 20
0.0
 30
0.0
  3
CDWK_EXTR_1G
  1

  4
Cadwork line-extremity
  0
LINE
  5
3F7
100
AcDbEntity
  8
0
 62
     0
370
    -2
100
AcDbLine
 10
0.0
 20
0.0
 30
0.0
 11
0.0
 21
-1.0
 31
0.0
  0
LINE
  5
3F8
100
AcDbEntity
  8
0
 62
     0
370
    -2
100
AcDbLine
 10
0.0
 20
-1.0
 30
0.0
 11
0.5
 21
-1.5
 31
0.0
  0
LINE
  5
3F9
100
AcDbEntity
  8
0
 62
     0
370
    -2
100
AcDbLine
 10
0.5
 20
-1.5
 30
0.0
 11
1.5
 21
-1.5
 31
0.0
  0
ENDBLK
  5
3FA
100
AcDbEntity
100
AcDbBlockEnd
  0
BLOCK
  5
3FB
100
AcDbEntity
  8
0
100
AcDbBlockBegin
  2
CDWK_EXTR_2
 70
     0
 10
0.0
 20
0.0
 30
0.0
  3
CDWK_EXTR_2
  1

  4
Cadwork line-extremity
  0
SOLID
  5
3FC
100
AcDbEntity
  8
0
 62
     0
100
AcDbTrace
 10
0.0
 20
0.0
 11
2.0
 21
0.5
 12
2.0
 22
-0.5
 13
2.0
 23
-0.5
  0
ENDBLK
  5
3FD
100
AcDbEntity
100
AcDbBlockEnd
  0
BLOCK
  5
3FE
100
AcDbEntity
  8
0
100
AcDbBlockBegin
  2
CDWK_EXTR_3
 70
     0
 10
0.0
 20
0.0
 30
0.0
  3
CDWK_EXTR_3
  1

  4
Cadwork line-extremity
  0
SOLID
  5
3FF
100
AcDbEntity
  8
0
 62
     0
100
AcDbTrace
 10
0.0
 20
0.0
 11
2.0
 21
0.5
 12
2.0
 22
-0.5
 13
2.0
 23
-0.5
  0
LINE
  5
400
100
AcDbEntity
  8
0
 62
     0
370
    -2
100
AcDbLine
 10
0.0
 20
1.0
 30
0.0
 11
0.0
 21
-1.0
 31
0.0
  0
ENDBLK
  5
401
100
AcDbEntity
100
AcDbBlockEnd
  0
BLOCK
  5
402
100
AcDbEntity
  8
0
100
AcDbBlockBegin
  2
CDWK_EXTR_4
 70
     0
 10
0.0
 20
0.0
 30
0.0
  3
CDWK_EXTR_4
  1

  4
Cadwork line-extremity
  0
HATCH
  5
403
100
AcDbEntity
  8
0
 62
     0
370
    -2
100
AcDbHatch
 10
0.0
 20
0.0
 30
0.0
210
0.0
220
0.0
230
1.0
  2
SOLID
 70
     1
 71
     0
 91
        1
 92
        1
 93
        1
 72
     2
 10
0.0
 20
0.0
 40
0.5
 50
0.0
 51
360.0
 73
     1
 97
        0
 75
     0
 76
     1
 98
        1
 10
0.0
 20
0.0
  0
ENDBLK
  5
404
100
AcDbEntity
100
AcDbBlockEnd
  0
BLOCK
  5
405
100
AcDbEntity
  8
0
100
AcDbBlockBegin
  2
CDWK_PTTYP0
 70
     0
 10
0.0
 20
0.0
 30
0.0
  3
CDWK_PTTYP0
  1

  4
Cadwork point
  0
POINT
  5
406
100
AcDbEntity
  8
0
 62
     0
100
AcDbPoint
 10
0.0
 20
0.0
 30
0.0
  0
ENDBLK
  5
407
100
AcDbEntity
100
AcDbBlockEnd
  0
BLOCK
  5
408
100
AcDbEntity
  8
0
100
AcDbBlockBegin
  2
CDWK_PTTYP1
 70
     0
 10
0.0
 20
0.0
 30
0.0
  3
CDWK_PTTYP1
  1

  4
Cadwork node
  0
LINE
  5
409
100
AcDbEntity
  8
0
 62
     0
370
    -2
100
AcDbLine
 10
-0.5
 20
0.5
 30
0.0
 11
0.5
 21
0.5
 31
0.0
  0
LINE
  5
40A
100
AcDbEntity
  8
0
 62
     0
370
    -2
100
AcDbLine
 10
0.5
 20
0.5
 30
0.0
 11
0.5
 21
-0.5
 31
0.0
  0
LINE
  5
40B
100
AcDbEntity
  8
0
 62
     0
370
    -2
100
AcDbLine
 10
0.5
 20
-0.5
 30
0.0
 11
-0.5
 21
-0.5
 31
0.0
  0
LINE
  5
40C
100
AcDbEntity
  8
0
 62
     0
370
    -2
100
AcDbLine
 10
-0.5
 20
-0.5
 30
0.0
 11
-0.5
 21
0.5
 31
0.0
  0
ENDBLK
  5
40D
100
AcDbEntity
100
AcDbBlockEnd
  0
BLOCK
  5
40E
100
AcDbEntity
  8
0
100
AcDbBlockBegin
  2
CDWK_PTTYP2
 70
     0
 10
0.0
 20
0.0
 30
0.0
  3
CDWK_PTTYP2
  1

  4
Cadwork node
  0
LINE
  5
40F
100
AcDbEntity
  8
0
 62
     0
370
    -2
100
AcDbLine
 10
0.0
 20
0.5
 30
0.0
 11
0.0
 21
-0.5
 31
0.0
  0
LINE
  5
410
100
AcDbEntity
  8
0
 62
     0
370
    -2
100
AcDbLine
 10
-0.5
 20
0.0
 30
0.0
 11
0.5
 21
0.0
 31
0.0
  0
ENDBLK
  5
411
100
AcDbEntity
100
AcDbBlockEnd
  0
BLOCK
  5
412
100
AcDbEntity
  8
0
100
AcDbBlockBegin
  2
CDWK_PTTYP3
 70
     0
 10
0.0
 20
0.0
 30
0.0
  3
CDWK_PTTYP3
  1

  4
Cadwork node
  0
CIRCLE
  5
413
100
AcDbEntity
  8
0
 62
     0
370
    -2
100
AcDbCircle
 10
0.0
 20
0.0
 30
0.0
 40
0.5
  0
ENDBLK
  5
414
100
AcDbEntity
100
AcDbBlockEnd
  0
BLOCK
  5
415
100
AcDbEntity
  8
0
100
AcDbBlockBegin
  2
CDWK_PTTYP4
 70
     0
 10
0.0
 20
0.0
 30
0.0
  3
CDWK_PTTYP4
  1

  4
Cadwork node
  0
HATCH
  5
416
100
AcDbEntity
  8
0
 62
     0
370
    -2
100
AcDbHatch
 10
0.0
 20
0.0
 30
0.0
210
0.0
220
0.0
230
1.0
  2
SOLID
 70
     1
 71
     0
 91
        1
 92
        1
 93
        1
 72
     2
 10
0.0
 20
0.0
 40
0.5
 50
0.0
 51
360.0
 73
     1
 97
        0
 75
     0
 76
     1
 98
        1
 10
0.0
 20
0.0
  0
ENDBLK
  5
417
100
AcDbEntity
100
AcDbBlockEnd
  0
BLOCK
  5
418
100
AcDbEntity
  8
0
100
AcDbBlockBegin
  2
CDWK_PTTYP5
 70
     0
 10
0.0
 20
0.0
 30
0.0
  3
CDWK_PTTYP5
  1

  4
Cadwork node
  0
LINE
  5
419
100
AcDbEntity
  8
0
 62
     0
370
    -2
100
AcDbLine
 10
-0.5
 20
0.5
 30
0.0
 11
0.5
 21
0.5
 31
0.0
  0
LINE
  5
41A
100
AcDbEntity
  8
0
 62
     0
370
    -2
100
AcDbLine
 10
0.5
 20
0.5
 30
0.0
 11
0.5
 21
-0.5
 31
0.0
  0
LINE
  5
41B
100
AcDbEntity
  8
0
 62
     0
370
    -2
100
AcDbLine
 10
0.5
 20
-0.5
 30
0.0
 11
-0.5
 21
-0.5
 31
0.0
  0
LINE
  5
41C
100
AcDbEntity
  8
0
 62
     0
370
    -2
100
AcDbLine
 10
-0.5
 20
-0.5
 30
0.0
 11
-0.5
 21
0.5
 31
0.0
  0
SOLID
  5
41D
100
AcDbEntity
  8
0
 62
     0
100
AcDbTrace
 10
-0.5
 20
-0.5
 11
-0.5
 21
0.0
 12
0.0
 22
-0.5
 13
0.0
 23
0.0
  0
SOLID
  5
41E
100
AcDbEntity
  8
0
 62
     0
100
AcDbTrace
 10
0.0
 20
0.0
 11
0.0
 21
0.5
 12
0.5
 22
0.0
 13
0.5
 23
0.5
  0
ENDBLK
  5
41F
100
AcDbEntity
100
AcDbBlockEnd
  0
BLOCK
  5
420
100
AcDbEntity
  8
0
100
AcDbBlockBegin
  2
CDWK_PTTYP6
 70
     0
 10
0.0
 20
0.0
 30
0.0
  3
CDWK_PTTYP6
  1

  4
Cadwork node
  0
LINE
  5
421
100
AcDbEntity
  8
0
 62
     0
370
    -2
100
AcDbLine
 10
-0.5
 20
0.5
 30
0.0
 11
0.5
 21
0.5
 31
0.0
  0
LINE
  5
422
100
AcDbEntity
  8
0
 62
     0
370
    -2
100
AcDbLine
 10
0.5
 20
0.5
 30
0.0
 11
0.5
 21
-0.5
 31
0.0
  0
LINE
  5
423
100
AcDbEntity
  8
0
 62
     0
370
    -2
100
AcDbLine
 10
0.5
 20
-0.5
 30
0.0
 11
-0.5
 21
-0.5
 31
0.0
  0
LINE
  5
424
100
AcDbEntity
  8
0
 62
     0
370
    -2
100
AcDbLine
 10
-0.5
 20
-0.5
 30
0.0
 11
-0.5
 21
0.5
 31
0.0
  0
SOLID
  5
425
100
AcDbEntity
  8
0
 62
     0
100
AcDbTrace
 10
-0.5
 20
-0.5
 11
-0.5
 21
0.5
 12
0.5
 22
0.5
 13
0.5
 23
0.5
  0
ENDBLK
  5
426
100
AcDbEntity
100
AcDbBlockEnd
  0
BLOCK
  5
427
100
AcDbEntity
  8
0
100
AcDbBlockBegin
  2
CDWK_PTTYP7
 70
     0
 10
0.0
 20
0.0
 30
0.0
  3
CDWK_PTTYP7
  1

  4
Cadwork node
  0
LINE
  5
428
100
AcDbEntity
  8
0
 62
     0
370
    -2
100
AcDbLine
 10
-0.5
 20
0.5
 30
0.0
 11
0.5
 21
0.5
 31
0.0
  0
LINE
  5
429
100
AcDbEntity
  8
0
 62
     0
370
    -2
100
AcDbLine
 10
0.5
 20
0.5
 30
0.0
 11
0.5
 21
-0.5
 31
0.0
  0
LINE
  5
42A
100
AcDbEntity
  8
0
 62
     0
370
    -2
100
AcDbLine
 10
0.5
 20
-0.5
 30
0.0
 11
-0.5
 21
-0.5
 31
0.0
  0
LINE
  5
42B
100
AcDbEntity
  8
0
 62
     0
370
    -2
100
AcDbLine
 10
-0.5
 20
-0.5
 30
0.0
 11
-0.5
 21
0.5
 31
0.0
  0
LINE
  5
42C
100
AcDbEntity
  8
0
 62
     0
370
    -2
100
AcDbLine
 10
0.0
 20
0.5
 30
0.0
 11
0.0
 21
-0.5
 31
0.0
  0
LINE
  5
42D
100
AcDbEntity
  8
0
 62
     0
370
    -2
100
AcDbLine
 10
-0.5
 20
0.0
 30
0.0
 11
0.5
 21
0.0
 31
0.0
  0
ENDBLK
  5
42E
100
AcDbEntity
100
AcDbBlockEnd
  0
BLOCK
  5
42F
100
AcDbEntity
  8
0
100
AcDbBlockBegin
  2
CDWK_PTTYP8
 70
     0
 10
0.0
 20
0.0
 30
0.0
  3
CDWK_PTTYP8
  1

  4
Cadwork node
  0
SOLID
  5
430
100
AcDbEntity
  8
0
 62
     0
100
AcDbTrace
 10
-0.5
 20
0.5
 11
0.5
 21
0.5
 12
-0.5
 22
-0.5
 13
0.5
 23
-0.5
  0
ENDBLK
  5
431
100
AcDbEntity
100
AcDbBlockEnd
  0
BLOCK
  5
432
100
AcDbEntity
  8
0
100
AcDbBlockBegin
  2
CDWK_PTTYP9
 70
     0
 10
0.0
 20
0.0
 30
0.0
  3
CDWK_PTTYP9
  1

  4
Cadwork node
  0
CIRCLE
  5
433
100
AcDbEntity
  8
0
 62
     0
370
    -2
100
AcDbCircle
 10
0.0
 20
0.0
 30
0.0
 40
0.5
  0
CIRCLE
  5
434
100
AcDbEntity
  8
0
 62
     0
370
    -2
100
AcDbCircle
 10
0.0
 20
0.0
 30
0.0
 40
0.16666667
  0
ENDBLK
  5
435
100
AcDbEntity
100
AcDbBlockEnd
  0
BLOCK
  5
436
100
AcDbEntity
  8
0
100
AcDbBlockBegin
  2
CDWK_PTTYP10
 70
     0
 10
0.0
 20
0.0
 30
0.0
  3
CDWK_PTTYP10
  1

  4
Cadwork node
  0
CIRCLE
  5
437
100
AcDbEntity
  8
0
 62
     0
370
    -2
100
AcDbCircle
 10
0.0
 20
0.0
 30
0.0
 40
0.5
  0
ENDBLK
  5
438
100
AcDbEntity
100
AcDbBlockEnd
  0
BLOCK
  5
439
100
AcDbEntity
  8
0
100
AcDbBlockBegin
  2
CDWK_PTTYP11
 70
     0
 10
0.0
 20
0.0
 30
0.0
  3
CDWK_PTTYP11
  1

  4
Cadwork node
  0
CIRCLE
  5
43A
100
AcDbEntity
  8
0
 62
     0
370
    -2
100
AcDbCircle
 10
0.0
 20
0.0
 30
0.0
 40
0.5
  0
CIRCLE
  5
43B
100
AcDbEntity
  8
0
 62
     0
370
    -2
100
AcDbCircle
 10
0.0
 20
0.0
 30
0.0
 40
0.25
  0
ENDBLK
  5
43C
100
AcDbEntity
100
AcDbBlockEnd
  0
BLOCK
  5
43D
100
AcDbEntity
  8
0
100
AcDbBlockBegin
  2
CDWK_PTTYP12
 70
     0
 10
0.0
 20
0.0
 30
0.0
  3
CDWK_PTTYP12
  1

  4
Cadwork node
  0
CIRCLE
  5
43E
100
AcDbEntity
  8
0
 62
     0
370
    -2
100
AcDbCircle
 10
0.0
 20
0.0
 30
0.0
 40
0.5
  0
CIRCLE
  5
43F
100
AcDbEntity
  8
0
 62
     0
370
    -2
100
AcDbCircle
 10
0.25
 20
0.0
 30
0.0
 40
0.25
  0
ENDBLK
  5
440
100
AcDbEntity
100
AcDbBlockEnd
  0
BLOCK
  5
441
100
AcDbEntity
  8
0
100
AcDbBlockBegin
  2
CDWK_PTTYP13
 70
     0
 10
0.0
 20
0.0
 30
0.0
  3
CDWK_PTTYP13
  1

  4
Cadwork node
  0
CIRCLE
  5
442
100
AcDbEntity
  8
0
 62
     0
370
    -2
100
AcDbCircle
 10
0.0
 20
0.0
 30
0.0
 40
0.5
  0
CIRCLE
  5
443
100
AcDbEntity
  8
0
 62
     0
370
    -2
100
AcDbCircle
 10
0.25
 20
0.0
 30
0.0
 40
0.25
  0
CIRCLE
  5
444
100
AcDbEntity
  8
0
 62
     0
370
    -2
100
AcDbCircle
 10
-0.25
 20
0.0
 30
0.0
 40
0.25
  0
ENDBLK
  5
445
100
AcDbEntity
100
AcDbBlockEnd
  0
BLOCK
  5
446
100
AcDbEntity
  8
0
100
AcDbBlockBegin
  2
CDWK_PTTYP14
 70
     0
 10
0.0
 20
0.0
 30
0.0
  3
CDWK_PTTYP14
  1

  4
Cadwork node
  0
POINT
  5
447
100
AcDbEntity
  8
0
 62
     0
100
AcDbPoint
 10
0.0
 20
0.0
 30
0.0
  0
ENDBLK
  5
448
100
AcDbEntity
100
AcDbBlockEnd
  0
BLOCK
  5
449
100
AcDbEntity
  8
0
100
AcDbBlockBegin
  2
CDWK_PTTYP15
 70
     0
 10
0.0
 20
0.0
 30
0.0
  3
CDWK_PTTYP15
  1

  4
Cadwork node
  0
POINT
  5
44A
100
AcDbEntity
  8
0
 62
     0
100
AcDbPoint
 10
0.0
 20
0.0
 30
0.0
  0
ENDBLK
  5
44B
100
AcDbEntity
100
AcDbBlockEnd
  0
BLOCK
  5
44C
100
AcDbEntity
  8
0
100
AcDbBlockBegin
  2
CDWK_PTTYP16
 70
     0
 10
0.0
 20
0.0
 30
0.0
  3
CDWK_PTTYP16
  1

  4
Cadwork node
  0
LINE
  5
44D
100
AcDbEntity
  8
0
 62
     0
370
    -2
100
AcDbLine
 10
-0.5
 20
-0.28867513
 30
0.0
 11
0.5
 21
-0.28867513
 31
0.0
  0
LINE
  5
44E
100
AcDbEntity
  8
0
 62
     0
370
    -2
100
AcDbLine
 10
0.5
 20
-0.28867513
 30
0.0
 11
0.0
 21
0.57735027
 31
0.0
  0
LINE
  5
44F
100
AcDbEntity
  8
0
 62
     0
370
    -2
100
AcDbLine
 10
0.0
 20
0.57735027
 30
0.0
 11
-0.5
 21
-0.28867513
 31
0.0
  0
CIRCLE
  5
450
100
AcDbEntity
  8
0
 62
     0
370
    -2
100
AcDbCircle
 10
0.0
 20
0.0
 30
0.0
 40
0.28867513
  0
ENDBLK
  5
451
100
AcDbEntity
100
AcDbBlockEnd
  0
BLOCK
  5
452
100
AcDbEntity
  8
0
100
AcDbBlockBegin
  2
CDWK_PTTYP17
 70
     0
 10
0.0
 20
0.0
 30
0.0
  3
CDWK_PTTYP17
  1

  4
Cadwork node
  0
CIRCLE
  5
453
100
AcDbEntity
  8
0
 62
     0
370
    -2
100
AcDbCircle
 10
0.0
 20
0.0
 30
0.0
 40
0.5
  0
HATCH
  5
454
100
AcDbEntity
  8
0
 62
     0
370
    -2
100
AcDbHatch
 10
0.0
 20
0.0
 30
0.0
210
0.0
220
0.0
230
1.0
  2
SOLID
 70
     1
 71
     0
 91
        1
 92
        1
 93
        1
 72
     2
 10
0.0
 20
0.0
 40
0.25
 50
0.0
 51
360.0
 73
     1
 97
        0
 75
     0
 76
     1
 98
        1
 10
0.0
 20
0.0
  0
ENDBLK
  5
455
100
AcDbEntity
100
AcDbBlockEnd
  0
BLOCK
  5
456
100
AcDbEntity
  8
0
100
AcDbBlockBegin
  2
CDWK_PTTYP18
 70
     0
 10
0.0
 20
0.0
 30
0.0
  3
CDWK_PTTYP18
  1

  4
Cadwork node
  0
CIRCLE
  5
457
100
AcDbEntity
  8
0
 62
     0
370
    -2
100
AcDbCircle
 10
0.0
 20
0.0
 30
0.0
 40
0.5
  0
CIRCLE
  5
458
100
AcDbEntity
  8
0
 62
     0
370
    -2
100
AcDbCircle
 10
0.0
 20
0.0
 30
0.0
 40
0.2
  0
ENDBLK
  5
459
100
AcDbEntity
100
AcDbBlockEnd
  0
BLOCK
  5
45A
100
AcDbEntity
  8
0
100
AcDbBlockBegin
  2
CDWK_PTTYP19
 70
     0
 10
0.0
 20
0.0
 30
0.0
  3
CDWK_PTTYP19
  1

  4
Cadwork node
  0
CIRCLE
  5
45B
100
AcDbEntity
  8
0
 62
     0
370
    -2
100
AcDbCircle
 10
0.0
 20
0.0
 30
0.0
 40
0.4
  0
CIRCLE
  5
45C
100
AcDbEntity
  8
0
 62
     0
370
    -2
100
AcDbCircle
 10
0.0
 20
0.0
 30
0.0
 40
0.25
  0
LINE
  5
45D
100
AcDbEntity
  8
0
 62
     0
370
    -2
100
AcDbLine
 10
-0.25
 20
0.0
 30
0.0
 11
0.25
 21
0.0
 31
0.0
  0
ENDBLK
  5
45E
100
AcDbEntity
100
AcDbBlockEnd
  0
BLOCK
  5
45F
100
AcDbEntity
  8
0
100
AcDbBlockBegin
  2
CDWK_PTTYP20
 70
     0
 10
0.0
 20
0.0
 30
0.0
  3
CDWK_PTTYP20
  1

  4
Cadwork node
  0
CIRCLE
  5
460
100
AcDbEntity
  8
0
 62
     0
370
    -2
100
AcDbCircle
 10
0.0
 20
0.0
 30
0.0
 40
0.5
  0
CIRCLE
  5
461
100
AcDbEntity
  8
0
 62
     0
370
    -2
100
AcDbCircle
 10
0.0
 20
0.0
 30
0.0
 40
0.3
  0
ENDBLK
  5
462
100
AcDbEntity
100
AcDbBlockEnd
  0
BLOCK
  5
463
100
AcDbEntity
  8
0
100
AcDbBlockBegin
  2
CDWK_PTTYP21
 70
     0
 10
0.0
 20
0.0
 30
0.0
  3
CDWK_PTTYP21
  1

  4
Cadwork node
  0
CIRCLE
  5
464
100
AcDbEntity
  8
0
 62
     0
370
    -2
100
AcDbCircle
 10
0.0
 20
0.0
 30
0.0
 40
0.5
  0
LINE
  5
465
100
AcDbEntity
  8
0
 62
     0
370
    -2
100
AcDbLine
 10
-0.5
 20
0.0
 30
0.0
 11
0.5
 21
0.0
 31
0.0
  0
ENDBLK
  5
466
100
AcDbEntity
100
AcDbBlockEnd
  0
BLOCK
  5
467
100
AcDbEntity
  8
0
100
AcDbBlockBegin
  2
CDWK_PTTYP22
 70
     0
 10
0.0
 20
0.0
 30
0.0
  3
CDWK_PTTYP22
  1

  4
Cadwork node
  0
POINT
  5
468
100
AcDbEntity
  8
0
 62
     0
100
AcDbPoint
 10
0.0
 20
0.0
 30
0.0
  0
ENDBLK
  5
469
100
AcDbEntity
100
AcDbBlockEnd
  0
BLOCK
  5
46A
100
AcDbEntity
  8
0
100
AcDbBlockBegin
  2
CDWK_PTTYP23
 70
     0
 10
0.0
 20
0.0
 30
0.0
  3
CDWK_PTTYP23
  1

  4
Cadwork node
  0
POINT
  5
46B
100
AcDbEntity
  8
0
 62
     0
100
AcDbPoint
 10
0.0
 20
0.0
 30
0.0
  0
ENDBLK
  5
46C
100
AcDbEntity
100
AcDbBlockEnd
  0
BLOCK
  5
46D
100
AcDbEntity
  8
0
100
AcDbBlockBegin
  2
CDWK_PTTYP24
 70
     0
 10
0.0
 20
0.0
 30
0.0
  3
CDWK_PTTYP24
  1

  4
Cadwork node
  0
POINT
  5
46E
100
AcDbEntity
  8
0
 62
     0
100
AcDbPoint
 10
0.0
 20
0.0
 30
0.0
  0
ENDBLK
  5
46F
100
AcDbEntity
100
AcDbBlockEnd
  0
BLOCK
  5
470
100
AcDbEntity
  8
0
100
AcDbBlockBegin
  2
CDWK_PTTYP25
 70
     0
 10
0.0
 20
0.0
 30
0.0
  3
CDWK_PTTYP25
  1

  4
Cadwork node
  0
LINE
  5
471
100
AcDbEntity
  8
0
 62
     0
370
    -2
100
AcDbLine
 10
-0.43290044
 20
-0.25
 30
0.0
 11
0.43290044
 21
-0.25
 31
0.0
  0
LINE
  5
472
100
AcDbEntity
  8
0
 62
     0
370
    -2
100
AcDbLine
 10
-0.43290044
 20
-0.25
 30
0.0
 11
0.0
 21
0.5
 31
0.0
  0
LINE
  5
473
100
AcDbEntity
  8
0
 62
     0
370
    -2
100
AcDbLine
 10
0.43290044
 20
-0.25
 30
0.0
 11
0.0
 21
0.5
 31
0.0
  0
CIRCLE
  5
474
100
AcDbEntity
  8
0
 62
     0
370
    -2
100
AcDbCircle
 10
0.0
 20
0.0
 30
0.0
 40
0.5
  0
ENDBLK
  5
475
100
AcDbEntity
100
AcDbBlockEnd
  0
BLOCK
  5
476
100
AcDbEntity
  8
0
100
AcDbBlockBegin
  2
CDWK_PTTYP26
 70
     0
 10
0.0
 20
0.0
 30
0.0
  3
CDWK_PTTYP26
  1

  4
Cadwork node
  0
LINE
  5
477
100
AcDbEntity
  8
0
 62
     0
370
    -2
100
AcDbLine
 10
-0.5
 20
-0.28850001
 30
0.0
 11
0.5
 21
-0.28850001
 31
0.0
  0
LINE
  5
478
100
AcDbEntity
  8
0
 62
     0
370
    -2
100
AcDbLine
 10
-0.5
 20
-0.28850001
 30
0.0
 11
0.0
 21
0.57736721
 31
0.0
  0
LINE
  5
479
100
AcDbEntity
  8
0
 62
     0
370
    -2
100
AcDbLine
 10
0.5
 20
-0.28850001
 30
0.0
 11
0.0
 21
0.57736721
 31
0.0
  0
CIRCLE
  5
47A
100
AcDbEntity
  8
0
 62
     0
370
    -2
100
AcDbCircle
 10
0.0
 20
0.0
 30
0.0
 40
0.1312336
  0
ENDBLK
  5
47B
100
AcDbEntity
100
AcDbBlockEnd
  0
BLOCK
  5
47C
100
AcDbEntity
  8
0
100
AcDbBlockBegin
  2
CDWK_PTTYP27
 70
     0
 10
0.0
 20
0.0
 30
0.0
  3
CDWK_PTTYP27
  1

  4
Cadwork node
  0
LINE
  5
47D
100
AcDbEntity
  8
0
 62
     0
370
    -2
100
AcDbLine
 10
-0.43290044
 20
-0.25
 30
0.0
 11
0.43290044
 21
-0.25
 31
0.0
  0
LINE
  5
47E
100
AcDbEntity
  8
0
 62
     0
370
    -2
100
AcDbLine
 10
-0.43290044
 20
-0.25
 30
0.0
 11
0.0
 21
0.5
 31
0.0
  0
LINE
  5
47F
100
AcDbEntity
  8
0
 62
     0
370
    -2
100
AcDbLine
 10
0.43290044
 20
-0.25
 30
0.0
 11
0.0
 21
0.5
 31
0.0
  0
CIRCLE
  5
480
100
AcDbEntity
  8
0
 62
     0
370
    -2
100
AcDbCircle
 10
0.0
 20
0.0
 30
0.0
 40
0.5
  0
CIRCLE
  5
481
100
AcDbEntity
  8
0
 62
     0
370
    -2
100
AcDbCircle
 10
0.0
 20
0.0
 30
0.0
 40
0.1312336
  0
ENDBLK
  5
482
100
AcDbEntity
100
AcDbBlockEnd
  0
BLOCK
  5
483
100
AcDbEntity
  8
0
100
AcDbBlockBegin
  2
CDWK_PTTYP28
 70
     0
 10
0.0
 20
0.0
 30
0.0
  3
CDWK_PTTYP28
  1

  4
Cadwork node
  0
POINT
  5
484
100
AcDbEntity
  8
0
 62
     0
100
AcDbPoint
 10
0.0
 20
0.0
 30
0.0
  0
ENDBLK
  5
485
100
AcDbEntity
100
AcDbBlockEnd
  0
BLOCK
  5
486
100
AcDbEntity
  8
0
100
AcDbBlockBegin
  2
CDWK_PTTYP29
 70
     0
 10
0.0
 20
0.0
 30
0.0
  3
CDWK_PTTYP29
  1

  4
Cadwork node
  0
CIRCLE
  5
487
100
AcDbEntity
  8
0
 62
     0
370
    -2
100
AcDbCircle
 10
0.0
 20
0.0
 30
0.0
 40
0.5
  0
CIRCLE
  5
488
100
AcDbEntity
  8
0
 62
     0
370
    -2
100
AcDbCircle
 10
0.0
 20
0.0
 30
0.0
 40
0.375
  0
CIRCLE
  5
489
100
AcDbEntity
  8
0
 62
     0
370
    -2
100
AcDbCircle
 10
0.0
 20
0.0
 30
0.0
 40
0.21875
  0
ENDBLK
  5
48A
100
AcDbEntity
100
AcDbBlockEnd
  0
BLOCK
  5
48B
100
AcDbEntity
  8
0
100
AcDbBlockBegin
  2
CDWK_PTTYP30
 70
     0
 10
0.0
 20
0.0
 30
0.0
  3
CDWK_PTTYP30
  1

  4
Cadwork node
  0
LINE
  5
48C
100
AcDbEntity
  8
0
 62
     0
370
    -2
100
AcDbLine
 10
0.17680339
 20
0.17680339
 30
0.0
 11
0.5
 21
0.5
 31
0.0
  0
LINE
  5
48D
100
AcDbEntity
  8
0
 62
     0
370
    -2
100
AcDbLine
 10
-0.17680339
 20
0.17680339
 30
0.0
 11
-0.5
 21
0.5
 31
0.0
  0
LINE
  5
48E
100
AcDbEntity
  8
0
 62
     0
370
    -2
100
AcDbLine
 10
0.17680339
 20
-0.17680339
 30
0.0
 11
0.5
 21
-0.5
 31
0.0
  0
LINE
  5
48F
100
AcDbEntity
  8
0
 62
     0
370
    -2
100
AcDbLine
 10
-0.17680339
 20
-0.17680339
 30
0.0
 11
-0.5
 21
-0.5
 31
0.0
  0
ENDBLK
  5
490
100
AcDbEntity
100
AcDbBlockEnd
  0
BLOCK
  5
491
100
AcDbEntity
  8
0
100
AcDbBlockBegin
  2
CDWK_PTTYP31
 70
     0
 10
0.0
 20
0.0
 30
0.0
  3
CDWK_PTTYP31
  1

  4
Cadwork node
  0
CIRCLE
  5
492
100
AcDbEntity
  8
0
 62
     0
370
    -2
100
AcDbCircle
 10
0.0
 20
0.0
 30
0.0
 40
0.075
  0
LINE
  5
493
100
AcDbEntity
  8
0
 62
     0
370
    -2
100
AcDbLine
 10
0.075
 20
0.0
 30
0.0
 11
0.5
 21
0.0
 31
0.0
  0
LINE
  5
494
100
AcDbEntity
  8
0
 62
     0
370
    -2
100
AcDbLine
 10
-0.075
 20
0.0
 30
0.0
 11
-0.5
 21
0.0
 31
0.0
  0
LINE
  5
495
100
AcDbEntity
  8
0
 62
     0
370
    -2
100
AcDbLine
 10
0.0
 20
0.075
 30
0.0
 11
0.0
 21
0.5
 31
0.0
  0
LINE
  5
496
100
AcDbEntity
  8
0
 62
     0
370
    -2
100
AcDbLine
 10
0.0
 20
-0.075
 30
0.0
 11
0.0
 21
-0.5
 31
0.0
  0
ENDBLK
  5
497
100
AcDbEntity
100
AcDbBlockEnd
  0
BLOCK
  5
498
100
AcDbEntity
  8
0
100
AcDbBlockBegin
  2
CDWK_PTTYP32
 70
     0
 10
0.0
 20
0.0
 30
0.0
  3
CDWK_PTTYP32
  1

  4
Cadwork node
  0
CIRCLE
  5
499
100
AcDbEntity
  8
0
 62
     0
370
    -2
100
AcDbCircle
 10
0.0
 20
0.0
 30
0.0
 40
0.5
  0
CIRCLE
  5
49A
100
AcDbEntity
  8
0
 62
     0
370
    -2
100
AcDbCircle
 10
0.0
 20
0.0
 30
0.0
 40
0.16666667
  0
LINE
  5
49B
100
AcDbEntity
  8
0
 62
     0
370
    -2
100
AcDbLine
 10
0.11786893
 20
0.11786893
 30
0.0
 11
0.35360678
 21
0.35360678
 31
0.0
  0
LINE
  5
49C
100
AcDbEntity
  8
0
 62
     0
370
    -2
100
AcDbLine
 10
-0.11786893
 20
0.11786893
 30
0.0
 11
-0.35360678
 21
0.35360678
 31
0.0
  0
LINE
  5
49D
100
AcDbEntity
  8
0
 62
     0
370
    -2
100
AcDbLine
 10
0.11786893
 20
-0.11786893
 30
0.0
 11
0.35360678
 21
-0.35360678
 31
0.0
  0
LINE
  5
49E
100
AcDbEntity
  8
0
 62
     0
370
    -2
100
AcDbLine
 10
-0.11786893
 20
-0.11786893
 30
0.0
 11
-0.35360678
 21
-0.35360678
 31
0.0
  0
ENDBLK
  5
49F
100
AcDbEntity
100
AcDbBlockEnd
  0
BLOCK
  5
4A0
100
AcDbEntity
  8
0
100
AcDbBlockBegin
  2
CDWK_PTTYP33
 70
     0
 10
0.0
 20
0.0
 30
0.0
  3
CDWK_PTTYP33
  1

  4
Cadwork node
  0
CIRCLE
  5
4A1
100
AcDbEntity
  8
0
 62
     0
370
    -2
100
AcDbCircle
 10
0.0
 20
0.0
 30
0.0
 40
0.5
  0
LINE
  5
4A2
100
AcDbEntity
  8
0
 62
     0
370
    -2
100
AcDbLine
 10
0.0
 20
0.5
 30
0.0
 11
0.0
 21
-0.5
 31
0.0
  0
LINE
  5
4A3
100
AcDbEntity
  8
0
 62
     0
370
    -2
100
AcDbLine
 10
-0.5
 20
0.0
 30
0.0
 11
0.5
 21
0.0
 31
0.0
  0
ENDBLK
  5
4A4
100
AcDbEntity
100
AcDbBlockEnd
  0
BLOCK
  5
4A5
100
AcDbEntity
  8
0
100
AcDbBlockBegin
  2
CDWK_PTTYP34
 70
     0
 10
0.0
 20
0.0
 30
0.0
  3
CDWK_PTTYP34
  1

  4
Cadwork node
  0
CIRCLE
  5
4A6
100
AcDbEntity
  8
0
 62
     0
370
    -2
100
AcDbCircle
 10
0.0
 20
0.0
 30
0.0
 40
0.5
  0
LINE
  5
4A7
100
AcDbEntity
  8
0
 62
     0
370
    -2
100
AcDbLine
 10
-0.30360678
 20
-0.40360678
 30
0.0
 11
0.40360678
 21
0.30360678
 31
0.0
  0
LINE
  5
4A8
100
AcDbEntity
  8
0
 62
     0
370
    -2
100
AcDbLine
 10
-0.40360678
 20
-0.30360678
 30
0.0
 11
0.30360678
 21
0.40360678
 31
0.0
  0
ENDBLK
  5
4A9
100
AcDbEntity
100
AcDbBlockEnd
  0
BLOCK
  5
4AA
100
AcDbEntity
  8
0
100
AcDbBlockBegin
  2
CDWK_PTTYP35
 70
     0
 10
0.0
 20
0.0
 30
0.0
  3
CDWK_PTTYP35
  1

  4
Cadwork node
  0
CIRCLE
  5
4AB
100
AcDbEntity
  8
0
 62
     0
370
    -2
100
AcDbCircle
 10
0.0
 20
0.0
 30
0.0
 40
0.21431634
  0
LINE
  5
4AC
100
AcDbEntity
  8
0
 62
     0
370
    -2
100
AcDbLine
 10
0.0
 20
0.21431634
 30
0.0
 11
0.0
 21
0.5
 31
0.0
  0
LINE
  5
4AD
100
AcDbEntity
  8
0
 62
     0
370
    -2
100
AcDbLine
 10
0.0
 20
-0.21431634
 30
0.0
 11
0.0
 21
-0.5
 31
0.0
  0
ENDBLK
  5
4AE
100
AcDbEntity
100
AcDbBlockEnd
  0
BLOCK
  5
4AF
100
AcDbEntity
  8
0
100
AcDbBlockBegin
  2
CDWK_PTTYP36
 70
     0
 10
0.0
 20
0.0
 30
0.0
  3
CDWK_PTTYP36
  1

  4
Cadwork node
  0
LINE
  5
4B0
100
AcDbEntity
  8
0
 62
     0
370
    -2
100
AcDbLine
 10
-0.5
 20
-0.16666667
 30
0.0
 11
0.5
 21
-0.16666667
 31
0.0
  0
LINE
  5
4B1
100
AcDbEntity
  8
0
 62
     0
370
    -2
100
AcDbLine
 10
0.5
 20
-0.16666667
 30
0.0
 11
0.5
 21
0.16666667
 31
0.0
  0
LINE
  5
4B2
100
AcDbEntity
  8
0
 62
     0
370
    -2
100
AcDbLine
 10
0.5
 20
0.16666667
 30
0.0
 11
-0.5
 21
0.16666667
 31
0.0
  0
LINE
  5
4B3
100
AcDbEntity
  8
0
 62
     0
370
    -2
100
AcDbLine
 10
-0.5
 20
0.16666667
 30
0.0
 11
-0.5
 21
-0.16666667
 31
0.0
  0
SOLID
  5
4B4
100
AcDbEntity
  8
0
 62
     0
100
AcDbTrace
 10
-0.5
 20
-0.16666667
 11
0.5
 21
0.16666667
 12
0.5
 22
-0.16666667
 13
0.5
 23
-0.16666667
  0
ENDBLK
  5
4B5
100
AcDbEntity
100
AcDbBlockEnd
  0
BLOCK
  5
4B6
100
AcDbEntity
  8
0
100
AcDbBlockBegin
  2
CDWK_PTTYP37
 70
     0
 10
0.0
 20
0.0
 30
0.0
  3
CDWK_PTTYP37
  1

  4
Cadwork node
  0
CIRCLE
  5
4B7
100
AcDbEntity
  8
0
 62
     0
370
    -2
100
AcDbCircle
 10
0.0
 20
0.0
 30
0.0
 40
0.5
  0
SOLID
  5
4B8
100
AcDbEntity
  8
0
 62
     0
100
AcDbTrace
 10
0.0
 20
0.0
 11
0.35350001
 21
0.35350001
 12
0.5
 22
0.0
 13
0.46200001
 23
0.19149999
  0
SOLID
  5
4B9
100
AcDbEntity
  8
0
 62
     0
100
AcDbTrace
 10
0.0
 20
0.0
 11
0.35350001
 21
-0.35350001
 12
0.5
 22
0.0
 13
0.46200001
 23
-0.19149999
  0
SOLID
  5
4BA
100
AcDbEntity
  8
0
 62
     0
100
AcDbTrace
 10
0.0
 20
0.0
 11
0.0
 21
-0.5
 12
0.35350001
 22
-0.35350001
 13
0.19149999
 23
-0.46200001
  0
SOLID
  5
4BB
100
AcDbEntity
  8
0
 62
     0
100
AcDbTrace
 10
0.0
 20
0.0
 11
0.0
 21
-0.5
 12
-0.35350001
 22
-0.35350001
 13
-0.19149999
 23
-0.46200001
  0
ENDBLK
  5
4BC
100
AcDbEntity
100
AcDbBlockEnd
  0
BLOCK
  5
4BD
100
AcDbEntity
  8
0
100
AcDbBlockBegin
  2
CDWK_PTTYP38
 70
     0
 10
0.0
 20
0.0
 30
0.0
  3
CDWK_PTTYP38
  1

  4
Cadwork node
  0
CIRCLE
  5
4BE
100
AcDbEntity
  8
0
 62
     0
370
    -2
100
AcDbCircle
 10
0.0
 20
0.0
 30
0.0
 40
0.5
  0
SOLID
  5
4BF
100
AcDbEntity
  8
0
 62
     0
100
AcDbTrace
 10
0.0
 20
0.0
 11
0.35350001
 21
0.35350001
 12
0.0
 22
0.5
 13
0.19149999
 23
0.46200001
  0
SOLID
  5
4C0
100
AcDbEntity
  8
0
 62
     0
100
AcDbTrace
 10
0.0
 20
0.0
 11
0.5
 21
0.0
 12
0.35350001
 22
0.35350001
 13
0.46200001
 23
0.19149999
  0
SOLID
  5
4C1
100
AcDbEntity
  8
0
 62
     0
100
AcDbTrace
 10
0.0
 20
0.0
 11
0.0
 21
-0.5
 12
-0.35350001
 22
-0.35350001
 13
-0.19149999
 23
-0.46200001
  0
SOLID
  5
4C2
100
AcDbEntity
  8
0
 62
     0
100
AcDbTrace
 10
0.0
 20
0.0
 11
-0.5
 21
0.0
 12
-0.35350001
 22
-0.35350001
 13
-0.46200001
 23
-0.19149999
  0
ENDBLK
  5
4C3
100
AcDbEntity
100
AcDbBlockEnd
  0
BLOCK
  5
4C4
100
AcDbEntity
  8
Ech.1_10
100
AcDbBlockBegin
  2
*X1
 70
     1
 10
0.0
 20
0.0
 30
0.0
  3
*X1
  1

  4
Cadwork hatch
  0
LINE
  5
4C5
100
AcDbEntity
  8
Ech.1_10
 62
   190
  6
CONTINUOUS
370
    -2
100
AcDbLine
 10
68501.56815514
 20
-66677.2529826
 30
0.0
 11
68546.57132144
 21
-66457.25269845
 31
0.0
  0
LINE
  5
4C6
100
AcDbEntity
  8
Ech.1_10
 62
   190
  6
CONTINUOUS
370
    -2
100
AcDbLine
 10
68546.57132144
 20
-66677.2529826
 30
0.0
 11
68501.56815514
 21
-66457.25269845
 31
0.0
  0
ENDBLK
  5
4C7
100
AcDbEntity
100
AcDbBlockEnd
  0
BLOCK
  5
4C8
100
AcDbEntity
  8
Ech.1_10
100
AcDbBlockBegin
  2
*X2
 70
     1
 10
0.0
 20
0.0
 30
0.0
  3
*X2
  1

  4
Cadwork hatch
  0
LINE
  5
4C9
100
AcDbEntity
  8
Ech.1_10
 62
   190
  6
CONTINUOUS
370
    -2
100
AcDbLine
 10
68501.56815514
 20
-66013.25265915
 30
0.0
 11
68356.57416121
 21
-65968.25303847
 31
0.0
  0
LINE
  5
4CA
100
AcDbEntity
  8
Ech.1_10
 62
   190
  6
CONTINUOUS
370
    -2
100
AcDbLine
 10
68501.56815514
 20
-65968.25303847
 30
0.0
 11
68356.57416121
 21
-66013.25265915
 31
0.0
  0
ENDBLK
  5
4CB
100
AcDbEntity
100
AcDbBlockEnd
  0
BLOCK
  5
4CC
100
AcDbEntity
  8
Ech.1_10
100
AcDbBlockBegin
  2
*X3
 70
     1
 10
0.0
 20
0.0
 30
0.0
  3
*X3
  1

  4
Cadwork hatch
  0
LINE
  5
4CD
100
AcDbEntity
  8
Ech.1_10
 62
   190
  6
CONTINUOUS
370
    -2
100
AcDbLine
 10
68501.56815514
 20
-66138.25335013
 30
0.0
 11
68356.57416121
 21
-66093.25322294
 31
0.0
  0
LINE
  5
4CE
100
AcDbEntity
  8
Ech.1_10
 62
   190
  6
CONTINUOUS
370
    -2
100
AcDbLine
 10
68501.56815514
 20
-66093.25322294
 30
0.0
 11
68356.57416121
 21
-66138.25335013
 31
0.0
  0
ENDBLK
  5
4CF
100
AcDbEntity
100
AcDbBlockEnd
  0
BLOCK
  5
4D0
100
AcDbEntity
  8
Ech.1_10
100
AcDbBlockBegin
  2
*X4
 70
     1
 10
0.0
 20
0.0
 30
0.0
  3
*X4
  1

  4
Cadwork hatch
  0
LINE
  5
4D1
100
AcDbEntity
  8
Ech.1_10
 62
   190
  6
CONTINUOUS
370
    -2
100
AcDbLine
 10
69543.08389695
 20
-66677.2529826
 30
0.0
 11
69498.08073064
 21
-66457.25269845
 31
0.0
  0
LINE
  5
4D2
100
AcDbEntity
  8
Ech.1_10
 62
   190
  6
CONTINUOUS
370
    -2
100
AcDbLine
 10
69498.08073064
 20
-66677.2529826
 30
0.0
 11
69543.08389695
 21
-66457.25269845
 31
0.0
  0
ENDBLK
  5
4D3
100
AcDbEntity
100
AcDbBlockEnd
  0
BLOCK
  5
4D4
100
AcDbEntity
  8
Ech.1_10
100
AcDbBlockBegin
  2
*X5
 70
     1
 10
0.0
 20
0.0
 30
0.0
  3
*X5
  1

  4
Cadwork hatch
  0
LINE
  5
4D5
100
AcDbEntity
  8
Ech.1_10
 62
   190
  6
CONTINUOUS
370
    -2
100
AcDbLine
 10
69447.08038389
 20
-66013.25265915
 30
0.0
 11
69542.0870683
 21
-65968.25303847
 31
0.0
  0
LINE
  5
4D6
100
AcDbEntity
  8
Ech.1_10
 62
   190
  6
CONTINUOUS
370
    -2
100
AcDbLine
 10
69447.08038389
 20
-65968.25303847
 30
0.0
 11
69542.0870683
 21
-66013.25265915
 31
0.0
  0
ENDBLK
  5
4D7
100
AcDbEntity
100
AcDbBlockEnd
  0
BLOCK
  5
4D8
100
AcDbEntity
  8
Ech.1_10
100
AcDbBlockBegin
  2
*X6
 70
     1
 10
0.0
 20
0.0
 30
0.0
  3
*X6
  1

  4
Cadwork hatch
  0
LINE
  5
4D9
100
AcDbEntity
  8
Ech.1_10
 62
   190
  6
CONTINUOUS
370
    -2
100
AcDbLine
 10
69447.08038389
 20
-66138.25335013
 30
0.0
 11
69542.0870683
 21
-66093.25322294
 31
0.0
  0
LINE
  5
4DA
100
AcDbEntity
  8
Ech.1_10
 62
   190
  6
CONTINUOUS
370
    -2
100
AcDbLine
 10
69447.08038389
 20
-66093.25322294
 30
0.0
 11
69542.0870683
 21
-66138.25335013
 31
0.0
  0
ENDBLK
  5
4DB
100
AcDbEntity
100
AcDbBlockEnd
  0
BLOCK
  5
4DC
100
AcDbEntity
  8
Ech.1_10
100
AcDbBlockBegin
  2
*X7
 70
     1
 10
0.0
 20
0.0
 30
0.0
  3
*X7
  1

  4
Cadwork hatch
  0
LINE
  5
4DD
100
AcDbEntity
  8
Ech.1_10
 62
   190
  6
CONTINUOUS
370
    -2
100
AcDbLine
 10
69498.08073064
 20
-66677.2529826
 30
0.0
 11
69453.07756434
 21
-66457.25269845
 31
0.0
  0
LINE
  5
4DE
100
AcDbEntity
  8
Ech.1_10
 62
   190
  6
CONTINUOUS
370
    -2
100
AcDbLine
 10
69453.07756434
 20
-66677.2529826
 30
0.0
 11
69498.08073064
 21
-66457.25269845
 31
0.0
  0
ENDBLK
  5
4DF
100
AcDbEntity
100
AcDbBlockEnd
  0
BLOCK
  5
4E0
100
AcDbEntity
  8
Ech.1_10
100
AcDbBlockBegin
  2
*X8
 70
     1
 10
0.0
 20
0.0
 30
0.0
  3
*X8
  1

  4
Cadwork hatch
  0
LINE
  5
4E1
100
AcDbEntity
  8
Ech.1_10
 62
   190
  6
CONTINUOUS
370
    -2
100
AcDbLine
 10
69447.08038389
 20
-66438.25318504
 30
0.0
 11
69542.0870683
 21
-66393.25255133
 31
0.0
  0
LINE
  5
4E2
100
AcDbEntity
  8
Ech.1_10
 62
   190
  6
CONTINUOUS
370
    -2
100
AcDbLine
 10
69447.08038389
 20
-66393.25255133
 30
0.0
 11
69542.0870683
 21
-66438.25318504
 31
0.0
  0
ENDBLK
  5
4E3
100
AcDbEntity
100
AcDbBlockEnd
  0
BLOCK
  5
4E4
100
AcDbEntity
  8
Ech.1_10
100
AcDbBlockBegin
  2
*X9
 70
     1
 10
0.0
 20
0.0
 30
0.0
  3
*X9
  1

  4
Cadwork hatch
  0
LINE
  5
4E5
100
AcDbEntity
  8
Ech.1_10
 62
   190
  6
CONTINUOUS
370
    -2
100
AcDbLine
 10
68501.56815514
 20
-67226.35310285
 30
0.0
 11
68356.57416121
 21
-67181.35348218
 31
0.0
  0
LINE
  5
4E6
100
AcDbEntity
  8
Ech.1_10
 62
   190
  6
CONTINUOUS
370
    -2
100
AcDbLine
 10
68501.56815514
 20
-67181.35348218
 30
0.0
 11
68356.57416121
 21
-67226.35310285
 31
0.0
  0
ENDBLK
  5
4E7
100
AcDbEntity
100
AcDbBlockEnd
  0
BLOCK
  5
4E8
100
AcDbEntity
  8
Ech.1_10
100
AcDbBlockBegin
  2
*X10
 70
     1
 10
0.0
 20
0.0
 30
0.0
  3
*X10
  1

  4
Cadwork hatch
  0
LINE
  5
4E9
100
AcDbEntity
  8
Ech.1_10
 62
   190
  6
CONTINUOUS
370
    -2
100
AcDbLine
 10
68501.56815514
 20
-67510.35353413
 30
0.0
 11
68356.57416121
 21
-67465.35340693
 31
0.0
  0
LINE
  5
4EA
100
AcDbEntity
  8
Ech.1_10
 62
   190
  6
CONTINUOUS
370
    -2
100
AcDbLine
 10
68501.56815514
 20
-67465.35340693
 30
0.0
 11
68356.57416121
 21
-67510.35353413
 31
0.0
  0
ENDBLK
  5
4EB
100
AcDbEntity
100
AcDbBlockEnd
  0
BLOCK
  5
4EC
100
AcDbEntity
  8
Ech.1_10
100
AcDbBlockBegin
  2
*X11
 70
     1
 10
0.0
 20
0.0
 30
0.0
  3
*X11
  1

  4
Cadwork hatch
  0
LINE
  5
4ED
100
AcDbEntity
  8
Ech.1_10
 62
   190
  6
CONTINUOUS
370
    -2
100
AcDbLine
 10
68356.57416121
 20
-67465.35340693
 30
0.0
 11
68401.56922321
 21
-67245.35362931
 31
0.0
  0
LINE
  5
4EE
100
AcDbEntity
  8
Ech.1_10
 62
   190
  6
CONTINUOUS
370
    -2
100
AcDbLine
 10
68401.56922321
 20
-67465.35340693
 30
0.0
 11
68356.57416121
 21
-67245.35362931
 31
0.0
  0
ENDBLK
  5
4EF
100
AcDbEntity
100
AcDbBlockEnd
  0
BLOCK
  5
4F0
100
AcDbEntity
  8
Ech.1_10
100
AcDbBlockBegin
  2
*X12
 70
     1
 10
0.0
 20
0.0
 30
0.0
  3
*X12
  1

  4
Cadwork hatch
  0
LINE
  5
4F1
100
AcDbEntity
  8
Ech.1_10
 62
   190
  6
CONTINUOUS
370
    -2
100
AcDbLine
 10
68501.56815514
 20
-67555.35340806
 30
0.0
 11
68356.57416121
 21
-67510.35353413
 31
0.0
  0
LINE
  5
4F2
100
AcDbEntity
  8
Ech.1_10
 62
   190
  6
CONTINUOUS
370
    -2
100
AcDbLine
 10
68501.56815514
 20
-67510.35353413
 30
0.0
 11
68356.57416121
 21
-67555.35340806
 31
0.0
  0
ENDBLK
  5
4F3
100
AcDbEntity
100
AcDbBlockEnd
  0
BLOCK
  5
4F4
100
AcDbEntity
  8
Ech.1_10
100
AcDbBlockBegin
  2
*X13
 70
     1
 10
0.0
 20
0.0
 30
0.0
  3
*X13
  1

  4
Cadwork hatch
  0
LINE
  5
4F5
100
AcDbEntity
  8
Ech.1_10
 62
   190
  6
CONTINUOUS
370
    -2
100
AcDbLine
 10
69543.08389695
 20
-67465.35340693
 30
0.0
 11
69498.08073064
 21
-67245.35362931
 31
0.0
  0
LINE
  5
4F6
100
AcDbEntity
  8
Ech.1_10
 62
   190
  6
CONTINUOUS
370
    -2
100
AcDbLine
 10
69498.08073064
 20
-67465.35340693
 30
0.0
 11
69543.08389695
 21
-67245.35362931
 31
0.0
  0
ENDBLK
  5
4F7
100
AcDbEntity
100
AcDbBlockEnd
  0
BLOCK
  5
4F8
100
AcDbEntity
  8
Ech.1_10
100
AcDbBlockBegin
  2
*X14
 70
     1
 10
0.0
 20
0.0
 30
0.0
  3
*X14
  1

  4
Cadwork hatch
  0
LINE
  5
4F9
100
AcDbEntity
  8
Ech.1_10
 62
   190
  6
CONTINUOUS
370
    -2
100
AcDbLine
 10
69498.08073064
 20
-67465.35340693
 30
0.0
 11
69453.07756434
 21
-67245.35362931
 31
0.0
  0
LINE
  5
4FA
100
AcDbEntity
  8
Ech.1_10
 62
   190
  6
CONTINUOUS
370
    -2
100
AcDbLine
 10
69453.07756434
 20
-67465.35340693
 30
0.0
 11
69498.08073064
 21
-67245.35362931
 31
0.0
  0
ENDBLK
  5
4FB
100
AcDbEntity
100
AcDbBlockEnd
  0
BLOCK
  5
4FC
100
AcDbEntity
  8
Ech.1_10
100
AcDbBlockBegin
  2
*D20
 70
     1
 10
0.0
 20
0.0
 30
0.0
  3
*D20
  1

  4
Cadwork dimension
  0
TEXT
  5
4FD
100
AcDbEntity
  8
Ech.1_10
 62
   190
370
    18
100
AcDbText
 10
68427.06662929
 20
-67413.15627057
 30
0.0
 40
25.0
  1
mini 50
  7
ARIAL
 50
0.0
 41
1.0
 51
0.0
100
AcDbText
  0
LINE
  5
4FE
100
AcDbEntity
  8
Ech.1_10
 62
   190
370
    -2
100
AcDbLine
 10
68401.57005394
 20
-67413.15627057
 30
0.0
 11
68401.57005394
 21
-67450.35353094
 31
0.0
  0
LINE
  5
4FF
100
AcDbEntity
  8
Ech.1_10
 62
   190
370
    -2
100
AcDbLine
 10
68501.57005394
 20
-67413.15627057
 30
0.0
 11
68501.57005394
 21
-67460.35353094
 31
0.0
  0
LINE
  5
500
100
AcDbEntity
  8
Ech.1_10
 62
   190
370
    -2
100
AcDbLine
 10
68396.57005394
 20
-67418.15627057
 30
0.0
 11
68506.57005394
 21
-67418.15627057
 31
0.0
  0
LINE
  5
501
100
AcDbEntity
  8
Ech.1_10
 62
   190
370
    -2
100
AcDbLine
 10
68399.07005394
 20
-67420.65627057
 30
0.0
 11
68404.07005394
 21
-67415.65627057
 31
0.0
  0
LINE
  5
502
100
AcDbEntity
  8
Ech.1_10
 62
   190
370
    -2
100
AcDbLine
 10
68499.07005394
 20
-67420.65627057
 30
0.0
 11
68504.07005394
 21
-67415.65627057
 31
0.0
  0
ENDBLK
  5
503
100
AcDbEntity
100
AcDbBlockEnd
  0
ENDSEC
  0
SECTION
  2
ENTITIES
  0
INSERT
  5
504
100
AcDbEntity
  8
Ech.1_10
 62
     0
370
    -3
100
AcDbBlockReference
  2
*X1
 10
0.0
 20
0.0
 30
0.0
  0
INSERT
  5
505
100
AcDbEntity
  8
Ech.1_10
 62
     0
370
    -3
100
AcDbBlockReference
  2
*X2
 10
0.0
 20
0.0
 30
0.0
  0
INSERT
  5
506
100
AcDbEntity
  8
Ech.1_10
 62
     0
370
    -3
100
AcDbBlockReference
  2
*X3
 10
0.0
 20
0.0
 30
0.0
  0
INSERT
  5
507
100
AcDbEntity
  8
Ech.1_10
 62
     0
370
    -3
100
AcDbBlockReference
  2
*X4
 10
0.0
 20
0.0
 30
0.0
  0
INSERT
  5
508
100
AcDbEntity
  8
Ech.1_10
 62
     0
370
    -3
100
AcDbBlockReference
  2
*X5
 10
0.0
 20
0.0
 30
0.0
  0
INSERT
  5
509
100
AcDbEntity
  8
Ech.1_10
 62
     0
370
    -3
100
AcDbBlockReference
  2
*X6
 10
0.0
 20
0.0
 30
0.0
  0
INSERT
  5
50A
100
AcDbEntity
  8
Ech.1_10
 62
     0
370
    -3
100
AcDbBlockReference
  2
*X7
 10
0.0
 20
0.0
 30
0.0
  0
INSERT
  5
50B
100
AcDbEntity
  8
Ech.1_10
 62
     0
370
    -3
100
AcDbBlockReference
  2
*X8
 10
0.0
 20
0.0
 30
0.0
  0
INSERT
  5
50C
100
AcDbEntity
  8
Ech.1_10
 62
     0
370
    -3
100
AcDbBlockReference
  2
*X9
 10
0.0
 20
0.0
 30
0.0
  0
INSERT
  5
50D
100
AcDbEntity
  8
Ech.1_10
 62
     0
370
    -3
100
AcDbBlockReference
  2
*X10
 10
0.0
 20
0.0
 30
0.0
  0
INSERT
  5
50E
100
AcDbEntity
  8
Ech.1_10
 62
     0
370
    -3
100
AcDbBlockReference
  2
*X11
 10
0.0
 20
0.0
 30
0.0
  0
INSERT
  5
50F
100
AcDbEntity
  8
Ech.1_10
 62
     0
370
    -3
100
AcDbBlockReference
  2
*X12
 10
0.0
 20
0.0
 30
0.0
  0
INSERT
  5
510
100
AcDbEntity
  8
Ech.1_10
 62
     0
370
    -3
100
AcDbBlockReference
  2
*X13
 10
0.0
 20
0.0
 30
0.0
  0
INSERT
  5
511
100
AcDbEntity
  8
Ech.1_10
 62
     0
370
    -3
100
AcDbBlockReference
  2
*X14
 10
0.0
 20
0.0
 30
0.0
  0
3DFACE
  5
512
100
AcDbEntity
  8
Ech.1_10
 62
     9
  6
CONTINUOUS
370
    -3
100
AcDbFace
 70
     0
 10
69542.08174596
 20
-67426.35353094
 30
-3312.86048889
 11
70954.1530979
 21
-67426.35353094
 31
-3312.86048889
 12
70954.1530979
 22
-67426.35353094
 32
-3512.86048889
 13
69542.08174596
 23
-67426.35353094
 33
-3512.86048889
  0
3DFACE
  5
513
100
AcDbEntity
  8
Ech.1_10
 62
     9
  6
CONTINUOUS
370
    -3
100
AcDbFace
 70
     0
 10
69742.08174596
 20
-67426.35353094
 30
-17081.86048889
 11
69542.08174596
 21
-67426.35353094
 31
-17081.86048889
 12
69542.08174596
 22
-67426.35353094
 32
-3512.86048889
 13
69742.08174596
 23
-67426.35353094
 33
-3512.86048889
  0
3DFACE
  5
514
100
AcDbEntity
  8
Ech.1_10
 62
     9
  6
CONTINUOUS
370
    -3
100
AcDbFace
 70
     0
 10
69542.08174596
 20
-67226.35353094
 30
-13652.36048889
 11
69542.08174596
 21
-67226.35353094
 31
-8304.86048889
 12
69542.08174596
 22
-67426.35353094
 32
-8304.86048889
 13
69542.08174596
 23
-67426.35353094
 33
-13652.36048889
  0
3DFACE
  5
515
100
AcDbEntity
  8
Ech.1_10
 62
     9
  6
CONTINUOUS
370
    -3
100
AcDbFace
 70
     0
 10
69542.08174596
 20
-67226.35353094
 30
-13652.36048889
 11
69542.08174596
 21
-67226.35353094
 31
-13652.36048889
 12
69542.08174596
 22
-67226.35353094
 32
-8304.86048889
 13
69542.08174596
 23
-67226.35353094
 33
-8304.86048889
  0
3DFACE
  5
516
100
AcDbEntity
  8
Ech.1_10
 62
     9
  6
CONTINUOUS
370
    -3
100
AcDbFace
 70
     0
 10
69542.08174596
 20
-67426.35353094
 30
-8304.86048889
 11
69542.08174596
 21
-67226.35353094
 31
-8304.86048889
 12
69542.08174596
 22
-67226.35353094
 32
-8304.86048889
 13
69542.08174596
 23
-67426.35353094
 33
-8304.86048889
  0
3DFACE
  5
517
100
AcDbEntity
  8
Ech.1_10
 62
     9
  6
CONTINUOUS
370
    -3
100
AcDbFace
 70
     0
 10
69542.08174596
 20
-67426.35353094
 30
-13652.36048889
 11
69542.08174596
 21
-67426.35353094
 31
-13652.36048889
 12
69542.08174596
 22
-67226.35353094
 32
-13652.36048889
 13
69542.08174596
 23
-67226.35353094
 33
-13652.36048889
  0
3DFACE
  5
518
100
AcDbEntity
  8
Ech.1_10
 62
     9
  6
CONTINUOUS
370
    -3
100
AcDbFace
 70
     0
 10
69542.08174596
 20
-68131.02349183
 30
-8304.86048889
 11
69542.08174596
 21
-67426.35353094
 31
-8304.86048889
 12
69542.08174596
 22
-67426.35353094
 32
-13652.36048889
 13
69542.08174596
 23
-67426.35353094
 33
-13652.36048889
  0
3DFACE
  5
519
100
AcDbEntity
  8
Ech.1_10
 62
     9
  6
CONTINUOUS
370
    -3
100
AcDbFace
 70
     0
 10
69542.08174596
 20
-67226.35353094
 30
-3512.86048889
 11
69542.08174596
 21
-67226.35353094
 31
-3312.86048889
 12
69542.08174596
 22
-66338.25288592
 32
-3312.86048889
 13
69542.08174596
 23
-66338.25288592
 33
-3512.86048889
  0
3DFACE
  5
51A
100
AcDbEntity
  8
Ech.1_10
 62
     9
  6
CONTINUOUS
370
    -3
100
AcDbFace
 70
     0
 10
69542.08174596
 20
-67226.35353094
 30
-3512.86048889
 11
70954.1530979
 21
-67226.35353094
 31
-3512.86048889
 12
70954.1530979
 22
-67226.35353094
 32
-3312.86048889
 13
69542.08174596
 23
-67226.35353094
 33
-3312.86048889
  0
3DFACE
  5
51B
100
AcDbEntity
  8
Ech.1_10
 62
     9
  6
CONTINUOUS
370
    -3
100
AcDbFace
 70
     0
 10
69542.08174596
 20
-66338.25288592
 30
-3512.86048889
 11
70954.1530979
 21
-66338.25288592
 31
-3512.86048889
 12
70954.1530979
 22
-67226.35353094
 32
-3512.86048889
 13
69542.08174596
 23
-67226.35353094
 33
-3512.86048889
  0
3DFACE
  5
51C
100
AcDbEntity
  8
Ech.1_10
 62
     9
  6
CONTINUOUS
370
    -3
100
AcDbFace
 70
     0
 10
69542.08174596
 20
-66338.25288592
 30
-3312.86048889
 11
70954.1530979
 21
-66338.25288592
 31
-3312.86048889
 12
70954.1530979
 22
-66338.25288592
 32
-3512.86048889
 13
69542.08174596
 23
-66338.25288592
 33
-3512.86048889
  0
3DFACE
  5
51D
100
AcDbEntity
  8
Ech.1_10
 62
     9
  6
CONTINUOUS
370
    -3
100
AcDbFace
 70
     0
 10
69542.08174596
 20
-67226.35353094
 30
-3312.86048889
 11
70954.1530979
 21
-67226.35353094
 31
-3312.86048889
 12
70954.1530979
 22
-66338.25288592
 32
-3312.86048889
 13
69542.08174596
 23
-66338.25288592
 33
-3312.86048889
  0
3DFACE
  5
51E
100
AcDbEntity
  8
Ech.1_10
 62
     9
  6
CONTINUOUS
370
    -3
100
AcDbFace
 70
     0
 10
69542.08174596
 20
-67226.35353094
 30
-17081.86048889
 11
69742.08174596
 21
-67226.35353094
 31
-17081.86048889
 12
69742.08174596
 22
-67226.35353094
 32
-11978.61048889
 13
69542.08174596
 23
-67226.35353094
 33
-11978.61048889
  0
3DFACE
  5
51F
100
AcDbEntity
  8
Ech.1_10
 62
     9
  6
CONTINUOUS
370
    -3
100
AcDbFace
 70
     0
 10
69742.08174596
 20
-66338.25288592
 30
-3512.86048889
 11
69542.08174596
 21
-66338.25288592
 31
-3512.86048889
 12
69542.08174596
 22
-67226.35353094
 32
-3512.86048889
 13
69742.08174596
 23
-67226.35353094
 33
-3512.86048889
  0
POLYLINE
  5
520
100
AcDbEntity
  8
Ech.1_10
 62
     9
  6
CONTINUOUS
370
    -3
100
AcDb3dPolyline
 66
     1
 70
     8
  0
VERTEX
  5
521
100
AcDbEntity
  8
Ech.1_10
100
AcDbVertex
100
AcDb3dPolylineVertex
 10
69742.08174596
 20
-67226.35353094
 30
-11978.61048889
 70
    32
  0
VERTEX
  5
522
100
AcDbEntity
  8
Ech.1_10
100
AcDbVertex
100
AcDb3dPolylineVertex
 10
69742.08174596
 20
-67144.53555542
 30
-11978.61048889
 70
    32
  0
VERTEX
  5
523
100
AcDbEntity
  8
Ech.1_10
100
AcDbVertex
100
AcDb3dPolylineVertex
 10
69742.08174596
 20
-67144.53555542
 30
-9978.61048889
 70
    32
  0
VERTEX
  5
524
100
AcDbEntity
  8
Ech.1_10
100
AcDbVertex
100
AcDb3dPolylineVertex
 10
69742.08174596
 20
-67226.35353094
 30
-9978.61048889
 70
    32
  0
VERTEX
  5
525
100
AcDbEntity
  8
Ech.1_10
100
AcDbVertex
100
AcDb3dPolylineVertex
 10
69742.08174596
 20
-67226.35353094
 30
-3512.86048889
 70
    32
  0
VERTEX
  5
526
100
AcDbEntity
  8
Ech.1_10
100
AcDbVertex
100
AcDb3dPolylineVertex
 10
69742.08174596
 20
-66338.25288592
 30
-3512.86048889
 70
    32
  0
VERTEX
  5
527
100
AcDbEntity
  8
Ech.1_10
100
AcDbVertex
100
AcDb3dPolylineVertex
 10
69742.08174596
 20
-66338.25288592
 30
-5208.86048889
 70
    32
  0
VERTEX
  5
528
100
AcDbEntity
  8
Ech.1_10
100
AcDbVertex
100
AcDb3dPolylineVertex
 10
69742.08174596
 20
-66338.25288592
 30
-5208.86048889
 70
    32
  0
SEQEND
  5
529
100
AcDbEntity
  8
Ech.1_10
  0
POLYLINE
  5
52A
100
AcDbEntity
  8
Ech.1_10
 62
     9
  6
CONTINUOUS
370
    -3
100
AcDb3dPolyline
 66
     1
 70
     8
  0
VERTEX
  5
52B
100
AcDbEntity
  8
Ech.1_10
100
AcDbVertex
100
AcDb3dPolylineVertex
 10
69742.08174596
 20
-67144.53555542
 30
-5208.86048889
 70
    32
  0
VERTEX
  5
52C
100
AcDbEntity
  8
Ech.1_10
100
AcDbVertex
100
AcDb3dPolylineVertex
 10
69742.08174596
 20
-67144.53555542
 30
-5208.86048889
 70
    32
  0
VERTEX
  5
52D
100
AcDbEntity
  8
Ech.1_10
100
AcDbVertex
100
AcDb3dPolylineVertex
 10
69742.08174596
 20
-68131.02349183
 30
-5208.86048889
 70
    32
  0
VERTEX
  5
52E
100
AcDbEntity
  8
Ech.1_10
100
AcDbVertex
100
AcDb3dPolylineVertex
 10
69742.08174596
 20
-68131.02349183
 30
-6608.86048889
 70
    32
  0
VERTEX
  5
52F
100
AcDbEntity
  8
Ech.1_10
100
AcDbVertex
100
AcDb3dPolylineVertex
 10
69742.08174596
 20
-67144.53555542
 30
-6608.86048889
 70
    32
  0
VERTEX
  5
530
100
AcDbEntity
  8
Ech.1_10
100
AcDbVertex
100
AcDb3dPolylineVertex
 10
69742.08174596
 20
-67144.53555542
 30
-5208.86048889
 70
    32
  0
SEQEND
  5
531
100
AcDbEntity
  8
Ech.1_10
  0
POLYLINE
  5
532
100
AcDbEntity
  8
Ech.1_10
 62
     9
  6
CONTINUOUS
370
    -3
100
AcDb3dPolyline
 66
     1
 70
     8
  0
VERTEX
  5
533
100
AcDbEntity
  8
Ech.1_10
100
AcDbVertex
100
AcDb3dPolylineVertex
 10
69742.08174596
 20
-66338.25288592
 30
-5208.86048889
 70
    32
  0
VERTEX
  5
534
100
AcDbEntity
  8
Ech.1_10
100
AcDbVertex
100
AcDb3dPolylineVertex
 10
69742.08174596
 20
-66338.25288592
 30
-14667.11048889
 70
    32
  0
VERTEX
  5
535
100
AcDbEntity
  8
Ech.1_10
100
AcDbVertex
100
AcDb3dPolylineVertex
 10
69742.08174596
 20
-66338.25288592
 30
-5208.86048889
 70
    32
  0
VERTEX
  5
536
100
AcDbEntity
  8
Ech.1_10
100
AcDbVertex
100
AcDb3dPolylineVertex
 10
69742.08174596
 20
-66338.25288592
 30
-14667.11048889
 70
    32
  0
VERTEX
  5
537
100
AcDbEntity
  8
Ech.1_10
100
AcDbVertex
100
AcDb3dPolylineVertex
 10
69742.08174596
 20
-66338.25288592
 30
-14667.11048889
 70
    32
  0
SEQEND
  5
538
100
AcDbEntity
  8
Ech.1_10
  0
POLYLINE
  5
539
100
AcDbEntity
  8
Ech.1_10
 62
     9
  6
CONTINUOUS
370
    -3
100
AcDb3dPolyline
 66
     1
 70
     8
  0
VERTEX
  5
53A
100
AcDbEntity
  8
Ech.1_10
100
AcDbVertex
100
AcDb3dPolylineVertex
 10
69742.08174596
 20
-67144.53555542
 30
-14667.11048889
 70
    32
  0
VERTEX
  5
53B
100
AcDbEntity
  8
Ech.1_10
100
AcDbVertex
100
AcDb3dPolylineVertex
 10
69742.08174596
 20
-67144.53555542
 30
-14667.11048889
 70
    32
  0
VERTEX
  5
53C
100
AcDbEntity
  8
Ech.1_10
100
AcDbVertex
100
AcDb3dPolylineVertex
 10
69742.08174596
 20
-68131.02349183
 30
-14667.11048889
 70
    32
  0
VERTEX
  5
53D
100
AcDbEntity
  8
Ech.1_10
100
AcDbVertex
100
AcDb3dPolylineVertex
 10
69742.08174596
 20
-68131.02349183
 30
-16067.11048889
 70
    32
  0
VERTEX
  5
53E
100
AcDbEntity
  8
Ech.1_10
100
AcDbVertex
100
AcDb3dPolylineVertex
 10
69742.08174596
 20
-67144.53555542
 30
-16067.11048889
 70
    32
  0
VERTEX
  5
53F
100
AcDbEntity
  8
Ech.1_10
100
AcDbVertex
100
AcDb3dPolylineVertex
 10
69742.08174596
 20
-67144.53555542
 30
-14667.11048889
 70
    32
  0
SEQEND
  5
540
100
AcDbEntity
  8
Ech.1_10
  0
POLYLINE
  5
541
100
AcDbEntity
  8
Ech.1_10
 62
     9
  6
CONTINUOUS
370
    -3
100
AcDb3dPolyline
 66
     1
 70
     8
  0
VERTEX
  5
542
100
AcDbEntity
  8
Ech.1_10
100
AcDbVertex
100
AcDb3dPolylineVertex
 10
69742.08174596
 20
-66338.25288592
 30
-14667.11048889
 70
    32
  0
VERTEX
  5
543
100
AcDbEntity
  8
Ech.1_10
100
AcDbVertex
100
AcDb3dPolylineVertex
 10
69742.08174596
 20
-66338.25288592
 30
-17081.86048889
 70
    32
  0
VERTEX
  5
544
100
AcDbEntity
  8
Ech.1_10
100
AcDbVertex
100
AcDb3dPolylineVertex
 10
69742.08174596
 20
-67226.35353094
 30
-17081.86048889
 70
    32
  0
VERTEX
  5
545
100
AcDbEntity
  8
Ech.1_10
100
AcDbVertex
100
AcDb3dPolylineVertex
 10
69742.08174596
 20
-67226.35353094
 30
-11978.61048889
 70
    32
  0
SEQEND
  5
546
100
AcDbEntity
  8
Ech.1_10
  0
3DFACE
  5
547
100
AcDbEntity
  8
Ech.1_10
 62
     9
  6
CONTINUOUS
370
    -3
100
AcDbFace
 70
     0
 10
69742.08174596
 20
-67226.35353094
 30
-3512.86048889
 11
69542.08174596
 21
-67226.35353094
 31
-3512.86048889
 12
69542.08174596
 22
-67226.35353094
 32
-9978.61048889
 13
69742.08174596
 23
-67226.35353094
 33
-9978.61048889
  0
3DFACE
  5
548
100
AcDbEntity
  8
Ech.1_10
 62
     9
  6
CONTINUOUS
370
    -3
100
AcDbFace
 70
     0
 10
69542.08174596
 20
-66338.25288592
 30
-17281.86048889
 11
70954.1530979
 21
-66338.25288592
 31
-17281.86048889
 12
70954.1530979
 22
-66338.25288592
 32
-3312.86048889
 13
69542.08174596
 23
-66338.25288592
 33
-3312.86048889
  0
3DFACE
  5
549
100
AcDbEntity
  8
Ech.1_10
 62
     9
  6
CONTINUOUS
370
    -3
100
AcDbFace
 70
     0
 10
69542.08174596
 20
-66138.25288592
 30
-17281.86048889
 11
70954.1530979
 21
-66138.25288592
 31
-17281.86048889
 12
70954.1530979
 22
-66338.25288592
 32
-17281.86048889
 13
69542.08174596
 23
-66338.25288592
 33
-17281.86048889
  0
3DFACE
  5
54A
100
AcDbEntity
  8
Ech.1_10
 62
     9
  6
CONTINUOUS
370
    -3
100
AcDbFace
 70
     0
 10
69542.08174596
 20
-66138.25288592
 30
-3312.86048889
 11
70954.1530979
 21
-66138.25288592
 31
-3312.86048889
 12
70954.1530979
 22
-66138.25288592
 32
-17281.86048889
 13
69542.08174596
 23
-66138.25288592
 33
-17281.86048889
  0
3DFACE
  5
54B
100
AcDbEntity
  8
Ech.1_10
 62
     9
  6
CONTINUOUS
370
    -3
100
AcDbFace
 70
     0
 10
69542.08174596
 20
-66338.25288592
 30
-3312.86048889
 11
70954.1530979
 21
-66338.25288592
 31
-3312.86048889
 12
70954.1530979
 22
-66138.25288592
 32
-3312.86048889
 13
69542.08174596
 23
-66138.25288592
 33
-3312.86048889
  0
3DFACE
  5
54C
100
AcDbEntity
  8
Ech.1_10
 62
     9
  6
CONTINUOUS
370
    -3
100
AcDbFace
 70
     0
 10
69542.08174596
 20
-67426.35353094
 30
-17281.86048889
 11
70954.1530979
 21
-67426.35353094
 31
-17281.86048889
 12
70954.1530979
 22
-67426.35353094
 32
-3312.86048889
 13
69542.08174596
 23
-67426.35353094
 33
-3312.86048889
  0
3DFACE
  5
54D
100
AcDbEntity
  8
Ech.1_10
 62
     9
  6
CONTINUOUS
370
    -3
100
AcDbFace
 70
     0
 10
69542.08174596
 20
-67226.35353094
 30
-17281.86048889
 11
69542.08174596
 21
-67426.35353094
 31
-17281.86048889
 12
69542.08174596
 22
-67426.35353094
 32
-3312.86048889
 13
69542.08174596
 23
-67226.35353094
 33
-3312.86048889
  0
3DFACE
  5
54E
100
AcDbEntity
  8
Ech.1_10
 62
     9
  6
CONTINUOUS
370
    -3
100
AcDbFace
 70
     0
 10
69542.08174596
 20
-67226.35353094
 30
-17281.86048889
 11
70954.1530979
 21
-67226.35353094
 31
-17281.86048889
 12
70954.1530979
 22
-67426.35353094
 32
-17281.86048889
 13
69542.08174596
 23
-67426.35353094
 33
-17281.86048889
  0
3DFACE
  5
54F
100
AcDbEntity
  8
Ech.1_10
 62
     9
  6
CONTINUOUS
370
    -3
100
AcDbFace
 70
     0
 10
69542.08174596
 20
-67226.35353094
 30
-3312.86048889
 11
70954.1530979
 21
-67226.35353094
 31
-3312.86048889
 12
70954.1530979
 22
-67226.35353094
 32
-17281.86048889
 13
69542.08174596
 23
-67226.35353094
 33
-17281.86048889
  0
3DFACE
  5
550
100
AcDbEntity
  8
Ech.1_10
 62
     9
  6
CONTINUOUS
370
    -3
100
AcDbFace
 70
     0
 10
69542.08174596
 20
-67426.35353094
 30
-3312.86048889
 11
70954.1530979
 21
-67426.35353094
 31
-3312.86048889
 12
70954.1530979
 22
-67226.35353094
 32
-3312.86048889
 13
69542.08174596
 23
-67226.35353094
 33
-3312.86048889
  0
3DFACE
  5
551
102
{ACAD_REACTORS
330
552
102
}
100
AcDbEntity
  8
Ech.1_10
 62
     9
  6
CONTINUOUS
370
    -3
100
AcDbFace
 70
     0
 10
69542.08174596
 20
-67226.35353094
 30
2500.0
 11
69542.08174596
 21
-67426.35353094
 31
2500.0
 12
70954.1530979
 22
-67426.35353094
 32
2500.0
 13
70954.1530979
 23
-67226.35353094
 33
2500.0
  0
HATCH
  5
552
100
AcDbEntity
  8
Ech.1_10
 62
     9
  6
CONTINUOUS
100
AcDbHatch
 10
0.0
 20
0.0
 30
0.0
210
0.0
220
0.0
230
1.0
  2
AR-CONC
 70
     0
 71
     1
 91
        1
 92
        7
 72
     0
 73
     1
 93
        4
 10
69542.08174596
 20
-67226.35353094
 10
69542.08174596
 20
-67426.35353094
 10
70954.1530979
 20
-67426.35353094
 10
70954.1530979
 20
-67226.35353094
 97
        1
330
551
 75
     0
 76
     2
 52
0.0
 41
0.11811097
 77
     0
 78
    13
 53
50.0
 43
0.0
 44
0.0
 45
-18.84283637
 46
1.64853443
 79
     2
 49
1.97029307
 49
-21.67322338
 53
355.0
 43
0.0
 44
0.0
 45
-3.64507756
 46
19.76051824
 79
     2
 49
1.57623377
 49
-17.3385787
 53
100.45140076
 43
1.57023568
 44
-0.13737749
 45
-15.19777228
 46
-18.11197244
 79
     2
 49
1.67449124
 49
-18.41940522
 53
46.18420029
 43
0.0
 44
5.25411576
 45
-28.03703353
 46
4.34827878
 79
     2
 49
2.95543872
 49
-32.50983238
 53
96.63559723
 43
2.33641885
 44
4.89175692
 45
-24.55412615
 46
-25.59063404
 79
     2
 49
2.51173697
 49
-27.62910426
 53
351.1842041
 43
0.0
 44
5.25411576
 45
24.55410288
 46
25.59065715
 79
     2
 49
2.36435249
 49
-26.00786805
 53
21.0
 43
2.62705699
 44
3.94058615
 45
-15.68109068
 46
10.57702905
 79
     2
 49
1.97029307
 49
-21.67322338
 53
326.0
 43
2.62705699
 44
3.94058615
 45
6.39203268
 46
19.05010734
 79
     2
 49
1.57623377
 49
-17.3385787
 53
71.45140076
 43
3.93381357
 44
3.05916555
 45
-22.07312962
 46
-8.47306182
 79
     2
 49
1.67449124
 49
-18.41940522
 53
37.5
 43
0.0
 44
0.0
 45
0.31944534
 46
8.74531245
 79
     6
 49
0.01875
 49
-17.12841332
 49
0.01875
 49
-17.60128498
 49
0.01875
 49
-17.40425348
 53
7.5
 43
0.0
 44
0.0
 45
6.91098818
 46
10.3614222
 79
     6
 49
0.01875
 49
-10.03535807
 49
0.01875
 49
-16.7343539
 49
0.01875
 49
-6.6333206
 53
-32.5
 43
-5.85833833
 44
0.0
 45
14.02382061
 46
-0.59253003
 79
     6
 49
0.01875
 49
-6.56764314
 49
0.01875
 49
-20.49104869
 49
0.01875
 49
-27.19004452
 53
-42.5
 43
-8.48539531
 44
0.0
 45
15.32063571
 46
2.62981542
 79
     6
 49
0.01875
 49
-8.53793621
 49
0.01875
 49
-13.60815793
 49
0.01875
 49
-19.30887222
 47
0.775229
 98
        1
 10
0.0
 20
0.0
  0
LWPOLYLINE
  5
553
100
AcDbEntity
  8
Ech.1_10
 62
    31
  6
CONTINUOUS
370
    -3
100
AcDbPolyline
 90
        6
 70
     1
 43
0.0
 10
69428.08368969
 20
-66288.25288592
 10
69049.44247203
 20
-66288.25288592
 10
69049.44247203
 20
-66438.25288592
 10
69428.08234746
 20
-66438.25288592
 10
69428.08397701
 20
-66405.11480314
 10
69428.08397701
 20
-66386.25288592
  0
LWPOLYLINE
  5
554
100
AcDbEntity
  8
Ech.1_10
 62
    31
  6
CONTINUOUS
370
    -3
100
AcDbPolyline
 90
        4
 70
     1
 43
0.0
 10
68520.57005394
 20
-66288.25288592
 10
68520.57005394
 20
-66438.25288592
 10
69013.05305756
 20
-66438.25288592
 10
69013.05305756
 20
-66288.25288592
  0
LWPOLYLINE
  5
555
100
AcDbEntity
  8
Ech.1_10
 62
    31
  6
CONTINUOUS
370
    -3
100
AcDbPolyline
 90
        4
 70
     1
 43
0.0
 10
69049.44247203
 20
-66138.25288592
 10
69049.44247203
 20
-66288.25288592
 10
69428.08368969
 20
-66288.25288592
 10
69428.08324991
 20
-66138.25288592
  0
LWPOLYLINE
  5
556
100
AcDbEntity
  8
Ech.1_10
 62
    31
  6
CONTINUOUS
370
    -3
100
AcDbPolyline
 90
        4
 70
     1
 43
0.0
 10
68520.57005394
 20
-66138.25288592
 10
68520.57005394
 20
-66288.25288592
 10
69013.05305756
 20
-66288.25288592
 10
69013.05305756
 20
-66138.25288592
  0
LWPOLYLINE
  5
557
100
AcDbEntity
  8
Ech.1_10
 62
   190
  6
CONTINUOUS
370
    -3
100
AcDbPolyline
 90
       38
 70
     0
 43
0.0
 10
69013.05305756
 20
-66163.25288592
 42
1.14028181
 10
68963.90491581
 20
-66169.72337662
 10
68987.20119932
 20
-66256.78239522
 42
-1.30322619
 10
68938.90491581
 20
-66256.78239522
 10
68962.20119932
 20
-66169.72337662
 42
1.30322619
 10
68913.90491581
 20
-66169.72337662
 10
68937.20119932
 20
-66256.78239522
 42
-1.30322619
 10
68888.90491581
 20
-66256.78239522
 10
68912.20119932
 20
-66169.72337662
 42
1.30322619
 10
68863.90491581
 20
-66169.72337662
 10
68887.20119932
 20
-66256.78239522
 42
-1.30322619
 10
68838.90491581
 20
-66256.78239522
 10
68862.20119932
 20
-66169.72337662
 42
1.30322619
 10
68813.90491581
 20
-66169.72337662
 10
68837.20119932
 20
-66256.78239522
 42
-1.30322619
 10
68788.90491581
 20
-66256.78239522
 10
68812.20119932
 20
-66169.72337662
 42
1.30322619
 10
68763.90491581
 20
-66169.72337662
 10
68787.20119932
 20
-66256.78239522
 42
-1.30322619
 10
68738.90491581
 20
-66256.78239522
 10
68762.20119932
 20
-66169.72337662
 42
1.30322619
 10
68713.90491581
 20
-66169.72337662
 10
68737.20119932
 20
-66256.78239522
 42
-1.30322619
 10
68688.90491581
 20
-66256.78239522
 10
68712.20119932
 20
-66169.72337662
 42
1.30322619
 10
68663.90491581
 20
-66169.72337662
 10
68687.20119932
 20
-66256.78239522
 42
-1.30322619
 10
68638.90491581
 20
-66256.78239522
 10
68662.20119932
 20
-66169.72337662
 42
1.30322619
 10
68613.90491581
 20
-66169.72337662
 10
68637.20119932
 20
-66256.78239522
 42
-1.30322619
 10
68588.90491581
 20
-66256.78239522
 10
68612.20119932
 20
-66169.72337662
 42
1.30322619
 10
68563.90491581
 20
-66169.72337662
 10
68587.20119932
 20
-66256.78239522
 42
-1.30322619
 10
68538.90491581
 20
-66256.78239522
 10
68562.20119932
 20
-66169.72337662
 42
0.76298614
 10
68520.57005394
 20
-66145.38267092
  0
LWPOLYLINE
  5
558
100
AcDbEntity
  8
Ech.1_10
 62
   190
  6
CONTINUOUS
370
    -3
100
AcDbPolyline
 90
       38
 70
     0
 43
0.0
 10
69013.05343124
 20
-66313.25288592
 42
1.14028181
 10
68963.90528948
 20
-66319.72337662
 10
68987.20157299
 20
-66406.78239522
 42
-1.30322619
 10
68938.90528948
 20
-66406.78239522
 10
68962.20157299
 20
-66319.72337662
 42
1.30322619
 10
68913.90528948
 20
-66319.72337662
 10
68937.20157299
 20
-66406.78239522
 42
-1.30322619
 10
68888.90528948
 20
-66406.78239522
 10
68912.20157299
 20
-66319.72337662
 42
1.30322619
 10
68863.90528948
 20
-66319.72337662
 10
68887.20157299
 20
-66406.78239522
 42
-1.30322619
 10
68838.90528948
 20
-66406.78239522
 10
68862.20157299
 20
-66319.72337662
 42
1.30322619
 10
68813.90528948
 20
-66319.72337662
 10
68837.20157299
 20
-66406.78239522
 42
-1.30322619
 10
68788.90528948
 20
-66406.78239522
 10
68812.20157299
 20
-66319.72337662
 42
1.30322619
 10
68763.90528948
 20
-66319.72337662
 10
68787.20157299
 20
-66406.78239522
 42
-1.30322619
 10
68738.90528948
 20
-66406.78239522
 10
68762.20157299
 20
-66319.72337662
 42
1.30322619
 10
68713.90528948
 20
-66319.72337662
 10
68737.20157299
 20
-66406.78239522
 42
-1.30322619
 10
68688.90528948
 20
-66406.78239522
 10
68712.20157299
 20
-66319.72337662
 42
1.30322619
 10
68663.90528948
 20
-66319.72337662
 10
68687.20157299
 20
-66406.78239522
 42
-1.30322619
 10
68638.90528948
 20
-66406.78239522
 10
68662.20157299
 20
-66319.72337662
 42
1.30322619
 10
68613.90528948
 20
-66319.72337662
 10
68637.20157299
 20
-66406.78239522
 42
-1.30322619
 10
68588.90528948
 20
-66406.78239522
 10
68612.20157299
 20
-66319.72337662
 42
1.30322619
 10
68563.90528948
 20
-66319.72337662
 10
68587.20157299
 20
-66406.78239522
 42
-1.30322619
 10
68538.90528948
 20
-66406.78239522
 10
68562.20157299
 20
-66319.72337662
 42
0.76299441
 10
68520.57005394
 20
-66295.3830365
  0
LWPOLYLINE
  5
559
100
AcDbEntity
  8
Ech.1_10
 62
   190
  6
CONTINUOUS
370
    -3
100
AcDbPolyline
 90
       28
 70
     0
 43
0.0
 10
69419.19296636
 20
-66161.60790157
 42
1.14028181
 10
69370.07458338
 20
-66168.29691522
 10
69393.75771533
 20
-66255.25056985
 42
-1.30322619
 10
69345.46238772
 20
-66255.46543112
 10
69368.37090061
 20
-66168.30449474
 42
1.30322619
 10
69320.075573
 20
-66168.519356
 10
69343.75870494
 20
-66255.47301064
 42
-1.30322619
 10
69295.46337733
 20
-66255.6878719
 10
69318.37189022
 20
-66168.52693552
 42
1.30322619
 10
69270.07656261
 20
-66168.74179679
 10
69293.75969456
 20
-66255.69545142
 42
-1.30322619
 10
69245.46436695
 20
-66255.91031268
 10
69268.37287984
 20
-66168.74937631
 42
1.30322619
 10
69220.07755223
 20
-66168.96423757
 10
69243.76068418
 20
-66255.9178922
 42
-1.30322619
 10
69195.46535657
 20
-66256.13275347
 10
69218.37386946
 20
-66168.97181709
 42
1.30322619
 10
69170.07854185
 20
-66169.18667836
 10
69193.7616738
 20
-66256.14033299
 42
-1.30322619
 10
69145.46634619
 20
-66256.35519425
 10
69168.37485908
 20
-66169.19425788
 42
1.30322619
 10
69120.07953147
 20
-66169.40911914
 10
69143.76266341
 20
-66256.36277377
 42
-1.30322619
 10
69095.4673358
 20
-66256.57763503
 10
69118.3758487
 20
-66169.41669866
 42
1.30322619
 10
69070.08052109
 20
-66169.63155992
 10
69093.76365303
 20
-66256.58521456
 42
-0.81558487
 10
69050.06735267
 20
-66278.71010256
  0
LWPOLYLINE
  5
55A
100
AcDbEntity
  8
Ech.1_10
 62
   190
  6
CONTINUOUS
370
    -3
100
AcDbPolyline
 90
       28
 70
     0
 43
0.0
 10
69419.08218574
 20
-66313.25288592
 42
1.14028181
 10
69369.93404399
 20
-66319.72337662
 10
69393.2303275
 20
-66406.78239522
 42
-1.30322619
 10
69344.93404399
 20
-66406.78239522
 10
69368.2303275
 20
-66319.72337662
 42
1.30322619
 10
69319.93404399
 20
-66319.72337662
 10
69343.2303275
 20
-66406.78239522
 42
-1.30322619
 10
69294.93404399
 20
-66406.78239522
 10
69318.2303275
 20
-66319.72337662
 42
1.30322619
 10
69269.93404399
 20
-66319.72337662
 10
69293.2303275
 20
-66406.78239522
 42
-1.30322619
 10
69244.93404399
 20
-66406.78239522
 10
69268.2303275
 20
-66319.72337662
 42
1.30322619
 10
69219.93404399
 20
-66319.72337662
 10
69243.2303275
 20
-66406.78239522
 42
-1.30322619
 10
69194.93404399
 20
-66406.78239522
 10
69218.2303275
 20
-66319.72337662
 42
1.30322619
 10
69169.93404399
 20
-66319.72337662
 10
69193.2303275
 20
-66406.78239522
 42
-1.30322619
 10
69144.93404399
 20
-66406.78239522
 10
69168.2303275
 20
-66319.72337662
 42
1.30322619
 10
69119.93404399
 20
-66319.72337662
 10
69143.2303275
 20
-66406.78239522
 42
-1.30322619
 10
69094.93404399
 20
-66406.78239522
 10
69118.2303275
 20
-66319.72337662
 42
1.30322619
 10
69069.93404399
 20
-66319.72337662
 10
69093.2303275
 20
-66406.78239522
 42
-0.81539977
 10
69049.44247203
 20
-66428.72161713
  0
LWPOLYLINE
  5
55B
100
AcDbEntity
  8
Ech.1_10
 62
   190
  6
CONTINUOUS
370
    -3
100
AcDbPolyline
 90
        4
 70
     1
 43
0.0
 10
69049.44247203
 20
-66438.25288592
 10
69049.44247203
 20
-66457.25288592
 10
69542.08174596
 20
-66457.25288592
 10
69542.08174596
 20
-66438.25288592
  0
LWPOLYLINE
  5
55C
100
AcDbEntity
  8
Ech.1_10
 62
   190
  6
CONTINUOUS
370
    -3
100
AcDbPolyline
 90
        4
 70
     1
 43
0.0
 10
68511.57005394
 20
-66438.25288592
 10
68511.57005394
 20
-66457.25288592
 10
69013.05305756
 20
-66457.25288592
 10
69013.05305756
 20
-66438.25288592
  0
LWPOLYLINE
  5
55D
100
AcDbEntity
  8
Ech.1_10
 62
   190
  6
CONTINUOUS
370
    -3
100
AcDbPolyline
 90
        4
 70
     1
 43
0.0
 10
69049.44247203
 20
-66777.25272342
 10
69049.44247203
 20
-66790.25272342
 10
69542.08174596
 20
-66790.25272342
 10
69542.08174596
 20
-66777.25272342
  0
LWPOLYLINE
  5
55E
100
AcDbEntity
  8
Ech.1_10
 62
   190
  6
CONTINUOUS
370
    -3
100
AcDbPolyline
 90
        4
 70
     1
 43
0.0
 10
68501.57005394
 20
-66777.25272342
 10
68501.57005394
 20
-66790.25272342
 10
69013.05305756
 20
-66790.25272342
 10
69013.05305756
 20
-66777.25272342
  0
LWPOLYLINE
  5
55F
100
AcDbEntity
  8
Ech.1_10
 62
     7
  6
CONTINUOUS
370
    -3
100
AcDbPolyline
 90
        4
 70
     1
 43
0.0
 10
69049.44247203
 20
-66457.25288592
 10
69049.44247203
 20
-66677.25288592
 10
69453.08174596
 20
-66677.25288592
 10
69453.08174596
 20
-66457.25288592
  0
LWPOLYLINE
  5
560
100
AcDbEntity
  8
Ech.1_10
 62
     7
  6
CONTINUOUS
370
    -3
100
AcDbPolyline
 90
        4
 70
     1
 43
0.0
 10
68546.57005394
 20
-66457.25288592
 10
68546.57005394
 20
-66677.25288592
 10
69013.05305756
 20
-66677.25288592
 10
69013.05305756
 20
-66457.25288592
  0
LWPOLYLINE
  5
561
100
AcDbEntity
  8
Ech.1_10
 62
   190
  6
CONTINUOUS
370
    -3
100
AcDbPolyline
 90
        4
 70
     1
 43
0.0
 10
69049.44247203
 20
-66677.25288592
 10
69049.44247203
 20
-66777.25288592
 10
69542.08174596
 20
-66777.25288592
 10
69542.08174596
 20
-66677.25288592
  0
LWPOLYLINE
  5
562
100
AcDbEntity
  8
Ech.1_10
 62
   190
  6
CONTINUOUS
370
    -3
100
AcDbPolyline
 90
        4
 70
     1
 43
0.0
 10
68501.57005394
 20
-66677.25288592
 10
68501.57005394
 20
-66777.25288592
 10
69013.05305756
 20
-66777.25288592
 10
69013.05305756
 20
-66677.25288592
  0
LWPOLYLINE
  5
563
100
AcDbEntity
  8
Ech.1_10
 62
     7
  6
CONTINUOUS
370
    -3
100
AcDbPolyline
 90
        4
 70
     1
 43
0.0
 10
68287.57005394
 20
-66138.25288592
 10
68347.57005394
 20
-66138.25288592
 10
68347.57005394
 20
-66093.25288592
 10
68287.57005394
 20
-66093.25288592
  0
LWPOLYLINE
  5
564
100
AcDbEntity
  8
Ech.1_10
 62
   190
  6
CONTINUOUS
370
    -3
100
AcDbPolyline
 90
        4
 70
     1
 43
0.0
 10
68287.57005394
 20
-66138.25288592
 10
68287.57005394
 20
-66964.07453266
 10
68347.57005394
 20
-66964.07453266
 10
68347.57005394
 20
-66138.25288592
  0
LWPOLYLINE
  5
565
100
AcDbEntity
  8
Ech.1_10
 62
   190
  6
CONTINUOUS
370
    -3
100
AcDbPolyline
 90
      164
 70
     0
 43
0.0
 10
68337.57005394
 20
-66964.07456356
 42
1.14028181
 10
68334.98185766
 20
-66944.41530686
 10
68300.15825022
 20
-66953.73382026
 42
-1.30322619
 10
68300.15825022
 20
-66934.41530686
 10
68334.98185766
 20
-66943.73382026
 42
1.30322619
 10
68334.98185766
 20
-66924.41530686
 10
68300.15825022
 20
-66933.73382026
 42
-1.30322619
 10
68300.15825022
 20
-66914.41530686
 10
68334.98185766
 20
-66923.73382026
 42
1.30322619
 10
68334.98185766
 20
-66904.41530686
 10
68300.15825022
 20
-66913.73382026
 42
-1.30322619
 10
68300.15825022
 20
-66894.41530686
 10
68334.98185766
 20
-66903.73382026
 42
1.30322619
 10
68334.98185766
 20
-66884.41530686
 10
68300.15825022
 20
-66893.73382026
 42
-1.30322619
 10
68300.15825022
 20
-66874.41530686
 10
68334.98185766
 20
-66883.73382026
 42
1.30322619
 10
68334.98185766
 20
-66864.41530686
 10
68300.15825022
 20
-66873.73382026
 42
-1.30322619
 10
68300.15825022
 20
-66854.41530686
 10
68334.98185766
 20
-66863.73382026
 42
1.30322619
 10
68334.98185766
 20
-66844.41530686
 10
68300.15825022
 20
-66853.73382026
 42
-1.30322619
 10
68300.15825022
 20
-66834.41530686
 10
68334.98185766
 20
-66843.73382026
 42
1.30322619
 10
68334.98185766
 20
-66824.41530686
 10
68300.15825022
 20
-66833.73382026
 42
-1.30322619
 10
68300.15825022
 20
-66814.41530686
 10
68334.98185766
 20
-66823.73382026
 42
1.30322619
 10
68334.98185766
 20
-66804.41530686
 10
68300.15825022
 20
-66813.73382026
 42
-1.30322619
 10
68300.15825022
 20
-66794.41530686
 10
68334.98185766
 20
-66803.73382026
 42
1.30322619
 10
68334.98185766
 20
-66784.41530686
 10
68300.15825022
 20
-66793.73382026
 42
-1.30322619
 10
68300.15825022
 20
-66774.41530686
 10
68334.98185766
 20
-66783.73382026
 42
1.30322619
 10
68334.98185766
 20
-66764.41530686
 10
68300.15825022
 20
-66773.73382026
 42
-1.30322619
 10
68300.15825022
 20
-66754.41530686
 10
68334.98185766
 20
-66763.73382026
 42
1.30322619
 10
68334.98185766
 20
-66744.41530686
 10
68300.15825022
 20
-66753.73382026
 42
-1.30322619
 10
68300.15825022
 20
-66734.41530686
 10
68334.98185766
 20
-66743.73382026
 42
1.30322619
 10
68334.98185766
 20
-66724.41530686
 10
68300.15825022
 20
-66733.73382026
 42
-1.30322619
 10
68300.15825022
 20
-66714.41530686
 10
68334.98185766
 20
-66723.73382026
 42
1.30322619
 10
68334.98185766
 20
-66704.41530686
 10
68300.15825022
 20
-66713.73382026
 42
-1.30322619
 10
68300.15825022
 20
-66694.41530686
 10
68334.98185766
 20
-66703.73382026
 42
1.30322619
 10
68334.98185766
 20
-66684.41530686
 10
68300.15825022
 20
-66693.73382026
 42
-1.30322619
 10
68300.15825022
 20
-66674.41530686
 10
68334.98185766
 20
-66683.73382026
 42
1.30322619
 10
68334.98185766
 20
-66664.41530686
 10
68300.15825022
 20
-66673.73382026
 42
-1.30322619
 10
68300.15825022
 20
-66654.41530686
 10
68334.98185766
 20
-66663.73382026
 42
1.30322619
 10
68334.98185766
 20
-66644.41530686
 10
68300.15825022
 20
-66653.73382026
 42
-1.30322619
 10
68300.15825022
 20
-66634.41530686
 10
68334.98185766
 20
-66643.73382026
 42
1.30322619
 10
68334.98185766
 20
-66624.41530686
 10
68300.15825022
 20
-66633.73382026
 42
-1.30322619
 10
68300.15825022
 20
-66614.41530686
 10
68334.98185766
 20
-66623.73382026
 42
1.30322619
 10
68334.98185766
 20
-66604.41530686
 10
68300.15825022
 20
-66613.73382026
 42
-1.30322619
 10
68300.15825022
 20
-66594.41530686
 10
68334.98185766
 20
-66603.73382026
 42
1.30322619
 10
68334.98185766
 20
-66584.41530686
 10
68300.15825022
 20
-66593.73382026
 42
-1.30322619
 10
68300.15825022
 20
-66574.41530686
 10
68334.98185766
 20
-66583.73382026
 42
1.30322619
 10
68334.98185766
 20
-66564.41530686
 10
68300.15825022
 20
-66573.73382026
 42
-1.30322619
 10
68300.15825022
 20
-66554.41530686
 10
68334.98185766
 20
-66563.73382026
 42
1.30322619
 10
68334.98185766
 20
-66544.41530686
 10
68300.15825022
 20
-66553.73382026
 42
-1.30322619
 10
68300.15825022
 20
-66534.41530686
 10
68334.98185766
 20
-66543.73382026
 42
1.30322619
 10
68334.98185766
 20
-66524.41530686
 10
68300.15825022
 20
-66533.73382026
 42
-1.30322619
 10
68300.15825022
 20
-66514.41530686
 10
68334.98185766
 20
-66523.73382026
 42
1.30322619
 10
68334.98185766
 20
-66504.41530686
 10
68300.15825022
 20
-66513.73382026
 42
-1.30322619
 10
68300.15825022
 20
-66494.41530686
 10
68334.98185766
 20
-66503.73382026
 42
1.30322619
 10
68334.98185766
 20
-66484.41530686
 10
68300.15825022
 20
-66493.73382026
 42
-1.30322619
 10
68300.15825022
 20
-66474.41530686
 10
68334.98185766
 20
-66483.73382026
 42
1.30322619
 10
68334.98185766
 20
-66464.41530686
 10
68300.15825022
 20
-66473.73382026
 42
-1.30322619
 10
68300.15825022
 20
-66454.41530686
 10
68334.98185766
 20
-66463.73382026
 42
1.30322619
 10
68334.98185766
 20
-66444.41530686
 10
68300.15825022
 20
-66453.73382026
 42
-1.30322619
 10
68300.15825022
 20
-66434.41530686
 10
68334.98185766
 20
-66443.73382026
 42
1.30322619
 10
68334.98185766
 20
-66424.41530686
 10
68300.15825022
 20
-66433.73382026
 42
-1.30322619
 10
68300.15825022
 20
-66414.41530686
 10
68334.98185766
 20
-66423.73382026
 42
1.30322619
 10
68334.98185766
 20
-66404.41530686
 10
68300.15825022
 20
-66413.73382026
 42
-1.30322619
 10
68300.15825022
 20
-66394.41530686
 10
68334.98185766
 20
-66403.73382026
 42
1.30322619
 10
68334.98185766
 20
-66384.41530686
 10
68300.15825022
 20
-66393.73382026
 42
-1.30322619
 10
68300.15825022
 20
-66374.41530686
 10
68334.98185766
 20
-66383.73382026
 42
1.30322619
 10
68334.98185766
 20
-66364.41530686
 10
68300.15825022
 20
-66373.73382026
 42
-1.30322619
 10
68300.15825022
 20
-66354.41530686
 10
68334.98185766
 20
-66363.73382026
 42
1.30322619
 10
68334.98185766
 20
-66344.41530686
 10
68300.15825022
 20
-66353.73382026
 42
-1.30322619
 10
68300.15825022
 20
-66334.41530686
 10
68334.98185766
 20
-66343.73382026
 42
1.30322619
 10
68334.98185766
 20
-66324.41530686
 10
68300.15825022
 20
-66333.73382026
 42
-1.30322619
 10
68300.15825022
 20
-66314.41530686
 10
68334.98185766
 20
-66323.73382026
 42
1.30322619
 10
68334.98185766
 20
-66304.41530686
 10
68300.15825022
 20
-66313.73382026
 42
-1.30322619
 10
68300.15825022
 20
-66294.41530686
 10
68334.98185766
 20
-66303.73382026
 42
1.30322619
 10
68334.98185766
 20
-66284.41530686
 10
68300.15825022
 20
-66293.73382026
 42
-1.30322619
 10
68300.15825022
 20
-66274.41530686
 10
68334.98185766
 20
-66283.73382026
 42
1.30322619
 10
68334.98185766
 20
-66264.41530686
 10
68300.15825022
 20
-66273.73382026
 42
-1.30322619
 10
68300.15825022
 20
-66254.41530686
 10
68334.98185766
 20
-66263.73382026
 42
1.30322619
 10
68334.98185766
 20
-66244.41530686
 10
68300.15825022
 20
-66253.73382026
 42
-1.30322619
 10
68300.15825022
 20
-66234.41530686
 10
68334.98185766
 20
-66243.73382026
 42
1.30322619
 10
68334.98185766
 20
-66224.41530686
 10
68300.15825022
 20
-66233.73382026
 42
-1.30322619
 10
68300.15825022
 20
-66214.41530686
 10
68334.98185766
 20
-66223.73382026
 42
1.30322619
 10
68334.98185766
 20
-66204.41530686
 10
68300.15825022
 20
-66213.73382026
 42
-1.30322619
 10
68300.15825022
 20
-66194.41530686
 10
68334.98185766
 20
-66203.73382026
 42
1.30322619
 10
68334.98185766
 20
-66184.41530686
 10
68300.15825022
 20
-66193.73382026
 42
-1.30322619
 10
68300.15825022
 20
-66174.41530686
 10
68334.98185766
 20
-66183.73382026
 42
1.30322619
 10
68334.98185766
 20
-66164.41530686
 10
68300.15825022
 20
-66173.73382026
 42
-1.30322619
 10
68300.15825022
 20
-66154.41530686
 10
68334.98185766
 20
-66163.73382026
 42
1.30322619
 10
68334.98185766
 20
-66144.41530686
 10
68300.15825022
 20
-66153.73382026
 42
-0.70413711
 10
68289.43936704
 20
-66138.25288592
  0
LWPOLYLINE
  5
566
100
AcDbEntity
  8
Ech.1_10
 62
     7
  6
CONTINUOUS
370
    -3
100
AcDbPolyline
 90
        4
 70
     1
 43
0.0
 10
68287.57005394
 20
-66013.25288592
 10
68347.57005394
 20
-66013.25288592
 10
68347.57005394
 20
-65968.25288592
 10
68287.57005394
 20
-65968.25288592
  0
LWPOLYLINE
  5
567
100
AcDbEntity
  8
Ech.1_10
 62
   190
  6
CONTINUOUS
370
    -3
100
AcDbPolyline
 90
        9
 70
     1
 43
0.0
 10
68501.57005394
 20
-66841.25288397
 10
68501.57005394
 20
-66138.25288592
 10
68356.57005394
 20
-66138.25288592
 10
68356.57005394
 20
-66964.07456356
 10
68435.64252791
 20
-66964.07485515
 10
68452.12888199
 20
-66946.09650355
 10
68438.01894198
 20
-66982.05220356
 10
68454.50444513
 20
-66964.07485515
 10
68501.57005394
 20
-66964.0732256
  0
LWPOLYLINE
  5
568
100
AcDbEntity
  8
Ech.1_10
 62
   253
  6
CONTINUOUS
370
    15
100
AcDbPolyline
 90
        4
 70
     1
 43
0.0
 10
68541.57005394
 20
-66964.0732256
 10
68554.57005394
 20
-66964.0732256
 10
68554.57005394
 20
-66790.25287826
 10
68541.57005394
 20
-66790.25287826
  0
LWPOLYLINE
  5
569
102
{ACAD_REACTORS
330
56A
102
}
100
AcDbEntity
  8
Ech.1_10
 62
     7
  6
CONTINUOUS
370
    -3
100
AcDbPolyline
 90
        4
 70
     1
 43
0.0
 10
68541.57005394
 20
-66964.0732256
 10
68554.57005394
 20
-66964.0732256
 10
68554.57005394
 20
-66790.25287826
 10
68541.57005394
 20
-66790.25287826
  0
HATCH
  5
56A
100
AcDbEntity
  8
Ech.1_10
 62
   190
  6
CONTINUOUS
100
AcDbHatch
 10
0.0
 20
0.0
 30
0.0
210
0.0
220
0.0
230
1.0
  2
DOTS2
 70
     0
 71
     1
 91
        1
 92
        7
 72
     0
 73
     1
 93
        4
 10
68541.57005394
 20
-66964.0732256
 10
68554.57005394
 20
-66964.0732256
 10
68554.57005394
 20
-66790.25287826
 10
68541.57005394
 20
-66790.25287826
 97
        1
330
569
 75
     0
 76
     2
 52
0.0
 41
4.72440952
 77
     0
 78
     1
 53
0.0
 43
0.0
 44
0.0
 45
3.75
 46
3.535
 79
     2
 49
0.0
 49
-3.535
 47
0.775229
 98
        1
 10
0.0
 20
0.0
  0
LWPOLYLINE
  5
56B
100
AcDbEntity
  8
Ech.1_10
 62
   190
  6
CONTINUOUS
370
    -3
100
AcDbPolyline
 90
        4
 70
     1
 43
0.0
 10
68501.57005394
 20
-66964.0732256
 10
68541.57005394
 20
-66964.0732256
 10
68541.57005394
 20
-66841.25288397
 10
68501.57005394
 20
-66841.25288397
  0
LWPOLYLINE
  5
56C
100
AcDbEntity
  8
Ech.1_10
 62
   190
  6
CONTINUOUS
370
    -3
100
AcDbPolyline
 90
        4
 70
     1
 43
0.0
 10
68356.57005394
 20
-65968.25288592
 10
68347.57005394
 20
-65968.25288592
 10
68347.57005394
 20
-66964.07456356
 10
68356.57005394
 20
-66964.07456356
  0
LWPOLYLINE
  5
56D
100
AcDbEntity
  8
Ech.1_10
 62
   190
  6
CONTINUOUS
370
    -3
100
AcDbPolyline
 90
        6
 70
     0
 43
0.0
 10
68607.36715641
 20
-66964.0732256
 10
68454.50444513
 20
-66964.07485515
 10
68438.01894198
 20
-66982.05220356
 10
68452.12888199
 20
-66946.09650355
 10
68435.64252791
 20
-66964.07485515
 10
68222.57005394
 20
-66964.07406941
  0
LINE
  5
56E
100
AcDbEntity
  8
Ech.1_10
 62
   190
  6
CONTINUOUS
370
    -3
100
AcDbLine
 10
68347.57005394
 20
-66159.85074439
 30
0.0
 11
68347.57005394
 21
-66964.07453266
 31
0.0
  0
LWPOLYLINE
  5
56F
100
AcDbEntity
  8
Ech.1_10
 62
   190
  6
CONTINUOUS
370
    -3
100
AcDbPolyline
 90
        4
 70
     1
 43
0.0
 10
68546.57005394
 20
-66457.25288592
 10
68501.57005394
 20
-66457.25288592
 10
68501.57005394
 20
-66677.25288592
 10
68546.57005394
 20
-66677.25288592
  0
LWPOLYLINE
  5
570
100
AcDbEntity
  8
Ech.1_10
 62
   190
  6
CONTINUOUS
370
    -3
100
AcDbPolyline
 90
        4
 70
     1
 43
0.0
 10
68501.57005394
 20
-66677.25288592
 10
68546.57005394
 20
-66677.25288592
 10
68546.57005394
 20
-66457.25288592
 10
68501.57005394
 20
-66457.25288592
  0
LINE
  5
571
100
AcDbEntity
  8
Ech.1_10
370
    18
100
AcDbLine
 10
68262.57005394
 20
-66812.36299986
 30
0.0
 11
68262.57005394
 21
-66212.36297224
 31
0.0
  0
LWPOLYLINE
  5
572
100
AcDbEntity
  8
Ech.1_10
 62
     9
100
AcDbPolyline
 90
       27
 70
     0
 43
0.0
 10
68249.44343682
 20
-66662.48316683
 10
68249.57005394
 20
-66662.14869304
 10
68249.57005394
 20
-66634.76522894
 10
68256.57005394
 20
-66634.76522894
 10
68256.57005394
 20
-66643.76522894
 10
68262.57005394
 20
-66643.76522894
 10
68262.57005394
 20
-66616.76522894
 10
68258.57005394
 20
-66612.76522894
 10
68262.57005394
 20
-66608.76522894
 10
68262.57005394
 20
-66544.76522894
 10
68258.57005394
 20
-66540.76522894
 10
68262.57005394
 20
-66536.76522894
 10
68262.57005394
 20
-66501.76522894
 10
68255.57005394
 20
-66501.76522894
 10
68255.57005394
 20
-66495.76522894
 10
68253.07005394
 20
-66490.76522894
 10
68250.57005394
 20
-66495.76522894
 10
68250.57005394
 20
-66526.69416113
 10
68250.1894516
 20
-66528.60757829
 10
68244.03452003
 20
-66535.30076285
 10
68242.57005394
 20
-66538.83629676
 10
68242.57005394
 20
-66657.92304117
 10
68243.53037633
 20
-66659.55290981
 10
68248.26649719
 20
-66662.52425974
 10
68248.67849856
 20
-66662.76522894
 10
68248.99231605
 20
-66662.76522894
 10
68249.44343682
 20
-66662.48316683
  0
LWPOLYLINE
  5
573
100
AcDbEntity
  8
Ech.1_10
 62
     9
100
AcDbPolyline
 90
       27
 70
     0
 43
0.0
 10
68249.44343682
 20
-66807.48316683
 10
68249.57005394
 20
-66807.14869304
 10
68249.57005394
 20
-66779.76522894
 10
68256.57005394
 20
-66779.76522894
 10
68256.57005394
 20
-66788.76522894
 10
68262.57005394
 20
-66788.76522894
 10
68262.57005394
 20
-66761.76522894
 10
68258.57005394
 20
-66757.76522894
 10
68262.57005394
 20
-66753.76522894
 10
68262.57005394
 20
-66689.76522894
 10
68258.57005394
 20
-66685.76522894
 10
68262.57005394
 20
-66681.76522894
 10
68262.57005394
 20
-66646.76522894
 10
68255.57005394
 20
-66646.76522894
 10
68255.57005394
 20
-66640.76522894
 10
68253.07005394
 20
-66635.76522894
 10
68250.57005394
 20
-66640.76522894
 10
68250.57005394
 20
-66671.69416113
 10
68250.1894516
 20
-66673.60757829
 10
68244.03452003
 20
-66680.30076285
 10
68242.57005394
 20
-66683.83629676
 10
68242.57005394
 20
-66802.92304117
 10
68243.53037633
 20
-66804.55290981
 10
68248.26649719
 20
-66807.52425974
 10
68248.67849856
 20
-66807.76522894
 10
68248.99231605
 20
-66807.76522894
 10
68249.44343682
 20
-66807.48316683
  0
LWPOLYLINE
  5
574
100
AcDbEntity
  8
Ech.1_10
 62
     9
100
AcDbPolyline
 90
       27
 70
     0
 43
0.0
 10
68249.44343682
 20
-66517.48316683
 10
68249.57005394
 20
-66517.14869304
 10
68249.57005394
 20
-66489.76522894
 10
68256.57005394
 20
-66489.76522894
 10
68256.57005394
 20
-66498.76522894
 10
68262.57005394
 20
-66498.76522894
 10
68262.57005394
 20
-66471.76522894
 10
68258.57005394
 20
-66467.76522894
 10
68262.57005394
 20
-66463.76522894
 10
68262.57005394
 20
-66399.76522894
 10
68258.57005394
 20
-66395.76522894
 10
68262.57005394
 20
-66391.76522894
 10
68262.57005394
 20
-66356.76522894
 10
68255.57005394
 20
-66356.76522894
 10
68255.57005394
 20
-66350.76522894
 10
68253.07005394
 20
-66345.76522894
 10
68250.57005394
 20
-66350.76522894
 10
68250.57005394
 20
-66381.69416113
 10
68250.1894516
 20
-66383.60757829
 10
68244.03452003
 20
-66390.30076285
 10
68242.57005394
 20
-66393.83629676
 10
68242.57005394
 20
-66512.92304117
 10
68243.53037633
 20
-66514.55290981
 10
68248.26649719
 20
-66517.52425974
 10
68248.67849856
 20
-66517.76522894
 10
68248.99231605
 20
-66517.76522894
 10
68249.44343682
 20
-66517.48316683
  0
LWPOLYLINE
  5
575
100
AcDbEntity
  8
Ech.1_10
 62
     9
  6
CONTINUOUS
370
    -3
100
AcDbPolyline
 90
        4
 70
     1
 43
0.0
 10
68262.57005394
 20
-66964.14492908
 10
68287.57005394
 20
-66964.14484765
 10
68287.57005394
 20
-65968.25261855
 10
68262.57005394
 20
-65968.25288592
  0
LWPOLYLINE
  5
576
100
AcDbEntity
  8
Ech.1_10
 62
   190
  6
CONTINUOUS
370
    -3
100
AcDbPolyline
 90
        4
 70
     0
 43
0.0
 10
69013.05272506
 20
-66777.25288592
 10
68599.77833617
 20
-66777.25288592
 10
68599.77833617
 20
-66677.25288592
 10
69013.05272506
 20
-66677.25288592
  0
LINE
  5
577
100
AcDbEntity
  8
Ech.1_10
 62
   190
  6
CONTINUOUS
370
    -3
100
AcDbLine
 10
68501.57005394
 20
-66767.25288592
 30
0.0
 11
68501.57005394
 21
-66964.0732256
 31
0.0
  0
LWPOLYLINE
  5
578
100
AcDbEntity
  8
Ech.1_10
 62
     7
  6
CONTINUOUS
370
    -3
100
AcDbPolyline
 90
        4
 70
     1
 43
0.0
 10
68287.57005394
 20
-66794.62136096
 10
68347.57005394
 20
-66794.62136096
 10
68347.57005394
 20
-66749.62136096
 10
68287.57005394
 20
-66749.62136096
  0
LWPOLYLINE
  5
579
100
AcDbEntity
  8
Ech.1_10
 62
   190
370
    18
100
AcDbPolyline
 90
        4
 70
     0
 43
0.0
 10
68287.57005394
 20
-66749.62136096
 10
68347.57005394
 20
-66794.62136096
 10
68347.57005394
 20
-66749.62136096
 10
68287.57005394
 20
-66794.62136096
  0
LWPOLYLINE
  5
57A
100
AcDbEntity
  8
Ech.1_10
 62
     9
100
AcDbPolyline
 90
       27
 70
     0
 43
0.0
 10
68249.44343682
 20
-66952.48316683
 10
68249.57005394
 20
-66952.14869304
 10
68249.57005394
 20
-66924.76522894
 10
68256.57005394
 20
-66924.76522894
 10
68256.57005394
 20
-66933.76522894
 10
68262.57005394
 20
-66933.76522894
 10
68262.57005394
 20
-66906.76522894
 10
68258.57005394
 20
-66902.76522894
 10
68262.57005394
 20
-66898.76522894
 10
68262.57005394
 20
-66834.76522894
 10
68258.57005394
 20
-66830.76522894
 10
68262.57005394
 20
-66826.76522894
 10
68262.57005394
 20
-66791.76522894
 10
68255.57005394
 20
-66791.76522894
 10
68255.57005394
 20
-66785.76522894
 10
68253.07005394
 20
-66780.76522894
 10
68250.57005394
 20
-66785.76522894
 10
68250.57005394
 20
-66816.69416113
 10
68250.1894516
 20
-66818.60757829
 10
68244.03452003
 20
-66825.30076285
 10
68242.57005394
 20
-66828.83629676
 10
68242.57005394
 20
-66947.92304117
 10
68243.53037633
 20
-66949.55290981
 10
68248.26649719
 20
-66952.52425974
 10
68248.67849856
 20
-66952.76522894
 10
68248.99231605
 20
-66952.76522894
 10
68249.44343682
 20
-66952.48316683
  0
LWPOLYLINE
  5
57B
100
AcDbEntity
  8
Ech.1_10
 62
   190
  6
CONTINUOUS
370
    -3
100
AcDbPolyline
 90
       36
 70
     0
 43
0.0
 10
68534.90338727
 20
-66964.0732256
 42
1.14028181
 10
68533.17792308
 20
-66950.96705447
 10
68509.96218479
 20
-66957.17939673
 42
-1.30322619
 10
68509.96218479
 20
-66944.3003878
 10
68533.17792308
 20
-66950.51273007
 42
1.30322619
 10
68533.17792308
 20
-66937.63372113
 10
68509.96218479
 20
-66943.8460634
 42
-1.30322619
 10
68509.96218479
 20
-66930.96705447
 10
68533.17792308
 20
-66937.17939673
 42
1.30322619
 10
68533.17792308
 20
-66924.3003878
 10
68509.96218479
 20
-66930.51273007
 42
-1.30322619
 10
68509.96218479
 20
-66917.63372113
 10
68533.17792308
 20
-66923.8460634
 42
1.30322619
 10
68533.17792308
 20
-66910.96705447
 10
68509.96218479
 20
-66917.17939673
 42
-1.30322619
 10
68509.96218479
 20
-66904.3003878
 10
68533.17792308
 20
-66910.51273007
 42
1.30322619
 10
68533.17792308
 20
-66897.63372113
 10
68509.96218479
 20
-66903.8460634
 42
-1.30322619
 10
68509.96218479
 20
-66890.96705447
 10
68533.17792308
 20
-66897.17939673
 42
1.30322619
 10
68533.17792308
 20
-66884.3003878
 10
68509.96218479
 20
-66890.51273007
 42
-1.30322619
 10
68509.96218479
 20
-66877.63372113
 10
68533.17792308
 20
-66883.8460634
 42
1.30322619
 10
68533.17792308
 20
-66870.96705447
 10
68509.96218479
 20
-66877.17939673
 42
-1.30322619
 10
68509.96218479
 20
-66864.3003878
 10
68533.17792308
 20
-66870.51273007
 42
1.30322619
 10
68533.17792308
 20
-66857.63372113
 10
68509.96218479
 20
-66863.8460634
 42
-1.30322619
 10
68509.96218479
 20
-66850.96705447
 10
68533.17792308
 20
-66857.17939673
 42
1.30322619
 10
68533.17792308
 20
-66844.3003878
 10
68509.96218479
 20
-66850.51273007
 42
-0.63723841
 10
68502.19601555
 20
-66841.25288397
  0
LWPOLYLINE
  5
57C
102
{ACAD_REACTORS
330
57D
102
}
100
AcDbEntity
  8
Ech.1_10
 62
     7
  6
CONTINUOUS
370
    -3
100
AcDbPolyline
 90
        4
 70
     1
 43
0.0
 10
68356.57005394
 20
-65968.25288592
 10
68347.57005394
 20
-65968.25288592
 10
68347.57005394
 20
-66964.07456356
 10
68356.57005394
 20
-66964.07456356
  0
HATCH
  5
57D
100
AcDbEntity
  8
Ech.1_10
 62
   190
  6
CONTINUOUS
100
AcDbHatch
 10
0.0
 20
0.0
 30
0.0
210
0.0
220
0.0
230
1.0
  2
CDWK10A
 70
     0
 71
     1
 91
        1
 92
        7
 72
     0
 73
     1
 93
        4
 10
68356.57005394
 20
-65968.25288592
 10
68347.57005394
 20
-65968.25288592
 10
68347.57005394
 20
-66964.07456356
 10
68356.57005394
 20
-66964.07456356
 97
        1
330
57C
 75
     0
 76
     2
 52
0.0
 41
1.0
 77
     0
 78
     3
 53
45.0
 43
0.0
 44
0.0
 45
0.0
 46
42.00000167
 79
     0
 53
45.0
 43
0.0
 44
10.80000043
 45
0.0
 46
42.00000167
 79
     0
 53
45.0
 43
0.0
 44
21.60000086
 45
0.0
 46
42.00000167
 79
     0
 47
0.775229
 98
        1
 10
0.0
 20
0.0
  0
LWPOLYLINE
  5
57E
100
AcDbEntity
  8
Ech.1_10
 62
     9
100
AcDbPolyline
 90
        9
 70
     0
 43
0.0
 10
68262.57005394
 20
-66964.07416968
 10
68262.57005394
 20
-66936.76522894
 10
68255.57005394
 20
-66936.76522894
 10
68255.57005394
 20
-66930.76522894
 10
68253.07005394
 20
-66925.76522894
 10
68250.57005394
 20
-66930.76522894
 10
68250.57005394
 20
-66961.69416113
 10
68250.1894516
 20
-66963.60757829
 10
68249.76038259
 20
-66964.07416968
  0
LWPOLYLINE
  5
57F
100
AcDbEntity
  8
Ech.1_10
 62
     9
100
AcDbPolyline
 90
       27
 70
     0
 43
0.0
 10
68249.44343682
 20
-66372.48316683
 10
68249.57005394
 20
-66372.14869304
 10
68249.57005394
 20
-66344.76522894
 10
68256.57005394
 20
-66344.76522894
 10
68256.57005394
 20
-66353.76522894
 10
68262.57005394
 20
-66353.76522894
 10
68262.57005394
 20
-66326.76522894
 10
68258.57005394
 20
-66322.76522894
 10
68262.57005394
 20
-66318.76522894
 10
68262.57005394
 20
-66254.76522894
 10
68258.57005394
 20
-66250.76522894
 10
68262.57005394
 20
-66246.76522894
 10
68262.57005394
 20
-66211.76522894
 10
68255.57005394
 20
-66211.76522894
 10
68255.57005394
 20
-66205.76522894
 10
68253.07005394
 20
-66200.76522894
 10
68250.57005394
 20
-66205.76522894
 10
68250.57005394
 20
-66236.69416113
 10
68250.1894516
 20
-66238.60757829
 10
68244.03452003
 20
-66245.30076285
 10
68242.57005394
 20
-66248.83629676
 10
68242.57005394
 20
-66367.92304117
 10
68243.53037633
 20
-66369.55290981
 10
68248.26649719
 20
-66372.52425974
 10
68248.67849856
 20
-66372.76522894
 10
68248.99231605
 20
-66372.76522894
 10
68249.44343682
 20
-66372.48316683
  0
LWPOLYLINE
  5
580
100
AcDbEntity
  8
Ech.1_10
100
AcDbPolyline
 90
        4
 70
     0
 43
0.0
 10
69013.05272506
 20
-66777.25288592
 10
68501.57005394
 20
-66777.25288592
 10
68501.57005394
 20
-66752.57071582
 10
69013.05272506
 20
-66752.57071582
  0
LWPOLYLINE
  5
581
100
AcDbEntity
  8
Ech.1_10
370
    50
100
AcDbPolyline
 90
        3
 70
     0
 43
0.0
 10
68501.75669424
 20
-66753.93677763
 10
68501.75669424
 20
-66777.01529454
 10
68528.98253904
 20
-66777.01529454
  0
LWPOLYLINE
  5
582
100
AcDbEntity
  8
Ech.1_10
 62
   190
370
    18
100
AcDbPolyline
 90
        4
 70
     0
 43
0.0
 10
68287.57005394
 20
-66093.25288592
 10
68347.57005394
 20
-66138.25288592
 10
68347.57005394
 20
-66093.25288592
 10
68287.57005394
 20
-66138.25288592
  0
LWPOLYLINE
  5
583
100
AcDbEntity
  8
Ech.1_10
 62
   190
  6
CONTINUOUS
370
    -3
100
AcDbPolyline
 90
        4
 70
     1
 43
0.0
 10
68356.57005394
 20
-65968.25288592
 10
68356.57005394
 20
-66013.25288592
 10
68501.57005394
 20
-66013.25288592
 10
68501.57005394
 20
-65968.25288592
  0
LWPOLYLINE
  5
584
100
AcDbEntity
  8
Ech.1_10
 62
   190
  6
CONTINUOUS
370
    -3
100
AcDbPolyline
 90
        4
 70
     1
 43
0.0
 10
68501.57005394
 20
-66013.25288592
 10
68501.57005394
 20
-65968.25288592
 10
68356.57005394
 20
-65968.25288592
 10
68356.57005394
 20
-66013.25288592
  0
LWPOLYLINE
  5
585
100
AcDbEntity
  8
Ech.1_10
 62
   190
370
    18
100
AcDbPolyline
 90
        4
 70
     0
 43
0.0
 10
68287.57005394
 20
-65968.25288592
 10
68347.57005394
 20
-66013.25288592
 10
68347.57005394
 20
-65968.25288592
 10
68287.57005394
 20
-66013.25288592
  0
LWPOLYLINE
  5
586
100
AcDbEntity
  8
Ech.1_10
 62
   190
  6
CONTINUOUS
370
    -3
100
AcDbPolyline
 90
        4
 70
     1
 43
0.0
 10
68356.57005394
 20
-66093.25288592
 10
68356.57005394
 20
-66138.25288592
 10
68501.57005394
 20
-66138.25288592
 10
68501.57005394
 20
-66093.25288592
  0
LWPOLYLINE
  5
587
100
AcDbEntity
  8
Ech.1_10
 62
   190
  6
CONTINUOUS
370
    -3
100
AcDbPolyline
 90
        4
 70
     1
 43
0.0
 10
68501.57005394
 20
-66138.25288592
 10
68501.57005394
 20
-66093.25288592
 10
68356.57005394
 20
-66093.25288592
 10
68356.57005394
 20
-66138.25288592
  0
LWPOLYLINE
  5
588
100
AcDbEntity
  8
Ech.1_10
 62
     9
100
AcDbPolyline
 90
       27
 70
     0
 43
0.0
 10
68249.44343682
 20
-66227.48316683
 10
68249.57005394
 20
-66227.14869304
 10
68249.57005394
 20
-66199.76522894
 10
68256.57005394
 20
-66199.76522894
 10
68256.57005394
 20
-66208.76522894
 10
68262.57005394
 20
-66208.76522894
 10
68262.57005394
 20
-66181.76522894
 10
68258.57005394
 20
-66177.76522894
 10
68262.57005394
 20
-66173.76522894
 10
68262.57005394
 20
-66109.76522894
 10
68258.57005394
 20
-66105.76522894
 10
68262.57005394
 20
-66101.76522894
 10
68262.57005394
 20
-66066.76522894
 10
68255.57005394
 20
-66066.76522894
 10
68255.57005394
 20
-66060.76522894
 10
68253.07005394
 20
-66055.76522894
 10
68250.57005394
 20
-66060.76522894
 10
68250.57005394
 20
-66091.69416113
 10
68250.1894516
 20
-66093.60757829
 10
68244.03452003
 20
-66100.30076285
 10
68242.57005394
 20
-66103.83629676
 10
68242.57005394
 20
-66222.92304117
 10
68243.53037633
 20
-66224.55290981
 10
68248.26649719
 20
-66227.52425974
 10
68248.67849856
 20
-66227.76522894
 10
68248.99231605
 20
-66227.76522894
 10
68249.44343682
 20
-66227.48316683
  0
LWPOLYLINE
  5
589
100
AcDbEntity
  8
Ech.1_10
 62
     9
100
AcDbPolyline
 90
       16
 70
     0
 43
0.0
 10
68242.57005394
 20
-65988.25288592
 10
68242.57005394
 20
-66077.92304117
 10
68243.53037633
 20
-66079.55290981
 10
68248.26649719
 20
-66082.52425974
 10
68248.67849856
 20
-66082.76522894
 10
68248.99231605
 20
-66082.76522894
 10
68249.44343682
 20
-66082.48316683
 10
68249.57005394
 20
-66082.14869304
 10
68249.57005394
 20
-66054.76522894
 10
68256.57005394
 20
-66054.76522894
 10
68256.57005394
 20
-66063.76522894
 10
68262.57005394
 20
-66063.76522894
 10
68262.57005394
 20
-66036.76522894
 10
68258.57005394
 20
-66032.76522894
 10
68262.57005394
 20
-66028.76522894
 10
68262.57005394
 20
-65988.25288592
  0
LWPOLYLINE
  5
58A
100
AcDbEntity
  8
Ech.1_10
 62
   190
  6
CONTINUOUS
370
    -3
100
AcDbPolyline
 90
        4
 70
     1
 43
0.0
 10
68501.57005394
 20
-66438.25288592
 10
68520.57005394
 20
-66438.25288592
 10
68520.57005394
 20
-65968.25288592
 10
68501.57005394
 20
-65968.25288592
  0
LWPOLYLINE
  5
58B
102
{ACAD_REACTORS
330
58C
102
}
100
AcDbEntity
  8
Ech.1_10
 62
     7
  6
CONTINUOUS
370
    -3
100
AcDbPolyline
 90
        4
 70
     1
 43
0.0
 10
68501.57005394
 20
-66438.25288592
 10
68520.57005394
 20
-66438.25288592
 10
68520.57005394
 20
-65968.25288592
 10
68501.57005394
 20
-65968.25288592
  0
HATCH
  5
58C
100
AcDbEntity
  8
Ech.1_10
 62
   190
  6
CONTINUOUS
100
AcDbHatch
 10
0.0
 20
0.0
 30
0.0
210
0.0
220
0.0
230
1.0
  2
ANSI38
 70
     0
 71
     1
 91
        1
 92
        7
 72
     0
 73
     1
 93
        4
 10
68501.57005394
 20
-66438.25288592
 10
68520.57005394
 20
-66438.25288592
 10
68520.57005394
 20
-65968.25288592
 10
68501.57005394
 20
-65968.25288592
 97
        1
330
58B
 75
     0
 76
     2
 52
0.0
 41
1.0
 77
     0
 78
     2
 53
45.0
 43
0.0
 44
0.0
 45
-8.48528171
 46
8.48528171
 79
     2
 49
960.00003815
 49
0.0
 53
135.0
 43
0.0
 44
0.0
 45
-25.45584513
 46
8.48528171
 79
     2
 49
30.00000119
 49
-18.00000072
 47
0.775229
 98
        1
 10
0.0
 20
0.0
  0
LWPOLYLINE
  5
58D
100
AcDbEntity
  8
Ech.1_10
 62
     5
  6
CONTINUOUS
370
    -3
100
AcDbPolyline
 90
        5
 70
     0
 43
0.0
 10
68501.57005394
 20
-66457.25288592
 10
68546.57005394
 20
-66457.25288592
 10
68546.57005394
 20
-66677.25288592
 10
68501.57005394
 20
-66677.25288592
 10
68501.57005394
 20
-66457.25288592
  0
LWPOLYLINE
  5
58E
100
AcDbEntity
  8
Ech.1_10
 62
     5
100
AcDbPolyline
 90
        5
 70
     0
 43
0.0
 10
68287.57005394
 20
-66794.62136096
 10
68347.57005394
 20
-66794.62136096
 10
68347.57005394
 20
-66749.62136096
 10
68287.57005394
 20
-66749.62136096
 10
68287.57005394
 20
-66794.62136096
  0
LWPOLYLINE
  5
58F
100
AcDbEntity
  8
Ech.1_10
 62
     5
100
AcDbPolyline
 90
        5
 70
     0
 43
0.0
 10
68287.57005394
 20
-66138.25288592
 10
68347.57005394
 20
-66138.25288592
 10
68347.57005394
 20
-66093.25288592
 10
68287.57005394
 20
-66093.25288592
 10
68287.57005394
 20
-66138.25288592
  0
LWPOLYLINE
  5
590
100
AcDbEntity
  8
Ech.1_10
 62
     5
100
AcDbPolyline
 90
        5
 70
     0
 43
0.0
 10
68287.57005394
 20
-66013.25288592
 10
68347.57005394
 20
-66013.25288592
 10
68347.57005394
 20
-65968.25288592
 10
68287.57005394
 20
-65968.25288592
 10
68287.57005394
 20
-66013.25288592
  0
LWPOLYLINE
  5
591
100
AcDbEntity
  8
Ech.1_10
 62
     5
  6
CONTINUOUS
370
    -3
100
AcDbPolyline
 90
        5
 70
     0
 43
0.0
 10
68356.57005394
 20
-66138.25288592
 10
68356.57005394
 20
-66093.25288592
 10
68501.57005394
 20
-66093.25288592
 10
68501.57005394
 20
-66138.25288592
 10
68356.57005394
 20
-66138.25288592
  0
LWPOLYLINE
  5
592
100
AcDbEntity
  8
Ech.1_10
 62
     5
  6
CONTINUOUS
370
    -3
100
AcDbPolyline
 90
        5
 70
     0
 43
0.0
 10
68356.57005394
 20
-66013.25288592
 10
68356.57005394
 20
-65968.25288592
 10
68501.57005394
 20
-65968.25288592
 10
68501.57005394
 20
-66013.25288592
 10
68356.57005394
 20
-66013.25288592
  0
LINE
  5
593
100
AcDbEntity
  8
Ech.1_10
 62
   150
  6
CADWORK_22
370
    35
100
AcDbLine
 10
68286.07005394
 20
-65968.25288592
 30
0.0
 11
68286.09647877
 21
-66964.14411528
 31
0.0
  0
LWPOLYLINE
  5
594
102
{ACAD_REACTORS
330
595
102
}
100
AcDbEntity
  8
Ech.1_10
 62
   190
  6
CONTINUOUS
370
    -3
100
AcDbPolyline
 90
       13
 70
     1
 43
0.0
 10
68357.11554498
 20
-65957.43525144
 10
68220.77217742
 20
-65952.17490703
 10
68220.77217742
 20
-66018.2564526
 10
68228.30143953
 20
-66013.36149706
 10
68229.40625448
 20
-66015.0286455
 10
68219.25785271
 20
-66021.65929811
 10
68219.25785271
 20
-65950.12065839
 10
68537.10216886
 20
-65960.00602797
 10
68537.10216886
 20
-66027.68325514
 10
68524.35960937
 20
-66017.89032935
 10
68525.57832374
 20
-66016.30453766
 10
68535.44787273
 20
-66023.88949428
 10
68535.44787273
 20
-65961.94932958
  0
HATCH
  5
595
100
AcDbEntity
  8
Ech.1_10
 62
   177
  6
CONTINUOUS
100
AcDbHatch
 10
0.0
 20
0.0
 30
0.0
210
0.0
220
0.0
230
1.0
  2
SOLID
 70
     1
 71
     1
 91
        1
 92
        7
 72
     0
 73
     1
 93
       13
 10
68357.11554498
 20
-65957.43525144
 10
68220.77217742
 20
-65952.17490703
 10
68220.77217742
 20
-66018.2564526
 10
68228.30143953
 20
-66013.36149706
 10
68229.40625448
 20
-66015.0286455
 10
68219.25785271
 20
-66021.65929811
 10
68219.25785271
 20
-65950.12065839
 10
68537.10216886
 20
-65960.00602797
 10
68537.10216886
 20
-66027.68325514
 10
68524.35960937
 20
-66017.89032935
 10
68525.57832374
 20
-66016.30453766
 10
68535.44787273
 20
-66023.88949428
 10
68535.44787273
 20
-65961.94932958
 97
        1
330
594
 75
     0
 76
     2
 47
0.775229
 98
        1
 10
0.0
 20
0.0
  0
LWPOLYLINE
  5
596
100
AcDbEntity
  8
Ech.1_10
 62
   190
  6
CONTINUOUS
370
    -3
100
AcDbPolyline
 90
       68
 70
     0
 43
0.0
 10
68380.7367206
 20
-66138.25288592
 42
1.14028181
 10
68386.99152828
 20
-66185.76275628
 10
68471.1485796
 20
-66163.24301556
 42
-1.30322619
 10
68471.1485796
 20
-66209.92942295
 10
68386.99152828
 20
-66187.40968222
 42
1.30322619
 10
68386.99152828
 20
-66234.09608961
 10
68471.1485796
 20
-66211.57634889
 42
-1.30322619
 10
68471.1485796
 20
-66258.26275628
 10
68386.99152828
 20
-66235.74301556
 42
1.30322619
 10
68386.99152828
 20
-66282.42942295
 10
68471.1485796
 20
-66259.90968222
 42
-1.30322619
 10
68471.1485796
 20
-66306.59608961
 10
68386.99152828
 20
-66284.07634889
 42
1.30322619
 10
68386.99152828
 20
-66330.76275628
 10
68471.1485796
 20
-66308.24301556
 42
-1.30322619
 10
68471.1485796
 20
-66354.92942295
 10
68386.99152828
 20
-66332.40968222
 42
1.30322619
 10
68386.99152828
 20
-66379.09608961
 10
68471.1485796
 20
-66356.57634889
 42
-1.30322619
 10
68471.1485796
 20
-66403.26275628
 10
68386.99152828
 20
-66380.74301556
 42
1.30322619
 10
68386.99152828
 20
-66427.42942295
 10
68471.1485796
 20
-66404.90968222
 42
-1.30322619
 10
68471.1485796
 20
-66451.59608961
 10
68386.99152828
 20
-66429.07634889
 42
1.30322619
 10
68386.99152828
 20
-66475.76275628
 10
68471.1485796
 20
-66453.24301556
 42
-1.30322619
 10
68471.1485796
 20
-66499.92942295
 10
68386.99152828
 20
-66477.40968222
 42
1.30322619
 10
68386.99152828
 20
-66524.09608961
 10
68471.1485796
 20
-66501.57634889
 42
-1.30322619
 10
68471.1485796
 20
-66548.26275628
 10
68386.99152828
 20
-66525.74301556
 42
1.30322619
 10
68386.99152828
 20
-66572.42942295
 10
68471.1485796
 20
-66549.90968222
 42
-1.30322619
 10
68471.1485796
 20
-66596.59608961
 10
68386.99152828
 20
-66574.07634889
 42
1.30322619
 10
68386.99152828
 20
-66620.76275628
 10
68471.1485796
 20
-66598.24301556
 42
-1.30322619
 10
68471.1485796
 20
-66644.92942295
 10
68386.99152828
 20
-66622.40968222
 42
1.30322619
 10
68386.99152828
 20
-66669.09608961
 10
68471.1485796
 20
-66646.57634889
 42
-1.30322619
 10
68471.1485796
 20
-66693.26275628
 10
68386.99152828
 20
-66670.74301556
 42
1.30322619
 10
68386.99152828
 20
-66717.42942295
 10
68471.1485796
 20
-66694.90968222
 42
-1.30322619
 10
68471.1485796
 20
-66741.59608961
 10
68386.99152828
 20
-66719.07634889
 42
1.30322619
 10
68386.99152828
 20
-66765.76275628
 10
68471.1485796
 20
-66743.24301556
 42
-1.30322619
 10
68471.1485796
 20
-66789.92942295
 10
68386.99152828
 20
-66767.40968222
 42
1.30322619
 10
68386.99152828
 20
-66814.09608961
 10
68471.1485796
 20
-66791.57634889
 42
-1.30322619
 10
68471.1485796
 20
-66838.26275628
 10
68386.99152828
 20
-66815.74301556
 42
1.30322619
 10
68386.99152828
 20
-66862.42942295
 10
68471.1485796
 20
-66839.90968222
 42
-1.30322619
 10
68471.1485796
 20
-66886.59608961
 10
68386.99152828
 20
-66864.07634889
 42
1.30322619
 10
68386.99152828
 20
-66910.76275628
 10
68471.1485796
 20
-66888.24301556
 42
-1.30322619
 10
68471.1485796
 20
-66934.92942295
 10
68386.99152828
 20
-66912.40968222
 42
1.30322619
 10
68386.99152828
 20
-66959.09608961
 10
68471.1485796
 20
-66936.57634889
 42
-0.54805225
 10
68501.21018591
 20
-66964.07456356
  0
LWPOLYLINE
  5
597
100
AcDbEntity
  8
Ech.1_10
 62
     7
  6
CONTINUOUS
370
    -3
100
AcDbPolyline
 90
       66
 70
     0
 43
0.0
 10
68276.04501225
 20
-66001.70751081
 10
68276.31826791
 20
-65999.42724589
 10
68276.57379509
 20
-65997.1566671
 10
68276.7938653
 20
-65994.90546058
 10
68276.96075007
 20
-65992.68331246
 10
68277.05672091
 20
-65990.49990886
 10
68277.06404934
 20
-65988.36493594
 10
68276.96500687
 20
-65986.28807981
 10
68276.74186504
 20
-65984.27902662
 10
68276.37689534
 20
-65982.34746249
 10
68275.85236931
 20
-65980.50307356
 10
68275.15055846
 20
-65978.75554595
 10
68274.2537343
 20
-65977.11456582
 10
68273.14416836
 20
-65975.58981928
 10
68271.80445673
 20
-65974.19092935
 10
68270.23449267
 20
-65972.92415497
 10
68268.45979752
 20
-65971.7907708
 10
68266.50796459
 20
-65970.79164853
 10
68264.40658715
 20
-65969.92765985
 10
68262.18325851
 20
-65969.19967643
 10
68259.86557194
 20
-65968.60856998
 10
68257.48112075
 20
-65968.15521217
 10
68255.05749821
 20
-65967.8404747
 10
68252.62229762
 20
-65967.66522925
 10
68250.20311228
 20
-65967.63034751
 10
68247.82753546
 20
-65967.73670117
 10
68245.52316047
 20
-65967.98516191
 10
68243.31758058
 20
-65968.37660143
 10
68241.23838909
 20
-65968.91189141
 10
68239.3131793
 20
-65969.59190353
 10
68237.56954448
 20
-65970.4175095
 10
68236.03507794
 20
-65971.38958098
 10
68234.73737295
 20
-65972.50898968
 10
68233.70401769
 20
-65973.77660604
 10
68232.95115653
 20
-65975.19053059
 10
68232.45916782
 20
-65976.7402069
 10
68232.20146178
 20
-65978.41339194
 10
68232.15144865
 20
-65980.19784266
 10
68232.28253863
 20
-65982.08131603
 10
68232.56814197
 20
-65984.05156901
 10
68232.98166889
 20
-65986.09635857
 10
68233.49652961
 20
-65988.20344167
 10
68234.08613436
 20
-65990.36057528
 10
68234.72389336
 20
-65992.55551635
 10
68235.38321684
 20
-65994.77602186
 10
68236.03751503
 20
-65997.00984876
 10
68236.66019815
 20
-65999.24475403
 10
68237.22467642
 20
-66001.46849462
 10
68237.70464013
 20
-66003.66895527
 10
68238.08452548
 20
-66005.83892359
 10
68238.36264697
 20
-66007.97751923
 10
68238.5382385
 20
-66010.08428131
 10
68238.61053395
 20
-66012.15874893
 10
68238.57876724
 20
-66014.20046122
 10
68238.44217226
 20
-66016.2089573
 10
68238.1999829
 20
-66018.18377628
 10
68237.85143306
 20
-66020.12445729
 10
68237.39575664
 20
-66022.03053944
 10
68236.83218754
 20
-66023.90156186
 10
68236.15995965
 20
-66025.73706365
 10
68235.37830687
 20
-66027.53658394
 10
68234.48840364
 20
-66029.30031944
 10
68233.50795965
 20
-66031.03407033
 10
68232.46305057
 20
-66032.74647178
 10
68231.37981692
 20
-66034.44618097
 10
68230.86917008
 20
-66035.23650897
  0
LINE
  5
598
100
AcDbEntity
  8
Ech.1_10
 62
     7
  6
CONTINUOUS
370
    -3
100
AcDbLine
 10
68230.86917008
 20
-66035.23650897
 30
0.0
 11
68243.03554942
 21
-66025.22847024
 31
0.0
  0
LINE
  5
599
100
AcDbEntity
  8
Ech.1_10
 62
     7
  6
CONTINUOUS
370
    -3
100
AcDbLine
 10
68230.86917008
 20
-66035.23650897
 30
0.0
 11
68231.04337647
 21
-66020.18327808
 31
0.0
  0
LWPOLYLINE
  5
59A
100
AcDbEntity
  8
Ech.1_10
 62
   190
  6
CONTINUOUS
370
    -3
100
AcDbPolyline
 90
        4
 70
     1
 43
0.0
 10
68501.57005394
 20
-66850.25287826
 10
68541.57005394
 20
-66850.25287826
 10
68541.57005394
 20
-66805.25287826
 10
68501.57005394
 20
-66805.25287826
  0
LWPOLYLINE
  5
59B
100
AcDbEntity
  8
Ech.1_10
 62
   190
370
    18
100
AcDbPolyline
 90
        4
 70
     0
 43
0.0
 10
68501.57005394
 20
-66805.25287826
 10
68541.57005394
 20
-66850.25287826
 10
68541.57005394
 20
-66805.25287826
 10
68501.57005394
 20
-66850.25287826
  0
LWPOLYLINE
  5
59C
100
AcDbEntity
  8
Ech.1_10
 62
     5
100
AcDbPolyline
 90
        5
 70
     0
 43
0.0
 10
68501.57005394
 20
-66850.25287826
 10
68541.57005394
 20
-66850.25287826
 10
68541.57005394
 20
-66805.25287826
 10
68501.57005394
 20
-66805.25287826
 10
68501.57005394
 20
-66850.25287826
  0
LINE
  5
59D
100
AcDbEntity
  8
Ech.1_10
 62
   190
  6
CONTINUOUS
370
    -3
100
AcDbLine
 10
68520.57005394
 20
-66288.25288592
 30
0.0
 11
69013.05343124
 21
-66288.25288592
 31
0.0
  0
LWPOLYLINE
  5
59E
100
AcDbEntity
  8
Ech.1_10
 62
     1
  6
CADWORK_22
 48
-5.0
370
    35
100
AcDbPolyline
 90
        3
 70
     0
 43
0.0
 10
68501.57005394
 20
-66964.0732256
 10
68501.57005394
 20
-66438.25288592
 10
68597.45560861
 20
-66438.25288592
  0
LWPOLYLINE
  5
59F
100
AcDbEntity
  8
Ech.1_10
 62
     3
370
    70
100
AcDbPolyline
 90
        4
 70
     0
 43
0.0
 10
68615.85670676
 20
-66441.09150488
 10
68602.86757334
 20
-66441.09150488
 10
68598.9328412
 20
-66435.41089192
 10
68585.4544112
 20
-66435.41089192
  0
LWPOLYLINE
  5
5A0
100
AcDbEntity
  8
Ech.1_10
 62
    36
  6
CONTINUOUS
370
    70
100
AcDbPolyline
 90
        3
 70
     0
 43
0.0
 38
2500.0
 10
68522.57005394
 20
-66138.25288592
 10
68522.57005394
 20
-66431.27610829
 10
68602.3825494
 20
-66431.27610829
  0
LINE
  5
5A1
100
AcDbEntity
  8
Ech.1_10
 62
     9
  6
CONTINUOUS
370
    -3
100
AcDbLine
 10
68262.57005394
 20
-65968.25288592
 30
0.0
 11
68287.57005394
 21
-65968.25261855
 31
0.0
  0
LINE
  5
5A2
100
AcDbEntity
  8
Ech.1_10
 62
     9
  6
CONTINUOUS
370
    -3
100
AcDbLine
 10
68242.57005394
 20
-65988.25288592
 30
0.0
 11
68262.57005394
 21
-65988.25288592
 31
0.0
  0
LINE
  5
5A3
100
AcDbEntity
  8
Ech.1_10
 62
     9
  6
CONTINUOUS
370
    -3
100
AcDbLine
 10
68262.57005394
 20
-65968.25288592
 30
0.0
 11
68262.57005394
 21
-65988.25288592
 31
0.0
  0
LINE
  5
5A4
100
AcDbEntity
  8
Ech.1_10
 62
   190
  6
CONTINUOUS
370
    -3
100
AcDbLine
 10
69419.08218574
 20
-66288.25288592
 30
0.0
 11
69049.44247203
 21
-66288.25288592
 31
0.0
  0
LINE
  5
5A5
100
AcDbEntity
  8
Ech.1_10
 62
   190
  6
CONTINUOUS
370
    -3
100
AcDbLine
 10
69013.05305756
 20
-66288.25288592
 30
0.0
 11
68948.19123911
 21
-66288.25288592
 31
0.0
  0
LWPOLYLINE
  5
5A6
100
AcDbEntity
  8
Ech.1_10
 62
   190
  6
CONTINUOUS
370
    -3
100
AcDbPolyline
 90
        4
 70
     1
 43
0.0
 10
69498.08174596
 20
-66457.25288592
 10
69543.08174596
 20
-66457.25288592
 10
69543.08174596
 20
-66677.25288592
 10
69498.08174596
 20
-66677.25288592
  0
LWPOLYLINE
  5
5A7
100
AcDbEntity
  8
Ech.1_10
 62
   190
  6
CONTINUOUS
370
    -3
100
AcDbPolyline
 90
        4
 70
     1
 43
0.0
 10
69543.08174596
 20
-66677.25288592
 10
69498.08174596
 20
-66677.25288592
 10
69498.08174596
 20
-66457.25288592
 10
69543.08174596
 20
-66457.25288592
  0
LWPOLYLINE
  5
5A8
100
AcDbEntity
  8
Ech.1_10
100
AcDbPolyline
 90
        4
 70
     0
 43
0.0
 10
69049.44148599
 20
-66777.25288592
 10
69542.08174596
 20
-66777.25288592
 10
69542.08174596
 20
-66752.57071582
 10
69049.44148599
 20
-66752.57071582
  0
LWPOLYLINE
  5
5A9
100
AcDbEntity
  8
Ech.1_10
370
    50
100
AcDbPolyline
 90
        3
 70
     0
 43
0.0
 10
69542.08174596
 20
-66753.93677763
 10
69542.08174596
 20
-66777.01529454
 10
69514.85590116
 20
-66777.01529454
  0
LWPOLYLINE
  5
5AA
100
AcDbEntity
  8
Ech.1_10
 62
     5
  6
CONTINUOUS
370
    -3
100
AcDbPolyline
 90
        5
 70
     0
 43
0.0
 10
69543.08174596
 20
-66457.25288592
 10
69498.08174596
 20
-66457.25288592
 10
69498.08174596
 20
-66677.25288592
 10
69543.08174596
 20
-66677.25288592
 10
69543.08174596
 20
-66457.25288592
  0
LWPOLYLINE
  5
5AB
100
AcDbEntity
  8
Ech.1_10
 62
   190
  6
CONTINUOUS
370
    -3
100
AcDbPolyline
 90
        4
 70
     1
 43
0.0
 10
69542.08324991
 20
-65968.25288592
 10
69542.08324991
 20
-66013.25288592
 10
69447.08324991
 20
-66013.25288592
 10
69447.08324991
 20
-65968.25288592
  0
LWPOLYLINE
  5
5AC
100
AcDbEntity
  8
Ech.1_10
 62
   190
  6
CONTINUOUS
370
    -3
100
AcDbPolyline
 90
        4
 70
     1
 43
0.0
 10
69447.08324991
 20
-66013.25288592
 10
69447.08324991
 20
-65968.25288592
 10
69542.08324991
 20
-65968.25288592
 10
69542.08324991
 20
-66013.25288592
  0
LWPOLYLINE
  5
5AD
100
AcDbEntity
  8
Ech.1_10
 62
   190
  6
CONTINUOUS
370
    -3
100
AcDbPolyline
 90
        4
 70
     1
 43
0.0
 10
69542.08324991
 20
-66138.25288592
 10
69447.08324991
 20
-66138.25288592
 10
69447.08324991
 20
-66438.25288592
 10
69542.08324991
 20
-66438.25288592
  0
LWPOLYLINE
  5
5AE
100
AcDbEntity
  8
Ech.1_10
 62
   190
  6
CONTINUOUS
370
    -3
100
AcDbPolyline
 90
        4
 70
     1
 43
0.0
 10
69542.08324991
 20
-66093.25288592
 10
69542.08324991
 20
-66138.25288592
 10
69447.08324991
 20
-66138.25288592
 10
69447.08324991
 20
-66093.25288592
  0
LWPOLYLINE
  5
5AF
100
AcDbEntity
  8
Ech.1_10
 62
   190
  6
CONTINUOUS
370
    -3
100
AcDbPolyline
 90
        4
 70
     1
 43
0.0
 10
69447.08324991
 20
-66138.25288592
 10
69447.08324991
 20
-66093.25288592
 10
69542.08324991
 20
-66093.25288592
 10
69542.08324991
 20
-66138.25288592
  0
LWPOLYLINE
  5
5B0
100
AcDbEntity
  8
Ech.1_10
 62
   190
  6
CONTINUOUS
370
    -3
100
AcDbPolyline
 90
        4
 70
     1
 43
0.0
 10
69447.08324991
 20
-66438.25288592
 10
69428.08324991
 20
-66438.25288592
 10
69428.08324991
 20
-65968.25288592
 10
69447.08324991
 20
-65968.25288592
  0
LWPOLYLINE
  5
5B1
102
{ACAD_REACTORS
330
5B2
102
}
100
AcDbEntity
  8
Ech.1_10
 62
     7
  6
CONTINUOUS
370
    -3
100
AcDbPolyline
 90
        4
 70
     1
 43
0.0
 10
69447.08324991
 20
-66438.25288592
 10
69428.08324991
 20
-66438.25288592
 10
69428.08324991
 20
-65968.25288592
 10
69447.08324991
 20
-65968.25288592
  0
HATCH
  5
5B2
100
AcDbEntity
  8
Ech.1_10
 62
   190
  6
CONTINUOUS
100
AcDbHatch
 10
0.0
 20
0.0
 30
0.0
210
0.0
220
0.0
230
1.0
  2
ANSI38
 70
     0
 71
     1
 91
        1
 92
        7
 72
     0
 73
     1
 93
        4
 10
69447.08324991
 20
-66438.25288592
 10
69428.08324991
 20
-66438.25288592
 10
69428.08324991
 20
-65968.25288592
 10
69447.08324991
 20
-65968.25288592
 97
        1
330
5B1
 75
     0
 76
     2
 52
0.0
 41
1.0
 77
     0
 78
     2
 53
45.0
 43
0.0
 44
0.0
 45
-8.48528171
 46
8.48528171
 79
     2
 49
960.00003815
 49
0.0
 53
135.0
 43
0.0
 44
0.0
 45
-25.45584513
 46
8.48528171
 79
     2
 49
30.00000119
 49
-18.00000072
 47
0.775229
 98
        1
 10
0.0
 20
0.0
  0
LWPOLYLINE
  5
5B3
100
AcDbEntity
  8
Ech.1_10
 62
     5
  6
CONTINUOUS
370
    -3
100
AcDbPolyline
 90
        5
 70
     0
 43
0.0
 10
69542.08324991
 20
-66138.25288592
 10
69542.08324991
 20
-66093.25288592
 10
69447.08324991
 20
-66093.25288592
 10
69447.08324991
 20
-66138.25288592
 10
69542.08324991
 20
-66138.25288592
  0
LWPOLYLINE
  5
5B4
100
AcDbEntity
  8
Ech.1_10
 62
     5
  6
CONTINUOUS
370
    -3
100
AcDbPolyline
 90
        5
 70
     0
 43
0.0
 10
69542.08324991
 20
-66013.25288592
 10
69542.08324991
 20
-65968.25288592
 10
69447.08324991
 20
-65968.25288592
 10
69447.08324991
 20
-66013.25288592
 10
69542.08324991
 20
-66013.25288592
  0
LWPOLYLINE
  5
5B5
100
AcDbEntity
  8
Ech.1_10
 62
   190
  6
CONTINUOUS
370
    -3
100
AcDbPolyline
 90
        4
 70
     1
 43
0.0
 10
69453.08174596
 20
-66457.25288592
 10
69498.08174596
 20
-66457.25288592
 10
69498.08174596
 20
-66677.25288592
 10
69453.08174596
 20
-66677.25288592
  0
LWPOLYLINE
  5
5B6
100
AcDbEntity
  8
Ech.1_10
 62
   190
  6
CONTINUOUS
370
    -3
100
AcDbPolyline
 90
        4
 70
     1
 43
0.0
 10
69498.08174596
 20
-66677.25288592
 10
69453.08174596
 20
-66677.25288592
 10
69453.08174596
 20
-66457.25288592
 10
69498.08174596
 20
-66457.25288592
  0
LWPOLYLINE
  5
5B7
100
AcDbEntity
  8
Ech.1_10
 62
     5
  6
CONTINUOUS
370
    -3
100
AcDbPolyline
 90
        5
 70
     0
 43
0.0
 10
69498.08174596
 20
-66457.25288592
 10
69453.08174596
 20
-66457.25288592
 10
69453.08174596
 20
-66677.25288592
 10
69498.08174596
 20
-66677.25288592
 10
69498.08174596
 20
-66457.25288592
  0
LWPOLYLINE
  5
5B8
100
AcDbEntity
  8
Ech.1_10
 62
   190
  6
CONTINUOUS
370
    -3
100
AcDbPolyline
 90
       36
 70
     0
 43
0.0
 10
69526.24991657
 20
-66138.25288592
 42
-1.14028181
 10
69522.15193913
 20
-66169.38004236
 10
69467.01456068
 20
-66154.62572948
 42
1.30322619
 10
69467.01456068
 20
-66185.2133757
 10
69522.15193913
 20
-66170.45906281
 42
-1.30322619
 10
69522.15193913
 20
-66201.04670903
 10
69467.01456068
 20
-66186.29239614
 42
1.30322619
 10
69467.01456068
 20
-66216.88004236
 10
69522.15193913
 20
-66202.12572948
 42
-1.30322619
 10
69522.15193913
 20
-66232.7133757
 10
69467.01456068
 20
-66217.95906281
 42
1.30322619
 10
69467.01456068
 20
-66248.54670903
 10
69522.15193913
 20
-66233.79239614
 42
-1.30322619
 10
69522.15193913
 20
-66264.38004236
 10
69467.01456068
 20
-66249.62572948
 42
1.30322619
 10
69467.01456068
 20
-66280.2133757
 10
69522.15193913
 20
-66265.45906281
 42
-1.30322619
 10
69522.15193913
 20
-66296.04670903
 10
69467.01456068
 20
-66281.29239614
 42
1.30322619
 10
69467.01456068
 20
-66311.88004236
 10
69522.15193913
 20
-66297.12572948
 42
-1.30322619
 10
69522.15193913
 20
-66327.7133757
 10
69467.01456068
 20
-66312.95906281
 42
1.30322619
 10
69467.01456068
 20
-66343.54670903
 10
69522.15193913
 20
-66328.79239614
 42
-1.30322619
 10
69522.15193913
 20
-66359.38004236
 10
69467.01456068
 20
-66344.62572948
 42
1.30322619
 10
69467.01456068
 20
-66375.2133757
 10
69522.15193913
 20
-66360.45906281
 42
-1.30322619
 10
69522.15193913
 20
-66391.04670903
 10
69467.01456068
 20
-66376.29239614
 42
1.30322619
 10
69467.01456068
 20
-66406.88004236
 10
69522.15193913
 20
-66392.12572948
 42
-1.30322619
 10
69522.15193913
 20
-66422.7133757
 10
69467.01456068
 20
-66407.95906281
 42
0.9684611
 10
69457.84761447
 20
-66438.25288592
  0
LWPOLYLINE
  5
5B9
100
AcDbEntity
  8
Ech.1_10
 62
   190
  6
CONTINUOUS
370
    -3
100
AcDbPolyline
 90
        4
 70
     1
 43
0.0
 10
69542.08324991
 20
-66393.25288592
 10
69542.08324991
 20
-66438.25288592
 10
69447.08324991
 20
-66438.25288592
 10
69447.08324991
 20
-66393.25288592
  0
LWPOLYLINE
  5
5BA
100
AcDbEntity
  8
Ech.1_10
 62
   190
  6
CONTINUOUS
370
    -3
100
AcDbPolyline
 90
        4
 70
     1
 43
0.0
 10
69447.08324991
 20
-66438.25288592
 10
69447.08324991
 20
-66393.25288592
 10
69542.08324991
 20
-66393.25288592
 10
69542.08324991
 20
-66438.25288592
  0
LWPOLYLINE
  5
5BB
100
AcDbEntity
  8
Ech.1_10
 62
     5
  6
CONTINUOUS
370
    -3
100
AcDbPolyline
 90
        5
 70
     0
 43
0.0
 10
69542.08324991
 20
-66438.25288592
 10
69542.08324991
 20
-66393.25288592
 10
69447.08324991
 20
-66393.25288592
 10
69447.08324991
 20
-66438.25288592
 10
69542.08324991
 20
-66438.25288592
  0
LWPOLYLINE
  5
5BC
102
{ACAD_REACTORS
330
5BD
102
}
100
AcDbEntity
  8
Ech.1_10
 62
   190
  6
CONTINUOUS
370
    -3
100
AcDbPolyline
 90
       13
 70
     1
 43
0.0
 10
69532.53625492
 20
-65957.43525144
 10
69763.15012508
 20
-65951.08868952
 10
69763.15012508
 20
-66017.17023509
 10
69755.62086298
 20
-66012.27527955
 10
69754.51604802
 20
-66013.94242799
 10
69764.66444979
 20
-66020.5730806
 10
69764.66444979
 20
-65949.03444088
 10
69403.0017865
 20
-65960.00602797
 10
69403.0017865
 20
-66027.68325514
 10
69415.74434599
 20
-66017.89032935
 10
69414.52563162
 20
-66016.30453766
 10
69404.65608263
 20
-66023.88949428
 10
69404.65608263
 20
-65961.94932958
  0
HATCH
  5
5BD
100
AcDbEntity
  8
Ech.1_10
 62
   177
  6
CONTINUOUS
100
AcDbHatch
 10
0.0
 20
0.0
 30
0.0
210
0.0
220
0.0
230
1.0
  2
SOLID
 70
     1
 71
     1
 91
        1
 92
        7
 72
     0
 73
     1
 93
       13
 10
69532.53625492
 20
-65957.43525144
 10
69763.15012508
 20
-65951.08868952
 10
69763.15012508
 20
-66017.17023509
 10
69755.62086298
 20
-66012.27527955
 10
69754.51604802
 20
-66013.94242799
 10
69764.66444979
 20
-66020.5730806
 10
69764.66444979
 20
-65949.03444088
 10
69403.0017865
 20
-65960.00602797
 10
69403.0017865
 20
-66027.68325514
 10
69415.74434599
 20
-66017.89032935
 10
69414.52563162
 20
-66016.30453766
 10
69404.65608263
 20
-66023.88949428
 10
69404.65608263
 20
-65961.94932958
 97
        1
330
5BC
 75
     0
 76
     2
 47
0.775229
 98
        1
 10
0.0
 20
0.0
  0
LWPOLYLINE
  5
5BE
100
AcDbEntity
  8
Ech.1_10
 62
    36
  6
CONTINUOUS
370
    70
100
AcDbPolyline
 90
        3
 70
     0
 43
0.0
 38
2500.0
 10
69426.08234746
 20
-66138.25288592
 10
69426.08234746
 20
-66432.07508491
 10
69337.26834805
 20
-66432.07508491
  0
3DFACE
  5
5BF
100
AcDbEntity
  8
Ech.1_10
 62
     9
  6
CONTINUOUS
370
    -3
100
AcDbFace
 70
     0
 10
69742.08174596
 20
-66138.25288592
 30
-17081.86048889
 11
69542.08174596
 21
-66138.25288592
 31
-17081.86048889
 12
69542.08174596
 22
-65968.25288592
 32
-17081.86048889
 13
69742.08174596
 23
-65968.25288592
 33
-17081.86048889
  0
CIRCLE
  5
5C0
100
AcDbEntity
  8
Ech.1_10
 62
     7
  6
CONTINUOUS
370
    -3
100
AcDbCircle
 10
68953.79160442
 20
-66731.07615304
 30
0.0
 40
2.51802373
  0
LINE
  5
5C1
100
AcDbEntity
  8
Ech.1_10
 62
     7
  6
CONTINUOUS
370
    -3
100
AcDbLine
 10
68967.29170628
 20
-66624.32907256
 30
0.0
 11
68967.29158237
 21
-66750.0153392
 31
0.0
  0
CIRCLE
  5
5C2
100
AcDbEntity
  8
Ech.1_10
 62
     7
  6
CONTINUOUS
370
    -3
100
AcDbCircle
 10
68953.79165682
 20
-66686.07615304
 30
0.0
 40
2.51802373
  0
ARC
  5
5C3
100
AcDbEntity
  8
Ech.1_10
 62
     7
  6
CONTINUOUS
370
    -3
100
AcDbCircle
 10
68935.29158237
 20
-66750.01530194
 30
0.0
 40
5.0
100
AcDbArc
 50
269.99993329
 51
359.99993329
  0
LINE
  5
5C4
100
AcDbEntity
  8
Ech.1_10
 62
     7
  6
CONTINUOUS
370
    -3
100
AcDbLine
 10
68935.06146367
 20
-66764.09559804
 30
0.0
 11
68935.061466
 21
-66762.09559804
 31
0.0
  0
LINE
  5
5C5
100
AcDbEntity
  8
Ech.1_10
 62
     7
  6
CONTINUOUS
370
    -3
100
AcDbLine
 10
68931.29157655
 20
-66755.01529729
 30
0.0
 11
68935.29157655
 21
-66755.01530194
 31
0.0
  0
ARC
  5
5C6
100
AcDbEntity
  8
Ech.1_10
 62
     7
  6
CONTINUOUS
370
    -3
100
AcDbCircle
 10
68945.05786225
 20
-66749.51081891
 30
0.0
 40
14.82598747
100
AcDbArc
 50
201.79410437
 51
238.13509164
  0
ARC
  5
5C7
100
AcDbEntity
  8
Ech.1_10
 62
     7
  6
CONTINUOUS
370
    -3
100
AcDbCircle
 10
68943.60234807
 20
-66762.9856089
 30
0.0
 40
12.47697948
100
AcDbArc
 50
189.36217724
 51
254.61211432
  0
LINE
  5
5C8
100
AcDbEntity
  8
Ech.1_10
 62
     7
  6
CONTINUOUS
370
    -3
100
AcDbLine
 10
68935.06146367
 20
-66764.09559804
 30
0.0
 11
68930.93104973
 21
-66764.09559324
 31
0.0
  0
LINE
  5
5C9
100
AcDbEntity
  8
Ech.1_10
 62
     7
  6
CONTINUOUS
370
    -3
100
AcDbLine
 10
68930.93104973
 20
-66764.09559324
 30
0.0
 11
68930.93103702
 21
-66775.01529687
 31
0.0
  0
LINE
  5
5CA
100
AcDbEntity
  8
Ech.1_10
 62
     7
  6
CONTINUOUS
370
    -3
100
AcDbLine
 10
68935.061466
 20
-66762.09559804
 30
0.0
 11
68928.93105206
 21
-66762.09559091
 31
0.0
  0
LINE
  5
5CB
100
AcDbEntity
  8
Ech.1_10
 62
     7
  6
CONTINUOUS
370
    -3
100
AcDbLine
 10
68928.93105206
 20
-66762.09559091
 30
0.0
 11
68928.93103469
 21
-66777.01529454
 31
0.0
  0
CIRCLE
  5
5CC
100
AcDbEntity
  8
Ech.1_10
 62
     7
  6
CONTINUOUS
370
    -3
100
AcDbCircle
 10
68953.79162189
 20
-66716.07615304
 30
0.0
 40
2.51802373
  0
CIRCLE
  5
5CD
100
AcDbEntity
  8
Ech.1_10
 62
     7
  6
CONTINUOUS
370
    -3
100
AcDbCircle
 10
68953.79158696
 20
-66746.07615304
 30
0.0
 40
2.51802373
  0
CIRCLE
  5
5CE
100
AcDbEntity
  8
Ech.1_10
 62
     7
  6
CONTINUOUS
370
    -3
100
AcDbCircle
 10
68953.79163935
 20
-66701.07615304
 30
0.0
 40
2.51802373
  0
ARC
  5
5CF
100
AcDbEntity
  8
Ech.1_10
 62
     7
  6
CONTINUOUS
370
    -3
100
AcDbCircle
 10
68962.52530366
 20
-66749.51083925
 30
0.0
 40
14.82598747
100
AcDbArc
 50
301.86477493
 51
338.20576221
  0
ARC
  5
5D0
100
AcDbEntity
  8
Ech.1_10
 62
     7
  6
CONTINUOUS
370
    -3
100
AcDbCircle
 10
68974.14996051
 20
-66761.87043474
 30
0.0
 40
3.80485997
100
AcDbArc
 50
183.49669989
 51
304.25383409
  0
ARC
  5
5D1
100
AcDbEntity
  8
Ech.1_10
 62
     7
  6
CONTINUOUS
370
    -3
100
AcDbCircle
 10
68963.98078647
 20
-66762.98563263
 30
0.0
 40
12.47697948
100
AcDbArc
 50
285.38775225
 51
350.63768933
  0
LINE
  5
5D2
100
AcDbEntity
  8
Ech.1_10
 62
     7
  6
CONTINUOUS
370
    -3
100
AcDbLine
 10
68976.29157655
 20
-66755.01534968
 30
0.0
 11
68972.29157655
 21
-66755.01534503
 31
0.0
  0
ARC
  5
5D3
100
AcDbEntity
  8
Ech.1_10
 62
     7
  6
CONTINUOUS
370
    -3
100
AcDbCircle
 10
68972.29158237
 20
-66750.01534503
 30
0.0
 40
5.0
100
AcDbArc
 50
179.99993329
 51
269.99993329
  0
LINE
  5
5D4
100
AcDbEntity
  8
Ech.1_10
 62
     7
  6
CONTINUOUS
370
    -3
100
AcDbLine
 10
68972.52166828
 20
-66764.09564166
 30
0.0
 11
68972.52167061
 21
-66762.09564166
 31
0.0
  0
LINE
  5
5D5
100
AcDbEntity
  8
Ech.1_10
 62
     7
  6
CONTINUOUS
370
    -3
100
AcDbLine
 10
68972.52166828
 20
-66764.09564166
 30
0.0
 11
68976.65208222
 21
-66764.09564647
 31
0.0
  0
LINE
  5
5D6
100
AcDbEntity
  8
Ech.1_10
 62
     7
  6
CONTINUOUS
370
    -3
100
AcDbLine
 10
68976.65208222
 20
-66764.09564647
 30
0.0
 11
68976.65206951
 21
-66775.0153501
 31
0.0
  0
LINE
  5
5D7
100
AcDbEntity
  8
Ech.1_10
 62
     7
  6
CONTINUOUS
370
    -3
100
AcDbLine
 10
68972.52167061
 20
-66762.09564166
 30
0.0
 11
68978.65208455
 21
-66762.0956488
 31
0.0
  0
LINE
  5
5D8
100
AcDbEntity
  8
Ech.1_10
 62
     7
  6
CONTINUOUS
370
    -3
100
AcDbLine
 10
68978.65208455
 20
-66762.0956488
 30
0.0
 11
68978.65206718
 21
-66777.01535243
 31
0.0
  0
CIRCLE
  5
5D9
100
AcDbEntity
  8
Ech.1_10
 62
     7
  6
CONTINUOUS
370
    -3
100
AcDbCircle
 10
68953.79167429
 20
-66671.07615304
 30
0.0
 40
2.51802373
  0
LINE
  5
5DA
100
AcDbEntity
  8
Ech.1_10
 62
     7
  6
CONTINUOUS
370
    -3
100
AcDbLine
 10
68940.29170628
 20
-66624.32904112
 30
0.0
 11
68940.29158237
 21
-66750.01530776
 31
0.0
  0
CIRCLE
  5
5DB
100
AcDbEntity
  8
Ech.1_10
 62
     7
  6
CONTINUOUS
370
    -3
100
AcDbCircle
 10
68953.79169175
 20
-66656.07615304
 30
0.0
 40
2.51802373
  0
LINE
  5
5DC
100
AcDbEntity
  8
Ech.1_10
 62
     7
  6
CONTINUOUS
370
    -3
100
AcDbLine
 10
68940.29170628
 20
-66624.32904112
 30
0.0
 11
68967.29170628
 21
-66624.32907256
 31
0.0
  0
LINE
  5
5DD
100
AcDbEntity
  8
Ech.1_10
 62
     7
  6
CONTINUOUS
370
    -3
100
AcDbLine
 10
68976.65206951
 20
-66775.0153501
 30
0.0
 11
68930.93103702
 21
-66775.01529687
 31
0.0
  0
LINE
  5
5DE
100
AcDbEntity
  8
Ech.1_10
 62
     7
  6
CONTINUOUS
370
    -3
100
AcDbLine
 10
68928.93103469
 20
-66777.01529454
 30
0.0
 11
68978.65206718
 21
-66777.01535243
 31
0.0
  0
ARC
  5
5DF
100
AcDbEntity
  8
Ech.1_10
 62
     7
  6
CONTINUOUS
370
    -3
100
AcDbCircle
 10
68933.43317662
 20
-66761.87038733
 30
0.0
 40
3.80485997
100
AcDbArc
 50
235.74603248
 51
356.50316668
  0
LINE
  5
5E0
100
AcDbEntity
  8
Ech.1_10
 62
     7
  6
CONTINUOUS
370
    -3
100
AcDbLine
 10
68951.89929253
 20
-66635.86640914
 30
0.0
 11
68951.89929253
 21
-66635.86640914
 31
0.0
  0
CIRCLE
  5
5E1
100
AcDbEntity
  8
Ech.1_10
 62
     7
  6
CONTINUOUS
370
    -3
100
AcDbCircle
 10
68953.79169175
 20
-66641.16774162
 30
0.0
 40
2.51802373
  0
CIRCLE
  5
5E2
100
AcDbEntity
  8
Ech.1_10
 62
     7
  6
CONTINUOUS
370
    -3
100
AcDbCircle
 10
68604.81669158
 20
-66731.07615304
 30
0.0
 40
2.51802373
  0
LINE
  5
5E3
100
AcDbEntity
  8
Ech.1_10
 62
     7
  6
CONTINUOUS
370
    -3
100
AcDbLine
 10
68618.31679345
 20
-66624.32907256
 30
0.0
 11
68618.31666953
 21
-66750.0153392
 31
0.0
  0
CIRCLE
  5
5E4
100
AcDbEntity
  8
Ech.1_10
 62
     7
  6
CONTINUOUS
370
    -3
100
AcDbCircle
 10
68604.81674398
 20
-66686.07615304
 30
0.0
 40
2.51802373
  0
ARC
  5
5E5
100
AcDbEntity
  8
Ech.1_10
 62
     7
  6
CONTINUOUS
370
    -3
100
AcDbCircle
 10
68586.31666953
 20
-66750.01530194
 30
0.0
 40
5.0
100
AcDbArc
 50
269.99993329
 51
359.99993329
  0
LINE
  5
5E6
100
AcDbEntity
  8
Ech.1_10
 62
     7
  6
CONTINUOUS
370
    -3
100
AcDbLine
 10
68586.08655083
 20
-66764.09559804
 30
0.0
 11
68586.08655316
 21
-66762.09559804
 31
0.0
  0
LINE
  5
5E7
100
AcDbEntity
  8
Ech.1_10
 62
     7
  6
CONTINUOUS
370
    -3
100
AcDbLine
 10
68582.31666371
 20
-66755.01529729
 30
0.0
 11
68586.31666371
 21
-66755.01530194
 31
0.0
  0
ARC
  5
5E8
100
AcDbEntity
  8
Ech.1_10
 62
     7
  6
CONTINUOUS
370
    -3
100
AcDbCircle
 10
68596.08294942
 20
-66749.51081891
 30
0.0
 40
14.82598747
100
AcDbArc
 50
201.79410437
 51
238.13509164
  0
ARC
  5
5E9
100
AcDbEntity
  8
Ech.1_10
 62
     7
  6
CONTINUOUS
370
    -3
100
AcDbCircle
 10
68594.62743523
 20
-66762.9856089
 30
0.0
 40
12.47697948
100
AcDbArc
 50
189.36217724
 51
254.61211432
  0
LINE
  5
5EA
100
AcDbEntity
  8
Ech.1_10
 62
     7
  6
CONTINUOUS
370
    -3
100
AcDbLine
 10
68586.08655083
 20
-66764.09559804
 30
0.0
 11
68581.95613689
 21
-66764.09559324
 31
0.0
  0
LINE
  5
5EB
100
AcDbEntity
  8
Ech.1_10
 62
     7
  6
CONTINUOUS
370
    -3
100
AcDbLine
 10
68581.95613689
 20
-66764.09559324
 30
0.0
 11
68581.95612418
 21
-66775.01529687
 31
0.0
  0
LINE
  5
5EC
100
AcDbEntity
  8
Ech.1_10
 62
     7
  6
CONTINUOUS
370
    -3
100
AcDbLine
 10
68586.08655316
 20
-66762.09559804
 30
0.0
 11
68579.95613922
 21
-66762.09559091
 31
0.0
  0
LINE
  5
5ED
100
AcDbEntity
  8
Ech.1_10
 62
     7
  6
CONTINUOUS
370
    -3
100
AcDbLine
 10
68579.95613922
 20
-66762.09559091
 30
0.0
 11
68579.95612185
 21
-66777.01529454
 31
0.0
  0
CIRCLE
  5
5EE
100
AcDbEntity
  8
Ech.1_10
 62
     7
  6
CONTINUOUS
370
    -3
100
AcDbCircle
 10
68604.81670905
 20
-66716.07615304
 30
0.0
 40
2.51802373
  0
CIRCLE
  5
5EF
100
AcDbEntity
  8
Ech.1_10
 62
     7
  6
CONTINUOUS
370
    -3
100
AcDbCircle
 10
68604.81667412
 20
-66746.07615304
 30
0.0
 40
2.51802373
  0
CIRCLE
  5
5F0
100
AcDbEntity
  8
Ech.1_10
 62
     7
  6
CONTINUOUS
370
    -3
100
AcDbCircle
 10
68604.81672652
 20
-66701.07615304
 30
0.0
 40
2.51802373
  0
ARC
  5
5F1
100
AcDbEntity
  8
Ech.1_10
 62
     7
  6
CONTINUOUS
370
    -3
100
AcDbCircle
 10
68613.55039082
 20
-66749.51083925
 30
0.0
 40
14.82598747
100
AcDbArc
 50
301.86477493
 51
338.20576221
  0
ARC
  5
5F2
100
AcDbEntity
  8
Ech.1_10
 62
     7
  6
CONTINUOUS
370
    -3
100
AcDbCircle
 10
68625.17504767
 20
-66761.87043474
 30
0.0
 40
3.80485997
100
AcDbArc
 50
183.49669989
 51
304.25383409
  0
ARC
  5
5F3
100
AcDbEntity
  8
Ech.1_10
 62
     7
  6
CONTINUOUS
370
    -3
100
AcDbCircle
 10
68615.00587363
 20
-66762.98563263
 30
0.0
 40
12.47697948
100
AcDbArc
 50
285.38775225
 51
350.63768933
  0
LINE
  5
5F4
100
AcDbEntity
  8
Ech.1_10
 62
     7
  6
CONTINUOUS
370
    -3
100
AcDbLine
 10
68627.31666371
 20
-66755.01534968
 30
0.0
 11
68623.31666371
 21
-66755.01534503
 31
0.0
  0
ARC
  5
5F5
100
AcDbEntity
  8
Ech.1_10
 62
     7
  6
CONTINUOUS
370
    -3
100
AcDbCircle
 10
68623.31666953
 20
-66750.01534502
 30
0.0
 40
5.0
100
AcDbArc
 50
179.99993329
 51
269.99993328
  0
LINE
  5
5F6
100
AcDbEntity
  8
Ech.1_10
 62
     7
  6
CONTINUOUS
370
    -3
100
AcDbLine
 10
68623.54675544
 20
-66764.09564166
 30
0.0
 11
68623.54675777
 21
-66762.09564166
 31
0.0
  0
LINE
  5
5F7
100
AcDbEntity
  8
Ech.1_10
 62
     7
  6
CONTINUOUS
370
    -3
100
AcDbLine
 10
68623.54675544
 20
-66764.09564166
 30
0.0
 11
68627.67716938
 21
-66764.09564647
 31
0.0
  0
LINE
  5
5F8
100
AcDbEntity
  8
Ech.1_10
 62
     7
  6
CONTINUOUS
370
    -3
100
AcDbLine
 10
68627.67716938
 20
-66764.09564647
 30
0.0
 11
68627.67715667
 21
-66775.0153501
 31
0.0
  0
LINE
  5
5F9
100
AcDbEntity
  8
Ech.1_10
 62
     7
  6
CONTINUOUS
370
    -3
100
AcDbLine
 10
68623.54675777
 20
-66762.09564166
 30
0.0
 11
68629.67717171
 21
-66762.0956488
 31
0.0
  0
LINE
  5
5FA
100
AcDbEntity
  8
Ech.1_10
 62
     7
  6
CONTINUOUS
370
    -3
100
AcDbLine
 10
68629.67717171
 20
-66762.0956488
 30
0.0
 11
68629.67715434
 21
-66777.01535243
 31
0.0
  0
CIRCLE
  5
5FB
100
AcDbEntity
  8
Ech.1_10
 62
     7
  6
CONTINUOUS
370
    -3
100
AcDbCircle
 10
68604.81676145
 20
-66671.07615304
 30
0.0
 40
2.51802373
  0
LINE
  5
5FC
100
AcDbEntity
  8
Ech.1_10
 62
     7
  6
CONTINUOUS
370
    -3
100
AcDbLine
 10
68591.31679345
 20
-66624.32904112
 30
0.0
 11
68591.31666953
 21
-66750.01530776
 31
0.0
  0
CIRCLE
  5
5FD
100
AcDbEntity
  8
Ech.1_10
 62
     7
  6
CONTINUOUS
370
    -3
100
AcDbCircle
 10
68604.81677891
 20
-66656.07615304
 30
0.0
 40
2.51802373
  0
LINE
  5
5FE
100
AcDbEntity
  8
Ech.1_10
 62
     7
  6
CONTINUOUS
370
    -3
100
AcDbLine
 10
68591.31679345
 20
-66624.32904112
 30
0.0
 11
68618.31679345
 21
-66624.32907256
 31
0.0
  0
LINE
  5
5FF
100
AcDbEntity
  8
Ech.1_10
 62
     7
  6
CONTINUOUS
370
    -3
100
AcDbLine
 10
68627.67715667
 20
-66775.0153501
 30
0.0
 11
68581.95612418
 21
-66775.01529687
 31
0.0
  0
LINE
  5
600
100
AcDbEntity
  8
Ech.1_10
 62
     7
  6
CONTINUOUS
370
    -3
100
AcDbLine
 10
68579.95612185
 20
-66777.01529454
 30
0.0
 11
68629.67715434
 21
-66777.01535243
 31
0.0
  0
ARC
  5
601
100
AcDbEntity
  8
Ech.1_10
 62
     7
  6
CONTINUOUS
370
    -3
100
AcDbCircle
 10
68584.45826378
 20
-66761.87038733
 30
0.0
 40
3.80485997
100
AcDbArc
 50
235.74603248
 51
356.50316668
  0
LINE
  5
602
100
AcDbEntity
  8
Ech.1_10
 62
     7
  6
CONTINUOUS
370
    -3
100
AcDbLine
 10
68602.92437969
 20
-66635.86640914
 30
0.0
 11
68602.92437969
 21
-66635.86640914
 31
0.0
  0
CIRCLE
  5
603
100
AcDbEntity
  8
Ech.1_10
 62
     7
  6
CONTINUOUS
370
    -3
100
AcDbCircle
 10
68604.81677891
 20
-66641.16774162
 30
0.0
 40
2.51802373
  0
CIRCLE
  5
604
100
AcDbEntity
  8
Ech.1_10
 62
     7
  6
CONTINUOUS
370
    -3
100
AcDbCircle
 10
69394.83510832
 20
-66731.07615304
 30
0.0
 40
2.51802373
  0
LINE
  5
605
100
AcDbEntity
  8
Ech.1_10
 62
     7
  6
CONTINUOUS
370
    -3
100
AcDbLine
 10
69381.33500645
 20
-66624.32907256
 30
0.0
 11
69381.33513037
 21
-66750.0153392
 31
0.0
  0
CIRCLE
  5
606
100
AcDbEntity
  8
Ech.1_10
 62
     7
  6
CONTINUOUS
370
    -3
100
AcDbCircle
 10
69394.83505592
 20
-66686.07615304
 30
0.0
 40
2.51802373
  0
ARC
  5
607
100
AcDbEntity
  8
Ech.1_10
 62
     7
  6
CONTINUOUS
370
    -3
100
AcDbCircle
 10
69413.33513037
 20
-66750.01530194
 30
0.0
 40
5.0
100
AcDbArc
 50
180.00006671
 51
270.00006671
  0
LINE
  5
608
100
AcDbEntity
  8
Ech.1_10
 62
     7
  6
CONTINUOUS
370
    -3
100
AcDbLine
 10
69413.56524907
 20
-66764.09559804
 30
0.0
 11
69413.56524674
 21
-66762.09559804
 31
0.0
  0
LINE
  5
609
100
AcDbEntity
  8
Ech.1_10
 62
     7
  6
CONTINUOUS
370
    -3
100
AcDbLine
 10
69417.33513619
 20
-66755.01529729
 30
0.0
 11
69413.33513619
 21
-66755.01530194
 31
0.0
  0
ARC
  5
60A
100
AcDbEntity
  8
Ech.1_10
 62
     7
  6
CONTINUOUS
370
    -3
100
AcDbCircle
 10
69403.56885048
 20
-66749.51081891
 30
0.0
 40
14.82598747
100
AcDbArc
 50
301.86490836
 51
338.20589563
  0
ARC
  5
60B
100
AcDbEntity
  8
Ech.1_10
 62
     7
  6
CONTINUOUS
370
    -3
100
AcDbCircle
 10
69405.02436467
 20
-66762.9856089
 30
0.0
 40
12.47697948
100
AcDbArc
 50
285.38788568
 51
350.63782276
  0
LINE
  5
60C
100
AcDbEntity
  8
Ech.1_10
 62
     7
  6
CONTINUOUS
370
    -3
100
AcDbLine
 10
69413.56524907
 20
-66764.09559804
 30
0.0
 11
69417.69566301
 21
-66764.09559324
 31
0.0
  0
LINE
  5
60D
100
AcDbEntity
  8
Ech.1_10
 62
     7
  6
CONTINUOUS
370
    -3
100
AcDbLine
 10
69417.69566301
 20
-66764.09559324
 30
0.0
 11
69417.69567572
 21
-66775.01529687
 31
0.0
  0
LINE
  5
60E
100
AcDbEntity
  8
Ech.1_10
 62
     7
  6
CONTINUOUS
370
    -3
100
AcDbLine
 10
69413.56524674
 20
-66762.09559804
 30
0.0
 11
69419.69566068
 21
-66762.09559091
 31
0.0
  0
LINE
  5
60F
100
AcDbEntity
  8
Ech.1_10
 62
     7
  6
CONTINUOUS
370
    -3
100
AcDbLine
 10
69419.69566068
 20
-66762.09559091
 30
0.0
 11
69419.69567805
 21
-66777.01529454
 31
0.0
  0
CIRCLE
  5
610
100
AcDbEntity
  8
Ech.1_10
 62
     7
  6
CONTINUOUS
370
    -3
100
AcDbCircle
 10
69394.83509085
 20
-66716.07615304
 30
0.0
 40
2.51802373
  0
CIRCLE
  5
611
100
AcDbEntity
  8
Ech.1_10
 62
     7
  6
CONTINUOUS
370
    -3
100
AcDbCircle
 10
69394.83512578
 20
-66746.07615304
 30
0.0
 40
2.51802373
  0
CIRCLE
  5
612
100
AcDbEntity
  8
Ech.1_10
 62
     7
  6
CONTINUOUS
370
    -3
100
AcDbCircle
 10
69394.83507338
 20
-66701.07615304
 30
0.0
 40
2.51802373
  0
ARC
  5
613
100
AcDbEntity
  8
Ech.1_10
 62
     7
  6
CONTINUOUS
370
    -3
100
AcDbCircle
 10
69386.10140908
 20
-66749.51083925
 30
0.0
 40
14.82598747
100
AcDbArc
 50
201.79423779
 51
238.13522507
  0
ARC
  5
614
100
AcDbEntity
  8
Ech.1_10
 62
     7
  6
CONTINUOUS
370
    -3
100
AcDbCircle
 10
69374.47675223
 20
-66761.87043474
 30
0.0
 40
3.80485997
100
AcDbArc
 50
235.74616591
 51
356.50330011
  0
ARC
  5
615
100
AcDbEntity
  8
Ech.1_10
 62
     7
  6
CONTINUOUS
370
    -3
100
AcDbCircle
 10
69528.64592627
 20
-66762.98563263
 30
0.0
 40
12.47697948
100
AcDbArc
 50
189.36231067
 51
254.61224775
  0
LINE
  5
616
100
AcDbEntity
  8
Ech.1_10
 62
     7
  6
CONTINUOUS
370
    -3
100
AcDbLine
 10
69372.33513619
 20
-66755.01534968
 30
0.0
 11
69376.33513619
 21
-66755.01534503
 31
0.0
  0
ARC
  5
617
100
AcDbEntity
  8
Ech.1_10
 62
     7
  6
CONTINUOUS
370
    -3
100
AcDbCircle
 10
69376.33513037
 20
-66750.01534503
 30
0.0
 40
5.0
100
AcDbArc
 50
270.00006672
 51
6.6713239056776E-05
  0
LINE
  5
618
100
AcDbEntity
  8
Ech.1_10
 62
     7
  6
CONTINUOUS
370
    -3
100
AcDbLine
 10
69376.10504446
 20
-66764.09564166
 30
0.0
 11
69376.10504213
 21
-66762.09564166
 31
0.0
  0
LINE
  5
619
100
AcDbEntity
  8
Ech.1_10
 62
     7
  6
CONTINUOUS
370
    -3
100
AcDbLine
 10
69376.10504446
 20
-66764.09564166
 30
0.0
 11
69371.97463052
 21
-66764.09564647
 31
0.0
  0
LINE
  5
61A
100
AcDbEntity
  8
Ech.1_10
 62
     7
  6
CONTINUOUS
370
    -3
100
AcDbLine
 10
69371.97463052
 20
-66764.09564647
 30
0.0
 11
69371.97464323
 21
-66775.0153501
 31
0.0
  0
LINE
  5
61B
100
AcDbEntity
  8
Ech.1_10
 62
     7
  6
CONTINUOUS
370
    -3
100
AcDbLine
 10
69376.10504213
 20
-66762.09564166
 30
0.0
 11
69369.97462819
 21
-66762.0956488
 31
0.0
  0
LINE
  5
61C
100
AcDbEntity
  8
Ech.1_10
 62
     7
  6
CONTINUOUS
370
    -3
100
AcDbLine
 10
69369.97462819
 20
-66762.0956488
 30
0.0
 11
69369.97464556
 21
-66777.01535243
 31
0.0
  0
CIRCLE
  5
61D
100
AcDbEntity
  8
Ech.1_10
 62
     7
  6
CONTINUOUS
370
    -3
100
AcDbCircle
 10
69394.83503845
 20
-66671.07615304
 30
0.0
 40
2.51802373
  0
LINE
  5
61E
100
AcDbEntity
  8
Ech.1_10
 62
     7
  6
CONTINUOUS
370
    -3
100
AcDbLine
 10
69408.33500645
 20
-66624.32904112
 30
0.0
 11
69408.33513037
 21
-66750.01530776
 31
0.0
  0
CIRCLE
  5
61F
100
AcDbEntity
  8
Ech.1_10
 62
     7
  6
CONTINUOUS
370
    -3
100
AcDbCircle
 10
69394.83502099
 20
-66656.07615304
 30
0.0
 40
2.51802373
  0
LINE
  5
620
100
AcDbEntity
  8
Ech.1_10
 62
     7
  6
CONTINUOUS
370
    -3
100
AcDbLine
 10
69408.33500645
 20
-66624.32904112
 30
0.0
 11
69381.33500645
 21
-66624.32907256
 31
0.0
  0
LINE
  5
621
100
AcDbEntity
  8
Ech.1_10
 62
     7
  6
CONTINUOUS
370
    -3
100
AcDbLine
 10
69371.97464323
 20
-66775.0153501
 30
0.0
 11
69417.69567572
 21
-66775.01529687
 31
0.0
  0
LINE
  5
622
100
AcDbEntity
  8
Ech.1_10
 62
     7
  6
CONTINUOUS
370
    -3
100
AcDbLine
 10
69419.69567805
 20
-66777.01529454
 30
0.0
 11
69369.97464556
 21
-66777.01535243
 31
0.0
  0
ARC
  5
623
100
AcDbEntity
  8
Ech.1_10
 62
     7
  6
CONTINUOUS
370
    -3
100
AcDbCircle
 10
69415.19353612
 20
-66761.87038733
 30
0.0
 40
3.80485997
100
AcDbArc
 50
183.49683332
 51
304.25396752
  0
LINE
  5
624
100
AcDbEntity
  8
Ech.1_10
 62
     7
  6
CONTINUOUS
370
    -3
100
AcDbLine
 10
69396.72742021
 20
-66635.86640914
 30
0.0
 11
69396.72742021
 21
-66635.86640914
 31
0.0
  0
CIRCLE
  5
625
100
AcDbEntity
  8
Ech.1_10
 62
     7
  6
CONTINUOUS
370
    -3
100
AcDbCircle
 10
69394.83502099
 20
-66641.16774162
 30
0.0
 40
2.51802373
  0
LWPOLYLINE
  5
626
100
AcDbEntity
  8
Ech.1_10
 62
   190
  6
CONTINUOUS
370
    -3
100
AcDbPolyline
 90
        6
 70
     0
 43
0.0
 10
68222.57005394
 20
-67000.46394907
 10
68384.00355743
 20
-67000.46247279
 10
68400.48906059
 20
-66982.48512446
 10
68386.37912057
 20
-67018.44082438
 10
68402.86547465
 20
-67000.46247279
 10
68607.36715641
 20
-67000.46329485
  0
LWPOLYLINE
  5
627
100
AcDbEntity
  8
Ech.1_10
 62
   190
  6
CONTINUOUS
 48
0.2
370
    70
100
AcDbPolyline
 90
        4
 70
     0
 43
0.0
 10
69013.05240278
 20
-66136.60839637
 10
68537.69874246
 20
-66136.60839637
 10
68521.0222094
 20
-66136.60839637
 10
68521.0222094
 20
-65986.60839637
  0
LWPOLYLINE
  5
628
100
AcDbEntity
  8
Ech.1_10
 62
   190
  6
CONTINUOUS
 48
0.2
370
    70
100
AcDbPolyline
 90
        4
 70
     0
 43
0.0
 10
69049.44148599
 20
-66136.60839637
 10
69411.40671685
 20
-66136.60839637
 10
69428.08324991
 20
-66136.60839637
 10
69428.08324991
 20
-65986.60839637
  0
LWPOLYLINE
  5
629
102
{ACAD_REACTORS
330
62A
102
}
100
AcDbEntity
  8
Ech.1_10
 62
     7
  6
CONTINUOUS
370
    -3
100
AcDbPolyline
 90
        4
 70
     1
 43
0.0
 10
69049.44247203
 20
-66438.25288592
 10
69049.44247203
 20
-66457.25288592
 10
69542.08174596
 20
-66457.25288592
 10
69542.08174596
 20
-66438.25288592
  0
HATCH
  5
62A
100
AcDbEntity
  8
Ech.1_10
 62
   190
  6
CONTINUOUS
100
AcDbHatch
 10
0.0
 20
0.0
 30
0.0
210
0.0
220
0.0
230
1.0
  2
ANSI38
 70
     0
 71
     1
 91
        1
 92
        7
 72
     0
 73
     1
 93
        4
 10
69049.44247203
 20
-66438.25288592
 10
69049.44247203
 20
-66457.25288592
 10
69542.08174596
 20
-66457.25288592
 10
69542.08174596
 20
-66438.25288592
 97
        1
330
629
 75
     0
 76
     2
 52
0.0
 41
1.0
 77
     0
 78
     2
 53
45.0
 43
0.0
 44
0.0
 45
-8.48528171
 46
8.48528171
 79
     2
 49
960.00003815
 49
0.0
 53
135.0
 43
0.0
 44
0.0
 45
-25.45584513
 46
8.48528171
 79
     2
 49
30.00000119
 49
-18.00000072
 47
0.775229
 98
        1
 10
0.0
 20
0.0
  0
LWPOLYLINE
  5
62B
102
{ACAD_REACTORS
330
62C
102
}
100
AcDbEntity
  8
Ech.1_10
 62
     7
  6
CONTINUOUS
370
    -3
100
AcDbPolyline
 90
        4
 70
     1
 43
0.0
 10
68511.57005394
 20
-66438.25288592
 10
68511.57005394
 20
-66457.25288592
 10
69013.05305756
 20
-66457.25288592
 10
69013.05305756
 20
-66438.25288592
  0
HATCH
  5
62C
100
AcDbEntity
  8
Ech.1_10
 62
   190
  6
CONTINUOUS
100
AcDbHatch
 10
0.0
 20
0.0
 30
0.0
210
0.0
220
0.0
230
1.0
  2
ANSI38
 70
     0
 71
     1
 91
        1
 92
        7
 72
     0
 73
     1
 93
        4
 10
68511.57005394
 20
-66438.25288592
 10
68511.57005394
 20
-66457.25288592
 10
69013.05305756
 20
-66457.25288592
 10
69013.05305756
 20
-66438.25288592
 97
        1
330
62B
 75
     0
 76
     2
 52
0.0
 41
1.0
 77
     0
 78
     2
 53
45.0
 43
0.0
 44
0.0
 45
-8.48528171
 46
8.48528171
 79
     2
 49
960.00003815
 49
0.0
 53
135.0
 43
0.0
 44
0.0
 45
-25.45584513
 46
8.48528171
 79
     2
 49
30.00000119
 49
-18.00000072
 47
0.775229
 98
        1
 10
0.0
 20
0.0
  0
LWPOLYLINE
  5
62D
100
AcDbEntity
  8
Ech.1_10
 62
    36
  6
CADWORK_22
 48
-5.0
370
    35
100
AcDbPolyline
 90
        4
 70
     0
 43
0.0
 10
69362.75109083
 20
-66430.41245838
 10
69328.54500691
 20
-66430.41245838
 10
69321.66759648
 20
-66436.07508491
 10
69049.44245013
 20
-66438.25288592
  0
LWPOLYLINE
  5
62E
100
AcDbEntity
  8
Ech.1_10
 62
    36
  6
CADWORK_22
 48
-5.0
370
    35
100
AcDbPolyline
 90
        4
 70
     0
 43
0.0
 10
69013.05303567
 20
-66438.25288592
 10
68617.98330098
 20
-66435.27610829
 10
68611.10589054
 20
-66429.61348176
 10
68576.89980662
 20
-66429.61348176
  0
LWPOLYLINE
  5
62F
102
{ACAD_REACTORS
330
630
102
}
100
AcDbEntity
  8
Ech.1_10
 62
     7
  6
CONTINUOUS
370
    -3
100
AcDbPolyline
 90
        4
 70
     1
 43
0.0
 10
69049.44213952
 20
-66777.25279925
 10
69049.44247203
 20
-66790.25281027
 10
69542.08174596
 20
-66790.25288592
 10
69542.08174596
 20
-66777.25288592
  0
HATCH
  5
630
100
AcDbEntity
  8
Ech.1_10
 62
   190
  6
CONTINUOUS
100
AcDbHatch
 10
0.0
 20
0.0
 30
0.0
210
0.0
220
0.0
230
1.0
  2
DOTS2
 70
     0
 71
     1
 91
        1
 92
        7
 72
     0
 73
     1
 93
        4
 10
69049.44213952
 20
-66777.25279925
 10
69049.44247203
 20
-66790.25281027
 10
69542.08174596
 20
-66790.25288592
 10
69542.08174596
 20
-66777.25288592
 97
        1
330
62F
 75
     0
 76
     2
 52
0.0
 41
4.72440952
 77
     0
 78
     1
 53
0.0
 43
0.0
 44
0.0
 45
3.75
 46
3.535
 79
     2
 49
0.0
 49
-3.535
 47
0.775229
 98
        1
 10
0.0
 20
0.0
  0
LWPOLYLINE
  5
631
102
{ACAD_REACTORS
330
632
102
}
100
AcDbEntity
  8
Ech.1_10
 62
     7
  6
CONTINUOUS
370
    -3
100
AcDbPolyline
 90
        4
 70
     1
 43
0.0
 10
68501.57005394
 20
-66777.25288592
 10
68501.57005394
 20
-66790.25288592
 10
69013.05207152
 20
-66790.25281027
 10
69013.05305756
 20
-66777.25279925
  0
HATCH
  5
632
100
AcDbEntity
  8
Ech.1_10
 62
   190
  6
CONTINUOUS
100
AcDbHatch
 10
0.0
 20
0.0
 30
0.0
210
0.0
220
0.0
230
1.0
  2
DOTS2
 70
     0
 71
     1
 91
        1
 92
        7
 72
     0
 73
     1
 93
        4
 10
68501.57005394
 20
-66777.25288592
 10
68501.57005394
 20
-66790.25288592
 10
69013.05207152
 20
-66790.25281027
 10
69013.05305756
 20
-66777.25279925
 97
        1
330
631
 75
     0
 76
     2
 52
0.0
 41
4.72440952
 77
     0
 78
     1
 53
0.0
 43
0.0
 44
0.0
 45
3.75
 46
3.535
 79
     2
 49
0.0
 49
-3.535
 47
0.775229
 98
        1
 10
0.0
 20
0.0
  0
LWPOLYLINE
  5
633
100
AcDbEntity
  8
Ech.1_10
 62
   190
  6
CONTINUOUS
370
    -3
100
AcDbPolyline
 90
        5
 70
     0
 43
0.0
 10
67976.22771314
 20
-68620.08872316
 10
69946.22771314
 20
-68620.08872316
 10
69946.22771314
 20
-65910.08872316
 10
67976.22771314
 20
-65910.08872316
 10
67976.22771314
 20
-68620.08872316
  0
LWPOLYLINE
  5
634
100
AcDbEntity
  8
Ech.1_10
 62
   190
  6
CONTINUOUS
370
    -3
100
AcDbPolyline
 90
        6
 70
     0
 43
0.0
 10
69013.05240278
 20
-66027.81572753
 10
69013.05403233
 20
-66313.9082508
 10
69031.03138073
 20
-66330.39375396
 10
68995.07568072
 20
-66316.28381394
 10
69013.05403233
 20
-66332.77016802
 10
69013.05324659
 20
-66918.97497059
  0
LWPOLYLINE
  5
635
100
AcDbEntity
  8
Ech.1_10
 62
   190
  6
CONTINUOUS
370
    -3
100
AcDbPolyline
 90
        6
 70
     0
 43
0.0
 10
69049.44312625
 20
-66918.97497059
 10
69049.44164996
 20
-66384.4091385
 10
69031.46430164
 20
-66367.92363535
 10
69067.42000156
 20
-66382.03357536
 10
69049.44164996
 20
-66365.54722128
 10
69049.44247203
 20
-66027.81572753
  0
POLYLINE
  5
636
100
AcDbEntity
  8
Ech.1_10
 62
     9
  6
CONTINUOUS
370
    -3
100
AcDb3dPolyline
 66
     1
 70
     8
  0
VERTEX
  5
637
100
AcDbEntity
  8
Ech.1_10
100
AcDbVertex
100
AcDb3dPolylineVertex
 10
69542.08174596
 20
-67278.86712538
 30
-11978.61048889
 70
    32
  0
VERTEX
  5
638
100
AcDbEntity
  8
Ech.1_10
100
AcDbVertex
100
AcDb3dPolylineVertex
 10
69542.08174596
 20
-67197.04914987
 30
-11978.61048889
 70
    32
  0
VERTEX
  5
639
100
AcDbEntity
  8
Ech.1_10
100
AcDbVertex
100
AcDb3dPolylineVertex
 10
69542.08174596
 20
-67197.04914987
 30
-9978.61048889
 70
    32
  0
VERTEX
  5
63A
100
AcDbEntity
  8
Ech.1_10
100
AcDbVertex
100
AcDb3dPolylineVertex
 10
69542.08174596
 20
-67278.86712538
 30
-9978.61048889
 70
    32
  0
VERTEX
  5
63B
100
AcDbEntity
  8
Ech.1_10
100
AcDbVertex
100
AcDb3dPolylineVertex
 10
69542.08174596
 20
-67278.86712538
 30
-3512.86048889
 70
    32
  0
VERTEX
  5
63C
100
AcDbEntity
  8
Ech.1_10
100
AcDbVertex
100
AcDb3dPolylineVertex
 10
69542.08174596
 20
-66338.25288592
 30
-3512.86048889
 70
    32
  0
VERTEX
  5
63D
100
AcDbEntity
  8
Ech.1_10
100
AcDbVertex
100
AcDb3dPolylineVertex
 10
69542.08174596
 20
-66338.25288592
 30
-5208.86048889
 70
    32
  0
VERTEX
  5
63E
100
AcDbEntity
  8
Ech.1_10
100
AcDbVertex
100
AcDb3dPolylineVertex
 10
69542.08174596
 20
-66338.25288592
 30
-5208.86048889
 70
    32
  0
SEQEND
  5
63F
100
AcDbEntity
  8
Ech.1_10
  0
POLYLINE
  5
640
100
AcDbEntity
  8
Ech.1_10
 62
     9
  6
CONTINUOUS
370
    -3
100
AcDb3dPolyline
 66
     1
 70
     8
  0
VERTEX
  5
641
100
AcDbEntity
  8
Ech.1_10
100
AcDbVertex
100
AcDb3dPolylineVertex
 10
69542.08174596
 20
-67197.04914987
 30
-5208.86048889
 70
    32
  0
VERTEX
  5
642
100
AcDbEntity
  8
Ech.1_10
100
AcDbVertex
100
AcDb3dPolylineVertex
 10
69542.08174596
 20
-67197.04914987
 30
-5208.86048889
 70
    32
  0
VERTEX
  5
643
100
AcDbEntity
  8
Ech.1_10
100
AcDbVertex
100
AcDb3dPolylineVertex
 10
69542.08174596
 20
-68131.02349183
 30
-5208.86048889
 70
    32
  0
VERTEX
  5
644
100
AcDbEntity
  8
Ech.1_10
100
AcDbVertex
100
AcDb3dPolylineVertex
 10
69542.08174596
 20
-68131.02349183
 30
-6608.86048889
 70
    32
  0
VERTEX
  5
645
100
AcDbEntity
  8
Ech.1_10
100
AcDbVertex
100
AcDb3dPolylineVertex
 10
69542.08174596
 20
-67197.04914987
 30
-6608.86048889
 70
    32
  0
VERTEX
  5
646
100
AcDbEntity
  8
Ech.1_10
100
AcDbVertex
100
AcDb3dPolylineVertex
 10
69542.08174596
 20
-67197.04914987
 30
-5208.86048889
 70
    32
  0
SEQEND
  5
647
100
AcDbEntity
  8
Ech.1_10
  0
POLYLINE
  5
648
100
AcDbEntity
  8
Ech.1_10
 62
     9
  6
CONTINUOUS
370
    -3
100
AcDb3dPolyline
 66
     1
 70
     8
  0
VERTEX
  5
649
100
AcDbEntity
  8
Ech.1_10
100
AcDbVertex
100
AcDb3dPolylineVertex
 10
69542.08174596
 20
-66338.25288592
 30
-5208.86048889
 70
    32
  0
VERTEX
  5
64A
100
AcDbEntity
  8
Ech.1_10
100
AcDbVertex
100
AcDb3dPolylineVertex
 10
69542.08174596
 20
-66338.25288592
 30
-14667.11048889
 70
    32
  0
VERTEX
  5
64B
100
AcDbEntity
  8
Ech.1_10
100
AcDbVertex
100
AcDb3dPolylineVertex
 10
69542.08174596
 20
-66338.25288592
 30
-5208.86048889
 70
    32
  0
VERTEX
  5
64C
100
AcDbEntity
  8
Ech.1_10
100
AcDbVertex
100
AcDb3dPolylineVertex
 10
69542.08174596
 20
-66338.25288592
 30
-14667.11048889
 70
    32
  0
VERTEX
  5
64D
100
AcDbEntity
  8
Ech.1_10
100
AcDbVertex
100
AcDb3dPolylineVertex
 10
69542.08174596
 20
-66338.25288592
 30
-14667.11048889
 70
    32
  0
SEQEND
  5
64E
100
AcDbEntity
  8
Ech.1_10
  0
POLYLINE
  5
64F
100
AcDbEntity
  8
Ech.1_10
 62
     9
  6
CONTINUOUS
370
    -3
100
AcDb3dPolyline
 66
     1
 70
     8
  0
VERTEX
  5
650
100
AcDbEntity
  8
Ech.1_10
100
AcDbVertex
100
AcDb3dPolylineVertex
 10
69542.08174596
 20
-67197.04914987
 30
-14667.11048889
 70
    32
  0
VERTEX
  5
651
100
AcDbEntity
  8
Ech.1_10
100
AcDbVertex
100
AcDb3dPolylineVertex
 10
69542.08174596
 20
-67197.04914987
 30
-14667.11048889
 70
    32
  0
VERTEX
  5
652
100
AcDbEntity
  8
Ech.1_10
100
AcDbVertex
100
AcDb3dPolylineVertex
 10
69542.08174596
 20
-68131.02349183
 30
-14667.11048889
 70
    32
  0
VERTEX
  5
653
100
AcDbEntity
  8
Ech.1_10
100
AcDbVertex
100
AcDb3dPolylineVertex
 10
69542.08174596
 20
-68131.02349183
 30
-16067.11048889
 70
    32
  0
VERTEX
  5
654
100
AcDbEntity
  8
Ech.1_10
100
AcDbVertex
100
AcDb3dPolylineVertex
 10
69542.08174596
 20
-67197.04914987
 30
-16067.11048889
 70
    32
  0
VERTEX
  5
655
100
AcDbEntity
  8
Ech.1_10
100
AcDbVertex
100
AcDb3dPolylineVertex
 10
69542.08174596
 20
-67197.04914987
 30
-14667.11048889
 70
    32
  0
SEQEND
  5
656
100
AcDbEntity
  8
Ech.1_10
  0
POLYLINE
  5
657
100
AcDbEntity
  8
Ech.1_10
 62
     9
  6
CONTINUOUS
370
    -3
100
AcDb3dPolyline
 66
     1
 70
     8
  0
VERTEX
  5
658
100
AcDbEntity
  8
Ech.1_10
100
AcDbVertex
100
AcDb3dPolylineVertex
 10
69542.08174596
 20
-66338.25288592
 30
-14667.11048889
 70
    32
  0
VERTEX
  5
659
100
AcDbEntity
  8
Ech.1_10
100
AcDbVertex
100
AcDb3dPolylineVertex
 10
69542.08174596
 20
-66338.25288592
 30
-17081.86048889
 70
    32
  0
VERTEX
  5
65A
100
AcDbEntity
  8
Ech.1_10
100
AcDbVertex
100
AcDb3dPolylineVertex
 10
69542.08174596
 20
-67278.86712538
 30
-17081.86048889
 70
    32
  0
VERTEX
  5
65B
100
AcDbEntity
  8
Ech.1_10
100
AcDbVertex
100
AcDb3dPolylineVertex
 10
69542.08174596
 20
-67278.86712538
 30
-11978.61048889
 70
    32
  0
SEQEND
  5
65C
100
AcDbEntity
  8
Ech.1_10
  0
LWPOLYLINE
  5
65D
100
AcDbEntity
  8
Ech.1_10
 62
   190
  6
CONTINUOUS
370
    -3
100
AcDbPolyline
 90
       60
 70
     0
 43
0.0
 10
69013.05305756
 20
-66693.91955259
 42
1.14028181
 10
68980.28762973
 20
-66698.23321305
 10
68995.8184854
 20
-66756.27255879
 42
-1.30322619
 10
68963.62096306
 20
-66756.27255879
 10
68979.15181873
 20
-66698.23321305
 42
1.30322619
 10
68946.95429639
 20
-66698.23321305
 10
68962.48515207
 20
-66756.27255879
 42
-1.30322619
 10
68930.28762973
 20
-66756.27255879
 10
68945.8184854
 20
-66698.23321305
 42
1.30322619
 10
68913.62096306
 20
-66698.23321305
 10
68929.15181873
 20
-66756.27255879
 42
-1.30322619
 10
68896.95429639
 20
-66756.27255879
 10
68912.48515207
 20
-66698.23321305
 42
1.30322619
 10
68880.28762973
 20
-66698.23321305
 10
68895.8184854
 20
-66756.27255879
 42
-1.30322619
 10
68863.62096306
 20
-66756.27255879
 10
68879.15181873
 20
-66698.23321305
 42
1.30322619
 10
68846.95429639
 20
-66698.23321305
 10
68862.48515207
 20
-66756.27255879
 42
-1.30322619
 10
68830.28762973
 20
-66756.27255879
 10
68845.8184854
 20
-66698.23321305
 42
1.30322619
 10
68813.62096306
 20
-66698.23321305
 10
68829.15181873
 20
-66756.27255879
 42
-1.30322619
 10
68796.95429639
 20
-66756.27255879
 10
68812.48515207
 20
-66698.23321305
 42
1.30322619
 10
68780.28762973
 20
-66698.23321305
 10
68795.8184854
 20
-66756.27255879
 42
-1.30322619
 10
68763.62096306
 20
-66756.27255879
 10
68779.15181873
 20
-66698.23321305
 42
1.30322619
 10
68746.95429639
 20
-66698.23321305
 10
68762.48515207
 20
-66756.27255879
 42
-1.30322619
 10
68730.28762973
 20
-66756.27255879
 10
68745.8184854
 20
-66698.23321305
 42
1.30322619
 10
68713.62096306
 20
-66698.23321305
 10
68729.15181873
 20
-66756.27255879
 42
-1.30322619
 10
68696.95429639
 20
-66756.27255879
 10
68712.48515207
 20
-66698.23321305
 42
1.30322619
 10
68680.28762973
 20
-66698.23321305
 10
68695.8184854
 20
-66756.27255879
 42
-1.30322619
 10
68663.62096306
 20
-66756.27255879
 10
68679.15181873
 20
-66698.23321305
 42
1.30322619
 10
68646.95429639
 20
-66698.23321305
 10
68662.48515207
 20
-66756.27255879
 42
-1.30322619
 10
68630.28762973
 20
-66756.27255879
 10
68645.8184854
 20
-66698.23321305
 42
1.30322619
 10
68613.62096306
 20
-66698.23321305
 10
68629.15181873
 20
-66756.27255879
 42
-1.30322619
 10
68596.95429639
 20
-66756.27255879
 10
68612.48515207
 20
-66698.23321305
 42
1.30322619
 10
68580.28762973
 20
-66698.23321305
 10
68595.8184854
 20
-66756.27255879
 42
-1.30322619
 10
68563.62096306
 20
-66756.27255879
 10
68579.15181873
 20
-66698.23321305
 42
1.30322619
 10
68546.95429639
 20
-66698.23321305
 10
68562.48515207
 20
-66756.27255879
 42
-1.30322619
 10
68530.28762973
 20
-66756.27255879
 10
68545.8184854
 20
-66698.23321305
 42
1.30322619
 10
68513.62096306
 20
-66698.23321305
 10
68529.15181873
 20
-66756.27255879
 42
-0.75731981
 10
68501.57005394
 20
-66772.66588835
  0
LWPOLYLINE
  5
65E
100
AcDbEntity
  8
Ech.1_10
 62
   190
  6
CONTINUOUS
370
    -3
100
AcDbPolyline
 90
       58
 70
     0
 43
0.0
 10
69543.08174596
 20
-66693.91955259
 42
1.14028181
 10
69510.31631813
 20
-66698.23321305
 10
69525.8471738
 20
-66756.27255879
 42
-1.30322619
 10
69493.64965146
 20
-66756.27255879
 10
69509.18050713
 20
-66698.23321305
 42
1.30322619
 10
69476.98298479
 20
-66698.23321305
 10
69492.51384047
 20
-66756.27255879
 42
-1.30322619
 10
69460.31631813
 20
-66756.27255879
 10
69475.8471738
 20
-66698.23321305
 42
1.30322619
 10
69443.64965146
 20
-66698.23321305
 10
69459.18050713
 20
-66756.27255879
 42
-1.30322619
 10
69426.98298479
 20
-66756.27255879
 10
69442.51384047
 20
-66698.23321305
 42
1.30322619
 10
69410.31631813
 20
-66698.23321305
 10
69425.8471738
 20
-66756.27255879
 42
-1.30322619
 10
69393.64965146
 20
-66756.27255879
 10
69409.18050713
 20
-66698.23321305
 42
1.30322619
 10
69376.98298479
 20
-66698.23321305
 10
69392.51384047
 20
-66756.27255879
 42
-1.30322619
 10
69360.31631813
 20
-66756.27255879
 10
69375.8471738
 20
-66698.23321305
 42
1.30322619
 10
69343.64965146
 20
-66698.23321305
 10
69359.18050713
 20
-66756.27255879
 42
-1.30322619
 10
69326.98298479
 20
-66756.27255879
 10
69342.51384047
 20
-66698.23321305
 42
1.30322619
 10
69310.31631813
 20
-66698.23321305
 10
69325.8471738
 20
-66756.27255879
 42
-1.30322619
 10
69293.64965146
 20
-66756.27255879
 10
69309.18050713
 20
-66698.23321305
 42
1.30322619
 10
69276.98298479
 20
-66698.23321305
 10
69292.51384047
 20
-66756.27255879
 42
-1.30322619
 10
69260.31631813
 20
-66756.27255879
 10
69275.8471738
 20
-66698.23321305
 42
1.30322619
 10
69243.64965146
 20
-66698.23321305
 10
69259.18050713
 20
-66756.27255879
 42
-1.30322619
 10
69226.98298479
 20
-66756.27255879
 10
69242.51384047
 20
-66698.23321305
 42
1.30322619
 10
69210.31631813
 20
-66698.23321305
 10
69225.8471738
 20
-66756.27255879
 42
-1.30322619
 10
69193.64965146
 20
-66756.27255879
 10
69209.18050713
 20
-66698.23321305
 42
1.30322619
 10
69176.98298479
 20
-66698.23321305
 10
69192.51384047
 20
-66756.27255879
 42
-1.30322619
 10
69160.31631813
 20
-66756.27255879
 10
69175.8471738
 20
-66698.23321305
 42
1.30322619
 10
69143.64965146
 20
-66698.23321305
 10
69159.18050713
 20
-66756.27255879
 42
-1.30322619
 10
69126.98298479
 20
-66756.27255879
 10
69142.51384047
 20
-66698.23321305
 42
1.30322619
 10
69110.31631813
 20
-66698.23321305
 10
69125.8471738
 20
-66756.27255879
 42
-1.30322619
 10
69093.64965146
 20
-66756.27255879
 10
69109.18050713
 20
-66698.23321305
 42
1.30322619
 10
69076.98298479
 20
-66698.23321305
 10
69092.51384047
 20
-66756.27255879
 42
-1.30322619
 10
69060.31631813
 20
-66756.27255879
 10
69075.8471738
 20
-66698.23321305
 42
0.72119785
 10
69049.44247203
 20
-66680.82125628
  0
3DFACE
  5
65F
102
{ACAD_REACTORS
330
660
102
}
100
AcDbEntity
  8
Ech.1_10
 62
     9
  6
CONTINUOUS
370
    -3
100
AcDbFace
 70
     0
 10
69542.08174596
 20
-66138.25288592
 30
2500.0
 11
69542.08174596
 21
-66338.25288592
 31
2500.0
 12
70954.1530979
 22
-66338.25288592
 32
2500.0
 13
70954.1530979
 23
-66138.25288592
 33
2500.0
  0
HATCH
  5
660
100
AcDbEntity
  8
Ech.1_10
 62
     9
  6
CONTINUOUS
100
AcDbHatch
 10
0.0
 20
0.0
 30
0.0
210
0.0
220
0.0
230
1.0
  2
AR-CONC
 70
     0
 71
     1
 91
        1
 92
        7
 72
     0
 73
     1
 93
        4
 10
69542.08174596
 20
-66138.25288592
 10
69542.08174596
 20
-66338.25288592
 10
70954.1530979
 20
-66338.25288592
 10
70954.1530979
 20
-66138.25288592
 97
        1
330
65F
 75
     0
 76
     2
 52
0.0
 41
0.11811097
 77
     0
 78
    13
 53
50.0
 43
0.0
 44
0.0
 45
-18.84283637
 46
1.64853443
 79
     2
 49
1.97029307
 49
-21.67322338
 53
355.0
 43
0.0
 44
0.0
 45
-3.64507756
 46
19.76051824
 79
     2
 49
1.57623377
 49
-17.3385787
 53
100.45140076
 43
1.57023568
 44
-0.13737749
 45
-15.19777228
 46
-18.11197244
 79
     2
 49
1.67449124
 49
-18.41940522
 53
46.18420029
 43
0.0
 44
5.25411576
 45
-28.03703353
 46
4.34827878
 79
     2
 49
2.95543872
 49
-32.50983238
 53
96.63559723
 43
2.33641885
 44
4.89175692
 45
-24.55412615
 46
-25.59063404
 79
     2
 49
2.51173697
 49
-27.62910426
 53
351.1842041
 43
0.0
 44
5.25411576
 45
24.55410288
 46
25.59065715
 79
     2
 49
2.36435249
 49
-26.00786805
 53
21.0
 43
2.62705699
 44
3.94058615
 45
-15.68109068
 46
10.57702905
 79
     2
 49
1.97029307
 49
-21.67322338
 53
326.0
 43
2.62705699
 44
3.94058615
 45
6.39203268
 46
19.05010734
 79
     2
 49
1.57623377
 49
-17.3385787
 53
71.45140076
 43
3.93381357
 44
3.05916555
 45
-22.07312962
 46
-8.47306182
 79
     2
 49
1.67449124
 49
-18.41940522
 53
37.5
 43
0.0
 44
0.0
 45
0.31944534
 46
8.74531245
 79
     6
 49
0.01875
 49
-17.12841332
 49
0.01875
 49
-17.60128498
 49
0.01875
 49
-17.40425348
 53
7.5
 43
0.0
 44
0.0
 45
6.91098818
 46
10.3614222
 79
     6
 49
0.01875
 49
-10.03535807
 49
0.01875
 49
-16.7343539
 49
0.01875
 49
-6.6333206
 53
-32.5
 43
-5.85833833
 44
0.0
 45
14.02382061
 46
-0.59253003
 79
     6
 49
0.01875
 49
-6.56764314
 49
0.01875
 49
-20.49104869
 49
0.01875
 49
-27.19004452
 53
-42.5
 43
-8.48539531
 44
0.0
 45
15.32063571
 46
2.62981542
 79
     6
 49
0.01875
 49
-8.53793621
 49
0.01875
 49
-13.60815793
 49
0.01875
 49
-19.30887222
 47
0.775229
 98
        1
 10
0.0
 20
0.0
  0
LWPOLYLINE
  5
661
102
{ACAD_REACTORS
330
662
102
}
100
AcDbEntity
  8
Ech.1_10
 62
     9
  6
CONTINUOUS
370
    -3
100
AcDbPolyline
 90
        8
 70
     1
 43
0.0
 38
2500.0
 39
-2500.0
 10
69542.08324991
 20
-66964.07401869
 10
69542.08324991
 20
-65968.25288592
 10
69742.08324991
 20
-65968.25288592
 10
69742.08324991
 20
-66964.07465849
 10
69680.89682589
 20
-66964.07455822
 10
69664.41132273
 20
-66982.05190654
 10
69678.52126275
 20
-66946.09620662
 10
69662.03490867
 20
-66964.07455822
  0
HATCH
  5
662
100
AcDbEntity
  8
Ech.1_10
 62
     9
  6
CONTINUOUS
100
AcDbHatch
 10
0.0
 20
0.0
 30
0.0
210
0.0
220
0.0
230
1.0
  2
AR-CONC
 70
     0
 71
     1
 91
        1
 92
        7
 72
     0
 73
     1
 93
        8
 10
69542.08324991
 20
-66964.07401869
 10
69542.08324991
 20
-65968.25288592
 10
69742.08324991
 20
-65968.25288592
 10
69742.08324991
 20
-66964.07465849
 10
69680.89682589
 20
-66964.07455822
 10
69664.41132273
 20
-66982.05190654
 10
69678.52126275
 20
-66946.09620662
 10
69662.03490867
 20
-66964.07455822
 97
        1
330
661
 75
     0
 76
     2
 52
0.0
 41
0.11811097
 77
     0
 78
    13
 53
50.0
 43
0.0
 44
0.0
 45
-18.84283637
 46
1.64853443
 79
     2
 49
1.97029307
 49
-21.67322338
 53
355.0
 43
0.0
 44
0.0
 45
-3.64507756
 46
19.76051824
 79
     2
 49
1.57623377
 49
-17.3385787
 53
100.45140076
 43
1.57023568
 44
-0.13737749
 45
-15.19777228
 46
-18.11197244
 79
     2
 49
1.67449124
 49
-18.41940522
 53
46.18420029
 43
0.0
 44
5.25411576
 45
-28.03703353
 46
4.34827878
 79
     2
 49
2.95543872
 49
-32.50983238
 53
96.63559723
 43
2.33641885
 44
4.89175692
 45
-24.55412615
 46
-25.59063404
 79
     2
 49
2.51173697
 49
-27.62910426
 53
351.1842041
 43
0.0
 44
5.25411576
 45
24.55410288
 46
25.59065715
 79
     2
 49
2.36435249
 49
-26.00786805
 53
21.0
 43
2.62705699
 44
3.94058615
 45
-15.68109068
 46
10.57702905
 79
     2
 49
1.97029307
 49
-21.67322338
 53
326.0
 43
2.62705699
 44
3.94058615
 45
6.39203268
 46
19.05010734
 79
     2
 49
1.57623377
 49
-17.3385787
 53
71.45140076
 43
3.93381357
 44
3.05916555
 45
-22.07312962
 46
-8.47306182
 79
     2
 49
1.67449124
 49
-18.41940522
 53
37.5
 43
0.0
 44
0.0
 45
0.31944534
 46
8.74531245
 79
     6
 49
0.01875
 49
-17.12841332
 49
0.01875
 49
-17.60128498
 49
0.01875
 49
-17.40425348
 53
7.5
 43
0.0
 44
0.0
 45
6.91098818
 46
10.3614222
 79
     6
 49
0.01875
 49
-10.03535807
 49
0.01875
 49
-16.7343539
 49
0.01875
 49
-6.6333206
 53
-32.5
 43
-5.85833833
 44
0.0
 45
14.02382061
 46
-0.59253003
 79
     6
 49
0.01875
 49
-6.56764314
 49
0.01875
 49
-20.49104869
 49
0.01875
 49
-27.19004452
 53
-42.5
 43
-8.48539531
 44
0.0
 45
15.32063571
 46
2.62981542
 79
     6
 49
0.01875
 49
-8.53793621
 49
0.01875
 49
-13.60815793
 49
0.01875
 49
-19.30887222
 47
0.775229
 98
        1
 10
0.0
 20
0.0
  0
LWPOLYLINE
  5
663
102
{ACAD_REACTORS
330
664
102
}
100
AcDbEntity
  8
Ech.1_10
 62
     9
  6
CONTINUOUS
370
    -3
100
AcDbPolyline
 90
        8
 70
     1
 43
0.0
 38
2500.0
 39
-2500.0
 10
69542.08174596
 20
-67000.46328028
 10
69542.08174596
 20
-68131.02349183
 10
69742.08174596
 20
-68131.02349183
 10
69742.08174596
 20
-67000.46264048
 10
69629.25785564
 20
-67000.46217585
 10
69612.77150081
 20
-67018.44052746
 10
69626.88144134
 20
-66982.48482745
 10
69610.39593814
 20
-67000.46217585
  0
HATCH
  5
664
100
AcDbEntity
  8
Ech.1_10
 62
     9
  6
CONTINUOUS
100
AcDbHatch
 10
0.0
 20
0.0
 30
0.0
210
0.0
220
0.0
230
1.0
  2
AR-CONC
 70
     0
 71
     1
 91
        1
 92
        7
 72
     0
 73
     1
 93
        8
 10
69542.08174596
 20
-67000.46328028
 10
69542.08174596
 20
-68131.02349183
 10
69742.08174596
 20
-68131.02349183
 10
69742.08174596
 20
-67000.46264048
 10
69629.25785564
 20
-67000.46217585
 10
69612.77150081
 20
-67018.44052746
 10
69626.88144134
 20
-66982.48482745
 10
69610.39593814
 20
-67000.46217585
 97
        1
330
663
 75
     0
 76
     2
 52
0.0
 41
0.11811097
 77
     0
 78
    13
 53
50.0
 43
0.0
 44
0.0
 45
-18.84283637
 46
1.64853443
 79
     2
 49
1.97029307
 49
-21.67322338
 53
355.0
 43
0.0
 44
0.0
 45
-3.64507756
 46
19.76051824
 79
     2
 49
1.57623377
 49
-17.3385787
 53
100.45140076
 43
1.57023568
 44
-0.13737749
 45
-15.19777228
 46
-18.11197244
 79
     2
 49
1.67449124
 49
-18.41940522
 53
46.18420029
 43
0.0
 44
5.25411576
 45
-28.03703353
 46
4.34827878
 79
     2
 49
2.95543872
 49
-32.50983238
 53
96.63559723
 43
2.33641885
 44
4.89175692
 45
-24.55412615
 46
-25.59063404
 79
     2
 49
2.51173697
 49
-27.62910426
 53
351.1842041
 43
0.0
 44
5.25411576
 45
24.55410288
 46
25.59065715
 79
     2
 49
2.36435249
 49
-26.00786805
 53
21.0
 43
2.62705699
 44
3.94058615
 45
-15.68109068
 46
10.57702905
 79
     2
 49
1.97029307
 49
-21.67322338
 53
326.0
 43
2.62705699
 44
3.94058615
 45
6.39203268
 46
19.05010734
 79
     2
 49
1.57623377
 49
-17.3385787
 53
71.45140076
 43
3.93381357
 44
3.05916555
 45
-22.07312962
 46
-8.47306182
 79
     2
 49
1.67449124
 49
-18.41940522
 53
37.5
 43
0.0
 44
0.0
 45
0.31944534
 46
8.74531245
 79
     6
 49
0.01875
 49
-17.12841332
 49
0.01875
 49
-17.60128498
 49
0.01875
 49
-17.40425348
 53
7.5
 43
0.0
 44
0.0
 45
6.91098818
 46
10.3614222
 79
     6
 49
0.01875
 49
-10.03535807
 49
0.01875
 49
-16.7343539
 49
0.01875
 49
-6.6333206
 53
-32.5
 43
-5.85833833
 44
0.0
 45
14.02382061
 46
-0.59253003
 79
     6
 49
0.01875
 49
-6.56764314
 49
0.01875
 49
-20.49104869
 49
0.01875
 49
-27.19004452
 53
-42.5
 43
-8.48539531
 44
0.0
 45
15.32063571
 46
2.62981542
 79
     6
 49
0.01875
 49
-8.53793621
 49
0.01875
 49
-13.60815793
 49
0.01875
 49
-19.30887222
 47
0.775229
 98
        1
 10
0.0
 20
0.0
  0
LWPOLYLINE
  5
665
100
AcDbEntity
  8
Ech.1_10
 62
   190
  6
CONTINUOUS
370
    -3
100
AcDbPolyline
 90
        8
 70
     1
 43
0.0
 10
68347.57005394
 20
-67752.17517768
 10
68347.57005394
 20
-67465.35353094
 10
68356.57005394
 20
-67465.35353094
 10
68356.57005394
 20
-67226.35353094
 10
68347.57005394
 20
-67226.35353094
 10
68347.57005394
 20
-67000.4633499
 10
68287.57005394
 20
-67000.4633499
 10
68287.57005394
 20
-67752.17517768
  0
LWPOLYLINE
  5
666
100
AcDbEntity
  8
Ech.1_10
 62
   190
  6
CONTINUOUS
370
    -3
100
AcDbPolyline
 90
       40
 70
     0
 43
0.0
 10
68345.07005394
 20
-67465.35353094
 42
1.14028181
 10
68342.09362822
 20
-67442.74538573
 10
68302.04647966
 20
-67453.46167615
 42
-1.30322619
 10
68302.04647966
 20
-67431.24538573
 10
68342.09362822
 20
-67441.96167615
 42
1.30322619
 10
68342.09362822
 20
-67419.74538573
 10
68302.04647966
 20
-67430.46167615
 42
-1.30322619
 10
68302.04647966
 20
-67408.24538573
 10
68342.09362822
 20
-67418.96167615
 42
1.30322619
 10
68342.09362822
 20
-67396.74538573
 10
68302.04647966
 20
-67407.46167615
 42
-1.30322619
 10
68302.04647966
 20
-67385.24538573
 10
68342.09362822
 20
-67395.96167615
 42
1.30322619
 10
68342.09362822
 20
-67373.74538573
 10
68302.04647966
 20
-67384.46167615
 42
-1.30322619
 10
68302.04647966
 20
-67362.24538573
 10
68342.09362822
 20
-67372.96167615
 42
1.30322619
 10
68342.09362822
 20
-67350.74538573
 10
68302.04647966
 20
-67361.46167615
 42
-1.30322619
 10
68302.04647966
 20
-67339.24538573
 10
68342.09362822
 20
-67349.96167615
 42
1.30322619
 10
68342.09362822
 20
-67327.74538573
 10
68302.04647966
 20
-67338.46167615
 42
-1.30322619
 10
68302.04647966
 20
-67316.24538573
 10
68342.09362822
 20
-67326.96167615
 42
1.30322619
 10
68342.09362822
 20
-67304.74538573
 10
68302.04647966
 20
-67315.46167615
 42
-1.30322619
 10
68302.04647966
 20
-67293.24538573
 10
68342.09362822
 20
-67303.96167615
 42
1.30322619
 10
68342.09362822
 20
-67281.74538573
 10
68302.04647966
 20
-67292.46167615
 42
-1.30322619
 10
68302.04647966
 20
-67270.24538573
 10
68342.09362822
 20
-67280.96167615
 42
1.30322619
 10
68342.09362822
 20
-67258.74538573
 10
68302.04647966
 20
-67269.46167615
 42
-1.30322619
 10
68302.04647966
 20
-67247.24538573
 10
68342.09362822
 20
-67257.96167615
 42
1.30322619
 10
68342.09362822
 20
-67235.74538573
 10
68302.04647966
 20
-67246.46167615
 42
-0.81340333
 10
68291.9111434
 20
-67226.35353094
  0
LWPOLYLINE
  5
667
100
AcDbEntity
  8
Ech.1_10
 62
     7
  6
CONTINUOUS
370
    -3
100
AcDbPolyline
 90
        8
 70
     1
 43
0.0
 10
68995.07571727
 20
-67379.83659351
 10
69031.03141728
 20
-67393.94653353
 10
69013.05406887
 20
-67377.46103037
 10
69013.0535572
 20
-67245.35353094
 10
68401.57005394
 20
-67245.35353094
 10
68401.57005394
 20
-67465.35353094
 10
69013.05324659
 20
-67465.35353094
 10
69013.05406887
 20
-67396.32294759
  0
LWPOLYLINE
  5
668
100
AcDbEntity
  8
Ech.1_10
 62
   190
  6
CONTINUOUS
370
    -3
100
AcDbPolyline
 90
        4
 70
     1
 43
0.0
 10
68501.57005394
 20
-67752.17387062
 10
68541.57005394
 20
-67752.17387062
 10
68541.57005394
 20
-67629.35352899
 10
68501.57005394
 20
-67629.35352899
  0
LWPOLYLINE
  5
669
100
AcDbEntity
  8
Ech.1_10
 62
   190
  6
CONTINUOUS
370
    -3
100
AcDbPolyline
 90
       36
 70
     0
 43
0.0
 10
68534.90338727
 20
-67752.17387062
 42
1.14028181
 10
68533.17792308
 20
-67739.06769949
 10
68509.96218479
 20
-67745.28004176
 42
-1.30322619
 10
68509.96218479
 20
-67732.40103282
 10
68533.17792308
 20
-67738.61337509
 42
1.30322619
 10
68533.17792308
 20
-67725.73436615
 10
68509.96218479
 20
-67731.94670842
 42
-1.30322619
 10
68509.96218479
 20
-67719.06769949
 10
68533.17792308
 20
-67725.28004176
 42
1.30322619
 10
68533.17792308
 20
-67712.40103282
 10
68509.96218479
 20
-67718.61337509
 42
-1.30322619
 10
68509.96218479
 20
-67705.73436615
 10
68533.17792308
 20
-67711.94670842
 42
1.30322619
 10
68533.17792308
 20
-67699.06769949
 10
68509.96218479
 20
-67705.28004176
 42
-1.30322619
 10
68509.96218479
 20
-67692.40103282
 10
68533.17792308
 20
-67698.61337509
 42
1.30322619
 10
68533.17792308
 20
-67685.73436615
 10
68509.96218479
 20
-67691.94670842
 42
-1.30322619
 10
68509.96218479
 20
-67679.06769949
 10
68533.17792308
 20
-67685.28004176
 42
1.30322619
 10
68533.17792308
 20
-67672.40103282
 10
68509.96218479
 20
-67678.61337509
 42
-1.30322619
 10
68509.96218479
 20
-67665.73436615
 10
68533.17792308
 20
-67671.94670842
 42
1.30322619
 10
68533.17792308
 20
-67659.06769949
 10
68509.96218479
 20
-67665.28004176
 42
-1.30322619
 10
68509.96218479
 20
-67652.40103282
 10
68533.17792308
 20
-67658.61337509
 42
1.30322619
 10
68533.17792308
 20
-67645.73436615
 10
68509.96218479
 20
-67651.94670842
 42
-1.30322619
 10
68509.96218479
 20
-67639.06769949
 10
68533.17792308
 20
-67645.28004176
 42
1.30322619
 10
68533.17792308
 20
-67632.40103282
 10
68509.96218479
 20
-67638.61337509
 42
-0.63723841
 10
68502.19601555
 20
-67629.35352899
  0
LWPOLYLINE
  5
66A
100
AcDbEntity
  8
Ech.1_10
 62
   190
  6
CONTINUOUS
370
    -3
100
AcDbPolyline
 90
        4
 70
     1
 43
0.0
 10
68401.57005394
 20
-67245.35353094
 10
68446.57005394
 20
-67245.35353094
 10
68446.57005394
 20
-67465.35353094
 10
68401.57005394
 20
-67465.35353094
  0
LWPOLYLINE
  5
66B
100
AcDbEntity
  8
Ech.1_10
 62
   190
  6
CONTINUOUS
370
    -3
100
AcDbPolyline
 90
       58
 70
     0
 43
0.0
 10
68439.07005394
 20
-67465.35353094
 42
1.14028181
 10
68437.12890673
 20
-67450.60908841
 10
68411.01120115
 20
-67457.59797347
 42
-1.30322619
 10
68411.01120115
 20
-67443.10908841
 10
68437.12890673
 20
-67450.09797347
 42
1.30322619
 10
68437.12890673
 20
-67435.60908841
 10
68411.01120115
 20
-67442.59797347
 42
-1.30322619
 10
68411.01120115
 20
-67428.10908841
 10
68437.12890673
 20
-67435.09797347
 42
1.30322619
 10
68437.12890673
 20
-67420.60908841
 10
68411.01120115
 20
-67427.59797347
 42
-1.30322619
 10
68411.01120115
 20
-67413.10908841
 10
68437.12890673
 20
-67420.09797347
 42
1.30322619
 10
68437.12890673
 20
-67405.60908841
 10
68411.01120115
 20
-67412.59797347
 42
-1.30322619
 10
68411.01120115
 20
-67398.10908841
 10
68437.12890673
 20
-67405.09797347
 42
1.30322619
 10
68437.12890673
 20
-67390.60908841
 10
68411.01120115
 20
-67397.59797347
 42
-1.30322619
 10
68411.01120115
 20
-67383.10908841
 10
68437.12890673
 20
-67390.09797347
 42
1.30322619
 10
68437.12890673
 20
-67375.60908841
 10
68411.01120115
 20
-67382.59797347
 42
-1.30322619
 10
68411.01120115
 20
-67368.10908841
 10
68437.12890673
 20
-67375.09797347
 42
1.30322619
 10
68437.12890673
 20
-67360.60908841
 10
68411.01120115
 20
-67367.59797347
 42
-1.30322619
 10
68411.01120115
 20
-67353.10908841
 10
68437.12890673
 20
-67360.09797347
 42
1.30322619
 10
68437.12890673
 20
-67345.60908841
 10
68411.01120115
 20
-67352.59797347
 42
-1.30322619
 10
68411.01120115
 20
-67338.10908841
 10
68437.12890673
 20
-67345.09797347
 42
1.30322619
 10
68437.12890673
 20
-67330.60908841
 10
68411.01120115
 20
-67337.59797347
 42
-1.30322619
 10
68411.01120115
 20
-67323.10908841
 10
68437.12890673
 20
-67330.09797347
 42
1.30322619
 10
68437.12890673
 20
-67315.60908841
 10
68411.01120115
 20
-67322.59797347
 42
-1.30322619
 10
68411.01120115
 20
-67308.10908841
 10
68437.12890673
 20
-67315.09797347
 42
1.30322619
 10
68437.12890673
 20
-67300.60908841
 10
68411.01120115
 20
-67307.59797347
 42
-1.30322619
 10
68411.01120115
 20
-67293.10908841
 10
68437.12890673
 20
-67300.09797347
 42
1.30322619
 10
68437.12890673
 20
-67285.60908841
 10
68411.01120115
 20
-67292.59797347
 42
-1.30322619
 10
68411.01120115
 20
-67278.10908841
 10
68437.12890673
 20
-67285.09797347
 42
1.30322619
 10
68437.12890673
 20
-67270.60908841
 10
68411.01120115
 20
-67277.59797347
 42
-1.30322619
 10
68411.01120115
 20
-67263.10908841
 10
68437.12890673
 20
-67270.09797347
 42
1.30322619
 10
68437.12890673
 20
-67255.60908841
 10
68411.01120115
 20
-67262.59797347
 42
-1.30322619
 10
68411.01120115
 20
-67248.10908841
 10
68437.12890673
 20
-67255.09797347
 42
0.60366269
 10
68446.14112175
 20
-67245.35353094
  0
LWPOLYLINE
  5
66C
100
AcDbEntity
  8
Ech.1_10
 62
   190
  6
CONTINUOUS
370
    -3
100
AcDbPolyline
 90
        4
 70
     1
 43
0.0
 10
68501.57005394
 20
-67216.35353094
 10
68541.57005394
 20
-67216.35353094
 10
68541.57005394
 20
-67171.35353094
 10
68501.57005394
 20
-67171.35353094
  0
LWPOLYLINE
  5
66D
100
AcDbEntity
  8
Ech.1_10
 62
   190
  6
CONTINUOUS
370
    -3
100
AcDbPolyline
 90
       46
 70
     0
 43
0.0
 10
68346.65529594
 20
-67226.35353094
 42
0.63521829
 10
68334.98185766
 20
-67212.51595188
 10
68300.15825022
 20
-67221.83446528
 42
-1.30322619
 10
68300.15825022
 20
-67202.51595188
 10
68334.98185766
 20
-67211.83446528
 42
1.30322619
 10
68334.98185766
 20
-67192.51595188
 10
68300.15825022
 20
-67201.83446528
 42
-1.30322619
 10
68300.15825022
 20
-67182.51595188
 10
68334.98185766
 20
-67191.83446528
 42
1.30322619
 10
68334.98185766
 20
-67172.51595188
 10
68300.15825022
 20
-67181.83446528
 42
-1.30322619
 10
68300.15825022
 20
-67162.51595188
 10
68334.98185766
 20
-67171.83446528
 42
1.30322619
 10
68334.98185766
 20
-67152.51595188
 10
68300.15825022
 20
-67161.83446528
 42
-1.30322619
 10
68300.15825022
 20
-67142.51595188
 10
68334.98185766
 20
-67151.83446528
 42
1.30322619
 10
68334.98185766
 20
-67132.51595188
 10
68300.15825022
 20
-67141.83446528
 42
-1.30322619
 10
68300.15825022
 20
-67122.51595188
 10
68334.98185766
 20
-67131.83446528
 42
1.30322619
 10
68334.98185766
 20
-67112.51595188
 10
68300.15825022
 20
-67121.83446528
 42
-1.30322619
 10
68300.15825022
 20
-67102.51595188
 10
68334.98185766
 20
-67111.83446528
 42
1.30322619
 10
68334.98185766
 20
-67092.51595188
 10
68300.15825022
 20
-67101.83446528
 42
-1.30322619
 10
68300.15825022
 20
-67082.51595188
 10
68334.98185766
 20
-67091.83446528
 42
1.30322619
 10
68334.98185766
 20
-67072.51595188
 10
68300.15825022
 20
-67081.83446528
 42
-1.30322619
 10
68300.15825022
 20
-67062.51595188
 10
68334.98185766
 20
-67071.83446528
 42
1.30322619
 10
68334.98185766
 20
-67052.51595188
 10
68300.15825022
 20
-67061.83446528
 42
-1.30322619
 10
68300.15825022
 20
-67042.51595188
 10
68334.98185766
 20
-67051.83446528
 42
1.30322619
 10
68334.98185766
 20
-67032.51595188
 10
68300.15825022
 20
-67041.83446528
 42
-1.30322619
 10
68300.15825022
 20
-67022.51595188
 10
68334.98185766
 20
-67031.83446528
 42
1.30322619
 10
68334.98185766
 20
-67012.51595188
 10
68300.15825022
 20
-67021.83446528
 42
-1.30322619
 10
68300.15825022
 20
-67002.51595188
 10
68334.98185766
 20
-67011.83446528
 42
0.54780623
 10
68347.42244146
 20
-67000.4633499
  0
LWPOLYLINE
  5
66E
100
AcDbEntity
  8
Ech.1_10
 62
   190
  6
CONTINUOUS
370
    -3
100
AcDbPolyline
 90
       56
 70
     0
 43
0.0
 10
68337.57005394
 20
-67752.17520858
 42
1.14028181
 10
68334.98185766
 20
-67732.51595188
 10
68300.15825022
 20
-67741.83446528
 42
-1.30322619
 10
68300.15825022
 20
-67722.51595188
 10
68334.98185766
 20
-67731.83446528
 42
1.30322619
 10
68334.98185766
 20
-67712.51595188
 10
68300.15825022
 20
-67721.83446528
 42
-1.30322619
 10
68300.15825022
 20
-67702.51595188
 10
68334.98185766
 20
-67711.83446528
 42
1.30322619
 10
68334.98185766
 20
-67692.51595188
 10
68300.15825022
 20
-67701.83446528
 42
-1.30322619
 10
68300.15825022
 20
-67682.51595188
 10
68334.98185766
 20
-67691.83446528
 42
1.30322619
 10
68334.98185766
 20
-67672.51595188
 10
68300.15825022
 20
-67681.83446528
 42
-1.30322619
 10
68300.15825022
 20
-67662.51595188
 10
68334.98185766
 20
-67671.83446528
 42
1.30322619
 10
68334.98185766
 20
-67652.51595188
 10
68300.15825022
 20
-67661.83446528
 42
-1.30322619
 10
68300.15825022
 20
-67642.51595188
 10
68334.98185766
 20
-67651.83446528
 42
1.30322619
 10
68334.98185766
 20
-67632.51595188
 10
68300.15825022
 20
-67641.83446528
 42
-1.30322619
 10
68300.15825022
 20
-67622.51595188
 10
68334.98185766
 20
-67631.83446528
 42
1.30322619
 10
68334.98185766
 20
-67612.51595188
 10
68300.15825022
 20
-67621.83446528
 42
-1.30322619
 10
68300.15825022
 20
-67602.51595188
 10
68334.98185766
 20
-67611.83446528
 42
1.30322619
 10
68334.98185766
 20
-67592.51595188
 10
68300.15825022
 20
-67601.83446528
 42
-1.30322619
 10
68300.15825022
 20
-67582.51595188
 10
68334.98185766
 20
-67591.83446528
 42
1.30322619
 10
68334.98185766
 20
-67572.51595188
 10
68300.15825022
 20
-67581.83446528
 42
-1.30322619
 10
68300.15825022
 20
-67562.51595188
 10
68334.98185766
 20
-67571.83446528
 42
1.30322619
 10
68334.98185766
 20
-67552.51595188
 10
68300.15825022
 20
-67561.83446528
 42
-1.30322619
 10
68300.15825022
 20
-67542.51595188
 10
68334.98185766
 20
-67551.83446528
 42
1.30322619
 10
68334.98185766
 20
-67532.51595188
 10
68300.15825022
 20
-67541.83446528
 42
-1.30322619
 10
68300.15825022
 20
-67522.51595188
 10
68334.98185766
 20
-67531.83446528
 42
1.30322619
 10
68334.98185766
 20
-67512.51595188
 10
68300.15825022
 20
-67521.83446528
 42
-1.30322619
 10
68300.15825022
 20
-67502.51595188
 10
68334.98185766
 20
-67511.83446528
 42
1.30322619
 10
68334.98185766
 20
-67492.51595188
 10
68300.15825022
 20
-67501.83446528
 42
-1.30322619
 10
68300.15825022
 20
-67482.51595188
 10
68334.98185766
 20
-67491.83446528
 42
1.30322619
 10
68334.98185766
 20
-67472.51595188
 10
68300.15825022
 20
-67481.83446528
 42
-0.75364509
 10
68290.258097
 20
-67465.35353094
  0
LWPOLYLINE
  5
66F
100
AcDbEntity
  8
Ech.1_10
 62
   190
  6
CONTINUOUS
370
    -3
100
AcDbPolyline
 90
        3
 70
     0
 43
0.0
 10
68310.76238149
 20
-67465.35353094
 10
68334.98185766
 20
-67471.83446528
 42
0.39627206
 10
68347.0515236
 20
-67465.35353094
  0
LWPOLYLINE
  5
670
100
AcDbEntity
  8
Ech.1_10
 62
   190
  6
CONTINUOUS
370
    -3
100
AcDbPolyline
 90
        9
 70
     1
 43
0.0
 10
68501.57005394
 20
-67000.46278593
 10
68402.86547465
 20
-67000.46238588
 10
68386.37912057
 20
-67018.44073748
 10
68400.48906059
 20
-66982.48503747
 10
68384.00355743
 20
-67000.46238588
 10
68356.57005394
 20
-67000.46263668
 10
68356.57005394
 20
-67181.35353094
 10
68501.57005394
 20
-67181.35353094
 10
68501.57005394
 20
-67171.35353094
  0
LWPOLYLINE
  5
671
100
AcDbEntity
  8
Ech.1_10
 62
   190
  6
CONTINUOUS
370
    -3
100
AcDbPolyline
 90
        9
 70
     1
 43
0.0
 10
68501.57005394
 20
-67629.35352899
 10
68501.57005394
 20
-67555.35353094
 10
68356.57005394
 20
-67555.35353094
 10
68356.57005394
 20
-67752.17520858
 10
68435.64252791
 20
-67752.17550017
 10
68452.12888199
 20
-67734.19714857
 10
68438.01894198
 20
-67770.15284858
 10
68454.50444513
 20
-67752.17550017
 10
68501.57005394
 20
-67752.17387062
  0
LINE
  5
672
100
AcDbEntity
  8
Ech.1_10
 62
     7
  6
CONTINUOUS
370
    -3
100
AcDbLine
 10
68401.57005394
 20
-67465.35353094
 30
0.0
 11
69013.05324659
 21
-67465.35353094
 31
0.0
  0
LWPOLYLINE
  5
673
100
AcDbEntity
  8
Ech.1_10
 62
   190
  6
CONTINUOUS
370
    -3
100
AcDbPolyline
 90
        6
 70
     0
 43
0.0
 10
69013.05259305
 20
-67159.14702854
 10
69013.05406887
 20
-67377.46103037
 10
69031.03141728
 20
-67393.94653353
 10
68995.07571727
 20
-67379.83659351
 10
69013.05406887
 20
-67396.32294759
 10
69013.05324659
 20
-67679.08976443
  0
LWPOLYLINE
  5
674
100
AcDbEntity
  8
Ech.1_10
 62
   253
  6
CONTINUOUS
370
    15
100
AcDbPolyline
 90
        4
 70
     1
 43
0.0
 10
68541.57005394
 20
-67752.17387062
 10
68554.57005394
 20
-67752.17387062
 10
68554.57005394
 20
-67584.35352899
 10
68541.57005394
 20
-67584.35352899
  0
LWPOLYLINE
  5
675
100
AcDbEntity
  8
Ech.1_10
 62
   253
  6
CONTINUOUS
370
    15
100
AcDbPolyline
 90
        4
 70
     1
 43
0.0
 10
68541.57005394
 20
-67216.35353094
 10
68554.57005394
 20
-67216.35353094
 10
68554.57005394
 20
-67000.46308262
 10
68541.57005394
 20
-67000.46308262
  0
LWPOLYLINE
  5
676
102
{ACAD_REACTORS
330
677
102
}
100
AcDbEntity
  8
Ech.1_10
 62
     7
  6
CONTINUOUS
370
    -3
100
AcDbPolyline
 90
        4
 70
     1
 43
0.0
 10
68541.57005394
 20
-67752.17387062
 10
68554.57005394
 20
-67752.17387062
 10
68554.57005394
 20
-67584.35352899
 10
68541.57005394
 20
-67584.35352899
  0
HATCH
  5
677
100
AcDbEntity
  8
Ech.1_10
 62
   190
  6
CONTINUOUS
100
AcDbHatch
 10
0.0
 20
0.0
 30
0.0
210
0.0
220
0.0
230
1.0
  2
DOTS2
 70
     0
 71
     1
 91
        1
 92
        7
 72
     0
 73
     1
 93
        4
 10
68541.57005394
 20
-67752.17387062
 10
68554.57005394
 20
-67752.17387062
 10
68554.57005394
 20
-67584.35352899
 10
68541.57005394
 20
-67584.35352899
 97
        1
330
676
 75
     0
 76
     2
 52
0.0
 41
4.72440952
 77
     0
 78
     1
 53
0.0
 43
0.0
 44
0.0
 45
3.75
 46
3.535
 79
     2
 49
0.0
 49
-3.535
 47
0.775229
 98
        1
 10
0.0
 20
0.0
  0
LWPOLYLINE
  5
678
102
{ACAD_REACTORS
330
679
102
}
100
AcDbEntity
  8
Ech.1_10
 62
     7
  6
CONTINUOUS
370
    -3
100
AcDbPolyline
 90
        4
 70
     1
 43
0.0
 10
68541.57005394
 20
-67216.35353094
 10
68554.57005394
 20
-67216.35353094
 10
68554.57005394
 20
-67000.46308262
 10
68541.57005394
 20
-67000.46308262
  0
HATCH
  5
679
100
AcDbEntity
  8
Ech.1_10
 62
   190
  6
CONTINUOUS
100
AcDbHatch
 10
0.0
 20
0.0
 30
0.0
210
0.0
220
0.0
230
1.0
  2
DOTS2
 70
     0
 71
     1
 91
        1
 92
        7
 72
     0
 73
     1
 93
        4
 10
68541.57005394
 20
-67216.35353094
 10
68554.57005394
 20
-67216.35353094
 10
68554.57005394
 20
-67000.46308262
 10
68541.57005394
 20
-67000.46308262
 97
        1
330
678
 75
     0
 76
     2
 52
0.0
 41
4.72440952
 77
     0
 78
     1
 53
0.0
 43
0.0
 44
0.0
 45
3.75
 46
3.535
 79
     2
 49
0.0
 49
-3.535
 47
0.775229
 98
        1
 10
0.0
 20
0.0
  0
LWPOLYLINE
  5
67A
100
AcDbEntity
  8
Ech.1_10
 62
   190
  6
CONTINUOUS
370
    -3
100
AcDbPolyline
 90
        4
 70
     1
 43
0.0
 10
68501.57005394
 20
-67171.35353094
 10
68541.57005394
 20
-67171.35353094
 10
68541.57005394
 20
-67000.46278593
 10
68501.57005394
 20
-67000.46278593
  0
LWPOLYLINE
  5
67B
100
AcDbEntity
  8
Ech.1_10
 62
   190
  6
CONTINUOUS
370
    -3
100
AcDbPolyline
 90
        4
 70
     1
 43
0.0
 10
68347.57005394
 20
-67226.35353094
 10
68356.57005394
 20
-67226.35353094
 10
68356.57005394
 20
-67000.46269342
 10
68347.57005394
 20
-67000.46269342
  0
LWPOLYLINE
  5
67C
100
AcDbEntity
  8
Ech.1_10
 62
   190
  6
CONTINUOUS
370
    -3
100
AcDbPolyline
 90
        4
 70
     1
 43
0.0
 10
68356.57005394
 20
-67465.35353094
 10
68347.57005394
 20
-67465.35353094
 10
68347.57005394
 20
-67752.17520858
 10
68356.57005394
 20
-67752.17520858
  0
LWPOLYLINE
  5
67D
102
{ACAD_REACTORS
330
67E
102
}
100
AcDbEntity
  8
Ech.1_10
 62
     7
  6
CONTINUOUS
370
    -3
100
AcDbPolyline
 90
        4
 70
     1
 43
0.0
 10
68347.57005394
 20
-67226.35353094
 10
68356.57005394
 20
-67226.35353094
 10
68356.57005394
 20
-67000.46269342
 10
68347.57005394
 20
-67000.46269342
  0
HATCH
  5
67E
100
AcDbEntity
  8
Ech.1_10
 62
   190
  6
CONTINUOUS
100
AcDbHatch
 10
0.0
 20
0.0
 30
0.0
210
0.0
220
0.0
230
1.0
  2
CDWK10A
 70
     0
 71
     1
 91
        1
 92
        7
 72
     0
 73
     1
 93
        4
 10
68347.57005394
 20
-67226.35353094
 10
68356.57005394
 20
-67226.35353094
 10
68356.57005394
 20
-67000.46269342
 10
68347.57005394
 20
-67000.46269342
 97
        1
330
67D
 75
     0
 76
     2
 52
0.0
 41
1.0
 77
     0
 78
     3
 53
45.0
 43
0.0
 44
0.0
 45
0.0
 46
84.00000334
 79
     0
 53
45.0
 43
0.0
 44
21.60000086
 45
0.0
 46
84.00000334
 79
     0
 53
45.0
 43
0.0
 44
43.20000172
 45
0.0
 46
84.00000334
 79
     0
 47
0.775229
 98
        1
 10
0.0
 20
0.0
  0
LWPOLYLINE
  5
67F
100
AcDbEntity
  8
Ech.1_10
 62
   190
  6
CONTINUOUS
370
    -3
100
AcDbPolyline
 90
        4
 70
     1
 43
0.0
 10
68356.57005394
 20
-67465.35353094
 10
68356.57005394
 20
-67510.35353094
 10
68501.57005394
 20
-67510.35353094
 10
68501.57005394
 20
-67465.35353094
  0
LWPOLYLINE
  5
680
100
AcDbEntity
  8
Ech.1_10
 62
   190
  6
CONTINUOUS
370
    -3
100
AcDbPolyline
 90
        4
 70
     1
 43
0.0
 10
68356.57005394
 20
-67181.35353094
 10
68356.57005394
 20
-67226.35353094
 10
68501.57005394
 20
-67226.35353094
 10
68501.57005394
 20
-67181.35353094
  0
LWPOLYLINE
  5
681
100
AcDbEntity
  8
Ech.1_10
 62
   190
  6
CONTINUOUS
370
    -3
100
AcDbPolyline
 90
        4
 70
     1
 43
0.0
 10
68501.57005394
 20
-67226.35353094
 10
68501.57005394
 20
-67181.35353094
 10
68356.57005394
 20
-67181.35353094
 10
68356.57005394
 20
-67226.35353094
  0
LWPOLYLINE
  5
682
100
AcDbEntity
  8
Ech.1_10
 62
   190
  6
CONTINUOUS
370
    -3
100
AcDbPolyline
 90
        4
 70
     1
 43
0.0
 10
68501.57005394
 20
-67510.35353094
 10
68501.57005394
 20
-67465.35353094
 10
68356.57005394
 20
-67465.35353094
 10
68356.57005394
 20
-67510.35353094
  0
LWPOLYLINE
  5
683
100
AcDbEntity
  8
Ech.1_10
 62
   190
  6
CONTINUOUS
370
    -3
100
AcDbPolyline
 90
        4
 70
     1
 43
0.0
 10
68401.57005394
 20
-67245.35353094
 10
68356.57005394
 20
-67245.35353094
 10
68356.57005394
 20
-67465.35353094
 10
68401.57005394
 20
-67465.35353094
  0
LWPOLYLINE
  5
684
100
AcDbEntity
  8
Ech.1_10
 62
   190
  6
CONTINUOUS
370
    -3
100
AcDbPolyline
 90
        4
 70
     1
 43
0.0
 10
68356.57005394
 20
-67465.35353094
 10
68401.57005394
 20
-67465.35353094
 10
68401.57005394
 20
-67245.35353094
 10
68356.57005394
 20
-67245.35353094
  0
LINE
  5
685
100
AcDbEntity
  8
Ech.1_10
370
    18
100
AcDbLine
 10
68262.57005394
 20
-67600.46364488
 30
0.0
 11
68262.57005394
 21
-67000.46361727
 31
0.0
  0
LWPOLYLINE
  5
686
100
AcDbEntity
  8
Ech.1_10
 62
     9
100
AcDbPolyline
 90
       27
 70
     0
 43
0.0
 10
68249.44343682
 20
-67424.33883661
 10
68249.57005394
 20
-67424.00436282
 10
68249.57005394
 20
-67396.62089872
 10
68256.57005394
 20
-67396.62089872
 10
68256.57005394
 20
-67405.62089872
 10
68262.57005394
 20
-67405.62089872
 10
68262.57005394
 20
-67378.62089872
 10
68258.57005394
 20
-67374.62089872
 10
68262.57005394
 20
-67370.62089872
 10
68262.57005394
 20
-67306.62089872
 10
68258.57005394
 20
-67302.62089872
 10
68262.57005394
 20
-67298.62089872
 10
68262.57005394
 20
-67263.62089872
 10
68255.57005394
 20
-67263.62089872
 10
68255.57005394
 20
-67257.62089872
 10
68253.07005394
 20
-67252.62089872
 10
68250.57005394
 20
-67257.62089872
 10
68250.57005394
 20
-67288.54983091
 10
68250.1894516
 20
-67290.46324807
 10
68244.03452003
 20
-67297.15643263
 10
68242.57005394
 20
-67300.69196654
 10
68242.57005394
 20
-67419.77871095
 10
68243.53037633
 20
-67421.40857959
 10
68248.26649719
 20
-67424.37992952
 10
68248.67849856
 20
-67424.62089872
 10
68248.99231605
 20
-67424.62089872
 10
68249.44343682
 20
-67424.33883661
  0
LWPOLYLINE
  5
687
100
AcDbEntity
  8
Ech.1_10
 62
     7
100
AcDbPolyline
 90
       27
 70
     0
 43
0.0
 10
68249.44343682
 20
-67569.33883661
 10
68249.57005394
 20
-67569.00436282
 10
68249.57005394
 20
-67541.62089872
 10
68256.57005394
 20
-67541.62089872
 10
68256.57005394
 20
-67550.62089872
 10
68262.57005394
 20
-67550.62089872
 10
68262.57005394
 20
-67523.62089872
 10
68258.57005394
 20
-67519.62089872
 10
68262.57005394
 20
-67515.62089872
 10
68262.57005394
 20
-67451.62089872
 10
68258.57005394
 20
-67447.62089872
 10
68262.57005394
 20
-67443.62089872
 10
68262.57005394
 20
-67408.62089872
 10
68255.57005394
 20
-67408.62089872
 10
68255.57005394
 20
-67402.62089872
 10
68253.07005394
 20
-67397.62089872
 10
68250.57005394
 20
-67402.62089872
 10
68250.57005394
 20
-67433.54983091
 10
68250.1894516
 20
-67435.46324807
 10
68244.03452003
 20
-67442.15643263
 10
68242.57005394
 20
-67445.69196654
 10
68242.57005394
 20
-67564.77871095
 10
68243.53037633
 20
-67566.40857959
 10
68248.26649719
 20
-67569.37992952
 10
68248.67849856
 20
-67569.62089872
 10
68248.99231605
 20
-67569.62089872
 10
68249.44343682
 20
-67569.33883661
  0
LWPOLYLINE
  5
688
100
AcDbEntity
  8
Ech.1_10
 62
     9
100
AcDbPolyline
 90
       21
 70
     0
 43
0.0
 10
68250.18899033
 20
-67000.46374968
 10
68244.03452003
 20
-67007.15643263
 10
68242.57005394
 20
-67010.69196654
 10
68242.57005394
 20
-67129.77871095
 10
68243.53037633
 20
-67131.40857959
 10
68248.26649719
 20
-67134.37992952
 10
68248.67849856
 20
-67134.62089872
 10
68248.99231605
 20
-67134.62089872
 10
68249.44343682
 20
-67134.33883661
 10
68249.57005394
 20
-67134.00436282
 10
68249.57005394
 20
-67106.62089872
 10
68256.57005394
 20
-67106.62089872
 10
68256.57005394
 20
-67115.62089872
 10
68262.57005394
 20
-67115.62089872
 10
68262.57005394
 20
-67088.62089872
 10
68258.57005394
 20
-67084.62089872
 10
68262.57005394
 20
-67080.62089872
 10
68262.57005394
 20
-67016.62089872
 10
68258.57005394
 20
-67012.62089872
 10
68262.57005394
 20
-67008.62089872
 10
68262.57005394
 20
-67000.46361727
  0
LWPOLYLINE
  5
689
100
AcDbEntity
  8
Ech.1_10
 62
     9
100
AcDbPolyline
 90
       27
 70
     0
 43
0.0
 10
68249.44343682
 20
-67279.33883661
 10
68249.57005394
 20
-67279.00436282
 10
68249.57005394
 20
-67251.62089872
 10
68256.57005394
 20
-67251.62089872
 10
68256.57005394
 20
-67260.62089872
 10
68262.57005394
 20
-67260.62089872
 10
68262.57005394
 20
-67233.62089872
 10
68258.57005394
 20
-67229.62089872
 10
68262.57005394
 20
-67225.62089872
 10
68262.57005394
 20
-67161.62089872
 10
68258.57005394
 20
-67157.62089872
 10
68262.57005394
 20
-67153.62089872
 10
68262.57005394
 20
-67118.62089872
 10
68255.57005394
 20
-67118.62089872
 10
68255.57005394
 20
-67112.62089872
 10
68253.07005394
 20
-67107.62089872
 10
68250.57005394
 20
-67112.62089872
 10
68250.57005394
 20
-67143.54983091
 10
68250.1894516
 20
-67145.46324807
 10
68244.03452003
 20
-67152.15643263
 10
68242.57005394
 20
-67155.69196654
 10
68242.57005394
 20
-67274.77871095
 10
68243.53037633
 20
-67276.40857959
 10
68248.26649719
 20
-67279.37992952
 10
68248.67849856
 20
-67279.62089872
 10
68248.99231605
 20
-67279.62089872
 10
68249.44343682
 20
-67279.33883661
  0
LWPOLYLINE
  5
68A
100
AcDbEntity
  8
Ech.1_10
 62
   190
  6
CONTINUOUS
370
    -3
100
AcDbPolyline
 90
        4
 70
     1
 43
0.0
 10
68356.57005394
 20
-67245.35353094
 10
69013.0535572
 20
-67245.35353094
 10
69013.0535572
 20
-67226.35353094
 10
68356.57005394
 20
-67226.35353094
  0
LWPOLYLINE
  5
68B
102
{ACAD_REACTORS
330
68C
102
}
100
AcDbEntity
  8
Ech.1_10
 62
     7
  6
CONTINUOUS
370
    -3
100
AcDbPolyline
 90
        4
 70
     1
 43
0.0
 10
68356.57005394
 20
-67245.35353094
 10
69013.0535572
 20
-67245.35353094
 10
69013.0535572
 20
-67226.35353094
 10
68356.57005394
 20
-67226.35353094
  0
HATCH
  5
68C
100
AcDbEntity
  8
Ech.1_10
 62
   190
  6
CONTINUOUS
100
AcDbHatch
 10
0.0
 20
0.0
 30
0.0
210
0.0
220
0.0
230
1.0
  2
ANSI38
 70
     0
 71
     1
 91
        1
 92
        7
 72
     0
 73
     1
 93
        4
 10
68356.57005394
 20
-67245.35353094
 10
69013.0535572
 20
-67245.35353094
 10
69013.0535572
 20
-67226.35353094
 10
68356.57005394
 20
-67226.35353094
 97
        1
330
68B
 75
     0
 76
     2
 52
0.0
 41
1.0
 77
     0
 78
     2
 53
45.0
 43
0.0
 44
0.0
 45
-8.48528171
 46
8.48528171
 79
     2
 49
960.00003815
 49
0.0
 53
135.0
 43
0.0
 44
0.0
 45
-25.45584513
 46
8.48528171
 79
     2
 49
30.00000119
 49
-18.00000072
 47
0.775229
 98
        1
 10
0.0
 20
0.0
  0
LWPOLYLINE
  5
68D
100
AcDbEntity
  8
Ech.1_10
 62
   190
  6
CONTINUOUS
370
    -3
100
AcDbPolyline
 90
        4
 70
     1
 43
0.0
 10
68501.57005394
 20
-67570.35336844
 10
68501.57005394
 20
-67583.35336844
 10
69013.05324659
 20
-67583.35336844
 10
69013.05324659
 20
-67570.35336844
  0
LWPOLYLINE
  5
68E
102
{ACAD_REACTORS
330
68F
102
}
100
AcDbEntity
  8
Ech.1_10
 62
     7
  6
CONTINUOUS
370
    -3
100
AcDbPolyline
 90
        4
 70
     1
 43
0.0
 10
69013.05324659
 20
-67583.35344427
 10
69013.05324659
 20
-67570.35344427
 10
68501.57005394
 20
-67570.35353094
 10
68501.57005394
 20
-67583.35353094
  0
HATCH
  5
68F
100
AcDbEntity
  8
Ech.1_10
 62
   190
  6
CONTINUOUS
100
AcDbHatch
 10
0.0
 20
0.0
 30
0.0
210
0.0
220
0.0
230
1.0
  2
DOTS2
 70
     0
 71
     1
 91
        1
 92
        7
 72
     0
 73
     1
 93
        4
 10
69013.05324659
 20
-67583.35344427
 10
69013.05324659
 20
-67570.35344427
 10
68501.57005394
 20
-67570.35353094
 10
68501.57005394
 20
-67583.35353094
 97
        1
330
68E
 75
     0
 76
     2
 52
0.0
 41
4.72440952
 77
     0
 78
     1
 53
0.0
 43
0.0
 44
0.0
 45
3.75
 46
3.535
 79
     2
 49
0.0
 49
-3.535
 47
0.775229
 98
        1
 10
0.0
 20
0.0
  0
LWPOLYLINE
  5
690
100
AcDbEntity
  8
Ech.1_10
 62
   190
  6
CONTINUOUS
370
    -3
100
AcDbPolyline
 90
        4
 70
     0
 43
0.0
 10
69013.05324659
 20
-67570.35353094
 10
68599.77833617
 20
-67570.35353094
 10
68599.77833617
 20
-67470.35353094
 10
69013.05324659
 20
-67470.35353094
  0
LWPOLYLINE
  5
691
100
AcDbEntity
  8
Ech.1_10
 62
   190
  6
CONTINUOUS
370
    -3
100
AcDbPolyline
 90
        4
 70
     1
 43
0.0
 10
68501.57005394
 20
-67470.35353094
 10
68501.57005394
 20
-67570.35353094
 10
69013.05324659
 20
-67570.35353094
 10
69013.05324659
 20
-67470.35353094
  0
LWPOLYLINE
  5
692
100
AcDbEntity
  8
Ech.1_10
 62
   190
370
    18
100
AcDbPolyline
 90
        4
 70
     0
 43
0.0
 10
68501.57005394
 20
-67171.35353094
 10
68541.57005394
 20
-67216.35353094
 10
68541.57005394
 20
-67171.35353094
 10
68501.57005394
 20
-67216.35353094
  0
LWPOLYLINE
  5
693
100
AcDbEntity
  8
Ech.1_10
100
AcDbPolyline
 90
        6
 70
     0
 43
0.0
 10
68554.57146912
 20
-67146.68868637
 10
68557.57005392
 20
-67146.6887553
 42
-0.41421356
 10
68567.57005392
 20
-67156.6887553
 10
68567.57005392
 20
-67212.35352861
 10
68554.57005394
 20
-67212.35353094
 10
68554.57005394
 20
-67146.68875763
  0
LWPOLYLINE
  5
694
100
AcDbEntity
  8
Ech.1_10
 62
   190
  6
CONTINUOUS
370
    -3
100
AcDbPolyline
 90
        4
 70
     1
 43
0.0
 10
68356.57005394
 20
-67510.35353094
 10
68356.57005394
 20
-67555.35353094
 10
68501.57005394
 20
-67555.35353094
 10
68501.57005394
 20
-67510.35353094
  0
LWPOLYLINE
  5
695
100
AcDbEntity
  8
Ech.1_10
 62
   190
  6
CONTINUOUS
370
    -3
100
AcDbPolyline
 90
        4
 70
     1
 43
0.0
 10
68501.57005394
 20
-67555.35353094
 10
68501.57005394
 20
-67510.35353094
 10
68356.57005394
 20
-67510.35353094
 10
68356.57005394
 20
-67555.35353094
  0
LWPOLYLINE
  5
696
100
AcDbEntity
  8
Ech.1_10
 62
   190
  6
CONTINUOUS
370
    -3
100
AcDbPolyline
 90
        4
 70
     1
 43
0.0
 10
68501.57005394
 20
-67649.35352899
 10
68541.57005394
 20
-67649.35352899
 10
68541.57005394
 20
-67604.35352899
 10
68501.57005394
 20
-67604.35352899
  0
LINE
  5
697
100
AcDbEntity
  8
Ech.1_10
 62
   190
  6
CONTINUOUS
370
    -3
100
AcDbLine
 10
68501.57005394
 20
-67181.35353094
 30
0.0
 11
68501.57005394
 21
-67000.46320817
 31
0.0
  0
LINE
  5
698
100
AcDbEntity
  8
Ech.1_10
 62
   190
  6
CONTINUOUS
370
    -3
100
AcDbLine
 10
68501.57005394
 20
-67555.35353094
 30
0.0
 11
68501.57005394
 21
-67752.17387062
 31
0.0
  0
LWPOLYLINE
  5
699
102
{ACAD_REACTORS
330
69A
102
}
100
AcDbEntity
  8
Ech.1_10
 62
   190
  6
CONTINUOUS
370
    -3
100
AcDbPolyline
 90
        4
 70
     1
 43
0.0
 10
69013.05304981
 20
-67226.35353094
 10
69013.0530381
 20
-67212.35353094
 10
68564.57005394
 20
-67212.35353094
 10
68564.57005394
 20
-67226.35353094
  0
HATCH
  5
69A
100
AcDbEntity
  8
Ech.1_10
 62
   190
  6
CONTINUOUS
100
AcDbHatch
 10
0.0
 20
0.0
 30
0.0
210
0.0
220
0.0
230
1.0
  2
ANSI31
 70
     0
 71
     1
 91
        1
 92
        7
 72
     0
 73
     1
 93
        4
 10
69013.05304981
 20
-67226.35353094
 10
69013.0530381
 20
-67212.35353094
 10
68564.57005394
 20
-67212.35353094
 10
68564.57005394
 20
-67226.35353094
 97
        1
330
699
 75
     0
 76
     2
 52
90.0
 41
6.2992521
 77
     0
 78
     1
 53
-45.0
 43
0.0
 44
0.0
 45
14.14213562
 46
14.14213562
 79
     0
 47
0.775229
 98
        1
 10
0.0
 20
0.0
  0
LWPOLYLINE
  5
69B
100
AcDbEntity
  8
Ech.1_10
 62
     7
  6
CONTINUOUS
370
    -3
100
AcDbPolyline
 90
        4
 70
     1
 43
0.0
 10
68287.57005394
 20
-67226.35353094
 10
68347.57005394
 20
-67226.35353094
 10
68347.57005394
 20
-67181.35353094
 10
68287.57005394
 20
-67181.35353094
  0
LWPOLYLINE
  5
69C
100
AcDbEntity
  8
Ech.1_10
 62
     7
  6
CONTINUOUS
370
    -3
100
AcDbPolyline
 90
        4
 70
     1
 43
0.0
 10
68287.57005394
 20
-67510.35353094
 10
68347.57005394
 20
-67510.35353094
 10
68347.57005394
 20
-67465.35353094
 10
68287.57005394
 20
-67465.35353094
  0
LWPOLYLINE
  5
69D
100
AcDbEntity
  8
Ech.1_10
 62
   190
370
    18
100
AcDbPolyline
 90
        4
 70
     0
 43
0.0
 10
68501.57005394
 20
-67604.35352899
 10
68541.57005394
 20
-67649.35352899
 10
68541.57005394
 20
-67604.35352899
 10
68501.57005394
 20
-67649.35352899
  0
LWPOLYLINE
  5
69E
100
AcDbEntity
  8
Ech.1_10
 62
   190
370
    18
100
AcDbPolyline
 90
        4
 70
     0
 43
0.0
 10
68287.57005394
 20
-67465.35353094
 10
68347.57005394
 20
-67510.35353094
 10
68347.57005394
 20
-67465.35353094
 10
68287.57005394
 20
-67510.35353094
  0
LWPOLYLINE
  5
69F
100
AcDbEntity
  8
Ech.1_10
 62
     7
100
AcDbPolyline
 90
       27
 70
     0
 43
0.0
 10
68249.44343682
 20
-67714.33883661
 10
68249.57005394
 20
-67714.00436282
 10
68249.57005394
 20
-67686.62089872
 10
68256.57005394
 20
-67686.62089872
 10
68256.57005394
 20
-67695.62089872
 10
68262.57005394
 20
-67695.62089872
 10
68262.57005394
 20
-67668.62089872
 10
68258.57005394
 20
-67664.62089872
 10
68262.57005394
 20
-67660.62089872
 10
68262.57005394
 20
-67596.62089872
 10
68258.57005394
 20
-67592.62089872
 10
68262.57005394
 20
-67588.62089872
 10
68262.57005394
 20
-67553.62089872
 10
68255.57005394
 20
-67553.62089872
 10
68255.57005394
 20
-67547.62089872
 10
68253.07005394
 20
-67542.62089872
 10
68250.57005394
 20
-67547.62089872
 10
68250.57005394
 20
-67578.54983091
 10
68250.1894516
 20
-67580.46324807
 10
68244.03452003
 20
-67587.15643263
 10
68242.57005394
 20
-67590.69196654
 10
68242.57005394
 20
-67709.77871095
 10
68243.53037633
 20
-67711.40857959
 10
68248.26649719
 20
-67714.37992952
 10
68248.67849856
 20
-67714.62089872
 10
68248.99231605
 20
-67714.62089872
 10
68249.44343682
 20
-67714.33883661
  0
LWPOLYLINE
  5
6A0
100
AcDbEntity
  8
Ech.1_10
 62
     3
370
    70
100
AcDbPolyline
 90
        4
 70
     0
 43
0.0
 10
68505.63592774
 20
-67547.88372388
 10
68505.63592774
 20
-67534.89459046
 10
68511.3165407
 20
-67530.95985832
 10
68511.3165407
 20
-67517.48142832
  0
LWPOLYLINE
  5
6A1
100
AcDbEntity
  8
Ech.1_10
 62
   190
  6
CONTINUOUS
370
    -3
100
AcDbPolyline
 90
       16
 70
     0
 43
0.0
 10
68380.7367206
 20
-67555.35353094
 42
1.14028181
 10
68386.99152828
 20
-67602.8634013
 10
68471.1485796
 20
-67580.34366058
 42
-1.30322619
 10
68471.1485796
 20
-67627.03006797
 10
68386.99152828
 20
-67604.51032725
 42
1.30322619
 10
68386.99152828
 20
-67651.19673464
 10
68471.1485796
 20
-67628.67699391
 42
-1.30322619
 10
68471.1485796
 20
-67675.3634013
 10
68386.99152828
 20
-67652.84366058
 42
1.30322619
 10
68386.99152828
 20
-67699.53006797
 10
68471.1485796
 20
-67677.01032725
 42
-1.30322619
 10
68471.1485796
 20
-67723.69673464
 10
68386.99152828
 20
-67701.17699391
 42
1.30322619
 10
68386.99152828
 20
-67747.8634013
 10
68471.1485796
 20
-67725.34366058
 42
-0.53900413
 10
68501.31696567
 20
-67752.17520858
  0
LWPOLYLINE
  5
6A2
100
AcDbEntity
  8
Ech.1_10
 62
   190
  6
CONTINUOUS
370
    -3
100
AcDbPolyline
 90
       14
 70
     0
 43
0.0
 10
68380.7367206
 20
-67000.46269342
 42
1.14028181
 10
68386.99152828
 20
-67047.97256378
 10
68471.1485796
 20
-67025.45282306
 42
-1.30322619
 10
68471.1485796
 20
-67072.13923045
 10
68386.99152828
 20
-67049.61948972
 42
1.30322619
 10
68386.99152828
 20
-67096.30589711
 10
68471.1485796
 20
-67073.78615639
 42
-1.30322619
 10
68471.1485796
 20
-67120.47256378
 10
68386.99152828
 20
-67097.95282306
 42
1.30322619
 10
68386.99152828
 20
-67144.63923045
 10
68471.1485796
 20
-67122.11948972
 42
-1.30322619
 10
68471.1485796
 20
-67168.80589711
 10
68386.99152828
 20
-67146.28615639
 42
0.66202083
 10
68359.60447994
 20
-67181.35353094
  0
LWPOLYLINE
  5
6A3
100
AcDbEntity
  8
Ech.1_10
 62
   190
  6
CONTINUOUS
370
    -3
100
AcDbPolyline
 90
       50
 70
     0
 43
0.0
 10
68534.90338727
 20
-67171.35353094
 42
1.14028181
 10
68533.17792308
 20
-67158.24735981
 10
68509.96218479
 20
-67164.45970208
 42
-1.30322619
 10
68509.96218479
 20
-67151.58069314
 10
68533.17792308
 20
-67157.79303541
 42
1.30322619
 10
68533.17792308
 20
-67144.91402647
 10
68509.96218479
 20
-67151.12636874
 42
-1.30322619
 10
68509.96218479
 20
-67138.24735981
 10
68533.17792308
 20
-67144.45970208
 42
1.30322619
 10
68533.17792308
 20
-67131.58069314
 10
68509.96218479
 20
-67137.79303541
 42
-1.30322619
 10
68509.96218479
 20
-67124.91402647
 10
68533.17792308
 20
-67131.12636874
 42
1.30322619
 10
68533.17792308
 20
-67118.24735981
 10
68509.96218479
 20
-67124.45970208
 42
-1.30322619
 10
68509.96218479
 20
-67111.58069314
 10
68533.17792308
 20
-67117.79303541
 42
1.30322619
 10
68533.17792308
 20
-67104.91402647
 10
68509.96218479
 20
-67111.12636874
 42
-1.30322619
 10
68509.96218479
 20
-67098.24735981
 10
68533.17792308
 20
-67104.45970208
 42
1.30322619
 10
68533.17792308
 20
-67091.58069314
 10
68509.96218479
 20
-67097.79303541
 42
-1.30322619
 10
68509.96218479
 20
-67084.91402647
 10
68533.17792308
 20
-67091.12636874
 42
1.30322619
 10
68533.17792308
 20
-67078.24735981
 10
68509.96218479
 20
-67084.45970208
 42
-1.30322619
 10
68509.96218479
 20
-67071.58069314
 10
68533.17792308
 20
-67077.79303541
 42
1.30322619
 10
68533.17792308
 20
-67064.91402647
 10
68509.96218479
 20
-67071.12636874
 42
-1.30322619
 10
68509.96218479
 20
-67058.24735981
 10
68533.17792308
 20
-67064.45970208
 42
1.30322619
 10
68533.17792308
 20
-67051.58069314
 10
68509.96218479
 20
-67057.79303541
 42
-1.30322619
 10
68509.96218479
 20
-67044.91402647
 10
68533.17792308
 20
-67051.12636874
 42
1.30322619
 10
68533.17792308
 20
-67038.24735981
 10
68509.96218479
 20
-67044.45970208
 42
-1.30322619
 10
68509.96218479
 20
-67031.58069314
 10
68533.17792308
 20
-67037.79303541
 42
1.30322619
 10
68533.17792308
 20
-67024.91402647
 10
68509.96218479
 20
-67031.12636874
 42
-1.30322619
 10
68509.96218479
 20
-67018.24735981
 10
68533.17792308
 20
-67024.45970208
 42
1.30322619
 10
68533.17792308
 20
-67011.58069314
 10
68509.96218479
 20
-67017.79303541
 42
-1.30322619
 10
68509.96218479
 20
-67004.91402647
 10
68533.17792308
 20
-67011.12636874
 42
0.72863682
 10
68540.06130477
 20
-67000.46308262
  0
LWPOLYLINE
  5
6A4
100
AcDbEntity
  8
Ech.1_10
 62
   190
370
    18
100
AcDbPolyline
 90
        4
 70
     0
 43
0.0
 10
68287.57005394
 20
-67181.35353094
 10
68347.57005394
 20
-67226.35353094
 10
68347.57005394
 20
-67181.35353094
 10
68287.57005394
 20
-67226.35353094
  0
LWPOLYLINE
  5
6A5
102
{ACAD_REACTORS
330
6A6
102
}
100
AcDbEntity
  8
Ech.1_10
 62
     7
  6
CONTINUOUS
370
    -3
100
AcDbPolyline
 90
        4
 70
     1
 43
0.0
 10
68356.57005394
 20
-67465.35353094
 10
68347.57005394
 20
-67465.35353094
 10
68347.57005394
 20
-67752.17520858
 10
68356.57005394
 20
-67752.17520858
  0
HATCH
  5
6A6
100
AcDbEntity
  8
Ech.1_10
 62
   190
  6
CONTINUOUS
100
AcDbHatch
 10
0.0
 20
0.0
 30
0.0
210
0.0
220
0.0
230
1.0
  2
CDWK10A
 70
     0
 71
     1
 91
        1
 92
        7
 72
     0
 73
     1
 93
        4
 10
68356.57005394
 20
-67465.35353094
 10
68347.57005394
 20
-67465.35353094
 10
68347.57005394
 20
-67752.17520858
 10
68356.57005394
 20
-67752.17520858
 97
        1
330
6A5
 75
     0
 76
     2
 52
0.0
 41
1.0
 77
     0
 78
     3
 53
45.0
 43
0.0
 44
0.0
 45
0.0
 46
84.00000334
 79
     0
 53
45.0
 43
0.0
 44
21.60000086
 45
0.0
 46
84.00000334
 79
     0
 53
45.0
 43
0.0
 44
43.20000172
 45
0.0
 46
84.00000334
 79
     0
 47
0.775229
 98
        1
 10
0.0
 20
0.0
  0
LWPOLYLINE
  5
6A7
100
AcDbEntity
  8
Ech.1_10
 62
     9
100
AcDbPolyline
 90
       14
 70
     0
 43
0.0
 10
68262.57005394
 20
-67752.17471443
 10
68262.57005394
 20
-67741.62089872
 10
68258.57005394
 20
-67737.62089872
 10
68262.57005394
 20
-67733.62089872
 10
68262.57005394
 20
-67698.62089872
 10
68255.57005394
 20
-67698.62089872
 10
68255.57005394
 20
-67692.62089872
 10
68253.07005394
 20
-67687.62089872
 10
68250.57005394
 20
-67692.62089872
 10
68250.57005394
 20
-67723.54983091
 10
68250.1894516
 20
-67725.46324807
 10
68244.03452003
 20
-67732.15643263
 10
68242.57005394
 20
-67735.69196654
 10
68242.57005394
 20
-67752.17471443
  0
CIRCLE
  5
6A8
100
AcDbEntity
  8
Ech.1_10
 62
     7
100
AcDbCircle
 10
68942.19677811
 20
-67524.4143605
 30
0.0
 40
2.51802373
  0
LINE
  5
6A9
100
AcDbEntity
  8
Ech.1_10
 62
     7
100
AcDbLine
 10
68955.69677811
 20
-67417.66730896
 30
0.0
 11
68955.69677811
 21
-67543.35353094
 31
0.0
  0
CIRCLE
  5
6AA
100
AcDbEntity
  8
Ech.1_10
 62
     7
100
AcDbCircle
 10
68942.19677811
 20
-67479.4143605
 30
0.0
 40
2.51802373
  0
ARC
  5
6AB
100
AcDbEntity
  8
Ech.1_10
 62
     7
100
AcDbCircle
 10
68923.69677811
 20
-67543.35353094
 30
0.0
 40
5.0
100
AcDbArc
 50
270.0
 51
6.6701066113988E-10
  0
LINE
  5
6AC
100
AcDbEntity
  8
Ech.1_10
 62
     7
100
AcDbLine
 10
68923.4666758
 20
-67547.67136085
 30
0.0
 11
68923.4666758
 21
-67545.67136085
 31
0.0
  0
LINE
  5
6AD
100
AcDbEntity
  8
Ech.1_10
 62
     7
100
AcDbLine
 10
68919.69677811
 20
-67548.35353094
 30
0.0
 11
68923.69677811
 21
-67548.35353094
 31
0.0
  0
ARC
  5
6AE
100
AcDbEntity
  8
Ech.1_10
 62
     7
100
AcDbCircle
 10
68933.4630574
 20
-67542.84903653
 30
0.0
 40
14.82598747
100
AcDbArc
 50
201.79417108
 51
238.13515835
  0
ARC
  5
6AF
100
AcDbEntity
  8
Ech.1_10
 62
     7
100
AcDbCircle
 10
68932.00755891
 20
-67556.32382822
 30
0.0
 40
12.47697948
100
AcDbArc
 50
189.36224396
 51
254.61218104
  0
LINE
  5
6B0
100
AcDbEntity
  8
Ech.1_10
 62
     7
100
AcDbLine
 10
68923.4666758
 20
-67547.67136085
 30
0.0
 11
68919.33626186
 21
-67547.67136085
 31
0.0
  0
LINE
  5
6B1
100
AcDbEntity
  8
Ech.1_10
 62
     7
100
AcDbLine
 10
68919.33626186
 20
-67547.67136085
 30
0.0
 11
68919.33626186
 21
-67568.35353094
 31
0.0
  0
LINE
  5
6B2
100
AcDbEntity
  8
Ech.1_10
 62
     7
100
AcDbLine
 10
68923.4666758
 20
-67545.67136085
 30
0.0
 11
68917.33626186
 21
-67545.67136085
 31
0.0
  0
LINE
  5
6B3
100
AcDbEntity
  8
Ech.1_10
 62
     7
100
AcDbLine
 10
68917.33626186
 20
-67545.67136085
 30
0.0
 11
68917.33626186
 21
-67570.35353094
 31
0.0
  0
CIRCLE
  5
6B4
100
AcDbEntity
  8
Ech.1_10
 62
     7
100
AcDbCircle
 10
68942.19677811
 20
-67509.4143605
 30
0.0
 40
2.51802373
  0
CIRCLE
  5
6B5
100
AcDbEntity
  8
Ech.1_10
 62
     7
100
AcDbCircle
 10
68942.19677811
 20
-67539.4143605
 30
0.0
 40
2.51802373
  0
CIRCLE
  5
6B6
100
AcDbEntity
  8
Ech.1_10
 62
     7
100
AcDbCircle
 10
68942.19677811
 20
-67494.4143605
 30
0.0
 40
2.51802373
  0
ARC
  5
6B7
100
AcDbEntity
  8
Ech.1_10
 62
     7
100
AcDbCircle
 10
68950.93049881
 20
-67542.84903653
 30
0.0
 40
14.82598747
100
AcDbArc
 50
301.86484165
 51
338.20582892
  0
ARC
  5
6B8
100
AcDbEntity
  8
Ech.1_10
 62
     7
100
AcDbCircle
 10
68962.55517005
 20
-67555.20861849
 30
0.0
 40
3.80485997
100
AcDbArc
 50
183.49676661
 51
304.2539008
  0
ARC
  5
6B9
100
AcDbEntity
  8
Ech.1_10
 62
     7
100
AcDbCircle
 10
68952.38599731
 20
-67556.32382822
 30
0.0
 40
12.47697948
100
AcDbArc
 50
285.38781896
 51
350.63775604
  0
LINE
  5
6BA
100
AcDbEntity
  8
Ech.1_10
 62
     7
100
AcDbLine
 10
68964.69677811
 20
-67548.35353094
 30
0.0
 11
68960.69677811
 21
-67548.35353094
 31
0.0
  0
ARC
  5
6BB
100
AcDbEntity
  8
Ech.1_10
 62
     7
100
AcDbCircle
 10
68960.69677811
 20
-67543.35353094
 30
0.0
 40
5.0
100
AcDbArc
 50
180.0
 51
270.0
  0
LINE
  5
6BC
100
AcDbEntity
  8
Ech.1_10
 62
     7
100
AcDbLine
 10
68960.92688041
 20
-67547.67136085
 30
0.0
 11
68960.92688041
 21
-67545.67136085
 31
0.0
  0
LINE
  5
6BD
100
AcDbEntity
  8
Ech.1_10
 62
     7
100
AcDbLine
 10
68960.92688041
 20
-67547.67136085
 30
0.0
 11
68965.05729435
 21
-67547.67136085
 31
0.0
  0
LINE
  5
6BE
100
AcDbEntity
  8
Ech.1_10
 62
     7
100
AcDbLine
 10
68965.05729435
 20
-67547.67136085
 30
0.0
 11
68965.05729435
 21
-67568.35353094
 31
0.0
  0
LINE
  5
6BF
100
AcDbEntity
  8
Ech.1_10
 62
     7
100
AcDbLine
 10
68960.92688041
 20
-67545.67136085
 30
0.0
 11
68967.05729435
 21
-67545.67136085
 31
0.0
  0
LINE
  5
6C0
100
AcDbEntity
  8
Ech.1_10
 62
     7
100
AcDbLine
 10
68967.05729435
 20
-67545.67136085
 30
0.0
 11
68967.05729435
 21
-67570.35353094
 31
0.0
  0
CIRCLE
  5
6C1
100
AcDbEntity
  8
Ech.1_10
 62
     7
100
AcDbCircle
 10
68942.19677811
 20
-67464.4143605
 30
0.0
 40
2.51802373
  0
LINE
  5
6C2
100
AcDbEntity
  8
Ech.1_10
 62
     7
100
AcDbLine
 10
68928.69677811
 20
-67417.66730896
 30
0.0
 11
68928.69677811
 21
-67543.35353094
 31
0.0
  0
CIRCLE
  5
6C3
100
AcDbEntity
  8
Ech.1_10
 62
     7
100
AcDbCircle
 10
68942.19677811
 20
-67449.4143605
 30
0.0
 40
2.51802373
  0
LINE
  5
6C4
100
AcDbEntity
  8
Ech.1_10
 62
     7
100
AcDbLine
 10
68928.69677811
 20
-67417.66730896
 30
0.0
 11
68955.69677811
 21
-67417.66730896
 31
0.0
  0
CIRCLE
  5
6C5
100
AcDbEntity
  8
Ech.1_10
 62
     7
100
AcDbCircle
 10
68942.19677811
 20
-67434.4143605
 30
0.0
 40
2.51802373
  0
LINE
  5
6C6
100
AcDbEntity
  8
Ech.1_10
 62
     7
100
AcDbLine
 10
68965.05729435
 20
-67568.35353094
 30
0.0
 11
68919.33626186
 21
-67568.35353094
 31
0.0
  0
LINE
  5
6C7
100
AcDbEntity
  8
Ech.1_10
 62
     7
100
AcDbLine
 10
68917.33626186
 20
-67570.35353094
 30
0.0
 11
68967.05729435
 21
-67570.35353094
 31
0.0
  0
ARC
  5
6C8
100
AcDbEntity
  8
Ech.1_10
 62
     7
100
AcDbCircle
 10
68921.83838616
 20
-67555.20861849
 30
0.0
 40
3.80485997
100
AcDbArc
 50
235.7460992
 51
356.50323339
  0
LWPOLYLINE
  5
6C9
100
AcDbEntity
  8
Ech.1_10
370
    50
100
AcDbPolyline
 90
        3
 70
     0
 43
0.0
 10
68501.75669424
 20
-67547.03742265
 10
68501.75669424
 20
-67570.11593956
 10
68532.25722396
 20
-67570.11593956
  0
LWPOLYLINE
  5
6CA
100
AcDbEntity
  8
Ech.1_10
 62
     5
  6
CONTINUOUS
370
    -3
100
AcDbPolyline
 90
        5
 70
     0
 43
0.0
 10
68356.57005394
 20
-67510.35353094
 10
68356.57005394
 20
-67465.35353094
 10
68501.57005394
 20
-67465.35353094
 10
68501.57005394
 20
-67510.35353094
 10
68356.57005394
 20
-67510.35353094
  0
LWPOLYLINE
  5
6CB
100
AcDbEntity
  8
Ech.1_10
 62
     5
  6
CONTINUOUS
370
    -3
100
AcDbPolyline
 90
        5
 70
     0
 43
0.0
 10
68356.57005394
 20
-67226.35353094
 10
68356.57005394
 20
-67181.35353094
 10
68501.57005394
 20
-67181.35353094
 10
68501.57005394
 20
-67226.35353094
 10
68356.57005394
 20
-67226.35353094
  0
LWPOLYLINE
  5
6CC
100
AcDbEntity
  8
Ech.1_10
 62
     5
100
AcDbPolyline
 90
        5
 70
     0
 43
0.0
 10
68501.57005394
 20
-67216.35353094
 10
68541.57005394
 20
-67216.35353094
 10
68541.57005394
 20
-67171.35353094
 10
68501.57005394
 20
-67171.35353094
 10
68501.57005394
 20
-67216.35353094
  0
LWPOLYLINE
  5
6CD
100
AcDbEntity
  8
Ech.1_10
 62
     5
  6
CONTINUOUS
370
    -3
100
AcDbPolyline
 90
        5
 70
     0
 43
0.0
 10
68356.57005394
 20
-67555.35353094
 10
68356.57005394
 20
-67510.35353094
 10
68501.57005394
 20
-67510.35353094
 10
68501.57005394
 20
-67555.35353094
 10
68356.57005394
 20
-67555.35353094
  0
LWPOLYLINE
  5
6CE
100
AcDbEntity
  8
Ech.1_10
 62
     5
100
AcDbPolyline
 90
        5
 70
     0
 43
0.0
 10
68501.57005394
 20
-67649.35352899
 10
68541.57005394
 20
-67649.35352899
 10
68541.57005394
 20
-67604.35352899
 10
68501.57005394
 20
-67604.35352899
 10
68501.57005394
 20
-67649.35352899
  0
LWPOLYLINE
  5
6CF
100
AcDbEntity
  8
Ech.1_10
 62
     5
100
AcDbPolyline
 90
        5
 70
     0
 43
0.0
 10
68287.57005394
 20
-67510.35353094
 10
68347.57005394
 20
-67510.35353094
 10
68347.57005394
 20
-67465.35353094
 10
68287.57005394
 20
-67465.35353094
 10
68287.57005394
 20
-67510.35353094
  0
LWPOLYLINE
  5
6D0
100
AcDbEntity
  8
Ech.1_10
 62
     5
100
AcDbPolyline
 90
        5
 70
     0
 43
0.0
 10
68287.57005394
 20
-67226.35353094
 10
68347.57005394
 20
-67226.35353094
 10
68347.57005394
 20
-67181.35353094
 10
68287.57005394
 20
-67181.35353094
 10
68287.57005394
 20
-67226.35353094
  0
LINE
  5
6D1
100
AcDbEntity
  8
Ech.1_10
 62
   150
  6
CADWORK_22
370
    35
100
AcDbLine
 10
68286.07625273
 20
-67176.81753775
 30
0.0
 11
68286.09647877
 21
-67752.2447603
 31
0.0
  0
LWPOLYLINE
  5
6D2
100
AcDbEntity
  8
Ech.1_10
 62
   150
  6
CADWORK_22
370
    35
100
AcDbPolyline
 90
        4
 70
     0
 43
0.0
 10
68286.07005394
 20
-67000.46296824
 10
68286.07592128
 20
-67167.38768416
 10
68282.34878628
 20
-67174.86582698
 10
68282.34878628
 20
-67513.26468997
  0
LINE
  5
6D3
100
AcDbEntity
  8
Ech.1_10
 62
     1
  6
CADWORK_22
 48
-5.0
370
    35
100
AcDbLine
 10
68503.07005394
 20
-67752.17486139
 30
0.0
 11
68503.09647877
 21
-67479.36811557
 31
0.0
  0
LWPOLYLINE
  5
6D4
100
AcDbEntity
  8
Ech.1_10
 62
     5
  6
CONTINUOUS
370
    -3
100
AcDbPolyline
 90
        5
 70
     0
 43
0.0
 10
68356.57005394
 20
-67245.35353094
 10
68401.57005394
 20
-67245.35353094
 10
68401.57005394
 20
-67465.35353094
 10
68356.57005394
 20
-67465.35353094
 10
68356.57005394
 20
-67245.35353094
  0
LWPOLYLINE
  5
6D5
100
AcDbEntity
  8
Ech.1_10
 62
     9
100
AcDbPolyline
 90
       27
 70
     0
 43
0.0
 10
68249.44343682
 20
-67569.33883661
 10
68249.57005394
 20
-67569.00436282
 10
68249.57005394
 20
-67541.62089872
 10
68256.57005394
 20
-67541.62089872
 10
68256.57005394
 20
-67550.62089872
 10
68262.57005394
 20
-67550.62089872
 10
68262.57005394
 20
-67523.62089872
 10
68258.57005394
 20
-67519.62089872
 10
68262.57005394
 20
-67515.62089872
 10
68262.57005394
 20
-67451.62089872
 10
68258.57005394
 20
-67447.62089872
 10
68262.57005394
 20
-67443.62089872
 10
68262.57005394
 20
-67408.62089872
 10
68255.57005394
 20
-67408.62089872
 10
68255.57005394
 20
-67402.62089872
 10
68253.07005394
 20
-67397.62089872
 10
68250.57005394
 20
-67402.62089872
 10
68250.57005394
 20
-67433.54983091
 10
68250.1894516
 20
-67435.46324807
 10
68244.03452003
 20
-67442.15643263
 10
68242.57005394
 20
-67445.69196654
 10
68242.57005394
 20
-67564.77871095
 10
68243.53037633
 20
-67566.40857959
 10
68248.26649719
 20
-67569.37992952
 10
68248.67849856
 20
-67569.62089872
 10
68248.99231605
 20
-67569.62089872
 10
68249.44343682
 20
-67569.33883661
  0
LWPOLYLINE
  5
6D6
100
AcDbEntity
  8
Ech.1_10
 62
     9
100
AcDbPolyline
 90
       27
 70
     0
 43
0.0
 10
68249.44343682
 20
-67714.33883661
 10
68249.57005394
 20
-67714.00436282
 10
68249.57005394
 20
-67686.62089872
 10
68256.57005394
 20
-67686.62089872
 10
68256.57005394
 20
-67695.62089872
 10
68262.57005394
 20
-67695.62089872
 10
68262.57005394
 20
-67668.62089872
 10
68258.57005394
 20
-67664.62089872
 10
68262.57005394
 20
-67660.62089872
 10
68262.57005394
 20
-67596.62089872
 10
68258.57005394
 20
-67592.62089872
 10
68262.57005394
 20
-67588.62089872
 10
68262.57005394
 20
-67553.62089872
 10
68255.57005394
 20
-67553.62089872
 10
68255.57005394
 20
-67547.62089872
 10
68253.07005394
 20
-67542.62089872
 10
68250.57005394
 20
-67547.62089872
 10
68250.57005394
 20
-67578.54983091
 10
68250.1894516
 20
-67580.46324807
 10
68244.03452003
 20
-67587.15643263
 10
68242.57005394
 20
-67590.69196654
 10
68242.57005394
 20
-67709.77871095
 10
68243.53037633
 20
-67711.40857959
 10
68248.26649719
 20
-67714.37992952
 10
68248.67849856
 20
-67714.62089872
 10
68248.99231605
 20
-67714.62089872
 10
68249.44343682
 20
-67714.33883661
  0
LWPOLYLINE
  5
6D7
100
AcDbEntity
  8
Ech.1_10
 62
     1
  6
CADWORK_22
 48
-5.0
370
    35
100
AcDbPolyline
 90
        4
 70
     0
 43
0.0
 10
68501.57005394
 20
-67000.46320817
 10
68501.57005394
 20
-67096.82221644
 10
68508.15654455
 20
-67113.6098286
 10
68508.15654455
 20
-67160.74422347
  0
LWPOLYLINE
  5
6D8
100
AcDbEntity
  8
Ech.1_10
 62
     3
370
    70
100
AcDbPolyline
 90
        4
 70
     0
 43
0.0
 10
68505.63257637
 20
-67180.89646719
 10
68505.63257637
 20
-67167.90733377
 10
68511.31318933
 20
-67163.97260163
 10
68511.31318933
 20
-67150.49417163
  0
LWPOLYLINE
  5
6D9
100
AcDbEntity
  8
Ech.1_10
 62
     1
  6
CADWORK_22
 48
-5.0
370
    35
100
AcDbPolyline
 90
        6
 70
     0
 43
0.0
 10
68507.57239123
 20
-67526.50717056
 10
68507.57239123
 20
-67465.35353094
 10
68356.57005394
 20
-67465.35353094
 10
68356.57005394
 20
-67226.35353094
 10
68501.57005394
 20
-67226.35353094
 10
68501.57005394
 20
-67118.45194221
  0
CIRCLE
  5
6DA
100
AcDbEntity
  8
Ech.1_10
 62
     7
100
AcDbCircle
 10
68579.43057018
 20
-67524.4143605
 30
0.0
 40
2.51802373
  0
LINE
  5
6DB
100
AcDbEntity
  8
Ech.1_10
 62
     7
100
AcDbLine
 10
68592.93057018
 20
-67417.66730896
 30
0.0
 11
68592.93057018
 21
-67543.35353094
 31
0.0
  0
CIRCLE
  5
6DC
100
AcDbEntity
  8
Ech.1_10
 62
     7
100
AcDbCircle
 10
68579.43057018
 20
-67479.4143605
 30
0.0
 40
2.51802373
  0
ARC
  5
6DD
100
AcDbEntity
  8
Ech.1_10
 62
     7
100
AcDbCircle
 10
68560.93057018
 20
-67543.35353094
 30
0.0
 40
5.0
100
AcDbArc
 50
270.0
 51
6.6701066114182E-10
  0
LINE
  5
6DE
100
AcDbEntity
  8
Ech.1_10
 62
     7
100
AcDbLine
 10
68560.70046787
 20
-67547.67136085
 30
0.0
 11
68560.70046787
 21
-67545.67136085
 31
0.0
  0
LINE
  5
6DF
100
AcDbEntity
  8
Ech.1_10
 62
     7
100
AcDbLine
 10
68556.93057018
 20
-67548.35353094
 30
0.0
 11
68560.93057018
 21
-67548.35353094
 31
0.0
  0
ARC
  5
6E0
100
AcDbEntity
  8
Ech.1_10
 62
     7
100
AcDbCircle
 10
68570.69684948
 20
-67542.84903653
 30
0.0
 40
14.82598747
100
AcDbArc
 50
201.79417108
 51
238.13515835
  0
ARC
  5
6E1
100
AcDbEntity
  8
Ech.1_10
 62
     7
100
AcDbCircle
 10
68569.24135098
 20
-67556.32382822
 30
0.0
 40
12.47697948
100
AcDbArc
 50
189.36224396
 51
254.61218104
  0
LINE
  5
6E2
100
AcDbEntity
  8
Ech.1_10
 62
     7
100
AcDbLine
 10
68560.70046787
 20
-67547.67136085
 30
0.0
 11
68556.57005394
 21
-67547.67136085
 31
0.0
  0
LINE
  5
6E3
100
AcDbEntity
  8
Ech.1_10
 62
     7
100
AcDbLine
 10
68556.57005394
 20
-67547.67136085
 30
0.0
 11
68556.57005394
 21
-67568.35353094
 31
0.0
  0
LINE
  5
6E4
100
AcDbEntity
  8
Ech.1_10
 62
     7
100
AcDbLine
 10
68560.70046787
 20
-67545.67136085
 30
0.0
 11
68554.57005394
 21
-67545.67136085
 31
0.0
  0
LINE
  5
6E5
100
AcDbEntity
  8
Ech.1_10
 62
     7
100
AcDbLine
 10
68554.57005394
 20
-67545.67136085
 30
0.0
 11
68554.57005394
 21
-67570.35353094
 31
0.0
  0
CIRCLE
  5
6E6
100
AcDbEntity
  8
Ech.1_10
 62
     7
100
AcDbCircle
 10
68579.43057018
 20
-67509.4143605
 30
0.0
 40
2.51802373
  0
CIRCLE
  5
6E7
100
AcDbEntity
  8
Ech.1_10
 62
     7
100
AcDbCircle
 10
68579.43057018
 20
-67539.4143605
 30
0.0
 40
2.51802373
  0
CIRCLE
  5
6E8
100
AcDbEntity
  8
Ech.1_10
 62
     7
100
AcDbCircle
 10
68579.43057018
 20
-67494.4143605
 30
0.0
 40
2.51802373
  0
ARC
  5
6E9
100
AcDbEntity
  8
Ech.1_10
 62
     7
100
AcDbCircle
 10
68588.16429088
 20
-67542.84903653
 30
0.0
 40
14.82598747
100
AcDbArc
 50
301.86484165
 51
338.20582892
  0
ARC
  5
6EA
100
AcDbEntity
  8
Ech.1_10
 62
     7
100
AcDbCircle
 10
68599.78896213
 20
-67555.20861849
 30
0.0
 40
3.80485997
100
AcDbArc
 50
183.49676661
 51
304.2539008
  0
ARC
  5
6EB
100
AcDbEntity
  8
Ech.1_10
 62
     7
100
AcDbCircle
 10
68589.61978938
 20
-67556.32382822
 30
0.0
 40
12.47697948
100
AcDbArc
 50
285.38781896
 51
350.63775604
  0
LINE
  5
6EC
100
AcDbEntity
  8
Ech.1_10
 62
     7
100
AcDbLine
 10
68601.93057018
 20
-67548.35353094
 30
0.0
 11
68597.93057018
 21
-67548.35353094
 31
0.0
  0
ARC
  5
6ED
100
AcDbEntity
  8
Ech.1_10
 62
     7
100
AcDbCircle
 10
68597.93057018
 20
-67543.35353094
 30
0.0
 40
5.0
100
AcDbArc
 50
180.0
 51
270.0
  0
LINE
  5
6EE
100
AcDbEntity
  8
Ech.1_10
 62
     7
100
AcDbLine
 10
68598.16067249
 20
-67547.67136085
 30
0.0
 11
68598.16067249
 21
-67545.67136085
 31
0.0
  0
LINE
  5
6EF
100
AcDbEntity
  8
Ech.1_10
 62
     7
100
AcDbLine
 10
68598.16067249
 20
-67547.67136085
 30
0.0
 11
68602.29108643
 21
-67547.67136085
 31
0.0
  0
LINE
  5
6F0
100
AcDbEntity
  8
Ech.1_10
 62
     7
100
AcDbLine
 10
68602.29108643
 20
-67547.67136085
 30
0.0
 11
68602.29108643
 21
-67568.35353094
 31
0.0
  0
LINE
  5
6F1
100
AcDbEntity
  8
Ech.1_10
 62
     7
100
AcDbLine
 10
68598.16067249
 20
-67545.67136085
 30
0.0
 11
68604.29108643
 21
-67545.67136085
 31
0.0
  0
LINE
  5
6F2
100
AcDbEntity
  8
Ech.1_10
 62
     7
100
AcDbLine
 10
68604.29108643
 20
-67545.67136085
 30
0.0
 11
68604.29108643
 21
-67570.35353094
 31
0.0
  0
CIRCLE
  5
6F3
100
AcDbEntity
  8
Ech.1_10
 62
     7
100
AcDbCircle
 10
68579.43057018
 20
-67464.4143605
 30
0.0
 40
2.51802373
  0
LINE
  5
6F4
100
AcDbEntity
  8
Ech.1_10
 62
     7
100
AcDbLine
 10
68565.93057018
 20
-67417.66730896
 30
0.0
 11
68565.93057018
 21
-67543.35353094
 31
0.0
  0
CIRCLE
  5
6F5
100
AcDbEntity
  8
Ech.1_10
 62
     7
100
AcDbCircle
 10
68579.43057018
 20
-67449.4143605
 30
0.0
 40
2.51802373
  0
LINE
  5
6F6
100
AcDbEntity
  8
Ech.1_10
 62
     7
100
AcDbLine
 10
68565.93057018
 20
-67417.66730896
 30
0.0
 11
68592.93057018
 21
-67417.66730896
 31
0.0
  0
CIRCLE
  5
6F7
100
AcDbEntity
  8
Ech.1_10
 62
     7
100
AcDbCircle
 10
68579.43057018
 20
-67434.4143605
 30
0.0
 40
2.51802373
  0
LINE
  5
6F8
100
AcDbEntity
  8
Ech.1_10
 62
     7
100
AcDbLine
 10
68602.29108643
 20
-67568.35353094
 30
0.0
 11
68556.57005394
 21
-67568.35353094
 31
0.0
  0
LINE
  5
6F9
100
AcDbEntity
  8
Ech.1_10
 62
     7
100
AcDbLine
 10
68554.57005394
 20
-67570.35353094
 30
0.0
 11
68604.29108643
 21
-67570.35353094
 31
0.0
  0
ARC
  5
6FA
100
AcDbEntity
  8
Ech.1_10
 62
     7
100
AcDbCircle
 10
68559.07217824
 20
-67555.20861849
 30
0.0
 40
3.80485997
100
AcDbArc
 50
235.7460992
 51
356.50323339
  0
LWPOLYLINE
  5
6FB
100
AcDbEntity
  8
Ech.1_10
 62
   190
  6
CONTINUOUS
370
    -3
100
AcDbPolyline
 90
        6
 70
     0
 43
0.0
 10
68574.57005394
 20
-67752.17387062
 10
68454.50444513
 20
-67752.17550017
 10
68438.01894198
 20
-67770.15284858
 10
68452.12888199
 20
-67734.19714857
 10
68435.64252791
 20
-67752.17550017
 10
68222.57005394
 20
-67752.17471443
  0
LWPOLYLINE
  5
6FC
100
AcDbEntity
  8
Ech.1_10
 62
   190
  6
CONTINUOUS
370
    -3
100
AcDbPolyline
 90
        6
 70
     0
 43
0.0
 10
68222.57005394
 20
-67000.4638617
 10
68384.00355743
 20
-67000.46238588
 10
68400.48906059
 20
-66982.48503747
 10
68386.37912057
 20
-67018.44073748
 10
68402.86547465
 20
-67000.46238588
 10
68574.57005394
 20
-67000.46320817
  0
LWPOLYLINE
  5
6FD
100
AcDbEntity
  8
Ech.1_10
 62
   190
  6
CONTINUOUS
370
    -3
100
AcDbPolyline
 90
        4
 70
     1
 43
0.0
 10
69049.44247203
 20
-67226.35353094
 10
69049.44247203
 20
-67245.35353094
 10
69542.08174596
 20
-67245.35353094
 10
69542.08174596
 20
-67226.35353094
  0
LWPOLYLINE
  5
6FE
100
AcDbEntity
  8
Ech.1_10
 62
   190
  6
CONTINUOUS
370
    -3
100
AcDbPolyline
 90
        4
 70
     1
 43
0.0
 10
69049.44247203
 20
-67570.35344427
 10
69049.44247203
 20
-67583.35344427
 10
69542.08174596
 20
-67583.35344427
 10
69542.08174596
 20
-67570.35344427
  0
LWPOLYLINE
  5
6FF
100
AcDbEntity
  8
Ech.1_10
 62
     7
  6
CONTINUOUS
370
    -3
100
AcDbPolyline
 90
        4
 70
     1
 43
0.0
 10
69049.44247203
 20
-67245.35353094
 10
69049.44247203
 20
-67465.35353094
 10
69453.08174596
 20
-67465.35353094
 10
69453.08174596
 20
-67245.35353094
  0
LWPOLYLINE
  5
700
100
AcDbEntity
  8
Ech.1_10
 62
   190
  6
CONTINUOUS
370
    -3
100
AcDbPolyline
 90
        4
 70
     1
 43
0.0
 10
69049.44247203
 20
-67470.35360677
 10
69049.44247203
 20
-67570.35360677
 10
69542.08174596
 20
-67570.35360677
 10
69542.08174596
 20
-67470.35360677
  0
LWPOLYLINE
  5
701
100
AcDbEntity
  8
Ech.1_10
 62
   190
  6
CONTINUOUS
370
    -3
100
AcDbPolyline
 90
        4
 70
     1
 43
0.0
 10
69498.08174596
 20
-67245.35353094
 10
69543.08174596
 20
-67245.35353094
 10
69543.08174596
 20
-67465.35353094
 10
69498.08174596
 20
-67465.35353094
  0
LWPOLYLINE
  5
702
100
AcDbEntity
  8
Ech.1_10
 62
   190
  6
CONTINUOUS
370
    -3
100
AcDbPolyline
 90
        4
 70
     1
 43
0.0
 10
69543.08174596
 20
-67465.35353094
 10
69498.08174596
 20
-67465.35353094
 10
69498.08174596
 20
-67245.35353094
 10
69543.08174596
 20
-67245.35353094
  0
LWPOLYLINE
  5
703
100
AcDbEntity
  8
Ech.1_10
100
AcDbPolyline
 90
        4
 70
     0
 43
0.0
 10
69049.44148599
 20
-67570.35360677
 10
69542.08174596
 20
-67570.35360677
 10
69542.08174596
 20
-67545.67143668
 10
69049.44148599
 20
-67545.67143668
  0
LWPOLYLINE
  5
704
100
AcDbEntity
  8
Ech.1_10
370
    50
100
AcDbPolyline
 90
        3
 70
     0
 43
0.0
 10
69542.08174596
 20
-67547.03749849
 10
69542.08174596
 20
-67570.11601539
 10
69514.85590116
 20
-67570.11601539
  0
LWPOLYLINE
  5
705
100
AcDbEntity
  8
Ech.1_10
 62
     5
  6
CONTINUOUS
370
    -3
100
AcDbPolyline
 90
        5
 70
     0
 43
0.0
 10
69543.08174596
 20
-67245.35353094
 10
69498.08174596
 20
-67245.35353094
 10
69498.08174596
 20
-67465.35353094
 10
69543.08174596
 20
-67465.35353094
 10
69543.08174596
 20
-67245.35353094
  0
LWPOLYLINE
  5
706
100
AcDbEntity
  8
Ech.1_10
 62
   190
  6
CONTINUOUS
370
    -3
100
AcDbPolyline
 90
        4
 70
     1
 43
0.0
 10
69453.08174596
 20
-67245.35353094
 10
69498.08174596
 20
-67245.35353094
 10
69498.08174596
 20
-67465.35353094
 10
69453.08174596
 20
-67465.35353094
  0
LWPOLYLINE
  5
707
100
AcDbEntity
  8
Ech.1_10
 62
   190
  6
CONTINUOUS
370
    -3
100
AcDbPolyline
 90
        4
 70
     1
 43
0.0
 10
69498.08174596
 20
-67465.35353094
 10
69453.08174596
 20
-67465.35353094
 10
69453.08174596
 20
-67245.35353094
 10
69498.08174596
 20
-67245.35353094
  0
LWPOLYLINE
  5
708
100
AcDbEntity
  8
Ech.1_10
 62
     5
  6
CONTINUOUS
370
    -3
100
AcDbPolyline
 90
        5
 70
     0
 43
0.0
 10
69498.08174596
 20
-67245.35353094
 10
69453.08174596
 20
-67245.35353094
 10
69453.08174596
 20
-67465.35353094
 10
69498.08174596
 20
-67465.35353094
 10
69498.08174596
 20
-67245.35353094
  0
LWPOLYLINE
  5
709
102
{ACAD_REACTORS
330
70A
102
}
100
AcDbEntity
  8
Ech.1_10
 62
     7
  6
CONTINUOUS
370
    -3
100
AcDbPolyline
 90
        4
 70
     1
 43
0.0
 10
69049.44247203
 20
-67226.35353094
 10
69049.44247203
 20
-67245.35353094
 10
69542.08174596
 20
-67245.35353094
 10
69542.08174596
 20
-67226.35353094
  0
HATCH
  5
70A
100
AcDbEntity
  8
Ech.1_10
 62
   190
  6
CONTINUOUS
100
AcDbHatch
 10
0.0
 20
0.0
 30
0.0
210
0.0
220
0.0
230
1.0
  2
ANSI38
 70
     0
 71
     1
 91
        1
 92
        7
 72
     0
 73
     1
 93
        4
 10
69049.44247203
 20
-67226.35353094
 10
69049.44247203
 20
-67245.35353094
 10
69542.08174596
 20
-67245.35353094
 10
69542.08174596
 20
-67226.35353094
 97
        1
330
709
 75
     0
 76
     2
 52
0.0
 41
1.0
 77
     0
 78
     2
 53
45.0
 43
0.0
 44
0.0
 45
-8.48528171
 46
8.48528171
 79
     2
 49
960.00003815
 49
0.0
 53
135.0
 43
0.0
 44
0.0
 45
-25.45584513
 46
8.48528171
 79
     2
 49
30.00000119
 49
-18.00000072
 47
0.775229
 98
        1
 10
0.0
 20
0.0
  0
LWPOLYLINE
  5
70B
102
{ACAD_REACTORS
330
70C
102
}
100
AcDbEntity
  8
Ech.1_10
 62
     7
  6
CONTINUOUS
370
    -3
100
AcDbPolyline
 90
        4
 70
     1
 43
0.0
 10
69049.44213952
 20
-67570.35352011
 10
69049.44247203
 20
-67583.35353113
 10
69542.08174596
 20
-67583.35360677
 10
69542.08174596
 20
-67570.35360677
  0
HATCH
  5
70C
100
AcDbEntity
  8
Ech.1_10
 62
   190
  6
CONTINUOUS
100
AcDbHatch
 10
0.0
 20
0.0
 30
0.0
210
0.0
220
0.0
230
1.0
  2
DOTS2
 70
     0
 71
     1
 91
        1
 92
        7
 72
     0
 73
     1
 93
        4
 10
69049.44213952
 20
-67570.35352011
 10
69049.44247203
 20
-67583.35353113
 10
69542.08174596
 20
-67583.35360677
 10
69542.08174596
 20
-67570.35360677
 97
        1
330
70B
 75
     0
 76
     2
 52
0.0
 41
4.72440952
 77
     0
 78
     1
 53
0.0
 43
0.0
 44
0.0
 45
3.75
 46
3.535
 79
     2
 49
0.0
 49
-3.535
 47
0.775229
 98
        1
 10
0.0
 20
0.0
  0
LWPOLYLINE
  5
70D
100
AcDbEntity
  8
Ech.1_10
 62
   190
  6
CONTINUOUS
370
    -3
100
AcDbPolyline
 90
        6
 70
     0
 43
0.0
 10
69049.44312625
 20
-67679.08976443
 10
69049.44164996
 20
-67354.18830365
 10
69031.46430164
 20
-67337.70280049
 10
69067.42000156
 20
-67351.81274051
 10
69049.44164996
 20
-67335.32638643
 10
69049.44247203
 20
-67159.14702854
  0
LWPOLYLINE
  5
70E
100
AcDbEntity
  8
Ech.1_10
 62
   190
  6
CONTINUOUS
370
    -3
100
AcDbPolyline
 90
       58
 70
     0
 43
0.0
 10
69543.08174596
 20
-67487.02027344
 42
1.14028181
 10
69510.31631813
 20
-67491.33393391
 10
69525.8471738
 20
-67549.37327964
 42
-1.30322619
 10
69493.64965146
 20
-67549.37327964
 10
69509.18050713
 20
-67491.33393391
 42
1.30322619
 10
69476.98298479
 20
-67491.33393391
 10
69492.51384047
 20
-67549.37327964
 42
-1.30322619
 10
69460.31631813
 20
-67549.37327964
 10
69475.8471738
 20
-67491.33393391
 42
1.30322619
 10
69443.64965146
 20
-67491.33393391
 10
69459.18050713
 20
-67549.37327964
 42
-1.30322619
 10
69426.98298479
 20
-67549.37327964
 10
69442.51384047
 20
-67491.33393391
 42
1.30322619
 10
69410.31631813
 20
-67491.33393391
 10
69425.8471738
 20
-67549.37327964
 42
-1.30322619
 10
69393.64965146
 20
-67549.37327964
 10
69409.18050713
 20
-67491.33393391
 42
1.30322619
 10
69376.98298479
 20
-67491.33393391
 10
69392.51384047
 20
-67549.37327964
 42
-1.30322619
 10
69360.31631813
 20
-67549.37327964
 10
69375.8471738
 20
-67491.33393391
 42
1.30322619
 10
69343.64965146
 20
-67491.33393391
 10
69359.18050713
 20
-67549.37327964
 42
-1.30322619
 10
69326.98298479
 20
-67549.37327964
 10
69342.51384047
 20
-67491.33393391
 42
1.30322619
 10
69310.31631813
 20
-67491.33393391
 10
69325.8471738
 20
-67549.37327964
 42
-1.30322619
 10
69293.64965146
 20
-67549.37327964
 10
69309.18050713
 20
-67491.33393391
 42
1.30322619
 10
69276.98298479
 20
-67491.33393391
 10
69292.51384047
 20
-67549.37327964
 42
-1.30322619
 10
69260.31631813
 20
-67549.37327964
 10
69275.8471738
 20
-67491.33393391
 42
1.30322619
 10
69243.64965146
 20
-67491.33393391
 10
69259.18050713
 20
-67549.37327964
 42
-1.30322619
 10
69226.98298479
 20
-67549.37327964
 10
69242.51384047
 20
-67491.33393391
 42
1.30322619
 10
69210.31631813
 20
-67491.33393391
 10
69225.8471738
 20
-67549.37327964
 42
-1.30322619
 10
69193.64965146
 20
-67549.37327964
 10
69209.18050713
 20
-67491.33393391
 42
1.30322619
 10
69176.98298479
 20
-67491.33393391
 10
69192.51384047
 20
-67549.37327964
 42
-1.30322619
 10
69160.31631813
 20
-67549.37327964
 10
69175.8471738
 20
-67491.33393391
 42
1.30322619
 10
69143.64965146
 20
-67491.33393391
 10
69159.18050713
 20
-67549.37327964
 42
-1.30322619
 10
69126.98298479
 20
-67549.37327964
 10
69142.51384047
 20
-67491.33393391
 42
1.30322619
 10
69110.31631813
 20
-67491.33393391
 10
69125.8471738
 20
-67549.37327964
 42
-1.30322619
 10
69093.64965146
 20
-67549.37327964
 10
69109.18050713
 20
-67491.33393391
 42
1.30322619
 10
69076.98298479
 20
-67491.33393391
 10
69092.51384047
 20
-67549.37327964
 42
-1.30322619
 10
69060.31631813
 20
-67549.37327964
 10
69075.8471738
 20
-67491.33393391
 42
0.72119785
 10
69049.44247203
 20
-67473.92197713
  0
LWPOLYLINE
  5
70F
102
{ACAD_REACTORS
330
710
102
}
100
AcDbEntity
  8
Ech.1_10
 62
   190
  6
CONTINUOUS
370
    -3
100
AcDbPolyline
 90
        4
 70
     1
 43
0.0
 10
69542.08175768
 20
-67226.35353094
 10
69542.08174596
 20
-67212.35353094
 10
69049.44176
 20
-67212.35353094
 10
69049.44176
 20
-67226.35353094
  0
HATCH
  5
710
100
AcDbEntity
  8
Ech.1_10
 62
   190
  6
CONTINUOUS
100
AcDbHatch
 10
0.0
 20
0.0
 30
0.0
210
0.0
220
0.0
230
1.0
  2
ANSI31
 70
     0
 71
     1
 91
        1
 92
        7
 72
     0
 73
     1
 93
        4
 10
69542.08175768
 20
-67226.35353094
 10
69542.08174596
 20
-67212.35353094
 10
69049.44176
 20
-67212.35353094
 10
69049.44176
 20
-67226.35353094
 97
        1
330
70F
 75
     0
 76
     2
 52
90.0
 41
6.2992521
 77
     0
 78
     1
 53
-45.0
 43
0.0
 44
0.0
 45
14.14213562
 46
14.14213562
 79
     0
 47
0.775229
 98
        1
 10
0.0
 20
0.0
  0
LWPOLYLINE
  5
711
102
{ACAD_REACTORS
330
712
102
}
100
AcDbEntity
  8
Ech.1_10
 62
   190
  6
CONTINUOUS
370
    -3
100
AcDbPolyline
 90
        4
 70
     1
 43
0.0
 10
70234.72174364
 20
-67226.35353094
 10
70234.72173193
 20
-67212.35353094
 10
69742.08174596
 20
-67212.35353094
 10
69742.08174596
 20
-67226.35353094
  0
HATCH
  5
712
100
AcDbEntity
  8
Ech.1_10
 62
   190
  6
CONTINUOUS
100
AcDbHatch
 10
0.0
 20
0.0
 30
0.0
210
0.0
220
0.0
230
1.0
  2
ANSI31
 70
     0
 71
     1
 91
        1
 92
        7
 72
     0
 73
     1
 93
        4
 10
70234.72174364
 20
-67226.35353094
 10
70234.72173193
 20
-67212.35353094
 10
69742.08174596
 20
-67212.35353094
 10
69742.08174596
 20
-67226.35353094
 97
        1
330
711
 75
     0
 76
     2
 52
90.0
 41
6.2992521
 77
     0
 78
     1
 53
-45.0
 43
0.0
 44
0.0
 45
14.14213562
 46
14.14213562
 79
     0
 47
0.775229
 98
        1
 10
0.0
 20
0.0
  0
LWPOLYLINE
  5
713
100
AcDbEntity
  8
Ech.1_10
 62
   190
  6
CONTINUOUS
370
    -3
100
AcDbPolyline
 90
       60
 70
     0
 43
0.0
 10
68501.57005394
 20
-67553.68686427
 42
1.14028181
 10
68534.33548177
 20
-67549.37320381
 10
68518.8046261
 20
-67491.33385807
 42
-1.30322619
 10
68551.00214844
 20
-67491.33385807
 10
68535.47129277
 20
-67549.37320381
 42
1.30322619
 10
68567.66881511
 20
-67549.37320381
 10
68552.13795943
 20
-67491.33385807
 42
-1.30322619
 10
68584.33548177
 20
-67491.33385807
 10
68568.8046261
 20
-67549.37320381
 42
1.30322619
 10
68601.00214844
 20
-67549.37320381
 10
68585.47129277
 20
-67491.33385807
 42
-1.30322619
 10
68617.66881511
 20
-67491.33385807
 10
68602.13795943
 20
-67549.37320381
 42
1.30322619
 10
68634.33548177
 20
-67549.37320381
 10
68618.8046261
 20
-67491.33385807
 42
-1.30322619
 10
68651.00214844
 20
-67491.33385807
 10
68635.47129277
 20
-67549.37320381
 42
1.30322619
 10
68667.66881511
 20
-67549.37320381
 10
68652.13795943
 20
-67491.33385807
 42
-1.30322619
 10
68684.33548177
 20
-67491.33385807
 10
68668.8046261
 20
-67549.37320381
 42
1.30322619
 10
68701.00214844
 20
-67549.37320381
 10
68685.47129277
 20
-67491.33385807
 42
-1.30322619
 10
68717.66881511
 20
-67491.33385807
 10
68702.13795943
 20
-67549.37320381
 42
1.30322619
 10
68734.33548177
 20
-67549.37320381
 10
68718.8046261
 20
-67491.33385807
 42
-1.30322619
 10
68751.00214844
 20
-67491.33385807
 10
68735.47129277
 20
-67549.37320381
 42
1.30322619
 10
68767.66881511
 20
-67549.37320381
 10
68752.13795943
 20
-67491.33385807
 42
-1.30322619
 10
68784.33548177
 20
-67491.33385807
 10
68768.8046261
 20
-67549.37320381
 42
1.30322619
 10
68801.00214844
 20
-67549.37320381
 10
68785.47129277
 20
-67491.33385807
 42
-1.30322619
 10
68817.66881511
 20
-67491.33385807
 10
68802.13795943
 20
-67549.37320381
 42
1.30322619
 10
68834.33548177
 20
-67549.37320381
 10
68818.8046261
 20
-67491.33385807
 42
-1.30322619
 10
68851.00214844
 20
-67491.33385807
 10
68835.47129277
 20
-67549.37320381
 42
1.30322619
 10
68867.66881511
 20
-67549.37320381
 10
68852.13795943
 20
-67491.33385807
 42
-1.30322619
 10
68884.33548177
 20
-67491.33385807
 10
68868.8046261
 20
-67549.37320381
 42
1.30322619
 10
68901.00214844
 20
-67549.37320381
 10
68885.47129277
 20
-67491.33385807
 42
-1.30322619
 10
68917.66881511
 20
-67491.33385807
 10
68902.13795943
 20
-67549.37320381
 42
1.30322619
 10
68934.33548177
 20
-67549.37320381
 10
68918.8046261
 20
-67491.33385807
 42
-1.30322619
 10
68951.00214844
 20
-67491.33385807
 10
68935.47129277
 20
-67549.37320381
 42
1.30322619
 10
68967.66881511
 20
-67549.37320381
 10
68952.13795943
 20
-67491.33385807
 42
-1.30322619
 10
68984.33548177
 20
-67491.33385807
 10
68968.8046261
 20
-67549.37320381
 42
1.30322619
 10
69001.00214844
 20
-67549.37320381
 10
68985.47129277
 20
-67491.33385807
 42
-0.75732597
 10
69013.05324659
 20
-67474.9407082
  0
CIRCLE
  5
714
100
AcDbEntity
  8
Ech.1_10
 62
     7
  6
CONTINUOUS
370
    -3
100
AcDbCircle
 10
69394.83510832
 20
-67524.41446528
 30
0.0
 40
2.51802373
  0
LINE
  5
715
100
AcDbEntity
  8
Ech.1_10
 62
     7
  6
CONTINUOUS
370
    -3
100
AcDbLine
 10
69381.33500645
 20
-67417.6673848
 30
0.0
 11
69381.33513037
 21
-67543.35365144
 31
0.0
  0
CIRCLE
  5
716
100
AcDbEntity
  8
Ech.1_10
 62
     7
  6
CONTINUOUS
370
    -3
100
AcDbCircle
 10
69394.83505592
 20
-67479.41446528
 30
0.0
 40
2.51802373
  0
ARC
  5
717
100
AcDbEntity
  8
Ech.1_10
 62
     7
  6
CONTINUOUS
370
    -3
100
AcDbCircle
 10
69413.33513037
 20
-67543.35361418
 30
0.0
 40
5.0
100
AcDbArc
 50
180.00006671
 51
270.00006671
  0
LINE
  5
718
100
AcDbEntity
  8
Ech.1_10
 62
     7
  6
CONTINUOUS
370
    -3
100
AcDbLine
 10
69413.56524907
 20
-67557.43391028
 30
0.0
 11
69413.56524674
 21
-67555.43391028
 31
0.0
  0
LINE
  5
719
100
AcDbEntity
  8
Ech.1_10
 62
     7
  6
CONTINUOUS
370
    -3
100
AcDbLine
 10
69417.33513619
 20
-67548.35360952
 30
0.0
 11
69413.33513619
 21
-67548.35361418
 31
0.0
  0
ARC
  5
71A
100
AcDbEntity
  8
Ech.1_10
 62
     7
  6
CONTINUOUS
370
    -3
100
AcDbCircle
 10
69403.56885048
 20
-67542.84913115
 30
0.0
 40
14.82598747
100
AcDbArc
 50
301.86490836
 51
338.20589563
  0
ARC
  5
71B
100
AcDbEntity
  8
Ech.1_10
 62
     7
  6
CONTINUOUS
370
    -3
100
AcDbCircle
 10
69405.02436467
 20
-67556.32392114
 30
0.0
 40
12.47697948
100
AcDbArc
 50
285.38788568
 51
350.63782276
  0
LINE
  5
71C
100
AcDbEntity
  8
Ech.1_10
 62
     7
  6
CONTINUOUS
370
    -3
100
AcDbLine
 10
69413.56524907
 20
-67557.43391028
 30
0.0
 11
69417.69566301
 21
-67557.43390547
 31
0.0
  0
LINE
  5
71D
100
AcDbEntity
  8
Ech.1_10
 62
     7
  6
CONTINUOUS
370
    -3
100
AcDbLine
 10
69417.69566301
 20
-67557.43390547
 30
0.0
 11
69417.69567572
 21
-67568.3536091
 31
0.0
  0
LINE
  5
71E
100
AcDbEntity
  8
Ech.1_10
 62
     7
  6
CONTINUOUS
370
    -3
100
AcDbLine
 10
69413.56524674
 20
-67555.43391028
 30
0.0
 11
69419.69566068
 21
-67555.43390314
 31
0.0
  0
LINE
  5
71F
100
AcDbEntity
  8
Ech.1_10
 62
     7
  6
CONTINUOUS
370
    -3
100
AcDbLine
 10
69419.69566068
 20
-67555.43390314
 30
0.0
 11
69419.69567805
 21
-67570.35360677
 31
0.0
  0
CIRCLE
  5
720
100
AcDbEntity
  8
Ech.1_10
 62
     7
  6
CONTINUOUS
370
    -3
100
AcDbCircle
 10
69394.83509085
 20
-67509.41446528
 30
0.0
 40
2.51802373
  0
CIRCLE
  5
721
100
AcDbEntity
  8
Ech.1_10
 62
     7
  6
CONTINUOUS
370
    -3
100
AcDbCircle
 10
69394.83512578
 20
-67539.41446528
 30
0.0
 40
2.51802373
  0
CIRCLE
  5
722
100
AcDbEntity
  8
Ech.1_10
 62
     7
  6
CONTINUOUS
370
    -3
100
AcDbCircle
 10
69394.83507338
 20
-67494.41446528
 30
0.0
 40
2.51802373
  0
ARC
  5
723
100
AcDbEntity
  8
Ech.1_10
 62
     7
  6
CONTINUOUS
370
    -3
100
AcDbCircle
 10
69386.10140908
 20
-67542.84915148
 30
0.0
 40
14.82598747
100
AcDbArc
 50
201.79423779
 51
238.13522507
  0
ARC
  5
724
100
AcDbEntity
  8
Ech.1_10
 62
     7
  6
CONTINUOUS
370
    -3
100
AcDbCircle
 10
69374.47675223
 20
-67555.20874698
 30
0.0
 40
3.80485997
100
AcDbArc
 50
235.74616591
 51
356.50330011
  0
ARC
  5
725
100
AcDbEntity
  8
Ech.1_10
 62
     7
  6
CONTINUOUS
370
    -3
100
AcDbCircle
 10
69528.64592627
 20
-67556.32394487
 30
0.0
 40
12.47697948
100
AcDbArc
 50
189.36231067
 51
254.61224775
  0
LINE
  5
726
100
AcDbEntity
  8
Ech.1_10
 62
     7
  6
CONTINUOUS
370
    -3
100
AcDbLine
 10
69372.33513619
 20
-67548.35366192
 30
0.0
 11
69376.33513619
 21
-67548.35365726
 31
0.0
  0
ARC
  5
727
100
AcDbEntity
  8
Ech.1_10
 62
     7
  6
CONTINUOUS
370
    -3
100
AcDbCircle
 10
69376.33513037
 20
-67543.35365726
 30
0.0
 40
5.0
100
AcDbArc
 50
270.00006672
 51
6.6713405809442E-05
  0
LINE
  5
728
100
AcDbEntity
  8
Ech.1_10
 62
     7
  6
CONTINUOUS
370
    -3
100
AcDbLine
 10
69376.10504446
 20
-67557.4339539
 30
0.0
 11
69376.10504213
 21
-67555.4339539
 31
0.0
  0
LINE
  5
729
100
AcDbEntity
  8
Ech.1_10
 62
     7
  6
CONTINUOUS
370
    -3
100
AcDbLine
 10
69376.10504446
 20
-67557.4339539
 30
0.0
 11
69371.97463052
 21
-67557.43395871
 31
0.0
  0
LINE
  5
72A
100
AcDbEntity
  8
Ech.1_10
 62
     7
  6
CONTINUOUS
370
    -3
100
AcDbLine
 10
69371.97463052
 20
-67557.43395871
 30
0.0
 11
69371.97464323
 21
-67568.35366234
 31
0.0
  0
LINE
  5
72B
100
AcDbEntity
  8
Ech.1_10
 62
     7
  6
CONTINUOUS
370
    -3
100
AcDbLine
 10
69376.10504213
 20
-67555.4339539
 30
0.0
 11
69369.97462819
 21
-67555.43396104
 31
0.0
  0
LINE
  5
72C
100
AcDbEntity
  8
Ech.1_10
 62
     7
  6
CONTINUOUS
370
    -3
100
AcDbLine
 10
69369.97462819
 20
-67555.43396104
 30
0.0
 11
69369.97464556
 21
-67570.35366467
 31
0.0
  0
CIRCLE
  5
72D
100
AcDbEntity
  8
Ech.1_10
 62
     7
  6
CONTINUOUS
370
    -3
100
AcDbCircle
 10
69394.83503845
 20
-67464.41446528
 30
0.0
 40
2.51802373
  0
LINE
  5
72E
100
AcDbEntity
  8
Ech.1_10
 62
     7
  6
CONTINUOUS
370
    -3
100
AcDbLine
 10
69408.33500645
 20
-67417.66735336
 30
0.0
 11
69408.33513037
 21
-67543.35362
 31
0.0
  0
CIRCLE
  5
72F
100
AcDbEntity
  8
Ech.1_10
 62
     7
  6
CONTINUOUS
370
    -3
100
AcDbCircle
 10
69394.83502099
 20
-67449.41446528
 30
0.0
 40
2.51802373
  0
LINE
  5
730
100
AcDbEntity
  8
Ech.1_10
 62
     7
  6
CONTINUOUS
370
    -3
100
AcDbLine
 10
69408.33500645
 20
-67417.66735336
 30
0.0
 11
69381.33500645
 21
-67417.6673848
 31
0.0
  0
LINE
  5
731
100
AcDbEntity
  8
Ech.1_10
 62
     7
  6
CONTINUOUS
370
    -3
100
AcDbLine
 10
69371.97464323
 20
-67568.35366234
 30
0.0
 11
69417.69567572
 21
-67568.3536091
 31
0.0
  0
LINE
  5
732
100
AcDbEntity
  8
Ech.1_10
 62
     7
  6
CONTINUOUS
370
    -3
100
AcDbLine
 10
69419.69567805
 20
-67570.35360677
 30
0.0
 11
69369.97464556
 21
-67570.35366467
 31
0.0
  0
ARC
  5
733
100
AcDbEntity
  8
Ech.1_10
 62
     7
  6
CONTINUOUS
370
    -3
100
AcDbCircle
 10
69415.19353612
 20
-67555.20869957
 30
0.0
 40
3.80485997
100
AcDbArc
 50
183.49683332
 51
304.25396752
  0
LINE
  5
734
100
AcDbEntity
  8
Ech.1_10
 62
     7
  6
CONTINUOUS
370
    -3
100
AcDbLine
 10
69396.72742021
 20
-67429.20472137
 30
0.0
 11
69396.72742021
 21
-67429.20472137
 31
0.0
  0
CIRCLE
  5
735
100
AcDbEntity
  8
Ech.1_10
 62
     7
  6
CONTINUOUS
370
    -3
100
AcDbCircle
 10
69394.83502099
 20
-67434.50605385
 30
0.0
 40
2.51802373
  0
LWPOLYLINE
  5
736
100
AcDbEntity
  8
Ech.1_10
 62
     9
  6
CONTINUOUS
370
    -3
100
AcDbPolyline
 90
        6
 70
     0
 43
0.0
 10
69833.75953666
 20
-66964.0732256
 10
69680.89682538
 20
-66964.07485515
 10
69664.41132222
 20
-66982.05220356
 10
69678.52126224
 20
-66946.09650355
 10
69662.03490816
 20
-66964.07485515
 10
69448.96243418
 20
-66964.07406941
  0
LWPOLYLINE
  5
737
100
AcDbEntity
  8
Ech.1_10
 62
     9
  6
CONTINUOUS
370
    -3
100
AcDbPolyline
 90
        6
 70
     0
 43
0.0
 10
69448.96243418
 20
-67000.46394907
 10
69610.39593767
 20
-67000.46247279
 10
69626.88144083
 20
-66982.48512446
 10
69612.77150081
 20
-67018.44082438
 10
69629.25785489
 20
-67000.46247279
 10
69833.75953666
 20
-67000.46329485
  0
LWPOLYLINE
  5
738
100
AcDbEntity
  8
Ech.1_10
 62
     7
  6
CONTINUOUS
370
    -3
100
AcDbPolyline
 90
       21
 70
     0
 43
0.0
 10
68692.89487977
 20
-66482.6709985
 10
68700.44347155
 20
-66480.43174735
 10
68707.80619195
 20
-66473.76913171
 10
68714.80174635
 20
-66462.84720727
 10
68721.257881
 20
-66447.93490808
 10
68727.01562442
 20
-66429.39942442
 10
68731.93320187
 20
-66407.69716143
 10
68735.88952627
 20
-66383.36250083
 10
68738.78717978
 20
-66356.99464274
 10
68740.55481256
 20
-66329.24285133
 10
68741.14889962
 20
-66300.79046781
 10
68740.55481256
 20
-66272.33808429
 10
68738.78717978
 20
-66244.58629288
 10
68735.88952627
 20
-66218.21843479
 10
68731.93320187
 20
-66193.88377419
 10
68727.01562442
 20
-66172.18151119
 10
68721.257881
 20
-66153.64602753
 10
68714.80174635
 20
-66138.73372834
 10
68707.80619195
 20
-66127.81180391
 10
68700.44347155
 20
-66121.14918826
 10
68692.89487977
 20
-66118.90993712
  0
LWPOLYLINE
  5
739
100
AcDbEntity
  8
Ech.1_10
 62
     7
  6
CONTINUOUS
370
    -3
100
AcDbPolyline
 90
       21
 70
     0
 43
0.0
 10
68692.89487977
 20
-66118.90993712
 10
68685.34628799
 20
-66121.14918826
 10
68677.98356759
 20
-66127.81180391
 10
68670.98801318
 20
-66138.73372834
 10
68664.53187854
 20
-66153.64602753
 10
68658.77413511
 20
-66172.18151119
 10
68653.85655766
 20
-66193.88377419
 10
68649.90023326
 20
-66218.21843479
 10
68647.00257975
 20
-66244.58629288
 10
68645.23494698
 20
-66272.33808429
 10
68644.64085992
 20
-66300.79046781
 10
68645.23494698
 20
-66329.24285133
 10
68647.00257975
 20
-66356.99464274
 10
68649.90023326
 20
-66383.36250083
 10
68653.85655766
 20
-66407.69716143
 10
68658.77413511
 20
-66429.39942442
 10
68664.53187854
 20
-66447.93490808
 10
68670.98801318
 20
-66462.84720727
 10
68677.98356759
 20
-66473.76913171
 10
68685.34628799
 20
-66480.43174735
 10
68692.89487977
 20
-66482.6709985
  0
INSERT
  5
73A
100
AcDbEntity
  8
Ech.1_10
 62
     0
370
    -3
100
AcDbBlockReference
  2
*D20
 10
0.0
 20
0.0
 30
0.0
  0
ENDSEC
  0
SECTION
  2
OBJECTS
  0
DICTIONARY
  5
1
100
AcDbDictionary
  3
ACAD_GROUP
350
2
  3
ACAD_MLINESTYLE
350
3
  0
DICTIONARY
  5
2
102
{CDWK_REACTORS
330
1
102
}
100
AcDbDictionary
  0
DICTIONARY
  5
3
102
{CDWK_REACTORS
330
1
102
}
100
AcDbDictionary
  3
STANDARD
350
4
  0
MLINESTYLE
  5
4
102
{CDWK_REACTORS
330
3
102
}
100
AcDbMlineStyle
  2
STANDARD
 70
     0
  3

 62
     0
 51
90.0
 52
90.0
 71
     2
 49
0.5
 62
   256
  6
BYLAYER
 49
-0.5
 62
   256
  6
BYLAYER
  0
ENDSEC
  0
EOF
