  0
SECTION
  2
HEADER
  9
$ACADVER
  1
AC1014
  9
$DWGCODEPAGE
  3
ANSI_1252
  9
$INSBASE
 10
0.0
 20
0.0
 30
0.0
  9
$EXTMIN
 10
8298.84597889
 20
-32597.97210315
  9
$EXTMAX
 10
36760.83913382
 20
-5997.09001988
  9
$LIMMIN
 10
8298.84597889
 20
-32597.97210315
  9
$LIMMAX
 10
36760.83913382
 20
-5997.09001988
  9
$ORTHOMODE
 70
     0
  9
$REGENMODE
 70
     1
  9
$FILLMODE
 70
     1
  9
$QTEXTMODE
 70
     0
  9
$MIRRTEXT
 70
     1
  9
$DRAGMODE
 70
     2
  9
$LTSCALE
 40
5.0
  9
$OSMODE
 70
     0
  9
$ATTMODE
 70
     1
  9
$TEXTSIZE
 40
3.5
  9
$TRACEWID
 40
1.0
  9
$TEXTSTYLE
  7
STANDARD
  9
$CLAYER
  8
0
  9
$CELTYPE
  6
BYLAYER
  9
$CECOLOR
 62
   256
  9
$DIMSCALE
 40
1.0
  9
$DIMASZ
 40
2.0
  9
$DIMEXO
 40
5.0
  9
$DIMDLI
 40
10.0
  9
$DIMRND
 40
0.0
  9
$DIMDLE
 40
2.0
  9
$DIMEXE
 40
2.0
  9
$DIMTP
 40
0.0
  9
$DIMTM
 40
0.0
  9
$DIMTXT
 40
2.5
  9
$DIMCEN
 40
1.5
  9
$DIMTSZ
 40
0.0
  9
$DIMTOL
 70
     0
  9
$DIMLIM
 70
     0
  9
$DIMTIH
 70
     1
  9
$DIMTOH
 70
     0
  9
$DIMSE1
 70
     0
  9
$DIMSE2
 70
     0
  9
$DIMTAD
 70
     1
  9
$DIMZIN
 70
     8
  9
$DIMBLK
  1

  9
$DIMASO
 70
     1
  9
$DIMSHO
 70
     1
  9
$DIMPOST
  1

  9
$DIMAPOST
  1

  9
$DIMALT
 70
     0
  9
$DIMALTD
 70
     2
  9
$DIMALTF
 40
25.4
  9
$DIMLFAC
 40
1.0
  9
$DIMTOFL
 70
     0
  9
$DIMTVP
 40
0.0
  9
$DIMTIX
 70
     0
  9
$DIMSOXD
 70
     0
  9
$DIMSAH
 70
     0
  9
$DIMBLK1
  1

  9
$DIMBLK2
  1

  9
$DIMSTYLE
  2
*UNNAMED
  9
$DIMCLRD
 70
   190
  9
$DIMCLRE
 70
   190
  9
$DIMCLRT
 70
   190
  9
$DIMTFAC
 40
1.0
  9
$DIMGAP
 40
0.09
  9
$DIMUNIT
 70
     2
  9
$LUNITS
 70
     2
  9
$LUPREC
 70
     6
  9
$AXISMODE
 70
     0
  9
$AXISUNIT
 10
0.0
 20
0.0
  9
$SKETCHINC
 40
0.1
  9
$FILLETRAD
 40
0.0
  9
$AUNITS
 70
     0
  9
$AUPREC
 70
     0
  9
$MENU
  1
ACAD
  9
$ELEVATION
 40
0.0
  9
$PELEVATION
 40
0.0
  9
$THICKNESS
 40
0.0
  9
$LIMCHECK
 70
     0
  9
$BLIPMODE
 70
     1
  9
$CHAMFERA
 40
0.0
  9
$CHAMFERB
 40
0.0
  9
$SKPOLY
 70
     1
  9
$TDCREATE
 40
2457811.0000000000
  9
$TDUPDATE
 40
2457811.0000000000
  9
$TDINDWG
 40
0.0
  9
$TDUSRTIMER
 40
0.0
  9
$USRTIMER
 70
     1
  9
$ANGBASE
 50
0.0
  9
$ANGDIR
 70
     0
  9
$PDMODE
 70
     0
  9
$PDSIZE
 40
0.0
  9
$PLINEWID
 40
0.0
  9
$COORDS
 70
     2
  9
$SPLFRAME
 70
     0
  9
$SPLINETYPE
 70
     6
  9
$SPLINESEGS
 70
     8
  9
$ATTDIA
 70
     1
  9
$ATTREQ
 70
     1
  9
$HANDLING
 70
     1
  9
$HANDSEED
  5
     7C9
  9
$SURFTAB1
 70
     6
  9
$SURFTAB2
 70
     6
  9
$SURFTYPE
 70
     6
  9
$SURFU
 70
     6
  9
$SURFV
 70
     6
  9
$UCSNAME
  2

  9
$UCSORG
 10
0.0
 20
0.0
 30
0.0
  9
$UCSXDIR
 10
1.0
 20
0.0
 30
0.0
  9
$UCSYDIR
 10
0.0
 20
1.0
 30
0.0
  9
$PUCSNAME
  2

  9
$PUCSORG
 10
0.0
 20
0.0
 30
0.0
  9
$PUCSXDIR
 10
1.0
 20
0.0
 30
0.0
  9
$PUCSYDIR
 10
0.0
 20
1.0
 30
0.0
  9
$USERI1
 70
     0
  9
$USERI2
 70
     0
  9
$USERI3
 70
     0
  9
$USERI4
 70
     0
  9
$USERI5
 70
     0
  9
$USERR1
 40
0.0
  9
$USERR2
 40
0.0
  9
$USERR3
 40
0.0
  9
$USERR4
 40
0.0
  9
$USERR5
 40
0.0
  9
$WORLDVIEW
 70
     1
  9
$SHADEDGE
 70
     3
  9
$SHADEDIF
 70
    70
  9
$TILEMODE
 70
     1
  9
$MAXACTVP
 70
    16
  9
$PINSBASE
 10
0.0
 20
0.0
 30
0.0
  9
$PLIMCHECK
 70
     0
  9
$PEXTMIN
 10
1.0000000000000E+20
 20
1.0000000000000E+20
 30
1.0000000000000E+20
  9
$PEXTMAX
 10
-1.0000000000000E+20
 20
-1.0000000000000E+20
 30
-1.0000000000000E+20
  9
$PLIMMIN
 10
0.0
 20
0.0
  9
$UNITMODE
 70
     0
  9
$VISRETAIN
 70
     0
  9
$MEASUREMENT
 70
     1
  0
ENDSEC
  0
SECTION
  2
TABLES
  0
TABLE
  2
VPORT
  5
36E
100
AcDbSymbolTable
 70
     1
  0
ENDTAB
  0
TABLE
  2
STYLE
  5
36F
100
AcDbSymbolTable
 70
     2
  0
STYLE
  5
370
100
AcDbSymbolTableRecord
100
AcDbTextStyleTableRecord
  2
STANDARD
 70
     0
 40
0.0
 41
1.0
 50
0.0
 71
     0
 42
3.5
  3
MONOTXT
  4

  0
STYLE
  5
371
100
AcDbSymbolTableRecord
100
AcDbTextStyleTableRecord
  2
SYMAP
 70
     0
 40
0.0
 41
1.0
 50
0.0
 71
     0
 42
3.5
  3
SYMAP
  4

  0
STYLE
  5
372
100
AcDbSymbolTableRecord
100
AcDbTextStyleTableRecord
  2
CADWORK1
 70
     0
 40
0.0
 41
1.0
 50
0.0
 71
     0
 42
3.5
  3
MONOTXT
  4

  0
STYLE
  5
373
100
AcDbSymbolTableRecord
100
AcDbTextStyleTableRecord
  2
MONOTXT
 70
     0
 40
0.0
 41
1.0
 50
0.0
 71
     0
 42
3.5
  3
MONOTXT
  4

  0
ENDTAB
  0
TABLE
  2
LTYPE
  5
374
100
AcDbSymbolTable
 70
    13
  0
LTYPE
  5
375
100
AcDbSymbolTableRecord
100
AcDbLinetypeTableRecord
  2
BYBLOCK
 70
    64
  3

 72
    65
 73
     0
 40
0.0
  0
LTYPE
  5
376
100
AcDbSymbolTableRecord
100
AcDbLinetypeTableRecord
  2
BYLAYER
 70
    64
  3

 72
    65
 73
     0
 40
0.0
  0
LTYPE
  5
377
100
AcDbSymbolTableRecord
100
AcDbLinetypeTableRecord
  2
CONTINUOUS
 70
    64
  3
Solid line
 72
    65
 73
     0
 40
0.0
  0
LTYPE
  5
378
100
AcDbSymbolTableRecord
100
AcDbLinetypeTableRecord
  2
DOT2
 70
    64
  3
...............................................
 72
    65
 73
     2
 40
1.25
 49
0.0
 74
     0
 49
-1.25
 74
     0
  0
LTYPE
  5
379
100
AcDbSymbolTableRecord
100
AcDbLinetypeTableRecord
  2
DASHDOT
 70
    64
  3
 __ . __ . __ . __ . __ . __ . __ . __ . __ . __
 72
    65
 73
     4
 40
10.0
 49
5.0
 74
     0
 49
-2.5
 74
     0
 49
0.0
 74
     0
 49
-2.5
 74
     0
  0
LTYPE
  5
37A
100
AcDbSymbolTableRecord
100
AcDbLinetypeTableRecord
  2
CENTER
 70
    64
  3
 ____ _ ____ _ ____ _ ____ _ ____ _ ____ _ ____
 72
    65
 73
     4
 40
20.0
 49
12.5
 74
     0
 49
-2.5
 74
     0
 49
2.5
 74
     0
 49
-2.5
 74
     0
  0
LTYPE
  5
37B
100
AcDbSymbolTableRecord
100
AcDbLinetypeTableRecord
  2
CADWORK_22
 70
    64
  3
22 =======================================
 72
    65
 73
     0
 40
0.0
  0
LTYPE
  5
37C
100
AcDbSymbolTableRecord
100
AcDbLinetypeTableRecord
  2
DAL
 70
    64
  3
Solid line (for MAPS)
 72
    65
 73
     0
 40
0.0
  0
LTYPE
  5
37D
100
AcDbSymbolTableRecord
100
AcDbLinetypeTableRecord
  2
MUR
 70
    64
  3
Solid line (for MAPS)
 72
    65
 73
     0
 40
0.0
  0
LTYPE
  5
37E
100
AcDbSymbolTableRecord
100
AcDbLinetypeTableRecord
  2
SOM
 70
    64
  3
Solid line (for MAPS)
 72
    65
 73
     0
 40
0.0
  0
LTYPE
  5
37F
100
AcDbSymbolTableRecord
100
AcDbLinetypeTableRecord
  2
COL
 70
    64
  3
Solid line (for MAPS)
 72
    65
 73
     0
 40
0.0
  0
LTYPE
  5
380
100
AcDbSymbolTableRecord
100
AcDbLinetypeTableRecord
  2
LGN
 70
    64
  3
Solid line (for MAPS)
 72
    65
 73
     0
 40
0.0
  0
LTYPE
  5
381
100
AcDbSymbolTableRecord
100
AcDbLinetypeTableRecord
  2
PNT
 70
    64
  3
Solid line (for MAPS)
 72
    65
 73
     0
 40
0.0
  0
ENDTAB
  0
TABLE
  2
LAYER
  5
382
100
AcDbSymbolTable
 70
    32
  0
LAYER
  5
383
100
AcDbSymbolTableRecord
100
AcDbLayerTableRecord
  2
Standard
 70
     0
 62
     7
  6
CONTINUOUS
370
    -3
  0
LAYER
  5
384
100
AcDbSymbolTableRecord
100
AcDbLayerTableRecord
  2
Ech.1_1
 70
     0
 62
     7
  6
CONTINUOUS
370
    -3
  0
LAYER
  5
385
100
AcDbSymbolTableRecord
100
AcDbLayerTableRecord
  2
Ech.1_2
 70
     0
 62
     7
  6
CONTINUOUS
370
    -3
  0
LAYER
  5
386
100
AcDbSymbolTableRecord
100
AcDbLayerTableRecord
  2
Ech.1_5
 70
     0
 62
     7
  6
CONTINUOUS
370
    -3
  0
LAYER
  5
387
100
AcDbSymbolTableRecord
100
AcDbLayerTableRecord
  2
Ech.1_10
 70
     0
 62
     7
  6
CONTINUOUS
370
    -3
  0
LAYER
  5
388
100
AcDbSymbolTableRecord
100
AcDbLayerTableRecord
  2
Ech.1_20
 70
     0
 62
     7
  6
CONTINUOUS
370
    -3
  0
LAYER
  5
389
100
AcDbSymbolTableRecord
100
AcDbLayerTableRecord
  2
Ech.1_25
 70
     0
 62
     7
  6
CONTINUOUS
370
    -3
  0
LAYER
  5
38A
100
AcDbSymbolTableRecord
100
AcDbLayerTableRecord
  2
Ech.1_33
 70
     0
 62
     7
  6
CONTINUOUS
370
    -3
  0
LAYER
  5
38B
100
AcDbSymbolTableRecord
100
AcDbLayerTableRecord
  2
Ech.1_50
 70
     0
 62
     7
  6
CONTINUOUS
370
    -3
  0
LAYER
  5
38C
100
AcDbSymbolTableRecord
100
AcDbLayerTableRecord
  2
Ech.1_75
 70
     0
 62
     7
  6
CONTINUOUS
370
    -3
  0
LAYER
  5
38D
100
AcDbSymbolTableRecord
100
AcDbLayerTableRecord
  2
Ech.1_100
 70
     0
 62
     7
  6
CONTINUOUS
370
    -3
  0
LAYER
  5
38E
100
AcDbSymbolTableRecord
100
AcDbLayerTableRecord
  2
Ech.1_200
 70
     0
 62
     7
  6
CONTINUOUS
370
    -3
  0
LAYER
  5
38F
100
AcDbSymbolTableRecord
100
AcDbLayerTableRecord
  2
Ech.1_500
 70
     0
 62
     7
  6
CONTINUOUS
370
    -3
  0
LAYER
  5
390
100
AcDbSymbolTableRecord
100
AcDbLayerTableRecord
  2
Ech.1_1000
 70
     0
 62
     7
  6
CONTINUOUS
370
    -3
  0
LAYER
  5
391
100
AcDbSymbolTableRecord
100
AcDbLayerTableRecord
  2
Cadres traceur
 70
     0
 62
     7
  6
CONTINUOUS
370
    18
  0
LAYER
  5
392
100
AcDbSymbolTableRecord
100
AcDbLayerTableRecord
  2
Cadres laser
 70
     0
 62
     7
  6
CONTINUOUS
370
    18
  0
LAYER
  5
393
100
AcDbSymbolTableRecord
100
AcDbLayerTableRecord
  2
Légende d_aide
 70
     0
 62
     7
  6
CONTINUOUS
370
    18
  0
LAYER
  5
394
100
AcDbSymbolTableRecord
100
AcDbLayerTableRecord
  2
hachures ok
 70
     0
 62
     7
  6
CONTINUOUS
370
    18
  0
LAYER
  5
395
100
AcDbSymbolTableRecord
100
AcDbLayerTableRecord
  2
ossature bois
 70
     0
 62
     7
  6
CONTINUOUS
370
    18
  0
LAYER
  5
396
100
AcDbSymbolTableRecord
100
AcDbLayerTableRecord
  2
VR
 70
     0
 62
     7
  6
CONTINUOUS
370
    25
  0
LAYER
  5
397
100
AcDbSymbolTableRecord
100
AcDbLayerTableRecord
  2
Calque1
 70
     0
 62
     7
  6
CONTINUOUS
370
     9
  0
LAYER
  5
398
100
AcDbSymbolTableRecord
100
AcDbLayerTableRecord
  2
0
 70
     0
 62
     7
  6
CONTINUOUS
370
    -3
  0
LAYER
  5
399
100
AcDbSymbolTableRecord
100
AcDbLayerTableRecord
  2
menuiserie
 70
     0
 62
     7
  6
CONTINUOUS
370
    -3
  0
LAYER
  5
39A
100
AcDbSymbolTableRecord
100
AcDbLayerTableRecord
  2
cotation
 70
     0
 62
   250
  6
CONTINUOUS
370
     9
  0
LAYER
  5
39B
100
AcDbSymbolTableRecord
100
AcDbLayerTableRecord
  2
Defpoints
 70
     0
 62
    10
  6
CONTINUOUS
370
    -3
  0
LAYER
  5
39C
100
AcDbSymbolTableRecord
100
AcDbLayerTableRecord
  2
HACHURE
 70
     0
 62
   254
  6
CONTINUOUS
370
    25
  0
LAYER
  5
39D
100
AcDbSymbolTableRecord
100
AcDbLayerTableRecord
  2
mat1
 70
     0
 62
     7
  6
CONTINUOUS
370
    30
  0
LAYER
  5
39E
100
AcDbSymbolTableRecord
100
AcDbLayerTableRecord
  2
mat2
 70
     0
 62
     7
  6
CONTINUOUS
370
     5
  0
LAYER
  5
39F
100
AcDbSymbolTableRecord
100
AcDbLayerTableRecord
  2
hach
 70
     0
 62
     8
  6
CONTINUOUS
370
     5
  0
LAYER
  5
3A0
100
AcDbSymbolTableRecord
100
AcDbLayerTableRecord
  2
menuiseries
 70
     0
 62
     7
  6
CONTINUOUS
370
     9
  0
LAYER
  5
3A1
100
AcDbSymbolTableRecord
100
AcDbLayerTableRecord
  2
BétonMétal
 70
     0
 62
     7
  6
CONTINUOUS
370
    80
  0
LAYER
  5
3A2
100
AcDbSymbolTableRecord
100
AcDbLayerTableRecord
  2
bois
 70
     0
 62
     7
  6
CONTINUOUS
370
    60
  0
ENDTAB
  0
TABLE
  2
VIEW
  5
3A3
100
AcDbSymbolTable
 70
     0
  0
ENDTAB
  0
TABLE
  2
UCS
  5
3A4
100
AcDbSymbolTable
 70
     0
  0
ENDTAB
  0
TABLE
  2
APPID
  5
3A5
100
AcDbSymbolTable
 70
     1
  0
APPID
  5
3A6
100
AcDbSymbolTableRecord
100
AcDbRegAppTableRecord
  2
ACAD
 70
     0
  0
ENDTAB
  0
TABLE
  2
DIMSTYLE
  5
3A7
100
AcDbSymbolTable
 70
     0
  0
ENDTAB
  0
TABLE
  2
BLOCK_RECORD
  5
3A8
100
AcDbSymbolTable
 70
     0
  0
BLOCK_RECORD
  5
3A9
100
AcDbSymbolTableRecord
100
AcDbBlockTableRecord
  2
*MODEL_SPACE
  0
BLOCK_RECORD
  5
3AA
100
AcDbSymbolTableRecord
100
AcDbBlockTableRecord
  2
*PAPER_SPACE
  0
BLOCK_RECORD
  5
3AB
100
AcDbSymbolTableRecord
100
AcDbBlockTableRecord
  2
CDWK_EXTR_0
  0
BLOCK_RECORD
  5
3AC
100
AcDbSymbolTableRecord
100
AcDbBlockTableRecord
  2
CDWK_EXTR_1D
  0
BLOCK_RECORD
  5
3AD
100
AcDbSymbolTableRecord
100
AcDbBlockTableRecord
  2
CDWK_EXTR_1G
  0
BLOCK_RECORD
  5
3AE
100
AcDbSymbolTableRecord
100
AcDbBlockTableRecord
  2
CDWK_EXTR_2
  0
BLOCK_RECORD
  5
3AF
100
AcDbSymbolTableRecord
100
AcDbBlockTableRecord
  2
CDWK_EXTR_3
  0
BLOCK_RECORD
  5
3B0
100
AcDbSymbolTableRecord
100
AcDbBlockTableRecord
  2
CDWK_EXTR_4
  0
BLOCK_RECORD
  5
3B1
100
AcDbSymbolTableRecord
100
AcDbBlockTableRecord
  2
CDWK_PTTYP0
  0
BLOCK_RECORD
  5
3B2
100
AcDbSymbolTableRecord
100
AcDbBlockTableRecord
  2
CDWK_PTTYP1
  0
BLOCK_RECORD
  5
3B3
100
AcDbSymbolTableRecord
100
AcDbBlockTableRecord
  2
CDWK_PTTYP2
  0
BLOCK_RECORD
  5
3B4
100
AcDbSymbolTableRecord
100
AcDbBlockTableRecord
  2
CDWK_PTTYP3
  0
BLOCK_RECORD
  5
3B5
100
AcDbSymbolTableRecord
100
AcDbBlockTableRecord
  2
CDWK_PTTYP4
  0
BLOCK_RECORD
  5
3B6
100
AcDbSymbolTableRecord
100
AcDbBlockTableRecord
  2
CDWK_PTTYP5
  0
BLOCK_RECORD
  5
3B7
100
AcDbSymbolTableRecord
100
AcDbBlockTableRecord
  2
CDWK_PTTYP6
  0
BLOCK_RECORD
  5
3B8
100
AcDbSymbolTableRecord
100
AcDbBlockTableRecord
  2
CDWK_PTTYP7
  0
BLOCK_RECORD
  5
3B9
100
AcDbSymbolTableRecord
100
AcDbBlockTableRecord
  2
CDWK_PTTYP8
  0
BLOCK_RECORD
  5
3BA
100
AcDbSymbolTableRecord
100
AcDbBlockTableRecord
  2
CDWK_PTTYP9
  0
BLOCK_RECORD
  5
3BB
100
AcDbSymbolTableRecord
100
AcDbBlockTableRecord
  2
CDWK_PTTYP10
  0
BLOCK_RECORD
  5
3BC
100
AcDbSymbolTableRecord
100
AcDbBlockTableRecord
  2
CDWK_PTTYP11
  0
BLOCK_RECORD
  5
3BD
100
AcDbSymbolTableRecord
100
AcDbBlockTableRecord
  2
CDWK_PTTYP12
  0
BLOCK_RECORD
  5
3BE
100
AcDbSymbolTableRecord
100
AcDbBlockTableRecord
  2
CDWK_PTTYP13
  0
BLOCK_RECORD
  5
3BF
100
AcDbSymbolTableRecord
100
AcDbBlockTableRecord
  2
CDWK_PTTYP14
  0
BLOCK_RECORD
  5
3C0
100
AcDbSymbolTableRecord
100
AcDbBlockTableRecord
  2
CDWK_PTTYP15
  0
BLOCK_RECORD
  5
3C1
100
AcDbSymbolTableRecord
100
AcDbBlockTableRecord
  2
CDWK_PTTYP16
  0
BLOCK_RECORD
  5
3C2
100
AcDbSymbolTableRecord
100
AcDbBlockTableRecord
  2
CDWK_PTTYP17
  0
BLOCK_RECORD
  5
3C3
100
AcDbSymbolTableRecord
100
AcDbBlockTableRecord
  2
CDWK_PTTYP18
  0
BLOCK_RECORD
  5
3C4
100
AcDbSymbolTableRecord
100
AcDbBlockTableRecord
  2
CDWK_PTTYP19
  0
BLOCK_RECORD
  5
3C5
100
AcDbSymbolTableRecord
100
AcDbBlockTableRecord
  2
CDWK_PTTYP20
  0
BLOCK_RECORD
  5
3C6
100
AcDbSymbolTableRecord
100
AcDbBlockTableRecord
  2
CDWK_PTTYP21
  0
BLOCK_RECORD
  5
3C7
100
AcDbSymbolTableRecord
100
AcDbBlockTableRecord
  2
CDWK_PTTYP22
  0
BLOCK_RECORD
  5
3C8
100
AcDbSymbolTableRecord
100
AcDbBlockTableRecord
  2
CDWK_PTTYP23
  0
BLOCK_RECORD
  5
3C9
100
AcDbSymbolTableRecord
100
AcDbBlockTableRecord
  2
CDWK_PTTYP24
  0
BLOCK_RECORD
  5
3CA
100
AcDbSymbolTableRecord
100
AcDbBlockTableRecord
  2
CDWK_PTTYP25
  0
BLOCK_RECORD
  5
3CB
100
AcDbSymbolTableRecord
100
AcDbBlockTableRecord
  2
CDWK_PTTYP26
  0
BLOCK_RECORD
  5
3CC
100
AcDbSymbolTableRecord
100
AcDbBlockTableRecord
  2
CDWK_PTTYP27
  0
BLOCK_RECORD
  5
3CD
100
AcDbSymbolTableRecord
100
AcDbBlockTableRecord
  2
CDWK_PTTYP28
  0
BLOCK_RECORD
  5
3CE
100
AcDbSymbolTableRecord
100
AcDbBlockTableRecord
  2
CDWK_PTTYP29
  0
BLOCK_RECORD
  5
3CF
100
AcDbSymbolTableRecord
100
AcDbBlockTableRecord
  2
CDWK_PTTYP30
  0
BLOCK_RECORD
  5
3D0
100
AcDbSymbolTableRecord
100
AcDbBlockTableRecord
  2
CDWK_PTTYP31
  0
BLOCK_RECORD
  5
3D1
100
AcDbSymbolTableRecord
100
AcDbBlockTableRecord
  2
CDWK_PTTYP32
  0
BLOCK_RECORD
  5
3D2
100
AcDbSymbolTableRecord
100
AcDbBlockTableRecord
  2
CDWK_PTTYP33
  0
BLOCK_RECORD
  5
3D3
100
AcDbSymbolTableRecord
100
AcDbBlockTableRecord
  2
CDWK_PTTYP34
  0
BLOCK_RECORD
  5
3D4
100
AcDbSymbolTableRecord
100
AcDbBlockTableRecord
  2
CDWK_PTTYP35
  0
BLOCK_RECORD
  5
3D5
100
AcDbSymbolTableRecord
100
AcDbBlockTableRecord
  2
CDWK_PTTYP36
  0
BLOCK_RECORD
  5
3D6
100
AcDbSymbolTableRecord
100
AcDbBlockTableRecord
  2
CDWK_PTTYP37
  0
BLOCK_RECORD
  5
3D7
100
AcDbSymbolTableRecord
100
AcDbBlockTableRecord
  2
CDWK_PTTYP38
  0
ENDTAB
  0
ENDSEC
  0
SECTION
  2
BLOCKS
  0
BLOCK
  5
3D8
100
AcDbEntity
  8
0
100
AcDbBlockBegin
  2
*MODEL_SPACE
 70
     0
 10
0.0
 20
0.0
 30
0.0
  3
*MODEL_SPACE
  1

  0
ENDBLK
  5
3D9
100
AcDbEntity
100
AcDbBlockEnd
  0
BLOCK
  5
3DA
100
AcDbEntity
  8
0
100
AcDbBlockBegin
  2
*PAPER_SPACE
 70
     0
 10
0.0
 20
0.0
 30
0.0
  3
*PAPER_SPACE
  1

  0
ENDBLK
  5
3DB
100
AcDbEntity
100
AcDbBlockEnd
  0
BLOCK
  5
3DC
100
AcDbEntity
  8
0
100
AcDbBlockBegin
  2
CDWK_EXTR_0
 70
     0
 10
0.0
 20
0.0
 30
0.0
  3
CDWK_EXTR_0
  1

  4
Cadwork line-extremity
  0
LINE
  5
3DD
100
AcDbEntity
  8
0
 62
     0
370
    -2
100
AcDbLine
 10
0.0
 20
0.0
 30
0.0
 11
2.0
 21
0.5
 31
0.0
  0
LINE
  5
3DE
100
AcDbEntity
  8
0
 62
     0
370
    -2
100
AcDbLine
 10
0.0
 20
0.0
 30
0.0
 11
2.0
 21
-0.5
 31
0.0
  0
LINE
  5
3DF
100
AcDbEntity
  8
0
 62
     0
370
    -2
100
AcDbLine
 10
2.0
 20
0.5
 30
0.0
 11
2.0
 21
-0.5
 31
0.0
  0
ENDBLK
  5
3E0
100
AcDbEntity
100
AcDbBlockEnd
  0
BLOCK
  5
3E1
100
AcDbEntity
  8
0
100
AcDbBlockBegin
  2
CDWK_EXTR_1D
 70
     0
 10
0.0
 20
0.0
 30
0.0
  3
CDWK_EXTR_1D
  1

  4
Cadwork line-extremity
  0
LINE
  5
3E2
100
AcDbEntity
  8
0
 62
     0
370
    -2
100
AcDbLine
 10
0.0
 20
0.0
 30
0.0
 11
0.0
 21
1.0
 31
0.0
  0
LINE
  5
3E3
100
AcDbEntity
  8
0
 62
     0
370
    -2
100
AcDbLine
 10
0.0
 20
1.0
 30
0.0
 11
0.5
 21
1.5
 31
0.0
  0
LINE
  5
3E4
100
AcDbEntity
  8
0
 62
     0
370
    -2
100
AcDbLine
 10
0.5
 20
1.5
 30
0.0
 11
1.5
 21
1.5
 31
0.0
  0
ENDBLK
  5
3E5
100
AcDbEntity
100
AcDbBlockEnd
  0
BLOCK
  5
3E6
100
AcDbEntity
  8
0
100
AcDbBlockBegin
  2
CDWK_EXTR_1G
 70
     0
 10
0.0
 20
0.0
 30
0.0
  3
CDWK_EXTR_1G
  1

  4
Cadwork line-extremity
  0
LINE
  5
3E7
100
AcDbEntity
  8
0
 62
     0
370
    -2
100
AcDbLine
 10
0.0
 20
0.0
 30
0.0
 11
0.0
 21
-1.0
 31
0.0
  0
LINE
  5
3E8
100
AcDbEntity
  8
0
 62
     0
370
    -2
100
AcDbLine
 10
0.0
 20
-1.0
 30
0.0
 11
0.5
 21
-1.5
 31
0.0
  0
LINE
  5
3E9
100
AcDbEntity
  8
0
 62
     0
370
    -2
100
AcDbLine
 10
0.5
 20
-1.5
 30
0.0
 11
1.5
 21
-1.5
 31
0.0
  0
ENDBLK
  5
3EA
100
AcDbEntity
100
AcDbBlockEnd
  0
BLOCK
  5
3EB
100
AcDbEntity
  8
0
100
AcDbBlockBegin
  2
CDWK_EXTR_2
 70
     0
 10
0.0
 20
0.0
 30
0.0
  3
CDWK_EXTR_2
  1

  4
Cadwork line-extremity
  0
SOLID
  5
3EC
100
AcDbEntity
  8
0
 62
     0
100
AcDbTrace
 10
0.0
 20
0.0
 11
2.0
 21
0.5
 12
2.0
 22
-0.5
 13
2.0
 23
-0.5
  0
ENDBLK
  5
3ED
100
AcDbEntity
100
AcDbBlockEnd
  0
BLOCK
  5
3EE
100
AcDbEntity
  8
0
100
AcDbBlockBegin
  2
CDWK_EXTR_3
 70
     0
 10
0.0
 20
0.0
 30
0.0
  3
CDWK_EXTR_3
  1

  4
Cadwork line-extremity
  0
SOLID
  5
3EF
100
AcDbEntity
  8
0
 62
     0
100
AcDbTrace
 10
0.0
 20
0.0
 11
2.0
 21
0.5
 12
2.0
 22
-0.5
 13
2.0
 23
-0.5
  0
LINE
  5
3F0
100
AcDbEntity
  8
0
 62
     0
370
    -2
100
AcDbLine
 10
0.0
 20
1.0
 30
0.0
 11
0.0
 21
-1.0
 31
0.0
  0
ENDBLK
  5
3F1
100
AcDbEntity
100
AcDbBlockEnd
  0
BLOCK
  5
3F2
100
AcDbEntity
  8
0
100
AcDbBlockBegin
  2
CDWK_EXTR_4
 70
     0
 10
0.0
 20
0.0
 30
0.0
  3
CDWK_EXTR_4
  1

  4
Cadwork line-extremity
  0
HATCH
  5
3F3
100
AcDbEntity
  8
0
 62
     0
370
    -2
100
AcDbHatch
 10
0.0
 20
0.0
 30
0.0
210
0.0
220
0.0
230
1.0
  2
SOLID
 70
     1
 71
     0
 91
        1
 92
        1
 93
        1
 72
     2
 10
0.0
 20
0.0
 40
0.5
 50
0.0
 51
360.0
 73
     1
 97
        0
 75
     0
 76
     1
 98
        1
 10
0.0
 20
0.0
  0
ENDBLK
  5
3F4
100
AcDbEntity
100
AcDbBlockEnd
  0
BLOCK
  5
3F5
100
AcDbEntity
  8
0
100
AcDbBlockBegin
  2
CDWK_PTTYP0
 70
     0
 10
0.0
 20
0.0
 30
0.0
  3
CDWK_PTTYP0
  1

  4
Cadwork point
  0
POINT
  5
3F6
100
AcDbEntity
  8
0
 62
     0
100
AcDbPoint
 10
0.0
 20
0.0
 30
0.0
  0
ENDBLK
  5
3F7
100
AcDbEntity
100
AcDbBlockEnd
  0
BLOCK
  5
3F8
100
AcDbEntity
  8
0
100
AcDbBlockBegin
  2
CDWK_PTTYP1
 70
     0
 10
0.0
 20
0.0
 30
0.0
  3
CDWK_PTTYP1
  1

  4
Cadwork node
  0
LINE
  5
3F9
100
AcDbEntity
  8
0
 62
     0
370
    -2
100
AcDbLine
 10
-0.5
 20
0.5
 30
0.0
 11
0.5
 21
0.5
 31
0.0
  0
LINE
  5
3FA
100
AcDbEntity
  8
0
 62
     0
370
    -2
100
AcDbLine
 10
0.5
 20
0.5
 30
0.0
 11
0.5
 21
-0.5
 31
0.0
  0
LINE
  5
3FB
100
AcDbEntity
  8
0
 62
     0
370
    -2
100
AcDbLine
 10
0.5
 20
-0.5
 30
0.0
 11
-0.5
 21
-0.5
 31
0.0
  0
LINE
  5
3FC
100
AcDbEntity
  8
0
 62
     0
370
    -2
100
AcDbLine
 10
-0.5
 20
-0.5
 30
0.0
 11
-0.5
 21
0.5
 31
0.0
  0
ENDBLK
  5
3FD
100
AcDbEntity
100
AcDbBlockEnd
  0
BLOCK
  5
3FE
100
AcDbEntity
  8
0
100
AcDbBlockBegin
  2
CDWK_PTTYP2
 70
     0
 10
0.0
 20
0.0
 30
0.0
  3
CDWK_PTTYP2
  1

  4
Cadwork node
  0
LINE
  5
3FF
100
AcDbEntity
  8
0
 62
     0
370
    -2
100
AcDbLine
 10
0.0
 20
0.5
 30
0.0
 11
0.0
 21
-0.5
 31
0.0
  0
LINE
  5
400
100
AcDbEntity
  8
0
 62
     0
370
    -2
100
AcDbLine
 10
-0.5
 20
0.0
 30
0.0
 11
0.5
 21
0.0
 31
0.0
  0
ENDBLK
  5
401
100
AcDbEntity
100
AcDbBlockEnd
  0
BLOCK
  5
402
100
AcDbEntity
  8
0
100
AcDbBlockBegin
  2
CDWK_PTTYP3
 70
     0
 10
0.0
 20
0.0
 30
0.0
  3
CDWK_PTTYP3
  1

  4
Cadwork node
  0
CIRCLE
  5
403
100
AcDbEntity
  8
0
 62
     0
370
    -2
100
AcDbCircle
 10
0.0
 20
0.0
 30
0.0
 40
0.5
  0
ENDBLK
  5
404
100
AcDbEntity
100
AcDbBlockEnd
  0
BLOCK
  5
405
100
AcDbEntity
  8
0
100
AcDbBlockBegin
  2
CDWK_PTTYP4
 70
     0
 10
0.0
 20
0.0
 30
0.0
  3
CDWK_PTTYP4
  1

  4
Cadwork node
  0
HATCH
  5
406
100
AcDbEntity
  8
0
 62
     0
370
    -2
100
AcDbHatch
 10
0.0
 20
0.0
 30
0.0
210
0.0
220
0.0
230
1.0
  2
SOLID
 70
     1
 71
     0
 91
        1
 92
        1
 93
        1
 72
     2
 10
0.0
 20
0.0
 40
0.5
 50
0.0
 51
360.0
 73
     1
 97
        0
 75
     0
 76
     1
 98
        1
 10
0.0
 20
0.0
  0
ENDBLK
  5
407
100
AcDbEntity
100
AcDbBlockEnd
  0
BLOCK
  5
408
100
AcDbEntity
  8
0
100
AcDbBlockBegin
  2
CDWK_PTTYP5
 70
     0
 10
0.0
 20
0.0
 30
0.0
  3
CDWK_PTTYP5
  1

  4
Cadwork node
  0
LINE
  5
409
100
AcDbEntity
  8
0
 62
     0
370
    -2
100
AcDbLine
 10
-0.5
 20
0.5
 30
0.0
 11
0.5
 21
0.5
 31
0.0
  0
LINE
  5
40A
100
AcDbEntity
  8
0
 62
     0
370
    -2
100
AcDbLine
 10
0.5
 20
0.5
 30
0.0
 11
0.5
 21
-0.5
 31
0.0
  0
LINE
  5
40B
100
AcDbEntity
  8
0
 62
     0
370
    -2
100
AcDbLine
 10
0.5
 20
-0.5
 30
0.0
 11
-0.5
 21
-0.5
 31
0.0
  0
LINE
  5
40C
100
AcDbEntity
  8
0
 62
     0
370
    -2
100
AcDbLine
 10
-0.5
 20
-0.5
 30
0.0
 11
-0.5
 21
0.5
 31
0.0
  0
SOLID
  5
40D
100
AcDbEntity
  8
0
 62
     0
100
AcDbTrace
 10
-0.5
 20
-0.5
 11
-0.5
 21
0.0
 12
0.0
 22
-0.5
 13
0.0
 23
0.0
  0
SOLID
  5
40E
100
AcDbEntity
  8
0
 62
     0
100
AcDbTrace
 10
0.0
 20
0.0
 11
0.0
 21
0.5
 12
0.5
 22
0.0
 13
0.5
 23
0.5
  0
ENDBLK
  5
40F
100
AcDbEntity
100
AcDbBlockEnd
  0
BLOCK
  5
410
100
AcDbEntity
  8
0
100
AcDbBlockBegin
  2
CDWK_PTTYP6
 70
     0
 10
0.0
 20
0.0
 30
0.0
  3
CDWK_PTTYP6
  1

  4
Cadwork node
  0
LINE
  5
411
100
AcDbEntity
  8
0
 62
     0
370
    -2
100
AcDbLine
 10
-0.5
 20
0.5
 30
0.0
 11
0.5
 21
0.5
 31
0.0
  0
LINE
  5
412
100
AcDbEntity
  8
0
 62
     0
370
    -2
100
AcDbLine
 10
0.5
 20
0.5
 30
0.0
 11
0.5
 21
-0.5
 31
0.0
  0
LINE
  5
413
100
AcDbEntity
  8
0
 62
     0
370
    -2
100
AcDbLine
 10
0.5
 20
-0.5
 30
0.0
 11
-0.5
 21
-0.5
 31
0.0
  0
LINE
  5
414
100
AcDbEntity
  8
0
 62
     0
370
    -2
100
AcDbLine
 10
-0.5
 20
-0.5
 30
0.0
 11
-0.5
 21
0.5
 31
0.0
  0
SOLID
  5
415
100
AcDbEntity
  8
0
 62
     0
100
AcDbTrace
 10
-0.5
 20
-0.5
 11
-0.5
 21
0.5
 12
0.5
 22
0.5
 13
0.5
 23
0.5
  0
ENDBLK
  5
416
100
AcDbEntity
100
AcDbBlockEnd
  0
BLOCK
  5
417
100
AcDbEntity
  8
0
100
AcDbBlockBegin
  2
CDWK_PTTYP7
 70
     0
 10
0.0
 20
0.0
 30
0.0
  3
CDWK_PTTYP7
  1

  4
Cadwork node
  0
LINE
  5
418
100
AcDbEntity
  8
0
 62
     0
370
    -2
100
AcDbLine
 10
-0.5
 20
0.5
 30
0.0
 11
0.5
 21
0.5
 31
0.0
  0
LINE
  5
419
100
AcDbEntity
  8
0
 62
     0
370
    -2
100
AcDbLine
 10
0.5
 20
0.5
 30
0.0
 11
0.5
 21
-0.5
 31
0.0
  0
LINE
  5
41A
100
AcDbEntity
  8
0
 62
     0
370
    -2
100
AcDbLine
 10
0.5
 20
-0.5
 30
0.0
 11
-0.5
 21
-0.5
 31
0.0
  0
LINE
  5
41B
100
AcDbEntity
  8
0
 62
     0
370
    -2
100
AcDbLine
 10
-0.5
 20
-0.5
 30
0.0
 11
-0.5
 21
0.5
 31
0.0
  0
LINE
  5
41C
100
AcDbEntity
  8
0
 62
     0
370
    -2
100
AcDbLine
 10
0.0
 20
0.5
 30
0.0
 11
0.0
 21
-0.5
 31
0.0
  0
LINE
  5
41D
100
AcDbEntity
  8
0
 62
     0
370
    -2
100
AcDbLine
 10
-0.5
 20
0.0
 30
0.0
 11
0.5
 21
0.0
 31
0.0
  0
ENDBLK
  5
41E
100
AcDbEntity
100
AcDbBlockEnd
  0
BLOCK
  5
41F
100
AcDbEntity
  8
0
100
AcDbBlockBegin
  2
CDWK_PTTYP8
 70
     0
 10
0.0
 20
0.0
 30
0.0
  3
CDWK_PTTYP8
  1

  4
Cadwork node
  0
SOLID
  5
420
100
AcDbEntity
  8
0
 62
     0
100
AcDbTrace
 10
-0.5
 20
0.5
 11
0.5
 21
0.5
 12
-0.5
 22
-0.5
 13
0.5
 23
-0.5
  0
ENDBLK
  5
421
100
AcDbEntity
100
AcDbBlockEnd
  0
BLOCK
  5
422
100
AcDbEntity
  8
0
100
AcDbBlockBegin
  2
CDWK_PTTYP9
 70
     0
 10
0.0
 20
0.0
 30
0.0
  3
CDWK_PTTYP9
  1

  4
Cadwork node
  0
CIRCLE
  5
423
100
AcDbEntity
  8
0
 62
     0
370
    -2
100
AcDbCircle
 10
0.0
 20
0.0
 30
0.0
 40
0.5
  0
CIRCLE
  5
424
100
AcDbEntity
  8
0
 62
     0
370
    -2
100
AcDbCircle
 10
0.0
 20
0.0
 30
0.0
 40
0.16666667
  0
ENDBLK
  5
425
100
AcDbEntity
100
AcDbBlockEnd
  0
BLOCK
  5
426
100
AcDbEntity
  8
0
100
AcDbBlockBegin
  2
CDWK_PTTYP10
 70
     0
 10
0.0
 20
0.0
 30
0.0
  3
CDWK_PTTYP10
  1

  4
Cadwork node
  0
CIRCLE
  5
427
100
AcDbEntity
  8
0
 62
     0
370
    -2
100
AcDbCircle
 10
0.0
 20
0.0
 30
0.0
 40
0.5
  0
ENDBLK
  5
428
100
AcDbEntity
100
AcDbBlockEnd
  0
BLOCK
  5
429
100
AcDbEntity
  8
0
100
AcDbBlockBegin
  2
CDWK_PTTYP11
 70
     0
 10
0.0
 20
0.0
 30
0.0
  3
CDWK_PTTYP11
  1

  4
Cadwork node
  0
CIRCLE
  5
42A
100
AcDbEntity
  8
0
 62
     0
370
    -2
100
AcDbCircle
 10
0.0
 20
0.0
 30
0.0
 40
0.5
  0
CIRCLE
  5
42B
100
AcDbEntity
  8
0
 62
     0
370
    -2
100
AcDbCircle
 10
0.0
 20
0.0
 30
0.0
 40
0.25
  0
ENDBLK
  5
42C
100
AcDbEntity
100
AcDbBlockEnd
  0
BLOCK
  5
42D
100
AcDbEntity
  8
0
100
AcDbBlockBegin
  2
CDWK_PTTYP12
 70
     0
 10
0.0
 20
0.0
 30
0.0
  3
CDWK_PTTYP12
  1

  4
Cadwork node
  0
CIRCLE
  5
42E
100
AcDbEntity
  8
0
 62
     0
370
    -2
100
AcDbCircle
 10
0.0
 20
0.0
 30
0.0
 40
0.5
  0
CIRCLE
  5
42F
100
AcDbEntity
  8
0
 62
     0
370
    -2
100
AcDbCircle
 10
0.25
 20
0.0
 30
0.0
 40
0.25
  0
ENDBLK
  5
430
100
AcDbEntity
100
AcDbBlockEnd
  0
BLOCK
  5
431
100
AcDbEntity
  8
0
100
AcDbBlockBegin
  2
CDWK_PTTYP13
 70
     0
 10
0.0
 20
0.0
 30
0.0
  3
CDWK_PTTYP13
  1

  4
Cadwork node
  0
CIRCLE
  5
432
100
AcDbEntity
  8
0
 62
     0
370
    -2
100
AcDbCircle
 10
0.0
 20
0.0
 30
0.0
 40
0.5
  0
CIRCLE
  5
433
100
AcDbEntity
  8
0
 62
     0
370
    -2
100
AcDbCircle
 10
0.25
 20
0.0
 30
0.0
 40
0.25
  0
CIRCLE
  5
434
100
AcDbEntity
  8
0
 62
     0
370
    -2
100
AcDbCircle
 10
-0.25
 20
0.0
 30
0.0
 40
0.25
  0
ENDBLK
  5
435
100
AcDbEntity
100
AcDbBlockEnd
  0
BLOCK
  5
436
100
AcDbEntity
  8
0
100
AcDbBlockBegin
  2
CDWK_PTTYP14
 70
     0
 10
0.0
 20
0.0
 30
0.0
  3
CDWK_PTTYP14
  1

  4
Cadwork node
  0
POINT
  5
437
100
AcDbEntity
  8
0
 62
     0
100
AcDbPoint
 10
0.0
 20
0.0
 30
0.0
  0
ENDBLK
  5
438
100
AcDbEntity
100
AcDbBlockEnd
  0
BLOCK
  5
439
100
AcDbEntity
  8
0
100
AcDbBlockBegin
  2
CDWK_PTTYP15
 70
     0
 10
0.0
 20
0.0
 30
0.0
  3
CDWK_PTTYP15
  1

  4
Cadwork node
  0
POINT
  5
43A
100
AcDbEntity
  8
0
 62
     0
100
AcDbPoint
 10
0.0
 20
0.0
 30
0.0
  0
ENDBLK
  5
43B
100
AcDbEntity
100
AcDbBlockEnd
  0
BLOCK
  5
43C
100
AcDbEntity
  8
0
100
AcDbBlockBegin
  2
CDWK_PTTYP16
 70
     0
 10
0.0
 20
0.0
 30
0.0
  3
CDWK_PTTYP16
  1

  4
Cadwork node
  0
LINE
  5
43D
100
AcDbEntity
  8
0
 62
     0
370
    -2
100
AcDbLine
 10
-0.5
 20
-0.28867513
 30
0.0
 11
0.5
 21
-0.28867513
 31
0.0
  0
LINE
  5
43E
100
AcDbEntity
  8
0
 62
     0
370
    -2
100
AcDbLine
 10
0.5
 20
-0.28867513
 30
0.0
 11
0.0
 21
0.57735027
 31
0.0
  0
LINE
  5
43F
100
AcDbEntity
  8
0
 62
     0
370
    -2
100
AcDbLine
 10
0.0
 20
0.57735027
 30
0.0
 11
-0.5
 21
-0.28867513
 31
0.0
  0
CIRCLE
  5
440
100
AcDbEntity
  8
0
 62
     0
370
    -2
100
AcDbCircle
 10
0.0
 20
0.0
 30
0.0
 40
0.28867513
  0
ENDBLK
  5
441
100
AcDbEntity
100
AcDbBlockEnd
  0
BLOCK
  5
442
100
AcDbEntity
  8
0
100
AcDbBlockBegin
  2
CDWK_PTTYP17
 70
     0
 10
0.0
 20
0.0
 30
0.0
  3
CDWK_PTTYP17
  1

  4
Cadwork node
  0
CIRCLE
  5
443
100
AcDbEntity
  8
0
 62
     0
370
    -2
100
AcDbCircle
 10
0.0
 20
0.0
 30
0.0
 40
0.5
  0
HATCH
  5
444
100
AcDbEntity
  8
0
 62
     0
370
    -2
100
AcDbHatch
 10
0.0
 20
0.0
 30
0.0
210
0.0
220
0.0
230
1.0
  2
SOLID
 70
     1
 71
     0
 91
        1
 92
        1
 93
        1
 72
     2
 10
0.0
 20
0.0
 40
0.25
 50
0.0
 51
360.0
 73
     1
 97
        0
 75
     0
 76
     1
 98
        1
 10
0.0
 20
0.0
  0
ENDBLK
  5
445
100
AcDbEntity
100
AcDbBlockEnd
  0
BLOCK
  5
446
100
AcDbEntity
  8
0
100
AcDbBlockBegin
  2
CDWK_PTTYP18
 70
     0
 10
0.0
 20
0.0
 30
0.0
  3
CDWK_PTTYP18
  1

  4
Cadwork node
  0
CIRCLE
  5
447
100
AcDbEntity
  8
0
 62
     0
370
    -2
100
AcDbCircle
 10
0.0
 20
0.0
 30
0.0
 40
0.5
  0
CIRCLE
  5
448
100
AcDbEntity
  8
0
 62
     0
370
    -2
100
AcDbCircle
 10
0.0
 20
0.0
 30
0.0
 40
0.2
  0
ENDBLK
  5
449
100
AcDbEntity
100
AcDbBlockEnd
  0
BLOCK
  5
44A
100
AcDbEntity
  8
0
100
AcDbBlockBegin
  2
CDWK_PTTYP19
 70
     0
 10
0.0
 20
0.0
 30
0.0
  3
CDWK_PTTYP19
  1

  4
Cadwork node
  0
CIRCLE
  5
44B
100
AcDbEntity
  8
0
 62
     0
370
    -2
100
AcDbCircle
 10
0.0
 20
0.0
 30
0.0
 40
0.4
  0
CIRCLE
  5
44C
100
AcDbEntity
  8
0
 62
     0
370
    -2
100
AcDbCircle
 10
0.0
 20
0.0
 30
0.0
 40
0.25
  0
LINE
  5
44D
100
AcDbEntity
  8
0
 62
     0
370
    -2
100
AcDbLine
 10
-0.25
 20
0.0
 30
0.0
 11
0.25
 21
0.0
 31
0.0
  0
ENDBLK
  5
44E
100
AcDbEntity
100
AcDbBlockEnd
  0
BLOCK
  5
44F
100
AcDbEntity
  8
0
100
AcDbBlockBegin
  2
CDWK_PTTYP20
 70
     0
 10
0.0
 20
0.0
 30
0.0
  3
CDWK_PTTYP20
  1

  4
Cadwork node
  0
CIRCLE
  5
450
100
AcDbEntity
  8
0
 62
     0
370
    -2
100
AcDbCircle
 10
0.0
 20
0.0
 30
0.0
 40
0.5
  0
CIRCLE
  5
451
100
AcDbEntity
  8
0
 62
     0
370
    -2
100
AcDbCircle
 10
0.0
 20
0.0
 30
0.0
 40
0.3
  0
ENDBLK
  5
452
100
AcDbEntity
100
AcDbBlockEnd
  0
BLOCK
  5
453
100
AcDbEntity
  8
0
100
AcDbBlockBegin
  2
CDWK_PTTYP21
 70
     0
 10
0.0
 20
0.0
 30
0.0
  3
CDWK_PTTYP21
  1

  4
Cadwork node
  0
CIRCLE
  5
454
100
AcDbEntity
  8
0
 62
     0
370
    -2
100
AcDbCircle
 10
0.0
 20
0.0
 30
0.0
 40
0.5
  0
LINE
  5
455
100
AcDbEntity
  8
0
 62
     0
370
    -2
100
AcDbLine
 10
-0.5
 20
0.0
 30
0.0
 11
0.5
 21
0.0
 31
0.0
  0
ENDBLK
  5
456
100
AcDbEntity
100
AcDbBlockEnd
  0
BLOCK
  5
457
100
AcDbEntity
  8
0
100
AcDbBlockBegin
  2
CDWK_PTTYP22
 70
     0
 10
0.0
 20
0.0
 30
0.0
  3
CDWK_PTTYP22
  1

  4
Cadwork node
  0
POINT
  5
458
100
AcDbEntity
  8
0
 62
     0
100
AcDbPoint
 10
0.0
 20
0.0
 30
0.0
  0
ENDBLK
  5
459
100
AcDbEntity
100
AcDbBlockEnd
  0
BLOCK
  5
45A
100
AcDbEntity
  8
0
100
AcDbBlockBegin
  2
CDWK_PTTYP23
 70
     0
 10
0.0
 20
0.0
 30
0.0
  3
CDWK_PTTYP23
  1

  4
Cadwork node
  0
POINT
  5
45B
100
AcDbEntity
  8
0
 62
     0
100
AcDbPoint
 10
0.0
 20
0.0
 30
0.0
  0
ENDBLK
  5
45C
100
AcDbEntity
100
AcDbBlockEnd
  0
BLOCK
  5
45D
100
AcDbEntity
  8
0
100
AcDbBlockBegin
  2
CDWK_PTTYP24
 70
     0
 10
0.0
 20
0.0
 30
0.0
  3
CDWK_PTTYP24
  1

  4
Cadwork node
  0
POINT
  5
45E
100
AcDbEntity
  8
0
 62
     0
100
AcDbPoint
 10
0.0
 20
0.0
 30
0.0
  0
ENDBLK
  5
45F
100
AcDbEntity
100
AcDbBlockEnd
  0
BLOCK
  5
460
100
AcDbEntity
  8
0
100
AcDbBlockBegin
  2
CDWK_PTTYP25
 70
     0
 10
0.0
 20
0.0
 30
0.0
  3
CDWK_PTTYP25
  1

  4
Cadwork node
  0
LINE
  5
461
100
AcDbEntity
  8
0
 62
     0
370
    -2
100
AcDbLine
 10
-0.43290044
 20
-0.25
 30
0.0
 11
0.43290044
 21
-0.25
 31
0.0
  0
LINE
  5
462
100
AcDbEntity
  8
0
 62
     0
370
    -2
100
AcDbLine
 10
-0.43290044
 20
-0.25
 30
0.0
 11
0.0
 21
0.5
 31
0.0
  0
LINE
  5
463
100
AcDbEntity
  8
0
 62
     0
370
    -2
100
AcDbLine
 10
0.43290044
 20
-0.25
 30
0.0
 11
0.0
 21
0.5
 31
0.0
  0
CIRCLE
  5
464
100
AcDbEntity
  8
0
 62
     0
370
    -2
100
AcDbCircle
 10
0.0
 20
0.0
 30
0.0
 40
0.5
  0
ENDBLK
  5
465
100
AcDbEntity
100
AcDbBlockEnd
  0
BLOCK
  5
466
100
AcDbEntity
  8
0
100
AcDbBlockBegin
  2
CDWK_PTTYP26
 70
     0
 10
0.0
 20
0.0
 30
0.0
  3
CDWK_PTTYP26
  1

  4
Cadwork node
  0
LINE
  5
467
100
AcDbEntity
  8
0
 62
     0
370
    -2
100
AcDbLine
 10
-0.5
 20
-0.28850001
 30
0.0
 11
0.5
 21
-0.28850001
 31
0.0
  0
LINE
  5
468
100
AcDbEntity
  8
0
 62
     0
370
    -2
100
AcDbLine
 10
-0.5
 20
-0.28850001
 30
0.0
 11
0.0
 21
0.57736721
 31
0.0
  0
LINE
  5
469
100
AcDbEntity
  8
0
 62
     0
370
    -2
100
AcDbLine
 10
0.5
 20
-0.28850001
 30
0.0
 11
0.0
 21
0.57736721
 31
0.0
  0
CIRCLE
  5
46A
100
AcDbEntity
  8
0
 62
     0
370
    -2
100
AcDbCircle
 10
0.0
 20
0.0
 30
0.0
 40
0.1312336
  0
ENDBLK
  5
46B
100
AcDbEntity
100
AcDbBlockEnd
  0
BLOCK
  5
46C
100
AcDbEntity
  8
0
100
AcDbBlockBegin
  2
CDWK_PTTYP27
 70
     0
 10
0.0
 20
0.0
 30
0.0
  3
CDWK_PTTYP27
  1

  4
Cadwork node
  0
LINE
  5
46D
100
AcDbEntity
  8
0
 62
     0
370
    -2
100
AcDbLine
 10
-0.43290044
 20
-0.25
 30
0.0
 11
0.43290044
 21
-0.25
 31
0.0
  0
LINE
  5
46E
100
AcDbEntity
  8
0
 62
     0
370
    -2
100
AcDbLine
 10
-0.43290044
 20
-0.25
 30
0.0
 11
0.0
 21
0.5
 31
0.0
  0
LINE
  5
46F
100
AcDbEntity
  8
0
 62
     0
370
    -2
100
AcDbLine
 10
0.43290044
 20
-0.25
 30
0.0
 11
0.0
 21
0.5
 31
0.0
  0
CIRCLE
  5
470
100
AcDbEntity
  8
0
 62
     0
370
    -2
100
AcDbCircle
 10
0.0
 20
0.0
 30
0.0
 40
0.5
  0
CIRCLE
  5
471
100
AcDbEntity
  8
0
 62
     0
370
    -2
100
AcDbCircle
 10
0.0
 20
0.0
 30
0.0
 40
0.1312336
  0
ENDBLK
  5
472
100
AcDbEntity
100
AcDbBlockEnd
  0
BLOCK
  5
473
100
AcDbEntity
  8
0
100
AcDbBlockBegin
  2
CDWK_PTTYP28
 70
     0
 10
0.0
 20
0.0
 30
0.0
  3
CDWK_PTTYP28
  1

  4
Cadwork node
  0
POINT
  5
474
100
AcDbEntity
  8
0
 62
     0
100
AcDbPoint
 10
0.0
 20
0.0
 30
0.0
  0
ENDBLK
  5
475
100
AcDbEntity
100
AcDbBlockEnd
  0
BLOCK
  5
476
100
AcDbEntity
  8
0
100
AcDbBlockBegin
  2
CDWK_PTTYP29
 70
     0
 10
0.0
 20
0.0
 30
0.0
  3
CDWK_PTTYP29
  1

  4
Cadwork node
  0
CIRCLE
  5
477
100
AcDbEntity
  8
0
 62
     0
370
    -2
100
AcDbCircle
 10
0.0
 20
0.0
 30
0.0
 40
0.5
  0
CIRCLE
  5
478
100
AcDbEntity
  8
0
 62
     0
370
    -2
100
AcDbCircle
 10
0.0
 20
0.0
 30
0.0
 40
0.375
  0
CIRCLE
  5
479
100
AcDbEntity
  8
0
 62
     0
370
    -2
100
AcDbCircle
 10
0.0
 20
0.0
 30
0.0
 40
0.21875
  0
ENDBLK
  5
47A
100
AcDbEntity
100
AcDbBlockEnd
  0
BLOCK
  5
47B
100
AcDbEntity
  8
0
100
AcDbBlockBegin
  2
CDWK_PTTYP30
 70
     0
 10
0.0
 20
0.0
 30
0.0
  3
CDWK_PTTYP30
  1

  4
Cadwork node
  0
LINE
  5
47C
100
AcDbEntity
  8
0
 62
     0
370
    -2
100
AcDbLine
 10
0.17680339
 20
0.17680339
 30
0.0
 11
0.5
 21
0.5
 31
0.0
  0
LINE
  5
47D
100
AcDbEntity
  8
0
 62
     0
370
    -2
100
AcDbLine
 10
-0.17680339
 20
0.17680339
 30
0.0
 11
-0.5
 21
0.5
 31
0.0
  0
LINE
  5
47E
100
AcDbEntity
  8
0
 62
     0
370
    -2
100
AcDbLine
 10
0.17680339
 20
-0.17680339
 30
0.0
 11
0.5
 21
-0.5
 31
0.0
  0
LINE
  5
47F
100
AcDbEntity
  8
0
 62
     0
370
    -2
100
AcDbLine
 10
-0.17680339
 20
-0.17680339
 30
0.0
 11
-0.5
 21
-0.5
 31
0.0
  0
ENDBLK
  5
480
100
AcDbEntity
100
AcDbBlockEnd
  0
BLOCK
  5
481
100
AcDbEntity
  8
0
100
AcDbBlockBegin
  2
CDWK_PTTYP31
 70
     0
 10
0.0
 20
0.0
 30
0.0
  3
CDWK_PTTYP31
  1

  4
Cadwork node
  0
CIRCLE
  5
482
100
AcDbEntity
  8
0
 62
     0
370
    -2
100
AcDbCircle
 10
0.0
 20
0.0
 30
0.0
 40
0.075
  0
LINE
  5
483
100
AcDbEntity
  8
0
 62
     0
370
    -2
100
AcDbLine
 10
0.075
 20
0.0
 30
0.0
 11
0.5
 21
0.0
 31
0.0
  0
LINE
  5
484
100
AcDbEntity
  8
0
 62
     0
370
    -2
100
AcDbLine
 10
-0.075
 20
0.0
 30
0.0
 11
-0.5
 21
0.0
 31
0.0
  0
LINE
  5
485
100
AcDbEntity
  8
0
 62
     0
370
    -2
100
AcDbLine
 10
0.0
 20
0.075
 30
0.0
 11
0.0
 21
0.5
 31
0.0
  0
LINE
  5
486
100
AcDbEntity
  8
0
 62
     0
370
    -2
100
AcDbLine
 10
0.0
 20
-0.075
 30
0.0
 11
0.0
 21
-0.5
 31
0.0
  0
ENDBLK
  5
487
100
AcDbEntity
100
AcDbBlockEnd
  0
BLOCK
  5
488
100
AcDbEntity
  8
0
100
AcDbBlockBegin
  2
CDWK_PTTYP32
 70
     0
 10
0.0
 20
0.0
 30
0.0
  3
CDWK_PTTYP32
  1

  4
Cadwork node
  0
CIRCLE
  5
489
100
AcDbEntity
  8
0
 62
     0
370
    -2
100
AcDbCircle
 10
0.0
 20
0.0
 30
0.0
 40
0.5
  0
CIRCLE
  5
48A
100
AcDbEntity
  8
0
 62
     0
370
    -2
100
AcDbCircle
 10
0.0
 20
0.0
 30
0.0
 40
0.16666667
  0
LINE
  5
48B
100
AcDbEntity
  8
0
 62
     0
370
    -2
100
AcDbLine
 10
0.11786893
 20
0.11786893
 30
0.0
 11
0.35360678
 21
0.35360678
 31
0.0
  0
LINE
  5
48C
100
AcDbEntity
  8
0
 62
     0
370
    -2
100
AcDbLine
 10
-0.11786893
 20
0.11786893
 30
0.0
 11
-0.35360678
 21
0.35360678
 31
0.0
  0
LINE
  5
48D
100
AcDbEntity
  8
0
 62
     0
370
    -2
100
AcDbLine
 10
0.11786893
 20
-0.11786893
 30
0.0
 11
0.35360678
 21
-0.35360678
 31
0.0
  0
LINE
  5
48E
100
AcDbEntity
  8
0
 62
     0
370
    -2
100
AcDbLine
 10
-0.11786893
 20
-0.11786893
 30
0.0
 11
-0.35360678
 21
-0.35360678
 31
0.0
  0
ENDBLK
  5
48F
100
AcDbEntity
100
AcDbBlockEnd
  0
BLOCK
  5
490
100
AcDbEntity
  8
0
100
AcDbBlockBegin
  2
CDWK_PTTYP33
 70
     0
 10
0.0
 20
0.0
 30
0.0
  3
CDWK_PTTYP33
  1

  4
Cadwork node
  0
CIRCLE
  5
491
100
AcDbEntity
  8
0
 62
     0
370
    -2
100
AcDbCircle
 10
0.0
 20
0.0
 30
0.0
 40
0.5
  0
LINE
  5
492
100
AcDbEntity
  8
0
 62
     0
370
    -2
100
AcDbLine
 10
0.0
 20
0.5
 30
0.0
 11
0.0
 21
-0.5
 31
0.0
  0
LINE
  5
493
100
AcDbEntity
  8
0
 62
     0
370
    -2
100
AcDbLine
 10
-0.5
 20
0.0
 30
0.0
 11
0.5
 21
0.0
 31
0.0
  0
ENDBLK
  5
494
100
AcDbEntity
100
AcDbBlockEnd
  0
BLOCK
  5
495
100
AcDbEntity
  8
0
100
AcDbBlockBegin
  2
CDWK_PTTYP34
 70
     0
 10
0.0
 20
0.0
 30
0.0
  3
CDWK_PTTYP34
  1

  4
Cadwork node
  0
CIRCLE
  5
496
100
AcDbEntity
  8
0
 62
     0
370
    -2
100
AcDbCircle
 10
0.0
 20
0.0
 30
0.0
 40
0.5
  0
LINE
  5
497
100
AcDbEntity
  8
0
 62
     0
370
    -2
100
AcDbLine
 10
-0.30360678
 20
-0.40360678
 30
0.0
 11
0.40360678
 21
0.30360678
 31
0.0
  0
LINE
  5
498
100
AcDbEntity
  8
0
 62
     0
370
    -2
100
AcDbLine
 10
-0.40360678
 20
-0.30360678
 30
0.0
 11
0.30360678
 21
0.40360678
 31
0.0
  0
ENDBLK
  5
499
100
AcDbEntity
100
AcDbBlockEnd
  0
BLOCK
  5
49A
100
AcDbEntity
  8
0
100
AcDbBlockBegin
  2
CDWK_PTTYP35
 70
     0
 10
0.0
 20
0.0
 30
0.0
  3
CDWK_PTTYP35
  1

  4
Cadwork node
  0
CIRCLE
  5
49B
100
AcDbEntity
  8
0
 62
     0
370
    -2
100
AcDbCircle
 10
0.0
 20
0.0
 30
0.0
 40
0.21431634
  0
LINE
  5
49C
100
AcDbEntity
  8
0
 62
     0
370
    -2
100
AcDbLine
 10
0.0
 20
0.21431634
 30
0.0
 11
0.0
 21
0.5
 31
0.0
  0
LINE
  5
49D
100
AcDbEntity
  8
0
 62
     0
370
    -2
100
AcDbLine
 10
0.0
 20
-0.21431634
 30
0.0
 11
0.0
 21
-0.5
 31
0.0
  0
ENDBLK
  5
49E
100
AcDbEntity
100
AcDbBlockEnd
  0
BLOCK
  5
49F
100
AcDbEntity
  8
0
100
AcDbBlockBegin
  2
CDWK_PTTYP36
 70
     0
 10
0.0
 20
0.0
 30
0.0
  3
CDWK_PTTYP36
  1

  4
Cadwork node
  0
LINE
  5
4A0
100
AcDbEntity
  8
0
 62
     0
370
    -2
100
AcDbLine
 10
-0.5
 20
-0.16666667
 30
0.0
 11
0.5
 21
-0.16666667
 31
0.0
  0
LINE
  5
4A1
100
AcDbEntity
  8
0
 62
     0
370
    -2
100
AcDbLine
 10
0.5
 20
-0.16666667
 30
0.0
 11
0.5
 21
0.16666667
 31
0.0
  0
LINE
  5
4A2
100
AcDbEntity
  8
0
 62
     0
370
    -2
100
AcDbLine
 10
0.5
 20
0.16666667
 30
0.0
 11
-0.5
 21
0.16666667
 31
0.0
  0
LINE
  5
4A3
100
AcDbEntity
  8
0
 62
     0
370
    -2
100
AcDbLine
 10
-0.5
 20
0.16666667
 30
0.0
 11
-0.5
 21
-0.16666667
 31
0.0
  0
SOLID
  5
4A4
100
AcDbEntity
  8
0
 62
     0
100
AcDbTrace
 10
-0.5
 20
-0.16666667
 11
0.5
 21
0.16666667
 12
0.5
 22
-0.16666667
 13
0.5
 23
-0.16666667
  0
ENDBLK
  5
4A5
100
AcDbEntity
100
AcDbBlockEnd
  0
BLOCK
  5
4A6
100
AcDbEntity
  8
0
100
AcDbBlockBegin
  2
CDWK_PTTYP37
 70
     0
 10
0.0
 20
0.0
 30
0.0
  3
CDWK_PTTYP37
  1

  4
Cadwork node
  0
CIRCLE
  5
4A7
100
AcDbEntity
  8
0
 62
     0
370
    -2
100
AcDbCircle
 10
0.0
 20
0.0
 30
0.0
 40
0.5
  0
SOLID
  5
4A8
100
AcDbEntity
  8
0
 62
     0
100
AcDbTrace
 10
0.0
 20
0.0
 11
0.35350001
 21
0.35350001
 12
0.5
 22
0.0
 13
0.46200001
 23
0.19149999
  0
SOLID
  5
4A9
100
AcDbEntity
  8
0
 62
     0
100
AcDbTrace
 10
0.0
 20
0.0
 11
0.35350001
 21
-0.35350001
 12
0.5
 22
0.0
 13
0.46200001
 23
-0.19149999
  0
SOLID
  5
4AA
100
AcDbEntity
  8
0
 62
     0
100
AcDbTrace
 10
0.0
 20
0.0
 11
0.0
 21
-0.5
 12
0.35350001
 22
-0.35350001
 13
0.19149999
 23
-0.46200001
  0
SOLID
  5
4AB
100
AcDbEntity
  8
0
 62
     0
100
AcDbTrace
 10
0.0
 20
0.0
 11
0.0
 21
-0.5
 12
-0.35350001
 22
-0.35350001
 13
-0.19149999
 23
-0.46200001
  0
ENDBLK
  5
4AC
100
AcDbEntity
100
AcDbBlockEnd
  0
BLOCK
  5
4AD
100
AcDbEntity
  8
0
100
AcDbBlockBegin
  2
CDWK_PTTYP38
 70
     0
 10
0.0
 20
0.0
 30
0.0
  3
CDWK_PTTYP38
  1

  4
Cadwork node
  0
CIRCLE
  5
4AE
100
AcDbEntity
  8
0
 62
     0
370
    -2
100
AcDbCircle
 10
0.0
 20
0.0
 30
0.0
 40
0.5
  0
SOLID
  5
4AF
100
AcDbEntity
  8
0
 62
     0
100
AcDbTrace
 10
0.0
 20
0.0
 11
0.35350001
 21
0.35350001
 12
0.0
 22
0.5
 13
0.19149999
 23
0.46200001
  0
SOLID
  5
4B0
100
AcDbEntity
  8
0
 62
     0
100
AcDbTrace
 10
0.0
 20
0.0
 11
0.5
 21
0.0
 12
0.35350001
 22
0.35350001
 13
0.46200001
 23
0.19149999
  0
SOLID
  5
4B1
100
AcDbEntity
  8
0
 62
     0
100
AcDbTrace
 10
0.0
 20
0.0
 11
0.0
 21
-0.5
 12
-0.35350001
 22
-0.35350001
 13
-0.19149999
 23
-0.46200001
  0
SOLID
  5
4B2
100
AcDbEntity
  8
0
 62
     0
100
AcDbTrace
 10
0.0
 20
0.0
 11
-0.5
 21
0.0
 12
-0.35350001
 22
-0.35350001
 13
-0.46200001
 23
-0.19149999
  0
ENDBLK
  5
4B3
100
AcDbEntity
100
AcDbBlockEnd
  0
ENDSEC
  0
SECTION
  2
ENTITIES
  0
LWPOLYLINE
  5
4B4
100
AcDbEntity
  8
Ech.1_5
 62
   190
  6
CONTINUOUS
370
    -3
100
AcDbPolyline
 90
        9
 70
     1
 43
0.0
 10
35964.9618832
 20
-32274.90252979
 10
35948.47552932
 20
-32256.92417818
 10
35962.5854689
 20
-32292.87987819
 10
35946.0999657
 20
-32274.90252979
 10
35884.08020366
 20
-32274.90458457
 10
35884.08190979
 20
-31997.2563323
 10
35884.08161116
 20
-31523.82619907
 10
36029.08165757
 20
-31523.82619907
 10
36029.08165757
 20
-32274.90404122
  0
LINE
  5
4B5
100
AcDbEntity
  8
Ech.1_5
 62
    36
  6
CONTINUOUS
370
    -3
100
AcDbLine
 10
36555.50872182
 20
-32304.176921
 30
0.0
 11
36555.5087213
 21
-32275.84835437
 31
0.0
  0
LINE
  5
4B6
100
AcDbEntity
  8
Ech.1_5
 62
    36
  6
CONTINUOUS
370
    -3
100
AcDbLine
 10
36557.19102074
 20
-32276.18457346
 30
0.0
 11
36557.19102126
 21
-32304.51314009
 31
0.0
  0
LINE
  5
4B7
100
AcDbEntity
  8
Ech.1_5
 62
    36
  6
CONTINUOUS
370
    -3
100
AcDbLine
 10
36449.4675746
 20
-32282.98386998
 30
0.0
 11
36449.46757408
 21
-32254.65530334
 31
0.0
  0
LINE
  5
4B8
100
AcDbEntity
  8
Ech.1_5
 62
    36
  6
CONTINUOUS
370
    -3
100
AcDbLine
 10
36451.14987353
 20
-32254.99152243
 30
0.0
 11
36451.14987405
 21
-32283.32008907
 31
0.0
  0
LWPOLYLINE
  5
4B9
100
AcDbEntity
  8
Ech.1_5
 62
    36
  6
CONTINUOUS
370
    -3
100
AcDbPolyline
 90
        4
 70
     0
 43
0.0
 10
36477.84630007
 20
-32277.83698057
 10
36467.32689074
 20
-32275.73460442
 10
36467.32689074
 20
-32275.73460442
 10
36467.32689055
 20
-32265.30675069
  0
LINE
  5
4BA
100
AcDbEntity
  8
Ech.1_5
 62
    36
  6
CONTINUOUS
370
    -3
100
AcDbLine
 10
36466.06999732
 20
-32276.18463312
 30
0.0
 11
36467.32689074
 21
-32275.73460442
 31
0.0
  0
LWPOLYLINE
  5
4BB
100
AcDbEntity
  8
Ech.1_5
 62
    36
  6
CONTINUOUS
370
    -3
100
AcDbPolyline
 90
        4
 70
     0
 43
0.0
 10
36466.06999712
 20
-32265.0555515
 10
36466.06999732
 20
-32276.18463312
 10
36466.06999732
 20
-32276.18463312
 10
36477.84628598
 20
-32278.53820523
  0
LWPOLYLINE
  5
4BC
100
AcDbEntity
  8
Ech.1_5
 62
    36
  6
CONTINUOUS
370
    -3
100
AcDbPolyline
 90
        4
 70
     0
 43
0.0
 10
36477.84628598
 20
-32278.53820523
 10
36477.84628578
 20
-32267.40912361
 10
36477.84628578
 20
-32267.40912361
 10
36466.06999712
 20
-32265.0555515
  0
LINE
  5
4BD
100
AcDbEntity
  8
Ech.1_5
 62
    36
  6
CONTINUOUS
370
    -3
100
AcDbLine
 10
36492.7664091
 20
-32263.30887268
 30
0.0
 11
36492.76640962
 21
-32291.63743931
 31
0.0
  0
LINE
  5
4BE
100
AcDbEntity
  8
Ech.1_5
 62
    36
  6
CONTINUOUS
370
    -3
100
AcDbLine
 10
36494.44870855
 20
-32263.64509177
 30
0.0
 11
36494.44870907
 21
-32291.9736584
 31
0.0
  0
LINE
  5
4BF
100
AcDbEntity
  8
Ech.1_5
 62
    36
  6
CONTINUOUS
370
    -3
100
AcDbLine
 10
36494.44870855
 20
-32263.64509177
 30
0.0
 11
36513.30211659
 21
-32256.89465873
 31
0.0
  0
LINE
  5
4C0
100
AcDbEntity
  8
Ech.1_5
 62
    36
  6
CONTINUOUS
370
    -3
100
AcDbLine
 10
36494.44870907
 20
-32291.9736584
 30
0.0
 11
36513.3021171
 21
-32285.22322536
 31
0.0
  0
LINE
  5
4C1
100
AcDbEntity
  8
Ech.1_5
 62
    36
  6
CONTINUOUS
370
    -3
100
AcDbLine
 10
36449.46757349
 20
-32222.27979449
 30
0.0
 11
36449.46757297
 21
-32193.95122484
 31
0.0
  0
LINE
  5
4C2
100
AcDbEntity
  8
Ech.1_5
 62
    36
  6
CONTINUOUS
370
    -3
100
AcDbLine
 10
36451.14987242
 20
-32194.28744393
 30
0.0
 11
36451.14987294
 21
-32222.61601358
 31
0.0
  0
LWPOLYLINE
  5
4C3
100
AcDbEntity
  8
Ech.1_5
 62
    36
  6
CONTINUOUS
370
    -3
100
AcDbPolyline
 90
        4
 70
     0
 43
0.0
 10
36477.84629896
 20
-32217.13290447
 10
36467.32688963
 20
-32215.03052832
 10
36467.32688963
 20
-32215.03052832
 10
36467.32688944
 20
-32204.60267942
  0
LINE
  5
4C4
100
AcDbEntity
  8
Ech.1_5
 62
    36
  6
CONTINUOUS
370
    -3
100
AcDbLine
 10
36466.06999621
 20
-32215.48055703
 30
0.0
 11
36467.32688963
 21
-32215.03052832
 31
0.0
  0
LWPOLYLINE
  5
4C5
100
AcDbEntity
  8
Ech.1_5
 62
    36
  6
CONTINUOUS
370
    -3
100
AcDbPolyline
 90
        4
 70
     0
 43
0.0
 10
36466.069996
 20
-32204.35148265
 10
36466.06999621
 20
-32215.48055703
 10
36466.06999621
 20
-32215.48055703
 10
36477.84628487
 20
-32217.83412914
  0
LWPOLYLINE
  5
4C6
100
AcDbEntity
  8
Ech.1_5
 62
    36
  6
CONTINUOUS
370
    -3
100
AcDbPolyline
 90
        4
 70
     0
 43
0.0
 10
36477.84628487
 20
-32217.83412914
 10
36477.84628466
 20
-32206.70505475
 10
36477.84628466
 20
-32206.70505475
 10
36466.069996
 20
-32204.35148265
  0
LINE
  5
4C7
100
AcDbEntity
  8
Ech.1_5
 62
    36
  6
CONTINUOUS
370
    -3
100
AcDbLine
 10
36492.76640799
 20
-32202.60479418
 30
0.0
 11
36492.76640851
 21
-32230.93336382
 31
0.0
  0
LINE
  5
4C8
100
AcDbEntity
  8
Ech.1_5
 62
    36
  6
CONTINUOUS
370
    -3
100
AcDbLine
 10
36494.44870744
 20
-32202.94101327
 30
0.0
 11
36494.44870796
 21
-32231.26958291
 31
0.0
  0
LINE
  5
4C9
100
AcDbEntity
  8
Ech.1_5
 62
    36
  6
CONTINUOUS
370
    -3
100
AcDbLine
 10
36494.44870744
 20
-32202.94101327
 30
0.0
 11
36513.30211547
 21
-32196.19058023
 31
0.0
  0
LINE
  5
4CA
100
AcDbEntity
  8
Ech.1_5
 62
    36
  6
CONTINUOUS
370
    -3
100
AcDbLine
 10
36494.44870796
 20
-32231.26958291
 30
0.0
 11
36513.30211599
 21
-32224.51914988
 31
0.0
  0
LWPOLYLINE
  5
4CB
100
AcDbEntity
  8
Ech.1_5
 62
    36
  6
CONTINUOUS
370
    -3
100
AcDbPolyline
 90
        4
 70
     0
 43
0.0
 10
36583.88744617
 20
-32238.3259555
 10
36573.36803684
 20
-32236.22357935
 10
36573.36803684
 20
-32236.22357935
 10
36573.36803665
 20
-32225.79573044
  0
LINE
  5
4CC
100
AcDbEntity
  8
Ech.1_5
 62
    36
  6
CONTINUOUS
370
    -3
100
AcDbLine
 10
36572.11114342
 20
-32236.67360805
 30
0.0
 11
36573.36803684
 21
-32236.22357935
 31
0.0
  0
LWPOLYLINE
  5
4CD
100
AcDbEntity
  8
Ech.1_5
 62
    36
  6
CONTINUOUS
370
    -3
100
AcDbPolyline
 90
        4
 70
     0
 43
0.0
 10
36572.11114322
 20
-32225.54453367
 10
36572.11114342
 20
-32236.67360805
 10
36572.11114342
 20
-32236.67360805
 10
36583.88743208
 20
-32239.02718016
  0
LWPOLYLINE
  5
4CE
100
AcDbEntity
  8
Ech.1_5
 62
    36
  6
CONTINUOUS
370
    -3
100
AcDbPolyline
 90
        4
 70
     0
 43
0.0
 10
36583.88743208
 20
-32239.02718016
 10
36583.88743188
 20
-32227.89810578
 10
36583.88743188
 20
-32227.89810578
 10
36572.11114322
 20
-32225.54453367
  0
LINE
  5
4CF
100
AcDbEntity
  8
Ech.1_5
 62
    36
  6
CONTINUOUS
370
    -3
100
AcDbLine
 10
36598.8075552
 20
-32223.7978452
 30
0.0
 11
36598.80755572
 21
-32252.12641485
 31
0.0
  0
LINE
  5
4D0
100
AcDbEntity
  8
Ech.1_5
 62
    36
  6
CONTINUOUS
370
    -3
100
AcDbLine
 10
36557.19102015
 20
-32243.8090646
 30
0.0
 11
36557.19101963
 21
-32215.48049495
 31
0.0
  0
LWPOLYLINE
  5
4D1
100
AcDbEntity
  8
Ech.1_5
 62
    36
  6
CONTINUOUS
370
    -3
100
AcDbPolyline
 90
        4
 70
     0
 43
0.0
 10
36583.88744729
 20
-32299.03003159
 10
36573.36803795
 20
-32296.92765544
 10
36573.36803795
 20
-32296.92765544
 10
36573.36803776
 20
-32286.49980171
  0
LINE
  5
4D2
100
AcDbEntity
  8
Ech.1_5
 62
    36
  6
CONTINUOUS
370
    -3
100
AcDbLine
 10
36572.11114454
 20
-32297.37768415
 30
0.0
 11
36573.36803795
 21
-32296.92765544
 31
0.0
  0
LWPOLYLINE
  5
4D3
100
AcDbEntity
  8
Ech.1_5
 62
    36
  6
CONTINUOUS
370
    -3
100
AcDbPolyline
 90
        4
 70
     0
 43
0.0
 10
36572.11114433
 20
-32286.24860253
 10
36572.11114454
 20
-32297.37768415
 10
36572.11114454
 20
-32297.37768415
 10
36583.8874332
 20
-32299.73125626
  0
LWPOLYLINE
  5
4D4
100
AcDbEntity
  8
Ech.1_5
 62
    36
  6
CONTINUOUS
370
    -3
100
AcDbPolyline
 90
        4
 70
     0
 43
0.0
 10
36583.8874332
 20
-32299.73125626
 10
36583.88743299
 20
-32288.60217463
 10
36583.88743299
 20
-32288.60217463
 10
36572.11114433
 20
-32286.24860253
  0
LINE
  5
4D5
100
AcDbEntity
  8
Ech.1_5
 62
    36
  6
CONTINUOUS
370
    -3
100
AcDbLine
 10
36598.80755632
 20
-32284.5019237
 30
0.0
 11
36598.80755684
 21
-32312.83049034
 31
0.0
  0
LINE
  5
4D6
100
AcDbEntity
  8
Ech.1_5
 62
    36
  6
CONTINUOUS
370
    -3
100
AcDbLine
 10
36600.48985577
 20
-32284.83814279
 30
0.0
 11
36600.48985629
 21
-32313.16670943
 31
0.0
  0
LINE
  5
4D7
100
AcDbEntity
  8
Ech.1_5
 62
    36
  6
CONTINUOUS
370
    -3
100
AcDbLine
 10
36600.48985577
 20
-32284.83814279
 30
0.0
 11
36619.3432638
 21
-32278.08770976
 31
0.0
  0
LINE
  5
4D8
100
AcDbEntity
  8
Ech.1_5
 62
    36
  6
CONTINUOUS
370
    -3
100
AcDbLine
 10
36600.48985629
 20
-32313.16670943
 30
0.0
 11
36619.34326432
 21
-32306.41627639
 31
0.0
  0
LINE
  5
4D9
100
AcDbEntity
  8
Ech.1_5
 62
    36
  6
CONTINUOUS
370
    -3
100
AcDbLine
 10
36555.50872015
 20
-32213.12080867
 30
0.0
 11
36555.50871963
 21
-32184.79223902
 31
0.0
  0
LINE
  5
4DA
100
AcDbEntity
  8
Ech.1_5
 62
    36
  6
CONTINUOUS
370
    -3
100
AcDbLine
 10
36557.19101907
 20
-32185.12845811
 30
0.0
 11
36557.19101959
 21
-32213.45702776
 31
0.0
  0
LINE
  5
4DB
100
AcDbEntity
  8
Ech.1_5
 62
    36
  6
CONTINUOUS
370
    -3
100
AcDbLine
 10
36598.80755517
 20
-32221.77437801
 30
0.0
 11
36598.80755465
 21
-32193.44580836
 31
0.0
  0
LINE
  5
4DC
100
AcDbEntity
  8
Ech.1_5
 62
    36
  6
CONTINUOUS
370
    -3
100
AcDbLine
 10
36600.4898541
 20
-32193.78202745
 30
0.0
 11
36600.48985462
 21
-32222.1105971
 31
0.0
  0
LINE
  5
4DD
100
AcDbEntity
  8
Ech.1_5
 62
    36
  6
CONTINUOUS
370
    -3
100
AcDbLine
 10
36600.4898541
 20
-32193.78202745
 30
0.0
 11
36619.34326213
 21
-32187.03159441
 31
0.0
  0
LINE
  5
4DE
100
AcDbEntity
  8
Ech.1_5
 62
    36
  6
CONTINUOUS
370
    -3
100
AcDbLine
 10
36600.48985462
 20
-32222.1105971
 30
0.0
 11
36619.34326265
 21
-32215.36016406
 31
0.0
  0
LWPOLYLINE
  5
4DF
100
AcDbEntity
  8
Ech.1_5
 62
    36
  6
CONTINUOUS
370
    -3
100
AcDbPolyline
 90
        4
 70
     0
 43
0.0
 10
36477.84629729
 20
-32126.0768036
 10
36467.32688796
 20
-32123.97442745
 10
36467.32688796
 20
-32123.97442745
 10
36467.32688777
 20
-32113.5465689
  0
LINE
  5
4E0
100
AcDbEntity
  8
Ech.1_5
 62
    36
  6
CONTINUOUS
370
    -3
100
AcDbLine
 10
36466.06999454
 20
-32124.42445616
 30
0.0
 11
36467.32688796
 21
-32123.97442745
 31
0.0
  0
LWPOLYLINE
  5
4E1
100
AcDbEntity
  8
Ech.1_5
 62
    36
  6
CONTINUOUS
370
    -3
100
AcDbPolyline
 90
        4
 70
     0
 43
0.0
 10
36466.06999433
 20
-32113.29537213
 10
36466.06999454
 20
-32124.42445616
 10
36466.06999454
 20
-32124.42445616
 10
36477.8462832
 20
-32126.77802827
  0
LWPOLYLINE
  5
4E2
100
AcDbEntity
  8
Ech.1_5
 62
    36
  6
CONTINUOUS
370
    -3
100
AcDbPolyline
 90
        4
 70
     0
 43
0.0
 10
36477.8462832
 20
-32126.77802827
 10
36477.84628299
 20
-32115.64894423
 10
36477.84628299
 20
-32115.64894423
 10
36466.06999433
 20
-32113.29537213
  0
LINE
  5
4E3
100
AcDbEntity
  8
Ech.1_5
 62
    36
  6
CONTINUOUS
370
    -3
100
AcDbLine
 10
36492.76640632
 20
-32111.54868365
 30
0.0
 11
36492.76640684
 21
-32139.8772533
 31
0.0
  0
LINE
  5
4E4
100
AcDbEntity
  8
Ech.1_5
 62
    36
  6
CONTINUOUS
370
    -3
100
AcDbLine
 10
36451.14987127
 20
-32131.55990306
 30
0.0
 11
36451.14987075
 21
-32103.23133341
 31
0.0
  0
LINE
  5
4E5
100
AcDbEntity
  8
Ech.1_5
 62
    36
  6
CONTINUOUS
370
    -3
100
AcDbLine
 10
36494.44870577
 20
-32111.88490274
 30
0.0
 11
36494.44870629
 21
-32140.21347239
 31
0.0
  0
LINE
  5
4E6
100
AcDbEntity
  8
Ech.1_5
 62
    36
  6
CONTINUOUS
370
    -3
100
AcDbLine
 10
36494.44870577
 20
-32111.88490274
 30
0.0
 11
36513.3021138
 21
-32105.13446971
 31
0.0
  0
LINE
  5
4E7
100
AcDbEntity
  8
Ech.1_5
 62
    36
  6
CONTINUOUS
370
    -3
100
AcDbLine
 10
36494.44870629
 20
-32140.21347239
 30
0.0
 11
36513.30211432
 21
-32133.46303935
 31
0.0
  0
LINE
  5
4E8
100
AcDbEntity
  8
Ech.1_5
 62
    36
  6
CONTINUOUS
370
    -3
100
AcDbLine
 10
36449.46757182
 20
-32131.22368397
 30
0.0
 11
36449.4675713
 21
-32102.89511432
 31
0.0
  0
LWPOLYLINE
  5
4E9
100
AcDbEntity
  8
Ech.1_5
 62
    36
  6
CONTINUOUS
370
    -3
100
AcDbPolyline
 90
        4
 70
     0
 43
0.0
 10
36583.8874445
 20
-32147.26985462
 10
36573.36803517
 20
-32145.16747847
 10
36573.36803517
 20
-32145.16747847
 10
36573.36803498
 20
-32134.73961992
  0
LINE
  5
4EA
100
AcDbEntity
  8
Ech.1_5
 62
    36
  6
CONTINUOUS
370
    -3
100
AcDbLine
 10
36572.11114175
 20
-32145.61750718
 30
0.0
 11
36573.36803517
 21
-32145.16747847
 31
0.0
  0
LWPOLYLINE
  5
4EB
100
AcDbEntity
  8
Ech.1_5
 62
    36
  6
CONTINUOUS
370
    -3
100
AcDbPolyline
 90
        4
 70
     0
 43
0.0
 10
36572.11114155
 20
-32134.48842315
 10
36572.11114175
 20
-32145.61750718
 10
36572.11114175
 20
-32145.61750718
 10
36583.88743041
 20
-32147.97107929
  0
LWPOLYLINE
  5
4EC
100
AcDbEntity
  8
Ech.1_5
 62
    36
  6
CONTINUOUS
370
    -3
100
AcDbPolyline
 90
        4
 70
     0
 43
0.0
 10
36583.88743041
 20
-32147.97107929
 10
36583.88743021
 20
-32136.84199526
 10
36583.88743021
 20
-32136.84199526
 10
36572.11114155
 20
-32134.48842315
  0
LINE
  5
4ED
100
AcDbEntity
  8
Ech.1_5
 62
    36
  6
CONTINUOUS
370
    -3
100
AcDbLine
 10
36598.80755353
 20
-32132.74173468
 30
0.0
 11
36598.80755405
 21
-32161.07030432
 31
0.0
  0
LINE
  5
4EE
100
AcDbEntity
  8
Ech.1_5
 62
    36
  6
CONTINUOUS
370
    -3
100
AcDbLine
 10
36557.19101848
 20
-32152.75295408
 30
0.0
 11
36557.19101796
 21
-32124.42438443
 31
0.0
  0
LINE
  5
4EF
100
AcDbEntity
  8
Ech.1_5
 62
    36
  6
CONTINUOUS
370
    -3
100
AcDbLine
 10
36555.50871903
 20
-32152.41673499
 30
0.0
 11
36555.50871851
 21
-32124.08816534
 31
0.0
  0
LINE
  5
4F0
100
AcDbEntity
  8
Ech.1_5
 62
    36
  6
CONTINUOUS
370
    -3
100
AcDbLine
 10
36600.48985298
 20
-32133.07795377
 30
0.0
 11
36600.4898535
 21
-32161.40652341
 31
0.0
  0
LINE
  5
4F1
100
AcDbEntity
  8
Ech.1_5
 62
    36
  6
CONTINUOUS
370
    -3
100
AcDbLine
 10
36600.48985298
 20
-32133.07795377
 30
0.0
 11
36619.34326102
 21
-32126.32752073
 31
0.0
  0
LINE
  5
4F2
100
AcDbEntity
  8
Ech.1_5
 62
    36
  6
CONTINUOUS
370
    -3
100
AcDbLine
 10
36600.4898535
 20
-32161.40652341
 30
0.0
 11
36619.34326154
 21
-32154.65609038
 31
0.0
  0
LINE
  5
4F3
100
AcDbEntity
  8
Ech.1_5
 62
    36
  6
CONTINUOUS
370
    -3
100
AcDbLine
 10
36600.48985465
 20
-32224.13406429
 30
0.0
 11
36600.48985517
 21
-32252.46263394
 31
0.0
  0
LINE
  5
4F4
100
AcDbEntity
  8
Ech.1_5
 62
    36
  6
CONTINUOUS
370
    -3
100
AcDbLine
 10
36600.48985465
 20
-32224.13406429
 30
0.0
 11
36619.34326269
 21
-32217.38363125
 31
0.0
  0
LINE
  5
4F5
100
AcDbEntity
  8
Ech.1_5
 62
    36
  6
CONTINUOUS
370
    -3
100
AcDbLine
 10
36600.48985517
 20
-32252.46263394
 30
0.0
 11
36619.34326321
 21
-32245.7122009
 31
0.0
  0
LINE
  5
4F6
100
AcDbEntity
  8
Ech.1_5
 62
    36
  6
CONTINUOUS
370
    -3
100
AcDbLine
 10
36555.5087207
 20
-32243.47284551
 30
0.0
 11
36555.50872018
 21
-32215.14427586
 31
0.0
  0
LINE
  5
4F7
100
AcDbEntity
  8
Ech.1_5
 62
    36
  6
CONTINUOUS
370
    -3
100
AcDbLine
 10
36449.46757238
 20
-32161.57572081
 30
0.0
 11
36449.46757186
 21
-32133.24715116
 31
0.0
  0
LINE
  5
4F8
100
AcDbEntity
  8
Ech.1_5
 62
    36
  6
CONTINUOUS
370
    -3
100
AcDbLine
 10
36451.1498713
 20
-32133.58337025
 30
0.0
 11
36451.14987182
 21
-32161.9119399
 31
0.0
  0
LWPOLYLINE
  5
4F9
100
AcDbEntity
  8
Ech.1_5
 62
    36
  6
CONTINUOUS
370
    -3
100
AcDbPolyline
 90
        4
 70
     0
 43
0.0
 10
36477.84629785
 20
-32156.42883079
 10
36467.32688851
 20
-32154.32645464
 10
36467.32688851
 20
-32154.32645464
 10
36467.32688832
 20
-32143.89860574
  0
LINE
  5
4FA
100
AcDbEntity
  8
Ech.1_5
 62
    36
  6
CONTINUOUS
370
    -3
100
AcDbLine
 10
36466.06999509
 20
-32154.77648335
 30
0.0
 11
36467.32688851
 21
-32154.32645464
 31
0.0
  0
LWPOLYLINE
  5
4FB
100
AcDbEntity
  8
Ech.1_5
 62
    36
  6
CONTINUOUS
370
    -3
100
AcDbPolyline
 90
        4
 70
     0
 43
0.0
 10
36466.06999489
 20
-32143.64740897
 10
36466.06999509
 20
-32154.77648335
 10
36466.06999509
 20
-32154.77648335
 10
36477.84628376
 20
-32157.13005546
  0
LWPOLYLINE
  5
4FC
100
AcDbEntity
  8
Ech.1_5
 62
    36
  6
CONTINUOUS
370
    -3
100
AcDbPolyline
 90
        4
 70
     0
 43
0.0
 10
36477.84628376
 20
-32157.13005546
 10
36477.84628355
 20
-32146.00098107
 10
36477.84628355
 20
-32146.00098107
 10
36466.06999489
 20
-32143.64740897
  0
LINE
  5
4FD
100
AcDbEntity
  8
Ech.1_5
 62
    36
  6
CONTINUOUS
370
    -3
100
AcDbLine
 10
36492.76640688
 20
-32141.90072049
 30
0.0
 11
36492.7664074
 21
-32170.22929014
 31
0.0
  0
LINE
  5
4FE
100
AcDbEntity
  8
Ech.1_5
 62
    36
  6
CONTINUOUS
370
    -3
100
AcDbLine
 10
36494.44870633
 20
-32142.23693958
 30
0.0
 11
36494.44870685
 21
-32170.56550923
 31
0.0
  0
LINE
  5
4FF
100
AcDbEntity
  8
Ech.1_5
 62
    36
  6
CONTINUOUS
370
    -3
100
AcDbLine
 10
36494.44870633
 20
-32142.23693958
 30
0.0
 11
36513.30211436
 21
-32135.48650655
 31
0.0
  0
LINE
  5
500
100
AcDbEntity
  8
Ech.1_5
 62
    36
  6
CONTINUOUS
370
    -3
100
AcDbLine
 10
36494.44870685
 20
-32170.56550923
 30
0.0
 11
36513.30211488
 21
-32163.81507619
 31
0.0
  0
LWPOLYLINE
  5
501
100
AcDbEntity
  8
Ech.1_5
 62
    36
  6
CONTINUOUS
370
    -3
100
AcDbPolyline
 90
        4
 70
     0
 43
0.0
 10
36583.88744506
 20
-32177.62188182
 10
36573.36803573
 20
-32175.51950567
 10
36573.36803573
 20
-32175.51950567
 10
36573.36803554
 20
-32165.09165676
  0
LINE
  5
502
100
AcDbEntity
  8
Ech.1_5
 62
    36
  6
CONTINUOUS
370
    -3
100
AcDbLine
 10
36572.11114231
 20
-32175.96953437
 30
0.0
 11
36573.36803573
 21
-32175.51950567
 31
0.0
  0
LWPOLYLINE
  5
503
100
AcDbEntity
  8
Ech.1_5
 62
    36
  6
CONTINUOUS
370
    -3
100
AcDbPolyline
 90
        4
 70
     0
 43
0.0
 10
36572.1111421
 20
-32164.84045999
 10
36572.11114231
 20
-32175.96953437
 10
36572.11114231
 20
-32175.96953437
 10
36583.88743097
 20
-32178.32310648
  0
LWPOLYLINE
  5
504
100
AcDbEntity
  8
Ech.1_5
 62
    36
  6
CONTINUOUS
370
    -3
100
AcDbPolyline
 90
        4
 70
     0
 43
0.0
 10
36583.88743097
 20
-32178.32310648
 10
36583.88743076
 20
-32167.1940321
 10
36583.88743076
 20
-32167.1940321
 10
36572.1111421
 20
-32164.84045999
  0
LINE
  5
505
100
AcDbEntity
  8
Ech.1_5
 62
    36
  6
CONTINUOUS
370
    -3
100
AcDbLine
 10
36598.80755409
 20
-32163.09377152
 30
0.0
 11
36598.80755461
 21
-32191.42234116
 31
0.0
  0
LINE
  5
506
100
AcDbEntity
  8
Ech.1_5
 62
    36
  6
CONTINUOUS
370
    -3
100
AcDbLine
 10
36557.19101904
 20
-32183.10499092
 30
0.0
 11
36557.19101852
 21
-32154.77642127
 31
0.0
  0
LINE
  5
507
100
AcDbEntity
  8
Ech.1_5
 62
    36
  6
CONTINUOUS
370
    -3
100
AcDbLine
 10
36600.48985354
 20
-32163.42999061
 30
0.0
 11
36600.48985406
 21
-32191.75856025
 31
0.0
  0
LINE
  5
508
100
AcDbEntity
  8
Ech.1_5
 62
    36
  6
CONTINUOUS
370
    -3
100
AcDbLine
 10
36600.48985354
 20
-32163.42999061
 30
0.0
 11
36619.34326157
 21
-32156.67955757
 31
0.0
  0
LINE
  5
509
100
AcDbEntity
  8
Ech.1_5
 62
    36
  6
CONTINUOUS
370
    -3
100
AcDbLine
 10
36600.48985406
 20
-32191.75856025
 30
0.0
 11
36619.34326209
 21
-32185.00812722
 31
0.0
  0
LINE
  5
50A
100
AcDbEntity
  8
Ech.1_5
 62
    36
  6
CONTINUOUS
370
    -3
100
AcDbLine
 10
36555.50871959
 20
-32182.76877183
 30
0.0
 11
36555.50871907
 21
-32154.44020218
 31
0.0
  0
LINE
  5
50B
100
AcDbEntity
  8
Ech.1_5
 62
    36
  6
CONTINUOUS
370
    -3
100
AcDbLine
 10
36598.80755628
 20
-32282.4784541
 30
0.0
 11
36598.80755576
 21
-32254.14988686
 31
0.0
  0
LINE
  5
50C
100
AcDbEntity
  8
Ech.1_5
 62
    36
  6
CONTINUOUS
370
    -3
100
AcDbLine
 10
36600.48985521
 20
-32254.48610595
 30
0.0
 11
36600.48985573
 21
-32282.81467319
 31
0.0
  0
LINE
  5
50D
100
AcDbEntity
  8
Ech.1_5
 62
    36
  6
CONTINUOUS
370
    -3
100
AcDbLine
 10
36600.48985521
 20
-32254.48610595
 30
0.0
 11
36619.34326324
 21
-32247.73567292
 31
0.0
  0
LINE
  5
50E
100
AcDbEntity
  8
Ech.1_5
 62
    36
  6
CONTINUOUS
370
    -3
100
AcDbLine
 10
36600.48985573
 20
-32282.81467319
 30
0.0
 11
36619.34326376
 21
-32276.06424015
 31
0.0
  0
LINE
  5
50F
100
AcDbEntity
  8
Ech.1_5
 62
    36
  6
CONTINUOUS
370
    -3
100
AcDbLine
 10
36555.50872126
 20
-32273.82488476
 30
0.0
 11
36555.50872074
 21
-32245.49631753
 31
0.0
  0
LINE
  5
510
100
AcDbEntity
  8
Ech.1_5
 62
    36
  6
CONTINUOUS
370
    -3
100
AcDbLine
 10
36557.19102019
 20
-32245.83253662
 30
0.0
 11
36557.19102071
 21
-32274.16110385
 31
0.0
  0
LINE
  5
511
100
AcDbEntity
  8
Ech.1_5
 62
    36
  6
CONTINUOUS
370
    -3
100
AcDbLine
 10
36449.46757405
 20
-32252.63183374
 30
0.0
 11
36449.46757353
 21
-32224.3032665
 31
0.0
  0
LINE
  5
512
100
AcDbEntity
  8
Ech.1_5
 62
    36
  6
CONTINUOUS
370
    -3
100
AcDbLine
 10
36451.14987297
 20
-32224.63948559
 30
0.0
 11
36451.14987349
 21
-32252.96805283
 31
0.0
  0
LINE
  5
513
100
AcDbEntity
  8
Ech.1_5
 62
    36
  6
CONTINUOUS
370
    -3
100
AcDbLine
 10
36492.76640907
 20
-32261.28540307
 30
0.0
 11
36492.76640855
 21
-32232.95683584
 31
0.0
  0
LINE
  5
514
100
AcDbEntity
  8
Ech.1_5
 62
    36
  6
CONTINUOUS
370
    -3
100
AcDbLine
 10
36494.448708
 20
-32233.29305493
 30
0.0
 11
36494.44870852
 21
-32261.62162217
 31
0.0
  0
LINE
  5
515
100
AcDbEntity
  8
Ech.1_5
 62
    36
  6
CONTINUOUS
370
    -3
100
AcDbLine
 10
36494.448708
 20
-32233.29305493
 30
0.0
 11
36513.30211603
 21
-32226.54262189
 31
0.0
  0
LINE
  5
516
100
AcDbEntity
  8
Ech.1_5
 62
    36
  6
CONTINUOUS
370
    -3
100
AcDbLine
 10
36494.44870852
 20
-32261.62162217
 30
0.0
 11
36513.30211655
 21
-32254.87118913
 31
0.0
  0
LWPOLYLINE
  5
517
100
AcDbEntity
  8
Ech.1_5
 62
    36
  6
CONTINUOUS
370
    -3
100
AcDbPolyline
 90
        4
 70
     0
 43
0.0
 10
36477.8462984
 20
-32186.78086763
 10
36467.32688907
 20
-32184.67849148
 10
36467.32688907
 20
-32184.67849148
 10
36467.32688888
 20
-32174.25064258
  0
LINE
  5
518
100
AcDbEntity
  8
Ech.1_5
 62
    36
  6
CONTINUOUS
370
    -3
100
AcDbLine
 10
36466.06999565
 20
-32185.12852019
 30
0.0
 11
36467.32688907
 21
-32184.67849148
 31
0.0
  0
LWPOLYLINE
  5
519
100
AcDbEntity
  8
Ech.1_5
 62
    36
  6
CONTINUOUS
370
    -3
100
AcDbPolyline
 90
        4
 70
     0
 43
0.0
 10
36466.06999545
 20
-32173.99944581
 10
36466.06999565
 20
-32185.12852019
 10
36466.06999565
 20
-32185.12852019
 10
36477.84628431
 20
-32187.4820923
  0
LWPOLYLINE
  5
51A
100
AcDbEntity
  8
Ech.1_5
 62
    36
  6
CONTINUOUS
370
    -3
100
AcDbPolyline
 90
        4
 70
     0
 43
0.0
 10
36477.84628431
 20
-32187.4820923
 10
36477.84628411
 20
-32176.35301791
 10
36477.84628411
 20
-32176.35301791
 10
36466.06999545
 20
-32173.99944581
  0
LINE
  5
51B
100
AcDbEntity
  8
Ech.1_5
 62
    36
  6
CONTINUOUS
370
    -3
100
AcDbLine
 10
36492.76640743
 20
-32172.25275733
 30
0.0
 11
36492.76640795
 21
-32200.58132698
 31
0.0
  0
LINE
  5
51C
100
AcDbEntity
  8
Ech.1_5
 62
    36
  6
CONTINUOUS
370
    -3
100
AcDbLine
 10
36451.14987238
 20
-32192.26397674
 30
0.0
 11
36451.14987186
 21
-32163.93540709
 31
0.0
  0
LINE
  5
51D
100
AcDbEntity
  8
Ech.1_5
 62
    36
  6
CONTINUOUS
370
    -3
100
AcDbLine
 10
36494.44870688
 20
-32172.58897642
 30
0.0
 11
36494.4487074
 21
-32200.91754607
 31
0.0
  0
LINE
  5
51E
100
AcDbEntity
  8
Ech.1_5
 62
    36
  6
CONTINUOUS
370
    -3
100
AcDbLine
 10
36494.44870688
 20
-32172.58897642
 30
0.0
 11
36513.30211492
 21
-32165.83854339
 31
0.0
  0
LINE
  5
51F
100
AcDbEntity
  8
Ech.1_5
 62
    36
  6
CONTINUOUS
370
    -3
100
AcDbLine
 10
36494.4487074
 20
-32200.91754607
 30
0.0
 11
36513.30211543
 21
-32194.16711303
 31
0.0
  0
LINE
  5
520
100
AcDbEntity
  8
Ech.1_5
 62
    36
  6
CONTINUOUS
370
    -3
100
AcDbLine
 10
36449.46757293
 20
-32191.92775765
 30
0.0
 11
36449.46757241
 21
-32163.599188
 31
0.0
  0
LWPOLYLINE
  5
521
100
AcDbEntity
  8
Ech.1_5
 62
    36
  6
CONTINUOUS
370
    -3
100
AcDbPolyline
 90
        4
 70
     0
 43
0.0
 10
36583.88744562
 20
-32207.97391866
 10
36573.36803628
 20
-32205.87154251
 10
36573.36803628
 20
-32205.87154251
 10
36573.36803609
 20
-32195.4436936
  0
LINE
  5
522
100
AcDbEntity
  8
Ech.1_5
 62
    36
  6
CONTINUOUS
370
    -3
100
AcDbLine
 10
36572.11114287
 20
-32206.32157121
 30
0.0
 11
36573.36803628
 21
-32205.87154251
 31
0.0
  0
LWPOLYLINE
  5
523
100
AcDbEntity
  8
Ech.1_5
 62
    36
  6
CONTINUOUS
370
    -3
100
AcDbPolyline
 90
        4
 70
     0
 43
0.0
 10
36572.11114266
 20
-32195.19249683
 10
36572.11114287
 20
-32206.32157121
 10
36572.11114287
 20
-32206.32157121
 10
36583.88743153
 20
-32208.67514332
  0
LWPOLYLINE
  5
524
100
AcDbEntity
  8
Ech.1_5
 62
    36
  6
CONTINUOUS
370
    -3
100
AcDbPolyline
 90
        4
 70
     0
 43
0.0
 10
36583.88743153
 20
-32208.67514332
 10
36583.88743132
 20
-32197.54606894
 10
36583.88743132
 20
-32197.54606894
 10
36572.11114266
 20
-32195.19249683
  0
LWPOLYLINE
  5
525
100
AcDbEntity
  8
Ech.1_5
 62
    36
  6
CONTINUOUS
370
    -3
100
AcDbPolyline
 90
        4
 70
     0
 43
0.0
 10
36477.84629952
 20
-32247.48494131
 10
36467.32689018
 20
-32245.38256516
 10
36467.32689018
 20
-32245.38256516
 10
36467.32688999
 20
-32234.95471626
  0
LINE
  5
526
100
AcDbEntity
  8
Ech.1_5
 62
    36
  6
CONTINUOUS
370
    -3
100
AcDbLine
 10
36466.06999676
 20
-32245.83259387
 30
0.0
 11
36467.32689018
 21
-32245.38256516
 31
0.0
  0
LWPOLYLINE
  5
527
100
AcDbEntity
  8
Ech.1_5
 62
    36
  6
CONTINUOUS
370
    -3
100
AcDbPolyline
 90
        4
 70
     0
 43
0.0
 10
36466.06999656
 20
-32234.70351466
 10
36466.06999676
 20
-32245.83259387
 10
36466.06999676
 20
-32245.83259387
 10
36477.84628543
 20
-32248.18616598
  0
LWPOLYLINE
  5
528
100
AcDbEntity
  8
Ech.1_5
 62
    36
  6
CONTINUOUS
370
    -3
100
AcDbPolyline
 90
        4
 70
     0
 43
0.0
 10
36477.84628543
 20
-32248.18616598
 10
36477.84628522
 20
-32237.05708677
 10
36477.84628522
 20
-32237.05708677
 10
36466.06999656
 20
-32234.70351466
  0
LWPOLYLINE
  5
529
100
AcDbEntity
  8
Ech.1_5
 62
    36
  6
CONTINUOUS
370
    -3
100
AcDbPolyline
 90
        4
 70
     0
 43
0.0
 10
36583.88744673
 20
-32268.67799234
 10
36573.3680374
 20
-32266.57561619
 10
36573.3680374
 20
-32266.57561619
 10
36573.36803721
 20
-32256.14776728
  0
LINE
  5
52A
100
AcDbEntity
  8
Ech.1_5
 62
    36
  6
CONTINUOUS
370
    -3
100
AcDbLine
 10
36572.11114398
 20
-32267.0256449
 30
0.0
 11
36573.3680374
 21
-32266.57561619
 31
0.0
  0
LWPOLYLINE
  5
52B
100
AcDbEntity
  8
Ech.1_5
 62
    36
  6
CONTINUOUS
370
    -3
100
AcDbPolyline
 90
        4
 70
     0
 43
0.0
 10
36572.11114377
 20
-32255.89656569
 10
36572.11114398
 20
-32267.0256449
 10
36572.11114398
 20
-32267.0256449
 10
36583.88743264
 20
-32269.379217
  0
LWPOLYLINE
  5
52C
100
AcDbEntity
  8
Ech.1_5
 62
    36
  6
CONTINUOUS
370
    -3
100
AcDbPolyline
 90
        4
 70
     0
 43
0.0
 10
36583.88743264
 20
-32269.379217
 10
36583.88743243
 20
-32258.25013779
 10
36583.88743243
 20
-32258.25013779
 10
36572.11114377
 20
-32255.89656569
  0
LINE
  5
52D
100
AcDbEntity
  8
Ech.1_5
 62
     9
  6
CONTINUOUS
370
    -3
100
AcDbLine
 10
36661.45982494
 20
-32284.41140124
 30
0.0
 11
36712.72852505
 21
-32266.05472395
 31
0.0
  0
LINE
  5
52E
100
AcDbEntity
  8
Ech.1_5
 62
     9
  6
CONTINUOUS
370
    -3
100
AcDbLine
 10
36661.45982497
 20
-32286.43487084
 30
0.0
 11
36661.45982494
 21
-32284.41140124
 31
0.0
  0
LINE
  5
52F
100
AcDbEntity
  8
Ech.1_5
 62
     9
  6
CONTINUOUS
370
    -3
100
AcDbLine
 10
36661.45982497
 20
-32286.43487084
 30
0.0
 11
36712.72852509
 21
-32268.07819355
 31
0.0
  0
LINE
  5
530
100
AcDbEntity
  8
Ech.1_5
 62
     9
  6
CONTINUOUS
370
    -3
100
AcDbLine
 10
36712.72852505
 20
-32266.05472395
 30
0.0
 11
36712.72852509
 21
-32268.07819355
 31
0.0
  0
LINE
  5
531
100
AcDbEntity
  8
Ech.1_5
 62
     9
  6
CONTINUOUS
370
    -3
100
AcDbLine
 10
36661.45982438
 20
-32254.05936199
 30
0.0
 11
36712.72852449
 21
-32235.7026847
 31
0.0
  0
LINE
  5
532
100
AcDbEntity
  8
Ech.1_5
 62
     9
  6
CONTINUOUS
370
    -3
100
AcDbLine
 10
36661.45982442
 20
-32256.082834
 30
0.0
 11
36661.45982438
 21
-32254.05936199
 31
0.0
  0
LINE
  5
533
100
AcDbEntity
  8
Ech.1_5
 62
     9
  6
CONTINUOUS
370
    -3
100
AcDbLine
 10
36661.45982442
 20
-32256.082834
 30
0.0
 11
36712.72852453
 21
-32237.72615671
 31
0.0
  0
LINE
  5
534
100
AcDbEntity
  8
Ech.1_5
 62
     9
  6
CONTINUOUS
370
    -3
100
AcDbLine
 10
36712.72852449
 20
-32235.7026847
 30
0.0
 11
36712.72852453
 21
-32237.72615671
 31
0.0
  0
LINE
  5
535
100
AcDbEntity
  8
Ech.1_5
 62
     9
  6
CONTINUOUS
370
    -3
100
AcDbLine
 10
36661.45982382
 20
-32223.70732514
 30
0.0
 11
36712.72852394
 21
-32205.35064786
 31
0.0
  0
LINE
  5
536
100
AcDbEntity
  8
Ech.1_5
 62
     9
  6
CONTINUOUS
370
    -3
100
AcDbLine
 10
36661.45982386
 20
-32225.73079234
 30
0.0
 11
36661.45982382
 21
-32223.70732514
 31
0.0
  0
LINE
  5
537
100
AcDbEntity
  8
Ech.1_5
 62
     9
  6
CONTINUOUS
370
    -3
100
AcDbLine
 10
36661.45982386
 20
-32225.73079234
 30
0.0
 11
36712.72852398
 21
-32207.37411505
 31
0.0
  0
LINE
  5
538
100
AcDbEntity
  8
Ech.1_5
 62
     9
  6
CONTINUOUS
370
    -3
100
AcDbLine
 10
36712.72852394
 20
-32205.35064786
 30
0.0
 11
36712.72852398
 21
-32207.37411505
 31
0.0
  0
LINE
  5
539
100
AcDbEntity
  8
Ech.1_5
 62
     9
  6
CONTINUOUS
370
    -3
100
AcDbLine
 10
36661.45982327
 20
-32193.3552883
 30
0.0
 11
36712.72852338
 21
-32174.99861102
 31
0.0
  0
LINE
  5
53A
100
AcDbEntity
  8
Ech.1_5
 62
     9
  6
CONTINUOUS
370
    -3
100
AcDbLine
 10
36661.4598233
 20
-32195.3787555
 30
0.0
 11
36661.45982327
 21
-32193.3552883
 31
0.0
  0
LINE
  5
53B
100
AcDbEntity
  8
Ech.1_5
 62
     9
  6
CONTINUOUS
370
    -3
100
AcDbLine
 10
36661.4598233
 20
-32195.3787555
 30
0.0
 11
36712.72852342
 21
-32177.02207821
 31
0.0
  0
LINE
  5
53C
100
AcDbEntity
  8
Ech.1_5
 62
     9
  6
CONTINUOUS
370
    -3
100
AcDbLine
 10
36712.72852338
 20
-32174.99861102
 30
0.0
 11
36712.72852342
 21
-32177.02207821
 31
0.0
  0
LINE
  5
53D
100
AcDbEntity
  8
Ech.1_5
 62
     9
  6
CONTINUOUS
370
    -3
100
AcDbLine
 10
36661.45982549
 20
-32314.76343747
 30
0.0
 11
36712.72852561
 21
-32296.40676019
 31
0.0
  0
LINE
  5
53E
100
AcDbEntity
  8
Ech.1_5
 62
     9
  6
CONTINUOUS
370
    -3
100
AcDbLine
 10
36661.45982553
 20
-32316.7869067
 30
0.0
 11
36661.45982549
 21
-32314.76343747
 31
0.0
  0
LINE
  5
53F
100
AcDbEntity
  8
Ech.1_5
 62
     9
  6
CONTINUOUS
370
    -3
100
AcDbLine
 10
36661.45982553
 20
-32316.7869067
 30
0.0
 11
36712.72852565
 21
-32298.43022942
 31
0.0
  0
LINE
  5
540
100
AcDbEntity
  8
Ech.1_5
 62
     9
  6
CONTINUOUS
370
    -3
100
AcDbLine
 10
36712.72852561
 20
-32296.40676019
 30
0.0
 11
36712.72852565
 21
-32298.43022942
 31
0.0
  0
LINE
  5
541
100
AcDbEntity
  8
Ech.1_5
 62
     9
  6
CONTINUOUS
370
    -3
100
AcDbLine
 10
36661.45982271
 20
-32163.00325146
 30
0.0
 11
36712.72852282
 21
-32144.64657418
 31
0.0
  0
LINE
  5
542
100
AcDbEntity
  8
Ech.1_5
 62
     9
  6
CONTINUOUS
370
    -3
100
AcDbLine
 10
36661.45982275
 20
-32165.02671866
 30
0.0
 11
36661.45982271
 21
-32163.00325146
 31
0.0
  0
LINE
  5
543
100
AcDbEntity
  8
Ech.1_5
 62
     9
  6
CONTINUOUS
370
    -3
100
AcDbLine
 10
36661.45982275
 20
-32165.02671866
 30
0.0
 11
36712.72852286
 21
-32146.67004137
 31
0.0
  0
LINE
  5
544
100
AcDbEntity
  8
Ech.1_5
 62
     9
  6
CONTINUOUS
370
    -3
100
AcDbLine
 10
36712.72852282
 20
-32144.64657418
 30
0.0
 11
36712.72852286
 21
-32146.67004137
 31
0.0
  0
LINE
  5
545
100
AcDbEntity
  8
Ech.1_5
 62
     9
  6
CONTINUOUS
370
    -3
100
AcDbLine
 10
36661.45982215
 20
-32132.65122427
 30
0.0
 11
36712.72852227
 21
-32114.29454698
 31
0.0
  0
LWPOLYLINE
  5
546
100
AcDbEntity
  8
Ech.1_5
 62
     9
  6
CONTINUOUS
370
    -3
100
AcDbPolyline
 90
        4
 70
     0
 43
0.0
 10
36661.45982219
 20
-32134.67468182
 10
36661.45982215
 20
-32132.65122427
 10
36661.45982215
 20
-32132.65122427
 10
36543.9578094
 20
-32109.16764062
  0
LINE
  5
547
100
AcDbEntity
  8
Ech.1_5
 62
     9
  6
CONTINUOUS
370
    -3
100
AcDbLine
 10
36661.45982219
 20
-32134.67468182
 30
0.0
 11
36712.72852231
 21
-32116.31800453
 31
0.0
  0
LWPOLYLINE
  5
548
100
AcDbEntity
  8
Ech.1_5
 62
     9
  6
CONTINUOUS
370
    -3
100
AcDbPolyline
 90
        4
 70
     0
 43
0.0
 10
36595.22650952
 20
-32090.81096333
 10
36712.72852227
 20
-32114.29454698
 10
36712.72852227
 20
-32114.29454698
 10
36712.72852231
 20
-32116.31800453
  0
LINE
  5
549
100
AcDbEntity
  8
Ech.1_5
 62
     9
  6
CONTINUOUS
370
    -3
100
AcDbLine
 10
36543.9578094
 20
-32109.16764062
 30
0.0
 11
36595.22650952
 21
-32090.81096333
 31
0.0
  0
LINE
  5
54A
100
AcDbEntity
  8
Ech.1_5
 62
     9
  6
CONTINUOUS
370
    -3
100
AcDbLine
 10
36426.45579665
 20
-32085.68405696
 30
0.0
 11
36477.72449677
 21
-32067.32737967
 31
0.0
  0
LINE
  5
54B
100
AcDbEntity
  8
Ech.1_5
 62
     9
  6
CONTINUOUS
370
    -3
100
AcDbLine
 10
36426.45579665
 20
-32085.68405696
 30
0.0
 11
36543.9578094
 21
-32109.16764062
 31
0.0
  0
LINE
  5
54C
100
AcDbEntity
  8
Ech.1_5
 62
     9
  6
CONTINUOUS
370
    -3
100
AcDbLine
 10
36595.22650952
 20
-32090.81096333
 30
0.0
 11
36477.72449677
 21
-32067.32737967
 31
0.0
  0
LWPOLYLINE
  5
54D
100
AcDbEntity
  8
Ech.1_5
 62
    36
  6
CONTINUOUS
370
    -3
100
AcDbPolyline
 90
        4
 70
     0
 43
0.0
 10
36449.46757349
 20
-32222.27979449
 10
36494.44870796
 20
-32231.26958291
 10
36494.44870796
 20
-32231.26958291
 10
36494.448708
 20
-32233.29305493
  0
LWPOLYLINE
  5
54E
100
AcDbEntity
  8
Ech.1_5
 62
    36
  6
CONTINUOUS
370
    -3
100
AcDbPolyline
 90
        4
 70
     0
 43
0.0
 10
36494.448708
 20
-32233.29305493
 10
36449.46757353
 20
-32224.3032665
 10
36449.46757353
 20
-32224.3032665
 10
36449.46757349
 20
-32222.27979449
  0
LWPOLYLINE
  5
54F
100
AcDbEntity
  8
Ech.1_5
 62
    36
  6
CONTINUOUS
370
    -3
100
AcDbPolyline
 90
        4
 70
     0
 43
0.0
 10
36600.48985465
 20
-32224.13406429
 10
36555.50872018
 20
-32215.14427586
 10
36555.50872018
 20
-32215.14427586
 10
36555.50872015
 20
-32213.12080867
  0
LWPOLYLINE
  5
550
100
AcDbEntity
  8
Ech.1_5
 62
    36
  6
CONTINUOUS
370
    -3
100
AcDbPolyline
 90
        4
 70
     0
 43
0.0
 10
36555.50872015
 20
-32213.12080867
 10
36600.48985462
 20
-32222.1105971
 10
36600.48985462
 20
-32222.1105971
 10
36600.48985465
 20
-32224.13406429
  0
LINE
  5
551
100
AcDbEntity
  8
Ech.1_5
 62
     9
  6
CONTINUOUS
370
    -3
100
AcDbLine
 10
36661.45982382
 20
-32223.70732514
 30
0.0
 11
36661.4598233
 21
-32195.3787555
 31
0.0
  0
LINE
  5
552
100
AcDbEntity
  8
Ech.1_5
 62
     9
  6
CONTINUOUS
370
    -3
100
AcDbLine
 10
36712.72852342
 20
-32177.02207821
 30
0.0
 11
36712.72852394
 21
-32205.35064786
 31
0.0
  0
LWPOLYLINE
  5
553
100
AcDbEntity
  8
Ech.1_5
 62
     9
  6
CONTINUOUS
370
    -3
100
AcDbPolyline
 90
        4
 70
     0
 43
0.0
 10
36554.17585135
 20
-32181.0895838
 10
36554.17585156
 20
-32192.14854143
 10
36554.17585156
 20
-32192.14854143
 10
36555.50865063
 20
-32192.41491047
  0
LINE
  5
554
100
AcDbEntity
  8
Ech.1_5
 62
     9
  6
CONTINUOUS
370
    -3
100
AcDbLine
 10
36555.43274498
 20
-32191.69851272
 30
0.0
 11
36554.17585156
 21
-32192.14854143
 31
0.0
  0
LWPOLYLINE
  5
555
100
AcDbEntity
  8
Ech.1_5
 62
     9
  6
CONTINUOUS
370
    -3
100
AcDbPolyline
 90
        4
 70
     0
 43
0.0
 10
36555.50866472
 20
-32191.7136858
 10
36555.43274498
 20
-32191.69851272
 10
36555.43274498
 20
-32191.69851272
 10
36555.43274479
 20
-32181.34078057
  0
LWPOLYLINE
  5
556
100
AcDbEntity
  8
Ech.1_5
 62
     9
  6
CONTINUOUS
370
    -3
100
AcDbPolyline
 90
        4
 70
     0
 43
0.0
 10
36633.73506134
 20
-32196.99003793
 10
36633.73506154
 20
-32208.04899555
 10
36633.73506154
 20
-32208.04899555
 10
36645.38569436
 20
-32210.37745448
  0
LINE
  5
557
100
AcDbEntity
  8
Ech.1_5
 62
     9
  6
CONTINUOUS
370
    -3
100
AcDbLine
 10
36634.99195496
 20
-32207.59896685
 30
0.0
 11
36633.73506154
 21
-32208.04899555
 31
0.0
  0
LWPOLYLINE
  5
558
100
AcDbEntity
  8
Ech.1_5
 62
     9
  6
CONTINUOUS
370
    -3
100
AcDbPolyline
 90
        4
 70
     0
 43
0.0
 10
36645.38564427
 20
-32209.67621699
 10
36634.99195496
 20
-32207.59896685
 10
36634.99195496
 20
-32207.59896685
 10
36634.99195477
 20
-32197.2412347
  0
LINE
  5
559
100
AcDbEntity
  8
Ech.1_5
 62
     9
  6
CONTINUOUS
370
    -3
100
AcDbLine
 10
36638.86037807
 20
-32208.37209164
 30
0.0
 11
36645.38560275
 21
-32206.03574522
 31
0.0
  0
LINE
  5
55A
100
AcDbEntity
  8
Ech.1_5
 62
     9
  6
CONTINUOUS
370
    -3
100
AcDbLine
 10
36638.86037862
 20
-32238.72412848
 30
0.0
 11
36645.38560331
 21
-32236.38778206
 31
0.0
  0
LWPOLYLINE
  5
55B
100
AcDbEntity
  8
Ech.1_5
 62
     9
  6
CONTINUOUS
370
    -3
100
AcDbPolyline
 90
        4
 70
     0
 43
0.0
 10
36523.22037535
 20
-32205.2549542
 10
36523.22037554
 20
-32215.61268635
 10
36523.22037554
 20
-32215.61268635
 10
36527.88369626
 20
-32216.544683
  0
LINE
  5
55C
100
AcDbEntity
  8
Ech.1_5
 62
     9
  6
CONTINUOUS
370
    -3
100
AcDbLine
 10
36523.22037554
 20
-32215.61268635
 30
0.0
 11
36521.96348212
 21
-32216.06271505
 31
0.0
  0
LWPOLYLINE
  5
55D
100
AcDbEntity
  8
Ech.1_5
 62
     9
  6
CONTINUOUS
370
    -3
100
AcDbPolyline
 90
        4
 70
     0
 43
0.0
 10
36527.88368216
 20
-32217.24590766
 10
36521.96348212
 20
-32216.06271505
 10
36521.96348212
 20
-32216.06271505
 10
36521.96348191
 20
-32205.00375743
  0
LWPOLYLINE
  5
55E
100
AcDbEntity
  8
Ech.1_5
 62
     9
  6
CONTINUOUS
370
    -3
100
AcDbPolyline
 90
        4
 70
     0
 43
0.0
 10
36448.324408
 20
-32201.34544071
 10
36442.40427213
 20
-32200.16226093
 10
36442.40427213
 20
-32200.16226093
 10
36442.40427193
 20
-32189.1033033
  0
LINE
  5
55F
100
AcDbEntity
  8
Ech.1_5
 62
     9
  6
CONTINUOUS
370
    -3
100
AcDbLine
 10
36442.40427213
 20
-32200.16226093
 30
0.0
 11
36443.66116555
 21
-32199.71223222
 31
0.0
  0
LWPOLYLINE
  5
560
100
AcDbEntity
  8
Ech.1_5
 62
     9
  6
CONTINUOUS
370
    -3
100
AcDbPolyline
 90
        4
 70
     0
 43
0.0
 10
36443.66116536
 20
-32189.35450008
 10
36443.66116555
 20
-32199.71223222
 10
36443.66116555
 20
-32199.71223222
 10
36448.3244221
 20
-32200.64421605
  0
LINE
  5
561
100
AcDbEntity
  8
Ech.1_5
 62
     9
  6
CONTINUOUS
370
    -3
100
AcDbLine
 10
36447.52958865
 20
-32200.48535701
 30
0.0
 11
36448.32440403
 21
-32200.20077462
 31
0.0
  0
LINE
  5
562
100
AcDbEntity
  8
Ech.1_5
 62
     9
  6
CONTINUOUS
370
    -3
100
AcDbLine
 10
36638.86037751
 20
-32178.0200548
 30
0.0
 11
36645.3856022
 21
-32175.68370838
 31
0.0
  0
LWPOLYLINE
  5
563
100
AcDbEntity
  8
Ech.1_5
 62
     9
  6
CONTINUOUS
370
    -3
100
AcDbPolyline
 90
        4
 70
     0
 43
0.0
 10
36523.22037423
 20
-32144.55088052
 10
36523.22037442
 20
-32154.90861267
 10
36523.22037442
 20
-32154.90861267
 10
36527.88369514
 20
-32155.84060932
  0
LINE
  5
564
100
AcDbEntity
  8
Ech.1_5
 62
     9
  6
CONTINUOUS
370
    -3
100
AcDbLine
 10
36523.22037442
 20
-32154.90861267
 30
0.0
 11
36521.963481
 21
-32155.35864137
 31
0.0
  0
LWPOLYLINE
  5
565
100
AcDbEntity
  8
Ech.1_5
 62
     9
  6
CONTINUOUS
370
    -3
100
AcDbPolyline
 90
        4
 70
     0
 43
0.0
 10
36527.88368105
 20
-32156.54183398
 10
36521.963481
 20
-32155.35864137
 10
36521.963481
 20
-32155.35864137
 10
36521.9634808
 20
-32144.29968375
  0
LWPOLYLINE
  5
566
100
AcDbEntity
  8
Ech.1_5
 62
     9
  6
CONTINUOUS
370
    -3
100
AcDbPolyline
 90
        4
 70
     0
 43
0.0
 10
36448.32440689
 20
-32140.64136703
 10
36442.40427102
 20
-32139.45818725
 10
36442.40427102
 20
-32139.45818725
 10
36442.40427081
 20
-32128.39922962
  0
LINE
  5
567
100
AcDbEntity
  8
Ech.1_5
 62
     9
  6
CONTINUOUS
370
    -3
100
AcDbLine
 10
36442.40427102
 20
-32139.45818725
 30
0.0
 11
36443.66116444
 21
-32139.00815854
 31
0.0
  0
LWPOLYLINE
  5
568
100
AcDbEntity
  8
Ech.1_5
 62
     9
  6
CONTINUOUS
370
    -3
100
AcDbPolyline
 90
        4
 70
     0
 43
0.0
 10
36443.66116425
 20
-32128.6504264
 10
36443.66116444
 20
-32139.00815854
 10
36443.66116444
 20
-32139.00815854
 10
36448.32442098
 20
-32139.94014237
  0
LINE
  5
569
100
AcDbEntity
  8
Ech.1_5
 62
     9
  6
CONTINUOUS
370
    -3
100
AcDbLine
 10
36447.52958754
 20
-32139.78128333
 30
0.0
 11
36448.32440292
 21
-32139.49670094
 31
0.0
  0
LWPOLYLINE
  5
56A
100
AcDbEntity
  8
Ech.1_5
 62
     9
  6
CONTINUOUS
370
    -3
100
AcDbPolyline
 90
        4
 70
     0
 43
0.0
 10
36523.22037479
 20
-32174.90291736
 10
36523.22037498
 20
-32185.26064951
 10
36523.22037498
 20
-32185.26064951
 10
36527.8836957
 20
-32186.19264616
  0
LINE
  5
56B
100
AcDbEntity
  8
Ech.1_5
 62
     9
  6
CONTINUOUS
370
    -3
100
AcDbLine
 10
36523.22037498
 20
-32185.26064951
 30
0.0
 11
36521.96348156
 21
-32185.71067821
 31
0.0
  0
LWPOLYLINE
  5
56C
100
AcDbEntity
  8
Ech.1_5
 62
     9
  6
CONTINUOUS
370
    -3
100
AcDbPolyline
 90
        4
 70
     0
 43
0.0
 10
36527.88368161
 20
-32186.89387082
 10
36521.96348156
 20
-32185.71067821
 10
36521.96348156
 20
-32185.71067821
 10
36521.96348136
 20
-32174.65172059
  0
LWPOLYLINE
  5
56D
100
AcDbEntity
  8
Ech.1_5
 62
     9
  6
CONTINUOUS
370
    -3
100
AcDbPolyline
 90
        4
 70
     0
 43
0.0
 10
36448.32440745
 20
-32170.99340387
 10
36442.40427157
 20
-32169.81022409
 10
36442.40427157
 20
-32169.81022409
 10
36442.40427137
 20
-32158.75126646
  0
LINE
  5
56E
100
AcDbEntity
  8
Ech.1_5
 62
     9
  6
CONTINUOUS
370
    -3
100
AcDbLine
 10
36442.40427157
 20
-32169.81022409
 30
0.0
 11
36443.66116499
 21
-32169.36019538
 31
0.0
  0
LWPOLYLINE
  5
56F
100
AcDbEntity
  8
Ech.1_5
 62
     9
  6
CONTINUOUS
370
    -3
100
AcDbPolyline
 90
        4
 70
     0
 43
0.0
 10
36443.6611648
 20
-32159.00246324
 10
36443.66116499
 20
-32169.36019538
 10
36443.66116499
 20
-32169.36019538
 10
36448.32442154
 20
-32170.29217921
  0
LINE
  5
570
100
AcDbEntity
  8
Ech.1_5
 62
     9
  6
CONTINUOUS
370
    -3
100
AcDbLine
 10
36447.5295881
 20
-32170.13332017
 30
0.0
 11
36448.32440348
 21
-32169.84873778
 31
0.0
  0
LWPOLYLINE
  5
571
100
AcDbEntity
  8
Ech.1_5
 62
    36
  6
CONTINUOUS
370
    -3
100
AcDbPolyline
 90
        4
 70
     0
 43
0.0
 10
36449.46757293
 20
-32191.92775765
 10
36494.4487074
 20
-32200.91754607
 10
36494.4487074
 20
-32200.91754607
 10
36494.44870744
 20
-32202.94101327
  0
LWPOLYLINE
  5
572
100
AcDbEntity
  8
Ech.1_5
 62
    36
  6
CONTINUOUS
370
    -3
100
AcDbPolyline
 90
        4
 70
     0
 43
0.0
 10
36494.44870744
 20
-32202.94101327
 10
36449.46757297
 20
-32193.95122484
 10
36449.46757297
 20
-32193.95122484
 10
36449.46757293
 20
-32191.92775765
  0
LWPOLYLINE
  5
573
100
AcDbEntity
  8
Ech.1_5
 62
    36
  6
CONTINUOUS
370
    -3
100
AcDbPolyline
 90
        4
 70
     0
 43
0.0
 10
36600.4898541
 20
-32193.78202745
 10
36555.50871963
 20
-32184.79223902
 10
36555.50871963
 20
-32184.79223902
 10
36555.50871959
 20
-32182.76877183
  0
LWPOLYLINE
  5
574
100
AcDbEntity
  8
Ech.1_5
 62
    36
  6
CONTINUOUS
370
    -3
100
AcDbPolyline
 90
        4
 70
     0
 43
0.0
 10
36555.50871959
 20
-32182.76877183
 10
36600.48985406
 20
-32191.75856025
 10
36600.48985406
 20
-32191.75856025
 10
36600.4898541
 20
-32193.78202745
  0
LINE
  5
575
100
AcDbEntity
  8
Ech.1_5
 62
     9
  6
CONTINUOUS
370
    -3
100
AcDbLine
 10
36661.45982327
 20
-32193.3552883
 30
0.0
 11
36661.45982275
 21
-32165.02671866
 31
0.0
  0
LINE
  5
576
100
AcDbEntity
  8
Ech.1_5
 62
     9
  6
CONTINUOUS
370
    -3
100
AcDbLine
 10
36712.72852286
 20
-32146.67004137
 30
0.0
 11
36712.72852338
 21
-32174.99861102
 31
0.0
  0
LWPOLYLINE
  5
577
100
AcDbEntity
  8
Ech.1_5
 62
     9
  6
CONTINUOUS
370
    -3
100
AcDbPolyline
 90
        4
 70
     0
 43
0.0
 10
36554.1758508
 20
-32150.73754696
 10
36554.175851
 20
-32161.79650459
 10
36554.175851
 20
-32161.79650459
 10
36555.50865007
 20
-32162.06287363
  0
LINE
  5
578
100
AcDbEntity
  8
Ech.1_5
 62
     9
  6
CONTINUOUS
370
    -3
100
AcDbLine
 10
36555.43274442
 20
-32161.34647588
 30
0.0
 11
36554.175851
 21
-32161.79650459
 31
0.0
  0
LWPOLYLINE
  5
579
100
AcDbEntity
  8
Ech.1_5
 62
     9
  6
CONTINUOUS
370
    -3
100
AcDbPolyline
 90
        4
 70
     0
 43
0.0
 10
36555.50866417
 20
-32161.36164896
 10
36555.43274442
 20
-32161.34647588
 10
36555.43274442
 20
-32161.34647588
 10
36555.43274423
 20
-32150.98874373
  0
LWPOLYLINE
  5
57A
100
AcDbEntity
  8
Ech.1_5
 62
     9
  6
CONTINUOUS
370
    -3
100
AcDbPolyline
 90
        4
 70
     0
 43
0.0
 10
36633.73506078
 20
-32166.63800109
 10
36633.73506099
 20
-32177.69695871
 10
36633.73506099
 20
-32177.69695871
 10
36645.3856938
 20
-32180.02541764
  0
LINE
  5
57B
100
AcDbEntity
  8
Ech.1_5
 62
     9
  6
CONTINUOUS
370
    -3
100
AcDbLine
 10
36634.9919544
 20
-32177.24693
 30
0.0
 11
36633.73506099
 21
-32177.69695871
 31
0.0
  0
LWPOLYLINE
  5
57C
100
AcDbEntity
  8
Ech.1_5
 62
     9
  6
CONTINUOUS
370
    -3
100
AcDbPolyline
 90
        4
 70
     0
 43
0.0
 10
36645.38564372
 20
-32179.32418015
 10
36634.9919544
 20
-32177.24693
 10
36634.9919544
 20
-32177.24693
 10
36634.99195422
 20
-32166.88919786
  0
LINE
  5
57D
100
AcDbEntity
  8
Ech.1_5
 62
    36
  6
CONTINUOUS
370
    -3
100
AcDbLine
 10
36600.48985632
 20
-32315.19017865
 30
0.0
 11
36619.34326436
 21
-32308.43974562
 31
0.0
  0
LWPOLYLINE
  5
57E
100
AcDbEntity
  8
Ech.1_5
 62
    36
  6
CONTINUOUS
370
    -3
100
AcDbPolyline
 90
        4
 70
     0
 43
0.0
 10
36600.48985632
 20
-32315.19017865
 10
36555.50872185
 20
-32306.20039023
 10
36555.50872185
 20
-32306.20039023
 10
36555.50872182
 20
-32304.176921
  0
LWPOLYLINE
  5
57F
100
AcDbEntity
  8
Ech.1_5
 62
    36
  6
CONTINUOUS
370
    -3
100
AcDbPolyline
 90
        4
 70
     0
 43
0.0
 10
36555.50872182
 20
-32304.176921
 10
36600.48985629
 20
-32313.16670943
 10
36600.48985629
 20
-32313.16670943
 10
36600.48985632
 20
-32315.19017865
  0
LWPOLYLINE
  5
580
100
AcDbEntity
  8
Ech.1_5
 62
     9
  6
CONTINUOUS
370
    -3
100
AcDbPolyline
 90
        4
 70
     0
 43
0.0
 10
36554.17585302
 20
-32272.14569674
 10
36554.17585323
 20
-32283.20465436
 10
36554.17585323
 20
-32283.20465436
 10
36555.5086523
 20
-32283.4710234
  0
LINE
  5
581
100
AcDbEntity
  8
Ech.1_5
 62
     9
  6
CONTINUOUS
370
    -3
100
AcDbLine
 10
36555.43274665
 20
-32282.75462565
 30
0.0
 11
36554.17585323
 21
-32283.20465436
 31
0.0
  0
LWPOLYLINE
  5
582
100
AcDbEntity
  8
Ech.1_5
 62
     9
  6
CONTINUOUS
370
    -3
100
AcDbPolyline
 90
        4
 70
     0
 43
0.0
 10
36555.50866639
 20
-32282.76979874
 10
36555.43274665
 20
-32282.75462565
 10
36555.43274665
 20
-32282.75462565
 10
36555.43274646
 20
-32272.39689592
  0
LWPOLYLINE
  5
583
100
AcDbEntity
  8
Ech.1_5
 62
     9
  6
CONTINUOUS
370
    -3
100
AcDbPolyline
 90
        4
 70
     0
 43
0.0
 10
36633.73506301
 20
-32288.04615086
 10
36633.73506321
 20
-32299.10510849
 10
36633.73506321
 20
-32299.10510849
 10
36645.38569603
 20
-32301.43356741
  0
LINE
  5
584
100
AcDbEntity
  8
Ech.1_5
 62
     9
  6
CONTINUOUS
370
    -3
100
AcDbLine
 10
36634.99195663
 20
-32298.65507978
 30
0.0
 11
36633.73506321
 21
-32299.10510849
 31
0.0
  0
LWPOLYLINE
  5
585
100
AcDbEntity
  8
Ech.1_5
 62
     9
  6
CONTINUOUS
370
    -3
100
AcDbPolyline
 90
        4
 70
     0
 43
0.0
 10
36645.38564594
 20
-32300.73232992
 10
36634.99195663
 20
-32298.65507978
 10
36634.99195663
 20
-32298.65507978
 10
36634.99195644
 20
-32288.29735004
  0
LWPOLYLINE
  5
586
100
AcDbEntity
  8
Ech.1_5
 62
    36
  6
CONTINUOUS
370
    -3
100
AcDbPolyline
 90
        4
 70
     0
 43
0.0
 10
36449.4675746
 20
-32282.98386998
 10
36494.44870907
 20
-32291.9736584
 10
36494.44870907
 20
-32291.9736584
 10
36494.44870911
 20
-32293.99712763
  0
LINE
  5
587
100
AcDbEntity
  8
Ech.1_5
 62
    36
  6
CONTINUOUS
370
    -3
100
AcDbLine
 10
36513.30211714
 20
-32287.24669459
 30
0.0
 11
36494.44870911
 21
-32293.99712763
 31
0.0
  0
LWPOLYLINE
  5
588
100
AcDbEntity
  8
Ech.1_5
 62
    36
  6
CONTINUOUS
370
    -3
100
AcDbPolyline
 90
        4
 70
     0
 43
0.0
 10
36494.44870911
 20
-32293.99712763
 10
36449.46757464
 20
-32285.0073392
 10
36449.46757464
 20
-32285.0073392
 10
36449.4675746
 20
-32282.98386998
  0
LINE
  5
589
100
AcDbEntity
  8
Ech.1_5
 62
     9
  6
CONTINUOUS
370
    -3
100
AcDbLine
 10
36447.52958977
 20
-32261.1894325
 30
0.0
 11
36448.32440515
 21
-32260.90485011
 31
0.0
  0
LWPOLYLINE
  5
58A
100
AcDbEntity
  8
Ech.1_5
 62
     9
  6
CONTINUOUS
370
    -3
100
AcDbPolyline
 90
        4
 70
     0
 43
0.0
 10
36523.22037646
 20
-32265.95903271
 10
36523.22037665
 20
-32276.31676244
 10
36523.22037665
 20
-32276.31676244
 10
36527.88369737
 20
-32277.24875909
  0
LINE
  5
58B
100
AcDbEntity
  8
Ech.1_5
 62
     9
  6
CONTINUOUS
370
    -3
100
AcDbLine
 10
36523.22037665
 20
-32276.31676244
 30
0.0
 11
36521.96348323
 21
-32276.76679115
 31
0.0
  0
LWPOLYLINE
  5
58C
100
AcDbEntity
  8
Ech.1_5
 62
     9
  6
CONTINUOUS
370
    -3
100
AcDbPolyline
 90
        4
 70
     0
 43
0.0
 10
36527.88368328
 20
-32277.94998376
 10
36521.96348323
 20
-32276.76679115
 10
36521.96348323
 20
-32276.76679115
 10
36521.96348303
 20
-32265.70783352
  0
LWPOLYLINE
  5
58D
100
AcDbEntity
  8
Ech.1_5
 62
     9
  6
CONTINUOUS
370
    -3
100
AcDbPolyline
 90
        4
 70
     0
 43
0.0
 10
36448.32440912
 20
-32262.04951681
 10
36442.40427324
 20
-32260.86633702
 10
36442.40427324
 20
-32260.86633702
 10
36442.40427304
 20
-32249.8073794
  0
LINE
  5
58E
100
AcDbEntity
  8
Ech.1_5
 62
     9
  6
CONTINUOUS
370
    -3
100
AcDbLine
 10
36442.40427324
 20
-32260.86633702
 30
0.0
 11
36443.66116666
 21
-32260.41630831
 31
0.0
  0
LWPOLYLINE
  5
58F
100
AcDbEntity
  8
Ech.1_5
 62
     9
  6
CONTINUOUS
370
    -3
100
AcDbPolyline
 90
        4
 70
     0
 43
0.0
 10
36443.66116647
 20
-32250.05857858
 10
36443.66116666
 20
-32260.41630831
 10
36443.66116666
 20
-32260.41630831
 10
36448.32442321
 20
-32261.34829214
  0
LINE
  5
590
100
AcDbEntity
  8
Ech.1_5
 62
     9
  6
CONTINUOUS
370
    -3
100
AcDbLine
 10
36638.86037974
 20
-32299.42820397
 30
0.0
 11
36645.38560442
 21
-32297.09185755
 31
0.0
  0
LINE
  5
591
100
AcDbEntity
  8
Ech.1_5
 62
     9
  6
CONTINUOUS
370
    -3
100
AcDbLine
 10
36661.45982549
 20
-32314.76343747
 30
0.0
 11
36661.45982497
 21
-32286.43487084
 31
0.0
  0
LINE
  5
592
100
AcDbEntity
  8
Ech.1_5
 62
     9
  6
CONTINUOUS
370
    -3
100
AcDbLine
 10
36712.72852509
 20
-32268.07819355
 30
0.0
 11
36712.72852561
 21
-32296.40676019
 31
0.0
  0
LWPOLYLINE
  5
593
100
AcDbEntity
  8
Ech.1_5
 62
     9
  6
CONTINUOUS
370
    -3
100
AcDbPolyline
 90
        4
 70
     0
 43
0.0
 10
36523.2203759
 20
-32235.60699587
 10
36523.22037609
 20
-32245.96472319
 10
36523.22037609
 20
-32245.96472319
 10
36527.88369681
 20
-32246.89671984
  0
LINE
  5
594
100
AcDbEntity
  8
Ech.1_5
 62
     9
  6
CONTINUOUS
370
    -3
100
AcDbLine
 10
36523.22037609
 20
-32245.96472319
 30
0.0
 11
36521.96348267
 21
-32246.41475189
 31
0.0
  0
LWPOLYLINE
  5
595
100
AcDbEntity
  8
Ech.1_5
 62
     9
  6
CONTINUOUS
370
    -3
100
AcDbPolyline
 90
        4
 70
     0
 43
0.0
 10
36527.88368272
 20
-32247.5979445
 10
36521.96348267
 20
-32246.41475189
 10
36521.96348267
 20
-32246.41475189
 10
36521.96348247
 20
-32235.35579427
  0
LWPOLYLINE
  5
596
100
AcDbEntity
  8
Ech.1_5
 62
     9
  6
CONTINUOUS
370
    -3
100
AcDbPolyline
 90
        4
 70
     0
 43
0.0
 10
36448.32440856
 20
-32231.69747755
 10
36442.40427269
 20
-32230.51429777
 10
36442.40427269
 20
-32230.51429777
 10
36442.40427248
 20
-32219.45534014
  0
LINE
  5
597
100
AcDbEntity
  8
Ech.1_5
 62
     9
  6
CONTINUOUS
370
    -3
100
AcDbLine
 10
36442.40427269
 20
-32230.51429777
 30
0.0
 11
36443.66116611
 21
-32230.06426906
 31
0.0
  0
LWPOLYLINE
  5
598
100
AcDbEntity
  8
Ech.1_5
 62
     9
  6
CONTINUOUS
370
    -3
100
AcDbPolyline
 90
        4
 70
     0
 43
0.0
 10
36443.66116592
 20
-32219.70654174
 10
36443.66116611
 20
-32230.06426906
 10
36443.66116611
 20
-32230.06426906
 10
36448.32442265
 20
-32230.99625289
  0
LINE
  5
599
100
AcDbEntity
  8
Ech.1_5
 62
     9
  6
CONTINUOUS
370
    -3
100
AcDbLine
 10
36447.52958921
 20
-32230.83739627
 30
0.0
 11
36448.32440459
 21
-32230.55281387
 31
0.0
  0
LWPOLYLINE
  5
59A
100
AcDbEntity
  8
Ech.1_5
 62
    36
  6
CONTINUOUS
370
    -3
100
AcDbPolyline
 90
        4
 70
     0
 43
0.0
 10
36449.46757405
 20
-32252.63183374
 10
36494.44870852
 20
-32261.62162217
 10
36494.44870852
 20
-32261.62162217
 10
36494.44870855
 20
-32263.64509177
  0
LWPOLYLINE
  5
59B
100
AcDbEntity
  8
Ech.1_5
 62
    36
  6
CONTINUOUS
370
    -3
100
AcDbPolyline
 90
        4
 70
     0
 43
0.0
 10
36494.44870855
 20
-32263.64509177
 10
36449.46757408
 20
-32254.65530334
 10
36449.46757408
 20
-32254.65530334
 10
36449.46757405
 20
-32252.63183374
  0
LWPOLYLINE
  5
59C
100
AcDbEntity
  8
Ech.1_5
 62
    36
  6
CONTINUOUS
370
    -3
100
AcDbPolyline
 90
        4
 70
     0
 43
0.0
 10
36600.48985521
 20
-32254.48610595
 10
36555.50872074
 20
-32245.49631753
 10
36555.50872074
 20
-32245.49631753
 10
36555.5087207
 20
-32243.47284551
  0
LWPOLYLINE
  5
59D
100
AcDbEntity
  8
Ech.1_5
 62
    36
  6
CONTINUOUS
370
    -3
100
AcDbPolyline
 90
        4
 70
     0
 43
0.0
 10
36555.5087207
 20
-32243.47284551
 10
36600.48985517
 20
-32252.46263394
 10
36600.48985517
 20
-32252.46263394
 10
36600.48985521
 20
-32254.48610595
  0
LINE
  5
59E
100
AcDbEntity
  8
Ech.1_5
 62
     9
  6
CONTINUOUS
370
    -3
100
AcDbLine
 10
36661.45982438
 20
-32254.05936199
 30
0.0
 11
36661.45982386
 21
-32225.73079234
 31
0.0
  0
LINE
  5
59F
100
AcDbEntity
  8
Ech.1_5
 62
     9
  6
CONTINUOUS
370
    -3
100
AcDbLine
 10
36712.72852398
 20
-32207.37411505
 30
0.0
 11
36712.72852449
 21
-32235.7026847
 31
0.0
  0
LWPOLYLINE
  5
5A0
100
AcDbEntity
  8
Ech.1_5
 62
     9
  6
CONTINUOUS
370
    -3
100
AcDbPolyline
 90
        4
 70
     0
 43
0.0
 10
36554.17585191
 20
-32211.44162064
 10
36554.17585211
 20
-32222.50057827
 10
36554.17585211
 20
-32222.50057827
 10
36555.50865119
 20
-32222.76694731
  0
LINE
  5
5A1
100
AcDbEntity
  8
Ech.1_5
 62
     9
  6
CONTINUOUS
370
    -3
100
AcDbLine
 10
36555.43274553
 20
-32222.05054956
 30
0.0
 11
36554.17585211
 21
-32222.50057827
 31
0.0
  0
LWPOLYLINE
  5
5A2
100
AcDbEntity
  8
Ech.1_5
 62
     9
  6
CONTINUOUS
370
    -3
100
AcDbPolyline
 90
        4
 70
     0
 43
0.0
 10
36555.50866528
 20
-32222.06572264
 10
36555.43274553
 20
-32222.05054956
 10
36555.43274553
 20
-32222.05054956
 10
36555.43274534
 20
-32211.69281742
  0
LWPOLYLINE
  5
5A3
100
AcDbEntity
  8
Ech.1_5
 62
     9
  6
CONTINUOUS
370
    -3
100
AcDbPolyline
 90
        4
 70
     0
 43
0.0
 10
36633.7350619
 20
-32227.34207477
 10
36633.7350621
 20
-32238.40103239
 10
36633.7350621
 20
-32238.40103239
 10
36645.38569491
 20
-32240.72949132
  0
LINE
  5
5A4
100
AcDbEntity
  8
Ech.1_5
 62
     9
  6
CONTINUOUS
370
    -3
100
AcDbLine
 10
36634.99195552
 20
-32237.95100369
 30
0.0
 11
36633.7350621
 21
-32238.40103239
 31
0.0
  0
LWPOLYLINE
  5
5A5
100
AcDbEntity
  8
Ech.1_5
 62
     9
  6
CONTINUOUS
370
    -3
100
AcDbPolyline
 90
        4
 70
     0
 43
0.0
 10
36645.38564483
 20
-32240.02825383
 10
36634.99195552
 20
-32237.95100369
 10
36634.99195552
 20
-32237.95100369
 10
36634.99195533
 20
-32227.59327154
  0
LWPOLYLINE
  5
5A6
100
AcDbEntity
  8
Ech.1_5
 62
    36
  6
CONTINUOUS
370
    -3
100
AcDbPolyline
 90
        4
 70
     0
 43
0.0
 10
36600.48985577
 20
-32284.83814279
 10
36555.5087213
 20
-32275.84835437
 10
36555.5087213
 20
-32275.84835437
 10
36555.50872126
 20
-32273.82488476
  0
LWPOLYLINE
  5
5A7
100
AcDbEntity
  8
Ech.1_5
 62
    36
  6
CONTINUOUS
370
    -3
100
AcDbPolyline
 90
        4
 70
     0
 43
0.0
 10
36555.50872126
 20
-32273.82488476
 10
36600.48985573
 20
-32282.81467319
 10
36600.48985573
 20
-32282.81467319
 10
36600.48985577
 20
-32284.83814279
  0
LINE
  5
5A8
100
AcDbEntity
  8
Ech.1_5
 62
     9
  6
CONTINUOUS
370
    -3
100
AcDbLine
 10
36661.45982494
 20
-32284.41140124
 30
0.0
 11
36661.45982442
 21
-32256.082834
 31
0.0
  0
LINE
  5
5A9
100
AcDbEntity
  8
Ech.1_5
 62
     9
  6
CONTINUOUS
370
    -3
100
AcDbLine
 10
36712.72852453
 20
-32237.72615671
 30
0.0
 11
36712.72852505
 21
-32266.05472395
 31
0.0
  0
LWPOLYLINE
  5
5AA
100
AcDbEntity
  8
Ech.1_5
 62
     9
  6
CONTINUOUS
370
    -3
100
AcDbPolyline
 90
        4
 70
     0
 43
0.0
 10
36554.17585247
 20
-32241.79365748
 10
36554.17585267
 20
-32252.85261511
 10
36554.17585267
 20
-32252.85261511
 10
36555.50865174
 20
-32253.11898415
  0
LINE
  5
5AB
100
AcDbEntity
  8
Ech.1_5
 62
     9
  6
CONTINUOUS
370
    -3
100
AcDbLine
 10
36555.43274609
 20
-32252.4025864
 30
0.0
 11
36554.17585267
 21
-32252.85261511
 31
0.0
  0
LWPOLYLINE
  5
5AC
100
AcDbEntity
  8
Ech.1_5
 62
     9
  6
CONTINUOUS
370
    -3
100
AcDbPolyline
 90
        4
 70
     0
 43
0.0
 10
36555.50866584
 20
-32252.41775948
 10
36555.43274609
 20
-32252.4025864
 10
36555.43274609
 20
-32252.4025864
 10
36555.4327459
 20
-32242.04485908
  0
LWPOLYLINE
  5
5AD
100
AcDbEntity
  8
Ech.1_5
 62
     9
  6
CONTINUOUS
370
    -3
100
AcDbPolyline
 90
        4
 70
     0
 43
0.0
 10
36633.73506245
 20
-32257.69411161
 10
36633.73506266
 20
-32268.75306923
 10
36633.73506266
 20
-32268.75306923
 10
36645.38569547
 20
-32271.08152816
  0
LINE
  5
5AE
100
AcDbEntity
  8
Ech.1_5
 62
     9
  6
CONTINUOUS
370
    -3
100
AcDbLine
 10
36634.99195607
 20
-32268.30304053
 30
0.0
 11
36633.73506266
 21
-32268.75306923
 31
0.0
  0
LWPOLYLINE
  5
5AF
100
AcDbEntity
  8
Ech.1_5
 62
     9
  6
CONTINUOUS
370
    -3
100
AcDbPolyline
 90
        4
 70
     0
 43
0.0
 10
36645.38564539
 20
-32270.38029067
 10
36634.99195607
 20
-32268.30304053
 10
36634.99195607
 20
-32268.30304053
 10
36634.99195589
 20
-32257.9453132
  0
LINE
  5
5B0
100
AcDbEntity
  8
Ech.1_5
 62
     9
  6
CONTINUOUS
370
    -3
100
AcDbLine
 10
36638.86037918
 20
-32269.07616773
 30
0.0
 11
36645.38560387
 21
-32266.73982131
 31
0.0
  0
LWPOLYLINE
  5
5B1
100
AcDbEntity
  8
Ech.1_5
 62
     9
  6
CONTINUOUS
370
    -3
100
AcDbPolyline
 90
        4
 70
     0
 43
0.0
 10
36523.22037368
 20
-32114.19885333
 10
36523.22037387
 20
-32124.55658547
 10
36523.22037387
 20
-32124.55658547
 10
36527.88369459
 20
-32125.48858212
  0
LINE
  5
5B2
100
AcDbEntity
  8
Ech.1_5
 62
     9
  6
CONTINUOUS
370
    -3
100
AcDbLine
 10
36523.22037387
 20
-32124.55658547
 30
0.0
 11
36521.96348045
 21
-32125.00661418
 31
0.0
  0
LWPOLYLINE
  5
5B3
100
AcDbEntity
  8
Ech.1_5
 62
     9
  6
CONTINUOUS
370
    -3
100
AcDbPolyline
 90
        4
 70
     0
 43
0.0
 10
36527.88368049
 20
-32126.18980679
 10
36521.96348045
 20
-32125.00661418
 10
36521.96348045
 20
-32125.00661418
 10
36521.96348024
 20
-32113.94765656
  0
LWPOLYLINE
  5
5B4
100
AcDbEntity
  8
Ech.1_5
 62
     9
  6
CONTINUOUS
370
    -3
100
AcDbPolyline
 90
        4
 70
     0
 43
0.0
 10
36448.32440633
 20
-32110.28933984
 10
36442.40427046
 20
-32109.10616006
 10
36442.40427046
 20
-32109.10616006
 10
36442.40427026
 20
-32098.04720243
  0
LINE
  5
5B5
100
AcDbEntity
  8
Ech.1_5
 62
     9
  6
CONTINUOUS
370
    -3
100
AcDbLine
 10
36442.40427046
 20
-32109.10616006
 30
0.0
 11
36443.66116388
 21
-32108.65613135
 31
0.0
  0
LWPOLYLINE
  5
5B6
100
AcDbEntity
  8
Ech.1_5
 62
     9
  6
CONTINUOUS
370
    -3
100
AcDbPolyline
 90
        4
 70
     0
 43
0.0
 10
36443.66116369
 20
-32098.2983992
 10
36443.66116388
 20
-32108.65613135
 10
36443.66116388
 20
-32108.65613135
 10
36448.32442043
 20
-32109.58811517
  0
LINE
  5
5B7
100
AcDbEntity
  8
Ech.1_5
 62
     9
  6
CONTINUOUS
370
    -3
100
AcDbLine
 10
36447.52958698
 20
-32109.42924649
 30
0.0
 11
36448.32440236
 21
-32109.1446641
 31
0.0
  0
LWPOLYLINE
  5
5B8
100
AcDbEntity
  8
Ech.1_5
 62
    36
  6
CONTINUOUS
370
    -3
100
AcDbPolyline
 90
        4
 70
     0
 43
0.0
 10
36449.46757182
 20
-32131.22368397
 10
36494.44870629
 20
-32140.21347239
 10
36494.44870629
 20
-32140.21347239
 10
36494.44870633
 20
-32142.23693958
  0
LWPOLYLINE
  5
5B9
100
AcDbEntity
  8
Ech.1_5
 62
    36
  6
CONTINUOUS
370
    -3
100
AcDbPolyline
 90
        4
 70
     0
 43
0.0
 10
36494.44870633
 20
-32142.23693958
 10
36449.46757186
 20
-32133.24715116
 10
36449.46757186
 20
-32133.24715116
 10
36449.46757182
 20
-32131.22368397
  0
LWPOLYLINE
  5
5BA
100
AcDbEntity
  8
Ech.1_5
 62
    36
  6
CONTINUOUS
370
    -3
100
AcDbPolyline
 90
        4
 70
     0
 43
0.0
 10
36600.48985298
 20
-32133.07795377
 10
36555.50871851
 20
-32124.08816534
 10
36555.50871851
 20
-32124.08816534
 10
36555.50871848
 20
-32122.0647078
  0
LINE
  5
5BB
100
AcDbEntity
  8
Ech.1_5
 62
    36
  6
CONTINUOUS
370
    -3
100
AcDbLine
 10
36555.50871848
 20
-32122.0647078
 30
0.0
 11
36574.48781578
 21
-32115.26927192
 31
0.0
  0
LINE
  5
5BC
100
AcDbEntity
  8
Ech.1_5
 62
    36
  6
CONTINUOUS
370
    -3
100
AcDbLine
 10
36619.46895025
 20
-32124.25906034
 30
0.0
 11
36600.48985295
 21
-32131.05449622
 31
0.0
  0
LWPOLYLINE
  5
5BD
100
AcDbEntity
  8
Ech.1_5
 62
    36
  6
CONTINUOUS
370
    -3
100
AcDbPolyline
 90
        4
 70
     0
 43
0.0
 10
36555.50871848
 20
-32122.0647078
 10
36600.48985295
 20
-32131.05449622
 10
36600.48985295
 20
-32131.05449622
 10
36600.48985298
 20
-32133.07795377
  0
LWPOLYLINE
  5
5BE
100
AcDbEntity
  8
Ech.1_5
 62
    36
  6
CONTINUOUS
370
    -3
100
AcDbPolyline
 90
        4
 70
     0
 43
0.0
 10
36449.46757238
 20
-32161.57572081
 10
36494.44870685
 20
-32170.56550923
 10
36494.44870685
 20
-32170.56550923
 10
36494.44870688
 20
-32172.58897642
  0
LWPOLYLINE
  5
5BF
100
AcDbEntity
  8
Ech.1_5
 62
    36
  6
CONTINUOUS
370
    -3
100
AcDbPolyline
 90
        4
 70
     0
 43
0.0
 10
36494.44870688
 20
-32172.58897642
 10
36449.46757241
 20
-32163.599188
 10
36449.46757241
 20
-32163.599188
 10
36449.46757238
 20
-32161.57572081
  0
LWPOLYLINE
  5
5C0
100
AcDbEntity
  8
Ech.1_5
 62
    36
  6
CONTINUOUS
370
    -3
100
AcDbPolyline
 90
        4
 70
     0
 43
0.0
 10
36600.48985354
 20
-32163.42999061
 10
36555.50871907
 20
-32154.44020218
 10
36555.50871907
 20
-32154.44020218
 10
36555.50871903
 20
-32152.41673499
  0
LWPOLYLINE
  5
5C1
100
AcDbEntity
  8
Ech.1_5
 62
    36
  6
CONTINUOUS
370
    -3
100
AcDbPolyline
 90
        4
 70
     0
 43
0.0
 10
36555.50871903
 20
-32152.41673499
 10
36600.4898535
 20
-32161.40652341
 10
36600.4898535
 20
-32161.40652341
 10
36600.48985354
 20
-32163.42999061
  0
LINE
  5
5C2
100
AcDbEntity
  8
Ech.1_5
 62
     9
  6
CONTINUOUS
370
    -3
100
AcDbLine
 10
36661.45982271
 20
-32163.00325146
 30
0.0
 11
36661.45982219
 21
-32134.67468182
 31
0.0
  0
LINE
  5
5C3
100
AcDbEntity
  8
Ech.1_5
 62
     9
  6
CONTINUOUS
370
    -3
100
AcDbLine
 10
36712.72852231
 20
-32116.31800453
 30
0.0
 11
36712.72852282
 21
-32144.64657418
 31
0.0
  0
LWPOLYLINE
  5
5C4
100
AcDbEntity
  8
Ech.1_5
 62
     9
  6
CONTINUOUS
370
    -3
100
AcDbPolyline
 90
        4
 70
     0
 43
0.0
 10
36554.17585024
 20
-32120.38551977
 10
36554.17585044
 20
-32131.4444774
 10
36554.17585044
 20
-32131.4444774
 10
36555.50864952
 20
-32131.71084644
  0
LINE
  5
5C5
100
AcDbEntity
  8
Ech.1_5
 62
     9
  6
CONTINUOUS
370
    -3
100
AcDbLine
 10
36555.43274386
 20
-32130.99444869
 30
0.0
 11
36554.17585044
 21
-32131.4444774
 31
0.0
  0
LWPOLYLINE
  5
5C6
100
AcDbEntity
  8
Ech.1_5
 62
     9
  6
CONTINUOUS
370
    -3
100
AcDbPolyline
 90
        4
 70
     0
 43
0.0
 10
36555.50866361
 20
-32131.00962177
 10
36555.43274386
 20
-32130.99444869
 10
36555.43274386
 20
-32130.99444869
 10
36555.43274367
 20
-32120.63671654
  0
LWPOLYLINE
  5
5C7
100
AcDbEntity
  8
Ech.1_5
 62
     9
  6
CONTINUOUS
370
    -3
100
AcDbPolyline
 90
        4
 70
     0
 43
0.0
 10
36633.73506023
 20
-32136.28597389
 10
36633.73506043
 20
-32147.34493152
 10
36633.73506043
 20
-32147.34493152
 10
36645.38569324
 20
-32149.67339045
  0
LINE
  5
5C8
100
AcDbEntity
  8
Ech.1_5
 62
     9
  6
CONTINUOUS
370
    -3
100
AcDbLine
 10
36634.99195385
 20
-32146.89490281
 30
0.0
 11
36633.73506043
 21
-32147.34493152
 31
0.0
  0
LWPOLYLINE
  5
5C9
100
AcDbEntity
  8
Ech.1_5
 62
     9
  6
CONTINUOUS
370
    -3
100
AcDbPolyline
 90
        4
 70
     0
 43
0.0
 10
36645.38564316
 20
-32148.97215295
 10
36634.99195385
 20
-32146.89490281
 10
36634.99195385
 20
-32146.89490281
 10
36634.99195366
 20
-32136.53717067
  0
LINE
  5
5CA
100
AcDbEntity
  8
Ech.1_5
 62
     9
  6
CONTINUOUS
370
    -3
100
AcDbLine
 10
36638.86037695
 20
-32147.66801796
 30
0.0
 11
36645.38560164
 21
-32145.33167154
 31
0.0
  0
LINE
  5
5CB
100
AcDbEntity
  8
Ech.1_5
 62
    36
  6
CONTINUOUS
370
    -3
100
AcDbLine
 10
36468.44666856
 20
-32094.07622089
 30
0.0
 11
36513.42780303
 21
-32103.06600932
 31
0.0
  0
LINE
  5
5CC
100
AcDbEntity
  8
Ech.1_5
 62
    36
  6
CONTINUOUS
370
    -3
100
AcDbLine
 10
36494.44870573
 20
-32109.8614452
 30
0.0
 11
36513.42780303
 21
-32103.06600932
 31
0.0
  0
LINE
  5
5CD
100
AcDbEntity
  8
Ech.1_5
 62
    36
  6
CONTINUOUS
370
    -3
100
AcDbLine
 10
36468.44666856
 20
-32094.07622089
 30
0.0
 11
36449.46757126
 21
-32100.87165677
 31
0.0
  0
LWPOLYLINE
  5
5CE
100
AcDbEntity
  8
Ech.1_5
 62
    36
  6
CONTINUOUS
370
    -3
100
AcDbPolyline
 90
        4
 70
     0
 43
0.0
 10
36449.46757126
 20
-32100.87165677
 10
36494.44870573
 20
-32109.8614452
 10
36494.44870573
 20
-32109.8614452
 10
36494.44870577
 20
-32111.88490274
  0
LWPOLYLINE
  5
5CF
100
AcDbEntity
  8
Ech.1_5
 62
    36
  6
CONTINUOUS
370
    -3
100
AcDbPolyline
 90
        4
 70
     0
 43
0.0
 10
36494.44870577
 20
-32111.88490274
 10
36449.4675713
 20
-32102.89511432
 10
36449.4675713
 20
-32102.89511432
 10
36449.46757126
 20
-32100.87165677
  0
LWPOLYLINE
  5
5D0
100
AcDbEntity
  8
Ech.1_5
 62
     2
  6
CONTINUOUS
370
    -3
100
AcDbPolyline
 90
        4
 70
     0
 43
0.0
 10
36527.88364819
 20
-32186.96398685
 10
36516.1074237
 20
-32184.61042757
 10
36516.1074237
 20
-32184.61042757
 10
36516.1074235
 20
-32173.48135318
  0
LINE
  5
5D1
100
AcDbEntity
  8
Ech.1_5
 62
     2
  6
CONTINUOUS
370
    -3
100
AcDbLine
 10
36516.23311297
 20
-32184.56542472
 30
0.0
 11
36516.1074237
 21
-32184.61042757
 31
0.0
  0
LWPOLYLINE
  5
5D2
100
AcDbEntity
  8
Ech.1_5
 62
     2
  6
CONTINUOUS
370
    -3
100
AcDbPolyline
 90
        4
 70
     0
 43
0.0
 10
36527.88368161
 20
-32186.89387082
 10
36516.23311297
 20
-32184.56542472
 10
36516.23311297
 20
-32184.56542472
 10
36516.23311277
 20
-32173.5064671
  0
LWPOLYLINE
  5
5D3
100
AcDbEntity
  8
Ech.1_5
 62
     2
  6
CONTINUOUS
370
    -3
100
AcDbPolyline
 90
        4
 70
     0
 43
0.0
 10
36426.33010854
 20
-32148.45659103
 10
36426.33010906
 20
-32176.78516068
 10
36426.33010906
 20
-32176.78516068
 10
36449.46753436
 20
-32181.40933391
  0
LINE
  5
5D4
100
AcDbEntity
  8
Ech.1_5
 62
     2
  6
CONTINUOUS
370
    -3
100
AcDbLine
 10
36471.06477843
 20
-32185.42552548
 30
0.0
 11
36471.06477823
 21
-32174.99767657
 31
0.0
  0
LWPOLYLINE
  5
5D5
100
AcDbEntity
  8
Ech.1_5
 62
     2
  6
CONTINUOUS
370
    -3
100
AcDbPolyline
 90
        4
 70
     0
 43
0.0
 10
36448.32440745
 20
-32170.99340387
 10
36436.67383881
 20
-32168.66495777
 10
36436.67383881
 20
-32168.66495777
 10
36436.6738386
 20
-32157.60600015
  0
LINE
  5
5D6
100
AcDbEntity
  8
Ech.1_5
 62
     2
  6
CONTINUOUS
370
    -3
100
AcDbLine
 10
36543.83212129
 20
-32171.94017469
 30
0.0
 11
36513.30211492
 21
-32165.83854339
 31
0.0
  0
LINE
  5
5D7
100
AcDbEntity
  8
Ech.1_5
 62
     2
  6
CONTINUOUS
370
    -3
100
AcDbLine
 10
36449.46753384
 20
-32153.08076427
 30
0.0
 11
36426.33010854
 21
-32148.45659103
 31
0.0
  0
LINE
  5
5D8
100
AcDbEntity
  8
Ech.1_5
 62
     2
  6
CONTINUOUS
370
    -3
100
AcDbLine
 10
36470.93908916
 20
-32185.40041156
 30
0.0
 11
36470.93908897
 21
-32174.97255301
 31
0.0
  0
LINE
  5
5D9
100
AcDbEntity
  8
Ech.1_5
 62
     2
  6
CONTINUOUS
370
    -3
100
AcDbLine
 10
36513.30211543
 20
-32194.16711303
 30
0.0
 11
36543.83212181
 21
-32200.26874433
 31
0.0
  0
LINE
  5
5DA
100
AcDbEntity
  8
Ech.1_5
 62
     2
  6
CONTINUOUS
370
    -3
100
AcDbLine
 10
36543.83212129
 20
-32171.94017469
 30
0.0
 11
36543.83212181
 21
-32200.26874433
 31
0.0
  0
LWPOLYLINE
  5
5DB
100
AcDbEntity
  8
Ech.1_5
 62
     2
  6
CONTINUOUS
370
    -3
100
AcDbPolyline
 90
        4
 70
     0
 43
0.0
 10
36448.3244382
 20
-32171.06353273
 10
36436.54814954
 20
-32168.70996062
 10
36436.54814954
 20
-32168.70996062
 10
36436.54814934
 20
-32157.58088623
  0
LWPOLYLINE
  5
5DC
100
AcDbEntity
  8
Ech.1_5
 62
     2
  6
CONTINUOUS
370
    -3
100
AcDbPolyline
 90
        4
 70
     0
 43
0.0
 10
36436.54814934
 20
-32157.58088623
 10
36448.324438
 20
-32159.93445834
 10
36448.324438
 20
-32159.93445834
 10
36448.3244382
 20
-32171.06353273
  0
LWPOLYLINE
  5
5DD
100
AcDbEntity
  8
Ech.1_5
 62
     2
  6
CONTINUOUS
370
    -3
100
AcDbPolyline
 90
        4
 70
     0
 43
0.0
 10
36516.1074235
 20
-32173.48135318
 10
36527.88364798
 20
-32175.83491247
 10
36527.88364798
 20
-32175.83491247
 10
36527.88364819
 20
-32186.96398685
  0
LINE
  5
5DE
100
AcDbEntity
  8
Ech.1_5
 62
     2
  6
CONTINUOUS
370
    -3
100
AcDbLine
 10
36436.67383881
 20
-32168.66495777
 30
0.0
 11
36436.54814954
 21
-32168.70996062
 31
0.0
  0
LINE
  5
5DF
100
AcDbEntity
  8
Ech.1_5
 62
     2
  6
CONTINUOUS
370
    -3
100
AcDbLine
 10
36543.83212184
 20
-32202.29221153
 30
0.0
 11
36543.83212181
 21
-32200.26874433
 31
0.0
  0
LWPOLYLINE
  5
5E0
100
AcDbEntity
  8
Ech.1_5
 62
     2
  6
CONTINUOUS
370
    -3
100
AcDbPolyline
 90
        4
 70
     0
 43
0.0
 10
36426.33010906
 20
-32176.78516068
 10
36426.33010909
 20
-32178.80862787
 10
36426.33010909
 20
-32178.80862787
 10
36449.46753439
 20
-32183.43280111
  0
LINE
  5
5E1
100
AcDbEntity
  8
Ech.1_5
 62
     2
  6
CONTINUOUS
370
    -3
100
AcDbLine
 10
36513.30211547
 20
-32196.19058023
 30
0.0
 11
36543.83212184
 21
-32202.29221153
 31
0.0
  0
LWPOLYLINE
  5
5E2
100
AcDbEntity
  8
Ech.1_5
 62
     2
  6
CONTINUOUS
370
    -3
100
AcDbPolyline
 90
        4
 70
     0
 43
0.0
 10
36527.88364874
 20
-32217.31602369
 10
36516.10742426
 20
-32214.96246441
 10
36516.10742426
 20
-32214.96246441
 10
36516.10742405
 20
-32203.83339002
  0
LINE
  5
5E3
100
AcDbEntity
  8
Ech.1_5
 62
     2
  6
CONTINUOUS
370
    -3
100
AcDbLine
 10
36516.23311352
 20
-32214.91746156
 30
0.0
 11
36516.10742426
 21
-32214.96246441
 31
0.0
  0
LWPOLYLINE
  5
5E4
100
AcDbEntity
  8
Ech.1_5
 62
     2
  6
CONTINUOUS
370
    -3
100
AcDbPolyline
 90
        4
 70
     0
 43
0.0
 10
36527.88368216
 20
-32217.24590766
 10
36516.23311352
 20
-32214.91746156
 10
36516.23311352
 20
-32214.91746156
 10
36516.23311332
 20
-32203.85850394
  0
LWPOLYLINE
  5
5E5
100
AcDbEntity
  8
Ech.1_5
 62
     2
  6
CONTINUOUS
370
    -3
100
AcDbPolyline
 90
        4
 70
     0
 43
0.0
 10
36426.33010909
 20
-32178.80862787
 10
36426.33010961
 20
-32207.13719752
 10
36426.33010961
 20
-32207.13719752
 10
36449.46753491
 20
-32211.76137075
  0
LINE
  5
5E6
100
AcDbEntity
  8
Ech.1_5
 62
     2
  6
CONTINUOUS
370
    -3
100
AcDbLine
 10
36471.06477898
 20
-32215.77756714
 30
0.0
 11
36471.06477879
 21
-32205.34971341
 31
0.0
  0
LWPOLYLINE
  5
5E7
100
AcDbEntity
  8
Ech.1_5
 62
     2
  6
CONTINUOUS
370
    -3
100
AcDbPolyline
 90
        4
 70
     0
 43
0.0
 10
36448.324408
 20
-32201.34544071
 10
36436.67383936
 20
-32199.01699461
 10
36436.67383936
 20
-32199.01699461
 10
36436.67383916
 20
-32187.95803699
  0
LINE
  5
5E8
100
AcDbEntity
  8
Ech.1_5
 62
     2
  6
CONTINUOUS
370
    -3
100
AcDbLine
 10
36470.93908971
 20
-32215.7524484
 30
0.0
 11
36470.93908952
 21
-32205.32459468
 31
0.0
  0
LINE
  5
5E9
100
AcDbEntity
  8
Ech.1_5
 62
     2
  6
CONTINUOUS
370
    -3
100
AcDbLine
 10
36513.30211599
 20
-32224.51914988
 30
0.0
 11
36543.83212236
 21
-32230.62078117
 31
0.0
  0
LINE
  5
5EA
100
AcDbEntity
  8
Ech.1_5
 62
     2
  6
CONTINUOUS
370
    -3
100
AcDbLine
 10
36543.83212184
 20
-32202.29221153
 30
0.0
 11
36543.83212236
 21
-32230.62078117
 31
0.0
  0
LWPOLYLINE
  5
5EB
100
AcDbEntity
  8
Ech.1_5
 62
     2
  6
CONTINUOUS
370
    -3
100
AcDbPolyline
 90
        4
 70
     0
 43
0.0
 10
36448.32443876
 20
-32201.41556957
 10
36436.5481501
 20
-32199.06199746
 10
36436.5481501
 20
-32199.06199746
 10
36436.54814989
 20
-32187.93292307
  0
LWPOLYLINE
  5
5EC
100
AcDbEntity
  8
Ech.1_5
 62
     2
  6
CONTINUOUS
370
    -3
100
AcDbPolyline
 90
        4
 70
     0
 43
0.0
 10
36436.54814989
 20
-32187.93292307
 10
36448.32443855
 20
-32190.28649518
 10
36448.32443855
 20
-32190.28649518
 10
36448.32443876
 20
-32201.41556957
  0
LWPOLYLINE
  5
5ED
100
AcDbEntity
  8
Ech.1_5
 62
     2
  6
CONTINUOUS
370
    -3
100
AcDbPolyline
 90
        4
 70
     0
 43
0.0
 10
36516.10742405
 20
-32203.83339002
 10
36527.88364854
 20
-32206.18694931
 10
36527.88364854
 20
-32206.18694931
 10
36527.88364874
 20
-32217.31602369
  0
LINE
  5
5EE
100
AcDbEntity
  8
Ech.1_5
 62
     2
  6
CONTINUOUS
370
    -3
100
AcDbLine
 10
36436.67383936
 20
-32199.01699461
 30
0.0
 11
36436.5481501
 21
-32199.06199746
 31
0.0
  0
LINE
  5
5EF
100
AcDbEntity
  8
Ech.1_5
 62
     2
  6
CONTINUOUS
370
    -3
100
AcDbLine
 10
36543.8321224
 20
-32232.64425319
 30
0.0
 11
36543.83212236
 21
-32230.62078117
 31
0.0
  0
LWPOLYLINE
  5
5F0
100
AcDbEntity
  8
Ech.1_5
 62
     2
  6
CONTINUOUS
370
    -3
100
AcDbPolyline
 90
        4
 70
     0
 43
0.0
 10
36426.33010961
 20
-32207.13719752
 10
36426.33010965
 20
-32209.16066954
 10
36426.33010965
 20
-32209.16066954
 10
36449.46753495
 20
-32213.78484277
  0
LINE
  5
5F1
100
AcDbEntity
  8
Ech.1_5
 62
     2
  6
CONTINUOUS
370
    -3
100
AcDbLine
 10
36513.30211603
 20
-32226.54262189
 30
0.0
 11
36543.8321224
 21
-32232.64425319
 31
0.0
  0
LWPOLYLINE
  5
5F2
100
AcDbEntity
  8
Ech.1_5
 62
     2
  6
CONTINUOUS
370
    -3
100
AcDbPolyline
 90
        4
 70
     0
 43
0.0
 10
36527.8836493
 20
-32247.66806053
 10
36516.10742481
 20
-32245.31450125
 10
36516.10742481
 20
-32245.31450125
 10
36516.10742461
 20
-32234.18542204
  0
LINE
  5
5F3
100
AcDbEntity
  8
Ech.1_5
 62
     2
  6
CONTINUOUS
370
    -3
100
AcDbLine
 10
36516.23311408
 20
-32245.2694984
 30
0.0
 11
36516.10742481
 21
-32245.31450125
 31
0.0
  0
LWPOLYLINE
  5
5F4
100
AcDbEntity
  8
Ech.1_5
 62
     2
  6
CONTINUOUS
370
    -3
100
AcDbPolyline
 90
        4
 70
     0
 43
0.0
 10
36527.88368272
 20
-32247.5979445
 10
36516.23311408
 20
-32245.2694984
 10
36516.23311408
 20
-32245.2694984
 10
36516.23311388
 20
-32234.21054078
  0
LWPOLYLINE
  5
5F5
100
AcDbEntity
  8
Ech.1_5
 62
     2
  6
CONTINUOUS
370
    -3
100
AcDbPolyline
 90
        4
 70
     0
 43
0.0
 10
36426.33010965
 20
-32209.16066954
 10
36426.33011017
 20
-32237.48923677
 10
36426.33011017
 20
-32237.48923677
 10
36449.46753547
 20
-32242.11341001
  0
LINE
  5
5F6
100
AcDbEntity
  8
Ech.1_5
 62
     2
  6
CONTINUOUS
370
    -3
100
AcDbLine
 10
36471.06477954
 20
-32246.12960398
 30
0.0
 11
36471.06477935
 21
-32235.70175026
 31
0.0
  0
LWPOLYLINE
  5
5F7
100
AcDbEntity
  8
Ech.1_5
 62
     2
  6
CONTINUOUS
370
    -3
100
AcDbPolyline
 90
        4
 70
     0
 43
0.0
 10
36448.32440856
 20
-32231.69747755
 10
36436.67383992
 20
-32229.36903145
 10
36436.67383992
 20
-32229.36903145
 10
36436.67383972
 20
-32218.31007383
  0
LINE
  5
5F8
100
AcDbEntity
  8
Ech.1_5
 62
     2
  6
CONTINUOUS
370
    -3
100
AcDbLine
 10
36470.93909027
 20
-32246.10448283
 30
0.0
 11
36470.93909008
 21
-32235.67663152
 31
0.0
  0
LINE
  5
5F9
100
AcDbEntity
  8
Ech.1_5
 62
     2
  6
CONTINUOUS
370
    -3
100
AcDbLine
 10
36513.30211655
 20
-32254.87118913
 30
0.0
 11
36543.83212292
 21
-32260.97282043
 31
0.0
  0
LINE
  5
5FA
100
AcDbEntity
  8
Ech.1_5
 62
     2
  6
CONTINUOUS
370
    -3
100
AcDbLine
 10
36543.8321224
 20
-32232.64425319
 30
0.0
 11
36543.83212292
 21
-32260.97282043
 31
0.0
  0
LWPOLYLINE
  5
5FB
100
AcDbEntity
  8
Ech.1_5
 62
     2
  6
CONTINUOUS
370
    -3
100
AcDbPolyline
 90
        4
 70
     0
 43
0.0
 10
36448.32443931
 20
-32231.76760641
 10
36436.54815065
 20
-32229.4140343
 10
36436.54815065
 20
-32229.4140343
 10
36436.54815045
 20
-32218.28495509
  0
LWPOLYLINE
  5
5FC
100
AcDbEntity
  8
Ech.1_5
 62
     2
  6
CONTINUOUS
370
    -3
100
AcDbPolyline
 90
        4
 70
     0
 43
0.0
 10
36436.54815045
 20
-32218.28495509
 10
36448.32443911
 20
-32220.6385272
 10
36448.32443911
 20
-32220.6385272
 10
36448.32443931
 20
-32231.76760641
  0
LWPOLYLINE
  5
5FD
100
AcDbEntity
  8
Ech.1_5
 62
     2
  6
CONTINUOUS
370
    -3
100
AcDbPolyline
 90
        4
 70
     0
 43
0.0
 10
36516.10742461
 20
-32234.18542204
 10
36527.8836491
 20
-32236.53898132
 10
36527.8836491
 20
-32236.53898132
 10
36527.8836493
 20
-32247.66806053
  0
LINE
  5
5FE
100
AcDbEntity
  8
Ech.1_5
 62
     2
  6
CONTINUOUS
370
    -3
100
AcDbLine
 10
36436.67383992
 20
-32229.36903145
 30
0.0
 11
36436.54815065
 21
-32229.4140343
 31
0.0
  0
LINE
  5
5FF
100
AcDbEntity
  8
Ech.1_5
 62
     2
  6
CONTINUOUS
370
    -3
100
AcDbLine
 10
36543.83212296
 20
-32262.99629003
 30
0.0
 11
36543.83212292
 21
-32260.97282043
 31
0.0
  0
LWPOLYLINE
  5
600
100
AcDbEntity
  8
Ech.1_5
 62
     2
  6
CONTINUOUS
370
    -3
100
AcDbPolyline
 90
        4
 70
     0
 43
0.0
 10
36426.33011017
 20
-32237.48923677
 10
36426.33011021
 20
-32239.51270638
 10
36426.33011021
 20
-32239.51270638
 10
36449.46753551
 20
-32244.13687961
  0
LINE
  5
601
100
AcDbEntity
  8
Ech.1_5
 62
     2
  6
CONTINUOUS
370
    -3
100
AcDbLine
 10
36513.30211659
 20
-32256.89465873
 30
0.0
 11
36543.83212296
 21
-32262.99629003
 31
0.0
  0
LWPOLYLINE
  5
602
100
AcDbEntity
  8
Ech.1_5
 62
     2
  6
CONTINUOUS
370
    -3
100
AcDbPolyline
 90
        4
 70
     0
 43
0.0
 10
36543.83212351
 20
-32293.34832589
 10
36543.83212348
 20
-32291.32485666
 10
36543.83212348
 20
-32291.32485666
 10
36513.3021171
 20
-32285.22322536
  0
LWPOLYLINE
  5
603
100
AcDbEntity
  8
Ech.1_5
 62
     2
  6
CONTINUOUS
370
    -3
100
AcDbPolyline
 90
        4
 70
     0
 43
0.0
 10
36426.33011073
 20
-32267.84127301
 10
36426.33011076
 20
-32269.86474224
 10
36426.33011076
 20
-32269.86474224
 10
36449.46753606
 20
-32274.48891547
  0
LINE
  5
604
100
AcDbEntity
  8
Ech.1_5
 62
     2
  6
CONTINUOUS
370
    -3
100
AcDbLine
 10
36513.30211714
 20
-32287.24669459
 30
0.0
 11
36543.83212351
 21
-32293.34832589
 31
0.0
  0
LINE
  5
605
100
AcDbEntity
  8
Ech.1_5
 62
     2
  6
CONTINUOUS
370
    -3
100
AcDbLine
 10
36449.46753603
 20
-32272.46544624
 30
0.0
 11
36426.33011073
 21
-32267.84127301
 31
0.0
  0
LINE
  5
606
100
AcDbEntity
  8
Ech.1_5
 62
     2
  6
CONTINUOUS
370
    -3
100
AcDbLine
 10
36661.33413292
 20
-32134.71968466
 30
0.0
 11
36661.45982219
 21
-32134.67468182
 31
0.0
  0
LWPOLYLINE
  5
607
100
AcDbEntity
  8
Ech.1_5
 62
     2
  6
CONTINUOUS
370
    -3
100
AcDbPolyline
 90
        4
 70
     0
 43
0.0
 10
36543.9578094
 20
-32109.16764062
 10
36661.45982215
 20
-32132.65122427
 10
36661.45982215
 20
-32132.65122427
 10
36661.45982219
 20
-32134.67468182
  0
LINE
  5
608
100
AcDbEntity
  8
Ech.1_5
 62
     2
  6
CONTINUOUS
370
    -3
100
AcDbLine
 10
36661.33413289
 20
-32132.69622712
 30
0.0
 11
36661.45982215
 21
-32132.65122427
 31
0.0
  0
LWPOLYLINE
  5
609
100
AcDbEntity
  8
Ech.1_5
 62
     2
  6
CONTINUOUS
370
    -3
100
AcDbPolyline
 90
        4
 70
     0
 43
0.0
 10
36661.33413292
 20
-32134.71968466
 10
36661.33413289
 20
-32132.69622712
 10
36661.33413289
 20
-32132.69622712
 10
36543.83212014
 20
-32109.21264346
  0
LINE
  5
60A
100
AcDbEntity
  8
Ech.1_5
 62
     2
  6
CONTINUOUS
370
    -3
100
AcDbLine
 10
36543.83212014
 20
-32109.21264346
 30
0.0
 11
36543.9578094
 21
-32109.16764062
 31
0.0
  0
LWPOLYLINE
  5
60B
100
AcDbEntity
  8
Ech.1_5
 62
     2
  6
CONTINUOUS
370
    -3
100
AcDbPolyline
 90
        4
 70
     0
 43
0.0
 10
36543.83212014
 20
-32109.21264346
 10
36543.83212017
 20
-32111.23610101
 10
36543.83212017
 20
-32111.23610101
 10
36570.73517776
 20
-32116.6128617
  0
LINE
  5
60C
100
AcDbEntity
  8
Ech.1_5
 62
     2
  6
CONTINUOUS
370
    -3
100
AcDbLine
 10
36619.34326102
 20
-32126.32752073
 30
0.0
 11
36661.33413292
 21
-32134.71968466
 31
0.0
  0
LWPOLYLINE
  5
60D
100
AcDbEntity
  8
Ech.1_5
 62
     2
  6
CONTINUOUS
370
    -3
100
AcDbPolyline
 90
        4
 70
     0
 43
0.0
 10
36645.38565982
 20
-32149.74350647
 10
36633.60937116
 20
-32147.38993437
 10
36633.60937116
 20
-32147.38993437
 10
36633.60937096
 20
-32136.26085033
  0
LINE
  5
60E
100
AcDbEntity
  8
Ech.1_5
 62
     2
  6
CONTINUOUS
370
    -3
100
AcDbLine
 10
36633.73506043
 20
-32147.34493152
 30
0.0
 11
36633.60937116
 21
-32147.38993437
 31
0.0
  0
LWPOLYLINE
  5
60F
100
AcDbEntity
  8
Ech.1_5
 62
     2
  6
CONTINUOUS
370
    -3
100
AcDbPolyline
 90
        4
 70
     0
 43
0.0
 10
36645.38569324
 20
-32149.67339045
 10
36633.73506043
 20
-32147.34493152
 10
36633.73506043
 20
-32147.34493152
 10
36633.73506023
 20
-32136.28597389
  0
LWPOLYLINE
  5
610
100
AcDbEntity
  8
Ech.1_5
 62
     2
  6
CONTINUOUS
370
    -3
100
AcDbPolyline
 90
        4
 70
     0
 43
0.0
 10
36543.83212017
 20
-32111.23610101
 10
36543.83212069
 20
-32139.56467065
 10
36543.83212069
 20
-32139.56467065
 10
36555.50868046
 20
-32141.89831126
  0
LINE
  5
611
100
AcDbEntity
  8
Ech.1_5
 62
     2
  6
CONTINUOUS
370
    -3
100
AcDbLine
 10
36661.45982219
 20
-32134.67468182
 30
0.0
 11
36661.45982271
 21
-32163.00325146
 31
0.0
  0
LWPOLYLINE
  5
612
100
AcDbEntity
  8
Ech.1_5
 62
     2
  6
CONTINUOUS
370
    -3
100
AcDbPolyline
 90
        4
 70
     0
 43
0.0
 10
36555.50864952
 20
-32131.71084644
 10
36554.17585044
 20
-32131.4444774
 10
36554.17585044
 20
-32131.4444774
 10
36554.17585024
 20
-32120.38551977
  0
LINE
  5
613
100
AcDbEntity
  8
Ech.1_5
 62
     2
  6
CONTINUOUS
370
    -3
100
AcDbLine
 10
36619.34326154
 20
-32154.65609038
 30
0.0
 11
36661.33413344
 21
-32163.04825431
 31
0.0
  0
LINE
  5
614
100
AcDbEntity
  8
Ech.1_5
 62
     2
  6
CONTINUOUS
370
    -3
100
AcDbLine
 10
36661.33413292
 20
-32134.71968466
 30
0.0
 11
36661.33413344
 21
-32163.04825431
 31
0.0
  0
LWPOLYLINE
  5
615
100
AcDbEntity
  8
Ech.1_5
 62
     2
  6
CONTINUOUS
370
    -3
100
AcDbPolyline
 90
        4
 70
     0
 43
0.0
 10
36555.50868027
 20
-32131.78097529
 10
36554.05016118
 20
-32131.48948024
 10
36554.05016118
 20
-32131.48948024
 10
36554.05016097
 20
-32120.36039621
  0
LINE
  5
616
100
AcDbEntity
  8
Ech.1_5
 62
     2
  6
CONTINUOUS
370
    -3
100
AcDbLine
 10
36554.05016097
 20
-32120.36039621
 30
0.0
 11
36558.04098547
 21
-32121.15798987
 31
0.0
  0
LWPOLYLINE
  5
617
100
AcDbEntity
  8
Ech.1_5
 62
     2
  6
CONTINUOUS
370
    -3
100
AcDbPolyline
 90
        4
 70
     0
 43
0.0
 10
36633.60937096
 20
-32136.26085033
 10
36645.38565962
 20
-32138.61442244
 10
36645.38565962
 20
-32138.61442244
 10
36645.38565982
 20
-32149.74350647
  0
LINE
  5
618
100
AcDbEntity
  8
Ech.1_5
 62
     2
  6
CONTINUOUS
370
    -3
100
AcDbLine
 10
36661.45982271
 20
-32163.00325146
 30
0.0
 11
36661.33413344
 21
-32163.04825431
 31
0.0
  0
LINE
  5
619
100
AcDbEntity
  8
Ech.1_5
 62
     2
  6
CONTINUOUS
370
    -3
100
AcDbLine
 10
36554.17585044
 20
-32131.4444774
 30
0.0
 11
36554.05016118
 21
-32131.48948024
 31
0.0
  0
LINE
  5
61A
100
AcDbEntity
  8
Ech.1_5
 62
     2
  6
CONTINUOUS
370
    -3
100
AcDbLine
 10
36661.33413348
 20
-32165.0717215
 30
0.0
 11
36661.45982275
 21
-32165.02671866
 31
0.0
  0
LINE
  5
61B
100
AcDbEntity
  8
Ech.1_5
 62
     2
  6
CONTINUOUS
370
    -3
100
AcDbLine
 10
36661.45982271
 20
-32163.00325146
 30
0.0
 11
36661.45982275
 21
-32165.02671866
 31
0.0
  0
LINE
  5
61C
100
AcDbEntity
  8
Ech.1_5
 62
     2
  6
CONTINUOUS
370
    -3
100
AcDbLine
 10
36661.33413348
 20
-32165.0717215
 30
0.0
 11
36661.33413344
 21
-32163.04825431
 31
0.0
  0
LWPOLYLINE
  5
61D
100
AcDbEntity
  8
Ech.1_5
 62
     2
  6
CONTINUOUS
370
    -3
100
AcDbPolyline
 90
        4
 70
     0
 43
0.0
 10
36543.83212069
 20
-32139.56467065
 10
36543.83212073
 20
-32141.58813785
 10
36543.83212073
 20
-32141.58813785
 10
36555.50868049
 20
-32143.92177845
  0
LINE
  5
61E
100
AcDbEntity
  8
Ech.1_5
 62
     2
  6
CONTINUOUS
370
    -3
100
AcDbLine
 10
36619.34326157
 20
-32156.67955757
 30
0.0
 11
36661.33413348
 21
-32165.0717215
 31
0.0
  0
LWPOLYLINE
  5
61F
100
AcDbEntity
  8
Ech.1_5
 62
     2
  6
CONTINUOUS
370
    -3
100
AcDbPolyline
 90
        4
 70
     0
 43
0.0
 10
36645.38566261
 20
-32301.50368344
 10
36633.60937395
 20
-32299.15011133
 10
36633.60937395
 20
-32299.15011133
 10
36633.60937374
 20
-32288.02102971
  0
LINE
  5
620
100
AcDbEntity
  8
Ech.1_5
 62
     2
  6
CONTINUOUS
370
    -3
100
AcDbLine
 10
36633.73506321
 20
-32299.10510849
 30
0.0
 11
36633.60937395
 21
-32299.15011133
 31
0.0
  0
LWPOLYLINE
  5
621
100
AcDbEntity
  8
Ech.1_5
 62
     2
  6
CONTINUOUS
370
    -3
100
AcDbPolyline
 90
        4
 70
     0
 43
0.0
 10
36645.38569603
 20
-32301.43356741
 10
36633.73506321
 20
-32299.10510849
 10
36633.73506321
 20
-32299.10510849
 10
36633.73506301
 20
-32288.04615086
  0
LWPOLYLINE
  5
622
100
AcDbEntity
  8
Ech.1_5
 62
     2
  6
CONTINUOUS
370
    -3
100
AcDbPolyline
 90
        4
 70
     0
 43
0.0
 10
36543.83212296
 20
-32262.99629003
 10
36543.83212348
 20
-32291.32485666
 10
36543.83212348
 20
-32291.32485666
 10
36555.50868324
 20
-32293.65849727
  0
LINE
  5
623
100
AcDbEntity
  8
Ech.1_5
 62
     2
  6
CONTINUOUS
370
    -3
100
AcDbLine
 10
36661.45982497
 20
-32286.43487084
 30
0.0
 11
36661.45982549
 21
-32314.76343747
 31
0.0
  0
LWPOLYLINE
  5
624
100
AcDbEntity
  8
Ech.1_5
 62
     2
  6
CONTINUOUS
370
    -3
100
AcDbPolyline
 90
        4
 70
     0
 43
0.0
 10
36555.5086523
 20
-32283.4710234
 10
36554.17585323
 20
-32283.20465436
 10
36554.17585323
 20
-32283.20465436
 10
36554.17585302
 20
-32272.14569674
  0
LINE
  5
625
100
AcDbEntity
  8
Ech.1_5
 62
     2
  6
CONTINUOUS
370
    -3
100
AcDbLine
 10
36661.33413571
 20
-32286.47987369
 30
0.0
 11
36619.3432638
 21
-32278.08770976
 31
0.0
  0
LINE
  5
626
100
AcDbEntity
  8
Ech.1_5
 62
     2
  6
CONTINUOUS
370
    -3
100
AcDbLine
 10
36555.50868272
 20
-32265.32993064
 30
0.0
 11
36543.83212296
 21
-32262.99629003
 31
0.0
  0
LINE
  5
627
100
AcDbEntity
  8
Ech.1_5
 62
     2
  6
CONTINUOUS
370
    -3
100
AcDbLine
 10
36661.33413571
 20
-32286.47987369
 30
0.0
 11
36661.45982497
 21
-32286.43487084
 31
0.0
  0
LINE
  5
628
100
AcDbEntity
  8
Ech.1_5
 62
     2
  6
CONTINUOUS
370
    -3
100
AcDbLine
 10
36619.34326432
 20
-32306.41627639
 30
0.0
 11
36661.33413623
 21
-32314.80844032
 31
0.0
  0
LINE
  5
629
100
AcDbEntity
  8
Ech.1_5
 62
     2
  6
CONTINUOUS
370
    -3
100
AcDbLine
 10
36661.33413571
 20
-32286.47987369
 30
0.0
 11
36661.33413623
 21
-32314.80844032
 31
0.0
  0
LWPOLYLINE
  5
62A
100
AcDbEntity
  8
Ech.1_5
 62
     2
  6
CONTINUOUS
370
    -3
100
AcDbPolyline
 90
        4
 70
     0
 43
0.0
 10
36555.50868305
 20
-32283.54115226
 10
36554.05016396
 20
-32283.24965721
 10
36554.05016396
 20
-32283.24965721
 10
36554.05016376
 20
-32272.12057558
  0
LINE
  5
62B
100
AcDbEntity
  8
Ech.1_5
 62
     2
  6
CONTINUOUS
370
    -3
100
AcDbLine
 10
36554.05016376
 20
-32272.12057558
 30
0.0
 11
36555.50868285
 21
-32272.41207063
 31
0.0
  0
LWPOLYLINE
  5
62C
100
AcDbEntity
  8
Ech.1_5
 62
     2
  6
CONTINUOUS
370
    -3
100
AcDbPolyline
 90
        4
 70
     0
 43
0.0
 10
36633.60937374
 20
-32288.02102971
 10
36645.3856624
 20
-32290.37460182
 10
36645.3856624
 20
-32290.37460182
 10
36645.38566261
 20
-32301.50368344
  0
LINE
  5
62D
100
AcDbEntity
  8
Ech.1_5
 62
     2
  6
CONTINUOUS
370
    -3
100
AcDbLine
 10
36661.45982549
 20
-32314.76343747
 30
0.0
 11
36661.33413623
 21
-32314.80844032
 31
0.0
  0
LINE
  5
62E
100
AcDbEntity
  8
Ech.1_5
 62
     2
  6
CONTINUOUS
370
    -3
100
AcDbLine
 10
36554.17585323
 20
-32283.20465436
 30
0.0
 11
36554.05016396
 21
-32283.24965721
 31
0.0
  0
LINE
  5
62F
100
AcDbEntity
  8
Ech.1_5
 62
     2
  6
CONTINUOUS
370
    -3
100
AcDbLine
 10
36661.33413626
 20
-32597.97210315
 30
0.0
 11
36661.45982553
 21
-32597.92710031
 31
0.0
  0
LINE
  5
630
100
AcDbEntity
  8
Ech.1_5
 62
     2
  6
CONTINUOUS
370
    -3
100
AcDbLine
 10
36661.45982549
 20
-32314.76343747
 30
0.0
 11
36661.45982553
 21
-32316.7869067
 31
0.0
  0
LINE
  5
631
100
AcDbEntity
  8
Ech.1_5
 62
     2
  6
CONTINUOUS
370
    -3
100
AcDbLine
 10
36661.33413626
 20
-32316.83190955
 30
0.0
 11
36661.33413623
 21
-32314.80844032
 31
0.0
  0
LINE
  5
632
100
AcDbEntity
  8
Ech.1_5
 62
     2
  6
CONTINUOUS
370
    -3
100
AcDbLine
 10
36543.83212351
 20
-32293.34832589
 30
0.0
 11
36555.50868328
 21
-32295.6819665
 31
0.0
  0
LINE
  5
633
100
AcDbEntity
  8
Ech.1_5
 62
     2
  6
CONTINUOUS
370
    -3
100
AcDbLine
 10
36619.34326436
 20
-32308.43974562
 30
0.0
 11
36661.33413626
 21
-32316.83190955
 31
0.0
  0
LWPOLYLINE
  5
634
100
AcDbEntity
  8
Ech.1_5
 62
     2
  6
CONTINUOUS
370
    -3
100
AcDbPolyline
 90
        4
 70
     0
 43
0.0
 10
36527.88364707
 20
-32126.25992282
 10
36516.10742259
 20
-32123.90636354
 10
36516.10742259
 20
-32123.90636354
 10
36516.10742238
 20
-32112.7772795
  0
LINE
  5
635
100
AcDbEntity
  8
Ech.1_5
 62
     2
  6
CONTINUOUS
370
    -3
100
AcDbLine
 10
36516.23311185
 20
-32123.86136069
 30
0.0
 11
36516.10742259
 21
-32123.90636354
 31
0.0
  0
LWPOLYLINE
  5
636
100
AcDbEntity
  8
Ech.1_5
 62
     2
  6
CONTINUOUS
370
    -3
100
AcDbPolyline
 90
        4
 70
     0
 43
0.0
 10
36527.88368049
 20
-32126.18980679
 10
36516.23311185
 20
-32123.86136069
 10
36516.23311185
 20
-32123.86136069
 10
36516.23311165
 20
-32112.80240307
  0
LWPOLYLINE
  5
637
100
AcDbEntity
  8
Ech.1_5
 62
     2
  6
CONTINUOUS
370
    -3
100
AcDbPolyline
 90
        4
 70
     0
 43
0.0
 10
36426.33010742
 20
-32087.75251735
 10
36426.33010794
 20
-32116.081087
 10
36426.33010794
 20
-32116.081087
 10
36449.46753324
 20
-32120.70526023
  0
LINE
  5
638
100
AcDbEntity
  8
Ech.1_5
 62
     2
  6
CONTINUOUS
370
    -3
100
AcDbLine
 10
36471.06477731
 20
-32124.7214518
 30
0.0
 11
36471.06477712
 21
-32114.29360289
 31
0.0
  0
LWPOLYLINE
  5
639
100
AcDbEntity
  8
Ech.1_5
 62
     2
  6
CONTINUOUS
370
    -3
100
AcDbPolyline
 90
        4
 70
     0
 43
0.0
 10
36448.32440633
 20
-32110.28933984
 10
36436.67383769
 20
-32107.96089374
 10
36436.67383769
 20
-32107.96089374
 10
36436.67383749
 20
-32096.90193611
  0
LINE
  5
63A
100
AcDbEntity
  8
Ech.1_5
 62
     2
  6
CONTINUOUS
370
    -3
100
AcDbLine
 10
36543.83212017
 20
-32111.23610101
 30
0.0
 11
36513.3021138
 21
-32105.13446971
 31
0.0
  0
LINE
  5
63B
100
AcDbEntity
  8
Ech.1_5
 62
     2
  6
CONTINUOUS
370
    -3
100
AcDbLine
 10
36464.69403054
 20
-32095.41981067
 30
0.0
 11
36426.33010742
 21
-32087.75251735
 31
0.0
  0
LINE
  5
63C
100
AcDbEntity
  8
Ech.1_5
 62
     2
  6
CONTINUOUS
370
    -3
100
AcDbLine
 10
36470.93908804
 20
-32124.69633788
 30
0.0
 11
36470.93908785
 21
-32114.26847933
 31
0.0
  0
LINE
  5
63D
100
AcDbEntity
  8
Ech.1_5
 62
     2
  6
CONTINUOUS
370
    -3
100
AcDbLine
 10
36513.30211432
 20
-32133.46303935
 30
0.0
 11
36543.83212069
 21
-32139.56467065
 31
0.0
  0
LWPOLYLINE
  5
63E
100
AcDbEntity
  8
Ech.1_5
 62
     2
  6
CONTINUOUS
370
    -3
100
AcDbPolyline
 90
        4
 70
     0
 43
0.0
 10
36448.32443709
 20
-32110.35946869
 10
36436.54814843
 20
-32108.00589659
 10
36436.54814843
 20
-32108.00589659
 10
36436.54814822
 20
-32096.87681255
  0
LWPOLYLINE
  5
63F
100
AcDbEntity
  8
Ech.1_5
 62
     2
  6
CONTINUOUS
370
    -3
100
AcDbPolyline
 90
        4
 70
     0
 43
0.0
 10
36436.54814822
 20
-32096.87681255
 10
36448.32443688
 20
-32099.23038466
 10
36448.32443688
 20
-32099.23038466
 10
36448.32443709
 20
-32110.35946869
  0
LWPOLYLINE
  5
640
100
AcDbEntity
  8
Ech.1_5
 62
     2
  6
CONTINUOUS
370
    -3
100
AcDbPolyline
 90
        4
 70
     0
 43
0.0
 10
36516.10742238
 20
-32112.7772795
 10
36527.88364687
 20
-32115.13083878
 10
36527.88364687
 20
-32115.13083878
 10
36527.88364707
 20
-32126.25992282
  0
LINE
  5
641
100
AcDbEntity
  8
Ech.1_5
 62
     2
  6
CONTINUOUS
370
    -3
100
AcDbLine
 10
36436.67383769
 20
-32107.96089374
 30
0.0
 11
36436.54814843
 21
-32108.00589659
 31
0.0
  0
LWPOLYLINE
  5
642
100
AcDbEntity
  8
Ech.1_5
 62
     2
  6
CONTINUOUS
370
    -3
100
AcDbPolyline
 90
        4
 70
     0
 43
0.0
 10
36527.88364986
 20
-32278.02009978
 10
36516.10742537
 20
-32275.6665405
 10
36516.10742537
 20
-32275.6665405
 10
36516.10742517
 20
-32264.53745888
  0
LINE
  5
643
100
AcDbEntity
  8
Ech.1_5
 62
     2
  6
CONTINUOUS
370
    -3
100
AcDbLine
 10
36516.23311464
 20
-32275.62153766
 30
0.0
 11
36516.10742537
 21
-32275.6665405
 31
0.0
  0
LWPOLYLINE
  5
644
100
AcDbEntity
  8
Ech.1_5
 62
     2
  6
CONTINUOUS
370
    -3
100
AcDbPolyline
 90
        4
 70
     0
 43
0.0
 10
36527.88368328
 20
-32277.94998376
 10
36516.23311464
 20
-32275.62153766
 10
36516.23311464
 20
-32275.62153766
 10
36516.23311444
 20
-32264.56258003
  0
LINE
  5
645
100
AcDbEntity
  8
Ech.1_5
 62
     2
  6
CONTINUOUS
370
    -3
100
AcDbLine
 10
36471.0647801
 20
-32276.48164082
 30
0.0
 11
36471.0647799
 21
-32266.0537883
 31
0.0
  0
LWPOLYLINE
  5
646
100
AcDbEntity
  8
Ech.1_5
 62
     2
  6
CONTINUOUS
370
    -3
100
AcDbPolyline
 90
        4
 70
     0
 43
0.0
 10
36448.32440912
 20
-32262.04951681
 10
36436.67384048
 20
-32259.72107071
 10
36436.67384048
 20
-32259.72107071
 10
36436.67384027
 20
-32248.66211308
  0
LINE
  5
647
100
AcDbEntity
  8
Ech.1_5
 62
     2
  6
CONTINUOUS
370
    -3
100
AcDbLine
 10
36426.33011021
 20
-32239.51270638
 30
0.0
 11
36426.33011073
 21
-32267.84127301
 31
0.0
  0
LINE
  5
648
100
AcDbEntity
  8
Ech.1_5
 62
     2
  6
CONTINUOUS
370
    -3
100
AcDbLine
 10
36470.93909083
 20
-32276.45652088
 30
0.0
 11
36470.93909064
 21
-32266.02866836
 31
0.0
  0
LWPOLYLINE
  5
649
100
AcDbEntity
  8
Ech.1_5
 62
     2
  6
CONTINUOUS
370
    -3
100
AcDbPolyline
 90
        4
 70
     0
 43
0.0
 10
36448.32443987
 20
-32262.11964566
 10
36436.54815121
 20
-32259.76607355
 10
36436.54815121
 20
-32259.76607355
 10
36436.54815101
 20
-32248.63699193
  0
LWPOLYLINE
  5
64A
100
AcDbEntity
  8
Ech.1_5
 62
     2
  6
CONTINUOUS
370
    -3
100
AcDbPolyline
 90
        4
 70
     0
 43
0.0
 10
36436.54815101
 20
-32248.63699193
 10
36448.32443967
 20
-32250.99056404
 10
36448.32443967
 20
-32250.99056404
 10
36448.32443987
 20
-32262.11964566
  0
LWPOLYLINE
  5
64B
100
AcDbEntity
  8
Ech.1_5
 62
     2
  6
CONTINUOUS
370
    -3
100
AcDbPolyline
 90
        4
 70
     0
 43
0.0
 10
36516.10742517
 20
-32264.53745888
 10
36527.88364965
 20
-32266.89101816
 10
36527.88364965
 20
-32266.89101816
 10
36527.88364986
 20
-32278.02009978
  0
LINE
  5
64C
100
AcDbEntity
  8
Ech.1_5
 62
     2
  6
CONTINUOUS
370
    -3
100
AcDbLine
 10
36436.67384048
 20
-32259.72107071
 30
0.0
 11
36436.54815121
 21
-32259.76607355
 31
0.0
  0
LINE
  5
64D
100
AcDbEntity
  8
Ech.1_5
 62
     2
  6
CONTINUOUS
370
    -3
100
AcDbLine
 10
36426.45579665
 20
-32085.68405696
 30
0.0
 11
36543.9578094
 21
-32109.16764062
 31
0.0
  0
LINE
  5
64E
100
AcDbEntity
  8
Ech.1_5
 62
     2
  6
CONTINUOUS
370
    -3
100
AcDbLine
 10
36426.33010739
 20
-32085.72905981
 30
0.0
 11
36426.45579665
 21
-32085.68405696
 31
0.0
  0
LINE
  5
64F
100
AcDbEntity
  8
Ech.1_5
 62
     2
  6
CONTINUOUS
370
    -3
100
AcDbLine
 10
36426.33010739
 20
-32085.72905981
 30
0.0
 11
36426.33010742
 21
-32087.75251735
 31
0.0
  0
LINE
  5
650
100
AcDbEntity
  8
Ech.1_5
 62
     2
  6
CONTINUOUS
370
    -3
100
AcDbLine
 10
36543.83212014
 20
-32109.21264346
 30
0.0
 11
36426.33010739
 21
-32085.72905981
 31
0.0
  0
LWPOLYLINE
  5
651
100
AcDbEntity
  8
Ech.1_5
 62
     2
  6
CONTINUOUS
370
    -3
100
AcDbPolyline
 90
        4
 70
     0
 43
0.0
 10
36426.33010794
 20
-32116.081087
 10
36426.33010798
 20
-32118.10455419
 10
36426.33010798
 20
-32118.10455419
 10
36449.46753328
 20
-32122.72872743
  0
LINE
  5
652
100
AcDbEntity
  8
Ech.1_5
 62
     2
  6
CONTINUOUS
370
    -3
100
AcDbLine
 10
36513.30211436
 20
-32135.48650655
 30
0.0
 11
36543.83212073
 21
-32141.58813785
 31
0.0
  0
LWPOLYLINE
  5
653
100
AcDbEntity
  8
Ech.1_5
 62
     2
  6
CONTINUOUS
370
    -3
100
AcDbPolyline
 90
        4
 70
     0
 43
0.0
 10
36527.88364763
 20
-32156.61195001
 10
36516.10742314
 20
-32154.25839073
 10
36516.10742314
 20
-32154.25839073
 10
36516.10742294
 20
-32143.12931634
  0
LINE
  5
654
100
AcDbEntity
  8
Ech.1_5
 62
     2
  6
CONTINUOUS
370
    -3
100
AcDbLine
 10
36516.23311241
 20
-32154.21338788
 30
0.0
 11
36516.10742314
 21
-32154.25839073
 31
0.0
  0
LWPOLYLINE
  5
655
100
AcDbEntity
  8
Ech.1_5
 62
     2
  6
CONTINUOUS
370
    -3
100
AcDbPolyline
 90
        4
 70
     0
 43
0.0
 10
36527.88368105
 20
-32156.54183398
 10
36516.23311241
 20
-32154.21338788
 10
36516.23311241
 20
-32154.21338788
 10
36516.23311221
 20
-32143.15443026
  0
LWPOLYLINE
  5
656
100
AcDbEntity
  8
Ech.1_5
 62
     2
  6
CONTINUOUS
370
    -3
100
AcDbPolyline
 90
        4
 70
     0
 43
0.0
 10
36426.33010798
 20
-32118.10455419
 10
36426.3301085
 20
-32146.43312384
 10
36426.3301085
 20
-32146.43312384
 10
36449.4675338
 20
-32151.05729707
  0
LINE
  5
657
100
AcDbEntity
  8
Ech.1_5
 62
     2
  6
CONTINUOUS
370
    -3
100
AcDbLine
 10
36471.06477787
 20
-32155.07348864
 30
0.0
 11
36471.06477768
 21
-32144.64563973
 31
0.0
  0
LWPOLYLINE
  5
658
100
AcDbEntity
  8
Ech.1_5
 62
     2
  6
CONTINUOUS
370
    -3
100
AcDbPolyline
 90
        4
 70
     0
 43
0.0
 10
36448.32440689
 20
-32140.64136703
 10
36436.67383825
 20
-32138.31292093
 10
36436.67383825
 20
-32138.31292093
 10
36436.67383805
 20
-32127.25396331
  0
LINE
  5
659
100
AcDbEntity
  8
Ech.1_5
 62
     2
  6
CONTINUOUS
370
    -3
100
AcDbLine
 10
36470.9390886
 20
-32155.04837472
 30
0.0
 11
36470.93908841
 21
-32144.62051617
 31
0.0
  0
LINE
  5
65A
100
AcDbEntity
  8
Ech.1_5
 62
     2
  6
CONTINUOUS
370
    -3
100
AcDbLine
 10
36513.30211488
 20
-32163.81507619
 30
0.0
 11
36543.83212125
 21
-32169.91670749
 31
0.0
  0
LINE
  5
65B
100
AcDbEntity
  8
Ech.1_5
 62
     2
  6
CONTINUOUS
370
    -3
100
AcDbLine
 10
36543.83212073
 20
-32141.58813785
 30
0.0
 11
36543.83212125
 21
-32169.91670749
 31
0.0
  0
LWPOLYLINE
  5
65C
100
AcDbEntity
  8
Ech.1_5
 62
     2
  6
CONTINUOUS
370
    -3
100
AcDbPolyline
 90
        4
 70
     0
 43
0.0
 10
36448.32443764
 20
-32140.71149589
 10
36436.54814898
 20
-32138.35792378
 10
36436.54814898
 20
-32138.35792378
 10
36436.54814878
 20
-32127.22884939
  0
LWPOLYLINE
  5
65D
100
AcDbEntity
  8
Ech.1_5
 62
     2
  6
CONTINUOUS
370
    -3
100
AcDbPolyline
 90
        4
 70
     0
 43
0.0
 10
36436.54814878
 20
-32127.22884939
 10
36448.32443744
 20
-32129.5824215
 10
36448.32443744
 20
-32129.5824215
 10
36448.32443764
 20
-32140.71149589
  0
LWPOLYLINE
  5
65E
100
AcDbEntity
  8
Ech.1_5
 62
     2
  6
CONTINUOUS
370
    -3
100
AcDbPolyline
 90
        4
 70
     0
 43
0.0
 10
36516.10742294
 20
-32143.12931634
 10
36527.88364743
 20
-32145.48287562
 10
36527.88364743
 20
-32145.48287562
 10
36527.88364763
 20
-32156.61195001
  0
LINE
  5
65F
100
AcDbEntity
  8
Ech.1_5
 62
     2
  6
CONTINUOUS
370
    -3
100
AcDbLine
 10
36436.67383825
 20
-32138.31292093
 30
0.0
 11
36436.54814898
 21
-32138.35792378
 31
0.0
  0
LINE
  5
660
100
AcDbEntity
  8
Ech.1_5
 62
     2
  6
CONTINUOUS
370
    -3
100
AcDbLine
 10
36543.83212129
 20
-32171.94017469
 30
0.0
 11
36543.83212125
 21
-32169.91670749
 31
0.0
  0
LINE
  5
661
100
AcDbEntity
  8
Ech.1_5
 62
     2
  6
CONTINUOUS
370
    -3
100
AcDbLine
 10
36426.3301085
 20
-32146.43312384
 30
0.0
 11
36426.33010854
 21
-32148.45659103
 31
0.0
  0
LWPOLYLINE
  5
662
100
AcDbEntity
  8
Ech.1_5
 62
     2
  6
CONTINUOUS
370
    -3
100
AcDbPolyline
 90
        4
 70
     0
 43
0.0
 10
36645.38566038
 20
-32180.09553367
 10
36633.60937172
 20
-32177.74196156
 10
36633.60937172
 20
-32177.74196156
 10
36633.60937151
 20
-32166.61288717
  0
LINE
  5
663
100
AcDbEntity
  8
Ech.1_5
 62
     2
  6
CONTINUOUS
370
    -3
100
AcDbLine
 10
36633.73506099
 20
-32177.69695871
 30
0.0
 11
36633.60937172
 21
-32177.74196156
 31
0.0
  0
LWPOLYLINE
  5
664
100
AcDbEntity
  8
Ech.1_5
 62
     2
  6
CONTINUOUS
370
    -3
100
AcDbPolyline
 90
        4
 70
     0
 43
0.0
 10
36645.3856938
 20
-32180.02541764
 10
36633.73506099
 20
-32177.69695871
 10
36633.73506099
 20
-32177.69695871
 10
36633.73506078
 20
-32166.63800109
  0
LINE
  5
665
100
AcDbEntity
  8
Ech.1_5
 62
     2
  6
CONTINUOUS
370
    -3
100
AcDbLine
 10
36543.83212125
 20
-32169.91670749
 30
0.0
 11
36555.50868101
 21
-32172.2503481
 31
0.0
  0
LINE
  5
666
100
AcDbEntity
  8
Ech.1_5
 62
     2
  6
CONTINUOUS
370
    -3
100
AcDbLine
 10
36661.45982275
 20
-32165.02671866
 30
0.0
 11
36661.45982327
 21
-32193.3552883
 31
0.0
  0
LWPOLYLINE
  5
667
100
AcDbEntity
  8
Ech.1_5
 62
     2
  6
CONTINUOUS
370
    -3
100
AcDbPolyline
 90
        4
 70
     0
 43
0.0
 10
36555.50865007
 20
-32162.06287363
 10
36554.175851
 20
-32161.79650459
 10
36554.175851
 20
-32161.79650459
 10
36554.1758508
 20
-32150.73754696
  0
LINE
  5
668
100
AcDbEntity
  8
Ech.1_5
 62
     2
  6
CONTINUOUS
370
    -3
100
AcDbLine
 10
36619.34326209
 20
-32185.00812722
 30
0.0
 11
36661.334134
 21
-32193.40029115
 31
0.0
  0
LINE
  5
669
100
AcDbEntity
  8
Ech.1_5
 62
     2
  6
CONTINUOUS
370
    -3
100
AcDbLine
 10
36661.33413348
 20
-32165.0717215
 30
0.0
 11
36661.334134
 21
-32193.40029115
 31
0.0
  0
LWPOLYLINE
  5
66A
100
AcDbEntity
  8
Ech.1_5
 62
     2
  6
CONTINUOUS
370
    -3
100
AcDbPolyline
 90
        4
 70
     0
 43
0.0
 10
36555.50868083
 20
-32162.13300248
 10
36554.05016173
 20
-32161.84150743
 10
36554.05016173
 20
-32161.84150743
 10
36554.05016153
 20
-32150.71243305
  0
LINE
  5
66B
100
AcDbEntity
  8
Ech.1_5
 62
     2
  6
CONTINUOUS
370
    -3
100
AcDbLine
 10
36554.05016153
 20
-32150.71243305
 30
0.0
 11
36555.50868062
 21
-32151.0039281
 31
0.0
  0
LWPOLYLINE
  5
66C
100
AcDbEntity
  8
Ech.1_5
 62
     2
  6
CONTINUOUS
370
    -3
100
AcDbPolyline
 90
        4
 70
     0
 43
0.0
 10
36633.60937151
 20
-32166.61288717
 10
36645.38566018
 20
-32168.96645928
 10
36645.38566018
 20
-32168.96645928
 10
36645.38566038
 20
-32180.09553367
  0
LINE
  5
66D
100
AcDbEntity
  8
Ech.1_5
 62
     2
  6
CONTINUOUS
370
    -3
100
AcDbLine
 10
36661.45982327
 20
-32193.3552883
 30
0.0
 11
36661.334134
 21
-32193.40029115
 31
0.0
  0
LINE
  5
66E
100
AcDbEntity
  8
Ech.1_5
 62
     2
  6
CONTINUOUS
370
    -3
100
AcDbLine
 10
36554.175851
 20
-32161.79650459
 30
0.0
 11
36554.05016173
 21
-32161.84150743
 31
0.0
  0
LINE
  5
66F
100
AcDbEntity
  8
Ech.1_5
 62
     2
  6
CONTINUOUS
370
    -3
100
AcDbLine
 10
36661.33413404
 20
-32195.42375834
 30
0.0
 11
36661.4598233
 21
-32195.3787555
 31
0.0
  0
LINE
  5
670
100
AcDbEntity
  8
Ech.1_5
 62
     2
  6
CONTINUOUS
370
    -3
100
AcDbLine
 10
36661.45982327
 20
-32193.3552883
 30
0.0
 11
36661.4598233
 21
-32195.3787555
 31
0.0
  0
LINE
  5
671
100
AcDbEntity
  8
Ech.1_5
 62
     2
  6
CONTINUOUS
370
    -3
100
AcDbLine
 10
36661.33413404
 20
-32195.42375834
 30
0.0
 11
36661.334134
 21
-32193.40029115
 31
0.0
  0
LINE
  5
672
100
AcDbEntity
  8
Ech.1_5
 62
     2
  6
CONTINUOUS
370
    -3
100
AcDbLine
 10
36543.83212129
 20
-32171.94017469
 30
0.0
 11
36555.50868105
 21
-32174.27381529
 31
0.0
  0
LINE
  5
673
100
AcDbEntity
  8
Ech.1_5
 62
     2
  6
CONTINUOUS
370
    -3
100
AcDbLine
 10
36619.34326213
 20
-32187.03159441
 30
0.0
 11
36661.33413404
 21
-32195.42375834
 31
0.0
  0
LWPOLYLINE
  5
674
100
AcDbEntity
  8
Ech.1_5
 62
     2
  6
CONTINUOUS
370
    -3
100
AcDbPolyline
 90
        4
 70
     0
 43
0.0
 10
36645.38566094
 20
-32210.44757051
 10
36633.60937228
 20
-32208.0939984
 10
36633.60937228
 20
-32208.0939984
 10
36633.60937207
 20
-32196.96492401
  0
LINE
  5
675
100
AcDbEntity
  8
Ech.1_5
 62
     2
  6
CONTINUOUS
370
    -3
100
AcDbLine
 10
36633.73506154
 20
-32208.04899555
 30
0.0
 11
36633.60937228
 21
-32208.0939984
 31
0.0
  0
LWPOLYLINE
  5
676
100
AcDbEntity
  8
Ech.1_5
 62
     2
  6
CONTINUOUS
370
    -3
100
AcDbPolyline
 90
        4
 70
     0
 43
0.0
 10
36645.38569436
 20
-32210.37745448
 10
36633.73506154
 20
-32208.04899555
 10
36633.73506154
 20
-32208.04899555
 10
36633.73506134
 20
-32196.99003793
  0
LINE
  5
677
100
AcDbEntity
  8
Ech.1_5
 62
     2
  6
CONTINUOUS
370
    -3
100
AcDbLine
 10
36543.83212181
 20
-32200.26874433
 30
0.0
 11
36555.50868157
 21
-32202.60238494
 31
0.0
  0
LINE
  5
678
100
AcDbEntity
  8
Ech.1_5
 62
     2
  6
CONTINUOUS
370
    -3
100
AcDbLine
 10
36661.4598233
 20
-32195.3787555
 30
0.0
 11
36661.45982382
 21
-32223.70732514
 31
0.0
  0
LWPOLYLINE
  5
679
100
AcDbEntity
  8
Ech.1_5
 62
     2
  6
CONTINUOUS
370
    -3
100
AcDbPolyline
 90
        4
 70
     0
 43
0.0
 10
36555.50865063
 20
-32192.41491047
 10
36554.17585156
 20
-32192.14854143
 10
36554.17585156
 20
-32192.14854143
 10
36554.17585135
 20
-32181.0895838
  0
LINE
  5
67A
100
AcDbEntity
  8
Ech.1_5
 62
     2
  6
CONTINUOUS
370
    -3
100
AcDbLine
 10
36619.34326265
 20
-32215.36016406
 30
0.0
 11
36661.33413456
 21
-32223.75232799
 31
0.0
  0
LINE
  5
67B
100
AcDbEntity
  8
Ech.1_5
 62
     2
  6
CONTINUOUS
370
    -3
100
AcDbLine
 10
36661.33413404
 20
-32195.42375834
 30
0.0
 11
36661.33413456
 21
-32223.75232799
 31
0.0
  0
LWPOLYLINE
  5
67C
100
AcDbEntity
  8
Ech.1_5
 62
     2
  6
CONTINUOUS
370
    -3
100
AcDbPolyline
 90
        4
 70
     0
 43
0.0
 10
36555.50868138
 20
-32192.48503932
 10
36554.05016229
 20
-32192.19354427
 10
36554.05016229
 20
-32192.19354427
 10
36554.05016209
 20
-32181.06446989
  0
LINE
  5
67D
100
AcDbEntity
  8
Ech.1_5
 62
     2
  6
CONTINUOUS
370
    -3
100
AcDbLine
 10
36554.05016209
 20
-32181.06446989
 30
0.0
 11
36555.50868118
 21
-32181.35596494
 31
0.0
  0
LWPOLYLINE
  5
67E
100
AcDbEntity
  8
Ech.1_5
 62
     2
  6
CONTINUOUS
370
    -3
100
AcDbPolyline
 90
        4
 70
     0
 43
0.0
 10
36633.60937207
 20
-32196.96492401
 10
36645.38566073
 20
-32199.31849612
 10
36645.38566073
 20
-32199.31849612
 10
36645.38566094
 20
-32210.44757051
  0
LINE
  5
67F
100
AcDbEntity
  8
Ech.1_5
 62
     2
  6
CONTINUOUS
370
    -3
100
AcDbLine
 10
36661.45982382
 20
-32223.70732514
 30
0.0
 11
36661.33413456
 21
-32223.75232799
 31
0.0
  0
LINE
  5
680
100
AcDbEntity
  8
Ech.1_5
 62
     2
  6
CONTINUOUS
370
    -3
100
AcDbLine
 10
36554.17585156
 20
-32192.14854143
 30
0.0
 11
36554.05016229
 21
-32192.19354427
 31
0.0
  0
LINE
  5
681
100
AcDbEntity
  8
Ech.1_5
 62
     2
  6
CONTINUOUS
370
    -3
100
AcDbLine
 10
36661.33413459
 20
-32225.77579518
 30
0.0
 11
36661.45982386
 21
-32225.73079234
 31
0.0
  0
LINE
  5
682
100
AcDbEntity
  8
Ech.1_5
 62
     2
  6
CONTINUOUS
370
    -3
100
AcDbLine
 10
36661.45982382
 20
-32223.70732514
 30
0.0
 11
36661.45982386
 21
-32225.73079234
 31
0.0
  0
LINE
  5
683
100
AcDbEntity
  8
Ech.1_5
 62
     2
  6
CONTINUOUS
370
    -3
100
AcDbLine
 10
36661.33413459
 20
-32225.77579518
 30
0.0
 11
36661.33413456
 21
-32223.75232799
 31
0.0
  0
LINE
  5
684
100
AcDbEntity
  8
Ech.1_5
 62
     2
  6
CONTINUOUS
370
    -3
100
AcDbLine
 10
36543.83212184
 20
-32202.29221153
 30
0.0
 11
36555.50868161
 21
-32204.62585213
 31
0.0
  0
LINE
  5
685
100
AcDbEntity
  8
Ech.1_5
 62
     2
  6
CONTINUOUS
370
    -3
100
AcDbLine
 10
36619.34326269
 20
-32217.38363125
 30
0.0
 11
36661.33413459
 21
-32225.77579518
 31
0.0
  0
LWPOLYLINE
  5
686
100
AcDbEntity
  8
Ech.1_5
 62
     2
  6
CONTINUOUS
370
    -3
100
AcDbPolyline
 90
        4
 70
     0
 43
0.0
 10
36645.38566149
 20
-32240.79960735
 10
36633.60937283
 20
-32238.44603524
 10
36633.60937283
 20
-32238.44603524
 10
36633.60937263
 20
-32227.31696085
  0
LINE
  5
687
100
AcDbEntity
  8
Ech.1_5
 62
     2
  6
CONTINUOUS
370
    -3
100
AcDbLine
 10
36633.7350621
 20
-32238.40103239
 30
0.0
 11
36633.60937283
 21
-32238.44603524
 31
0.0
  0
LWPOLYLINE
  5
688
100
AcDbEntity
  8
Ech.1_5
 62
     2
  6
CONTINUOUS
370
    -3
100
AcDbPolyline
 90
        4
 70
     0
 43
0.0
 10
36645.38569491
 20
-32240.72949132
 10
36633.7350621
 20
-32238.40103239
 10
36633.7350621
 20
-32238.40103239
 10
36633.7350619
 20
-32227.34207477
  0
LINE
  5
689
100
AcDbEntity
  8
Ech.1_5
 62
     2
  6
CONTINUOUS
370
    -3
100
AcDbLine
 10
36543.83212236
 20
-32230.62078117
 30
0.0
 11
36555.50868213
 21
-32232.95442178
 31
0.0
  0
LINE
  5
68A
100
AcDbEntity
  8
Ech.1_5
 62
     2
  6
CONTINUOUS
370
    -3
100
AcDbLine
 10
36661.45982386
 20
-32225.73079234
 30
0.0
 11
36661.45982438
 21
-32254.05936199
 31
0.0
  0
LWPOLYLINE
  5
68B
100
AcDbEntity
  8
Ech.1_5
 62
     2
  6
CONTINUOUS
370
    -3
100
AcDbPolyline
 90
        4
 70
     0
 43
0.0
 10
36555.50865119
 20
-32222.76694731
 10
36554.17585211
 20
-32222.50057827
 10
36554.17585211
 20
-32222.50057827
 10
36554.17585191
 20
-32211.44162064
  0
LINE
  5
68C
100
AcDbEntity
  8
Ech.1_5
 62
     2
  6
CONTINUOUS
370
    -3
100
AcDbLine
 10
36619.34326321
 20
-32245.7122009
 30
0.0
 11
36661.33413511
 21
-32254.10436483
 31
0.0
  0
LINE
  5
68D
100
AcDbEntity
  8
Ech.1_5
 62
     2
  6
CONTINUOUS
370
    -3
100
AcDbLine
 10
36661.33413459
 20
-32225.77579518
 30
0.0
 11
36661.33413511
 21
-32254.10436483
 31
0.0
  0
LWPOLYLINE
  5
68E
100
AcDbEntity
  8
Ech.1_5
 62
     2
  6
CONTINUOUS
370
    -3
100
AcDbPolyline
 90
        4
 70
     0
 43
0.0
 10
36555.50868194
 20
-32222.83707616
 10
36554.05016285
 20
-32222.54558111
 10
36554.05016285
 20
-32222.54558111
 10
36554.05016264
 20
-32211.41650673
  0
LINE
  5
68F
100
AcDbEntity
  8
Ech.1_5
 62
     2
  6
CONTINUOUS
370
    -3
100
AcDbLine
 10
36554.05016264
 20
-32211.41650673
 30
0.0
 11
36555.50868174
 21
-32211.70800178
 31
0.0
  0
LWPOLYLINE
  5
690
100
AcDbEntity
  8
Ech.1_5
 62
     2
  6
CONTINUOUS
370
    -3
100
AcDbPolyline
 90
        4
 70
     0
 43
0.0
 10
36633.60937263
 20
-32227.31696085
 10
36645.38566129
 20
-32229.67053296
 10
36645.38566129
 20
-32229.67053296
 10
36645.38566149
 20
-32240.79960735
  0
LINE
  5
691
100
AcDbEntity
  8
Ech.1_5
 62
     2
  6
CONTINUOUS
370
    -3
100
AcDbLine
 10
36661.45982438
 20
-32254.05936199
 30
0.0
 11
36661.33413511
 21
-32254.10436483
 31
0.0
  0
LINE
  5
692
100
AcDbEntity
  8
Ech.1_5
 62
     2
  6
CONTINUOUS
370
    -3
100
AcDbLine
 10
36554.17585211
 20
-32222.50057827
 30
0.0
 11
36554.05016285
 21
-32222.54558111
 31
0.0
  0
LINE
  5
693
100
AcDbEntity
  8
Ech.1_5
 62
     2
  6
CONTINUOUS
370
    -3
100
AcDbLine
 10
36661.33413515
 20
-32256.12783685
 30
0.0
 11
36661.45982442
 21
-32256.082834
 31
0.0
  0
LINE
  5
694
100
AcDbEntity
  8
Ech.1_5
 62
     2
  6
CONTINUOUS
370
    -3
100
AcDbLine
 10
36661.45982438
 20
-32254.05936199
 30
0.0
 11
36661.45982442
 21
-32256.082834
 31
0.0
  0
LINE
  5
695
100
AcDbEntity
  8
Ech.1_5
 62
     2
  6
CONTINUOUS
370
    -3
100
AcDbLine
 10
36661.33413515
 20
-32256.12783685
 30
0.0
 11
36661.33413511
 21
-32254.10436483
 31
0.0
  0
LINE
  5
696
100
AcDbEntity
  8
Ech.1_5
 62
     2
  6
CONTINUOUS
370
    -3
100
AcDbLine
 10
36543.8321224
 20
-32232.64425319
 30
0.0
 11
36555.50868216
 21
-32234.97789379
 31
0.0
  0
LINE
  5
697
100
AcDbEntity
  8
Ech.1_5
 62
     2
  6
CONTINUOUS
370
    -3
100
AcDbLine
 10
36619.34326324
 20
-32247.73567292
 30
0.0
 11
36661.33413515
 21
-32256.12783685
 31
0.0
  0
LWPOLYLINE
  5
698
100
AcDbEntity
  8
Ech.1_5
 62
     2
  6
CONTINUOUS
370
    -3
100
AcDbPolyline
 90
        4
 70
     0
 43
0.0
 10
36645.38566205
 20
-32271.15164419
 10
36633.60937339
 20
-32268.79807208
 10
36633.60937339
 20
-32268.79807208
 10
36633.60937318
 20
-32257.66899287
  0
LINE
  5
699
100
AcDbEntity
  8
Ech.1_5
 62
     2
  6
CONTINUOUS
370
    -3
100
AcDbLine
 10
36633.73506266
 20
-32268.75306923
 30
0.0
 11
36633.60937339
 21
-32268.79807208
 31
0.0
  0
LWPOLYLINE
  5
69A
100
AcDbEntity
  8
Ech.1_5
 62
     2
  6
CONTINUOUS
370
    -3
100
AcDbPolyline
 90
        4
 70
     0
 43
0.0
 10
36645.38569547
 20
-32271.08152816
 10
36633.73506266
 20
-32268.75306923
 10
36633.73506266
 20
-32268.75306923
 10
36633.73506245
 20
-32257.69411161
  0
LINE
  5
69B
100
AcDbEntity
  8
Ech.1_5
 62
     2
  6
CONTINUOUS
370
    -3
100
AcDbLine
 10
36543.83212292
 20
-32260.97282043
 30
0.0
 11
36555.50868268
 21
-32263.30646103
 31
0.0
  0
LINE
  5
69C
100
AcDbEntity
  8
Ech.1_5
 62
     2
  6
CONTINUOUS
370
    -3
100
AcDbLine
 10
36661.45982442
 20
-32256.082834
 30
0.0
 11
36661.45982494
 21
-32284.41140124
 31
0.0
  0
LWPOLYLINE
  5
69D
100
AcDbEntity
  8
Ech.1_5
 62
     2
  6
CONTINUOUS
370
    -3
100
AcDbPolyline
 90
        4
 70
     0
 43
0.0
 10
36555.50865174
 20
-32253.11898415
 10
36554.17585267
 20
-32252.85261511
 10
36554.17585267
 20
-32252.85261511
 10
36554.17585247
 20
-32241.79365748
  0
LINE
  5
69E
100
AcDbEntity
  8
Ech.1_5
 62
     2
  6
CONTINUOUS
370
    -3
100
AcDbLine
 10
36619.34326376
 20
-32276.06424015
 30
0.0
 11
36661.33413567
 21
-32284.45640408
 31
0.0
  0
LINE
  5
69F
100
AcDbEntity
  8
Ech.1_5
 62
     2
  6
CONTINUOUS
370
    -3
100
AcDbLine
 10
36661.33413515
 20
-32256.12783685
 30
0.0
 11
36661.33413567
 21
-32284.45640408
 31
0.0
  0
LWPOLYLINE
  5
6A0
100
AcDbEntity
  8
Ech.1_5
 62
     2
  6
CONTINUOUS
370
    -3
100
AcDbPolyline
 90
        4
 70
     0
 43
0.0
 10
36555.5086825
 20
-32253.189113
 10
36554.0501634
 20
-32252.89761795
 10
36554.0501634
 20
-32252.89761795
 10
36554.0501632
 20
-32241.76853874
  0
LINE
  5
6A1
100
AcDbEntity
  8
Ech.1_5
 62
     2
  6
CONTINUOUS
370
    -3
100
AcDbLine
 10
36554.0501632
 20
-32241.76853874
 30
0.0
 11
36555.50868229
 21
-32242.06003379
 31
0.0
  0
LWPOLYLINE
  5
6A2
100
AcDbEntity
  8
Ech.1_5
 62
     2
  6
CONTINUOUS
370
    -3
100
AcDbPolyline
 90
        4
 70
     0
 43
0.0
 10
36633.60937318
 20
-32257.66899287
 10
36645.38566185
 20
-32260.02256498
 10
36645.38566185
 20
-32260.02256498
 10
36645.38566205
 20
-32271.15164419
  0
LINE
  5
6A3
100
AcDbEntity
  8
Ech.1_5
 62
     2
  6
CONTINUOUS
370
    -3
100
AcDbLine
 10
36661.45982494
 20
-32284.41140124
 30
0.0
 11
36661.33413567
 21
-32284.45640408
 31
0.0
  0
LINE
  5
6A4
100
AcDbEntity
  8
Ech.1_5
 62
     2
  6
CONTINUOUS
370
    -3
100
AcDbLine
 10
36554.17585267
 20
-32252.85261511
 30
0.0
 11
36554.0501634
 21
-32252.89761795
 31
0.0
  0
LINE
  5
6A5
100
AcDbEntity
  8
Ech.1_5
 62
     2
  6
CONTINUOUS
370
    -3
100
AcDbLine
 10
36661.45982494
 20
-32284.41140124
 30
0.0
 11
36661.45982497
 21
-32286.43487084
 31
0.0
  0
LINE
  5
6A6
100
AcDbEntity
  8
Ech.1_5
 62
     2
  6
CONTINUOUS
370
    -3
100
AcDbLine
 10
36661.33413571
 20
-32286.47987369
 30
0.0
 11
36661.33413567
 21
-32284.45640408
 31
0.0
  0
LWPOLYLINE
  5
6A7
100
AcDbEntity
  8
Ech.1_5
 62
     2
  6
CONTINUOUS
370
    -3
100
AcDbPolyline
 90
        4
 70
     0
 43
0.0
 10
36513.30212379
 20
-32103.11101481
 10
36513.30211714
 20
-32287.24669459
 10
36513.30212269
 20
-32133.46304156
 10
36513.30212269
 20
-32133.46304156
  0
LWPOLYLINE
  5
6A8
100
AcDbEntity
  8
Ech.1_5
 62
     2
  6
CONTINUOUS
370
    -3
100
AcDbPolyline
 90
        4
 70
     0
 43
0.0
 10
36619.343257
 20
-32124.30407829
 10
36619.34325035
 20
-32308.43975808
 10
36619.3432559
 20
-32154.65610505
 10
36619.3432559
 20
-32154.65610505
  0
LWPOLYLINE
  5
6A9
100
AcDbEntity
  8
Ech.1_5
 62
   190
  6
CONTINUOUS
370
    -3
100
AcDbPolyline
 90
        4
 70
     1
 43
0.0
 10
36595.22650952
 20
-32090.81096333
 10
36477.72449677
 20
-32067.32737967
 10
36426.45579665
 20
-32085.68405696
 10
36543.9578094
 20
-32109.16764062
  0
LWPOLYLINE
  5
6AA
100
AcDbEntity
  8
Ech.1_5
 62
   190
  6
CONTINUOUS
370
    -3
100
AcDbPolyline
 90
        4
 70
     1
 43
0.0
 10
36595.22650952
 20
-32090.81096333
 10
36543.9578094
 20
-32109.16764062
 10
36661.45982215
 20
-32132.65122427
 10
36712.72852227
 20
-32114.29454698
  0
LWPOLYLINE
  5
6AB
100
AcDbEntity
  8
Ech.1_5
 62
   190
  6
CONTINUOUS
370
    -3
100
AcDbPolyline
 90
        4
 70
     1
 43
0.0
 10
36468.3209793
 20
-32094.12122374
 10
36426.33010739
 20
-32085.72905981
 10
36426.33010742
 20
-32087.75251735
 10
36464.69403054
 20
-32095.41981067
  0
LWPOLYLINE
  5
6AC
100
AcDbEntity
  8
Ech.1_5
 62
   190
  6
CONTINUOUS
370
    -3
100
AcDbPolyline
 90
        4
 70
     1
 43
0.0
 10
36513.30211376
 20
-32103.11101216
 10
36513.30212371
 20
-32105.13446971
 10
36543.83212017
 20
-32111.23610101
 10
36543.83212014
 20
-32109.21264346
  0
LWPOLYLINE
  5
6AD
100
AcDbEntity
  8
Ech.1_5
 62
   190
  6
CONTINUOUS
370
    -3
100
AcDbPolyline
 90
        4
 70
     1
 43
0.0
 10
36543.83212014
 20
-32109.21264346
 10
36543.83212017
 20
-32111.23610101
 10
36570.73517776
 20
-32116.6128617
 10
36574.36212433
 20
-32115.31427432
  0
LWPOLYLINE
  5
6AE
100
AcDbEntity
  8
Ech.1_5
 62
   190
  6
CONTINUOUS
370
    -3
100
AcDbPolyline
 90
        4
 70
     1
 43
0.0
 10
36619.34326098
 20
-32124.30406319
 10
36619.34325692
 20
-32126.32752219
 10
36661.33413292
 20
-32134.71968466
 10
36661.33413289
 20
-32132.69622712
  0
LWPOLYLINE
  5
6AF
100
AcDbEntity
  8
Ech.1_5
 62
   190
  6
CONTINUOUS
370
    -3
100
AcDbPolyline
 90
        4
 70
     1
 43
0.0
 10
36712.72852227
 20
-32114.29454698
 10
36595.22650952
 20
-32090.81096333
 10
36543.9578094
 20
-32109.16764062
 10
36661.45982215
 20
-32132.65122427
  0
LWPOLYLINE
  5
6B0
100
AcDbEntity
  8
Ech.1_5
 62
   190
  6
CONTINUOUS
370
    -3
100
AcDbPolyline
 90
        4
 70
     1
 43
0.0
 10
36712.72852231
 20
-32116.31800453
 10
36661.45982219
 20
-32134.67468182
 10
36661.45982271
 20
-32163.00325146
 10
36712.72852282
 20
-32144.64657418
  0
LWPOLYLINE
  5
6B1
100
AcDbEntity
  8
Ech.1_5
 62
   190
  6
CONTINUOUS
370
    -3
100
AcDbPolyline
 90
        4
 70
     1
 43
0.0
 10
36712.72852231
 20
-32116.31800453
 10
36712.72852227
 20
-32114.29454698
 10
36661.45982215
 20
-32132.65122427
 10
36661.45982219
 20
-32134.67468182
  0
LWPOLYLINE
  5
6B2
100
AcDbEntity
  8
Ech.1_5
 62
   190
  6
CONTINUOUS
370
    -3
100
AcDbPolyline
 90
        4
 70
     1
 43
0.0
 10
36574.36212651
 20
-32115.31427476
 10
36555.50871848
 20
-32122.0647078
 10
36600.48985295
 20
-32131.05449622
 10
36619.34326098
 20
-32124.30406319
  0
LWPOLYLINE
  5
6B3
100
AcDbEntity
  8
Ech.1_5
 62
   190
  6
CONTINUOUS
370
    -3
100
AcDbPolyline
 90
        4
 70
     1
 43
0.0
 10
36555.50871848
 20
-32122.0647078
 10
36555.50871851
 20
-32124.08816534
 10
36600.48985298
 20
-32133.07795377
 10
36600.48985295
 20
-32131.05449622
  0
LWPOLYLINE
  5
6B4
100
AcDbEntity
  8
Ech.1_5
 62
   190
  6
CONTINUOUS
370
    -3
100
AcDbPolyline
 90
        4
 70
     1
 43
0.0
 10
36619.34326102
 20
-32126.32752073
 10
36619.34326098
 20
-32124.30406319
 10
36600.48985295
 20
-32131.05449622
 10
36600.48985298
 20
-32133.07795377
  0
LWPOLYLINE
  5
6B5
100
AcDbEntity
  8
Ech.1_5
 62
   190
  6
CONTINUOUS
370
    -3
100
AcDbPolyline
 90
        4
 70
     1
 43
0.0
 10
36600.48985298
 20
-32133.07795377
 10
36598.80755353
 20
-32132.74173468
 10
36598.80755405
 20
-32161.07030432
 10
36600.4898535
 20
-32161.40652341
  0
LWPOLYLINE
  5
6B6
100
AcDbEntity
  8
Ech.1_5
 62
   190
  6
CONTINUOUS
370
    -3
100
AcDbPolyline
 90
        4
 70
     1
 43
0.0
 10
36619.34325692
 20
-32126.32752219
 10
36600.48985298
 20
-32133.07795377
 10
36600.4898535
 20
-32161.40652341
 10
36619.3432559
 20
-32154.65609239
  0
LWPOLYLINE
  5
6B7
100
AcDbEntity
  8
Ech.1_5
 62
   190
  6
CONTINUOUS
370
    -3
100
AcDbPolyline
 90
        4
 70
     1
 43
0.0
 10
36557.19101796
 20
-32124.42438443
 10
36555.50871851
 20
-32124.08816534
 10
36555.50871903
 20
-32152.41673499
 10
36557.19101848
 20
-32152.75295408
  0
LWPOLYLINE
  5
6B8
100
AcDbEntity
  8
Ech.1_5
 62
   190
  6
CONTINUOUS
370
    -3
100
AcDbPolyline
 90
        4
 70
     1
 43
0.0
 10
36513.3021138
 20
-32105.13446971
 10
36513.30211376
 20
-32103.11101216
 10
36494.44870573
 20
-32109.8614452
 10
36494.44870577
 20
-32111.88490274
  0
LWPOLYLINE
  5
6B9
100
AcDbEntity
  8
Ech.1_5
 62
   190
  6
CONTINUOUS
370
    -3
100
AcDbPolyline
 90
        4
 70
     1
 43
0.0
 10
36513.30211376
 20
-32103.11101216
 10
36468.3209793
 20
-32094.12122374
 10
36449.46757126
 20
-32100.87165677
 10
36494.44870573
 20
-32109.8614452
  0
LWPOLYLINE
  5
6BA
100
AcDbEntity
  8
Ech.1_5
 62
   190
  6
CONTINUOUS
370
    -3
100
AcDbPolyline
 90
        4
 70
     1
 43
0.0
 10
36494.44870573
 20
-32109.8614452
 10
36449.46757126
 20
-32100.87165677
 10
36449.4675713
 20
-32102.89511432
 10
36494.44870577
 20
-32111.88490274
  0
LWPOLYLINE
  5
6BB
100
AcDbEntity
  8
Ech.1_5
 62
   190
  6
CONTINUOUS
370
    -3
100
AcDbPolyline
 90
        4
 70
     1
 43
0.0
 10
36494.44870577
 20
-32111.88490274
 10
36492.76640632
 20
-32111.54868365
 10
36492.76640684
 20
-32139.8772533
 10
36494.44870629
 20
-32140.21347239
  0
LWPOLYLINE
  5
6BC
100
AcDbEntity
  8
Ech.1_5
 62
   190
  6
CONTINUOUS
370
    -3
100
AcDbPolyline
 90
        4
 70
     1
 43
0.0
 10
36513.30212371
 20
-32105.13446971
 10
36494.44870577
 20
-32111.88490274
 10
36494.44870629
 20
-32140.21347239
 10
36513.30211432
 20
-32133.46303935
  0
LWPOLYLINE
  5
6BD
100
AcDbEntity
  8
Ech.1_5
 62
   190
  6
CONTINUOUS
370
    -3
100
AcDbPolyline
 90
        4
 70
     1
 43
0.0
 10
36451.14987075
 20
-32103.23133341
 10
36449.4675713
 20
-32102.89511432
 10
36449.46757182
 20
-32131.22368397
 10
36451.14987127
 20
-32131.55990306
  0
LWPOLYLINE
  5
6BE
100
AcDbEntity
  8
Ech.1_5
 62
   190
  6
CONTINUOUS
370
    -3
100
AcDbPolyline
 90
        4
 70
     1
 43
0.0
 10
36426.33010794
 20
-32116.081087
 10
36426.33010798
 20
-32118.10455419
 10
36449.46753328
 20
-32122.72872743
 10
36449.46757163
 20
-32120.70526023
  0
LWPOLYLINE
  5
6BF
100
AcDbEntity
  8
Ech.1_5
 62
   190
  6
CONTINUOUS
370
    -3
100
AcDbPolyline
 90
        4
 70
     1
 43
0.0
 10
36449.46757182
 20
-32131.22368397
 10
36449.46757186
 20
-32133.24715116
 10
36494.44870633
 20
-32142.23693958
 10
36494.44870629
 20
-32140.21347239
  0
LWPOLYLINE
  5
6C0
100
AcDbEntity
  8
Ech.1_5
 62
   190
  6
CONTINUOUS
370
    -3
100
AcDbPolyline
 90
        4
 70
     1
 43
0.0
 10
36513.30211436
 20
-32135.48650655
 10
36513.30211495
 20
-32133.46303935
 10
36494.44870629
 20
-32140.21347239
 10
36494.44870633
 20
-32142.23693958
  0
LWPOLYLINE
  5
6C1
100
AcDbEntity
  8
Ech.1_5
 62
   190
  6
CONTINUOUS
370
    -3
100
AcDbPolyline
 90
        4
 70
     1
 43
0.0
 10
36513.30211432
 20
-32133.46303935
 10
36513.30212262
 20
-32135.48650655
 10
36543.83212073
 20
-32141.58813785
 10
36543.83212069
 20
-32139.56467065
  0
LWPOLYLINE
  5
6C2
100
AcDbEntity
  8
Ech.1_5
 62
   190
  6
CONTINUOUS
370
    -3
100
AcDbPolyline
 90
        4
 70
     1
 43
0.0
 10
36543.83212069
 20
-32139.56467065
 10
36543.83212073
 20
-32141.58813785
 10
36555.50868049
 20
-32143.92177845
 10
36555.50871884
 20
-32141.89831126
  0
LWPOLYLINE
  5
6C3
100
AcDbEntity
  8
Ech.1_5
 62
   190
  6
CONTINUOUS
370
    -3
100
AcDbPolyline
 90
        4
 70
     1
 43
0.0
 10
36555.50871903
 20
-32152.41673499
 10
36555.50871907
 20
-32154.44020218
 10
36600.48985354
 20
-32163.42999061
 10
36600.4898535
 20
-32161.40652341
  0
LWPOLYLINE
  5
6C4
100
AcDbEntity
  8
Ech.1_5
 62
   190
  6
CONTINUOUS
370
    -3
100
AcDbPolyline
 90
        4
 70
     1
 43
0.0
 10
36619.34326157
 20
-32156.67955757
 10
36619.3432559
 20
-32154.65609239
 10
36600.4898535
 20
-32161.40652341
 10
36600.48985354
 20
-32163.42999061
  0
LWPOLYLINE
  5
6C5
100
AcDbEntity
  8
Ech.1_5
 62
   190
  6
CONTINUOUS
370
    -3
100
AcDbPolyline
 90
        4
 70
     1
 43
0.0
 10
36619.34326154
 20
-32154.65609038
 10
36619.34326157
 20
-32156.67955757
 10
36661.33413348
 20
-32165.0717215
 10
36661.33413344
 20
-32163.04825431
  0
LWPOLYLINE
  5
6C6
100
AcDbEntity
  8
Ech.1_5
 62
   190
  6
CONTINUOUS
370
    -3
100
AcDbPolyline
 90
        4
 70
     1
 43
0.0
 10
36712.72852286
 20
-32146.67004137
 10
36712.72852282
 20
-32144.64657418
 10
36661.45982271
 20
-32163.00325146
 10
36661.45982275
 20
-32165.02671866
  0
LWPOLYLINE
  5
6C7
100
AcDbEntity
  8
Ech.1_5
 62
   190
  6
CONTINUOUS
370
    -3
100
AcDbPolyline
 90
        4
 70
     1
 43
0.0
 10
36712.72852286
 20
-32146.67004137
 10
36661.45982275
 20
-32165.02671866
 10
36661.45982327
 20
-32193.3552883
 10
36712.72852338
 20
-32174.99861102
  0
LWPOLYLINE
  5
6C8
100
AcDbEntity
  8
Ech.1_5
 62
   190
  6
CONTINUOUS
370
    -3
100
AcDbPolyline
 90
        4
 70
     1
 43
0.0
 10
36712.72852342
 20
-32177.02207821
 10
36712.72852338
 20
-32174.99861102
 10
36661.45982327
 20
-32193.3552883
 10
36661.4598233
 20
-32195.3787555
  0
LWPOLYLINE
  5
6C9
100
AcDbEntity
  8
Ech.1_5
 62
   190
  6
CONTINUOUS
370
    -3
100
AcDbPolyline
 90
        4
 70
     1
 43
0.0
 10
36661.334134
 20
-32193.40029115
 10
36619.34326209
 20
-32185.00812722
 10
36619.3432619
 20
-32187.03159449
 10
36661.33413404
 20
-32195.42375834
  0
LWPOLYLINE
  5
6CA
100
AcDbEntity
  8
Ech.1_5
 62
   190
  6
CONTINUOUS
370
    -3
100
AcDbPolyline
 90
        4
 70
     1
 43
0.0
 10
36619.34325481
 20
-32185.00812983
 10
36600.48985406
 20
-32191.75856025
 10
36600.4898541
 20
-32193.78202745
 10
36619.34325473
 20
-32187.03159706
  0
LWPOLYLINE
  5
6CB
100
AcDbEntity
  8
Ech.1_5
 62
   190
  6
CONTINUOUS
370
    -3
100
AcDbPolyline
 90
        4
 70
     1
 43
0.0
 10
36600.48985406
 20
-32191.75856025
 10
36555.50871959
 20
-32182.76877183
 10
36555.50871963
 20
-32184.79223902
 10
36600.4898541
 20
-32193.78202745
  0
LWPOLYLINE
  5
6CC
100
AcDbEntity
  8
Ech.1_5
 62
   190
  6
CONTINUOUS
370
    -3
100
AcDbPolyline
 90
        4
 70
     1
 43
0.0
 10
36600.48985354
 20
-32163.42999061
 10
36598.80755409
 20
-32163.09377152
 10
36598.80755461
 20
-32191.42234116
 10
36600.48985406
 20
-32191.75856025
  0
LWPOLYLINE
  5
6CD
100
AcDbEntity
  8
Ech.1_5
 62
   190
  6
CONTINUOUS
370
    -3
100
AcDbPolyline
 90
        4
 70
     1
 43
0.0
 10
36557.19101852
 20
-32154.77642127
 10
36555.50871907
 20
-32154.44020218
 10
36555.50871959
 20
-32182.76877183
 10
36557.19101904
 20
-32183.10499092
  0
LWPOLYLINE
  5
6CE
100
AcDbEntity
  8
Ech.1_5
 62
   190
  6
CONTINUOUS
370
    -3
100
AcDbPolyline
 90
        4
 70
     1
 43
0.0
 10
36555.5087194
 20
-32172.2503481
 10
36543.83212125
 20
-32169.91670749
 10
36543.83212129
 20
-32171.94017469
 10
36555.50868105
 20
-32174.27381529
  0
LWPOLYLINE
  5
6CF
100
AcDbEntity
  8
Ech.1_5
 62
   190
  6
CONTINUOUS
370
    -3
100
AcDbPolyline
 90
        4
 70
     1
 43
0.0
 10
36513.30211488
 20
-32163.81507619
 10
36513.30212152
 20
-32165.83854339
 10
36543.83212129
 20
-32171.94017469
 10
36543.83212125
 20
-32169.91670749
  0
LWPOLYLINE
  5
6D0
100
AcDbEntity
  8
Ech.1_5
 62
   190
  6
CONTINUOUS
370
    -3
100
AcDbPolyline
 90
        4
 70
     1
 43
0.0
 10
36513.30211488
 20
-32163.81507619
 10
36494.44870685
 20
-32170.56550923
 10
36494.44870688
 20
-32172.58897642
 10
36513.30211492
 20
-32165.83854339
  0
LWPOLYLINE
  5
6D1
100
AcDbEntity
  8
Ech.1_5
 62
   190
  6
CONTINUOUS
370
    -3
100
AcDbPolyline
 90
        4
 70
     1
 43
0.0
 10
36513.30212262
 20
-32135.48650655
 10
36494.44870633
 20
-32142.23693958
 10
36494.44870685
 20
-32170.56550923
 10
36513.30211488
 20
-32163.81507619
  0
LWPOLYLINE
  5
6D2
100
AcDbEntity
  8
Ech.1_5
 62
   190
  6
CONTINUOUS
370
    -3
100
AcDbPolyline
 90
        4
 70
     1
 43
0.0
 10
36494.44870633
 20
-32142.23693958
 10
36492.76640688
 20
-32141.90072049
 10
36492.7664074
 20
-32170.22929014
 10
36494.44870685
 20
-32170.56550923
  0
LWPOLYLINE
  5
6D3
100
AcDbEntity
  8
Ech.1_5
 62
   190
  6
CONTINUOUS
370
    -3
100
AcDbPolyline
 90
        4
 70
     1
 43
0.0
 10
36494.44870685
 20
-32170.56550923
 10
36449.46757238
 20
-32161.57572081
 10
36449.46757241
 20
-32163.599188
 10
36494.44870688
 20
-32172.58897642
  0
LWPOLYLINE
  5
6D4
100
AcDbEntity
  8
Ech.1_5
 62
   190
  6
CONTINUOUS
370
    -3
100
AcDbPolyline
 90
        4
 70
     1
 43
0.0
 10
36449.46757218
 20
-32151.05729707
 10
36426.3301085
 20
-32146.43312384
 10
36426.33010854
 20
-32148.45659103
 10
36449.46753384
 20
-32153.08076427
  0
LWPOLYLINE
  5
6D5
100
AcDbEntity
  8
Ech.1_5
 62
   190
  6
CONTINUOUS
370
    -3
100
AcDbPolyline
 90
        4
 70
     1
 43
0.0
 10
36451.1498713
 20
-32133.58337025
 10
36449.46757186
 20
-32133.24715116
 10
36449.46757238
 20
-32161.57572081
 10
36451.14987182
 20
-32161.9119399
  0
LWPOLYLINE
  5
6D6
100
AcDbEntity
  8
Ech.1_5
 62
   190
  6
CONTINUOUS
370
    -3
100
AcDbPolyline
 90
        4
 70
     1
 43
0.0
 10
36661.45982215
 20
-32132.65122427
 10
36661.33413289
 20
-32132.69622712
 10
36661.33413292
 20
-32134.71968466
 10
36661.45982219
 20
-32134.67468182
  0
LWPOLYLINE
  5
6D7
100
AcDbEntity
  8
Ech.1_5
 62
   190
  6
CONTINUOUS
370
    -3
100
AcDbPolyline
 90
        4
 70
     1
 43
0.0
 10
36661.45982215
 20
-32132.65122427
 10
36619.46895025
 20
-32124.25906034
 10
36619.34326098
 20
-32124.30406319
 10
36661.33413289
 20
-32132.69622712
  0
LWPOLYLINE
  5
6D8
100
AcDbEntity
  8
Ech.1_5
 62
   190
  6
CONTINUOUS
370
    -3
100
AcDbPolyline
 90
        4
 70
     1
 43
0.0
 10
36661.45982219
 20
-32134.67468182
 10
36661.33413292
 20
-32134.71968466
 10
36661.33413344
 20
-32163.04825431
 10
36661.45982271
 20
-32163.00325146
  0
LWPOLYLINE
  5
6D9
100
AcDbEntity
  8
Ech.1_5
 62
   190
  6
CONTINUOUS
370
    -3
100
AcDbPolyline
 90
        4
 70
     1
 43
0.0
 10
36574.48781578
 20
-32115.26927192
 10
36574.36212651
 20
-32115.31427476
 10
36619.34326098
 20
-32124.30406319
 10
36619.46895025
 20
-32124.25906034
  0
LWPOLYLINE
  5
6DA
100
AcDbEntity
  8
Ech.1_5
 62
   190
  6
CONTINUOUS
370
    -3
100
AcDbPolyline
 90
        4
 70
     1
 43
0.0
 10
36543.9578094
 20
-32109.16764062
 10
36543.83212014
 20
-32109.21264346
 10
36574.36212433
 20
-32115.31427432
 10
36574.48781578
 20
-32115.26927192
  0
LWPOLYLINE
  5
6DB
100
AcDbEntity
  8
Ech.1_5
 62
   190
  6
CONTINUOUS
370
    -3
100
AcDbPolyline
 90
        4
 70
     1
 43
0.0
 10
36513.42780303
 20
-32103.06600932
 10
36513.30211376
 20
-32103.11101216
 10
36543.83212014
 20
-32109.21264346
 10
36543.9578094
 20
-32109.16764062
  0
LWPOLYLINE
  5
6DC
100
AcDbEntity
  8
Ech.1_5
 62
   190
  6
CONTINUOUS
370
    -3
100
AcDbPolyline
 90
        4
 70
     1
 43
0.0
 10
36468.44666856
 20
-32094.07622089
 10
36468.3209793
 20
-32094.12122374
 10
36513.30211376
 20
-32103.11101216
 10
36513.42780303
 20
-32103.06600932
  0
LWPOLYLINE
  5
6DD
100
AcDbEntity
  8
Ech.1_5
 62
   190
  6
CONTINUOUS
370
    -3
100
AcDbPolyline
 90
        4
 70
     1
 43
0.0
 10
36426.45579665
 20
-32085.68405696
 10
36426.33010739
 20
-32085.72905981
 10
36468.3209793
 20
-32094.12122374
 10
36468.44666856
 20
-32094.07622089
  0
LWPOLYLINE
  5
6DE
100
AcDbEntity
  8
Ech.1_5
 62
   190
  6
CONTINUOUS
370
    -3
100
AcDbPolyline
 90
        4
 70
     1
 43
0.0
 10
36661.45982271
 20
-32163.00325146
 10
36661.33413344
 20
-32163.04825431
 10
36661.33413348
 20
-32165.0717215
 10
36661.45982275
 20
-32165.02671866
  0
LWPOLYLINE
  5
6DF
100
AcDbEntity
  8
Ech.1_5
 62
   190
  6
CONTINUOUS
370
    -3
100
AcDbPolyline
 90
        4
 70
     1
 43
0.0
 10
36661.45982275
 20
-32165.02671866
 10
36661.33413348
 20
-32165.0717215
 10
36661.334134
 20
-32193.40029115
 10
36661.45982327
 20
-32193.3552883
  0
LWPOLYLINE
  5
6E0
100
AcDbEntity
  8
Ech.1_5
 62
   190
  6
CONTINUOUS
370
    -3
100
AcDbPolyline
 90
        4
 70
     1
 43
0.0
 10
36661.45982327
 20
-32193.3552883
 10
36661.334134
 20
-32193.40029115
 10
36661.33413404
 20
-32195.42375834
 10
36661.4598233
 20
-32195.3787555
  0
LINE
  5
6E1
100
AcDbEntity
  8
Ech.1_5
 62
   190
  6
CONTINUOUS
370
    -3
100
AcDbLine
 10
36464.69404208
 20
-32095.41984289
 30
0.0
 11
36426.33010742
 21
-32087.75251735
 31
0.0
  0
LWPOLYLINE
  5
6E2
100
AcDbEntity
  8
Ech.1_5
 62
   190
  6
CONTINUOUS
370
    -3
100
AcDbPolyline
 90
       11
 70
     0
 43
0.0
 10
36436.54814843
 20
-32108.00589659
 10
36436.54814822
 20
-32096.87681255
 10
36436.67383749
 20
-32096.90193611
 10
36442.40427026
 20
-32098.04720243
 10
36443.66116369
 20
-32098.2983992
 10
36448.32443688
 20
-32099.23038466
 10
36448.32440236
 20
-32109.1446641
 10
36448.32443707
 20
-32109.58811517
 10
36448.32443709
 20
-32110.28933984
 10
36448.32443709
 20
-32110.35946869
 10
36436.54814843
 20
-32108.00589659
  0
LWPOLYLINE
  5
6E3
100
AcDbEntity
  8
Ech.1_5
 62
   190
  6
CONTINUOUS
370
    -3
100
AcDbPolyline
 90
        6
 70
     0
 43
0.0
 10
36426.33010742
 20
-32087.75251735
 10
36426.33010794
 20
-32116.081087
 10
36449.46757163
 20
-32120.70526023
 10
36449.4675713
 20
-32102.89511432
 10
36449.46757126
 20
-32100.87165677
 10
36464.69404208
 20
-32095.41984289
  0
LINE
  5
6E4
100
AcDbEntity
  8
Ech.1_5
 62
   190
  6
CONTINUOUS
370
    -3
100
AcDbLine
 10
36451.14987075
 20
-32103.23133341
 30
0.0
 11
36451.14987127
 21
-32131.55990306
 31
0.0
  0
LWPOLYLINE
  5
6E5
100
AcDbEntity
  8
Ech.1_5
 62
   190
  6
CONTINUOUS
370
    -3
100
AcDbPolyline
 90
        9
 70
     0
 43
0.0
 10
36477.8462832
 20
-32126.77802827
 10
36466.06999454
 20
-32124.42445616
 10
36466.06999433
 20
-32113.29537213
 10
36467.32688777
 20
-32113.5465709
 10
36470.93908785
 20
-32114.26849388
 10
36471.06477712
 20
-32114.29361374
 10
36477.84628299
 20
-32115.64894423
 10
36477.84628319
 20
-32126.07680078
 10
36477.8462832
 20
-32126.77802827
  0
LWPOLYLINE
  5
6E6
100
AcDbEntity
  8
Ech.1_5
 62
   190
  6
CONTINUOUS
370
    -3
100
AcDbPolyline
 90
        4
 70
     0
 43
0.0
 10
36451.14987127
 20
-32131.55990306
 10
36492.76640684
 20
-32139.8772533
 10
36492.76640632
 20
-32111.54868365
 10
36451.14987075
 20
-32103.23133341
  0
LINE
  5
6E7
100
AcDbEntity
  8
Ech.1_5
 62
   190
  6
CONTINUOUS
370
    -3
100
AcDbLine
 10
36543.83212069
 20
-32139.56467065
 30
0.0
 11
36543.83212017
 21
-32111.23610101
 31
0.0
  0
LWPOLYLINE
  5
6E8
100
AcDbEntity
  8
Ech.1_5
 62
   190
  6
CONTINUOUS
370
    -3
100
AcDbPolyline
 90
       10
 70
     0
 43
0.0
 10
36516.10742238
 20
-32112.7772795
 10
36516.23311165
 20
-32112.80240307
 10
36521.96348024
 20
-32113.94765656
 10
36523.22037368
 20
-32114.19885333
 10
36527.88364687
 20
-32115.13083878
 10
36527.88364706
 20
-32125.48857263
 10
36527.88364707
 20
-32126.18980011
 10
36527.88364707
 20
-32126.25992282
 10
36516.10742259
 20
-32123.90636354
 10
36516.10742238
 20
-32112.7772795
  0
LWPOLYLINE
  5
6E9
100
AcDbEntity
  8
Ech.1_5
 62
   190
  6
CONTINUOUS
370
    -3
100
AcDbPolyline
 90
        4
 70
     0
 43
0.0
 10
36543.83212017
 20
-32111.23610101
 10
36513.3021138
 20
-32105.13446971
 10
36513.30211432
 20
-32133.46303935
 10
36543.83212069
 20
-32139.56467065
  0
LWPOLYLINE
  5
6EA
100
AcDbEntity
  8
Ech.1_5
 62
   190
  6
CONTINUOUS
370
    -3
100
AcDbPolyline
 90
       10
 70
     1
 43
0.0
 10
36554.17585095
 20
-32120.38551621
 10
36555.432744
 20
-32120.63671491
 10
36558.04099935
 20
-32121.15802862
 10
36570.73518929
 20
-32116.61289392
 10
36543.83212017
 20
-32111.23610101
 10
36543.83212069
 20
-32139.56467065
 10
36555.50871884
 20
-32141.89831126
 10
36555.50871865
 20
-32131.78097529
 10
36554.05016118
 20
-32131.48948024
 10
36554.05016097
 20
-32120.36039621
  0
LINE
  5
6EB
100
AcDbEntity
  8
Ech.1_5
 62
   190
  6
CONTINUOUS
370
    -3
100
AcDbLine
 10
36619.34325692
 20
-32126.32752219
 30
0.0
 11
36619.3432559
 21
-32154.65609239
 31
0.0
  0
LWPOLYLINE
  5
6EC
100
AcDbEntity
  8
Ech.1_5
 62
   190
  6
CONTINUOUS
370
    -3
100
AcDbPolyline
 90
       10
 70
     0
 43
0.0
 10
36645.38565982
 20
-32149.74350647
 10
36633.60937116
 20
-32147.38993437
 10
36633.60937096
 20
-32136.26085033
 10
36633.73506023
 20
-32136.28597389
 10
36634.99195366
 20
-32136.53717067
 10
36645.38565962
 20
-32138.61442244
 10
36645.38560164
 20
-32145.33167154
 10
36645.38565981
 20
-32148.97215295
 10
36645.38565982
 20
-32149.67338377
 10
36645.38565982
 20
-32149.74350647
  0
LWPOLYLINE
  5
6ED
100
AcDbEntity
  8
Ech.1_5
 62
   190
  6
CONTINUOUS
370
    -3
100
AcDbPolyline
 90
        4
 70
     0
 43
0.0
 10
36619.3432559
 20
-32154.65609239
 10
36661.33413344
 20
-32163.04825431
 10
36661.33413292
 20
-32134.71968466
 10
36619.34325692
 20
-32126.32752219
  0
LINE
  5
6EE
100
AcDbEntity
  8
Ech.1_5
 62
   190
  6
CONTINUOUS
370
    -3
100
AcDbLine
 10
36516.23311235
 20
-32112.80239958
 30
0.0
 11
36521.96348024
 21
-32113.94765656
 31
0.0
  0
LWPOLYLINE
  5
6EF
100
AcDbEntity
  8
Ech.1_5
 62
   190
  6
CONTINUOUS
370
    -3
100
AcDbPolyline
 90
        5
 70
     0
 43
0.0
 10
36557.19101796
 20
-32124.42438443
 10
36557.19101848
 20
-32152.75295408
 10
36598.80755405
 20
-32161.07030432
 10
36598.80755353
 20
-32132.74173468
 10
36557.19101796
 20
-32124.42438443
  0
LINE
  5
6F0
100
AcDbEntity
  8
Ech.1_5
 62
   190
  6
CONTINUOUS
370
    -3
100
AcDbLine
 10
36557.19101796
 20
-32124.42438443
 30
0.0
 11
36557.19101848
 21
-32152.75295408
 31
0.0
  0
LWPOLYLINE
  5
6F1
100
AcDbEntity
  8
Ech.1_5
 62
   190
  6
CONTINUOUS
370
    -3
100
AcDbPolyline
 90
        9
 70
     0
 43
0.0
 10
36583.88743041
 20
-32147.97107929
 10
36572.11114175
 20
-32145.61750718
 10
36572.11114155
 20
-32134.48842315
 10
36573.36803498
 20
-32134.73962193
 10
36576.98023507
 20
-32135.4615449
 10
36577.10592433
 20
-32135.48666477
 10
36583.88743021
 20
-32136.84199526
 10
36583.8874304
 20
-32147.2698518
 10
36583.88743041
 20
-32147.97107929
  0
LWPOLYLINE
  5
6F2
100
AcDbEntity
  8
Ech.1_5
 62
   190
  6
CONTINUOUS
370
    -3
100
AcDbPolyline
 90
        4
 70
     0
 43
0.0
 10
36557.19101848
 20
-32152.75295408
 10
36598.80755405
 20
-32161.07030432
 10
36598.80755353
 20
-32132.74173468
 10
36557.19101796
 20
-32124.42438443
  0
LINE
  5
6F3
100
AcDbEntity
  8
Ech.1_5
 62
   190
  6
CONTINUOUS
370
    -3
100
AcDbLine
 10
36449.46757218
 20
-32151.05729707
 30
0.0
 11
36449.46757186
 21
-32133.24715116
 31
0.0
  0
LWPOLYLINE
  5
6F4
100
AcDbEntity
  8
Ech.1_5
 62
   190
  6
CONTINUOUS
370
    -3
100
AcDbPolyline
 90
       11
 70
     0
 43
0.0
 10
36448.32443744
 20
-32129.5824215
 10
36448.32440292
 20
-32139.49670094
 10
36448.32443763
 20
-32139.94014237
 10
36448.32443764
 20
-32140.64136703
 10
36448.32443764
 20
-32140.71149589
 10
36436.54814898
 20
-32138.35792378
 10
36436.54814878
 20
-32127.22884939
 10
36436.67383805
 20
-32127.25396925
 10
36442.40427081
 20
-32128.39923557
 10
36443.66116425
 20
-32128.65043435
 10
36448.32443744
 20
-32129.5824215
  0
LWPOLYLINE
  5
6F5
100
AcDbEntity
  8
Ech.1_5
 62
   190
  6
CONTINUOUS
370
    -3
100
AcDbPolyline
 90
        6
 70
     0
 43
0.0
 10
36449.46757186
 20
-32133.24715116
 10
36449.46757182
 20
-32131.22368397
 10
36449.46757166
 20
-32122.72872743
 10
36426.33010798
 20
-32118.10455419
 10
36426.3301085
 20
-32146.43312384
 10
36449.46757218
 20
-32151.05729707
  0
LINE
  5
6F6
100
AcDbEntity
  8
Ech.1_5
 62
   190
  6
CONTINUOUS
370
    -3
100
AcDbLine
 10
36448.32442098
 20
-32139.94014237
 30
0.0
 11
36448.32440689
 21
-32140.64136703
 31
0.0
  0
LINE
  5
6F7
100
AcDbEntity
  8
Ech.1_5
 62
   190
  6
CONTINUOUS
370
    -3
100
AcDbLine
 10
36451.1498713
 20
-32133.58337025
 30
0.0
 11
36451.14987182
 21
-32161.9119399
 31
0.0
  0
LWPOLYLINE
  5
6F8
100
AcDbEntity
  8
Ech.1_5
 62
   190
  6
CONTINUOUS
370
    -3
100
AcDbPolyline
 90
        9
 70
     0
 43
0.0
 10
36477.84628376
 20
-32157.13006511
 10
36466.06999509
 20
-32154.776493
 10
36466.06999489
 20
-32143.64740897
 10
36467.32688832
 20
-32143.89860774
 10
36470.93908841
 20
-32144.62053072
 10
36471.06477768
 20
-32144.64565058
 10
36477.84628355
 20
-32146.00098107
 10
36477.84628374
 20
-32156.42883762
 10
36477.84628376
 20
-32157.13006511
  0
LWPOLYLINE
  5
6F9
100
AcDbEntity
  8
Ech.1_5
 62
   190
  6
CONTINUOUS
370
    -3
100
AcDbPolyline
 90
        4
 70
     0
 43
0.0
 10
36451.14987182
 20
-32161.9119399
 10
36492.7664074
 20
-32170.22929014
 10
36492.76640688
 20
-32141.90072049
 10
36451.1498713
 20
-32133.58337025
  0
LINE
  5
6FA
100
AcDbEntity
  8
Ech.1_5
 62
   190
  6
CONTINUOUS
370
    -3
100
AcDbLine
 10
36543.83212951
 20
-32169.91670749
 30
0.0
 11
36543.83212899
 21
-32141.58813785
 31
0.0
  0
LWPOLYLINE
  5
6FB
100
AcDbEntity
  8
Ech.1_5
 62
   190
  6
CONTINUOUS
370
    -3
100
AcDbPolyline
 90
       10
 70
     0
 43
0.0
 10
36516.1074312
 20
-32143.12931634
 10
36516.23312047
 20
-32143.15443991
 10
36521.96348906
 20
-32144.2996934
 10
36523.22038249
 20
-32144.55089017
 10
36527.88365568
 20
-32145.48287562
 10
36527.88365587
 20
-32155.84060947
 10
36527.88365589
 20
-32156.54183695
 10
36527.88365589
 20
-32156.61195966
 10
36516.1074314
 20
-32154.25840038
 10
36516.1074312
 20
-32143.12931634
  0
LWPOLYLINE
  5
6FC
100
AcDbEntity
  8
Ech.1_5
 62
   190
  6
CONTINUOUS
370
    -3
100
AcDbPolyline
 90
        4
 70
     0
 43
0.0
 10
36543.83212899
 20
-32141.58813785
 10
36513.30212262
 20
-32135.48650655
 10
36513.30212314
 20
-32163.81507619
 10
36543.83212951
 20
-32169.91670749
  0
LINE
  5
6FD
100
AcDbEntity
  8
Ech.1_5
 62
   190
  6
CONTINUOUS
370
    -3
100
AcDbLine
 10
36619.34325748
 20
-32156.67955904
 30
0.0
 11
36619.34325646
 21
-32185.00812923
 31
0.0
  0
LWPOLYLINE
  5
6FE
100
AcDbEntity
  8
Ech.1_5
 62
   190
  6
CONTINUOUS
370
    -3
100
AcDbPolyline
 90
       10
 70
     0
 43
0.0
 10
36645.38566038
 20
-32180.09554331
 10
36633.60937172
 20
-32177.74197121
 10
36633.60937151
 20
-32166.61288717
 10
36633.73506078
 20
-32166.63801074
 10
36634.99195422
 20
-32166.88920751
 10
36645.38566018
 20
-32168.96645928
 10
36645.3856022
 20
-32175.68370838
 10
36645.38566037
 20
-32179.32418979
 10
36645.38566038
 20
-32180.02542061
 10
36645.38566038
 20
-32180.09554331
  0
LWPOLYLINE
  5
6FF
100
AcDbEntity
  8
Ech.1_5
 62
   190
  6
CONTINUOUS
370
    -3
100
AcDbPolyline
 90
        4
 70
     0
 43
0.0
 10
36619.34325646
 20
-32185.00812923
 10
36661.334134
 20
-32193.40029115
 10
36661.33413348
 20
-32165.0717215
 10
36619.34325748
 20
-32156.67955904
  0
LINE
  5
700
100
AcDbEntity
  8
Ech.1_5
 62
   190
  6
CONTINUOUS
370
    -3
100
AcDbLine
 10
36557.19101852
 20
-32154.77642127
 30
0.0
 11
36557.19101904
 21
-32183.10499092
 31
0.0
  0
LWPOLYLINE
  5
701
100
AcDbEntity
  8
Ech.1_5
 62
   190
  6
CONTINUOUS
370
    -3
100
AcDbPolyline
 90
        9
 70
     0
 43
0.0
 10
36583.88743097
 20
-32178.32311613
 10
36572.11114231
 20
-32175.96954402
 10
36572.1111421
 20
-32164.84045999
 10
36573.36803554
 20
-32165.09165877
 10
36576.98023562
 20
-32165.81358174
 10
36577.10592489
 20
-32165.83870161
 10
36583.88743076
 20
-32167.1940321
 10
36583.88743096
 20
-32177.62188864
 10
36583.88743097
 20
-32178.32311613
  0
LWPOLYLINE
  5
702
100
AcDbEntity
  8
Ech.1_5
 62
   190
  6
CONTINUOUS
370
    -3
100
AcDbPolyline
 90
        4
 70
     0
 43
0.0
 10
36557.19101904
 20
-32183.10499092
 10
36598.80755461
 20
-32191.42234116
 10
36598.80755409
 20
-32163.09377152
 10
36557.19101852
 20
-32154.77642127
  0
LWPOLYLINE
  5
703
100
AcDbEntity
  8
Ech.1_5
 62
   190
  6
CONTINUOUS
370
    -3
100
AcDbPolyline
 90
        4
 70
     1
 43
0.0
 10
36619.34325748
 20
-32156.67955904
 10
36600.48985354
 20
-32163.42999061
 10
36600.48985406
 20
-32191.75856025
 10
36619.34325646
 20
-32185.00812923
  0
LWPOLYLINE
  5
704
100
AcDbEntity
  8
Ech.1_5
 62
   190
  6
CONTINUOUS
370
    -3
100
AcDbPolyline
 90
       10
 70
     1
 43
0.0
 10
36554.05016173
 20
-32161.84150743
 10
36554.05016153
 20
-32150.71243305
 10
36554.1758508
 20
-32150.73755291
 10
36555.43274423
 20
-32150.98875169
 10
36555.50868062
 20
-32151.0039281
 10
36555.50869059
 20
-32143.92177845
 10
36543.83212073
 20
-32141.58813785
 10
36543.83212951
 20
-32169.91670749
 10
36555.5087194
 20
-32172.2503481
 10
36555.50871921
 20
-32162.13300248
  0
LWPOLYLINE
  5
705
100
AcDbEntity
  8
Ech.1_5
 62
   190
  6
CONTINUOUS
370
    -3
100
AcDbPolyline
 90
        4
 70
     1
 43
0.0
 10
36712.72852286
 20
-32177.02207821
 10
36661.45982275
 20
-32195.3787555
 10
36661.45982327
 20
-32223.70732514
 10
36712.72852338
 20
-32205.35064786
  0
LWPOLYLINE
  5
706
100
AcDbEntity
  8
Ech.1_5
 62
   190
  6
CONTINUOUS
370
    -3
100
AcDbPolyline
 90
        4
 70
     1
 43
0.0
 10
36712.72852342
 20
-32207.37411505
 10
36712.72852338
 20
-32205.35064786
 10
36661.45982327
 20
-32223.70732514
 10
36661.4598233
 20
-32225.73079234
  0
LWPOLYLINE
  5
707
100
AcDbEntity
  8
Ech.1_5
 62
   190
  6
CONTINUOUS
370
    -3
100
AcDbPolyline
 90
        4
 70
     1
 43
0.0
 10
36661.334134
 20
-32223.75232799
 10
36619.34326209
 20
-32215.36016406
 10
36619.3432619
 20
-32217.38363133
 10
36661.33413404
 20
-32225.77579518
  0
LWPOLYLINE
  5
708
100
AcDbEntity
  8
Ech.1_5
 62
   190
  6
CONTINUOUS
370
    -3
100
AcDbPolyline
 90
        4
 70
     1
 43
0.0
 10
36619.34325481
 20
-32215.36016667
 10
36600.48985406
 20
-32222.1105971
 10
36600.4898541
 20
-32224.13406429
 10
36619.34325473
 20
-32217.3836339
  0
LWPOLYLINE
  5
709
100
AcDbEntity
  8
Ech.1_5
 62
   190
  6
CONTINUOUS
370
    -3
100
AcDbPolyline
 90
        4
 70
     1
 43
0.0
 10
36600.48985406
 20
-32222.1105971
 10
36555.50871959
 20
-32213.12080867
 10
36555.50871963
 20
-32215.14427586
 10
36600.4898541
 20
-32224.13406429
  0
LWPOLYLINE
  5
70A
100
AcDbEntity
  8
Ech.1_5
 62
   190
  6
CONTINUOUS
370
    -3
100
AcDbPolyline
 90
        4
 70
     1
 43
0.0
 10
36600.48985354
 20
-32193.78202745
 10
36598.80755409
 20
-32193.44580836
 10
36598.80755461
 20
-32221.77437801
 10
36600.48985406
 20
-32222.1105971
  0
LWPOLYLINE
  5
70B
100
AcDbEntity
  8
Ech.1_5
 62
   190
  6
CONTINUOUS
370
    -3
100
AcDbPolyline
 90
        4
 70
     1
 43
0.0
 10
36557.19101852
 20
-32185.12845811
 10
36555.50871907
 20
-32184.79223902
 10
36555.50871959
 20
-32213.12080867
 10
36557.19101904
 20
-32213.45702776
  0
LWPOLYLINE
  5
70C
100
AcDbEntity
  8
Ech.1_5
 62
   190
  6
CONTINUOUS
370
    -3
100
AcDbPolyline
 90
        4
 70
     1
 43
0.0
 10
36555.5087194
 20
-32202.60238494
 10
36543.83212125
 20
-32200.26874433
 10
36543.83212129
 20
-32202.29221153
 10
36555.50868105
 20
-32204.62585213
  0
LWPOLYLINE
  5
70D
100
AcDbEntity
  8
Ech.1_5
 62
   190
  6
CONTINUOUS
370
    -3
100
AcDbPolyline
 90
        4
 70
     1
 43
0.0
 10
36513.30211488
 20
-32194.16711303
 10
36513.30212152
 20
-32196.19058023
 10
36543.83212129
 20
-32202.29221153
 10
36543.83212125
 20
-32200.26874433
  0
LWPOLYLINE
  5
70E
100
AcDbEntity
  8
Ech.1_5
 62
   190
  6
CONTINUOUS
370
    -3
100
AcDbPolyline
 90
        4
 70
     1
 43
0.0
 10
36513.30211488
 20
-32194.16711303
 10
36494.44870685
 20
-32200.91754607
 10
36494.44870688
 20
-32202.94101327
 10
36513.30211492
 20
-32196.19058023
  0
LWPOLYLINE
  5
70F
100
AcDbEntity
  8
Ech.1_5
 62
   190
  6
CONTINUOUS
370
    -3
100
AcDbPolyline
 90
        4
 70
     1
 43
0.0
 10
36513.30212262
 20
-32165.83854339
 10
36494.44870633
 20
-32172.58897642
 10
36494.44870685
 20
-32200.91754607
 10
36513.30211488
 20
-32194.16711303
  0
LWPOLYLINE
  5
710
100
AcDbEntity
  8
Ech.1_5
 62
   190
  6
CONTINUOUS
370
    -3
100
AcDbPolyline
 90
        4
 70
     1
 43
0.0
 10
36494.44870633
 20
-32172.58897642
 10
36492.76640688
 20
-32172.25275733
 10
36492.7664074
 20
-32200.58132698
 10
36494.44870685
 20
-32200.91754607
  0
LWPOLYLINE
  5
711
100
AcDbEntity
  8
Ech.1_5
 62
   190
  6
CONTINUOUS
370
    -3
100
AcDbPolyline
 90
        4
 70
     1
 43
0.0
 10
36494.44870685
 20
-32200.91754607
 10
36449.46757238
 20
-32191.92775765
 10
36449.46757241
 20
-32193.95122484
 10
36494.44870688
 20
-32202.94101327
  0
LWPOLYLINE
  5
712
100
AcDbEntity
  8
Ech.1_5
 62
   190
  6
CONTINUOUS
370
    -3
100
AcDbPolyline
 90
        4
 70
     1
 43
0.0
 10
36449.46757218
 20
-32181.40933391
 10
36426.3301085
 20
-32176.78516068
 10
36426.33010854
 20
-32178.80862787
 10
36449.46753384
 20
-32183.43280111
  0
LWPOLYLINE
  5
713
100
AcDbEntity
  8
Ech.1_5
 62
   190
  6
CONTINUOUS
370
    -3
100
AcDbPolyline
 90
        4
 70
     1
 43
0.0
 10
36451.1498713
 20
-32163.93540709
 10
36449.46757186
 20
-32163.599188
 10
36449.46757238
 20
-32191.92775765
 10
36451.14987182
 20
-32192.26397674
  0
LINE
  5
714
100
AcDbEntity
  8
Ech.1_5
 62
   190
  6
CONTINUOUS
370
    -3
100
AcDbLine
 10
36449.46757218
 20
-32181.40933391
 30
0.0
 11
36449.46757186
 21
-32163.599188
 31
0.0
  0
LWPOLYLINE
  5
715
100
AcDbEntity
  8
Ech.1_5
 62
   190
  6
CONTINUOUS
370
    -3
100
AcDbPolyline
 90
       11
 70
     0
 43
0.0
 10
36448.32443744
 20
-32159.93445834
 10
36448.32440292
 20
-32169.84873778
 10
36448.32443763
 20
-32170.29217921
 10
36448.32443764
 20
-32170.99340387
 10
36448.32443764
 20
-32171.06353273
 10
36436.54814898
 20
-32168.70996062
 10
36436.54814878
 20
-32157.58088623
 10
36436.67383805
 20
-32157.60600609
 10
36442.40427081
 20
-32158.75127241
 10
36443.66116425
 20
-32159.00247119
 10
36448.32443744
 20
-32159.93445834
  0
LWPOLYLINE
  5
716
100
AcDbEntity
  8
Ech.1_5
 62
   190
  6
CONTINUOUS
370
    -3
100
AcDbPolyline
 90
        6
 70
     0
 43
0.0
 10
36449.46757186
 20
-32163.599188
 10
36449.46757182
 20
-32161.57572081
 10
36449.46757166
 20
-32153.08076427
 10
36426.33010798
 20
-32148.45659103
 10
36426.3301085
 20
-32176.78516068
 10
36449.46757218
 20
-32181.40933391
  0
LINE
  5
717
100
AcDbEntity
  8
Ech.1_5
 62
   190
  6
CONTINUOUS
370
    -3
100
AcDbLine
 10
36451.1498713
 20
-32163.93540709
 30
0.0
 11
36451.14987182
 21
-32192.26397674
 31
0.0
  0
LWPOLYLINE
  5
718
100
AcDbEntity
  8
Ech.1_5
 62
   190
  6
CONTINUOUS
370
    -3
100
AcDbPolyline
 90
        9
 70
     0
 43
0.0
 10
36477.84628376
 20
-32187.48210195
 10
36466.06999509
 20
-32185.12852984
 10
36466.06999489
 20
-32173.99944581
 10
36467.32688832
 20
-32174.25064458
 10
36470.93908841
 20
-32174.97256756
 10
36471.06477768
 20
-32174.99768742
 10
36477.84628355
 20
-32176.35301791
 10
36477.84628374
 20
-32186.78087446
 10
36477.84628376
 20
-32187.48210195
  0
LWPOLYLINE
  5
719
100
AcDbEntity
  8
Ech.1_5
 62
   190
  6
CONTINUOUS
370
    -3
100
AcDbPolyline
 90
        4
 70
     0
 43
0.0
 10
36451.14987182
 20
-32192.26397674
 10
36492.7664074
 20
-32200.58132698
 10
36492.76640688
 20
-32172.25275733
 10
36451.1498713
 20
-32163.93540709
  0
LINE
  5
71A
100
AcDbEntity
  8
Ech.1_5
 62
   190
  6
CONTINUOUS
370
    -3
100
AcDbLine
 10
36543.83212951
 20
-32200.26874433
 30
0.0
 11
36543.83212899
 21
-32171.94017469
 31
0.0
  0
LWPOLYLINE
  5
71B
100
AcDbEntity
  8
Ech.1_5
 62
   190
  6
CONTINUOUS
370
    -3
100
AcDbPolyline
 90
       10
 70
     0
 43
0.0
 10
36516.1074312
 20
-32173.48135318
 10
36516.23312047
 20
-32173.50647675
 10
36521.96348906
 20
-32174.65173024
 10
36523.22038249
 20
-32174.90292701
 10
36527.88365568
 20
-32175.83491247
 10
36527.88365587
 20
-32186.19264631
 10
36527.88365589
 20
-32186.89387379
 10
36527.88365589
 20
-32186.9639965
 10
36516.1074314
 20
-32184.61043722
 10
36516.1074312
 20
-32173.48135318
  0
LWPOLYLINE
  5
71C
100
AcDbEntity
  8
Ech.1_5
 62
   190
  6
CONTINUOUS
370
    -3
100
AcDbPolyline
 90
        4
 70
     0
 43
0.0
 10
36543.83212899
 20
-32171.94017469
 10
36513.30212262
 20
-32165.83854339
 10
36513.30212314
 20
-32194.16711303
 10
36543.83212951
 20
-32200.26874433
  0
LINE
  5
71D
100
AcDbEntity
  8
Ech.1_5
 62
   190
  6
CONTINUOUS
370
    -3
100
AcDbLine
 10
36619.34325748
 20
-32187.03159588
 30
0.0
 11
36619.34325646
 21
-32215.36016607
 31
0.0
  0
LWPOLYLINE
  5
71E
100
AcDbEntity
  8
Ech.1_5
 62
   190
  6
CONTINUOUS
370
    -3
100
AcDbPolyline
 90
       10
 70
     0
 43
0.0
 10
36645.38566038
 20
-32210.44758015
 10
36633.60937172
 20
-32208.09400805
 10
36633.60937151
 20
-32196.96492401
 10
36633.73506078
 20
-32196.99004758
 10
36634.99195422
 20
-32197.24124435
 10
36645.38566018
 20
-32199.31849612
 10
36645.3856022
 20
-32206.03574522
 10
36645.38566037
 20
-32209.67622663
 10
36645.38566038
 20
-32210.37745745
 10
36645.38566038
 20
-32210.44758015
  0
LWPOLYLINE
  5
71F
100
AcDbEntity
  8
Ech.1_5
 62
   190
  6
CONTINUOUS
370
    -3
100
AcDbPolyline
 90
        4
 70
     0
 43
0.0
 10
36619.34325646
 20
-32215.36016607
 10
36661.334134
 20
-32223.75232799
 10
36661.33413348
 20
-32195.42375834
 10
36619.34325748
 20
-32187.03159588
  0
LINE
  5
720
100
AcDbEntity
  8
Ech.1_5
 62
   190
  6
CONTINUOUS
370
    -3
100
AcDbLine
 10
36557.19101852
 20
-32185.12845811
 30
0.0
 11
36557.19101904
 21
-32213.45702776
 31
0.0
  0
LWPOLYLINE
  5
721
100
AcDbEntity
  8
Ech.1_5
 62
   190
  6
CONTINUOUS
370
    -3
100
AcDbPolyline
 90
        9
 70
     0
 43
0.0
 10
36583.88743097
 20
-32208.67515297
 10
36572.11114231
 20
-32206.32158086
 10
36572.1111421
 20
-32195.19249683
 10
36573.36803554
 20
-32195.44369561
 10
36576.98023562
 20
-32196.16561858
 10
36577.10592489
 20
-32196.19073845
 10
36583.88743076
 20
-32197.54606894
 10
36583.88743096
 20
-32207.97392549
 10
36583.88743097
 20
-32208.67515297
  0
LWPOLYLINE
  5
722
100
AcDbEntity
  8
Ech.1_5
 62
   190
  6
CONTINUOUS
370
    -3
100
AcDbPolyline
 90
        4
 70
     0
 43
0.0
 10
36557.19101904
 20
-32213.45702776
 10
36598.80755461
 20
-32221.77437801
 10
36598.80755409
 20
-32193.44580836
 10
36557.19101852
 20
-32185.12845811
  0
LWPOLYLINE
  5
723
100
AcDbEntity
  8
Ech.1_5
 62
   190
  6
CONTINUOUS
370
    -3
100
AcDbPolyline
 90
        4
 70
     1
 43
0.0
 10
36619.34325748
 20
-32187.03159588
 10
36600.48985354
 20
-32193.78202745
 10
36600.48985406
 20
-32222.1105971
 10
36619.34325646
 20
-32215.36016607
  0
LWPOLYLINE
  5
724
100
AcDbEntity
  8
Ech.1_5
 62
   190
  6
CONTINUOUS
370
    -3
100
AcDbPolyline
 90
       10
 70
     1
 43
0.0
 10
36554.05016173
 20
-32192.19354427
 10
36554.05016153
 20
-32181.06446989
 10
36554.1758508
 20
-32181.08958975
 10
36555.43274423
 20
-32181.34078853
 10
36555.50868062
 20
-32181.35596494
 10
36555.50869059
 20
-32174.27381529
 10
36543.83212073
 20
-32171.94017469
 10
36543.83212951
 20
-32200.26874433
 10
36555.5087194
 20
-32202.60238494
 10
36555.50871921
 20
-32192.48503932
  0
LWPOLYLINE
  5
725
100
AcDbEntity
  8
Ech.1_5
 62
   190
  6
CONTINUOUS
370
    -3
100
AcDbPolyline
 90
        4
 70
     1
 43
0.0
 10
36712.72852286
 20
-32207.37411505
 10
36661.45982275
 20
-32225.73079234
 10
36661.45982327
 20
-32254.05936199
 10
36712.72852338
 20
-32235.7026847
  0
LWPOLYLINE
  5
726
100
AcDbEntity
  8
Ech.1_5
 62
   190
  6
CONTINUOUS
370
    -3
100
AcDbPolyline
 90
        4
 70
     1
 43
0.0
 10
36712.72852342
 20
-32237.72615189
 10
36712.72852338
 20
-32235.7026847
 10
36661.45982327
 20
-32254.05936199
 10
36661.4598233
 20
-32256.08282918
  0
LWPOLYLINE
  5
727
100
AcDbEntity
  8
Ech.1_5
 62
   190
  6
CONTINUOUS
370
    -3
100
AcDbPolyline
 90
        4
 70
     1
 43
0.0
 10
36661.334134
 20
-32254.10436483
 10
36619.34326209
 20
-32245.7122009
 10
36619.3432619
 20
-32247.73566817
 10
36661.33413404
 20
-32256.12783202
  0
LWPOLYLINE
  5
728
100
AcDbEntity
  8
Ech.1_5
 62
   190
  6
CONTINUOUS
370
    -3
100
AcDbPolyline
 90
        4
 70
     1
 43
0.0
 10
36619.34325481
 20
-32245.71220351
 10
36600.48985406
 20
-32252.46263394
 10
36600.4898541
 20
-32254.48610113
 10
36619.34325473
 20
-32247.73567074
  0
LWPOLYLINE
  5
729
100
AcDbEntity
  8
Ech.1_5
 62
   190
  6
CONTINUOUS
370
    -3
100
AcDbPolyline
 90
        4
 70
     1
 43
0.0
 10
36600.48985406
 20
-32252.46263394
 10
36555.50871959
 20
-32243.47284551
 10
36555.50871963
 20
-32245.4963127
 10
36600.4898541
 20
-32254.48610113
  0
LWPOLYLINE
  5
72A
100
AcDbEntity
  8
Ech.1_5
 62
   190
  6
CONTINUOUS
370
    -3
100
AcDbPolyline
 90
        4
 70
     1
 43
0.0
 10
36600.48985354
 20
-32224.13406429
 10
36598.80755409
 20
-32223.7978452
 10
36598.80755461
 20
-32252.12641485
 10
36600.48985406
 20
-32252.46263394
  0
LWPOLYLINE
  5
72B
100
AcDbEntity
  8
Ech.1_5
 62
   190
  6
CONTINUOUS
370
    -3
100
AcDbPolyline
 90
        4
 70
     1
 43
0.0
 10
36557.19101852
 20
-32215.48049495
 10
36555.50871907
 20
-32215.14427586
 10
36555.50871959
 20
-32243.47284551
 10
36557.19101904
 20
-32243.8090646
  0
LWPOLYLINE
  5
72C
100
AcDbEntity
  8
Ech.1_5
 62
   190
  6
CONTINUOUS
370
    -3
100
AcDbPolyline
 90
        4
 70
     1
 43
0.0
 10
36555.5087194
 20
-32232.95442178
 10
36543.83212125
 20
-32230.62078117
 10
36543.83212129
 20
-32232.64424837
 10
36555.50868105
 20
-32234.97788897
  0
LWPOLYLINE
  5
72D
100
AcDbEntity
  8
Ech.1_5
 62
   190
  6
CONTINUOUS
370
    -3
100
AcDbPolyline
 90
        4
 70
     1
 43
0.0
 10
36513.30211488
 20
-32224.51914988
 10
36513.30212152
 20
-32226.54261707
 10
36543.83212129
 20
-32232.64424837
 10
36543.83212125
 20
-32230.62078117
  0
LWPOLYLINE
  5
72E
100
AcDbEntity
  8
Ech.1_5
 62
   190
  6
CONTINUOUS
370
    -3
100
AcDbPolyline
 90
        4
 70
     1
 43
0.0
 10
36513.30211488
 20
-32224.51914988
 10
36494.44870685
 20
-32231.26958291
 10
36494.44870688
 20
-32233.29305011
 10
36513.30211492
 20
-32226.54261707
  0
LWPOLYLINE
  5
72F
100
AcDbEntity
  8
Ech.1_5
 62
   190
  6
CONTINUOUS
370
    -3
100
AcDbPolyline
 90
        4
 70
     1
 43
0.0
 10
36513.30212262
 20
-32196.19058023
 10
36494.44870633
 20
-32202.94101327
 10
36494.44870685
 20
-32231.26958291
 10
36513.30211488
 20
-32224.51914988
  0
LWPOLYLINE
  5
730
100
AcDbEntity
  8
Ech.1_5
 62
   190
  6
CONTINUOUS
370
    -3
100
AcDbPolyline
 90
        4
 70
     1
 43
0.0
 10
36494.44870633
 20
-32202.94101327
 10
36492.76640688
 20
-32202.60479418
 10
36492.7664074
 20
-32230.93336382
 10
36494.44870685
 20
-32231.26958291
  0
LWPOLYLINE
  5
731
100
AcDbEntity
  8
Ech.1_5
 62
   190
  6
CONTINUOUS
370
    -3
100
AcDbPolyline
 90
        4
 70
     1
 43
0.0
 10
36494.44870685
 20
-32231.26958291
 10
36449.46757238
 20
-32222.27979449
 10
36449.46757241
 20
-32224.30326168
 10
36494.44870688
 20
-32233.29305011
  0
LWPOLYLINE
  5
732
100
AcDbEntity
  8
Ech.1_5
 62
   190
  6
CONTINUOUS
370
    -3
100
AcDbPolyline
 90
        4
 70
     1
 43
0.0
 10
36449.46757218
 20
-32211.76137075
 10
36426.3301085
 20
-32207.13719752
 10
36426.33010854
 20
-32209.16066471
 10
36449.46753384
 20
-32213.78483795
  0
LWPOLYLINE
  5
733
100
AcDbEntity
  8
Ech.1_5
 62
   190
  6
CONTINUOUS
370
    -3
100
AcDbPolyline
 90
        4
 70
     1
 43
0.0
 10
36451.1498713
 20
-32194.28744393
 10
36449.46757186
 20
-32193.95122484
 10
36449.46757238
 20
-32222.27979449
 10
36451.14987182
 20
-32222.61601358
  0
LINE
  5
734
100
AcDbEntity
  8
Ech.1_5
 62
   190
  6
CONTINUOUS
370
    -3
100
AcDbLine
 10
36449.46757218
 20
-32211.76137075
 30
0.0
 11
36449.46757186
 21
-32193.95122484
 31
0.0
  0
LWPOLYLINE
  5
735
100
AcDbEntity
  8
Ech.1_5
 62
   190
  6
CONTINUOUS
370
    -3
100
AcDbPolyline
 90
       11
 70
     0
 43
0.0
 10
36448.32443744
 20
-32190.28649518
 10
36448.32440292
 20
-32200.20077462
 10
36448.32443763
 20
-32200.64421605
 10
36448.32443764
 20
-32201.34544071
 10
36448.32443764
 20
-32201.41556957
 10
36436.54814898
 20
-32199.06199746
 10
36436.54814878
 20
-32187.93292307
 10
36436.67383805
 20
-32187.95804294
 10
36442.40427081
 20
-32189.10330925
 10
36443.66116425
 20
-32189.35450803
 10
36448.32443744
 20
-32190.28649518
  0
LWPOLYLINE
  5
736
100
AcDbEntity
  8
Ech.1_5
 62
   190
  6
CONTINUOUS
370
    -3
100
AcDbPolyline
 90
        6
 70
     0
 43
0.0
 10
36449.46757186
 20
-32193.95122484
 10
36449.46757182
 20
-32191.92775765
 10
36449.46757166
 20
-32183.43280111
 10
36426.33010798
 20
-32178.80862787
 10
36426.3301085
 20
-32207.13719752
 10
36449.46757218
 20
-32211.76137075
  0
LINE
  5
737
100
AcDbEntity
  8
Ech.1_5
 62
   190
  6
CONTINUOUS
370
    -3
100
AcDbLine
 10
36451.1498713
 20
-32194.28744393
 30
0.0
 11
36451.14987182
 21
-32222.61601358
 31
0.0
  0
LWPOLYLINE
  5
738
100
AcDbEntity
  8
Ech.1_5
 62
   190
  6
CONTINUOUS
370
    -3
100
AcDbPolyline
 90
        9
 70
     0
 43
0.0
 10
36477.84628376
 20
-32217.83413879
 10
36466.06999509
 20
-32215.48056668
 10
36466.06999489
 20
-32204.35148265
 10
36467.32688832
 20
-32204.60268142
 10
36470.93908841
 20
-32205.3246044
 10
36471.06477768
 20
-32205.34972427
 10
36477.84628355
 20
-32206.70505475
 10
36477.84628374
 20
-32217.1329113
 10
36477.84628376
 20
-32217.83413879
  0
LWPOLYLINE
  5
739
100
AcDbEntity
  8
Ech.1_5
 62
   190
  6
CONTINUOUS
370
    -3
100
AcDbPolyline
 90
        4
 70
     0
 43
0.0
 10
36451.14987182
 20
-32222.61601358
 10
36492.7664074
 20
-32230.93336382
 10
36492.76640688
 20
-32202.60479418
 10
36451.1498713
 20
-32194.28744393
  0
LINE
  5
73A
100
AcDbEntity
  8
Ech.1_5
 62
   190
  6
CONTINUOUS
370
    -3
100
AcDbLine
 10
36543.83212951
 20
-32230.62078117
 30
0.0
 11
36543.83212899
 21
-32202.29221153
 31
0.0
  0
LWPOLYLINE
  5
73B
100
AcDbEntity
  8
Ech.1_5
 62
   190
  6
CONTINUOUS
370
    -3
100
AcDbPolyline
 90
       10
 70
     0
 43
0.0
 10
36516.1074312
 20
-32203.83339002
 10
36516.23312047
 20
-32203.85851359
 10
36521.96348906
 20
-32205.00376708
 10
36523.22038249
 20
-32205.25496385
 10
36527.88365568
 20
-32206.18694931
 10
36527.88365587
 20
-32216.54468315
 10
36527.88365589
 20
-32217.24591063
 10
36527.88365589
 20
-32217.31603334
 10
36516.1074314
 20
-32214.96247406
 10
36516.1074312
 20
-32203.83339002
  0
LWPOLYLINE
  5
73C
100
AcDbEntity
  8
Ech.1_5
 62
   190
  6
CONTINUOUS
370
    -3
100
AcDbPolyline
 90
        4
 70
     0
 43
0.0
 10
36543.83212899
 20
-32202.29221153
 10
36513.30212262
 20
-32196.19058023
 10
36513.30212314
 20
-32224.51914988
 10
36543.83212951
 20
-32230.62078117
  0
LINE
  5
73D
100
AcDbEntity
  8
Ech.1_5
 62
   190
  6
CONTINUOUS
370
    -3
100
AcDbLine
 10
36619.34325748
 20
-32217.38363272
 30
0.0
 11
36619.34325646
 21
-32245.71220292
 31
0.0
  0
LWPOLYLINE
  5
73E
100
AcDbEntity
  8
Ech.1_5
 62
   190
  6
CONTINUOUS
370
    -3
100
AcDbPolyline
 90
       10
 70
     0
 43
0.0
 10
36645.38566038
 20
-32240.799617
 10
36633.60937172
 20
-32238.44604489
 10
36633.60937151
 20
-32227.31696085
 10
36633.73506078
 20
-32227.34208442
 10
36634.99195422
 20
-32227.59328119
 10
36645.38566018
 20
-32229.67053296
 10
36645.3856022
 20
-32236.38778206
 10
36645.38566037
 20
-32240.02826347
 10
36645.38566038
 20
-32240.72949429
 10
36645.38566038
 20
-32240.799617
  0
LWPOLYLINE
  5
73F
100
AcDbEntity
  8
Ech.1_5
 62
   190
  6
CONTINUOUS
370
    -3
100
AcDbPolyline
 90
        4
 70
     0
 43
0.0
 10
36619.34325646
 20
-32245.71220292
 10
36661.334134
 20
-32254.10436483
 10
36661.33413348
 20
-32225.77579518
 10
36619.34325748
 20
-32217.38363272
  0
LINE
  5
740
100
AcDbEntity
  8
Ech.1_5
 62
   190
  6
CONTINUOUS
370
    -3
100
AcDbLine
 10
36557.19101852
 20
-32215.48049495
 30
0.0
 11
36557.19101904
 21
-32243.8090646
 31
0.0
  0
LWPOLYLINE
  5
741
100
AcDbEntity
  8
Ech.1_5
 62
   190
  6
CONTINUOUS
370
    -3
100
AcDbPolyline
 90
        9
 70
     0
 43
0.0
 10
36583.88743097
 20
-32239.02718981
 10
36572.11114231
 20
-32236.6736177
 10
36572.1111421
 20
-32225.54453367
 10
36573.36803554
 20
-32225.79573245
 10
36576.98023562
 20
-32226.51765543
 10
36577.10592489
 20
-32226.54277529
 10
36583.88743076
 20
-32227.89810578
 10
36583.88743096
 20
-32238.32596233
 10
36583.88743097
 20
-32239.02718981
  0
LWPOLYLINE
  5
742
100
AcDbEntity
  8
Ech.1_5
 62
   190
  6
CONTINUOUS
370
    -3
100
AcDbPolyline
 90
        4
 70
     0
 43
0.0
 10
36557.19101904
 20
-32243.8090646
 10
36598.80755461
 20
-32252.12641485
 10
36598.80755409
 20
-32223.7978452
 10
36557.19101852
 20
-32215.48049495
  0
LWPOLYLINE
  5
743
100
AcDbEntity
  8
Ech.1_5
 62
   190
  6
CONTINUOUS
370
    -3
100
AcDbPolyline
 90
        4
 70
     1
 43
0.0
 10
36619.34325748
 20
-32217.38363272
 10
36600.48985354
 20
-32224.13406429
 10
36600.48985406
 20
-32252.46263394
 10
36619.34325646
 20
-32245.71220292
  0
LWPOLYLINE
  5
744
100
AcDbEntity
  8
Ech.1_5
 62
   190
  6
CONTINUOUS
370
    -3
100
AcDbPolyline
 90
       10
 70
     1
 43
0.0
 10
36554.05016173
 20
-32222.54558111
 10
36554.05016153
 20
-32211.41650673
 10
36554.1758508
 20
-32211.44162659
 10
36555.43274423
 20
-32211.69282537
 10
36555.50868062
 20
-32211.70800178
 10
36555.50869059
 20
-32204.62585213
 10
36543.83212073
 20
-32202.29221153
 10
36543.83212951
 20
-32230.62078117
 10
36555.5087194
 20
-32232.95442178
 10
36555.50871921
 20
-32222.83707616
  0
LWPOLYLINE
  5
745
100
AcDbEntity
  8
Ech.1_5
 62
   190
  6
CONTINUOUS
370
    -3
100
AcDbPolyline
 90
        4
 70
     1
 43
0.0
 10
36712.72852286
 20
-32237.72615189
 10
36661.45982275
 20
-32256.08282918
 10
36661.45982327
 20
-32284.41139883
 10
36712.72852338
 20
-32266.05472154
  0
LWPOLYLINE
  5
746
100
AcDbEntity
  8
Ech.1_5
 62
   190
  6
CONTINUOUS
370
    -3
100
AcDbPolyline
 90
        4
 70
     1
 43
0.0
 10
36712.72852342
 20
-32268.07818873
 10
36712.72852338
 20
-32266.05472154
 10
36661.45982327
 20
-32284.41139883
 10
36661.4598233
 20
-32286.43486602
  0
LWPOLYLINE
  5
747
100
AcDbEntity
  8
Ech.1_5
 62
   190
  6
CONTINUOUS
370
    -3
100
AcDbPolyline
 90
        4
 70
     1
 43
0.0
 10
36661.334134
 20
-32284.45640167
 10
36619.34326209
 20
-32276.06423774
 10
36619.3432619
 20
-32278.08770501
 10
36661.33413404
 20
-32286.47986886
  0
LWPOLYLINE
  5
748
100
AcDbEntity
  8
Ech.1_5
 62
   190
  6
CONTINUOUS
370
    -3
100
AcDbPolyline
 90
        4
 70
     1
 43
0.0
 10
36619.34325481
 20
-32276.06424035
 10
36600.48985406
 20
-32282.81467078
 10
36600.4898541
 20
-32284.83813797
 10
36619.34325473
 20
-32278.08770758
  0
LWPOLYLINE
  5
749
100
AcDbEntity
  8
Ech.1_5
 62
   190
  6
CONTINUOUS
370
    -3
100
AcDbPolyline
 90
        4
 70
     1
 43
0.0
 10
36600.48985406
 20
-32282.81467078
 10
36555.50871959
 20
-32273.82488235
 10
36555.50871963
 20
-32275.84834954
 10
36600.4898541
 20
-32284.83813797
  0
LWPOLYLINE
  5
74A
100
AcDbEntity
  8
Ech.1_5
 62
   190
  6
CONTINUOUS
370
    -3
100
AcDbPolyline
 90
        4
 70
     1
 43
0.0
 10
36600.48985354
 20
-32254.48610113
 10
36598.80755409
 20
-32254.14988204
 10
36598.80755461
 20
-32282.47845169
 10
36600.48985406
 20
-32282.81467078
  0
LWPOLYLINE
  5
74B
100
AcDbEntity
  8
Ech.1_5
 62
   190
  6
CONTINUOUS
370
    -3
100
AcDbPolyline
 90
        4
 70
     1
 43
0.0
 10
36557.19101852
 20
-32245.83253179
 10
36555.50871907
 20
-32245.4963127
 10
36555.50871959
 20
-32273.82488235
 10
36557.19101904
 20
-32274.16110144
  0
LWPOLYLINE
  5
74C
100
AcDbEntity
  8
Ech.1_5
 62
   190
  6
CONTINUOUS
370
    -3
100
AcDbPolyline
 90
        4
 70
     1
 43
0.0
 10
36555.5087194
 20
-32263.30645862
 10
36543.83212125
 20
-32260.97281801
 10
36543.83212129
 20
-32262.99628521
 10
36555.50868105
 20
-32265.32992581
  0
LWPOLYLINE
  5
74D
100
AcDbEntity
  8
Ech.1_5
 62
   190
  6
CONTINUOUS
370
    -3
100
AcDbPolyline
 90
        4
 70
     1
 43
0.0
 10
36513.30211488
 20
-32254.87118672
 10
36513.30212152
 20
-32256.89465391
 10
36543.83212129
 20
-32262.99628521
 10
36543.83212125
 20
-32260.97281801
  0
LWPOLYLINE
  5
74E
100
AcDbEntity
  8
Ech.1_5
 62
   190
  6
CONTINUOUS
370
    -3
100
AcDbPolyline
 90
        4
 70
     1
 43
0.0
 10
36513.30211488
 20
-32254.87118672
 10
36494.44870685
 20
-32261.62161975
 10
36494.44870688
 20
-32263.64508695
 10
36513.30211492
 20
-32256.89465391
  0
LWPOLYLINE
  5
74F
100
AcDbEntity
  8
Ech.1_5
 62
   190
  6
CONTINUOUS
370
    -3
100
AcDbPolyline
 90
        4
 70
     1
 43
0.0
 10
36513.30212262
 20
-32226.54261707
 10
36494.44870633
 20
-32233.29305011
 10
36494.44870685
 20
-32261.62161975
 10
36513.30211488
 20
-32254.87118672
  0
LWPOLYLINE
  5
750
100
AcDbEntity
  8
Ech.1_5
 62
   190
  6
CONTINUOUS
370
    -3
100
AcDbPolyline
 90
        4
 70
     1
 43
0.0
 10
36494.44870633
 20
-32233.29305011
 10
36492.76640688
 20
-32232.95683102
 10
36492.7664074
 20
-32261.28540066
 10
36494.44870685
 20
-32261.62161975
  0
LWPOLYLINE
  5
751
100
AcDbEntity
  8
Ech.1_5
 62
   190
  6
CONTINUOUS
370
    -3
100
AcDbPolyline
 90
        4
 70
     1
 43
0.0
 10
36494.44870685
 20
-32261.62161975
 10
36449.46757238
 20
-32252.63183133
 10
36449.46757241
 20
-32254.65529852
 10
36494.44870688
 20
-32263.64508695
  0
LWPOLYLINE
  5
752
100
AcDbEntity
  8
Ech.1_5
 62
   190
  6
CONTINUOUS
370
    -3
100
AcDbPolyline
 90
        4
 70
     1
 43
0.0
 10
36449.46757218
 20
-32242.11340759
 10
36426.3301085
 20
-32237.48923436
 10
36426.33010854
 20
-32239.51270155
 10
36449.46753384
 20
-32244.13687479
  0
LWPOLYLINE
  5
753
100
AcDbEntity
  8
Ech.1_5
 62
   190
  6
CONTINUOUS
370
    -3
100
AcDbPolyline
 90
        4
 70
     1
 43
0.0
 10
36451.1498713
 20
-32224.63948077
 10
36449.46757186
 20
-32224.30326168
 10
36449.46757238
 20
-32252.63183133
 10
36451.14987182
 20
-32252.96805042
  0
LINE
  5
754
100
AcDbEntity
  8
Ech.1_5
 62
   190
  6
CONTINUOUS
370
    -3
100
AcDbLine
 10
36449.46757218
 20
-32242.11340759
 30
0.0
 11
36449.46757186
 21
-32224.30326168
 31
0.0
  0
LWPOLYLINE
  5
755
100
AcDbEntity
  8
Ech.1_5
 62
   190
  6
CONTINUOUS
370
    -3
100
AcDbPolyline
 90
       11
 70
     0
 43
0.0
 10
36448.32443744
 20
-32220.63853202
 10
36448.32440292
 20
-32230.55281146
 10
36448.32443763
 20
-32230.99625289
 10
36448.32443764
 20
-32231.69747755
 10
36448.32443764
 20
-32231.76760641
 10
36436.54814898
 20
-32229.4140343
 10
36436.54814878
 20
-32218.28495991
 10
36436.67383805
 20
-32218.31007978
 10
36442.40427081
 20
-32219.45534609
 10
36443.66116425
 20
-32219.70654487
 10
36448.32443744
 20
-32220.63853202
  0
LWPOLYLINE
  5
756
100
AcDbEntity
  8
Ech.1_5
 62
   190
  6
CONTINUOUS
370
    -3
100
AcDbPolyline
 90
        6
 70
     0
 43
0.0
 10
36449.46757186
 20
-32224.30326168
 10
36449.46757182
 20
-32222.27979449
 10
36449.46757166
 20
-32213.78483795
 10
36426.33010798
 20
-32209.16066471
 10
36426.3301085
 20
-32237.48923436
 10
36449.46757218
 20
-32242.11340759
  0
LINE
  5
757
100
AcDbEntity
  8
Ech.1_5
 62
   190
  6
CONTINUOUS
370
    -3
100
AcDbLine
 10
36451.1498713
 20
-32224.63948077
 30
0.0
 11
36451.14987182
 21
-32252.96805042
 31
0.0
  0
LWPOLYLINE
  5
758
100
AcDbEntity
  8
Ech.1_5
 62
   190
  6
CONTINUOUS
370
    -3
100
AcDbPolyline
 90
        9
 70
     0
 43
0.0
 10
36477.84628376
 20
-32248.18617563
 10
36466.06999509
 20
-32245.83260352
 10
36466.06999489
 20
-32234.70351949
 10
36467.32688832
 20
-32234.95471827
 10
36470.93908841
 20
-32235.67664124
 10
36471.06477768
 20
-32235.70176111
 10
36477.84628355
 20
-32237.0570916
 10
36477.84628374
 20
-32247.48494814
 10
36477.84628376
 20
-32248.18617563
  0
LWPOLYLINE
  5
759
100
AcDbEntity
  8
Ech.1_5
 62
   190
  6
CONTINUOUS
370
    -3
100
AcDbPolyline
 90
        4
 70
     0
 43
0.0
 10
36451.14987182
 20
-32252.96805042
 10
36492.7664074
 20
-32261.28540066
 10
36492.76640688
 20
-32232.95683102
 10
36451.1498713
 20
-32224.63948077
  0
LINE
  5
75A
100
AcDbEntity
  8
Ech.1_5
 62
   190
  6
CONTINUOUS
370
    -3
100
AcDbLine
 10
36543.83212951
 20
-32260.97281801
 30
0.0
 11
36543.83212899
 21
-32232.64424837
 31
0.0
  0
LWPOLYLINE
  5
75B
100
AcDbEntity
  8
Ech.1_5
 62
   190
  6
CONTINUOUS
370
    -3
100
AcDbPolyline
 90
       10
 70
     0
 43
0.0
 10
36516.1074312
 20
-32234.18542686
 10
36516.23312047
 20
-32234.21055043
 10
36521.96348906
 20
-32235.35580392
 10
36523.22038249
 20
-32235.60700069
 10
36527.88365568
 20
-32236.53898615
 10
36527.88365587
 20
-32246.89671999
 10
36527.88365589
 20
-32247.59794747
 10
36527.88365589
 20
-32247.66807018
 10
36516.1074314
 20
-32245.3145109
 10
36516.1074312
 20
-32234.18542686
  0
LWPOLYLINE
  5
75C
100
AcDbEntity
  8
Ech.1_5
 62
   190
  6
CONTINUOUS
370
    -3
100
AcDbPolyline
 90
        4
 70
     0
 43
0.0
 10
36543.83212899
 20
-32232.64424837
 10
36513.30212262
 20
-32226.54261707
 10
36513.30212314
 20
-32254.87118672
 10
36543.83212951
 20
-32260.97281801
  0
LINE
  5
75D
100
AcDbEntity
  8
Ech.1_5
 62
   190
  6
CONTINUOUS
370
    -3
100
AcDbLine
 10
36619.34325748
 20
-32247.73566956
 30
0.0
 11
36619.34325646
 21
-32276.06423976
 31
0.0
  0
LWPOLYLINE
  5
75E
100
AcDbEntity
  8
Ech.1_5
 62
   190
  6
CONTINUOUS
370
    -3
100
AcDbPolyline
 90
       10
 70
     0
 43
0.0
 10
36645.38566038
 20
-32271.15165384
 10
36633.60937172
 20
-32268.79808173
 10
36633.60937151
 20
-32257.66899769
 10
36633.73506078
 20
-32257.69412126
 10
36634.99195422
 20
-32257.94531803
 10
36645.38566018
 20
-32260.0225698
 10
36645.3856022
 20
-32266.7398189
 10
36645.38566037
 20
-32270.38030031
 10
36645.38566038
 20
-32271.08153113
 10
36645.38566038
 20
-32271.15165384
  0
LWPOLYLINE
  5
75F
100
AcDbEntity
  8
Ech.1_5
 62
   190
  6
CONTINUOUS
370
    -3
100
AcDbPolyline
 90
        4
 70
     0
 43
0.0
 10
36619.34325646
 20
-32276.06423976
 10
36661.334134
 20
-32284.45640167
 10
36661.33413348
 20
-32256.12783202
 10
36619.34325748
 20
-32247.73566956
  0
LINE
  5
760
100
AcDbEntity
  8
Ech.1_5
 62
   190
  6
CONTINUOUS
370
    -3
100
AcDbLine
 10
36557.19101852
 20
-32245.83253179
 30
0.0
 11
36557.19101904
 21
-32274.16110144
 31
0.0
  0
LWPOLYLINE
  5
761
100
AcDbEntity
  8
Ech.1_5
 62
   190
  6
CONTINUOUS
370
    -3
100
AcDbPolyline
 90
        9
 70
     0
 43
0.0
 10
36583.88743097
 20
-32269.37922665
 10
36572.11114231
 20
-32267.02565454
 10
36572.1111421
 20
-32255.89657051
 10
36573.36803554
 20
-32256.14776929
 10
36576.98023562
 20
-32256.86969227
 10
36577.10592489
 20
-32256.89481213
 10
36583.88743076
 20
-32258.25014262
 10
36583.88743096
 20
-32268.67799917
 10
36583.88743097
 20
-32269.37922665
  0
LWPOLYLINE
  5
762
100
AcDbEntity
  8
Ech.1_5
 62
   190
  6
CONTINUOUS
370
    -3
100
AcDbPolyline
 90
        4
 70
     0
 43
0.0
 10
36557.19101904
 20
-32274.16110144
 10
36598.80755461
 20
-32282.47845169
 10
36598.80755409
 20
-32254.14988204
 10
36557.19101852
 20
-32245.83253179
  0
LWPOLYLINE
  5
763
100
AcDbEntity
  8
Ech.1_5
 62
   190
  6
CONTINUOUS
370
    -3
100
AcDbPolyline
 90
        4
 70
     1
 43
0.0
 10
36619.34325748
 20
-32247.73566956
 10
36600.48985354
 20
-32254.48610113
 10
36600.48985406
 20
-32282.81467078
 10
36619.34325646
 20
-32276.06423976
  0
LWPOLYLINE
  5
764
100
AcDbEntity
  8
Ech.1_5
 62
   190
  6
CONTINUOUS
370
    -3
100
AcDbPolyline
 90
       10
 70
     1
 43
0.0
 10
36554.05016173
 20
-32252.89761795
 10
36554.05016153
 20
-32241.76854357
 10
36554.1758508
 20
-32241.79366343
 10
36555.43274423
 20
-32242.04486221
 10
36555.50868062
 20
-32242.06003862
 10
36555.50869059
 20
-32234.97788897
 10
36543.83212073
 20
-32232.64424837
 10
36543.83212951
 20
-32260.97281801
 10
36555.5087194
 20
-32263.30645862
 10
36555.50871921
 20
-32253.189113
  0
LWPOLYLINE
  5
765
100
AcDbEntity
  8
Ech.1_5
 62
   190
  6
CONTINUOUS
370
    -3
100
AcDbPolyline
 90
        4
 70
     1
 43
0.0
 10
36712.72852286
 20
-32268.07818873
 10
36661.45982275
 20
-32286.43486602
 10
36661.45982327
 20
-32314.76343567
 10
36712.72852338
 20
-32296.40675838
  0
LWPOLYLINE
  5
766
100
AcDbEntity
  8
Ech.1_5
 62
   190
  6
CONTINUOUS
370
    -3
100
AcDbPolyline
 90
        4
 70
     1
 43
0.0
 10
36712.72852342
 20
-32298.43022557
 10
36712.72852338
 20
-32296.40675838
 10
36661.45982327
 20
-32314.76343567
 10
36661.4598233
 20
-32316.78690286
  0
LWPOLYLINE
  5
767
100
AcDbEntity
  8
Ech.1_5
 62
   190
  6
CONTINUOUS
370
    -3
100
AcDbPolyline
 90
        4
 70
     1
 43
0.0
 10
36661.334134
 20
-32314.80843851
 10
36619.34326209
 20
-32306.41627458
 10
36619.3432619
 20
-32308.43974185
 10
36661.33413404
 20
-32316.8319057
  0
LWPOLYLINE
  5
768
100
AcDbEntity
  8
Ech.1_5
 62
   190
  6
CONTINUOUS
370
    -3
100
AcDbPolyline
 90
        4
 70
     1
 43
0.0
 10
36619.34325481
 20
-32306.41627719
 10
36600.48985406
 20
-32313.16670762
 10
36600.4898541
 20
-32315.19017481
 10
36619.34325473
 20
-32308.43974442
  0
LWPOLYLINE
  5
769
100
AcDbEntity
  8
Ech.1_5
 62
   190
  6
CONTINUOUS
370
    -3
100
AcDbPolyline
 90
        4
 70
     1
 43
0.0
 10
36600.48985406
 20
-32313.16670762
 10
36555.50871959
 20
-32304.17691919
 10
36555.50871963
 20
-32306.20038638
 10
36600.4898541
 20
-32315.19017481
  0
LWPOLYLINE
  5
76A
100
AcDbEntity
  8
Ech.1_5
 62
   190
  6
CONTINUOUS
370
    -3
100
AcDbPolyline
 90
        4
 70
     1
 43
0.0
 10
36600.48985354
 20
-32284.83813797
 10
36598.80755409
 20
-32284.50191888
 10
36598.80755461
 20
-32312.83048853
 10
36600.48985406
 20
-32313.16670762
  0
LWPOLYLINE
  5
76B
100
AcDbEntity
  8
Ech.1_5
 62
   190
  6
CONTINUOUS
370
    -3
100
AcDbPolyline
 90
        4
 70
     1
 43
0.0
 10
36557.19101852
 20
-32276.18456863
 10
36555.50871907
 20
-32275.84834954
 10
36555.50871959
 20
-32304.17691919
 10
36557.19101904
 20
-32304.51313828
  0
LWPOLYLINE
  5
76C
100
AcDbEntity
  8
Ech.1_5
 62
   190
  6
CONTINUOUS
370
    -3
100
AcDbPolyline
 90
        4
 70
     1
 43
0.0
 10
36555.5087194
 20
-32293.65849546
 10
36543.83212125
 20
-32291.32485485
 10
36543.83212129
 20
-32293.34832205
 10
36555.50868105
 20
-32295.68196265
  0
LWPOLYLINE
  5
76D
100
AcDbEntity
  8
Ech.1_5
 62
   190
  6
CONTINUOUS
370
    -3
100
AcDbPolyline
 90
        4
 70
     1
 43
0.0
 10
36513.30211488
 20
-32285.22322356
 10
36513.30212152
 20
-32287.24669075
 10
36543.83212129
 20
-32293.34832205
 10
36543.83212125
 20
-32291.32485485
  0
LWPOLYLINE
  5
76E
100
AcDbEntity
  8
Ech.1_5
 62
   190
  6
CONTINUOUS
370
    -3
100
AcDbPolyline
 90
        4
 70
     1
 43
0.0
 10
36513.30211488
 20
-32285.22322356
 10
36494.44870685
 20
-32291.97365659
 10
36494.44870688
 20
-32293.99712379
 10
36513.30211492
 20
-32287.24669075
  0
LWPOLYLINE
  5
76F
100
AcDbEntity
  8
Ech.1_5
 62
   190
  6
CONTINUOUS
370
    -3
100
AcDbPolyline
 90
        4
 70
     1
 43
0.0
 10
36513.30212262
 20
-32256.89465391
 10
36494.44870633
 20
-32263.64508695
 10
36494.44870685
 20
-32291.97365659
 10
36513.30211488
 20
-32285.22322356
  0
LWPOLYLINE
  5
770
100
AcDbEntity
  8
Ech.1_5
 62
   190
  6
CONTINUOUS
370
    -3
100
AcDbPolyline
 90
        4
 70
     1
 43
0.0
 10
36494.44870633
 20
-32263.64508695
 10
36492.76640688
 20
-32263.30886786
 10
36492.7664074
 20
-32291.6374375
 10
36494.44870685
 20
-32291.97365659
  0
LWPOLYLINE
  5
771
100
AcDbEntity
  8
Ech.1_5
 62
   190
  6
CONTINUOUS
370
    -3
100
AcDbPolyline
 90
        4
 70
     1
 43
0.0
 10
36494.44870685
 20
-32291.97365659
 10
36449.46757238
 20
-32282.98386817
 10
36449.46757241
 20
-32285.00733536
 10
36494.44870688
 20
-32293.99712379
  0
LWPOLYLINE
  5
772
100
AcDbEntity
  8
Ech.1_5
 62
   190
  6
CONTINUOUS
370
    -3
100
AcDbPolyline
 90
        4
 70
     1
 43
0.0
 10
36449.46757218
 20
-32272.46544444
 10
36426.3301085
 20
-32267.8412712
 10
36426.33010854
 20
-32269.86473839
 10
36449.46753384
 20
-32274.48891163
  0
LWPOLYLINE
  5
773
100
AcDbEntity
  8
Ech.1_5
 62
   190
  6
CONTINUOUS
370
    -3
100
AcDbPolyline
 90
        4
 70
     1
 43
0.0
 10
36451.1498713
 20
-32254.99151761
 10
36449.46757186
 20
-32254.65529852
 10
36449.46757238
 20
-32282.98386817
 10
36451.14987182
 20
-32283.32008726
  0
LINE
  5
774
100
AcDbEntity
  8
Ech.1_5
 62
   190
  6
CONTINUOUS
370
    -3
100
AcDbLine
 10
36449.46757218
 20
-32272.46544444
 30
0.0
 11
36449.46757186
 21
-32254.65529852
 31
0.0
  0
LWPOLYLINE
  5
775
100
AcDbEntity
  8
Ech.1_5
 62
   190
  6
CONTINUOUS
370
    -3
100
AcDbPolyline
 90
       11
 70
     0
 43
0.0
 10
36448.32443744
 20
-32250.99056886
 10
36448.32440292
 20
-32260.9048483
 10
36448.32443763
 20
-32261.34828973
 10
36448.32443764
 20
-32262.04951439
 10
36448.32443764
 20
-32262.11964325
 10
36436.54814898
 20
-32259.76607114
 10
36436.54814878
 20
-32248.63699675
 10
36436.67383805
 20
-32248.66211662
 10
36442.40427081
 20
-32249.80738293
 10
36443.66116425
 20
-32250.05858171
 10
36448.32443744
 20
-32250.99056886
  0
LWPOLYLINE
  5
776
100
AcDbEntity
  8
Ech.1_5
 62
   190
  6
CONTINUOUS
370
    -3
100
AcDbPolyline
 90
        6
 70
     0
 43
0.0
 10
36449.46757186
 20
-32254.65529852
 10
36449.46757182
 20
-32252.63183133
 10
36449.46757166
 20
-32244.13687479
 10
36426.33010798
 20
-32239.51270155
 10
36426.3301085
 20
-32267.8412712
 10
36449.46757218
 20
-32272.46544444
  0
LINE
  5
777
100
AcDbEntity
  8
Ech.1_5
 62
   190
  6
CONTINUOUS
370
    -3
100
AcDbLine
 10
36451.1498713
 20
-32254.99151761
 30
0.0
 11
36451.14987182
 21
-32283.32008726
 31
0.0
  0
LWPOLYLINE
  5
778
100
AcDbEntity
  8
Ech.1_5
 62
   190
  6
CONTINUOUS
370
    -3
100
AcDbPolyline
 90
        9
 70
     0
 43
0.0
 10
36477.84628376
 20
-32278.53821247
 10
36466.06999509
 20
-32276.18464036
 10
36466.06999489
 20
-32265.05555633
 10
36467.32688832
 20
-32265.30675511
 10
36470.93908841
 20
-32266.02867808
 10
36471.06477768
 20
-32266.05379795
 10
36477.84628355
 20
-32267.40912844
 10
36477.84628374
 20
-32277.83698498
 10
36477.84628376
 20
-32278.53821247
  0
LWPOLYLINE
  5
779
100
AcDbEntity
  8
Ech.1_5
 62
   190
  6
CONTINUOUS
370
    -3
100
AcDbPolyline
 90
        4
 70
     0
 43
0.0
 10
36451.14987182
 20
-32283.32008726
 10
36492.7664074
 20
-32291.6374375
 10
36492.76640688
 20
-32263.30886786
 10
36451.1498713
 20
-32254.99151761
  0
LINE
  5
77A
100
AcDbEntity
  8
Ech.1_5
 62
   190
  6
CONTINUOUS
370
    -3
100
AcDbLine
 10
36543.83212951
 20
-32291.32485485
 30
0.0
 11
36543.83212899
 21
-32262.99628521
 31
0.0
  0
LWPOLYLINE
  5
77B
100
AcDbEntity
  8
Ech.1_5
 62
   190
  6
CONTINUOUS
370
    -3
100
AcDbPolyline
 90
       10
 70
     0
 43
0.0
 10
36516.1074312
 20
-32264.5374637
 10
36516.23312047
 20
-32264.56258727
 10
36521.96348906
 20
-32265.70784076
 10
36523.22038249
 20
-32265.95903753
 10
36527.88365568
 20
-32266.89102299
 10
36527.88365587
 20
-32277.24875683
 10
36527.88365589
 20
-32277.94998431
 10
36527.88365589
 20
-32278.02010702
 10
36516.1074314
 20
-32275.66654774
 10
36516.1074312
 20
-32264.5374637
  0
LWPOLYLINE
  5
77C
100
AcDbEntity
  8
Ech.1_5
 62
   190
  6
CONTINUOUS
370
    -3
100
AcDbPolyline
 90
        4
 70
     0
 43
0.0
 10
36543.83212899
 20
-32262.99628521
 10
36513.30212262
 20
-32256.89465391
 10
36513.30212314
 20
-32285.22322356
 10
36543.83212951
 20
-32291.32485485
  0
LINE
  5
77D
100
AcDbEntity
  8
Ech.1_5
 62
   190
  6
CONTINUOUS
370
    -3
100
AcDbLine
 10
36619.34325748
 20
-32278.0877064
 30
0.0
 11
36619.34325646
 21
-32306.4162766
 31
0.0
  0
LWPOLYLINE
  5
77E
100
AcDbEntity
  8
Ech.1_5
 62
   190
  6
CONTINUOUS
370
    -3
100
AcDbPolyline
 90
       10
 70
     0
 43
0.0
 10
36645.38566038
 20
-32301.50369068
 10
36633.60937172
 20
-32299.15011857
 10
36633.60937151
 20
-32288.02103453
 10
36633.73506078
 20
-32288.0461581
 10
36634.99195422
 20
-32288.29735487
 10
36645.38566018
 20
-32290.37460664
 10
36645.3856022
 20
-32297.09185574
 10
36645.38566037
 20
-32300.73233716
 10
36645.38566038
 20
-32301.43356797
 10
36645.38566038
 20
-32301.50369068
  0
LWPOLYLINE
  5
77F
100
AcDbEntity
  8
Ech.1_5
 62
   190
  6
CONTINUOUS
370
    -3
100
AcDbPolyline
 90
        4
 70
     0
 43
0.0
 10
36619.34325646
 20
-32306.4162766
 10
36661.334134
 20
-32314.80843851
 10
36661.33413348
 20
-32286.47986886
 10
36619.34325748
 20
-32278.0877064
  0
LINE
  5
780
100
AcDbEntity
  8
Ech.1_5
 62
   190
  6
CONTINUOUS
370
    -3
100
AcDbLine
 10
36557.19101852
 20
-32276.18456863
 30
0.0
 11
36557.19101904
 21
-32304.51313828
 31
0.0
  0
LWPOLYLINE
  5
781
100
AcDbEntity
  8
Ech.1_5
 62
   190
  6
CONTINUOUS
370
    -3
100
AcDbPolyline
 90
        9
 70
     0
 43
0.0
 10
36583.88743097
 20
-32299.73126349
 10
36572.11114231
 20
-32297.37769138
 10
36572.1111421
 20
-32286.24860735
 10
36573.36803554
 20
-32286.49980613
 10
36576.98023562
 20
-32287.22172911
 10
36577.10592489
 20
-32287.24684897
 10
36583.88743076
 20
-32288.60217946
 10
36583.88743096
 20
-32299.03003601
 10
36583.88743097
 20
-32299.73126349
  0
LWPOLYLINE
  5
782
100
AcDbEntity
  8
Ech.1_5
 62
   190
  6
CONTINUOUS
370
    -3
100
AcDbPolyline
 90
        4
 70
     0
 43
0.0
 10
36557.19101904
 20
-32304.51313828
 10
36598.80755461
 20
-32312.83048853
 10
36598.80755409
 20
-32284.50191888
 10
36557.19101852
 20
-32276.18456863
  0
LWPOLYLINE
  5
783
100
AcDbEntity
  8
Ech.1_5
 62
   190
  6
CONTINUOUS
370
    -3
100
AcDbPolyline
 90
        4
 70
     1
 43
0.0
 10
36619.34325748
 20
-32278.0877064
 10
36600.48985354
 20
-32284.83813797
 10
36600.48985406
 20
-32313.16670762
 10
36619.34325646
 20
-32306.4162766
  0
LWPOLYLINE
  5
784
100
AcDbEntity
  8
Ech.1_5
 62
   190
  6
CONTINUOUS
370
    -3
100
AcDbPolyline
 90
       10
 70
     1
 43
0.0
 10
36554.05016173
 20
-32283.24965479
 10
36554.05016153
 20
-32272.12058041
 10
36554.1758508
 20
-32272.14570027
 10
36555.43274423
 20
-32272.39689905
 10
36555.50868062
 20
-32272.41207546
 10
36555.50869059
 20
-32265.32992581
 10
36543.83212073
 20
-32262.99628521
 10
36543.83212951
 20
-32291.32485485
 10
36555.5087194
 20
-32293.65849546
 10
36555.50871921
 20
-32283.54114984
  0
LWPOLYLINE
  5
785
100
AcDbEntity
  8
Ech.1_5
 62
   190
  6
CONTINUOUS
370
    -3
100
AcDbPolyline
 90
        4
 70
     1
 43
0.0
 10
36661.45982275
 20
-32195.3787555
 10
36661.33413348
 20
-32195.42375834
 10
36661.334134
 20
-32223.75232799
 10
36661.45982327
 20
-32223.70732514
  0
LWPOLYLINE
  5
786
100
AcDbEntity
  8
Ech.1_5
 62
   190
  6
CONTINUOUS
370
    -3
100
AcDbPolyline
 90
        4
 70
     1
 43
0.0
 10
36661.45982327
 20
-32223.70732514
 10
36661.334134
 20
-32223.75232799
 10
36661.33413404
 20
-32225.77579518
 10
36661.4598233
 20
-32225.73079234
  0
LWPOLYLINE
  5
787
100
AcDbEntity
  8
Ech.1_5
 62
   190
  6
CONTINUOUS
370
    -3
100
AcDbPolyline
 90
        4
 70
     1
 43
0.0
 10
36661.45982275
 20
-32225.73079234
 10
36661.33413348
 20
-32225.77579518
 10
36661.334134
 20
-32254.10436483
 10
36661.45982327
 20
-32254.05936199
  0
LWPOLYLINE
  5
788
100
AcDbEntity
  8
Ech.1_5
 62
   190
  6
CONTINUOUS
370
    -3
100
AcDbPolyline
 90
        4
 70
     1
 43
0.0
 10
36661.45982327
 20
-32254.05936199
 10
36661.334134
 20
-32254.10436483
 10
36661.33413404
 20
-32256.12783202
 10
36661.4598233
 20
-32256.08282918
  0
LWPOLYLINE
  5
789
100
AcDbEntity
  8
Ech.1_5
 62
   190
  6
CONTINUOUS
370
    -3
100
AcDbPolyline
 90
        4
 70
     1
 43
0.0
 10
36661.45982275
 20
-32256.08282918
 10
36661.33413348
 20
-32256.12783202
 10
36661.334134
 20
-32284.45640167
 10
36661.45982327
 20
-32284.41139883
  0
LWPOLYLINE
  5
78A
100
AcDbEntity
  8
Ech.1_5
 62
   190
  6
CONTINUOUS
370
    -3
100
AcDbPolyline
 90
        4
 70
     1
 43
0.0
 10
36661.45982327
 20
-32284.41139883
 10
36661.334134
 20
-32284.45640167
 10
36661.33413404
 20
-32286.47986886
 10
36661.4598233
 20
-32286.43486602
  0
LWPOLYLINE
  5
78B
100
AcDbEntity
  8
Ech.1_5
 62
   190
  6
CONTINUOUS
370
    -3
100
AcDbPolyline
 90
        4
 70
     1
 43
0.0
 10
36661.45982275
 20
-32286.43486602
 10
36661.33413348
 20
-32286.47986886
 10
36661.334134
 20
-32314.80843851
 10
36661.45982327
 20
-32314.76343567
  0
LWPOLYLINE
  5
78C
100
AcDbEntity
  8
Ech.1_5
 62
   190
  6
CONTINUOUS
370
    -3
100
AcDbPolyline
 90
        4
 70
     1
 43
0.0
 10
36661.45982327
 20
-32314.76343567
 10
36661.334134
 20
-32314.80843851
 10
36661.33413404
 20
-32316.8319057
 10
36661.4598233
 20
-32316.78690286
  0
LWPOLYLINE
  5
78D
100
AcDbEntity
  8
Ech.1_5
 62
   190
  6
CONTINUOUS
370
    -3
100
AcDbPolyline
 90
        4
 70
     1
 43
0.0
 10
35884.08165756
 20
-32274.90127841
 10
35884.08165756
 20
-31523.8226411
 10
35844.08165756
 20
-31523.8226411
 10
35844.08165756
 20
-32274.90127841
  0
LWPOLYLINE
  5
78E
100
AcDbEntity
  8
Ech.1_5
 62
   190
  6
CONTINUOUS
370
    -3
100
AcDbPolyline
 90
      224
 70
     0
 43
0.0
 10
35850.74751575
 20
-31523.8226411
 42
1.14028181
 10
35852.47277068
 20
-31536.92722282
 10
35875.68569355
 20
-31530.71563393
 42
-1.30322619
 10
35875.68569355
 20
-31543.593081
 10
35852.47277068
 20
-31537.38149212
 42
1.30322619
 10
35852.47277068
 20
-31550.25893919
 10
35875.68569355
 20
-31544.04735031
 42
-1.30322619
 10
35875.68569355
 20
-31556.92479738
 10
35852.47277068
 20
-31550.71320849
 42
1.30322619
 10
35852.47277068
 20
-31563.59065556
 10
35875.68569355
 20
-31557.37906668
 42
-1.30322619
 10
35875.68569355
 20
-31570.25651375
 10
35852.47277068
 20
-31564.04492486
 42
1.30322619
 10
35852.47277068
 20
-31576.92237193
 10
35875.68569355
 20
-31570.71078305
 42
-1.30322619
 10
35875.68569355
 20
-31583.58823012
 10
35852.47277068
 20
-31577.37664124
 42
1.30322619
 10
35852.47277068
 20
-31590.25408831
 10
35875.68569355
 20
-31584.04249942
 42
-1.30322619
 10
35875.68569355
 20
-31596.91994649
 10
35852.47277068
 20
-31590.70835761
 42
1.30322619
 10
35852.47277068
 20
-31603.58580468
 10
35875.68569355
 20
-31597.37421579
 42
-1.30322619
 10
35875.68569355
 20
-31610.25166286
 10
35852.47277068
 20
-31604.04007398
 42
1.30322619
 10
35852.47277068
 20
-31616.91752105
 10
35875.68569355
 20
-31610.70593217
 42
-1.30322619
 10
35875.68569355
 20
-31623.58337924
 10
35852.47277068
 20
-31617.37179035
 42
1.30322619
 10
35852.47277068
 20
-31630.24923742
 10
35875.68569355
 20
-31624.03764854
 42
-1.30322619
 10
35875.68569355
 20
-31636.91509561
 10
35852.47277068
 20
-31630.70350672
 42
1.30322619
 10
35852.47277068
 20
-31643.58095379
 10
35875.68569355
 20
-31637.36936491
 42
-1.30322619
 10
35875.68569355
 20
-31650.24681198
 10
35852.47277068
 20
-31644.0352231
 42
1.30322619
 10
35852.47277068
 20
-31656.91267017
 10
35875.68569355
 20
-31650.70108128
 42
-1.30322619
 10
35875.68569355
 20
-31663.57852835
 10
35852.47277068
 20
-31657.36693947
 42
1.30322619
 10
35852.47277068
 20
-31670.24438654
 10
35875.68569355
 20
-31664.03279765
 42
-1.30322619
 10
35875.68569355
 20
-31676.91024472
 10
35852.47277068
 20
-31670.69865584
 42
1.30322619
 10
35852.47277068
 20
-31683.57610291
 10
35875.68569355
 20
-31677.36451402
 42
-1.30322619
 10
35875.68569355
 20
-31690.2419611
 10
35852.47277068
 20
-31684.03037221
 42
1.30322619
 10
35852.47277068
 20
-31696.90781928
 10
35875.68569355
 20
-31690.6962304
 42
-1.30322619
 10
35875.68569355
 20
-31703.57367747
 10
35852.47277068
 20
-31697.36208858
 42
1.30322619
 10
35852.47277068
 20
-31710.23953565
 10
35875.68569355
 20
-31704.02794677
 42
-1.30322619
 10
35875.68569355
 20
-31716.90539384
 10
35852.47277068
 20
-31710.69380495
 42
1.30322619
 10
35852.47277068
 20
-31723.57125203
 10
35875.68569355
 20
-31717.35966314
 42
-1.30322619
 10
35875.68569355
 20
-31730.23711021
 10
35852.47277068
 20
-31724.02552133
 42
1.30322619
 10
35852.47277068
 20
-31736.9029684
 10
35875.68569355
 20
-31730.69137951
 42
-1.30322619
 10
35875.68569355
 20
-31743.56882658
 10
35852.47277068
 20
-31737.3572377
 42
1.30322619
 10
35852.47277068
 20
-31750.23468477
 10
35875.68569355
 20
-31744.02309588
 42
-1.30322619
 10
35875.68569355
 20
-31756.90054296
 10
35852.47277068
 20
-31750.68895407
 42
1.30322619
 10
35852.47277068
 20
-31763.56640114
 10
35875.68569355
 20
-31757.35481226
 42
-1.30322619
 10
35875.68569355
 20
-31770.23225933
 10
35852.47277068
 20
-31764.02067044
 42
1.30322619
 10
35852.47277068
 20
-31776.89811751
 10
35875.68569355
 20
-31770.68652863
 42
-1.30322619
 10
35875.68569355
 20
-31783.5639757
 10
35852.47277068
 20
-31777.35238681
 42
1.30322619
 10
35852.47277068
 20
-31790.22983388
 10
35875.68569355
 20
-31784.018245
 42
-1.30322619
 10
35875.68569355
 20
-31796.89569207
 10
35852.47277068
 20
-31790.68410319
 42
1.30322619
 10
35852.47277068
 20
-31803.56155026
 10
35875.68569355
 20
-31797.34996137
 42
-1.30322619
 10
35875.68569355
 20
-31810.22740844
 10
35852.47277068
 20
-31804.01581956
 42
1.30322619
 10
35852.47277068
 20
-31816.89326663
 10
35875.68569355
 20
-31810.68167774
 42
-1.30322619
 10
35875.68569355
 20
-31823.55912481
 10
35852.47277068
 20
-31817.34753593
 42
1.30322619
 10
35852.47277068
 20
-31830.224983
 10
35875.68569355
 20
-31824.01339412
 42
-1.30322619
 10
35875.68569355
 20
-31836.89084119
 10
35852.47277068
 20
-31830.6792523
 42
1.30322619
 10
35852.47277068
 20
-31843.55669937
 10
35875.68569355
 20
-31837.34511049
 42
-1.30322619
 10
35875.68569355
 20
-31850.22255756
 10
35852.47277068
 20
-31844.01096867
 42
1.30322619
 10
35852.47277068
 20
-31856.88841574
 10
35875.68569355
 20
-31850.67682686
 42
-1.30322619
 10
35875.68569355
 20
-31863.55427393
 10
35852.47277068
 20
-31857.34268505
 42
1.30322619
 10
35852.47277068
 20
-31870.22013212
 10
35875.68569355
 20
-31864.00854323
 42
-1.30322619
 10
35875.68569355
 20
-31876.8859903
 10
35852.47277068
 20
-31870.67440142
 42
1.30322619
 10
35852.47277068
 20
-31883.55184849
 10
35875.68569355
 20
-31877.3402596
 42
-1.30322619
 10
35875.68569355
 20
-31890.21770667
 10
35852.47277068
 20
-31884.00611779
 42
1.30322619
 10
35852.47277068
 20
-31896.88356486
 10
35875.68569355
 20
-31890.67197598
 42
-1.30322619
 10
35875.68569355
 20
-31903.54942305
 10
35852.47277068
 20
-31897.33783416
 42
1.30322619
 10
35852.47277068
 20
-31910.21528123
 10
35875.68569355
 20
-31904.00369235
 42
-1.30322619
 10
35875.68569355
 20
-31916.88113942
 10
35852.47277068
 20
-31910.66955053
 42
1.30322619
 10
35852.47277068
 20
-31923.5469976
 10
35875.68569355
 20
-31917.33540872
 42
-1.30322619
 10
35875.68569355
 20
-31930.21285579
 10
35852.47277068
 20
-31924.00126691
 42
1.30322619
 10
35852.47277068
 20
-31936.87871398
 10
35875.68569355
 20
-31930.66712509
 42
-1.30322619
 10
35875.68569355
 20
-31943.54457216
 10
35852.47277068
 20
-31937.33298328
 42
1.30322619
 10
35852.47277068
 20
-31950.21043035
 10
35875.68569355
 20
-31943.99884146
 42
-1.30322619
 10
35875.68569355
 20
-31956.87628853
 10
35852.47277068
 20
-31950.66469965
 42
1.30322619
 10
35852.47277068
 20
-31963.54214672
 10
35875.68569355
 20
-31957.33055784
 42
-1.30322619
 10
35875.68569355
 20
-31970.20800491
 10
35852.47277068
 20
-31963.99641602
 42
1.30322619
 10
35852.47277068
 20
-31976.87386309
 10
35875.68569355
 20
-31970.66227421
 42
-1.30322619
 10
35875.68569355
 20
-31983.53972128
 10
35852.47277068
 20
-31977.32813239
 42
1.30322619
 10
35852.47277068
 20
-31990.20557946
 10
35875.68569355
 20
-31983.99399058
 42
-1.30322619
 10
35875.68569355
 20
-31996.87143765
 10
35852.47277068
 20
-31990.65984877
 42
1.30322619
 10
35852.47277068
 20
-32003.53729584
 10
35875.68569355
 20
-31997.32570695
 42
-1.30322619
 10
35875.68569355
 20
-32010.20315402
 10
35852.47277068
 20
-32003.99156514
 42
1.30322619
 10
35852.47277068
 20
-32016.86901221
 10
35875.68569355
 20
-32010.65742332
 42
-1.30322619
 10
35875.68569355
 20
-32023.53487039
 10
35852.47277068
 20
-32017.32328151
 42
1.30322619
 10
35852.47277068
 20
-32030.20072858
 10
35875.68569355
 20
-32023.98913969
 42
-1.30322619
 10
35875.68569355
 20
-32036.86658677
 10
35852.47277068
 20
-32030.65499788
 42
1.30322619
 10
35852.47277068
 20
-32043.53244495
 10
35875.68569355
 20
-32037.32085607
 42
-1.30322619
 10
35875.68569355
 20
-32050.19830314
 10
35852.47277068
 20
-32043.98671425
 42
1.30322619
 10
35852.47277068
 20
-32056.86416132
 10
35875.68569355
 20
-32050.65257244
 42
-1.30322619
 10
35875.68569355
 20
-32063.53001951
 10
35852.47277068
 20
-32057.31843062
 42
1.30322619
 10
35852.47277068
 20
-32070.1958777
 10
35875.68569355
 20
-32063.98428881
 42
-1.30322619
 10
35875.68569355
 20
-32076.86173588
 10
35852.47277068
 20
-32070.650147
 42
1.30322619
 10
35852.47277068
 20
-32083.52759407
 10
35875.68569355
 20
-32077.31600518
 42
-1.30322619
 10
35875.68569355
 20
-32090.19345225
 10
35852.47277068
 20
-32083.98186337
 42
1.30322619
 10
35852.47277068
 20
-32096.85931044
 10
35875.68569355
 20
-32090.64772155
 42
-1.30322619
 10
35875.68569355
 20
-32103.52516863
 10
35852.47277068
 20
-32097.31357974
 42
1.30322619
 10
35852.47277068
 20
-32110.19102681
 10
35875.68569355
 20
-32103.97943793
 42
-1.30322619
 10
35875.68569355
 20
-32116.856885
 10
35852.47277068
 20
-32110.64529611
 42
1.30322619
 10
35852.47277068
 20
-32123.52274318
 10
35875.68569355
 20
-32117.3111543
 42
-1.30322619
 10
35875.68569355
 20
-32130.18860137
 10
35852.47277068
 20
-32123.97701248
 42
1.30322619
 10
35852.47277068
 20
-32136.85445955
 10
35875.68569355
 20
-32130.64287067
 42
-1.30322619
 10
35875.68569355
 20
-32143.52031774
 10
35852.47277068
 20
-32137.30872886
 42
1.30322619
 10
35852.47277068
 20
-32150.18617593
 10
35875.68569355
 20
-32143.97458704
 42
-1.30322619
 10
35875.68569355
 20
-32156.85203411
 10
35852.47277068
 20
-32150.64044523
 42
1.30322619
 10
35852.47277068
 20
-32163.5178923
 10
35875.68569355
 20
-32157.30630341
 42
-1.30322619
 10
35875.68569355
 20
-32170.18375048
 10
35852.47277068
 20
-32163.9721616
 42
1.30322619
 10
35852.47277068
 20
-32176.84960867
 10
35875.68569355
 20
-32170.63801979
 42
-1.30322619
 10
35875.68569355
 20
-32183.51546686
 10
35852.47277068
 20
-32177.30387797
 42
1.30322619
 10
35852.47277068
 20
-32190.18132504
 10
35875.68569355
 20
-32183.96973616
 42
-1.30322619
 10
35875.68569355
 20
-32196.84718323
 10
35852.47277068
 20
-32190.63559434
 42
1.30322619
 10
35852.47277068
 20
-32203.51304141
 10
35875.68569355
 20
-32197.30145253
 42
-1.30322619
 10
35875.68569355
 20
-32210.1788996
 10
35852.47277068
 20
-32203.96731072
 42
1.30322619
 10
35852.47277068
 20
-32216.84475779
 10
35875.68569355
 20
-32210.6331689
 42
-1.30322619
 10
35875.68569355
 20
-32223.51061597
 10
35852.47277068
 20
-32217.29902709
 42
1.30322619
 10
35852.47277068
 20
-32230.17647416
 10
35875.68569355
 20
-32223.96488527
 42
-1.30322619
 10
35875.68569355
 20
-32236.84233234
 10
35852.47277068
 20
-32230.63074346
 42
1.30322619
 10
35852.47277068
 20
-32243.50819053
 10
35875.68569355
 20
-32237.29660165
 42
-1.30322619
 10
35875.68569355
 20
-32250.17404872
 10
35852.47277068
 20
-32243.96245983
 42
1.30322619
 10
35852.47277068
 20
-32256.8399069
 10
35875.68569355
 20
-32250.62831802
 42
-1.30322619
 10
35875.68569355
 20
-32263.50576509
 10
35852.47277068
 20
-32257.2941762
 42
1.30322619
 10
35852.47277068
 20
-32270.17162327
 10
35875.68569355
 20
-32263.96003439
 42
-0.7500704
 10
35882.32632992
 20
-32274.90127841
  0
LWPOLYLINE
  5
78F
100
AcDbEntity
  8
Ech.1_5
 62
   190
  6
CONTINUOUS
370
    -3
100
AcDbPolyline
 90
       10
 70
     1
 43
0.0
 10
36721.58327405
 20
-31723.8226411
 10
36721.58327405
 20
-31673.56579094
 10
36703.60492245
 20
-31657.07943685
 10
36739.56062237
 20
-31671.18937687
 10
36721.58327405
 20
-31654.70387372
 10
36721.58327405
 20
-31623.8226411
 10
36168.2422864
 20
-31623.8226411
 10
36168.2422864
 20
-31671.1902278
 10
36168.2422864
 20
-31723.8226411
 10
36242.02718505
 20
-31723.8226411
  0
LWPOLYLINE
  5
790
100
AcDbEntity
  8
Ech.1_5
 62
   190
  6
CONTINUOUS
370
    -3
100
AcDbPolyline
 90
       64
 70
     0
 43
0.0
 10
36168.2422864
 20
-31706.91164642
 42
1.14028181
 10
36201.48804494
 20
-31702.53474908
 10
36185.72951189
 20
-31643.64456508
 42
-1.30322619
 10
36218.39903961
 20
-31643.64456508
 10
36202.64050656
 20
-31702.53474908
 42
1.30322619
 10
36235.31003428
 20
-31702.53474908
 10
36219.55150123
 20
-31643.64456508
 42
-1.30322619
 10
36252.22102895
 20
-31643.64456508
 10
36236.4624959
 20
-31702.53474908
 42
1.30322619
 10
36269.13202363
 20
-31702.53474908
 10
36253.37349058
 20
-31643.64456508
 42
-1.30322619
 10
36286.0430183
 20
-31643.64456508
 10
36270.28448525
 20
-31702.53474908
 42
1.30322619
 10
36302.95401297
 20
-31702.53474908
 10
36287.19547992
 20
-31643.64456508
 42
-1.30322619
 10
36319.86500765
 20
-31643.64456508
 10
36304.10647459
 20
-31702.53474908
 42
1.30322619
 10
36336.77600232
 20
-31702.53474908
 10
36321.01746927
 20
-31643.64456508
 42
-1.30322619
 10
36353.68699699
 20
-31643.64456508
 10
36337.92846394
 20
-31702.53474908
 42
1.30322619
 10
36370.59799166
 20
-31702.53474908
 10
36354.83945861
 20
-31643.64456508
 42
-1.30322619
 10
36387.50898634
 20
-31643.64456508
 10
36371.75045328
 20
-31702.53474908
 42
1.30322619
 10
36404.41998101
 20
-31702.53474908
 10
36388.66144796
 20
-31643.64456508
 42
-1.30322619
 10
36421.33097568
 20
-31643.64456508
 10
36405.57244263
 20
-31702.53474908
 42
1.30322619
 10
36438.24197035
 20
-31702.53474908
 10
36422.4834373
 20
-31643.64456508
 42
-1.30322619
 10
36455.15296503
 20
-31643.64456508
 10
36439.39443198
 20
-31702.53474908
 42
1.30322619
 10
36472.0639597
 20
-31702.53474908
 10
36456.30542665
 20
-31643.64456508
 42
-1.30322619
 10
36488.97495437
 20
-31643.64456508
 10
36473.21642132
 20
-31702.53474908
 42
1.30322619
 10
36505.88594904
 20
-31702.53474908
 10
36490.12741599
 20
-31643.64456508
 42
-1.30322619
 10
36522.79694372
 20
-31643.64456508
 10
36507.03841067
 20
-31702.53474908
 42
1.30322619
 10
36539.70793839
 20
-31702.53474908
 10
36523.94940534
 20
-31643.64456508
 42
-1.30322619
 10
36556.61893306
 20
-31643.64456508
 10
36540.86040001
 20
-31702.53474908
 42
1.30322619
 10
36573.52992774
 20
-31702.53474908
 10
36557.77139468
 20
-31643.64456508
 42
-1.30322619
 10
36590.44092241
 20
-31643.64456508
 10
36574.68238936
 20
-31702.53474908
 42
1.30322619
 10
36607.35191708
 20
-31702.53474908
 10
36591.59338403
 20
-31643.64456508
 42
-1.30322619
 10
36624.26291175
 20
-31643.64456508
 10
36608.5043787
 20
-31702.53474908
 42
1.30322619
 10
36641.17390643
 20
-31702.53474908
 10
36625.41537338
 20
-31643.64456508
 42
-1.30322619
 10
36658.0849011
 20
-31643.64456508
 10
36642.32636805
 20
-31702.53474908
 42
1.30322619
 10
36674.99589577
 20
-31702.53474908
 10
36659.23736272
 20
-31643.64456508
 42
-1.30322619
 10
36691.90689044
 20
-31643.64456508
 10
36676.14835739
 20
-31702.53474908
 42
1.30322619
 10
36708.81788512
 20
-31702.53474908
 10
36693.05935207
 20
-31643.64456508
 42
-0.775115
 10
36721.58327405
 20
-31627.54563015
  0
LWPOLYLINE
  5
791
100
AcDbEntity
  8
Ech.1_5
 62
   190
  6
CONTINUOUS
370
    -3
100
AcDbPolyline
 90
        4
 70
     1
 43
0.0
 10
36038.08165757
 20
-32274.90127841
 10
36098.08165757
 20
-32274.90127841
 10
36098.08165757
 20
-31523.8226411
 10
36038.08165757
 20
-31523.8226411
  0
LWPOLYLINE
  5
792
100
AcDbEntity
  8
Ech.1_5
 62
   190
  6
CONTINUOUS
370
    -3
100
AcDbPolyline
 90
      146
 70
     0
 43
0.0
 10
36048.33129136
 20
-31523.8226411
 42
1.14028181
 10
36050.98409776
 20
-31543.97265927
 10
36086.67702011
 20
-31534.42152429
 42
-1.30322619
 10
36086.67702011
 20
-31554.22229306
 10
36050.98409776
 20
-31544.67115808
 42
1.30322619
 10
36050.98409776
 20
-31564.47192685
 10
36086.67702011
 20
-31554.92079187
 42
-1.30322619
 10
36086.67702011
 20
-31574.72156064
 10
36050.98409776
 20
-31565.17042566
 42
1.30322619
 10
36050.98409776
 20
-31584.97119443
 10
36086.67702011
 20
-31575.42005945
 42
-1.30322619
 10
36086.67702011
 20
-31595.22082822
 10
36050.98409776
 20
-31585.66969323
 42
1.30322619
 10
36050.98409776
 20
-31605.47046201
 10
36086.67702011
 20
-31595.91932702
 42
-1.30322619
 10
36086.67702011
 20
-31615.7200958
 10
36050.98409776
 20
-31606.16896081
 42
1.30322619
 10
36050.98409776
 20
-31625.96972958
 10
36086.67702011
 20
-31616.4185946
 42
-1.30322619
 10
36086.67702011
 20
-31636.21936337
 10
36050.98409776
 20
-31626.66822839
 42
1.30322619
 10
36050.98409776
 20
-31646.46899716
 10
36086.67702011
 20
-31636.91786218
 42
-1.30322619
 10
36086.67702011
 20
-31656.71863095
 10
36050.98409776
 20
-31647.16749597
 42
1.30322619
 10
36050.98409776
 20
-31666.96826474
 10
36086.67702011
 20
-31657.41712976
 42
-1.30322619
 10
36086.67702011
 20
-31677.21789853
 10
36050.98409776
 20
-31667.66676355
 42
1.30322619
 10
36050.98409776
 20
-31687.46753232
 10
36086.67702011
 20
-31677.91639734
 42
-1.30322619
 10
36086.67702011
 20
-31697.71716611
 10
36050.98409776
 20
-31688.16603112
 42
1.30322619
 10
36050.98409776
 20
-31707.9667999
 10
36086.67702011
 20
-31698.41566491
 42
-1.30322619
 10
36086.67702011
 20
-31718.21643369
 10
36050.98409776
 20
-31708.6652987
 42
1.30322619
 10
36050.98409776
 20
-31728.46606748
 10
36086.67702011
 20
-31718.91493249
 42
-1.30322619
 10
36086.67702011
 20
-31738.71570126
 10
36050.98409776
 20
-31729.16456628
 42
1.30322619
 10
36050.98409776
 20
-31748.96533505
 10
36086.67702011
 20
-31739.41420007
 42
-1.30322619
 10
36086.67702011
 20
-31759.21496884
 10
36050.98409776
 20
-31749.66383386
 42
1.30322619
 10
36050.98409776
 20
-31769.46460263
 10
36086.67702011
 20
-31759.91346765
 42
-1.30322619
 10
36086.67702011
 20
-31779.71423642
 10
36050.98409776
 20
-31770.16310144
 42
1.30322619
 10
36050.98409776
 20
-31789.96387021
 10
36086.67702011
 20
-31780.41273523
 42
-1.30322619
 10
36086.67702011
 20
-31800.213504
 10
36050.98409776
 20
-31790.66236902
 42
1.30322619
 10
36050.98409776
 20
-31810.46313779
 10
36086.67702011
 20
-31800.9120028
 42
-1.30322619
 10
36086.67702011
 20
-31820.71277158
 10
36050.98409776
 20
-31811.16163659
 42
1.30322619
 10
36050.98409776
 20
-31830.96240537
 10
36086.67702011
 20
-31821.41127038
 42
-1.30322619
 10
36086.67702011
 20
-31841.21203916
 10
36050.98409776
 20
-31831.66090417
 42
1.30322619
 10
36050.98409776
 20
-31851.46167294
 10
36086.67702011
 20
-31841.91053796
 42
-1.30322619
 10
36086.67702011
 20
-31861.71130673
 10
36050.98409776
 20
-31852.16017175
 42
1.30322619
 10
36050.98409776
 20
-31871.96094052
 10
36086.67702011
 20
-31862.40980554
 42
-1.30322619
 10
36086.67702011
 20
-31882.21057431
 10
36050.98409776
 20
-31872.65943933
 42
1.30322619
 10
36050.98409776
 20
-31892.4602081
 10
36086.67702011
 20
-31882.90907312
 42
-1.30322619
 10
36086.67702011
 20
-31902.70984189
 10
36050.98409776
 20
-31893.15870691
 42
1.30322619
 10
36050.98409776
 20
-31912.95947568
 10
36086.67702011
 20
-31903.4083407
 42
-1.30322619
 10
36086.67702011
 20
-31923.20910947
 10
36050.98409776
 20
-31913.65797448
 42
1.30322619
 10
36050.98409776
 20
-31933.45874326
 10
36086.67702011
 20
-31923.90760827
 42
-1.30322619
 10
36086.67702011
 20
-31943.70837705
 10
36050.98409776
 20
-31934.15724206
 42
1.30322619
 10
36050.98409776
 20
-31953.95801083
 10
36086.67702011
 20
-31944.40687585
 42
-1.30322619
 10
36086.67702011
 20
-31964.20764462
 10
36050.98409776
 20
-31954.65650964
 42
1.30322619
 10
36050.98409776
 20
-31974.45727841
 10
36086.67702011
 20
-31964.90614343
 42
-1.30322619
 10
36086.67702011
 20
-31984.7069122
 10
36050.98409776
 20
-31975.15577722
 42
1.30322619
 10
36050.98409776
 20
-31994.95654599
 10
36086.67702011
 20
-31985.40541101
 42
-1.30322619
 10
36086.67702011
 20
-32005.20617978
 10
36050.98409776
 20
-31995.6550448
 42
1.30322619
 10
36050.98409776
 20
-32015.45581357
 10
36086.67702011
 20
-32005.90467859
 42
-1.30322619
 10
36086.67702011
 20
-32025.70544736
 10
36050.98409776
 20
-32016.15431237
 42
1.30322619
 10
36050.98409776
 20
-32035.95508115
 10
36086.67702011
 20
-32026.40394616
 42
-1.30322619
 10
36086.67702011
 20
-32046.20471494
 10
36050.98409776
 20
-32036.65357995
 42
1.30322619
 10
36050.98409776
 20
-32056.45434873
 10
36086.67702011
 20
-32046.90321374
 42
-1.30322619
 10
36086.67702011
 20
-32066.70398251
 10
36050.98409776
 20
-32057.15284753
 42
1.30322619
 10
36050.98409776
 20
-32076.9536163
 10
36086.67702011
 20
-32067.40248132
 42
-1.30322619
 10
36086.67702011
 20
-32087.20325009
 10
36050.98409776
 20
-32077.65211511
 42
1.30322619
 10
36050.98409776
 20
-32097.45288388
 10
36086.67702011
 20
-32087.9017489
 42
-1.30322619
 10
36086.67702011
 20
-32107.70251767
 10
36050.98409776
 20
-32098.15138269
 42
1.30322619
 10
36050.98409776
 20
-32117.95215146
 10
36086.67702011
 20
-32108.40101648
 42
-1.30322619
 10
36086.67702011
 20
-32128.20178525
 10
36050.98409776
 20
-32118.65065027
 42
1.30322619
 10
36050.98409776
 20
-32138.45141904
 10
36086.67702011
 20
-32128.90028405
 42
-1.30322619
 10
36086.67702011
 20
-32148.70105283
 10
36050.98409776
 20
-32139.14991784
 42
1.30322619
 10
36050.98409776
 20
-32158.95068662
 10
36086.67702011
 20
-32149.39955163
 42
-1.30322619
 10
36086.67702011
 20
-32169.20032041
 10
36050.98409776
 20
-32159.64918542
 42
1.30322619
 10
36050.98409776
 20
-32179.44995419
 10
36086.67702011
 20
-32169.89881921
 42
-1.30322619
 10
36086.67702011
 20
-32189.69958798
 10
36050.98409776
 20
-32180.148453
 42
1.30322619
 10
36050.98409776
 20
-32199.94922177
 10
36086.67702011
 20
-32190.39808679
 42
-1.30322619
 10
36086.67702011
 20
-32210.19885556
 10
36050.98409776
 20
-32200.64772058
 42
1.30322619
 10
36050.98409776
 20
-32220.44848935
 10
36086.67702011
 20
-32210.89735437
 42
-1.30322619
 10
36086.67702011
 20
-32230.69812314
 10
36050.98409776
 20
-32221.14698816
 42
1.30322619
 10
36050.98409776
 20
-32240.94775693
 10
36086.67702011
 20
-32231.39662195
 42
-1.30322619
 10
36086.67702011
 20
-32251.19739072
 10
36050.98409776
 20
-32241.64625573
 42
1.30322619
 10
36050.98409776
 20
-32261.44702451
 10
36086.67702011
 20
-32251.89588952
 42
-1.30322619
 10
36086.67702011
 20
-32271.6966583
 10
36050.98409776
 20
-32262.14552331
 42
0.58421041
 10
36038.48741758
 20
-32274.90127841
  0
LWPOLYLINE
  5
793
100
AcDbEntity
  8
Ech.1_5
 62
   190
  6
CONTINUOUS
370
    -3
100
AcDbPolyline
 90
       62
 70
     0
 43
0.0
 10
35908.24759165
 20
-31523.82268788
 42
1.14028181
 10
35914.50211775
 20
-31571.33113015
 10
35998.65666156
 20
-31548.81223498
 42
-1.30322619
 10
35998.65657119
 20
-31595.49722714
 10
35914.50211456
 20
-31572.97800617
 42
1.30322619
 10
35914.50202419
 20
-31619.66299832
 10
35998.656568
 20
-31597.14410315
 42
-1.30322619
 10
35998.65647763
 20
-31643.82909531
 10
35914.50202101
 20
-31621.30987434
 42
1.30322619
 10
35914.50193064
 20
-31667.9948665
 10
35998.65647444
 20
-31645.47597133
 42
-1.30322619
 10
35998.65638407
 20
-31692.16096348
 10
35914.50192745
 20
-31669.64174251
 42
1.30322619
 10
35914.50183708
 20
-31716.32673467
 10
35998.65638088
 20
-31693.8078395
 42
-1.30322619
 10
35998.65629051
 20
-31740.49283166
 10
35914.50183389
 20
-31717.97361069
 42
1.30322619
 10
35914.50174352
 20
-31764.65860284
 10
35998.65628732
 20
-31742.13970768
 42
-1.30322619
 10
35998.65619695
 20
-31788.82469983
 10
35914.50174033
 20
-31766.30547886
 42
1.30322619
 10
35914.50164996
 20
-31812.99047102
 10
35998.65619377
 20
-31790.47157585
 42
-1.30322619
 10
35998.6561034
 20
-31837.15656801
 10
35914.50164678
 20
-31814.63734704
 42
1.30322619
 10
35914.50155641
 20
-31861.32233919
 10
35998.65610021
 20
-31838.80344402
 42
-1.30322619
 10
35998.65600984
 20
-31885.48843618
 10
35914.50155322
 20
-31862.96921521
 42
1.30322619
 10
35914.50146285
 20
-31909.65420737
 10
35998.65600665
 20
-31887.1353122
 42
-1.30322619
 10
35998.65591628
 20
-31933.82030435
 10
35914.50145966
 20
-31911.30108338
 42
1.30322619
 10
35914.50136929
 20
-31957.98607554
 10
35998.65591309
 20
-31935.46718037
 42
-1.30322619
 10
35998.65582272
 20
-31982.15217253
 10
35914.5013661
 20
-31959.63295156
 42
1.30322619
 10
35914.50127573
 20
-32006.31794371
 10
35998.65581954
 20
-31983.79904855
 42
-1.30322619
 10
35998.65572917
 20
-32030.4840407
 10
35914.50127254
 20
-32007.96481973
 42
1.30322619
 10
35914.50118217
 20
-32054.64981189
 10
35998.65572598
 20
-32032.13091672
 42
-1.30322619
 10
35998.65563561
 20
-32078.81590887
 10
35914.50117899
 20
-32056.29668791
 42
1.30322619
 10
35914.50108862
 20
-32102.98168006
 10
35998.65563242
 20
-32080.46278489
 42
-1.30322619
 10
35998.65554205
 20
-32127.14777705
 10
35914.50108543
 20
-32104.62855608
 42
1.30322619
 10
35914.50099506
 20
-32151.31354823
 10
35998.65553886
 20
-32128.79465307
 42
-1.30322619
 10
35998.65544849
 20
-32175.47964522
 10
35914.50099187
 20
-32152.96042425
 42
1.30322619
 10
35914.5009015
 20
-32199.64541641
 10
35998.6554453
 20
-32177.12652124
 42
-1.30322619
 10
35998.65535493
 20
-32223.8115134
 10
35914.50089831
 20
-32201.29229243
 42
1.30322619
 10
35914.50080794
 20
-32247.97728458
 10
35998.65535175
 20
-32225.45838942
 42
-1.30322619
 10
35998.65526138
 20
-32272.14338157
 10
35914.50080475
 20
-32249.6241606
 42
0.5183497
 10
35884.15803742
 20
-32274.90458472
  0
LWPOLYLINE
  5
794
100
AcDbEntity
  8
Ech.1_5
 62
   190
  6
CONTINUOUS
370
    -3
100
AcDbPolyline
 90
        5
 70
     0
 43
0.0
 10
35775.83913382
 20
-32584.49612342
 10
36760.83913382
 20
-32584.49612342
 10
36760.83913382
 20
-31229.49612342
 10
35775.83913382
 20
-31229.49612342
 10
35775.83913382
 20
-32584.49612342
  0
LWPOLYLINE
  5
795
100
AcDbEntity
  8
Ech.1_5
 62
   190
  6
CONTINUOUS
370
    -3
100
AcDbPolyline
 90
        5
 70
     1
 43
0.0
 10
36309.47089307
 20
-31623.8226411
 10
36721.58327405
 20
-31623.8226411
 10
36721.58327405
 20
-31523.8226411
 10
36098.08165757
 20
-31523.8226411
 10
36098.08165757
 20
-31623.8226411
  0
LWPOLYLINE
  5
796
102
{ACAD_REACTORS
330
797
102
}
100
AcDbEntity
  8
Ech.1_5
 62
     9
  6
CONTINUOUS
370
    -3
100
AcDbPolyline
 90
        4
 70
     1
 43
0.0
 10
35775.83913382
 20
-31523.8226411
 10
36721.58327405
 20
-31523.8226411
 10
36721.58327405
 20
-31323.8226411
 10
35775.83913382
 20
-31323.8226411
  0
HATCH
  5
797
100
AcDbEntity
  8
Ech.1_5
 62
     9
  6
CONTINUOUS
100
AcDbHatch
 10
0.0
 20
0.0
 30
0.0
210
0.0
220
0.0
230
1.0
  2
AR-CONC
 70
     0
 71
     1
 91
        1
 92
        7
 72
     0
 73
     1
 93
        4
 10
35775.83913382
 20
-31523.8226411
 10
36721.58327405
 20
-31523.8226411
 10
36721.58327405
 20
-31323.8226411
 10
35775.83913382
 20
-31323.8226411
 97
        1
330
796
 75
     0
 76
     2
 52
0.0
 41
0.11811097
 77
     0
 78
    13
 53
50.0
 43
0.0
 44
0.0
 45
-18.84283637
 46
1.64853443
 79
     2
 49
1.97029307
 49
-21.67322338
 53
355.0
 43
0.0
 44
0.0
 45
-3.64507756
 46
19.76051824
 79
     2
 49
1.57623377
 49
-17.3385787
 53
100.45140076
 43
1.57023568
 44
-0.13737749
 45
-15.19777228
 46
-18.11197244
 79
     2
 49
1.67449124
 49
-18.41940522
 53
46.18420029
 43
0.0
 44
5.25411576
 45
-28.03703353
 46
4.34827878
 79
     2
 49
2.95543872
 49
-32.50983238
 53
96.63559723
 43
2.33641885
 44
4.89175692
 45
-24.55412615
 46
-25.59063404
 79
     2
 49
2.51173697
 49
-27.62910426
 53
351.1842041
 43
0.0
 44
5.25411576
 45
24.55410288
 46
25.59065715
 79
     2
 49
2.36435249
 49
-26.00786805
 53
21.0
 43
2.62705699
 44
3.94058615
 45
-15.68109068
 46
10.57702905
 79
     2
 49
1.97029307
 49
-21.67322338
 53
326.0
 43
2.62705699
 44
3.94058615
 45
6.39203268
 46
19.05010734
 79
     2
 49
1.57623377
 49
-17.3385787
 53
71.45140076
 43
3.93381357
 44
3.05916555
 45
-22.07312962
 46
-8.47306182
 79
     2
 49
1.67449124
 49
-18.41940522
 53
37.5
 43
0.0
 44
0.0
 45
0.31944534
 46
8.74531245
 79
     6
 49
0.01875
 49
-17.12841332
 49
0.01875
 49
-17.60128498
 49
0.01875
 49
-17.40425348
 53
7.5
 43
0.0
 44
0.0
 45
6.91098818
 46
10.3614222
 79
     6
 49
0.01875
 49
-10.03535807
 49
0.01875
 49
-16.7343539
 49
0.01875
 49
-6.6333206
 53
-32.5
 43
-5.85833833
 44
0.0
 45
14.02382061
 46
-0.59253003
 79
     6
 49
0.01875
 49
-6.56764314
 49
0.01875
 49
-20.49104869
 49
0.01875
 49
-27.19004452
 53
-42.5
 43
-8.48539531
 44
0.0
 45
15.32063571
 46
2.62981542
 79
     6
 49
0.01875
 49
-8.53793621
 49
0.01875
 49
-13.60815793
 49
0.01875
 49
-19.30887222
 47
0.775229
 98
        1
 10
0.0
 20
0.0
  0
LWPOLYLINE
  5
798
100
AcDbEntity
  8
Ech.1_5
 62
     9
  6
CONTINUOUS
370
    -3
100
AcDbPolyline
 90
        5
 70
     0
 43
0.0
 10
36123.2422864
 20
-31743.8226411
 10
36123.2422864
 20
-31763.8226411
 10
36721.58327405
 20
-31763.8226411
 10
36721.58327405
 20
-31743.8226411
 10
36123.2422864
 20
-31743.8226411
  0
LWPOLYLINE
  5
799
100
AcDbEntity
  8
Ech.1_5
 62
   190
  6
CONTINUOUS
370
    -3
100
AcDbPolyline
 90
        6
 70
     0
 43
0.0
 10
36721.58327405
 20
-31261.9637559
 10
36721.58327405
 20
-31654.70387372
 10
36739.56062237
 20
-31671.18937687
 10
36703.60492245
 20
-31657.07943685
 10
36721.58327405
 20
-31673.56579094
 10
36721.58327405
 20
-31789.17983045
  0
LWPOLYLINE
  5
79A
100
AcDbEntity
  8
Ech.1_5
 62
     7
  6
CONTINUOUS
370
    -3
100
AcDbPolyline
 90
        4
 70
     1
 43
0.0
 10
36123.2422864
 20
-31623.8226411
 10
36123.2422864
 20
-31743.8226411
 10
36168.2422864
 20
-31743.8226411
 10
36168.2422864
 20
-31623.8226411
  0
LWPOLYLINE
  5
79B
100
AcDbEntity
  8
Ech.1_5
 62
   190
  6
CONTINUOUS
370
    -3
100
AcDbPolyline
 90
        4
 70
     0
 43
0.0
 10
36168.2422864
 20
-31743.8226411
 10
36123.2422864
 20
-31623.8226411
 10
36168.2422864
 20
-31623.8226411
 10
36123.2422864
 20
-31743.8226411
  0
LWPOLYLINE
  5
79C
100
AcDbEntity
  8
Ech.1_5
 62
     5
  6
CONTINUOUS
370
    -3
100
AcDbPolyline
 90
        5
 70
     0
 43
0.0
 10
36123.2422864
 20
-31623.8226411
 10
36123.2422864
 20
-31743.8226411
 10
36168.2422864
 20
-31743.8226411
 10
36168.2422864
 20
-31623.8226411
 10
36123.2422864
 20
-31623.8226411
  0
LWPOLYLINE
  5
79D
102
{ACAD_REACTORS
330
79E
102
}
100
AcDbEntity
  8
Ech.1_5
 62
     7
  6
CONTINUOUS
370
    -3
100
AcDbPolyline
 90
        6
 70
     1
 43
0.0
 10
36168.2422864
 20
-31523.8226411
 10
36225.2815462
 20
-31523.8226411
 10
36225.2815462
 20
-31527.8226411
 10
36172.24228659
 20
-31527.8226411
 10
36172.24228659
 20
-31676.92392004
 10
36168.2422864
 20
-31676.92392004
  0
HATCH
  5
79E
100
AcDbEntity
  8
Ech.1_5
 62
     7
  6
CONTINUOUS
100
AcDbHatch
 10
0.0
 20
0.0
 30
0.0
210
0.0
220
0.0
230
1.0
  2
SOLID
 70
     1
 71
     1
 91
        1
 92
        7
 72
     0
 73
     1
 93
        6
 10
36168.2422864
 20
-31523.8226411
 10
36225.2815462
 20
-31523.8226411
 10
36225.2815462
 20
-31527.8226411
 10
36172.24228659
 20
-31527.8226411
 10
36172.24228659
 20
-31676.92392004
 10
36168.2422864
 20
-31676.92392004
 97
        1
330
79D
 75
     0
 76
     2
 47
0.775229
 98
        1
 10
0.0
 20
0.0
  0
LWPOLYLINE
  5
79F
100
AcDbEntity
  8
Ech.1_5
 62
     7
  6
CONTINUOUS
370
    -3
100
AcDbPolyline
 90
        4
 70
     1
 43
0.0
 10
36619.58017052
 20
-31623.8226411
 10
36619.58017052
 20
-31743.8226411
 10
36664.58017052
 20
-31743.8226411
 10
36664.58017052
 20
-31623.8226411
  0
LWPOLYLINE
  5
7A0
100
AcDbEntity
  8
Ech.1_5
 62
   190
  6
CONTINUOUS
370
    -3
100
AcDbPolyline
 90
        4
 70
     0
 43
0.0
 10
36664.58017052
 20
-31743.8226411
 10
36619.58017052
 20
-31623.8226411
 10
36664.58017052
 20
-31623.8226411
 10
36619.58017052
 20
-31743.8226411
  0
LWPOLYLINE
  5
7A1
100
AcDbEntity
  8
Ech.1_5
 62
     5
  6
CONTINUOUS
370
    -3
100
AcDbPolyline
 90
        5
 70
     0
 43
0.0
 10
36619.58017052
 20
-31623.8226411
 10
36619.58017052
 20
-31743.8226411
 10
36664.58017052
 20
-31743.8226411
 10
36664.58017052
 20
-31623.8226411
 10
36619.58017052
 20
-31623.8226411
  0
LWPOLYLINE
  5
7A2
102
{ACAD_REACTORS
330
7A3
102
}
100
AcDbEntity
  8
Ech.1_5
 62
     7
  6
CONTINUOUS
370
    -3
100
AcDbPolyline
 90
        6
 70
     1
 43
0.0
 10
36619.58017052
 20
-31523.8226411
 10
36562.54091072
 20
-31523.8226411
 10
36562.54091072
 20
-31527.8226411
 10
36615.58017033
 20
-31527.8226411
 10
36615.58017033
 20
-31676.92392004
 10
36619.58017052
 20
-31676.92392004
  0
HATCH
  5
7A3
100
AcDbEntity
  8
Ech.1_5
 62
     7
  6
CONTINUOUS
100
AcDbHatch
 10
0.0
 20
0.0
 30
0.0
210
0.0
220
0.0
230
1.0
  2
SOLID
 70
     1
 71
     1
 91
        1
 92
        7
 72
     0
 73
     1
 93
        6
 10
36619.58017052
 20
-31523.8226411
 10
36562.54091072
 20
-31523.8226411
 10
36562.54091072
 20
-31527.8226411
 10
36615.58017033
 20
-31527.8226411
 10
36615.58017033
 20
-31676.92392004
 10
36619.58017052
 20
-31676.92392004
 97
        1
330
7A2
 75
     0
 76
     2
 47
0.775229
 98
        1
 10
0.0
 20
0.0
  0
LWPOLYLINE
  5
7A4
100
AcDbEntity
  8
Ech.1_5
 62
     9
  6
CONTINUOUS
370
    40
100
AcDbPolyline
 90
        5
 70
     0
 43
0.0
 10
36123.08165757
 20
-32169.92788621
 10
36123.08165757
 20
-32119.92788621
 10
36098.08165757
 20
-32119.92788621
 10
36098.08165757
 20
-32169.92788621
 10
36123.08165757
 20
-32169.92788621
  0
LWPOLYLINE
  5
7A5
100
AcDbEntity
  8
Ech.1_5
 62
     9
  6
CONTINUOUS
370
    -3
100
AcDbPolyline
 90
        4
 70
     0
 43
0.0
 10
36098.13874451
 20
-32169.92788621
 10
36123.13874451
 20
-32119.92788621
 10
36098.13874451
 20
-32119.92788621
 10
36123.13874451
 20
-32169.9277729
  0
LWPOLYLINE
  5
7A6
100
AcDbEntity
  8
Ech.1_5
 62
     9
  6
CONTINUOUS
370
    -3
100
AcDbPolyline
 90
        4
 70
     0
 43
0.0
 10
36123.09744374
 20
-31771.21411822
 10
36123.13627259
 20
-32274.90064098
 10
36143.0794603
 20
-32274.90044826
 10
36143.0794603
 20
-31771.21411822
  0
LWPOLYLINE
  5
7A7
100
AcDbEntity
  8
Ech.1_5
 62
   190
  6
CONTINUOUS
370
    -3
100
AcDbPolyline
 90
        4
 70
     1
 43
0.0
 10
36038.08165757
 20
-31523.8226411
 10
36029.08165757
 20
-31523.8226411
 10
36029.08165757
 20
-32274.90127841
 10
36038.08165757
 20
-32274.90127841
  0
LINE
  5
7A8
100
AcDbEntity
  8
Ech.1_5
 62
   190
  6
CONTINUOUS
370
    -3
100
AcDbLine
 10
35909.0794603
 20
-32274.90156004
 30
0.0
 11
35909.0794603
 21
-32274.90458457
 31
0.0
  0
LWPOLYLINE
  5
7A9
100
AcDbEntity
  8
Ech.1_5
 62
     9
  6
CONTINUOUS
370
    40
100
AcDbPolyline
 90
        5
 70
     0
 43
0.0
 10
36123.08165757
 20
-31841.21411822
 10
36123.08165757
 20
-31771.21411822
 10
36098.08165757
 20
-31771.21411822
 10
36098.08165757
 20
-31841.21411822
 10
36123.08165757
 20
-31841.21411822
  0
LWPOLYLINE
  5
7AA
100
AcDbEntity
  8
Ech.1_5
 62
     9
  6
CONTINUOUS
370
    -3
100
AcDbPolyline
 90
        4
 70
     0
 43
0.0
 10
36098.13874451
 20
-31841.21411822
 10
36123.13874451
 20
-31771.21411822
 10
36098.13874451
 20
-31771.21411822
 10
36123.13874451
 20
-31841.21400491
  0
LINE
  5
7AB
100
AcDbEntity
  8
Ech.1_5
 62
     9
  6
CONTINUOUS
370
    -3
100
AcDbLine
 10
36143.0794603
 20
-31771.21411822
 30
0.0
 11
36123.13874451
 21
-31771.21411822
 31
0.0
  0
LWPOLYLINE
  5
7AC
100
AcDbEntity
  8
Ech.1_5
 62
   190
  6
CONTINUOUS
370
    -3
100
AcDbPolyline
 90
        6
 70
     0
 43
0.0
 10
36184.03183639
 20
-32274.90252979
 10
35964.96188292
 20
-32274.90252979
 10
35948.47637977
 20
-32256.92518146
 10
35962.58631978
 20
-32292.88088138
 10
35946.0999657
 20
-32274.90252979
 10
35795.08937355
 20
-32274.90252979
  0
LWPOLYLINE
  5
7AD
100
AcDbEntity
  8
Ech.1_5
 62
     7
  6
CONTINUOUS
370
    -3
100
AcDbPolyline
 90
        4
 70
     1
 43
0.0
 10
36029.08165757
 20
-31568.82332321
 10
35884.07680668
 20
-31568.8226411
 10
35884.07680668
 20
-31523.8226411
 10
36029.08165757
 20
-31523.82332321
  0
LWPOLYLINE
  5
7AE
100
AcDbEntity
  8
Ech.1_5
 62
   190
  6
CONTINUOUS
370
    -3
100
AcDbPolyline
 90
        4
 70
     0
 43
0.0
 10
36029.08065812
 20
-31523.82619907
 10
35884.07487644
 20
-31568.82619907
 10
35884.07487644
 20
-31523.82619907
 10
36029.08065812
 20
-31568.82619907
  0
LWPOLYLINE
  5
7AF
100
AcDbEntity
  8
Ech.1_5
 62
     5
  6
CONTINUOUS
370
    -3
100
AcDbPolyline
 90
        5
 70
     0
 43
0.0
 10
36029.07726208
 20
-31568.8226411
 10
35884.07680668
 20
-31568.8226411
 10
35884.07680668
 20
-31523.8226411
 10
36029.07726208
 20
-31523.8226411
 10
36029.07726208
 20
-31568.8226411
  0
LWPOLYLINE
  5
7B0
100
AcDbEntity
  8
Ech.1_5
 62
   190
  6
CONTINUOUS
370
    -3
100
AcDbPolyline
 90
       74
 70
     0
 43
0.0
 10
36098.08165757
 20
-31607.15597443
 42
1.14028181
 10
36130.8470854
 20
-31602.84231397
 10
36115.31622973
 20
-31544.80296823
 42
-1.30322619
 10
36147.51375207
 20
-31544.80296823
 10
36131.9828964
 20
-31602.84231397
 42
1.30322619
 10
36164.18041874
 20
-31602.84231397
 10
36148.64956307
 20
-31544.80296823
 42
-1.30322619
 10
36180.8470854
 20
-31544.80296823
 10
36165.31622973
 20
-31602.84231397
 42
1.30322619
 10
36197.51375207
 20
-31602.84231397
 10
36181.9828964
 20
-31544.80296823
 42
-1.30322619
 10
36214.18041874
 20
-31544.80296823
 10
36198.64956307
 20
-31602.84231397
 42
1.30322619
 10
36230.8470854
 20
-31602.84231397
 10
36215.31622973
 20
-31544.80296823
 42
-1.30322619
 10
36247.51375207
 20
-31544.80296823
 10
36231.9828964
 20
-31602.84231397
 42
1.30322619
 10
36264.18041874
 20
-31602.84231397
 10
36248.64956307
 20
-31544.80296823
 42
-1.30322619
 10
36280.8470854
 20
-31544.80296823
 10
36265.31622973
 20
-31602.84231397
 42
1.30322619
 10
36297.51375207
 20
-31602.84231397
 10
36281.9828964
 20
-31544.80296823
 42
-1.30322619
 10
36314.18041874
 20
-31544.80296823
 10
36298.64956307
 20
-31602.84231397
 42
1.30322619
 10
36330.8470854
 20
-31602.84231397
 10
36315.31622973
 20
-31544.80296823
 42
-1.30322619
 10
36347.51375207
 20
-31544.80296823
 10
36331.9828964
 20
-31602.84231397
 42
1.30322619
 10
36364.18041874
 20
-31602.84231397
 10
36348.64956307
 20
-31544.80296823
 42
-1.30322619
 10
36380.8470854
 20
-31544.80296823
 10
36365.31622973
 20
-31602.84231397
 42
1.30322619
 10
36397.51375207
 20
-31602.84231397
 10
36381.9828964
 20
-31544.80296823
 42
-1.30322619
 10
36414.18041874
 20
-31544.80296823
 10
36398.64956307
 20
-31602.84231397
 42
1.30322619
 10
36430.8470854
 20
-31602.84231397
 10
36415.31622973
 20
-31544.80296823
 42
-1.30322619
 10
36447.51375207
 20
-31544.80296823
 10
36431.9828964
 20
-31602.84231397
 42
1.30322619
 10
36464.18041874
 20
-31602.84231397
 10
36448.64956307
 20
-31544.80296823
 42
-1.30322619
 10
36480.8470854
 20
-31544.80296823
 10
36465.31622973
 20
-31602.84231397
 42
1.30322619
 10
36497.51375207
 20
-31602.84231397
 10
36481.9828964
 20
-31544.80296823
 42
-1.30322619
 10
36514.18041874
 20
-31544.80296823
 10
36498.64956307
 20
-31602.84231397
 42
1.30322619
 10
36530.8470854
 20
-31602.84231397
 10
36515.31622973
 20
-31544.80296823
 42
-1.30322619
 10
36547.51375207
 20
-31544.80296823
 10
36531.9828964
 20
-31602.84231397
 42
1.30322619
 10
36564.18041874
 20
-31602.84231397
 10
36548.64956307
 20
-31544.80296823
 42
-1.30322619
 10
36580.8470854
 20
-31544.80296823
 10
36565.31622973
 20
-31602.84231397
 42
1.30322619
 10
36597.51375207
 20
-31602.84231397
 10
36581.9828964
 20
-31544.80296823
 42
-1.30322619
 10
36614.18041874
 20
-31544.80296823
 10
36598.64956307
 20
-31602.84231397
 42
1.30322619
 10
36630.8470854
 20
-31602.84231397
 10
36615.31622973
 20
-31544.80296823
 42
-1.30322619
 10
36647.51375207
 20
-31544.80296823
 10
36631.9828964
 20
-31602.84231397
 42
1.30322619
 10
36664.18041874
 20
-31602.84231397
 10
36648.64956307
 20
-31544.80296823
 42
-1.30322619
 10
36680.8470854
 20
-31544.80296823
 10
36665.31622973
 20
-31602.84231397
 42
1.30322619
 10
36697.51375207
 20
-31602.84231397
 10
36681.9828964
 20
-31544.80296823
 42
-1.30322619
 10
36714.18041874
 20
-31544.80296823
 10
36698.64956307
 20
-31602.84231397
 42
0.63224071
 10
36721.58327405
 20
-31622.35667306
  0
LWPOLYLINE
  5
7B1
100
AcDbEntity
  8
Ech.1_5
 62
   253
  6
CONTINUOUS
370
    15
100
AcDbPolyline
 90
        4
 70
     1
 43
0.0
 10
35831.08165756
 20
-32274.90127841
 10
35844.08165756
 20
-32274.90127841
 10
35844.08165756
 20
-31523.8226411
 10
35831.08165756
 20
-31523.8226411
  0
LWPOLYLINE
  5
7B2
102
{ACAD_REACTORS
330
7B3
102
}
100
AcDbEntity
  8
Ech.1_5
 62
     7
  6
CONTINUOUS
370
    -3
100
AcDbPolyline
 90
        4
 70
     1
 43
0.0
 10
35831.08165756
 20
-32274.90127841
 10
35844.08165756
 20
-32274.90127841
 10
35844.08165756
 20
-31523.8226411
 10
35831.08165756
 20
-31523.8226411
  0
HATCH
  5
7B3
100
AcDbEntity
  8
Ech.1_5
 62
   190
  6
CONTINUOUS
100
AcDbHatch
 10
0.0
 20
0.0
 30
0.0
210
0.0
220
0.0
230
1.0
  2
DOTS2
 70
     0
 71
     1
 91
        1
 92
        7
 72
     0
 73
     1
 93
        4
 10
35831.08165756
 20
-32274.90127841
 10
35844.08165756
 20
-32274.90127841
 10
35844.08165756
 20
-31523.8226411
 10
35831.08165756
 20
-31523.8226411
 97
        1
330
7B2
 75
     0
 76
     2
 52
0.0
 41
4.72440952
 77
     0
 78
     1
 53
0.0
 43
0.0
 44
0.0
 45
3.75
 46
3.535
 79
     2
 49
0.0
 49
-3.535
 47
0.775229
 98
        1
 10
0.0
 20
0.0
  0
CIRCLE
  5
7B4
100
AcDbEntity
  8
Ech.1_5
 62
     1
  6
CONTINUOUS
370
    70
100
AcDbCircle
 39
-12500.0
 10
36620.82810755
 20
-32139.390938
 30
2500.0
 40
10.83949135
  0
HATCH
  5
7B5
100
AcDbEntity
  8
Ech.1_5
 62
     1
  6
CONTINUOUS
100
AcDbHatch
 10
0.0
 20
0.0
 30
0.0
210
0.0
220
0.0
230
1.0
  2
ISOL_01
 70
     0
 71
     1
 91
        1
 92
        7
 72
     1
 73
     1
 93
        2
 10
36620.82810755
 20
-32150.23042936
 42
1.0
 10
36620.82810755
 20
-32128.55144665
 42
1.0
 97
        1
330
7B4
 75
     0
 76
     2
 52
0.0
 41
1.0
 77
     0
 78
    29
 53
0.0
 43
-2.23196998
 44
0.0
 45
0.0
 46
100.0
 79
     2
 49
4.46393996
 49
-12.20273018
 53
90.0
 43
-16.66666031
 44
13.96203995
 45
-33.33333015
 46
2.0410778039266E-15
 79
     2
 49
2.7046299
 49
-97.2953701
 53
90.0
 43
0.0
 44
83.33333015
 45
-33.33333015
 46
2.0410778039266E-15
 79
     2
 49
2.7046299
 49
-97.2953701
 53
104.9324646
 43
16.26942039
 44
20.24184942
 45
-33.33515852
 46
99.99952051
 79
     2
 49
61.59638882
 49
-455.87608337
 53
75.0675354
 43
17.06390977
 44
20.24184942
 45
-33.33515852
 46
-99.99952051
 79
     2
 49
61.59638882
 49
-455.87608337
 53
15.25511932
 43
2.23196998
 44
0.0
 45
-33.33332911
 46
8.9354887378157E-07
 79
     2
 49
4.53040987
 49
-375.52806854
 53
164.74488831
 43
-2.23196998
 44
0.0
 45
-33.33332911
 46
-5.3321501281012E-06
 79
     2
 49
4.53040987
 49
-375.52806854
 53
15.25511932
 43
10.06392002
 44
98.80797386
 45
-33.33332911
 46
8.9354887378157E-07
 79
     2
 49
4.53040987
 49
-375.52806854
 53
-15.25511932
 43
18.89863014
 44
100.0
 45
33.33332911
 46
8.9354887378157E-07
 79
     2
 49
4.53040987
 49
-375.52806854
 53
30.96375656
 43
6.60274029
 44
1.19203001
 45
-33.33333591
 46
-2.2143347822023E-07
 79
     2
 49
4.3523699
 49
-190.01268387
 53
149.03623962
 43
-6.62739992
 44
1.19203001
 45
-33.33333591
 46
2.4407345633470E-06
 79
     2
 49
4.3523699
 49
-190.01268387
 53
30.96375656
 43
6.33180022
 44
96.56868935
 45
-33.33333591
 46
-2.2143347822023E-07
 79
     2
 49
4.3523699
 49
-190.01268387
 53
-30.96375656
 43
23.26941013
 44
98.80797386
 45
33.33333591
 46
-2.2143347822023E-07
 79
     2
 49
4.3523699
 49
-190.01268387
 53
45.0
 43
10.33486009
 44
3.43131006
 45
-33.33333894
 46
2.2204460492503E-15
 79
     2
 49
3.70128989
 49
-137.72006989
 53
135.0
 43
-10.33486009
 44
3.43131006
 45
-33.33333894
 46
2.2204460492503E-15
 79
     2
 49
3.70128989
 49
-137.72006989
 53
45.0
 43
3.71459991
 44
93.95149231
 45
-33.33333894
 46
2.2204460492503E-15
 79
     2
 49
3.70128989
 49
-137.72006989
 53
-45.0
 43
27.00153112
 44
96.56868935
 45
33.33333894
 46
2.2204460492503E-15
 79
     2
 49
3.70128989
 49
-137.72006989
 53
56.30993271
 43
12.95207024
 44
6.04851007
 45
-33.33333502
 46
-3.7734524749311E-06
 79
     2
 49
3.88229012
 49
-116.30274773
 53
123.69006348
 43
-12.95207024
 44
6.04851007
 45
-33.33333502
 46
5.9927534890036E-06
 79
     2
 49
3.88229012
 49
-116.30274773
 53
56.30993271
 43
1.56109005
 44
90.72122574
 45
-33.33333502
 46
-3.7734524749311E-06
 79
     2
 49
3.88229012
 49
-116.30274773
 53
-56.30993271
 43
29.61874008
 44
93.95149231
 45
33.33333502
 46
-3.7734524749311E-06
 79
     2
 49
3.88229012
 49
-116.30274773
 53
71.56504822
 43
15.10558009
 44
9.27877009
 45
-33.33333738
 46
-1.6711020434101E-06
 79
     2
 49
4.93660003
 49
-100.47266006
 53
108.43495178
 43
-15.10558009
 44
9.27877009
 45
-33.33333738
 46
1.6711020500715E-06
 79
     2
 49
4.93660003
 49
-100.47266006
 53
71.56504822
 43
0.0
 44
86.03796005
 45
-33.33333738
 46
-1.6711020434101E-06
 79
     2
 49
4.93660003
 49
-100.47266006
 53
-71.56504822
 43
31.77223921
 44
90.72122574
 45
33.33333738
 46
-1.6711020434101E-06
 79
     2
 49
4.93660003
 49
-100.47266006
 53
83.6598053
 43
-16.66666031
 44
16.66666031
 45
-33.33334277
 46
-200.00001009
 79
     2
 49
3.59719008
 49
-298.24897766
 53
96.3401947
 43
16.66666031
 44
16.66666031
 45
-33.33334277
 46
200.00001009
 79
     2
 49
3.59719008
 49
-298.24897766
 53
263.65982056
 43
0.0
 44
83.33333015
 45
33.33328951
 46
200.00001897
 79
     2
 49
3.59719008
 49
-298.24897766
 53
-83.6598053
 43
0.0
 44
83.33333015
 45
33.33334277
 46
-200.00001009
 79
     2
 49
3.59719008
 49
-298.24897766
 47
0.775229
 98
        1
 10
0.0
 20
0.0
  0
LINE
  5
7B6
100
AcDbEntity
  8
Ech.1_5
 62
   106
  6
CADWORK_22
370
    35
100
AcDbLine
 10
36536.28362725
 20
-32052.3632317
 30
0.0
 11
36486.77421405
 21
-32052.3632317
 31
0.0
  0
LWPOLYLINE
  5
7B7
100
AcDbEntity
  8
Ech.1_5
 62
     3
370
    70
100
AcDbPolyline
 90
        4
 70
     0
 43
0.0
 10
36525.22563745
 20
-32029.68472684
 10
36512.23650403
 20
-32029.68472684
 10
36508.30177189
 20
-32024.00411388
 10
36494.82334189
 20
-32024.00411388
  0
LWPOLYLINE
  5
7B8
102
{ACAD_REACTORS
330
7B9
102
}
100
AcDbEntity
  8
Ech.1_5
 62
     7
  6
CONTINUOUS
370
     5
100
AcDbPolyline
 90
        4
 70
     1
 43
0.0
 10
36515.00363376
 20
-31970.33488946
 10
36508.21464257
 20
-31970.33488946
 10
36508.21464257
 20
-31979.76754952
 10
36515.00363376
 20
-31979.76754952
  0
HATCH
  5
7B9
100
AcDbEntity
  8
Ech.1_5
 62
     2
  6
CONTINUOUS
100
AcDbHatch
 10
0.0
 20
0.0
 30
0.0
210
0.0
220
0.0
230
1.0
  2
SOLID
 70
     1
 71
     1
 91
        1
 92
        7
 72
     0
 73
     1
 93
        4
 10
36515.00363376
 20
-31970.33488946
 10
36508.21464257
 20
-31970.33488946
 10
36508.21464257
 20
-31979.76754952
 10
36515.00363376
 20
-31979.76754952
 97
        1
330
7B8
 75
     0
 76
     2
 47
0.775229
 98
        1
 10
0.0
 20
0.0
  0
HATCH
  5
7BA
100
AcDbEntity
  8
Ech.1_5
 62
     7
  6
CONTINUOUS
100
AcDbHatch
 10
0.0
 20
0.0
 30
0.0
210
0.0
220
0.0
230
1.0
  2
ANSI31
 70
     0
 71
     1
 91
        1
 92
        7
 72
     0
 73
     1
 93
        4
 10
36515.00363376
 20
-31970.33488946
 10
36508.21464257
 20
-31970.33488946
 10
36508.21464257
 20
-31979.76754952
 10
36515.00363376
 20
-31979.76754952
 97
        1
330
7B9
 75
     0
 76
     2
 52
0.0
 41
0.94488785
 77
     0
 78
     1
 53
45.0
 43
0.0
 44
0.0
 45
2.12132043
 46
-2.12132043
 79
     0
 47
0.775229
 98
        1
 10
0.0
 20
0.0
  0
LWPOLYLINE
  5
7BB
100
AcDbEntity
  8
Ech.1_5
 62
   190
  6
CONTINUOUS
370
    -3
100
AcDbPolyline
 90
        4
 70
     1
 43
0.0
 10
36490.65152764
 20
-32008.75717416
 10
36530.7233333
 20
-32008.75673238
 10
36530.7233333
 20
-31999.32407231
 10
36490.65152764
 20
-31999.3245141
  0
LWPOLYLINE
  5
7BC
100
AcDbEntity
  8
Ech.1_5
 62
   190
  6
CONTINUOUS
370
    -3
100
AcDbPolyline
 90
        4
 70
     0
 43
0.0
 10
36530.7233333
 20
-31999.32407231
 10
36490.65152764
 20
-32008.75717416
 10
36490.65152764
 20
-31999.3245141
 10
36530.7233333
 20
-32008.75673238
  0
LWPOLYLINE
  5
7BD
100
AcDbEntity
  8
Ech.1_5
 62
     7
  6
CONTINUOUS
370
    -3
100
AcDbPolyline
 90
        4
 70
     1
 43
0.0
 10
36029.08165757
 20
-32167.79823838
 10
35884.07680668
 20
-32167.79755627
 10
35884.07680668
 20
-32122.79755627
 10
36029.08165757
 20
-32122.79823838
  0
LWPOLYLINE
  5
7BE
100
AcDbEntity
  8
Ech.1_5
 62
   190
  6
CONTINUOUS
370
    -3
100
AcDbPolyline
 90
        4
 70
     0
 43
0.0
 10
36029.08065812
 20
-32122.80111424
 10
35884.07487644
 20
-32167.80111424
 10
35884.07487644
 20
-32122.80111424
 10
36029.08065812
 20
-32167.80111424
  0
LWPOLYLINE
  5
7BF
100
AcDbEntity
  8
Ech.1_5
 62
     5
  6
CONTINUOUS
370
    -3
100
AcDbPolyline
 90
        5
 70
     0
 43
0.0
 10
36029.07726208
 20
-32167.79755627
 10
35884.07680668
 20
-32167.79755627
 10
35884.07680668
 20
-32122.79755627
 10
36029.07726208
 20
-32122.79755627
 10
36029.07726208
 20
-32167.79755627
  0
LWPOLYLINE
  5
7C0
100
AcDbEntity
  8
Ech.1_5
 62
   190
  6
CONTINUOUS
370
    -3
100
AcDbPolyline
 90
        4
 70
     0
 43
0.0
 10
36029.08065812
 20
-31788.58023084
 10
35884.07487644
 20
-31833.58023084
 10
35884.07487644
 20
-31788.58023084
 10
36029.08065812
 20
-31833.58023084
  0
LWPOLYLINE
  5
7C1
100
AcDbEntity
  8
Ech.1_5
 62
     7
  6
CONTINUOUS
370
    -3
100
AcDbPolyline
 90
        4
 70
     1
 43
0.0
 10
36029.08165757
 20
-31833.57735498
 10
35884.07680668
 20
-31833.57667286
 10
35884.07680668
 20
-31788.57667286
 10
36029.08165757
 20
-31788.57735498
  0
LWPOLYLINE
  5
7C2
100
AcDbEntity
  8
Ech.1_5
 62
     5
  6
CONTINUOUS
370
    -3
100
AcDbPolyline
 90
        5
 70
     0
 43
0.0
 10
36029.07726208
 20
-31833.57667286
 10
35884.07680668
 20
-31833.57667286
 10
35884.07680668
 20
-31788.57667286
 10
36029.07726208
 20
-31788.57667286
 10
36029.07726208
 20
-31833.57667286
  0
LWPOLYLINE
  5
7C3
102
{ACAD_REACTORS
330
7C4
102
}
100
AcDbEntity
  8
Ech.1_5
 62
     7
  6
CONTINUOUS
370
    -3
100
AcDbPolyline
 90
        6
 70
     1
 43
0.0
 10
36123.2422864
 20
-31743.8226411
 10
36180.2815462
 20
-31743.8226411
 10
36180.2815462
 20
-31747.8226411
 10
36127.24228659
 20
-31747.8226411
 10
36127.24228659
 20
-31858.56032494
 10
36123.2422864
 20
-31858.56032494
  0
HATCH
  5
7C4
100
AcDbEntity
  8
Ech.1_5
 62
     7
  6
CONTINUOUS
100
AcDbHatch
 10
0.0
 20
0.0
 30
0.0
210
0.0
220
0.0
230
1.0
  2
SOLID
 70
     1
 71
     1
 91
        1
 92
        7
 72
     0
 73
     1
 93
        6
 10
36123.2422864
 20
-31743.8226411
 10
36180.2815462
 20
-31743.8226411
 10
36180.2815462
 20
-31747.8226411
 10
36127.24228659
 20
-31747.8226411
 10
36127.24228659
 20
-31858.56032494
 10
36123.2422864
 20
-31858.56032494
 97
        1
330
7C3
 75
     0
 76
     2
 47
0.775229
 98
        1
 10
0.0
 20
0.0
  0
CIRCLE
  5
7C5
100
AcDbEntity
  8
Ech.1_5
 62
     7
  6
CONTINUOUS
100
AcDbCircle
 10
35853.91950034
 20
-31526.46343561
 30
0.0
 40
6.16444121
  0
LWPOLYLINE
  5
7C6
100
AcDbEntity
  8
Ech.1_5
 62
     1
  6
CADWORK_22
 48
-5.0
370
    35
100
AcDbPolyline
 90
        7
 70
     0
 43
0.0
 10
35884.08165756
 20
-32274.90127841
 10
35884.08165756
 20
-31607.72873971
 10
35884.08165756
 20
-31523.8226411
 10
35861.35408885
 20
-31523.8226411
 10
35853.14632652
 20
-31531.92283429
 10
35846.56696911
 20
-31523.82282018
 10
35819.90781724
 20
-31523.82282018
  0
CIRCLE
  5
7C7
100
AcDbEntity
  8
Ech.1_5
 62
     7
  6
CONTINUOUS
100
AcDbCircle
 10
36129.65644885
 20
-31526.46343561
 30
0.0
 40
6.16444121
  0
LWPOLYLINE
  5
7C8
100
AcDbEntity
  8
Ech.1_5
 62
   150
  6
CADWORK_22
370
    35
100
AcDbPolyline
 90
        8
 70
     0
 43
0.0
 38
2500.0
 10
36099.5794603
 20
-32274.90111699
 10
36099.5794603
 20
-31614.06128722
 10
36099.5794603
 20
-31607.72873971
 10
36099.5794603
 20
-31523.8226411
 10
36122.30702901
 20
-31523.8226411
 10
36130.51479134
 20
-31531.92283429
 10
36137.09414876
 20
-31523.82282018
 10
36163.75330063
 20
-31523.82282018
  0
ENDSEC
  0
SECTION
  2
OBJECTS
  0
DICTIONARY
  5
1
100
AcDbDictionary
  3
ACAD_GROUP
350
2
  3
ACAD_MLINESTYLE
350
3
  0
DICTIONARY
  5
2
102
{CDWK_REACTORS
330
1
102
}
100
AcDbDictionary
  0
DICTIONARY
  5
3
102
{CDWK_REACTORS
330
1
102
}
100
AcDbDictionary
  3
STANDARD
350
4
  0
MLINESTYLE
  5
4
102
{CDWK_REACTORS
330
3
102
}
100
AcDbMlineStyle
  2
STANDARD
 70
     0
  3

 62
     0
 51
90.0
 52
90.0
 71
     2
 49
0.5
 62
   256
  6
BYLAYER
 49
-0.5
 62
   256
  6
BYLAYER
  0
ENDSEC
  0
EOF
