  0
SECTION
  2
HEADER
  9
$ACADVER
  1
AC1014
  9
$DWGCODEPAGE
  3
ANSI_1252
  9
$INSBASE
 10
0.0
 20
0.0
 30
0.0
  9
$EXTMIN
 10
16597.69195778
 20
-65168.99224683
  9
$EXTMAX
 10
70954.1530979
 20
-11994.18003977
  9
$LIMMIN
 10
16597.69195778
 20
-65168.99224683
  9
$LIMMAX
 10
70954.1530979
 20
-11994.18003977
  9
$ORTHOMODE
 70
     0
  9
$REGENMODE
 70
     1
  9
$FILLMODE
 70
     1
  9
$QTEXTMODE
 70
     0
  9
$MIRRTEXT
 70
     1
  9
$DRAGMODE
 70
     2
  9
$LTSCALE
 40
10.0
  9
$OSMODE
 70
     0
  9
$ATTMODE
 70
     1
  9
$TEXTSIZE
 40
3.5
  9
$TRACEWID
 40
1.0
  9
$TEXTSTYLE
  7
STANDARD
  9
$CLAYER
  8
0
  9
$CELTYPE
  6
BYLAYER
  9
$CECOLOR
 62
   256
  9
$DIMSCALE
 40
1.0
  9
$DIMASZ
 40
2.0
  9
$DIMEXO
 40
5.0
  9
$DIMDLI
 40
10.0
  9
$DIMRND
 40
0.0
  9
$DIMDLE
 40
2.0
  9
$DIMEXE
 40
2.0
  9
$DIMTP
 40
0.0
  9
$DIMTM
 40
0.0
  9
$DIMTXT
 40
2.5
  9
$DIMCEN
 40
1.5
  9
$DIMTSZ
 40
0.0
  9
$DIMTOL
 70
     0
  9
$DIMLIM
 70
     0
  9
$DIMTIH
 70
     1
  9
$DIMTOH
 70
     0
  9
$DIMSE1
 70
     0
  9
$DIMSE2
 70
     0
  9
$DIMTAD
 70
     1
  9
$DIMZIN
 70
     8
  9
$DIMBLK
  1

  9
$DIMASO
 70
     1
  9
$DIMSHO
 70
     1
  9
$DIMPOST
  1

  9
$DIMAPOST
  1

  9
$DIMALT
 70
     0
  9
$DIMALTD
 70
     2
  9
$DIMALTF
 40
25.4
  9
$DIMLFAC
 40
1.0
  9
$DIMTOFL
 70
     0
  9
$DIMTVP
 40
0.0
  9
$DIMTIX
 70
     0
  9
$DIMSOXD
 70
     0
  9
$DIMSAH
 70
     0
  9
$DIMBLK1
  1

  9
$DIMBLK2
  1

  9
$DIMSTYLE
  2
*UNNAMED
  9
$DIMCLRD
 70
   190
  9
$DIMCLRE
 70
   190
  9
$DIMCLRT
 70
   190
  9
$DIMTFAC
 40
1.0
  9
$DIMGAP
 40
0.09
  9
$DIMUNIT
 70
     2
  9
$LUNITS
 70
     2
  9
$LUPREC
 70
     6
  9
$AXISMODE
 70
     0
  9
$AXISUNIT
 10
0.0
 20
0.0
  9
$SKETCHINC
 40
0.1
  9
$FILLETRAD
 40
0.0
  9
$AUNITS
 70
     0
  9
$AUPREC
 70
     0
  9
$MENU
  1
ACAD
  9
$ELEVATION
 40
0.0
  9
$PELEVATION
 40
0.0
  9
$THICKNESS
 40
0.0
  9
$LIMCHECK
 70
     0
  9
$BLIPMODE
 70
     1
  9
$CHAMFERA
 40
0.0
  9
$CHAMFERB
 40
0.0
  9
$SKPOLY
 70
     1
  9
$TDCREATE
 40
2457811.0000000000
  9
$TDUPDATE
 40
2457811.0000000000
  9
$TDINDWG
 40
0.0
  9
$TDUSRTIMER
 40
0.0
  9
$USRTIMER
 70
     1
  9
$ANGBASE
 50
0.0
  9
$ANGDIR
 70
     0
  9
$PDMODE
 70
     0
  9
$PDSIZE
 40
0.0
  9
$PLINEWID
 40
0.0
  9
$COORDS
 70
     2
  9
$SPLFRAME
 70
     0
  9
$SPLINETYPE
 70
     6
  9
$SPLINESEGS
 70
     8
  9
$ATTDIA
 70
     1
  9
$ATTREQ
 70
     1
  9
$HANDLING
 70
     1
  9
$HANDSEED
  5
     73B
  9
$SURFTAB1
 70
     6
  9
$SURFTAB2
 70
     6
  9
$SURFTYPE
 70
     6
  9
$SURFU
 70
     6
  9
$SURFV
 70
     6
  9
$UCSNAME
  2

  9
$UCSORG
 10
0.0
 20
0.0
 30
0.0
  9
$UCSXDIR
 10
1.0
 20
0.0
 30
0.0
  9
$UCSYDIR
 10
0.0
 20
1.0
 30
0.0
  9
$PUCSNAME
  2

  9
$PUCSORG
 10
0.0
 20
0.0
 30
0.0
  9
$PUCSXDIR
 10
1.0
 20
0.0
 30
0.0
  9
$PUCSYDIR
 10
0.0
 20
1.0
 30
0.0
  9
$USERI1
 70
     0
  9
$USERI2
 70
     0
  9
$USERI3
 70
     0
  9
$USERI4
 70
     0
  9
$USERI5
 70
     0
  9
$USERR1
 40
0.0
  9
$USERR2
 40
0.0
  9
$USERR3
 40
0.0
  9
$USERR4
 40
0.0
  9
$USERR5
 40
0.0
  9
$WORLDVIEW
 70
     1
  9
$SHADEDGE
 70
     3
  9
$SHADEDIF
 70
    70
  9
$TILEMODE
 70
     1
  9
$MAXACTVP
 70
    16
  9
$PINSBASE
 10
0.0
 20
0.0
 30
0.0
  9
$PLIMCHECK
 70
     0
  9
$PEXTMIN
 10
1.0000000000000E+20
 20
1.0000000000000E+20
 30
1.0000000000000E+20
  9
$PEXTMAX
 10
-1.0000000000000E+20
 20
-1.0000000000000E+20
 30
-1.0000000000000E+20
  9
$PLIMMIN
 10
0.0
 20
0.0
  9
$UNITMODE
 70
     0
  9
$VISRETAIN
 70
     0
  9
$MEASUREMENT
 70
     1
  0
ENDSEC
  0
SECTION
  2
TABLES
  0
TABLE
  2
VPORT
  5
36E
100
AcDbSymbolTable
 70
     1
  0
ENDTAB
  0
TABLE
  2
STYLE
  5
36F
100
AcDbSymbolTable
 70
     3
  0
STYLE
  5
370
100
AcDbSymbolTableRecord
100
AcDbTextStyleTableRecord
  2
STANDARD
 70
     0
 40
0.0
 41
1.0
 50
0.0
 71
     0
 42
3.5
  3
MONOTXT
  4

  0
STYLE
  5
371
100
AcDbSymbolTableRecord
100
AcDbTextStyleTableRecord
  2
SYMAP
 70
     0
 40
0.0
 41
1.0
 50
0.0
 71
     0
 42
3.5
  3
SYMAP
  4

  0
STYLE
  5
372
100
AcDbSymbolTableRecord
100
AcDbTextStyleTableRecord
  2
CADWORK1
 70
     0
 40
0.0
 41
1.0
 50
0.0
 71
     0
 42
3.5
  3
MONOTXT
  4

  0
STYLE
  5
373
100
AcDbSymbolTableRecord
100
AcDbTextStyleTableRecord
  2
MONOTXT
 70
     0
 40
0.0
 41
1.0
 50
0.0
 71
     0
 42
3.5
  3
MONOTXT
  4

  0
STYLE
  5
374
100
AcDbSymbolTableRecord
100
AcDbTextStyleTableRecord
  2
ARIAL
 70
     0
 40
0.0
 41
1.0
 50
0.0
 71
     0
 42
3.5
  3

  4

1001
ACAD
1000
Arial
1071
        0
  0
ENDTAB
  0
TABLE
  2
LTYPE
  5
375
100
AcDbSymbolTable
 70
    13
  0
LTYPE
  5
376
100
AcDbSymbolTableRecord
100
AcDbLinetypeTableRecord
  2
BYBLOCK
 70
    64
  3

 72
    65
 73
     0
 40
0.0
  0
LTYPE
  5
377
100
AcDbSymbolTableRecord
100
AcDbLinetypeTableRecord
  2
BYLAYER
 70
    64
  3

 72
    65
 73
     0
 40
0.0
  0
LTYPE
  5
378
100
AcDbSymbolTableRecord
100
AcDbLinetypeTableRecord
  2
CONTINUOUS
 70
    64
  3
Solid line
 72
    65
 73
     0
 40
0.0
  0
LTYPE
  5
379
100
AcDbSymbolTableRecord
100
AcDbLinetypeTableRecord
  2
DOT2
 70
    64
  3
...............................................
 72
    65
 73
     2
 40
1.25
 49
0.0
 74
     0
 49
-1.25
 74
     0
  0
LTYPE
  5
37A
100
AcDbSymbolTableRecord
100
AcDbLinetypeTableRecord
  2
DASHDOT
 70
    64
  3
 __ . __ . __ . __ . __ . __ . __ . __ . __ . __
 72
    65
 73
     4
 40
10.0
 49
5.0
 74
     0
 49
-2.5
 74
     0
 49
0.0
 74
     0
 49
-2.5
 74
     0
  0
LTYPE
  5
37B
100
AcDbSymbolTableRecord
100
AcDbLinetypeTableRecord
  2
CENTER
 70
    64
  3
 ____ _ ____ _ ____ _ ____ _ ____ _ ____ _ ____
 72
    65
 73
     4
 40
20.0
 49
12.5
 74
     0
 49
-2.5
 74
     0
 49
2.5
 74
     0
 49
-2.5
 74
     0
  0
LTYPE
  5
37C
100
AcDbSymbolTableRecord
100
AcDbLinetypeTableRecord
  2
CADWORK_22
 70
    64
  3
22 =======================================
 72
    65
 73
     0
 40
0.0
  0
LTYPE
  5
37D
100
AcDbSymbolTableRecord
100
AcDbLinetypeTableRecord
  2
DAL
 70
    64
  3
Solid line (for MAPS)
 72
    65
 73
     0
 40
0.0
  0
LTYPE
  5
37E
100
AcDbSymbolTableRecord
100
AcDbLinetypeTableRecord
  2
MUR
 70
    64
  3
Solid line (for MAPS)
 72
    65
 73
     0
 40
0.0
  0
LTYPE
  5
37F
100
AcDbSymbolTableRecord
100
AcDbLinetypeTableRecord
  2
SOM
 70
    64
  3
Solid line (for MAPS)
 72
    65
 73
     0
 40
0.0
  0
LTYPE
  5
380
100
AcDbSymbolTableRecord
100
AcDbLinetypeTableRecord
  2
COL
 70
    64
  3
Solid line (for MAPS)
 72
    65
 73
     0
 40
0.0
  0
LTYPE
  5
381
100
AcDbSymbolTableRecord
100
AcDbLinetypeTableRecord
  2
LGN
 70
    64
  3
Solid line (for MAPS)
 72
    65
 73
     0
 40
0.0
  0
LTYPE
  5
382
100
AcDbSymbolTableRecord
100
AcDbLinetypeTableRecord
  2
PNT
 70
    64
  3
Solid line (for MAPS)
 72
    65
 73
     0
 40
0.0
  0
ENDTAB
  0
TABLE
  2
LAYER
  5
383
100
AcDbSymbolTable
 70
    32
  0
LAYER
  5
384
100
AcDbSymbolTableRecord
100
AcDbLayerTableRecord
  2
Standard
 70
     0
 62
     7
  6
CONTINUOUS
370
    -3
  0
LAYER
  5
385
100
AcDbSymbolTableRecord
100
AcDbLayerTableRecord
  2
Ech.1_1
 70
     0
 62
     7
  6
CONTINUOUS
370
    -3
  0
LAYER
  5
386
100
AcDbSymbolTableRecord
100
AcDbLayerTableRecord
  2
Ech.1_2
 70
     0
 62
     7
  6
CONTINUOUS
370
    -3
  0
LAYER
  5
387
100
AcDbSymbolTableRecord
100
AcDbLayerTableRecord
  2
Ech.1_5
 70
     0
 62
     7
  6
CONTINUOUS
370
    -3
  0
LAYER
  5
388
100
AcDbSymbolTableRecord
100
AcDbLayerTableRecord
  2
Ech.1_10
 70
     0
 62
     7
  6
CONTINUOUS
370
    -3
  0
LAYER
  5
389
100
AcDbSymbolTableRecord
100
AcDbLayerTableRecord
  2
Ech.1_20
 70
     0
 62
     7
  6
CONTINUOUS
370
    -3
  0
LAYER
  5
38A
100
AcDbSymbolTableRecord
100
AcDbLayerTableRecord
  2
Ech.1_25
 70
     0
 62
     7
  6
CONTINUOUS
370
    -3
  0
LAYER
  5
38B
100
AcDbSymbolTableRecord
100
AcDbLayerTableRecord
  2
Ech.1_33
 70
     0
 62
     7
  6
CONTINUOUS
370
    -3
  0
LAYER
  5
38C
100
AcDbSymbolTableRecord
100
AcDbLayerTableRecord
  2
Ech.1_50
 70
     0
 62
     7
  6
CONTINUOUS
370
    -3
  0
LAYER
  5
38D
100
AcDbSymbolTableRecord
100
AcDbLayerTableRecord
  2
Ech.1_75
 70
     0
 62
     7
  6
CONTINUOUS
370
    -3
  0
LAYER
  5
38E
100
AcDbSymbolTableRecord
100
AcDbLayerTableRecord
  2
Ech.1_100
 70
     0
 62
     7
  6
CONTINUOUS
370
    -3
  0
LAYER
  5
38F
100
AcDbSymbolTableRecord
100
AcDbLayerTableRecord
  2
Ech.1_200
 70
     0
 62
     7
  6
CONTINUOUS
370
    -3
  0
LAYER
  5
390
100
AcDbSymbolTableRecord
100
AcDbLayerTableRecord
  2
Ech.1_500
 70
     0
 62
     7
  6
CONTINUOUS
370
    -3
  0
LAYER
  5
391
100
AcDbSymbolTableRecord
100
AcDbLayerTableRecord
  2
Ech.1_1000
 70
     0
 62
     7
  6
CONTINUOUS
370
    -3
  0
LAYER
  5
392
100
AcDbSymbolTableRecord
100
AcDbLayerTableRecord
  2
Cadres traceur
 70
     0
 62
     7
  6
CONTINUOUS
370
    18
  0
LAYER
  5
393
100
AcDbSymbolTableRecord
100
AcDbLayerTableRecord
  2
Cadres laser
 70
     0
 62
     7
  6
CONTINUOUS
370
    18
  0
LAYER
  5
394
100
AcDbSymbolTableRecord
100
AcDbLayerTableRecord
  2
Légende d_aide
 70
     0
 62
     7
  6
CONTINUOUS
370
    18
  0
LAYER
  5
395
100
AcDbSymbolTableRecord
100
AcDbLayerTableRecord
  2
hachures ok
 70
     0
 62
     7
  6
CONTINUOUS
370
    18
  0
LAYER
  5
396
100
AcDbSymbolTableRecord
100
AcDbLayerTableRecord
  2
ossature bois
 70
     0
 62
     7
  6
CONTINUOUS
370
    18
  0
LAYER
  5
397
100
AcDbSymbolTableRecord
100
AcDbLayerTableRecord
  2
VR
 70
     0
 62
     7
  6
CONTINUOUS
370
    25
  0
LAYER
  5
398
100
AcDbSymbolTableRecord
100
AcDbLayerTableRecord
  2
Calque1
 70
     0
 62
     7
  6
CONTINUOUS
370
     9
  0
LAYER
  5
399
100
AcDbSymbolTableRecord
100
AcDbLayerTableRecord
  2
0
 70
     0
 62
     7
  6
CONTINUOUS
370
    -3
  0
LAYER
  5
39A
100
AcDbSymbolTableRecord
100
AcDbLayerTableRecord
  2
menuiserie
 70
     0
 62
     7
  6
CONTINUOUS
370
    -3
  0
LAYER
  5
39B
100
AcDbSymbolTableRecord
100
AcDbLayerTableRecord
  2
cotation
 70
     0
 62
   250
  6
CONTINUOUS
370
     9
  0
LAYER
  5
39C
100
AcDbSymbolTableRecord
100
AcDbLayerTableRecord
  2
Defpoints
 70
     0
 62
    10
  6
CONTINUOUS
370
    -3
  0
LAYER
  5
39D
100
AcDbSymbolTableRecord
100
AcDbLayerTableRecord
  2
HACHURE
 70
     0
 62
   254
  6
CONTINUOUS
370
    25
  0
LAYER
  5
39E
100
AcDbSymbolTableRecord
100
AcDbLayerTableRecord
  2
mat1
 70
     0
 62
     7
  6
CONTINUOUS
370
    30
  0
LAYER
  5
39F
100
AcDbSymbolTableRecord
100
AcDbLayerTableRecord
  2
mat2
 70
     0
 62
     7
  6
CONTINUOUS
370
     5
  0
LAYER
  5
3A0
100
AcDbSymbolTableRecord
100
AcDbLayerTableRecord
  2
hach
 70
     0
 62
     8
  6
CONTINUOUS
370
     5
  0
LAYER
  5
3A1
100
AcDbSymbolTableRecord
100
AcDbLayerTableRecord
  2
menuiseries
 70
     0
 62
     7
  6
CONTINUOUS
370
     9
  0
LAYER
  5
3A2
100
AcDbSymbolTableRecord
100
AcDbLayerTableRecord
  2
BétonMétal
 70
     0
 62
     7
  6
CONTINUOUS
370
    80
  0
LAYER
  5
3A3
100
AcDbSymbolTableRecord
100
AcDbLayerTableRecord
  2
bois
 70
     0
 62
     7
  6
CONTINUOUS
370
    60
  0
ENDTAB
  0
TABLE
  2
VIEW
  5
3A4
100
AcDbSymbolTable
 70
     0
  0
ENDTAB
  0
TABLE
  2
UCS
  5
3A5
100
AcDbSymbolTable
 70
     0
  0
ENDTAB
  0
TABLE
  2
APPID
  5
3A6
100
AcDbSymbolTable
 70
     1
  0
APPID
  5
3A7
100
AcDbSymbolTableRecord
100
AcDbRegAppTableRecord
  2
ACAD
 70
     0
  0
ENDTAB
  0
TABLE
  2
DIMSTYLE
  5
3A8
100
AcDbSymbolTable
 70
     0
  0
ENDTAB
  0
TABLE
  2
BLOCK_RECORD
  5
3A9
100
AcDbSymbolTable
 70
     0
  0
BLOCK_RECORD
  5
3AA
100
AcDbSymbolTableRecord
100
AcDbBlockTableRecord
  2
*MODEL_SPACE
  0
BLOCK_RECORD
  5
3AB
100
AcDbSymbolTableRecord
100
AcDbBlockTableRecord
  2
*PAPER_SPACE
  0
BLOCK_RECORD
  5
3AC
100
AcDbSymbolTableRecord
100
AcDbBlockTableRecord
  2
CDWK_EXTR_0
  0
BLOCK_RECORD
  5
3AD
100
AcDbSymbolTableRecord
100
AcDbBlockTableRecord
  2
CDWK_EXTR_1D
  0
BLOCK_RECORD
  5
3AE
100
AcDbSymbolTableRecord
100
AcDbBlockTableRecord
  2
CDWK_EXTR_1G
  0
BLOCK_RECORD
  5
3AF
100
AcDbSymbolTableRecord
100
AcDbBlockTableRecord
  2
CDWK_EXTR_2
  0
BLOCK_RECORD
  5
3B0
100
AcDbSymbolTableRecord
100
AcDbBlockTableRecord
  2
CDWK_EXTR_3
  0
BLOCK_RECORD
  5
3B1
100
AcDbSymbolTableRecord
100
AcDbBlockTableRecord
  2
CDWK_EXTR_4
  0
BLOCK_RECORD
  5
3B2
100
AcDbSymbolTableRecord
100
AcDbBlockTableRecord
  2
CDWK_PTTYP0
  0
BLOCK_RECORD
  5
3B3
100
AcDbSymbolTableRecord
100
AcDbBlockTableRecord
  2
CDWK_PTTYP1
  0
BLOCK_RECORD
  5
3B4
100
AcDbSymbolTableRecord
100
AcDbBlockTableRecord
  2
CDWK_PTTYP2
  0
BLOCK_RECORD
  5
3B5
100
AcDbSymbolTableRecord
100
AcDbBlockTableRecord
  2
CDWK_PTTYP3
  0
BLOCK_RECORD
  5
3B6
100
AcDbSymbolTableRecord
100
AcDbBlockTableRecord
  2
CDWK_PTTYP4
  0
BLOCK_RECORD
  5
3B7
100
AcDbSymbolTableRecord
100
AcDbBlockTableRecord
  2
CDWK_PTTYP5
  0
BLOCK_RECORD
  5
3B8
100
AcDbSymbolTableRecord
100
AcDbBlockTableRecord
  2
CDWK_PTTYP6
  0
BLOCK_RECORD
  5
3B9
100
AcDbSymbolTableRecord
100
AcDbBlockTableRecord
  2
CDWK_PTTYP7
  0
BLOCK_RECORD
  5
3BA
100
AcDbSymbolTableRecord
100
AcDbBlockTableRecord
  2
CDWK_PTTYP8
  0
BLOCK_RECORD
  5
3BB
100
AcDbSymbolTableRecord
100
AcDbBlockTableRecord
  2
CDWK_PTTYP9
  0
BLOCK_RECORD
  5
3BC
100
AcDbSymbolTableRecord
100
AcDbBlockTableRecord
  2
CDWK_PTTYP10
  0
BLOCK_RECORD
  5
3BD
100
AcDbSymbolTableRecord
100
AcDbBlockTableRecord
  2
CDWK_PTTYP11
  0
BLOCK_RECORD
  5
3BE
100
AcDbSymbolTableRecord
100
AcDbBlockTableRecord
  2
CDWK_PTTYP12
  0
BLOCK_RECORD
  5
3BF
100
AcDbSymbolTableRecord
100
AcDbBlockTableRecord
  2
CDWK_PTTYP13
  0
BLOCK_RECORD
  5
3C0
100
AcDbSymbolTableRecord
100
AcDbBlockTableRecord
  2
CDWK_PTTYP14
  0
BLOCK_RECORD
  5
3C1
100
AcDbSymbolTableRecord
100
AcDbBlockTableRecord
  2
CDWK_PTTYP15
  0
BLOCK_RECORD
  5
3C2
100
AcDbSymbolTableRecord
100
AcDbBlockTableRecord
  2
CDWK_PTTYP16
  0
BLOCK_RECORD
  5
3C3
100
AcDbSymbolTableRecord
100
AcDbBlockTableRecord
  2
CDWK_PTTYP17
  0
BLOCK_RECORD
  5
3C4
100
AcDbSymbolTableRecord
100
AcDbBlockTableRecord
  2
CDWK_PTTYP18
  0
BLOCK_RECORD
  5
3C5
100
AcDbSymbolTableRecord
100
AcDbBlockTableRecord
  2
CDWK_PTTYP19
  0
BLOCK_RECORD
  5
3C6
100
AcDbSymbolTableRecord
100
AcDbBlockTableRecord
  2
CDWK_PTTYP20
  0
BLOCK_RECORD
  5
3C7
100
AcDbSymbolTableRecord
100
AcDbBlockTableRecord
  2
CDWK_PTTYP21
  0
BLOCK_RECORD
  5
3C8
100
AcDbSymbolTableRecord
100
AcDbBlockTableRecord
  2
CDWK_PTTYP22
  0
BLOCK_RECORD
  5
3C9
100
AcDbSymbolTableRecord
100
AcDbBlockTableRecord
  2
CDWK_PTTYP23
  0
BLOCK_RECORD
  5
3CA
100
AcDbSymbolTableRecord
100
AcDbBlockTableRecord
  2
CDWK_PTTYP24
  0
BLOCK_RECORD
  5
3CB
100
AcDbSymbolTableRecord
100
AcDbBlockTableRecord
  2
CDWK_PTTYP25
  0
BLOCK_RECORD
  5
3CC
100
AcDbSymbolTableRecord
100
AcDbBlockTableRecord
  2
CDWK_PTTYP26
  0
BLOCK_RECORD
  5
3CD
100
AcDbSymbolTableRecord
100
AcDbBlockTableRecord
  2
CDWK_PTTYP27
  0
BLOCK_RECORD
  5
3CE
100
AcDbSymbolTableRecord
100
AcDbBlockTableRecord
  2
CDWK_PTTYP28
  0
BLOCK_RECORD
  5
3CF
100
AcDbSymbolTableRecord
100
AcDbBlockTableRecord
  2
CDWK_PTTYP29
  0
BLOCK_RECORD
  5
3D0
100
AcDbSymbolTableRecord
100
AcDbBlockTableRecord
  2
CDWK_PTTYP30
  0
BLOCK_RECORD
  5
3D1
100
AcDbSymbolTableRecord
100
AcDbBlockTableRecord
  2
CDWK_PTTYP31
  0
BLOCK_RECORD
  5
3D2
100
AcDbSymbolTableRecord
100
AcDbBlockTableRecord
  2
CDWK_PTTYP32
  0
BLOCK_RECORD
  5
3D3
100
AcDbSymbolTableRecord
100
AcDbBlockTableRecord
  2
CDWK_PTTYP33
  0
BLOCK_RECORD
  5
3D4
100
AcDbSymbolTableRecord
100
AcDbBlockTableRecord
  2
CDWK_PTTYP34
  0
BLOCK_RECORD
  5
3D5
100
AcDbSymbolTableRecord
100
AcDbBlockTableRecord
  2
CDWK_PTTYP35
  0
BLOCK_RECORD
  5
3D6
100
AcDbSymbolTableRecord
100
AcDbBlockTableRecord
  2
CDWK_PTTYP36
  0
BLOCK_RECORD
  5
3D7
100
AcDbSymbolTableRecord
100
AcDbBlockTableRecord
  2
CDWK_PTTYP37
  0
BLOCK_RECORD
  5
3D8
100
AcDbSymbolTableRecord
100
AcDbBlockTableRecord
  2
CDWK_PTTYP38
  0
BLOCK_RECORD
  5
3D9
100
AcDbSymbolTableRecord
100
AcDbBlockTableRecord
  2
*X1
  0
BLOCK_RECORD
  5
3DA
100
AcDbSymbolTableRecord
100
AcDbBlockTableRecord
  2
*X2
  0
BLOCK_RECORD
  5
3DB
100
AcDbSymbolTableRecord
100
AcDbBlockTableRecord
  2
*X3
  0
BLOCK_RECORD
  5
3DC
100
AcDbSymbolTableRecord
100
AcDbBlockTableRecord
  2
*X4
  0
BLOCK_RECORD
  5
3DD
100
AcDbSymbolTableRecord
100
AcDbBlockTableRecord
  2
*X5
  0
BLOCK_RECORD
  5
3DE
100
AcDbSymbolTableRecord
100
AcDbBlockTableRecord
  2
*X6
  0
BLOCK_RECORD
  5
3DF
100
AcDbSymbolTableRecord
100
AcDbBlockTableRecord
  2
*X7
  0
BLOCK_RECORD
  5
3E0
100
AcDbSymbolTableRecord
100
AcDbBlockTableRecord
  2
*X8
  0
BLOCK_RECORD
  5
3E1
100
AcDbSymbolTableRecord
100
AcDbBlockTableRecord
  2
*X9
  0
BLOCK_RECORD
  5
3E2
100
AcDbSymbolTableRecord
100
AcDbBlockTableRecord
  2
*X10
  0
BLOCK_RECORD
  5
3E3
100
AcDbSymbolTableRecord
100
AcDbBlockTableRecord
  2
*X11
  0
BLOCK_RECORD
  5
3E4
100
AcDbSymbolTableRecord
100
AcDbBlockTableRecord
  2
*X12
  0
BLOCK_RECORD
  5
3E5
100
AcDbSymbolTableRecord
100
AcDbBlockTableRecord
  2
*X13
  0
BLOCK_RECORD
  5
3E6
100
AcDbSymbolTableRecord
100
AcDbBlockTableRecord
  2
*X14
  0
BLOCK_RECORD
  5
3E7
100
AcDbSymbolTableRecord
100
AcDbBlockTableRecord
  2
*D19
  0
ENDTAB
  0
ENDSEC
  0
SECTION
  2
BLOCKS
  0
BLOCK
  5
3E8
100
AcDbEntity
  8
0
100
AcDbBlockBegin
  2
*MODEL_SPACE
 70
     0
 10
0.0
 20
0.0
 30
0.0
  3
*MODEL_SPACE
  1

  0
ENDBLK
  5
3E9
100
AcDbEntity
100
AcDbBlockEnd
  0
BLOCK
  5
3EA
100
AcDbEntity
  8
0
100
AcDbBlockBegin
  2
*PAPER_SPACE
 70
     0
 10
0.0
 20
0.0
 30
0.0
  3
*PAPER_SPACE
  1

  0
ENDBLK
  5
3EB
100
AcDbEntity
100
AcDbBlockEnd
  0
BLOCK
  5
3EC
100
AcDbEntity
  8
0
100
AcDbBlockBegin
  2
CDWK_EXTR_0
 70
     0
 10
0.0
 20
0.0
 30
0.0
  3
CDWK_EXTR_0
  1

  4
Cadwork line-extremity
  0
LINE
  5
3ED
100
AcDbEntity
  8
0
 62
     0
370
    -2
100
AcDbLine
 10
0.0
 20
0.0
 30
0.0
 11
2.0
 21
0.5
 31
0.0
  0
LINE
  5
3EE
100
AcDbEntity
  8
0
 62
     0
370
    -2
100
AcDbLine
 10
0.0
 20
0.0
 30
0.0
 11
2.0
 21
-0.5
 31
0.0
  0
LINE
  5
3EF
100
AcDbEntity
  8
0
 62
     0
370
    -2
100
AcDbLine
 10
2.0
 20
0.5
 30
0.0
 11
2.0
 21
-0.5
 31
0.0
  0
ENDBLK
  5
3F0
100
AcDbEntity
100
AcDbBlockEnd
  0
BLOCK
  5
3F1
100
AcDbEntity
  8
0
100
AcDbBlockBegin
  2
CDWK_EXTR_1D
 70
     0
 10
0.0
 20
0.0
 30
0.0
  3
CDWK_EXTR_1D
  1

  4
Cadwork line-extremity
  0
LINE
  5
3F2
100
AcDbEntity
  8
0
 62
     0
370
    -2
100
AcDbLine
 10
0.0
 20
0.0
 30
0.0
 11
0.0
 21
1.0
 31
0.0
  0
LINE
  5
3F3
100
AcDbEntity
  8
0
 62
     0
370
    -2
100
AcDbLine
 10
0.0
 20
1.0
 30
0.0
 11
0.5
 21
1.5
 31
0.0
  0
LINE
  5
3F4
100
AcDbEntity
  8
0
 62
     0
370
    -2
100
AcDbLine
 10
0.5
 20
1.5
 30
0.0
 11
1.5
 21
1.5
 31
0.0
  0
ENDBLK
  5
3F5
100
AcDbEntity
100
AcDbBlockEnd
  0
BLOCK
  5
3F6
100
AcDbEntity
  8
0
100
AcDbBlockBegin
  2
CDWK_EXTR_1G
 70
     0
 10
0.0
 20
0.0
 30
0.0
  3
CDWK_EXTR_1G
  1

  4
Cadwork line-extremity
  0
LINE
  5
3F7
100
AcDbEntity
  8
0
 62
     0
370
    -2
100
AcDbLine
 10
0.0
 20
0.0
 30
0.0
 11
0.0
 21
-1.0
 31
0.0
  0
LINE
  5
3F8
100
AcDbEntity
  8
0
 62
     0
370
    -2
100
AcDbLine
 10
0.0
 20
-1.0
 30
0.0
 11
0.5
 21
-1.5
 31
0.0
  0
LINE
  5
3F9
100
AcDbEntity
  8
0
 62
     0
370
    -2
100
AcDbLine
 10
0.5
 20
-1.5
 30
0.0
 11
1.5
 21
-1.5
 31
0.0
  0
ENDBLK
  5
3FA
100
AcDbEntity
100
AcDbBlockEnd
  0
BLOCK
  5
3FB
100
AcDbEntity
  8
0
100
AcDbBlockBegin
  2
CDWK_EXTR_2
 70
     0
 10
0.0
 20
0.0
 30
0.0
  3
CDWK_EXTR_2
  1

  4
Cadwork line-extremity
  0
SOLID
  5
3FC
100
AcDbEntity
  8
0
 62
     0
100
AcDbTrace
 10
0.0
 20
0.0
 11
2.0
 21
0.5
 12
2.0
 22
-0.5
 13
2.0
 23
-0.5
  0
ENDBLK
  5
3FD
100
AcDbEntity
100
AcDbBlockEnd
  0
BLOCK
  5
3FE
100
AcDbEntity
  8
0
100
AcDbBlockBegin
  2
CDWK_EXTR_3
 70
     0
 10
0.0
 20
0.0
 30
0.0
  3
CDWK_EXTR_3
  1

  4
Cadwork line-extremity
  0
SOLID
  5
3FF
100
AcDbEntity
  8
0
 62
     0
100
AcDbTrace
 10
0.0
 20
0.0
 11
2.0
 21
0.5
 12
2.0
 22
-0.5
 13
2.0
 23
-0.5
  0
LINE
  5
400
100
AcDbEntity
  8
0
 62
     0
370
    -2
100
AcDbLine
 10
0.0
 20
1.0
 30
0.0
 11
0.0
 21
-1.0
 31
0.0
  0
ENDBLK
  5
401
100
AcDbEntity
100
AcDbBlockEnd
  0
BLOCK
  5
402
100
AcDbEntity
  8
0
100
AcDbBlockBegin
  2
CDWK_EXTR_4
 70
     0
 10
0.0
 20
0.0
 30
0.0
  3
CDWK_EXTR_4
  1

  4
Cadwork line-extremity
  0
HATCH
  5
403
100
AcDbEntity
  8
0
 62
     0
370
    -2
100
AcDbHatch
 10
0.0
 20
0.0
 30
0.0
210
0.0
220
0.0
230
1.0
  2
SOLID
 70
     1
 71
     0
 91
        1
 92
        1
 93
        1
 72
     2
 10
0.0
 20
0.0
 40
0.5
 50
0.0
 51
360.0
 73
     1
 97
        0
 75
     0
 76
     1
 98
        1
 10
0.0
 20
0.0
  0
ENDBLK
  5
404
100
AcDbEntity
100
AcDbBlockEnd
  0
BLOCK
  5
405
100
AcDbEntity
  8
0
100
AcDbBlockBegin
  2
CDWK_PTTYP0
 70
     0
 10
0.0
 20
0.0
 30
0.0
  3
CDWK_PTTYP0
  1

  4
Cadwork point
  0
POINT
  5
406
100
AcDbEntity
  8
0
 62
     0
100
AcDbPoint
 10
0.0
 20
0.0
 30
0.0
  0
ENDBLK
  5
407
100
AcDbEntity
100
AcDbBlockEnd
  0
BLOCK
  5
408
100
AcDbEntity
  8
0
100
AcDbBlockBegin
  2
CDWK_PTTYP1
 70
     0
 10
0.0
 20
0.0
 30
0.0
  3
CDWK_PTTYP1
  1

  4
Cadwork node
  0
LINE
  5
409
100
AcDbEntity
  8
0
 62
     0
370
    -2
100
AcDbLine
 10
-0.5
 20
0.5
 30
0.0
 11
0.5
 21
0.5
 31
0.0
  0
LINE
  5
40A
100
AcDbEntity
  8
0
 62
     0
370
    -2
100
AcDbLine
 10
0.5
 20
0.5
 30
0.0
 11
0.5
 21
-0.5
 31
0.0
  0
LINE
  5
40B
100
AcDbEntity
  8
0
 62
     0
370
    -2
100
AcDbLine
 10
0.5
 20
-0.5
 30
0.0
 11
-0.5
 21
-0.5
 31
0.0
  0
LINE
  5
40C
100
AcDbEntity
  8
0
 62
     0
370
    -2
100
AcDbLine
 10
-0.5
 20
-0.5
 30
0.0
 11
-0.5
 21
0.5
 31
0.0
  0
ENDBLK
  5
40D
100
AcDbEntity
100
AcDbBlockEnd
  0
BLOCK
  5
40E
100
AcDbEntity
  8
0
100
AcDbBlockBegin
  2
CDWK_PTTYP2
 70
     0
 10
0.0
 20
0.0
 30
0.0
  3
CDWK_PTTYP2
  1

  4
Cadwork node
  0
LINE
  5
40F
100
AcDbEntity
  8
0
 62
     0
370
    -2
100
AcDbLine
 10
0.0
 20
0.5
 30
0.0
 11
0.0
 21
-0.5
 31
0.0
  0
LINE
  5
410
100
AcDbEntity
  8
0
 62
     0
370
    -2
100
AcDbLine
 10
-0.5
 20
0.0
 30
0.0
 11
0.5
 21
0.0
 31
0.0
  0
ENDBLK
  5
411
100
AcDbEntity
100
AcDbBlockEnd
  0
BLOCK
  5
412
100
AcDbEntity
  8
0
100
AcDbBlockBegin
  2
CDWK_PTTYP3
 70
     0
 10
0.0
 20
0.0
 30
0.0
  3
CDWK_PTTYP3
  1

  4
Cadwork node
  0
CIRCLE
  5
413
100
AcDbEntity
  8
0
 62
     0
370
    -2
100
AcDbCircle
 10
0.0
 20
0.0
 30
0.0
 40
0.5
  0
ENDBLK
  5
414
100
AcDbEntity
100
AcDbBlockEnd
  0
BLOCK
  5
415
100
AcDbEntity
  8
0
100
AcDbBlockBegin
  2
CDWK_PTTYP4
 70
     0
 10
0.0
 20
0.0
 30
0.0
  3
CDWK_PTTYP4
  1

  4
Cadwork node
  0
HATCH
  5
416
100
AcDbEntity
  8
0
 62
     0
370
    -2
100
AcDbHatch
 10
0.0
 20
0.0
 30
0.0
210
0.0
220
0.0
230
1.0
  2
SOLID
 70
     1
 71
     0
 91
        1
 92
        1
 93
        1
 72
     2
 10
0.0
 20
0.0
 40
0.5
 50
0.0
 51
360.0
 73
     1
 97
        0
 75
     0
 76
     1
 98
        1
 10
0.0
 20
0.0
  0
ENDBLK
  5
417
100
AcDbEntity
100
AcDbBlockEnd
  0
BLOCK
  5
418
100
AcDbEntity
  8
0
100
AcDbBlockBegin
  2
CDWK_PTTYP5
 70
     0
 10
0.0
 20
0.0
 30
0.0
  3
CDWK_PTTYP5
  1

  4
Cadwork node
  0
LINE
  5
419
100
AcDbEntity
  8
0
 62
     0
370
    -2
100
AcDbLine
 10
-0.5
 20
0.5
 30
0.0
 11
0.5
 21
0.5
 31
0.0
  0
LINE
  5
41A
100
AcDbEntity
  8
0
 62
     0
370
    -2
100
AcDbLine
 10
0.5
 20
0.5
 30
0.0
 11
0.5
 21
-0.5
 31
0.0
  0
LINE
  5
41B
100
AcDbEntity
  8
0
 62
     0
370
    -2
100
AcDbLine
 10
0.5
 20
-0.5
 30
0.0
 11
-0.5
 21
-0.5
 31
0.0
  0
LINE
  5
41C
100
AcDbEntity
  8
0
 62
     0
370
    -2
100
AcDbLine
 10
-0.5
 20
-0.5
 30
0.0
 11
-0.5
 21
0.5
 31
0.0
  0
SOLID
  5
41D
100
AcDbEntity
  8
0
 62
     0
100
AcDbTrace
 10
-0.5
 20
-0.5
 11
-0.5
 21
0.0
 12
0.0
 22
-0.5
 13
0.0
 23
0.0
  0
SOLID
  5
41E
100
AcDbEntity
  8
0
 62
     0
100
AcDbTrace
 10
0.0
 20
0.0
 11
0.0
 21
0.5
 12
0.5
 22
0.0
 13
0.5
 23
0.5
  0
ENDBLK
  5
41F
100
AcDbEntity
100
AcDbBlockEnd
  0
BLOCK
  5
420
100
AcDbEntity
  8
0
100
AcDbBlockBegin
  2
CDWK_PTTYP6
 70
     0
 10
0.0
 20
0.0
 30
0.0
  3
CDWK_PTTYP6
  1

  4
Cadwork node
  0
LINE
  5
421
100
AcDbEntity
  8
0
 62
     0
370
    -2
100
AcDbLine
 10
-0.5
 20
0.5
 30
0.0
 11
0.5
 21
0.5
 31
0.0
  0
LINE
  5
422
100
AcDbEntity
  8
0
 62
     0
370
    -2
100
AcDbLine
 10
0.5
 20
0.5
 30
0.0
 11
0.5
 21
-0.5
 31
0.0
  0
LINE
  5
423
100
AcDbEntity
  8
0
 62
     0
370
    -2
100
AcDbLine
 10
0.5
 20
-0.5
 30
0.0
 11
-0.5
 21
-0.5
 31
0.0
  0
LINE
  5
424
100
AcDbEntity
  8
0
 62
     0
370
    -2
100
AcDbLine
 10
-0.5
 20
-0.5
 30
0.0
 11
-0.5
 21
0.5
 31
0.0
  0
SOLID
  5
425
100
AcDbEntity
  8
0
 62
     0
100
AcDbTrace
 10
-0.5
 20
-0.5
 11
-0.5
 21
0.5
 12
0.5
 22
0.5
 13
0.5
 23
0.5
  0
ENDBLK
  5
426
100
AcDbEntity
100
AcDbBlockEnd
  0
BLOCK
  5
427
100
AcDbEntity
  8
0
100
AcDbBlockBegin
  2
CDWK_PTTYP7
 70
     0
 10
0.0
 20
0.0
 30
0.0
  3
CDWK_PTTYP7
  1

  4
Cadwork node
  0
LINE
  5
428
100
AcDbEntity
  8
0
 62
     0
370
    -2
100
AcDbLine
 10
-0.5
 20
0.5
 30
0.0
 11
0.5
 21
0.5
 31
0.0
  0
LINE
  5
429
100
AcDbEntity
  8
0
 62
     0
370
    -2
100
AcDbLine
 10
0.5
 20
0.5
 30
0.0
 11
0.5
 21
-0.5
 31
0.0
  0
LINE
  5
42A
100
AcDbEntity
  8
0
 62
     0
370
    -2
100
AcDbLine
 10
0.5
 20
-0.5
 30
0.0
 11
-0.5
 21
-0.5
 31
0.0
  0
LINE
  5
42B
100
AcDbEntity
  8
0
 62
     0
370
    -2
100
AcDbLine
 10
-0.5
 20
-0.5
 30
0.0
 11
-0.5
 21
0.5
 31
0.0
  0
LINE
  5
42C
100
AcDbEntity
  8
0
 62
     0
370
    -2
100
AcDbLine
 10
0.0
 20
0.5
 30
0.0
 11
0.0
 21
-0.5
 31
0.0
  0
LINE
  5
42D
100
AcDbEntity
  8
0
 62
     0
370
    -2
100
AcDbLine
 10
-0.5
 20
0.0
 30
0.0
 11
0.5
 21
0.0
 31
0.0
  0
ENDBLK
  5
42E
100
AcDbEntity
100
AcDbBlockEnd
  0
BLOCK
  5
42F
100
AcDbEntity
  8
0
100
AcDbBlockBegin
  2
CDWK_PTTYP8
 70
     0
 10
0.0
 20
0.0
 30
0.0
  3
CDWK_PTTYP8
  1

  4
Cadwork node
  0
SOLID
  5
430
100
AcDbEntity
  8
0
 62
     0
100
AcDbTrace
 10
-0.5
 20
0.5
 11
0.5
 21
0.5
 12
-0.5
 22
-0.5
 13
0.5
 23
-0.5
  0
ENDBLK
  5
431
100
AcDbEntity
100
AcDbBlockEnd
  0
BLOCK
  5
432
100
AcDbEntity
  8
0
100
AcDbBlockBegin
  2
CDWK_PTTYP9
 70
     0
 10
0.0
 20
0.0
 30
0.0
  3
CDWK_PTTYP9
  1

  4
Cadwork node
  0
CIRCLE
  5
433
100
AcDbEntity
  8
0
 62
     0
370
    -2
100
AcDbCircle
 10
0.0
 20
0.0
 30
0.0
 40
0.5
  0
CIRCLE
  5
434
100
AcDbEntity
  8
0
 62
     0
370
    -2
100
AcDbCircle
 10
0.0
 20
0.0
 30
0.0
 40
0.16666667
  0
ENDBLK
  5
435
100
AcDbEntity
100
AcDbBlockEnd
  0
BLOCK
  5
436
100
AcDbEntity
  8
0
100
AcDbBlockBegin
  2
CDWK_PTTYP10
 70
     0
 10
0.0
 20
0.0
 30
0.0
  3
CDWK_PTTYP10
  1

  4
Cadwork node
  0
CIRCLE
  5
437
100
AcDbEntity
  8
0
 62
     0
370
    -2
100
AcDbCircle
 10
0.0
 20
0.0
 30
0.0
 40
0.5
  0
ENDBLK
  5
438
100
AcDbEntity
100
AcDbBlockEnd
  0
BLOCK
  5
439
100
AcDbEntity
  8
0
100
AcDbBlockBegin
  2
CDWK_PTTYP11
 70
     0
 10
0.0
 20
0.0
 30
0.0
  3
CDWK_PTTYP11
  1

  4
Cadwork node
  0
CIRCLE
  5
43A
100
AcDbEntity
  8
0
 62
     0
370
    -2
100
AcDbCircle
 10
0.0
 20
0.0
 30
0.0
 40
0.5
  0
CIRCLE
  5
43B
100
AcDbEntity
  8
0
 62
     0
370
    -2
100
AcDbCircle
 10
0.0
 20
0.0
 30
0.0
 40
0.25
  0
ENDBLK
  5
43C
100
AcDbEntity
100
AcDbBlockEnd
  0
BLOCK
  5
43D
100
AcDbEntity
  8
0
100
AcDbBlockBegin
  2
CDWK_PTTYP12
 70
     0
 10
0.0
 20
0.0
 30
0.0
  3
CDWK_PTTYP12
  1

  4
Cadwork node
  0
CIRCLE
  5
43E
100
AcDbEntity
  8
0
 62
     0
370
    -2
100
AcDbCircle
 10
0.0
 20
0.0
 30
0.0
 40
0.5
  0
CIRCLE
  5
43F
100
AcDbEntity
  8
0
 62
     0
370
    -2
100
AcDbCircle
 10
0.25
 20
0.0
 30
0.0
 40
0.25
  0
ENDBLK
  5
440
100
AcDbEntity
100
AcDbBlockEnd
  0
BLOCK
  5
441
100
AcDbEntity
  8
0
100
AcDbBlockBegin
  2
CDWK_PTTYP13
 70
     0
 10
0.0
 20
0.0
 30
0.0
  3
CDWK_PTTYP13
  1

  4
Cadwork node
  0
CIRCLE
  5
442
100
AcDbEntity
  8
0
 62
     0
370
    -2
100
AcDbCircle
 10
0.0
 20
0.0
 30
0.0
 40
0.5
  0
CIRCLE
  5
443
100
AcDbEntity
  8
0
 62
     0
370
    -2
100
AcDbCircle
 10
0.25
 20
0.0
 30
0.0
 40
0.25
  0
CIRCLE
  5
444
100
AcDbEntity
  8
0
 62
     0
370
    -2
100
AcDbCircle
 10
-0.25
 20
0.0
 30
0.0
 40
0.25
  0
ENDBLK
  5
445
100
AcDbEntity
100
AcDbBlockEnd
  0
BLOCK
  5
446
100
AcDbEntity
  8
0
100
AcDbBlockBegin
  2
CDWK_PTTYP14
 70
     0
 10
0.0
 20
0.0
 30
0.0
  3
CDWK_PTTYP14
  1

  4
Cadwork node
  0
POINT
  5
447
100
AcDbEntity
  8
0
 62
     0
100
AcDbPoint
 10
0.0
 20
0.0
 30
0.0
  0
ENDBLK
  5
448
100
AcDbEntity
100
AcDbBlockEnd
  0
BLOCK
  5
449
100
AcDbEntity
  8
0
100
AcDbBlockBegin
  2
CDWK_PTTYP15
 70
     0
 10
0.0
 20
0.0
 30
0.0
  3
CDWK_PTTYP15
  1

  4
Cadwork node
  0
POINT
  5
44A
100
AcDbEntity
  8
0
 62
     0
100
AcDbPoint
 10
0.0
 20
0.0
 30
0.0
  0
ENDBLK
  5
44B
100
AcDbEntity
100
AcDbBlockEnd
  0
BLOCK
  5
44C
100
AcDbEntity
  8
0
100
AcDbBlockBegin
  2
CDWK_PTTYP16
 70
     0
 10
0.0
 20
0.0
 30
0.0
  3
CDWK_PTTYP16
  1

  4
Cadwork node
  0
LINE
  5
44D
100
AcDbEntity
  8
0
 62
     0
370
    -2
100
AcDbLine
 10
-0.5
 20
-0.28867513
 30
0.0
 11
0.5
 21
-0.28867513
 31
0.0
  0
LINE
  5
44E
100
AcDbEntity
  8
0
 62
     0
370
    -2
100
AcDbLine
 10
0.5
 20
-0.28867513
 30
0.0
 11
0.0
 21
0.57735027
 31
0.0
  0
LINE
  5
44F
100
AcDbEntity
  8
0
 62
     0
370
    -2
100
AcDbLine
 10
0.0
 20
0.57735027
 30
0.0
 11
-0.5
 21
-0.28867513
 31
0.0
  0
CIRCLE
  5
450
100
AcDbEntity
  8
0
 62
     0
370
    -2
100
AcDbCircle
 10
0.0
 20
0.0
 30
0.0
 40
0.28867513
  0
ENDBLK
  5
451
100
AcDbEntity
100
AcDbBlockEnd
  0
BLOCK
  5
452
100
AcDbEntity
  8
0
100
AcDbBlockBegin
  2
CDWK_PTTYP17
 70
     0
 10
0.0
 20
0.0
 30
0.0
  3
CDWK_PTTYP17
  1

  4
Cadwork node
  0
CIRCLE
  5
453
100
AcDbEntity
  8
0
 62
     0
370
    -2
100
AcDbCircle
 10
0.0
 20
0.0
 30
0.0
 40
0.5
  0
HATCH
  5
454
100
AcDbEntity
  8
0
 62
     0
370
    -2
100
AcDbHatch
 10
0.0
 20
0.0
 30
0.0
210
0.0
220
0.0
230
1.0
  2
SOLID
 70
     1
 71
     0
 91
        1
 92
        1
 93
        1
 72
     2
 10
0.0
 20
0.0
 40
0.25
 50
0.0
 51
360.0
 73
     1
 97
        0
 75
     0
 76
     1
 98
        1
 10
0.0
 20
0.0
  0
ENDBLK
  5
455
100
AcDbEntity
100
AcDbBlockEnd
  0
BLOCK
  5
456
100
AcDbEntity
  8
0
100
AcDbBlockBegin
  2
CDWK_PTTYP18
 70
     0
 10
0.0
 20
0.0
 30
0.0
  3
CDWK_PTTYP18
  1

  4
Cadwork node
  0
CIRCLE
  5
457
100
AcDbEntity
  8
0
 62
     0
370
    -2
100
AcDbCircle
 10
0.0
 20
0.0
 30
0.0
 40
0.5
  0
CIRCLE
  5
458
100
AcDbEntity
  8
0
 62
     0
370
    -2
100
AcDbCircle
 10
0.0
 20
0.0
 30
0.0
 40
0.2
  0
ENDBLK
  5
459
100
AcDbEntity
100
AcDbBlockEnd
  0
BLOCK
  5
45A
100
AcDbEntity
  8
0
100
AcDbBlockBegin
  2
CDWK_PTTYP19
 70
     0
 10
0.0
 20
0.0
 30
0.0
  3
CDWK_PTTYP19
  1

  4
Cadwork node
  0
CIRCLE
  5
45B
100
AcDbEntity
  8
0
 62
     0
370
    -2
100
AcDbCircle
 10
0.0
 20
0.0
 30
0.0
 40
0.4
  0
CIRCLE
  5
45C
100
AcDbEntity
  8
0
 62
     0
370
    -2
100
AcDbCircle
 10
0.0
 20
0.0
 30
0.0
 40
0.25
  0
LINE
  5
45D
100
AcDbEntity
  8
0
 62
     0
370
    -2
100
AcDbLine
 10
-0.25
 20
0.0
 30
0.0
 11
0.25
 21
0.0
 31
0.0
  0
ENDBLK
  5
45E
100
AcDbEntity
100
AcDbBlockEnd
  0
BLOCK
  5
45F
100
AcDbEntity
  8
0
100
AcDbBlockBegin
  2
CDWK_PTTYP20
 70
     0
 10
0.0
 20
0.0
 30
0.0
  3
CDWK_PTTYP20
  1

  4
Cadwork node
  0
CIRCLE
  5
460
100
AcDbEntity
  8
0
 62
     0
370
    -2
100
AcDbCircle
 10
0.0
 20
0.0
 30
0.0
 40
0.5
  0
CIRCLE
  5
461
100
AcDbEntity
  8
0
 62
     0
370
    -2
100
AcDbCircle
 10
0.0
 20
0.0
 30
0.0
 40
0.3
  0
ENDBLK
  5
462
100
AcDbEntity
100
AcDbBlockEnd
  0
BLOCK
  5
463
100
AcDbEntity
  8
0
100
AcDbBlockBegin
  2
CDWK_PTTYP21
 70
     0
 10
0.0
 20
0.0
 30
0.0
  3
CDWK_PTTYP21
  1

  4
Cadwork node
  0
CIRCLE
  5
464
100
AcDbEntity
  8
0
 62
     0
370
    -2
100
AcDbCircle
 10
0.0
 20
0.0
 30
0.0
 40
0.5
  0
LINE
  5
465
100
AcDbEntity
  8
0
 62
     0
370
    -2
100
AcDbLine
 10
-0.5
 20
0.0
 30
0.0
 11
0.5
 21
0.0
 31
0.0
  0
ENDBLK
  5
466
100
AcDbEntity
100
AcDbBlockEnd
  0
BLOCK
  5
467
100
AcDbEntity
  8
0
100
AcDbBlockBegin
  2
CDWK_PTTYP22
 70
     0
 10
0.0
 20
0.0
 30
0.0
  3
CDWK_PTTYP22
  1

  4
Cadwork node
  0
POINT
  5
468
100
AcDbEntity
  8
0
 62
     0
100
AcDbPoint
 10
0.0
 20
0.0
 30
0.0
  0
ENDBLK
  5
469
100
AcDbEntity
100
AcDbBlockEnd
  0
BLOCK
  5
46A
100
AcDbEntity
  8
0
100
AcDbBlockBegin
  2
CDWK_PTTYP23
 70
     0
 10
0.0
 20
0.0
 30
0.0
  3
CDWK_PTTYP23
  1

  4
Cadwork node
  0
POINT
  5
46B
100
AcDbEntity
  8
0
 62
     0
100
AcDbPoint
 10
0.0
 20
0.0
 30
0.0
  0
ENDBLK
  5
46C
100
AcDbEntity
100
AcDbBlockEnd
  0
BLOCK
  5
46D
100
AcDbEntity
  8
0
100
AcDbBlockBegin
  2
CDWK_PTTYP24
 70
     0
 10
0.0
 20
0.0
 30
0.0
  3
CDWK_PTTYP24
  1

  4
Cadwork node
  0
POINT
  5
46E
100
AcDbEntity
  8
0
 62
     0
100
AcDbPoint
 10
0.0
 20
0.0
 30
0.0
  0
ENDBLK
  5
46F
100
AcDbEntity
100
AcDbBlockEnd
  0
BLOCK
  5
470
100
AcDbEntity
  8
0
100
AcDbBlockBegin
  2
CDWK_PTTYP25
 70
     0
 10
0.0
 20
0.0
 30
0.0
  3
CDWK_PTTYP25
  1

  4
Cadwork node
  0
LINE
  5
471
100
AcDbEntity
  8
0
 62
     0
370
    -2
100
AcDbLine
 10
-0.43290044
 20
-0.25
 30
0.0
 11
0.43290044
 21
-0.25
 31
0.0
  0
LINE
  5
472
100
AcDbEntity
  8
0
 62
     0
370
    -2
100
AcDbLine
 10
-0.43290044
 20
-0.25
 30
0.0
 11
0.0
 21
0.5
 31
0.0
  0
LINE
  5
473
100
AcDbEntity
  8
0
 62
     0
370
    -2
100
AcDbLine
 10
0.43290044
 20
-0.25
 30
0.0
 11
0.0
 21
0.5
 31
0.0
  0
CIRCLE
  5
474
100
AcDbEntity
  8
0
 62
     0
370
    -2
100
AcDbCircle
 10
0.0
 20
0.0
 30
0.0
 40
0.5
  0
ENDBLK
  5
475
100
AcDbEntity
100
AcDbBlockEnd
  0
BLOCK
  5
476
100
AcDbEntity
  8
0
100
AcDbBlockBegin
  2
CDWK_PTTYP26
 70
     0
 10
0.0
 20
0.0
 30
0.0
  3
CDWK_PTTYP26
  1

  4
Cadwork node
  0
LINE
  5
477
100
AcDbEntity
  8
0
 62
     0
370
    -2
100
AcDbLine
 10
-0.5
 20
-0.28850001
 30
0.0
 11
0.5
 21
-0.28850001
 31
0.0
  0
LINE
  5
478
100
AcDbEntity
  8
0
 62
     0
370
    -2
100
AcDbLine
 10
-0.5
 20
-0.28850001
 30
0.0
 11
0.0
 21
0.57736721
 31
0.0
  0
LINE
  5
479
100
AcDbEntity
  8
0
 62
     0
370
    -2
100
AcDbLine
 10
0.5
 20
-0.28850001
 30
0.0
 11
0.0
 21
0.57736721
 31
0.0
  0
CIRCLE
  5
47A
100
AcDbEntity
  8
0
 62
     0
370
    -2
100
AcDbCircle
 10
0.0
 20
0.0
 30
0.0
 40
0.1312336
  0
ENDBLK
  5
47B
100
AcDbEntity
100
AcDbBlockEnd
  0
BLOCK
  5
47C
100
AcDbEntity
  8
0
100
AcDbBlockBegin
  2
CDWK_PTTYP27
 70
     0
 10
0.0
 20
0.0
 30
0.0
  3
CDWK_PTTYP27
  1

  4
Cadwork node
  0
LINE
  5
47D
100
AcDbEntity
  8
0
 62
     0
370
    -2
100
AcDbLine
 10
-0.43290044
 20
-0.25
 30
0.0
 11
0.43290044
 21
-0.25
 31
0.0
  0
LINE
  5
47E
100
AcDbEntity
  8
0
 62
     0
370
    -2
100
AcDbLine
 10
-0.43290044
 20
-0.25
 30
0.0
 11
0.0
 21
0.5
 31
0.0
  0
LINE
  5
47F
100
AcDbEntity
  8
0
 62
     0
370
    -2
100
AcDbLine
 10
0.43290044
 20
-0.25
 30
0.0
 11
0.0
 21
0.5
 31
0.0
  0
CIRCLE
  5
480
100
AcDbEntity
  8
0
 62
     0
370
    -2
100
AcDbCircle
 10
0.0
 20
0.0
 30
0.0
 40
0.5
  0
CIRCLE
  5
481
100
AcDbEntity
  8
0
 62
     0
370
    -2
100
AcDbCircle
 10
0.0
 20
0.0
 30
0.0
 40
0.1312336
  0
ENDBLK
  5
482
100
AcDbEntity
100
AcDbBlockEnd
  0
BLOCK
  5
483
100
AcDbEntity
  8
0
100
AcDbBlockBegin
  2
CDWK_PTTYP28
 70
     0
 10
0.0
 20
0.0
 30
0.0
  3
CDWK_PTTYP28
  1

  4
Cadwork node
  0
POINT
  5
484
100
AcDbEntity
  8
0
 62
     0
100
AcDbPoint
 10
0.0
 20
0.0
 30
0.0
  0
ENDBLK
  5
485
100
AcDbEntity
100
AcDbBlockEnd
  0
BLOCK
  5
486
100
AcDbEntity
  8
0
100
AcDbBlockBegin
  2
CDWK_PTTYP29
 70
     0
 10
0.0
 20
0.0
 30
0.0
  3
CDWK_PTTYP29
  1

  4
Cadwork node
  0
CIRCLE
  5
487
100
AcDbEntity
  8
0
 62
     0
370
    -2
100
AcDbCircle
 10
0.0
 20
0.0
 30
0.0
 40
0.5
  0
CIRCLE
  5
488
100
AcDbEntity
  8
0
 62
     0
370
    -2
100
AcDbCircle
 10
0.0
 20
0.0
 30
0.0
 40
0.375
  0
CIRCLE
  5
489
100
AcDbEntity
  8
0
 62
     0
370
    -2
100
AcDbCircle
 10
0.0
 20
0.0
 30
0.0
 40
0.21875
  0
ENDBLK
  5
48A
100
AcDbEntity
100
AcDbBlockEnd
  0
BLOCK
  5
48B
100
AcDbEntity
  8
0
100
AcDbBlockBegin
  2
CDWK_PTTYP30
 70
     0
 10
0.0
 20
0.0
 30
0.0
  3
CDWK_PTTYP30
  1

  4
Cadwork node
  0
LINE
  5
48C
100
AcDbEntity
  8
0
 62
     0
370
    -2
100
AcDbLine
 10
0.17680339
 20
0.17680339
 30
0.0
 11
0.5
 21
0.5
 31
0.0
  0
LINE
  5
48D
100
AcDbEntity
  8
0
 62
     0
370
    -2
100
AcDbLine
 10
-0.17680339
 20
0.17680339
 30
0.0
 11
-0.5
 21
0.5
 31
0.0
  0
LINE
  5
48E
100
AcDbEntity
  8
0
 62
     0
370
    -2
100
AcDbLine
 10
0.17680339
 20
-0.17680339
 30
0.0
 11
0.5
 21
-0.5
 31
0.0
  0
LINE
  5
48F
100
AcDbEntity
  8
0
 62
     0
370
    -2
100
AcDbLine
 10
-0.17680339
 20
-0.17680339
 30
0.0
 11
-0.5
 21
-0.5
 31
0.0
  0
ENDBLK
  5
490
100
AcDbEntity
100
AcDbBlockEnd
  0
BLOCK
  5
491
100
AcDbEntity
  8
0
100
AcDbBlockBegin
  2
CDWK_PTTYP31
 70
     0
 10
0.0
 20
0.0
 30
0.0
  3
CDWK_PTTYP31
  1

  4
Cadwork node
  0
CIRCLE
  5
492
100
AcDbEntity
  8
0
 62
     0
370
    -2
100
AcDbCircle
 10
0.0
 20
0.0
 30
0.0
 40
0.075
  0
LINE
  5
493
100
AcDbEntity
  8
0
 62
     0
370
    -2
100
AcDbLine
 10
0.075
 20
0.0
 30
0.0
 11
0.5
 21
0.0
 31
0.0
  0
LINE
  5
494
100
AcDbEntity
  8
0
 62
     0
370
    -2
100
AcDbLine
 10
-0.075
 20
0.0
 30
0.0
 11
-0.5
 21
0.0
 31
0.0
  0
LINE
  5
495
100
AcDbEntity
  8
0
 62
     0
370
    -2
100
AcDbLine
 10
0.0
 20
0.075
 30
0.0
 11
0.0
 21
0.5
 31
0.0
  0
LINE
  5
496
100
AcDbEntity
  8
0
 62
     0
370
    -2
100
AcDbLine
 10
0.0
 20
-0.075
 30
0.0
 11
0.0
 21
-0.5
 31
0.0
  0
ENDBLK
  5
497
100
AcDbEntity
100
AcDbBlockEnd
  0
BLOCK
  5
498
100
AcDbEntity
  8
0
100
AcDbBlockBegin
  2
CDWK_PTTYP32
 70
     0
 10
0.0
 20
0.0
 30
0.0
  3
CDWK_PTTYP32
  1

  4
Cadwork node
  0
CIRCLE
  5
499
100
AcDbEntity
  8
0
 62
     0
370
    -2
100
AcDbCircle
 10
0.0
 20
0.0
 30
0.0
 40
0.5
  0
CIRCLE
  5
49A
100
AcDbEntity
  8
0
 62
     0
370
    -2
100
AcDbCircle
 10
0.0
 20
0.0
 30
0.0
 40
0.16666667
  0
LINE
  5
49B
100
AcDbEntity
  8
0
 62
     0
370
    -2
100
AcDbLine
 10
0.11786893
 20
0.11786893
 30
0.0
 11
0.35360678
 21
0.35360678
 31
0.0
  0
LINE
  5
49C
100
AcDbEntity
  8
0
 62
     0
370
    -2
100
AcDbLine
 10
-0.11786893
 20
0.11786893
 30
0.0
 11
-0.35360678
 21
0.35360678
 31
0.0
  0
LINE
  5
49D
100
AcDbEntity
  8
0
 62
     0
370
    -2
100
AcDbLine
 10
0.11786893
 20
-0.11786893
 30
0.0
 11
0.35360678
 21
-0.35360678
 31
0.0
  0
LINE
  5
49E
100
AcDbEntity
  8
0
 62
     0
370
    -2
100
AcDbLine
 10
-0.11786893
 20
-0.11786893
 30
0.0
 11
-0.35360678
 21
-0.35360678
 31
0.0
  0
ENDBLK
  5
49F
100
AcDbEntity
100
AcDbBlockEnd
  0
BLOCK
  5
4A0
100
AcDbEntity
  8
0
100
AcDbBlockBegin
  2
CDWK_PTTYP33
 70
     0
 10
0.0
 20
0.0
 30
0.0
  3
CDWK_PTTYP33
  1

  4
Cadwork node
  0
CIRCLE
  5
4A1
100
AcDbEntity
  8
0
 62
     0
370
    -2
100
AcDbCircle
 10
0.0
 20
0.0
 30
0.0
 40
0.5
  0
LINE
  5
4A2
100
AcDbEntity
  8
0
 62
     0
370
    -2
100
AcDbLine
 10
0.0
 20
0.5
 30
0.0
 11
0.0
 21
-0.5
 31
0.0
  0
LINE
  5
4A3
100
AcDbEntity
  8
0
 62
     0
370
    -2
100
AcDbLine
 10
-0.5
 20
0.0
 30
0.0
 11
0.5
 21
0.0
 31
0.0
  0
ENDBLK
  5
4A4
100
AcDbEntity
100
AcDbBlockEnd
  0
BLOCK
  5
4A5
100
AcDbEntity
  8
0
100
AcDbBlockBegin
  2
CDWK_PTTYP34
 70
     0
 10
0.0
 20
0.0
 30
0.0
  3
CDWK_PTTYP34
  1

  4
Cadwork node
  0
CIRCLE
  5
4A6
100
AcDbEntity
  8
0
 62
     0
370
    -2
100
AcDbCircle
 10
0.0
 20
0.0
 30
0.0
 40
0.5
  0
LINE
  5
4A7
100
AcDbEntity
  8
0
 62
     0
370
    -2
100
AcDbLine
 10
-0.30360678
 20
-0.40360678
 30
0.0
 11
0.40360678
 21
0.30360678
 31
0.0
  0
LINE
  5
4A8
100
AcDbEntity
  8
0
 62
     0
370
    -2
100
AcDbLine
 10
-0.40360678
 20
-0.30360678
 30
0.0
 11
0.30360678
 21
0.40360678
 31
0.0
  0
ENDBLK
  5
4A9
100
AcDbEntity
100
AcDbBlockEnd
  0
BLOCK
  5
4AA
100
AcDbEntity
  8
0
100
AcDbBlockBegin
  2
CDWK_PTTYP35
 70
     0
 10
0.0
 20
0.0
 30
0.0
  3
CDWK_PTTYP35
  1

  4
Cadwork node
  0
CIRCLE
  5
4AB
100
AcDbEntity
  8
0
 62
     0
370
    -2
100
AcDbCircle
 10
0.0
 20
0.0
 30
0.0
 40
0.21431634
  0
LINE
  5
4AC
100
AcDbEntity
  8
0
 62
     0
370
    -2
100
AcDbLine
 10
0.0
 20
0.21431634
 30
0.0
 11
0.0
 21
0.5
 31
0.0
  0
LINE
  5
4AD
100
AcDbEntity
  8
0
 62
     0
370
    -2
100
AcDbLine
 10
0.0
 20
-0.21431634
 30
0.0
 11
0.0
 21
-0.5
 31
0.0
  0
ENDBLK
  5
4AE
100
AcDbEntity
100
AcDbBlockEnd
  0
BLOCK
  5
4AF
100
AcDbEntity
  8
0
100
AcDbBlockBegin
  2
CDWK_PTTYP36
 70
     0
 10
0.0
 20
0.0
 30
0.0
  3
CDWK_PTTYP36
  1

  4
Cadwork node
  0
LINE
  5
4B0
100
AcDbEntity
  8
0
 62
     0
370
    -2
100
AcDbLine
 10
-0.5
 20
-0.16666667
 30
0.0
 11
0.5
 21
-0.16666667
 31
0.0
  0
LINE
  5
4B1
100
AcDbEntity
  8
0
 62
     0
370
    -2
100
AcDbLine
 10
0.5
 20
-0.16666667
 30
0.0
 11
0.5
 21
0.16666667
 31
0.0
  0
LINE
  5
4B2
100
AcDbEntity
  8
0
 62
     0
370
    -2
100
AcDbLine
 10
0.5
 20
0.16666667
 30
0.0
 11
-0.5
 21
0.16666667
 31
0.0
  0
LINE
  5
4B3
100
AcDbEntity
  8
0
 62
     0
370
    -2
100
AcDbLine
 10
-0.5
 20
0.16666667
 30
0.0
 11
-0.5
 21
-0.16666667
 31
0.0
  0
SOLID
  5
4B4
100
AcDbEntity
  8
0
 62
     0
100
AcDbTrace
 10
-0.5
 20
-0.16666667
 11
0.5
 21
0.16666667
 12
0.5
 22
-0.16666667
 13
0.5
 23
-0.16666667
  0
ENDBLK
  5
4B5
100
AcDbEntity
100
AcDbBlockEnd
  0
BLOCK
  5
4B6
100
AcDbEntity
  8
0
100
AcDbBlockBegin
  2
CDWK_PTTYP37
 70
     0
 10
0.0
 20
0.0
 30
0.0
  3
CDWK_PTTYP37
  1

  4
Cadwork node
  0
CIRCLE
  5
4B7
100
AcDbEntity
  8
0
 62
     0
370
    -2
100
AcDbCircle
 10
0.0
 20
0.0
 30
0.0
 40
0.5
  0
SOLID
  5
4B8
100
AcDbEntity
  8
0
 62
     0
100
AcDbTrace
 10
0.0
 20
0.0
 11
0.35350001
 21
0.35350001
 12
0.5
 22
0.0
 13
0.46200001
 23
0.19149999
  0
SOLID
  5
4B9
100
AcDbEntity
  8
0
 62
     0
100
AcDbTrace
 10
0.0
 20
0.0
 11
0.35350001
 21
-0.35350001
 12
0.5
 22
0.0
 13
0.46200001
 23
-0.19149999
  0
SOLID
  5
4BA
100
AcDbEntity
  8
0
 62
     0
100
AcDbTrace
 10
0.0
 20
0.0
 11
0.0
 21
-0.5
 12
0.35350001
 22
-0.35350001
 13
0.19149999
 23
-0.46200001
  0
SOLID
  5
4BB
100
AcDbEntity
  8
0
 62
     0
100
AcDbTrace
 10
0.0
 20
0.0
 11
0.0
 21
-0.5
 12
-0.35350001
 22
-0.35350001
 13
-0.19149999
 23
-0.46200001
  0
ENDBLK
  5
4BC
100
AcDbEntity
100
AcDbBlockEnd
  0
BLOCK
  5
4BD
100
AcDbEntity
  8
0
100
AcDbBlockBegin
  2
CDWK_PTTYP38
 70
     0
 10
0.0
 20
0.0
 30
0.0
  3
CDWK_PTTYP38
  1

  4
Cadwork node
  0
CIRCLE
  5
4BE
100
AcDbEntity
  8
0
 62
     0
370
    -2
100
AcDbCircle
 10
0.0
 20
0.0
 30
0.0
 40
0.5
  0
SOLID
  5
4BF
100
AcDbEntity
  8
0
 62
     0
100
AcDbTrace
 10
0.0
 20
0.0
 11
0.35350001
 21
0.35350001
 12
0.0
 22
0.5
 13
0.19149999
 23
0.46200001
  0
SOLID
  5
4C0
100
AcDbEntity
  8
0
 62
     0
100
AcDbTrace
 10
0.0
 20
0.0
 11
0.5
 21
0.0
 12
0.35350001
 22
0.35350001
 13
0.46200001
 23
0.19149999
  0
SOLID
  5
4C1
100
AcDbEntity
  8
0
 62
     0
100
AcDbTrace
 10
0.0
 20
0.0
 11
0.0
 21
-0.5
 12
-0.35350001
 22
-0.35350001
 13
-0.19149999
 23
-0.46200001
  0
SOLID
  5
4C2
100
AcDbEntity
  8
0
 62
     0
100
AcDbTrace
 10
0.0
 20
0.0
 11
-0.5
 21
0.0
 12
-0.35350001
 22
-0.35350001
 13
-0.46200001
 23
-0.19149999
  0
ENDBLK
  5
4C3
100
AcDbEntity
100
AcDbBlockEnd
  0
BLOCK
  5
4C4
100
AcDbEntity
  8
Ech.1_10
100
AcDbBlockBegin
  2
*X1
 70
     1
 10
0.0
 20
0.0
 30
0.0
  3
*X1
  1

  4
Cadwork hatch
  0
LINE
  5
4C5
100
AcDbEntity
  8
Ech.1_10
 62
   190
  6
CONTINUOUS
370
    -2
100
AcDbLine
 10
68501.56592862
 20
-63226.15619669
 30
0.0
 11
68546.5660885
 21
-63006.15636637
 31
0.0
  0
LINE
  5
4C6
100
AcDbEntity
  8
Ech.1_10
 62
   190
  6
CONTINUOUS
370
    -2
100
AcDbLine
 10
68546.5660885
 20
-63226.15619669
 30
0.0
 11
68501.56592862
 21
-63006.15636637
 31
0.0
  0
ENDBLK
  5
4C7
100
AcDbEntity
100
AcDbBlockEnd
  0
BLOCK
  5
4C8
100
AcDbEntity
  8
Ech.1_10
100
AcDbBlockBegin
  2
*X2
 70
     1
 10
0.0
 20
0.0
 30
0.0
  3
*X2
  1

  4
Cadwork hatch
  0
LINE
  5
4C9
100
AcDbEntity
  8
Ech.1_10
 62
   190
  6
CONTINUOUS
370
    -2
100
AcDbLine
 10
68501.56592862
 20
-62562.15650125
 30
0.0
 11
68356.57302384
 21
-62517.15634138
 31
0.0
  0
LINE
  5
4CA
100
AcDbEntity
  8
Ech.1_10
 62
   190
  6
CONTINUOUS
370
    -2
100
AcDbLine
 10
68501.56592862
 20
-62517.15634138
 30
0.0
 11
68356.57302384
 21
-62562.15650125
 31
0.0
  0
ENDBLK
  5
4CB
100
AcDbEntity
100
AcDbBlockEnd
  0
BLOCK
  5
4CC
100
AcDbEntity
  8
Ech.1_10
100
AcDbBlockBegin
  2
*X3
 70
     1
 10
0.0
 20
0.0
 30
0.0
  3
*X3
  1

  4
Cadwork hatch
  0
LINE
  5
4CD
100
AcDbEntity
  8
Ech.1_10
 62
   190
  6
CONTINUOUS
370
    -2
100
AcDbLine
 10
68501.56592862
 20
-62687.15646971
 30
0.0
 11
68356.57302384
 21
-62642.15630983
 31
0.0
  0
LINE
  5
4CE
100
AcDbEntity
  8
Ech.1_10
 62
   190
  6
CONTINUOUS
370
    -2
100
AcDbLine
 10
68501.56592862
 20
-62642.15630983
 30
0.0
 11
68356.57302384
 21
-62687.15646971
 31
0.0
  0
ENDBLK
  5
4CF
100
AcDbEntity
100
AcDbBlockEnd
  0
BLOCK
  5
4D0
100
AcDbEntity
  8
Ech.1_10
100
AcDbBlockBegin
  2
*X4
 70
     1
 10
0.0
 20
0.0
 30
0.0
  3
*X4
  1

  4
Cadwork hatch
  0
LINE
  5
4D1
100
AcDbEntity
  8
Ech.1_10
 62
   190
  6
CONTINUOUS
370
    -2
100
AcDbLine
 10
69543.08408859
 20
-63226.15619669
 30
0.0
 11
69498.08392871
 21
-63006.15636637
 31
0.0
  0
LINE
  5
4D2
100
AcDbEntity
  8
Ech.1_10
 62
   190
  6
CONTINUOUS
370
    -2
100
AcDbLine
 10
69498.08392871
 20
-63226.15619669
 30
0.0
 11
69543.08408859
 21
-63006.15636637
 31
0.0
  0
ENDBLK
  5
4D3
100
AcDbEntity
100
AcDbBlockEnd
  0
BLOCK
  5
4D4
100
AcDbEntity
  8
Ech.1_10
100
AcDbBlockBegin
  2
*X5
 70
     1
 10
0.0
 20
0.0
 30
0.0
  3
*X5
  1

  4
Cadwork hatch
  0
LINE
  5
4D5
100
AcDbEntity
  8
Ech.1_10
 62
   190
  6
CONTINUOUS
370
    -2
100
AcDbLine
 10
69447.07918129
 20
-62562.15650125
 30
0.0
 11
69542.07951881
 21
-62517.15634138
 31
0.0
  0
LINE
  5
4D6
100
AcDbEntity
  8
Ech.1_10
 62
   190
  6
CONTINUOUS
370
    -2
100
AcDbLine
 10
69447.07918129
 20
-62517.15634138
 30
0.0
 11
69542.07951881
 21
-62562.15650125
 31
0.0
  0
ENDBLK
  5
4D7
100
AcDbEntity
100
AcDbBlockEnd
  0
BLOCK
  5
4D8
100
AcDbEntity
  8
Ech.1_10
100
AcDbBlockBegin
  2
*X6
 70
     1
 10
0.0
 20
0.0
 30
0.0
  3
*X6
  1

  4
Cadwork hatch
  0
LINE
  5
4D9
100
AcDbEntity
  8
Ech.1_10
 62
   190
  6
CONTINUOUS
370
    -2
100
AcDbLine
 10
69447.07918129
 20
-62687.15646971
 30
0.0
 11
69542.07951881
 21
-62642.15630983
 31
0.0
  0
LINE
  5
4DA
100
AcDbEntity
  8
Ech.1_10
 62
   190
  6
CONTINUOUS
370
    -2
100
AcDbLine
 10
69447.07918129
 20
-62642.15630983
 30
0.0
 11
69542.07951881
 21
-62687.15646971
 31
0.0
  0
ENDBLK
  5
4DB
100
AcDbEntity
100
AcDbBlockEnd
  0
BLOCK
  5
4DC
100
AcDbEntity
  8
Ech.1_10
100
AcDbBlockBegin
  2
*X7
 70
     1
 10
0.0
 20
0.0
 30
0.0
  3
*X7
  1

  4
Cadwork hatch
  0
LINE
  5
4DD
100
AcDbEntity
  8
Ech.1_10
 62
   190
  6
CONTINUOUS
370
    -2
100
AcDbLine
 10
69498.08392871
 20
-63226.15619669
 30
0.0
 11
69453.08376884
 21
-63006.15636637
 31
0.0
  0
LINE
  5
4DE
100
AcDbEntity
  8
Ech.1_10
 62
   190
  6
CONTINUOUS
370
    -2
100
AcDbLine
 10
69453.08376884
 20
-63226.15619669
 30
0.0
 11
69498.08392871
 21
-63006.15636637
 31
0.0
  0
ENDBLK
  5
4DF
100
AcDbEntity
100
AcDbBlockEnd
  0
BLOCK
  5
4E0
100
AcDbEntity
  8
Ech.1_10
100
AcDbBlockBegin
  2
*X8
 70
     1
 10
0.0
 20
0.0
 30
0.0
  3
*X8
  1

  4
Cadwork hatch
  0
LINE
  5
4E1
100
AcDbEntity
  8
Ech.1_10
 62
   190
  6
CONTINUOUS
370
    -2
100
AcDbLine
 10
69447.07918129
 20
-62987.1561086
 30
0.0
 11
69542.07951881
 21
-62942.15642437
 31
0.0
  0
LINE
  5
4E2
100
AcDbEntity
  8
Ech.1_10
 62
   190
  6
CONTINUOUS
370
    -2
100
AcDbLine
 10
69447.07918129
 20
-62942.15642437
 30
0.0
 11
69542.07951881
 21
-62987.1561086
 31
0.0
  0
ENDBLK
  5
4E3
100
AcDbEntity
100
AcDbBlockEnd
  0
BLOCK
  5
4E4
100
AcDbEntity
  8
Ech.1_10
100
AcDbBlockBegin
  2
*X9
 70
     1
 10
0.0
 20
0.0
 30
0.0
  3
*X9
  1

  4
Cadwork hatch
  0
LINE
  5
4E5
100
AcDbEntity
  8
Ech.1_10
 62
   190
  6
CONTINUOUS
370
    -2
100
AcDbLine
 10
68501.56592862
 20
-63775.25727234
 30
0.0
 11
68356.57302384
 21
-63730.25711247
 31
0.0
  0
LINE
  5
4E6
100
AcDbEntity
  8
Ech.1_10
 62
   190
  6
CONTINUOUS
370
    -2
100
AcDbLine
 10
68501.56592862
 20
-63730.25711247
 30
0.0
 11
68356.57302384
 21
-63775.25727234
 31
0.0
  0
ENDBLK
  5
4E7
100
AcDbEntity
100
AcDbBlockEnd
  0
BLOCK
  5
4E8
100
AcDbEntity
  8
Ech.1_10
100
AcDbBlockBegin
  2
*X10
 70
     1
 10
0.0
 20
0.0
 30
0.0
  3
*X10
  1

  4
Cadwork hatch
  0
LINE
  5
4E9
100
AcDbEntity
  8
Ech.1_10
 62
   190
  6
CONTINUOUS
370
    -2
100
AcDbLine
 10
68501.56592862
 20
-64059.25704465
 30
0.0
 11
68356.57302384
 21
-64014.25736043
 31
0.0
  0
LINE
  5
4EA
100
AcDbEntity
  8
Ech.1_10
 62
   190
  6
CONTINUOUS
370
    -2
100
AcDbLine
 10
68501.56592862
 20
-64014.25736043
 30
0.0
 11
68356.57302384
 21
-64059.25704465
 31
0.0
  0
ENDBLK
  5
4EB
100
AcDbEntity
100
AcDbBlockEnd
  0
BLOCK
  5
4EC
100
AcDbEntity
  8
Ech.1_10
100
AcDbBlockBegin
  2
*X11
 70
     1
 10
0.0
 20
0.0
 30
0.0
  3
*X11
  1

  4
Cadwork hatch
  0
LINE
  5
4ED
100
AcDbEntity
  8
Ech.1_10
 62
   190
  6
CONTINUOUS
370
    -2
100
AcDbLine
 10
68356.57302384
 20
-64014.25736043
 30
0.0
 11
68401.57318372
 21
-63794.25753011
 31
0.0
  0
LINE
  5
4EE
100
AcDbEntity
  8
Ech.1_10
 62
   190
  6
CONTINUOUS
370
    -2
100
AcDbLine
 10
68401.57318372
 20
-64014.25736043
 30
0.0
 11
68356.57302384
 21
-63794.25753011
 31
0.0
  0
ENDBLK
  5
4EF
100
AcDbEntity
100
AcDbBlockEnd
  0
BLOCK
  5
4F0
100
AcDbEntity
  8
Ech.1_10
100
AcDbBlockBegin
  2
*X12
 70
     1
 10
0.0
 20
0.0
 30
0.0
  3
*X12
  1

  4
Cadwork hatch
  0
LINE
  5
4F1
100
AcDbEntity
  8
Ech.1_10
 62
   190
  6
CONTINUOUS
370
    -2
100
AcDbLine
 10
68501.56592862
 20
-64104.25720453
 30
0.0
 11
68356.57302384
 21
-64059.25704465
 31
0.0
  0
LINE
  5
4F2
100
AcDbEntity
  8
Ech.1_10
 62
   190
  6
CONTINUOUS
370
    -2
100
AcDbLine
 10
68501.56592862
 20
-64059.25704465
 30
0.0
 11
68356.57302384
 21
-64104.25720453
 31
0.0
  0
ENDBLK
  5
4F3
100
AcDbEntity
100
AcDbBlockEnd
  0
BLOCK
  5
4F4
100
AcDbEntity
  8
Ech.1_10
100
AcDbBlockBegin
  2
*X13
 70
     1
 10
0.0
 20
0.0
 30
0.0
  3
*X13
  1

  4
Cadwork hatch
  0
LINE
  5
4F5
100
AcDbEntity
  8
Ech.1_10
 62
   190
  6
CONTINUOUS
370
    -2
100
AcDbLine
 10
69543.08408859
 20
-64014.25736043
 30
0.0
 11
69498.08392871
 21
-63794.25753011
 31
0.0
  0
LINE
  5
4F6
100
AcDbEntity
  8
Ech.1_10
 62
   190
  6
CONTINUOUS
370
    -2
100
AcDbLine
 10
69498.08392871
 20
-64014.25736043
 30
0.0
 11
69543.08408859
 21
-63794.25753011
 31
0.0
  0
ENDBLK
  5
4F7
100
AcDbEntity
100
AcDbBlockEnd
  0
BLOCK
  5
4F8
100
AcDbEntity
  8
Ech.1_10
100
AcDbBlockBegin
  2
*X14
 70
     1
 10
0.0
 20
0.0
 30
0.0
  3
*X14
  1

  4
Cadwork hatch
  0
LINE
  5
4F9
100
AcDbEntity
  8
Ech.1_10
 62
   190
  6
CONTINUOUS
370
    -2
100
AcDbLine
 10
69498.08392871
 20
-64014.25736043
 30
0.0
 11
69453.08376884
 21
-63794.25753011
 31
0.0
  0
LINE
  5
4FA
100
AcDbEntity
  8
Ech.1_10
 62
   190
  6
CONTINUOUS
370
    -2
100
AcDbLine
 10
69453.08376884
 20
-64014.25736043
 30
0.0
 11
69498.08392871
 21
-63794.25753011
 31
0.0
  0
ENDBLK
  5
4FB
100
AcDbEntity
100
AcDbBlockEnd
  0
BLOCK
  5
4FC
100
AcDbEntity
  8
Ech.1_10
100
AcDbBlockBegin
  2
*D19
 70
     1
 10
0.0
 20
0.0
 30
0.0
  3
*D19
  1

  4
Cadwork dimension
  0
TEXT
  5
4FD
100
AcDbEntity
  8
Ech.1_10
 62
   190
370
    18
100
AcDbText
 10
68427.06662929
 20
-63962.05979425
 30
0.0
 40
25.0
  1
mini 50
  7
ARIAL
 50
0.0
 41
1.0
 51
0.0
100
AcDbText
  0
LINE
  5
4FE
100
AcDbEntity
  8
Ech.1_10
 62
   190
370
    -2
100
AcDbLine
 10
68401.57005394
 20
-63962.05979425
 30
0.0
 11
68401.57005394
 21
-63999.25705462
 31
0.0
  0
LINE
  5
4FF
100
AcDbEntity
  8
Ech.1_10
 62
   190
370
    -2
100
AcDbLine
 10
68501.57005394
 20
-63962.05979425
 30
0.0
 11
68501.57005394
 21
-64009.25705462
 31
0.0
  0
LINE
  5
500
100
AcDbEntity
  8
Ech.1_10
 62
   190
370
    -2
100
AcDbLine
 10
68396.57005394
 20
-63967.05979425
 30
0.0
 11
68506.57005394
 21
-63967.05979425
 31
0.0
  0
LINE
  5
501
100
AcDbEntity
  8
Ech.1_10
 62
   190
370
    -2
100
AcDbLine
 10
68399.07005394
 20
-63969.55979425
 30
0.0
 11
68404.07005394
 21
-63964.55979425
 31
0.0
  0
LINE
  5
502
100
AcDbEntity
  8
Ech.1_10
 62
   190
370
    -2
100
AcDbLine
 10
68499.07005394
 20
-63969.55979425
 30
0.0
 11
68504.07005394
 21
-63964.55979425
 31
0.0
  0
ENDBLK
  5
503
100
AcDbEntity
100
AcDbBlockEnd
  0
ENDSEC
  0
SECTION
  2
ENTITIES
  0
INSERT
  5
504
100
AcDbEntity
  8
Ech.1_10
 62
     0
370
    -3
100
AcDbBlockReference
  2
*X1
 10
0.0
 20
0.0
 30
0.0
  0
INSERT
  5
505
100
AcDbEntity
  8
Ech.1_10
 62
     0
370
    -3
100
AcDbBlockReference
  2
*X2
 10
0.0
 20
0.0
 30
0.0
  0
INSERT
  5
506
100
AcDbEntity
  8
Ech.1_10
 62
     0
370
    -3
100
AcDbBlockReference
  2
*X3
 10
0.0
 20
0.0
 30
0.0
  0
INSERT
  5
507
100
AcDbEntity
  8
Ech.1_10
 62
     0
370
    -3
100
AcDbBlockReference
  2
*X4
 10
0.0
 20
0.0
 30
0.0
  0
INSERT
  5
508
100
AcDbEntity
  8
Ech.1_10
 62
     0
370
    -3
100
AcDbBlockReference
  2
*X5
 10
0.0
 20
0.0
 30
0.0
  0
INSERT
  5
509
100
AcDbEntity
  8
Ech.1_10
 62
     0
370
    -3
100
AcDbBlockReference
  2
*X6
 10
0.0
 20
0.0
 30
0.0
  0
INSERT
  5
50A
100
AcDbEntity
  8
Ech.1_10
 62
     0
370
    -3
100
AcDbBlockReference
  2
*X7
 10
0.0
 20
0.0
 30
0.0
  0
INSERT
  5
50B
100
AcDbEntity
  8
Ech.1_10
 62
     0
370
    -3
100
AcDbBlockReference
  2
*X8
 10
0.0
 20
0.0
 30
0.0
  0
INSERT
  5
50C
100
AcDbEntity
  8
Ech.1_10
 62
     0
370
    -3
100
AcDbBlockReference
  2
*X9
 10
0.0
 20
0.0
 30
0.0
  0
INSERT
  5
50D
100
AcDbEntity
  8
Ech.1_10
 62
     0
370
    -3
100
AcDbBlockReference
  2
*X10
 10
0.0
 20
0.0
 30
0.0
  0
INSERT
  5
50E
100
AcDbEntity
  8
Ech.1_10
 62
     0
370
    -3
100
AcDbBlockReference
  2
*X11
 10
0.0
 20
0.0
 30
0.0
  0
INSERT
  5
50F
100
AcDbEntity
  8
Ech.1_10
 62
     0
370
    -3
100
AcDbBlockReference
  2
*X12
 10
0.0
 20
0.0
 30
0.0
  0
INSERT
  5
510
100
AcDbEntity
  8
Ech.1_10
 62
     0
370
    -3
100
AcDbBlockReference
  2
*X13
 10
0.0
 20
0.0
 30
0.0
  0
INSERT
  5
511
100
AcDbEntity
  8
Ech.1_10
 62
     0
370
    -3
100
AcDbBlockReference
  2
*X14
 10
0.0
 20
0.0
 30
0.0
  0
3DFACE
  5
512
100
AcDbEntity
  8
Ech.1_10
 62
     9
  6
CONTINUOUS
370
    -3
100
AcDbFace
 70
     0
 10
69542.08174596
 20
-63975.25705462
 30
-3312.86048889
 11
70954.1530979
 21
-63975.25705462
 31
-3312.86048889
 12
70954.1530979
 22
-63975.25705462
 32
-3512.86048889
 13
69542.08174596
 23
-63975.25705462
 33
-3512.86048889
  0
3DFACE
  5
513
100
AcDbEntity
  8
Ech.1_10
 62
     9
  6
CONTINUOUS
370
    -3
100
AcDbFace
 70
     0
 10
69742.08174596
 20
-63975.25705462
 30
-17081.86048889
 11
69542.08174596
 21
-63975.25705462
 31
-17081.86048889
 12
69542.08174596
 22
-63975.25705462
 32
-3512.86048889
 13
69742.08174596
 23
-63975.25705462
 33
-3512.86048889
  0
3DFACE
  5
514
100
AcDbEntity
  8
Ech.1_10
 62
     9
  6
CONTINUOUS
370
    -3
100
AcDbFace
 70
     0
 10
69542.08174596
 20
-63775.25705462
 30
-13652.36048889
 11
69542.08174596
 21
-63775.25705462
 31
-8304.86048889
 12
69542.08174596
 22
-63975.25705462
 32
-8304.86048889
 13
69542.08174596
 23
-63975.25705462
 33
-13652.36048889
  0
3DFACE
  5
515
100
AcDbEntity
  8
Ech.1_10
 62
     9
  6
CONTINUOUS
370
    -3
100
AcDbFace
 70
     0
 10
69542.08174596
 20
-63775.25705462
 30
-13652.36048889
 11
69542.08174596
 21
-63775.25705462
 31
-13652.36048889
 12
69542.08174596
 22
-63775.25705462
 32
-8304.86048889
 13
69542.08174596
 23
-63775.25705462
 33
-8304.86048889
  0
3DFACE
  5
516
100
AcDbEntity
  8
Ech.1_10
 62
     9
  6
CONTINUOUS
370
    -3
100
AcDbFace
 70
     0
 10
69542.08174596
 20
-63975.25705462
 30
-8304.86048889
 11
69542.08174596
 21
-63775.25705462
 31
-8304.86048889
 12
69542.08174596
 22
-63775.25705462
 32
-8304.86048889
 13
69542.08174596
 23
-63975.25705462
 33
-8304.86048889
  0
3DFACE
  5
517
100
AcDbEntity
  8
Ech.1_10
 62
     9
  6
CONTINUOUS
370
    -3
100
AcDbFace
 70
     0
 10
69542.08174596
 20
-63975.25705462
 30
-13652.36048889
 11
69542.08174596
 21
-63975.25705462
 31
-13652.36048889
 12
69542.08174596
 22
-63775.25705462
 32
-13652.36048889
 13
69542.08174596
 23
-63775.25705462
 33
-13652.36048889
  0
3DFACE
  5
518
100
AcDbEntity
  8
Ech.1_10
 62
     9
  6
CONTINUOUS
370
    -3
100
AcDbFace
 70
     0
 10
69542.08174596
 20
-64679.92701551
 30
-8304.86048889
 11
69542.08174596
 21
-63975.25705462
 31
-8304.86048889
 12
69542.08174596
 22
-63975.25705462
 32
-13652.36048889
 13
69542.08174596
 23
-63975.25705462
 33
-13652.36048889
  0
3DFACE
  5
519
100
AcDbEntity
  8
Ech.1_10
 62
     9
  6
CONTINUOUS
370
    -3
100
AcDbFace
 70
     0
 10
69542.08174596
 20
-63775.25705462
 30
-3512.86048889
 11
69542.08174596
 21
-63775.25705462
 31
-3312.86048889
 12
69542.08174596
 22
-62887.1564096
 32
-3312.86048889
 13
69542.08174596
 23
-62887.1564096
 33
-3512.86048889
  0
3DFACE
  5
51A
100
AcDbEntity
  8
Ech.1_10
 62
     9
  6
CONTINUOUS
370
    -3
100
AcDbFace
 70
     0
 10
69542.08174596
 20
-63775.25705462
 30
-3512.86048889
 11
70954.1530979
 21
-63775.25705462
 31
-3512.86048889
 12
70954.1530979
 22
-63775.25705462
 32
-3312.86048889
 13
69542.08174596
 23
-63775.25705462
 33
-3312.86048889
  0
3DFACE
  5
51B
100
AcDbEntity
  8
Ech.1_10
 62
     9
  6
CONTINUOUS
370
    -3
100
AcDbFace
 70
     0
 10
69542.08174596
 20
-62887.1564096
 30
-3512.86048889
 11
70954.1530979
 21
-62887.1564096
 31
-3512.86048889
 12
70954.1530979
 22
-63775.25705462
 32
-3512.86048889
 13
69542.08174596
 23
-63775.25705462
 33
-3512.86048889
  0
3DFACE
  5
51C
100
AcDbEntity
  8
Ech.1_10
 62
     9
  6
CONTINUOUS
370
    -3
100
AcDbFace
 70
     0
 10
69542.08174596
 20
-62887.1564096
 30
-3312.86048889
 11
70954.1530979
 21
-62887.1564096
 31
-3312.86048889
 12
70954.1530979
 22
-62887.1564096
 32
-3512.86048889
 13
69542.08174596
 23
-62887.1564096
 33
-3512.86048889
  0
3DFACE
  5
51D
100
AcDbEntity
  8
Ech.1_10
 62
     9
  6
CONTINUOUS
370
    -3
100
AcDbFace
 70
     0
 10
69542.08174596
 20
-63775.25705462
 30
-3312.86048889
 11
70954.1530979
 21
-63775.25705462
 31
-3312.86048889
 12
70954.1530979
 22
-62887.1564096
 32
-3312.86048889
 13
69542.08174596
 23
-62887.1564096
 33
-3312.86048889
  0
3DFACE
  5
51E
100
AcDbEntity
  8
Ech.1_10
 62
     9
  6
CONTINUOUS
370
    -3
100
AcDbFace
 70
     0
 10
69542.08174596
 20
-63775.25705462
 30
-17081.86048889
 11
69742.08174596
 21
-63775.25705462
 31
-17081.86048889
 12
69742.08174596
 22
-63775.25705462
 32
-11978.61048889
 13
69542.08174596
 23
-63775.25705462
 33
-11978.61048889
  0
3DFACE
  5
51F
100
AcDbEntity
  8
Ech.1_10
 62
     9
  6
CONTINUOUS
370
    -3
100
AcDbFace
 70
     0
 10
69742.08174596
 20
-62887.1564096
 30
-3512.86048889
 11
69542.08174596
 21
-62887.1564096
 31
-3512.86048889
 12
69542.08174596
 22
-63775.25705462
 32
-3512.86048889
 13
69742.08174596
 23
-63775.25705462
 33
-3512.86048889
  0
POLYLINE
  5
520
100
AcDbEntity
  8
Ech.1_10
 62
     9
  6
CONTINUOUS
370
    -3
100
AcDb3dPolyline
 66
     1
 70
     8
  0
VERTEX
  5
521
100
AcDbEntity
  8
Ech.1_10
100
AcDbVertex
100
AcDb3dPolylineVertex
 10
69742.08174596
 20
-63775.25705462
 30
-11978.61048889
 70
    32
  0
VERTEX
  5
522
100
AcDbEntity
  8
Ech.1_10
100
AcDbVertex
100
AcDb3dPolylineVertex
 10
69742.08174596
 20
-63693.4390791
 30
-11978.61048889
 70
    32
  0
VERTEX
  5
523
100
AcDbEntity
  8
Ech.1_10
100
AcDbVertex
100
AcDb3dPolylineVertex
 10
69742.08174596
 20
-63693.4390791
 30
-9978.61048889
 70
    32
  0
VERTEX
  5
524
100
AcDbEntity
  8
Ech.1_10
100
AcDbVertex
100
AcDb3dPolylineVertex
 10
69742.08174596
 20
-63775.25705462
 30
-9978.61048889
 70
    32
  0
VERTEX
  5
525
100
AcDbEntity
  8
Ech.1_10
100
AcDbVertex
100
AcDb3dPolylineVertex
 10
69742.08174596
 20
-63775.25705462
 30
-3512.86048889
 70
    32
  0
VERTEX
  5
526
100
AcDbEntity
  8
Ech.1_10
100
AcDbVertex
100
AcDb3dPolylineVertex
 10
69742.08174596
 20
-62887.1564096
 30
-3512.86048889
 70
    32
  0
VERTEX
  5
527
100
AcDbEntity
  8
Ech.1_10
100
AcDbVertex
100
AcDb3dPolylineVertex
 10
69742.08174596
 20
-62887.1564096
 30
-5208.86048889
 70
    32
  0
VERTEX
  5
528
100
AcDbEntity
  8
Ech.1_10
100
AcDbVertex
100
AcDb3dPolylineVertex
 10
69742.08174596
 20
-62887.1564096
 30
-5208.86048889
 70
    32
  0
SEQEND
  5
529
100
AcDbEntity
  8
Ech.1_10
  0
POLYLINE
  5
52A
100
AcDbEntity
  8
Ech.1_10
 62
     9
  6
CONTINUOUS
370
    -3
100
AcDb3dPolyline
 66
     1
 70
     8
  0
VERTEX
  5
52B
100
AcDbEntity
  8
Ech.1_10
100
AcDbVertex
100
AcDb3dPolylineVertex
 10
69742.08174596
 20
-63693.4390791
 30
-5208.86048889
 70
    32
  0
VERTEX
  5
52C
100
AcDbEntity
  8
Ech.1_10
100
AcDbVertex
100
AcDb3dPolylineVertex
 10
69742.08174596
 20
-63693.4390791
 30
-5208.86048889
 70
    32
  0
VERTEX
  5
52D
100
AcDbEntity
  8
Ech.1_10
100
AcDbVertex
100
AcDb3dPolylineVertex
 10
69742.08174596
 20
-64679.92701551
 30
-5208.86048889
 70
    32
  0
VERTEX
  5
52E
100
AcDbEntity
  8
Ech.1_10
100
AcDbVertex
100
AcDb3dPolylineVertex
 10
69742.08174596
 20
-64679.92701551
 30
-6608.86048889
 70
    32
  0
VERTEX
  5
52F
100
AcDbEntity
  8
Ech.1_10
100
AcDbVertex
100
AcDb3dPolylineVertex
 10
69742.08174596
 20
-63693.4390791
 30
-6608.86048889
 70
    32
  0
VERTEX
  5
530
100
AcDbEntity
  8
Ech.1_10
100
AcDbVertex
100
AcDb3dPolylineVertex
 10
69742.08174596
 20
-63693.4390791
 30
-5208.86048889
 70
    32
  0
SEQEND
  5
531
100
AcDbEntity
  8
Ech.1_10
  0
POLYLINE
  5
532
100
AcDbEntity
  8
Ech.1_10
 62
     9
  6
CONTINUOUS
370
    -3
100
AcDb3dPolyline
 66
     1
 70
     8
  0
VERTEX
  5
533
100
AcDbEntity
  8
Ech.1_10
100
AcDbVertex
100
AcDb3dPolylineVertex
 10
69742.08174596
 20
-62887.1564096
 30
-5208.86048889
 70
    32
  0
VERTEX
  5
534
100
AcDbEntity
  8
Ech.1_10
100
AcDbVertex
100
AcDb3dPolylineVertex
 10
69742.08174596
 20
-62887.1564096
 30
-14667.11048889
 70
    32
  0
VERTEX
  5
535
100
AcDbEntity
  8
Ech.1_10
100
AcDbVertex
100
AcDb3dPolylineVertex
 10
69742.08174596
 20
-62887.1564096
 30
-5208.86048889
 70
    32
  0
VERTEX
  5
536
100
AcDbEntity
  8
Ech.1_10
100
AcDbVertex
100
AcDb3dPolylineVertex
 10
69742.08174596
 20
-62887.1564096
 30
-14667.11048889
 70
    32
  0
VERTEX
  5
537
100
AcDbEntity
  8
Ech.1_10
100
AcDbVertex
100
AcDb3dPolylineVertex
 10
69742.08174596
 20
-62887.1564096
 30
-14667.11048889
 70
    32
  0
SEQEND
  5
538
100
AcDbEntity
  8
Ech.1_10
  0
POLYLINE
  5
539
100
AcDbEntity
  8
Ech.1_10
 62
     9
  6
CONTINUOUS
370
    -3
100
AcDb3dPolyline
 66
     1
 70
     8
  0
VERTEX
  5
53A
100
AcDbEntity
  8
Ech.1_10
100
AcDbVertex
100
AcDb3dPolylineVertex
 10
69742.08174596
 20
-63693.4390791
 30
-14667.11048889
 70
    32
  0
VERTEX
  5
53B
100
AcDbEntity
  8
Ech.1_10
100
AcDbVertex
100
AcDb3dPolylineVertex
 10
69742.08174596
 20
-63693.4390791
 30
-14667.11048889
 70
    32
  0
VERTEX
  5
53C
100
AcDbEntity
  8
Ech.1_10
100
AcDbVertex
100
AcDb3dPolylineVertex
 10
69742.08174596
 20
-64679.92701551
 30
-14667.11048889
 70
    32
  0
VERTEX
  5
53D
100
AcDbEntity
  8
Ech.1_10
100
AcDbVertex
100
AcDb3dPolylineVertex
 10
69742.08174596
 20
-64679.92701551
 30
-16067.11048889
 70
    32
  0
VERTEX
  5
53E
100
AcDbEntity
  8
Ech.1_10
100
AcDbVertex
100
AcDb3dPolylineVertex
 10
69742.08174596
 20
-63693.4390791
 30
-16067.11048889
 70
    32
  0
VERTEX
  5
53F
100
AcDbEntity
  8
Ech.1_10
100
AcDbVertex
100
AcDb3dPolylineVertex
 10
69742.08174596
 20
-63693.4390791
 30
-14667.11048889
 70
    32
  0
SEQEND
  5
540
100
AcDbEntity
  8
Ech.1_10
  0
POLYLINE
  5
541
100
AcDbEntity
  8
Ech.1_10
 62
     9
  6
CONTINUOUS
370
    -3
100
AcDb3dPolyline
 66
     1
 70
     8
  0
VERTEX
  5
542
100
AcDbEntity
  8
Ech.1_10
100
AcDbVertex
100
AcDb3dPolylineVertex
 10
69742.08174596
 20
-62887.1564096
 30
-14667.11048889
 70
    32
  0
VERTEX
  5
543
100
AcDbEntity
  8
Ech.1_10
100
AcDbVertex
100
AcDb3dPolylineVertex
 10
69742.08174596
 20
-62887.1564096
 30
-17081.86048889
 70
    32
  0
VERTEX
  5
544
100
AcDbEntity
  8
Ech.1_10
100
AcDbVertex
100
AcDb3dPolylineVertex
 10
69742.08174596
 20
-63775.25705462
 30
-17081.86048889
 70
    32
  0
VERTEX
  5
545
100
AcDbEntity
  8
Ech.1_10
100
AcDbVertex
100
AcDb3dPolylineVertex
 10
69742.08174596
 20
-63775.25705462
 30
-11978.61048889
 70
    32
  0
SEQEND
  5
546
100
AcDbEntity
  8
Ech.1_10
  0
3DFACE
  5
547
100
AcDbEntity
  8
Ech.1_10
 62
     9
  6
CONTINUOUS
370
    -3
100
AcDbFace
 70
     0
 10
69742.08174596
 20
-63775.25705462
 30
-3512.86048889
 11
69542.08174596
 21
-63775.25705462
 31
-3512.86048889
 12
69542.08174596
 22
-63775.25705462
 32
-9978.61048889
 13
69742.08174596
 23
-63775.25705462
 33
-9978.61048889
  0
3DFACE
  5
548
100
AcDbEntity
  8
Ech.1_10
 62
     9
  6
CONTINUOUS
370
    -3
100
AcDbFace
 70
     0
 10
69542.08174596
 20
-62887.1564096
 30
-17281.86048889
 11
70954.1530979
 21
-62887.1564096
 31
-17281.86048889
 12
70954.1530979
 22
-62887.1564096
 32
-3312.86048889
 13
69542.08174596
 23
-62887.1564096
 33
-3312.86048889
  0
3DFACE
  5
549
100
AcDbEntity
  8
Ech.1_10
 62
     9
  6
CONTINUOUS
370
    -3
100
AcDbFace
 70
     0
 10
69542.08174596
 20
-62687.1564096
 30
-17281.86048889
 11
70954.1530979
 21
-62687.1564096
 31
-17281.86048889
 12
70954.1530979
 22
-62887.1564096
 32
-17281.86048889
 13
69542.08174596
 23
-62887.1564096
 33
-17281.86048889
  0
3DFACE
  5
54A
100
AcDbEntity
  8
Ech.1_10
 62
     9
  6
CONTINUOUS
370
    -3
100
AcDbFace
 70
     0
 10
69542.08174596
 20
-62687.1564096
 30
-3312.86048889
 11
70954.1530979
 21
-62687.1564096
 31
-3312.86048889
 12
70954.1530979
 22
-62687.1564096
 32
-17281.86048889
 13
69542.08174596
 23
-62687.1564096
 33
-17281.86048889
  0
3DFACE
  5
54B
100
AcDbEntity
  8
Ech.1_10
 62
     9
  6
CONTINUOUS
370
    -3
100
AcDbFace
 70
     0
 10
69542.08174596
 20
-62887.1564096
 30
-3312.86048889
 11
70954.1530979
 21
-62887.1564096
 31
-3312.86048889
 12
70954.1530979
 22
-62687.1564096
 32
-3312.86048889
 13
69542.08174596
 23
-62687.1564096
 33
-3312.86048889
  0
3DFACE
  5
54C
100
AcDbEntity
  8
Ech.1_10
 62
     9
  6
CONTINUOUS
370
    -3
100
AcDbFace
 70
     0
 10
69542.08174596
 20
-63975.25705462
 30
-17281.86048889
 11
70954.1530979
 21
-63975.25705462
 31
-17281.86048889
 12
70954.1530979
 22
-63975.25705462
 32
-3312.86048889
 13
69542.08174596
 23
-63975.25705462
 33
-3312.86048889
  0
3DFACE
  5
54D
100
AcDbEntity
  8
Ech.1_10
 62
     9
  6
CONTINUOUS
370
    -3
100
AcDbFace
 70
     0
 10
69542.08174596
 20
-63775.25705462
 30
-17281.86048889
 11
69542.08174596
 21
-63975.25705462
 31
-17281.86048889
 12
69542.08174596
 22
-63975.25705462
 32
-3312.86048889
 13
69542.08174596
 23
-63775.25705462
 33
-3312.86048889
  0
3DFACE
  5
54E
100
AcDbEntity
  8
Ech.1_10
 62
     9
  6
CONTINUOUS
370
    -3
100
AcDbFace
 70
     0
 10
69542.08174596
 20
-63775.25705462
 30
-17281.86048889
 11
70954.1530979
 21
-63775.25705462
 31
-17281.86048889
 12
70954.1530979
 22
-63975.25705462
 32
-17281.86048889
 13
69542.08174596
 23
-63975.25705462
 33
-17281.86048889
  0
3DFACE
  5
54F
100
AcDbEntity
  8
Ech.1_10
 62
     9
  6
CONTINUOUS
370
    -3
100
AcDbFace
 70
     0
 10
69542.08174596
 20
-63775.25705462
 30
-3312.86048889
 11
70954.1530979
 21
-63775.25705462
 31
-3312.86048889
 12
70954.1530979
 22
-63775.25705462
 32
-17281.86048889
 13
69542.08174596
 23
-63775.25705462
 33
-17281.86048889
  0
3DFACE
  5
550
100
AcDbEntity
  8
Ech.1_10
 62
     9
  6
CONTINUOUS
370
    -3
100
AcDbFace
 70
     0
 10
69542.08174596
 20
-63975.25705462
 30
-3312.86048889
 11
70954.1530979
 21
-63975.25705462
 31
-3312.86048889
 12
70954.1530979
 22
-63775.25705462
 32
-3312.86048889
 13
69542.08174596
 23
-63775.25705462
 33
-3312.86048889
  0
3DFACE
  5
551
102
{ACAD_REACTORS
330
552
102
}
100
AcDbEntity
  8
Ech.1_10
 62
     9
  6
CONTINUOUS
370
    -3
100
AcDbFace
 70
     0
 10
69542.08174596
 20
-63775.25705462
 30
2500.0
 11
69542.08174596
 21
-63975.25705462
 31
2500.0
 12
70954.1530979
 22
-63975.25705462
 32
2500.0
 13
70954.1530979
 23
-63775.25705462
 33
2500.0
  0
HATCH
  5
552
100
AcDbEntity
  8
Ech.1_10
 62
     9
  6
CONTINUOUS
100
AcDbHatch
 10
0.0
 20
0.0
 30
0.0
210
0.0
220
0.0
230
1.0
  2
AR-CONC
 70
     0
 71
     1
 91
        1
 92
        7
 72
     0
 73
     1
 93
        4
 10
69542.08174596
 20
-63775.25705462
 10
69542.08174596
 20
-63975.25705462
 10
70954.1530979
 20
-63975.25705462
 10
70954.1530979
 20
-63775.25705462
 97
        1
330
551
 75
     0
 76
     2
 52
0.0
 41
0.11811097
 77
     0
 78
    13
 53
50.0
 43
0.0
 44
0.0
 45
-18.84283637
 46
1.64853443
 79
     2
 49
1.97029307
 49
-21.67322338
 53
355.0
 43
0.0
 44
0.0
 45
-3.64507756
 46
19.76051824
 79
     2
 49
1.57623377
 49
-17.3385787
 53
100.45140076
 43
1.57023568
 44
-0.13737749
 45
-15.19777228
 46
-18.11197244
 79
     2
 49
1.67449124
 49
-18.41940522
 53
46.18420029
 43
0.0
 44
5.25411576
 45
-28.03703353
 46
4.34827878
 79
     2
 49
2.95543872
 49
-32.50983238
 53
96.63559723
 43
2.33641885
 44
4.89175692
 45
-24.55412615
 46
-25.59063404
 79
     2
 49
2.51173697
 49
-27.62910426
 53
351.1842041
 43
0.0
 44
5.25411576
 45
24.55410288
 46
25.59065715
 79
     2
 49
2.36435249
 49
-26.00786805
 53
21.0
 43
2.62705699
 44
3.94058615
 45
-15.68109068
 46
10.57702905
 79
     2
 49
1.97029307
 49
-21.67322338
 53
326.0
 43
2.62705699
 44
3.94058615
 45
6.39203268
 46
19.05010734
 79
     2
 49
1.57623377
 49
-17.3385787
 53
71.45140076
 43
3.93381357
 44
3.05916555
 45
-22.07312962
 46
-8.47306182
 79
     2
 49
1.67449124
 49
-18.41940522
 53
37.5
 43
0.0
 44
0.0
 45
0.31944534
 46
8.74531245
 79
     6
 49
0.01875
 49
-17.12841332
 49
0.01875
 49
-17.60128498
 49
0.01875
 49
-17.40425348
 53
7.5
 43
0.0
 44
0.0
 45
6.91098818
 46
10.3614222
 79
     6
 49
0.01875
 49
-10.03535807
 49
0.01875
 49
-16.7343539
 49
0.01875
 49
-6.6333206
 53
-32.5
 43
-5.85833833
 44
0.0
 45
14.02382061
 46
-0.59253003
 79
     6
 49
0.01875
 49
-6.56764314
 49
0.01875
 49
-20.49104869
 49
0.01875
 49
-27.19004452
 53
-42.5
 43
-8.48539531
 44
0.0
 45
15.32063571
 46
2.62981542
 79
     6
 49
0.01875
 49
-8.53793621
 49
0.01875
 49
-13.60815793
 49
0.01875
 49
-19.30887222
 47
0.775229
 98
        1
 10
0.0
 20
0.0
  0
LWPOLYLINE
  5
553
100
AcDbEntity
  8
Ech.1_10
 62
    31
  6
CONTINUOUS
370
    -3
100
AcDbPolyline
 90
        6
 70
     1
 43
0.0
 10
69428.08218574
 20
-62837.1564096
 10
69049.44247203
 20
-62837.1564096
 10
69049.44247203
 20
-62987.1564096
 10
69428.08084352
 20
-62987.1564096
 10
69428.08247307
 20
-62954.01832681
 10
69428.08247307
 20
-62935.15640959
  0
LWPOLYLINE
  5
554
100
AcDbEntity
  8
Ech.1_10
 62
    31
  6
CONTINUOUS
370
    -3
100
AcDbPolyline
 90
        4
 70
     1
 43
0.0
 10
68520.57005394
 20
-62837.1564096
 10
68520.57005394
 20
-62987.1564096
 10
69013.05305756
 20
-62987.1564096
 10
69013.05305756
 20
-62837.1564096
  0
LWPOLYLINE
  5
555
100
AcDbEntity
  8
Ech.1_10
 62
    31
  6
CONTINUOUS
370
    -3
100
AcDbPolyline
 90
        4
 70
     1
 43
0.0
 10
69049.44247203
 20
-62687.1564096
 10
69049.44247203
 20
-62837.1564096
 10
69428.08218574
 20
-62837.1564096
 10
69428.08174596
 20
-62687.1564096
  0
LWPOLYLINE
  5
556
100
AcDbEntity
  8
Ech.1_10
 62
    31
  6
CONTINUOUS
370
    -3
100
AcDbPolyline
 90
        4
 70
     1
 43
0.0
 10
68520.57005394
 20
-62687.1564096
 10
68520.57005394
 20
-62837.1564096
 10
69013.05305756
 20
-62837.1564096
 10
69013.05305756
 20
-62687.1564096
  0
LWPOLYLINE
  5
557
100
AcDbEntity
  8
Ech.1_10
 62
   190
  6
CONTINUOUS
370
    -3
100
AcDbPolyline
 90
       38
 70
     0
 43
0.0
 10
69013.05305756
 20
-62712.1564096
 42
1.14028181
 10
68963.90491581
 20
-62718.62690029
 10
68987.20119932
 20
-62805.6859189
 42
-1.30322619
 10
68938.90491581
 20
-62805.6859189
 10
68962.20119932
 20
-62718.62690029
 42
1.30322619
 10
68913.90491581
 20
-62718.62690029
 10
68937.20119932
 20
-62805.6859189
 42
-1.30322619
 10
68888.90491581
 20
-62805.6859189
 10
68912.20119932
 20
-62718.62690029
 42
1.30322619
 10
68863.90491581
 20
-62718.62690029
 10
68887.20119932
 20
-62805.6859189
 42
-1.30322619
 10
68838.90491581
 20
-62805.6859189
 10
68862.20119932
 20
-62718.62690029
 42
1.30322619
 10
68813.90491581
 20
-62718.62690029
 10
68837.20119932
 20
-62805.6859189
 42
-1.30322619
 10
68788.90491581
 20
-62805.6859189
 10
68812.20119932
 20
-62718.62690029
 42
1.30322619
 10
68763.90491581
 20
-62718.62690029
 10
68787.20119932
 20
-62805.6859189
 42
-1.30322619
 10
68738.90491581
 20
-62805.6859189
 10
68762.20119932
 20
-62718.62690029
 42
1.30322619
 10
68713.90491581
 20
-62718.62690029
 10
68737.20119932
 20
-62805.6859189
 42
-1.30322619
 10
68688.90491581
 20
-62805.6859189
 10
68712.20119932
 20
-62718.62690029
 42
1.30322619
 10
68663.90491581
 20
-62718.62690029
 10
68687.20119932
 20
-62805.6859189
 42
-1.30322619
 10
68638.90491581
 20
-62805.6859189
 10
68662.20119932
 20
-62718.62690029
 42
1.30322619
 10
68613.90491581
 20
-62718.62690029
 10
68637.20119932
 20
-62805.6859189
 42
-1.30322619
 10
68588.90491581
 20
-62805.6859189
 10
68612.20119932
 20
-62718.62690029
 42
1.30322619
 10
68563.90491581
 20
-62718.62690029
 10
68587.20119932
 20
-62805.6859189
 42
-1.30322619
 10
68538.90491581
 20
-62805.6859189
 10
68562.20119932
 20
-62718.62690029
 42
0.76298614
 10
68520.57005394
 20
-62694.28619459
  0
LWPOLYLINE
  5
558
100
AcDbEntity
  8
Ech.1_10
 62
   190
  6
CONTINUOUS
370
    -3
100
AcDbPolyline
 90
       38
 70
     0
 43
0.0
 10
69013.05343124
 20
-62862.1564096
 42
1.14028181
 10
68963.90528948
 20
-62868.62690029
 10
68987.20157299
 20
-62955.6859189
 42
-1.30322619
 10
68938.90528948
 20
-62955.6859189
 10
68962.20157299
 20
-62868.62690029
 42
1.30322619
 10
68913.90528948
 20
-62868.62690029
 10
68937.20157299
 20
-62955.6859189
 42
-1.30322619
 10
68888.90528948
 20
-62955.6859189
 10
68912.20157299
 20
-62868.62690029
 42
1.30322619
 10
68863.90528948
 20
-62868.62690029
 10
68887.20157299
 20
-62955.6859189
 42
-1.30322619
 10
68838.90528948
 20
-62955.6859189
 10
68862.20157299
 20
-62868.62690029
 42
1.30322619
 10
68813.90528948
 20
-62868.62690029
 10
68837.20157299
 20
-62955.6859189
 42
-1.30322619
 10
68788.90528948
 20
-62955.6859189
 10
68812.20157299
 20
-62868.62690029
 42
1.30322619
 10
68763.90528948
 20
-62868.62690029
 10
68787.20157299
 20
-62955.6859189
 42
-1.30322619
 10
68738.90528948
 20
-62955.6859189
 10
68762.20157299
 20
-62868.62690029
 42
1.30322619
 10
68713.90528948
 20
-62868.62690029
 10
68737.20157299
 20
-62955.6859189
 42
-1.30322619
 10
68688.90528948
 20
-62955.6859189
 10
68712.20157299
 20
-62868.62690029
 42
1.30322619
 10
68663.90528948
 20
-62868.62690029
 10
68687.20157299
 20
-62955.6859189
 42
-1.30322619
 10
68638.90528948
 20
-62955.6859189
 10
68662.20157299
 20
-62868.62690029
 42
1.30322619
 10
68613.90528948
 20
-62868.62690029
 10
68637.20157299
 20
-62955.6859189
 42
-1.30322619
 10
68588.90528948
 20
-62955.6859189
 10
68612.20157299
 20
-62868.62690029
 42
1.30322619
 10
68563.90528948
 20
-62868.62690029
 10
68587.20157299
 20
-62955.6859189
 42
-1.30322619
 10
68538.90528948
 20
-62955.6859189
 10
68562.20157299
 20
-62868.62690029
 42
0.76299441
 10
68520.57005394
 20
-62844.28656018
  0
LWPOLYLINE
  5
559
100
AcDbEntity
  8
Ech.1_10
 62
   190
  6
CONTINUOUS
370
    -3
100
AcDbPolyline
 90
       28
 70
     0
 43
0.0
 10
69419.19296636
 20
-62710.51142524
 42
1.14028181
 10
69370.07458338
 20
-62717.2004389
 10
69393.75771533
 20
-62804.15409353
 42
-1.30322619
 10
69345.46238772
 20
-62804.36895479
 10
69368.37090061
 20
-62717.20801842
 42
1.30322619
 10
69320.075573
 20
-62717.42287968
 10
69343.75870494
 20
-62804.37653431
 42
-1.30322619
 10
69295.46337733
 20
-62804.59139557
 10
69318.37189022
 20
-62717.4304592
 42
1.30322619
 10
69270.07656261
 20
-62717.64532046
 10
69293.75969456
 20
-62804.5989751
 42
-1.30322619
 10
69245.46436695
 20
-62804.81383636
 10
69268.37287984
 20
-62717.65289998
 42
1.30322619
 10
69220.07755223
 20
-62717.86776125
 10
69243.76068418
 20
-62804.82141588
 42
-1.30322619
 10
69195.46535657
 20
-62805.03627714
 10
69218.37386946
 20
-62717.87534077
 42
1.30322619
 10
69170.07854185
 20
-62718.09020203
 10
69193.7616738
 20
-62805.04385666
 42
-1.30322619
 10
69145.46634619
 20
-62805.25871793
 10
69168.37485908
 20
-62718.09778155
 42
1.30322619
 10
69120.07953147
 20
-62718.31264281
 10
69143.76266341
 20
-62805.26629745
 42
-1.30322619
 10
69095.4673358
 20
-62805.48115871
 10
69118.3758487
 20
-62718.32022234
 42
1.30322619
 10
69070.08052109
 20
-62718.5350836
 10
69093.76365303
 20
-62805.48873823
 42
-0.81558487
 10
69050.06735267
 20
-62827.61362624
  0
LWPOLYLINE
  5
55A
100
AcDbEntity
  8
Ech.1_10
 62
   190
  6
CONTINUOUS
370
    -3
100
AcDbPolyline
 90
       28
 70
     0
 43
0.0
 10
69419.08218574
 20
-62862.1564096
 42
1.14028181
 10
69369.93404399
 20
-62868.62690029
 10
69393.2303275
 20
-62955.6859189
 42
-1.30322619
 10
69344.93404399
 20
-62955.6859189
 10
69368.2303275
 20
-62868.62690029
 42
1.30322619
 10
69319.93404399
 20
-62868.62690029
 10
69343.2303275
 20
-62955.6859189
 42
-1.30322619
 10
69294.93404399
 20
-62955.6859189
 10
69318.2303275
 20
-62868.62690029
 42
1.30322619
 10
69269.93404399
 20
-62868.62690029
 10
69293.2303275
 20
-62955.6859189
 42
-1.30322619
 10
69244.93404399
 20
-62955.6859189
 10
69268.2303275
 20
-62868.62690029
 42
1.30322619
 10
69219.93404399
 20
-62868.62690029
 10
69243.2303275
 20
-62955.6859189
 42
-1.30322619
 10
69194.93404399
 20
-62955.6859189
 10
69218.2303275
 20
-62868.62690029
 42
1.30322619
 10
69169.93404399
 20
-62868.62690029
 10
69193.2303275
 20
-62955.6859189
 42
-1.30322619
 10
69144.93404399
 20
-62955.6859189
 10
69168.2303275
 20
-62868.62690029
 42
1.30322619
 10
69119.93404399
 20
-62868.62690029
 10
69143.2303275
 20
-62955.6859189
 42
-1.30322619
 10
69094.93404399
 20
-62955.6859189
 10
69118.2303275
 20
-62868.62690029
 42
1.30322619
 10
69069.93404399
 20
-62868.62690029
 10
69093.2303275
 20
-62955.6859189
 42
-0.81539977
 10
69049.44247203
 20
-62977.62514081
  0
LWPOLYLINE
  5
55B
100
AcDbEntity
  8
Ech.1_10
 62
   190
  6
CONTINUOUS
370
    -3
100
AcDbPolyline
 90
        4
 70
     1
 43
0.0
 10
69049.44247203
 20
-62987.1564096
 10
69049.44247203
 20
-63006.1564096
 10
69551.08174596
 20
-63006.1564096
 10
69551.08174596
 20
-62987.1564096
  0
LWPOLYLINE
  5
55C
100
AcDbEntity
  8
Ech.1_10
 62
   190
  6
CONTINUOUS
370
    -3
100
AcDbPolyline
 90
        4
 70
     1
 43
0.0
 10
68511.57005394
 20
-62987.1564096
 10
68511.57005394
 20
-63006.1564096
 10
69013.05305756
 20
-63006.1564096
 10
69013.05305756
 20
-62987.1564096
  0
LWPOLYLINE
  5
55D
100
AcDbEntity
  8
Ech.1_10
 62
   190
  6
CONTINUOUS
370
    -3
100
AcDbPolyline
 90
        4
 70
     1
 43
0.0
 10
69049.44247203
 20
-63326.15624709
 10
69049.44247203
 20
-63339.15624709
 10
69542.08174596
 20
-63339.15624709
 10
69542.08174596
 20
-63326.15624709
  0
LWPOLYLINE
  5
55E
100
AcDbEntity
  8
Ech.1_10
 62
   190
  6
CONTINUOUS
370
    -3
100
AcDbPolyline
 90
        4
 70
     1
 43
0.0
 10
68501.57005394
 20
-63326.15624709
 10
68501.57005394
 20
-63339.15624709
 10
69013.05305756
 20
-63339.15624709
 10
69013.05305756
 20
-63326.15624709
  0
LWPOLYLINE
  5
55F
100
AcDbEntity
  8
Ech.1_10
 62
     7
  6
CONTINUOUS
370
    -3
100
AcDbPolyline
 90
        4
 70
     1
 43
0.0
 10
69049.44247203
 20
-63006.1564096
 10
69049.44247203
 20
-63226.1564096
 10
69453.08174596
 20
-63226.1564096
 10
69453.08174596
 20
-63006.1564096
  0
LWPOLYLINE
  5
560
100
AcDbEntity
  8
Ech.1_10
 62
     7
  6
CONTINUOUS
370
    -3
100
AcDbPolyline
 90
        4
 70
     1
 43
0.0
 10
68546.57005394
 20
-63006.1564096
 10
68546.57005394
 20
-63226.1564096
 10
69013.05305756
 20
-63226.1564096
 10
69013.05305756
 20
-63006.1564096
  0
LWPOLYLINE
  5
561
100
AcDbEntity
  8
Ech.1_10
 62
   190
  6
CONTINUOUS
370
    -3
100
AcDbPolyline
 90
        4
 70
     1
 43
0.0
 10
69049.44247203
 20
-63226.1564096
 10
69049.44247203
 20
-63326.1564096
 10
69542.08174596
 20
-63326.1564096
 10
69542.08174596
 20
-63226.1564096
  0
LWPOLYLINE
  5
562
100
AcDbEntity
  8
Ech.1_10
 62
   190
  6
CONTINUOUS
370
    -3
100
AcDbPolyline
 90
        4
 70
     1
 43
0.0
 10
68501.57005394
 20
-63226.1564096
 10
68501.57005394
 20
-63326.1564096
 10
69013.05305756
 20
-63326.1564096
 10
69013.05305756
 20
-63226.1564096
  0
LWPOLYLINE
  5
563
100
AcDbEntity
  8
Ech.1_10
 62
     7
  6
CONTINUOUS
370
    -3
100
AcDbPolyline
 90
        4
 70
     1
 43
0.0
 10
68287.57005394
 20
-62687.1564096
 10
68347.57005394
 20
-62687.1564096
 10
68347.57005394
 20
-62642.1564096
 10
68287.57005394
 20
-62642.1564096
  0
LWPOLYLINE
  5
564
100
AcDbEntity
  8
Ech.1_10
 62
   190
  6
CONTINUOUS
370
    -3
100
AcDbPolyline
 90
        4
 70
     1
 43
0.0
 10
68287.57005394
 20
-62687.1564096
 10
68287.57005394
 20
-63512.97805634
 10
68347.57005394
 20
-63512.97805634
 10
68347.57005394
 20
-62687.1564096
  0
LWPOLYLINE
  5
565
100
AcDbEntity
  8
Ech.1_10
 62
   190
  6
CONTINUOUS
370
    -3
100
AcDbPolyline
 90
      164
 70
     0
 43
0.0
 10
68337.57005394
 20
-63512.97808723
 42
1.14028181
 10
68334.98185766
 20
-63493.31883053
 10
68300.15825022
 20
-63502.63734393
 42
-1.30322619
 10
68300.15825022
 20
-63483.31883053
 10
68334.98185766
 20
-63492.63734393
 42
1.30322619
 10
68334.98185766
 20
-63473.31883053
 10
68300.15825022
 20
-63482.63734393
 42
-1.30322619
 10
68300.15825022
 20
-63463.31883053
 10
68334.98185766
 20
-63472.63734393
 42
1.30322619
 10
68334.98185766
 20
-63453.31883053
 10
68300.15825022
 20
-63462.63734393
 42
-1.30322619
 10
68300.15825022
 20
-63443.31883053
 10
68334.98185766
 20
-63452.63734393
 42
1.30322619
 10
68334.98185766
 20
-63433.31883053
 10
68300.15825022
 20
-63442.63734393
 42
-1.30322619
 10
68300.15825022
 20
-63423.31883053
 10
68334.98185766
 20
-63432.63734393
 42
1.30322619
 10
68334.98185766
 20
-63413.31883053
 10
68300.15825022
 20
-63422.63734393
 42
-1.30322619
 10
68300.15825022
 20
-63403.31883053
 10
68334.98185766
 20
-63412.63734393
 42
1.30322619
 10
68334.98185766
 20
-63393.31883053
 10
68300.15825022
 20
-63402.63734393
 42
-1.30322619
 10
68300.15825022
 20
-63383.31883053
 10
68334.98185766
 20
-63392.63734393
 42
1.30322619
 10
68334.98185766
 20
-63373.31883053
 10
68300.15825022
 20
-63382.63734393
 42
-1.30322619
 10
68300.15825022
 20
-63363.31883053
 10
68334.98185766
 20
-63372.63734393
 42
1.30322619
 10
68334.98185766
 20
-63353.31883053
 10
68300.15825022
 20
-63362.63734393
 42
-1.30322619
 10
68300.15825022
 20
-63343.31883053
 10
68334.98185766
 20
-63352.63734393
 42
1.30322619
 10
68334.98185766
 20
-63333.31883053
 10
68300.15825022
 20
-63342.63734393
 42
-1.30322619
 10
68300.15825022
 20
-63323.31883053
 10
68334.98185766
 20
-63332.63734393
 42
1.30322619
 10
68334.98185766
 20
-63313.31883053
 10
68300.15825022
 20
-63322.63734393
 42
-1.30322619
 10
68300.15825022
 20
-63303.31883053
 10
68334.98185766
 20
-63312.63734393
 42
1.30322619
 10
68334.98185766
 20
-63293.31883053
 10
68300.15825022
 20
-63302.63734393
 42
-1.30322619
 10
68300.15825022
 20
-63283.31883053
 10
68334.98185766
 20
-63292.63734393
 42
1.30322619
 10
68334.98185766
 20
-63273.31883053
 10
68300.15825022
 20
-63282.63734393
 42
-1.30322619
 10
68300.15825022
 20
-63263.31883053
 10
68334.98185766
 20
-63272.63734393
 42
1.30322619
 10
68334.98185766
 20
-63253.31883053
 10
68300.15825022
 20
-63262.63734393
 42
-1.30322619
 10
68300.15825022
 20
-63243.31883053
 10
68334.98185766
 20
-63252.63734393
 42
1.30322619
 10
68334.98185766
 20
-63233.31883053
 10
68300.15825022
 20
-63242.63734393
 42
-1.30322619
 10
68300.15825022
 20
-63223.31883053
 10
68334.98185766
 20
-63232.63734393
 42
1.30322619
 10
68334.98185766
 20
-63213.31883053
 10
68300.15825022
 20
-63222.63734393
 42
-1.30322619
 10
68300.15825022
 20
-63203.31883053
 10
68334.98185766
 20
-63212.63734393
 42
1.30322619
 10
68334.98185766
 20
-63193.31883053
 10
68300.15825022
 20
-63202.63734393
 42
-1.30322619
 10
68300.15825022
 20
-63183.31883053
 10
68334.98185766
 20
-63192.63734393
 42
1.30322619
 10
68334.98185766
 20
-63173.31883053
 10
68300.15825022
 20
-63182.63734393
 42
-1.30322619
 10
68300.15825022
 20
-63163.31883053
 10
68334.98185766
 20
-63172.63734393
 42
1.30322619
 10
68334.98185766
 20
-63153.31883053
 10
68300.15825022
 20
-63162.63734393
 42
-1.30322619
 10
68300.15825022
 20
-63143.31883053
 10
68334.98185766
 20
-63152.63734393
 42
1.30322619
 10
68334.98185766
 20
-63133.31883053
 10
68300.15825022
 20
-63142.63734393
 42
-1.30322619
 10
68300.15825022
 20
-63123.31883053
 10
68334.98185766
 20
-63132.63734393
 42
1.30322619
 10
68334.98185766
 20
-63113.31883053
 10
68300.15825022
 20
-63122.63734393
 42
-1.30322619
 10
68300.15825022
 20
-63103.31883053
 10
68334.98185766
 20
-63112.63734393
 42
1.30322619
 10
68334.98185766
 20
-63093.31883053
 10
68300.15825022
 20
-63102.63734393
 42
-1.30322619
 10
68300.15825022
 20
-63083.31883053
 10
68334.98185766
 20
-63092.63734393
 42
1.30322619
 10
68334.98185766
 20
-63073.31883053
 10
68300.15825022
 20
-63082.63734393
 42
-1.30322619
 10
68300.15825022
 20
-63063.31883053
 10
68334.98185766
 20
-63072.63734393
 42
1.30322619
 10
68334.98185766
 20
-63053.31883053
 10
68300.15825022
 20
-63062.63734393
 42
-1.30322619
 10
68300.15825022
 20
-63043.31883053
 10
68334.98185766
 20
-63052.63734393
 42
1.30322619
 10
68334.98185766
 20
-63033.31883053
 10
68300.15825022
 20
-63042.63734393
 42
-1.30322619
 10
68300.15825022
 20
-63023.31883053
 10
68334.98185766
 20
-63032.63734393
 42
1.30322619
 10
68334.98185766
 20
-63013.31883053
 10
68300.15825022
 20
-63022.63734393
 42
-1.30322619
 10
68300.15825022
 20
-63003.31883053
 10
68334.98185766
 20
-63012.63734393
 42
1.30322619
 10
68334.98185766
 20
-62993.31883053
 10
68300.15825022
 20
-63002.63734393
 42
-1.30322619
 10
68300.15825022
 20
-62983.31883053
 10
68334.98185766
 20
-62992.63734393
 42
1.30322619
 10
68334.98185766
 20
-62973.31883053
 10
68300.15825022
 20
-62982.63734393
 42
-1.30322619
 10
68300.15825022
 20
-62963.31883053
 10
68334.98185766
 20
-62972.63734393
 42
1.30322619
 10
68334.98185766
 20
-62953.31883053
 10
68300.15825022
 20
-62962.63734393
 42
-1.30322619
 10
68300.15825022
 20
-62943.31883053
 10
68334.98185766
 20
-62952.63734393
 42
1.30322619
 10
68334.98185766
 20
-62933.31883053
 10
68300.15825022
 20
-62942.63734393
 42
-1.30322619
 10
68300.15825022
 20
-62923.31883053
 10
68334.98185766
 20
-62932.63734393
 42
1.30322619
 10
68334.98185766
 20
-62913.31883053
 10
68300.15825022
 20
-62922.63734393
 42
-1.30322619
 10
68300.15825022
 20
-62903.31883053
 10
68334.98185766
 20
-62912.63734393
 42
1.30322619
 10
68334.98185766
 20
-62893.31883053
 10
68300.15825022
 20
-62902.63734393
 42
-1.30322619
 10
68300.15825022
 20
-62883.31883053
 10
68334.98185766
 20
-62892.63734393
 42
1.30322619
 10
68334.98185766
 20
-62873.31883053
 10
68300.15825022
 20
-62882.63734393
 42
-1.30322619
 10
68300.15825022
 20
-62863.31883053
 10
68334.98185766
 20
-62872.63734393
 42
1.30322619
 10
68334.98185766
 20
-62853.31883053
 10
68300.15825022
 20
-62862.63734393
 42
-1.30322619
 10
68300.15825022
 20
-62843.31883053
 10
68334.98185766
 20
-62852.63734393
 42
1.30322619
 10
68334.98185766
 20
-62833.31883053
 10
68300.15825022
 20
-62842.63734393
 42
-1.30322619
 10
68300.15825022
 20
-62823.31883053
 10
68334.98185766
 20
-62832.63734393
 42
1.30322619
 10
68334.98185766
 20
-62813.31883053
 10
68300.15825022
 20
-62822.63734393
 42
-1.30322619
 10
68300.15825022
 20
-62803.31883053
 10
68334.98185766
 20
-62812.63734393
 42
1.30322619
 10
68334.98185766
 20
-62793.31883053
 10
68300.15825022
 20
-62802.63734393
 42
-1.30322619
 10
68300.15825022
 20
-62783.31883053
 10
68334.98185766
 20
-62792.63734393
 42
1.30322619
 10
68334.98185766
 20
-62773.31883053
 10
68300.15825022
 20
-62782.63734393
 42
-1.30322619
 10
68300.15825022
 20
-62763.31883053
 10
68334.98185766
 20
-62772.63734393
 42
1.30322619
 10
68334.98185766
 20
-62753.31883053
 10
68300.15825022
 20
-62762.63734393
 42
-1.30322619
 10
68300.15825022
 20
-62743.31883053
 10
68334.98185766
 20
-62752.63734393
 42
1.30322619
 10
68334.98185766
 20
-62733.31883053
 10
68300.15825022
 20
-62742.63734393
 42
-1.30322619
 10
68300.15825022
 20
-62723.31883053
 10
68334.98185766
 20
-62732.63734393
 42
1.30322619
 10
68334.98185766
 20
-62713.31883053
 10
68300.15825022
 20
-62722.63734393
 42
-1.30322619
 10
68300.15825022
 20
-62703.31883053
 10
68334.98185766
 20
-62712.63734393
 42
1.30322619
 10
68334.98185766
 20
-62693.31883053
 10
68300.15825022
 20
-62702.63734393
 42
-0.70413711
 10
68289.43936704
 20
-62687.1564096
  0
LWPOLYLINE
  5
566
100
AcDbEntity
  8
Ech.1_10
 62
     7
  6
CONTINUOUS
370
    -3
100
AcDbPolyline
 90
        4
 70
     1
 43
0.0
 10
68287.57005394
 20
-62562.1564096
 10
68347.57005394
 20
-62562.1564096
 10
68347.57005394
 20
-62517.1564096
 10
68287.57005394
 20
-62517.1564096
  0
LWPOLYLINE
  5
567
100
AcDbEntity
  8
Ech.1_10
 62
   190
  6
CONTINUOUS
370
    -3
100
AcDbPolyline
 90
        9
 70
     1
 43
0.0
 10
68501.57005394
 20
-63390.15640764
 10
68501.57005394
 20
-62687.1564096
 10
68356.57005394
 20
-62687.1564096
 10
68356.57005394
 20
-63512.97808723
 10
68435.64252791
 20
-63512.97837883
 10
68452.12888199
 20
-63495.00002722
 10
68438.01894198
 20
-63530.95572723
 10
68454.50444513
 20
-63512.97837883
 10
68501.57005394
 20
-63512.97674928
  0
LWPOLYLINE
  5
568
100
AcDbEntity
  8
Ech.1_10
 62
   253
  6
CONTINUOUS
370
    15
100
AcDbPolyline
 90
        4
 70
     1
 43
0.0
 10
68541.57005394
 20
-63512.97674928
 10
68554.57005394
 20
-63512.97674928
 10
68554.57005394
 20
-63339.15640194
 10
68541.57005394
 20
-63339.15640194
  0
LWPOLYLINE
  5
569
102
{ACAD_REACTORS
330
56A
102
}
100
AcDbEntity
  8
Ech.1_10
 62
     7
  6
CONTINUOUS
370
    -3
100
AcDbPolyline
 90
        4
 70
     1
 43
0.0
 10
68541.57005394
 20
-63512.97674928
 10
68554.57005394
 20
-63512.97674928
 10
68554.57005394
 20
-63339.15640194
 10
68541.57005394
 20
-63339.15640194
  0
HATCH
  5
56A
100
AcDbEntity
  8
Ech.1_10
 62
   190
  6
CONTINUOUS
100
AcDbHatch
 10
0.0
 20
0.0
 30
0.0
210
0.0
220
0.0
230
1.0
  2
DOTS2
 70
     0
 71
     1
 91
        1
 92
        7
 72
     0
 73
     1
 93
        4
 10
68541.57005394
 20
-63512.97674928
 10
68554.57005394
 20
-63512.97674928
 10
68554.57005394
 20
-63339.15640194
 10
68541.57005394
 20
-63339.15640194
 97
        1
330
569
 75
     0
 76
     2
 52
0.0
 41
4.72440952
 77
     0
 78
     1
 53
0.0
 43
0.0
 44
0.0
 45
3.75
 46
3.535
 79
     2
 49
0.0
 49
-3.535
 47
0.775229
 98
        1
 10
0.0
 20
0.0
  0
LWPOLYLINE
  5
56B
100
AcDbEntity
  8
Ech.1_10
 62
   190
  6
CONTINUOUS
370
    -3
100
AcDbPolyline
 90
        4
 70
     1
 43
0.0
 10
68501.57005394
 20
-63512.97674928
 10
68541.57005394
 20
-63512.97674928
 10
68541.57005394
 20
-63390.15640764
 10
68501.57005394
 20
-63390.15640764
  0
LWPOLYLINE
  5
56C
100
AcDbEntity
  8
Ech.1_10
 62
   190
  6
CONTINUOUS
370
    -3
100
AcDbPolyline
 90
        4
 70
     1
 43
0.0
 10
68356.57005394
 20
-62517.1564096
 10
68347.57005394
 20
-62517.1564096
 10
68347.57005394
 20
-63512.97808723
 10
68356.57005394
 20
-63512.97808723
  0
LWPOLYLINE
  5
56D
100
AcDbEntity
  8
Ech.1_10
 62
   190
  6
CONTINUOUS
370
    -3
100
AcDbPolyline
 90
        6
 70
     0
 43
0.0
 10
68607.36715641
 20
-63512.97674928
 10
68454.50444513
 20
-63512.97837883
 10
68438.01894198
 20
-63530.95572723
 10
68452.12888199
 20
-63495.00002722
 10
68435.64252791
 20
-63512.97837883
 10
68222.57005394
 20
-63512.97759309
  0
LINE
  5
56E
100
AcDbEntity
  8
Ech.1_10
 62
   190
  6
CONTINUOUS
370
    -3
100
AcDbLine
 10
68347.57005394
 20
-62708.75426807
 30
0.0
 11
68347.57005394
 21
-63512.97805634
 31
0.0
  0
LWPOLYLINE
  5
56F
100
AcDbEntity
  8
Ech.1_10
 62
   190
  6
CONTINUOUS
370
    -3
100
AcDbPolyline
 90
        4
 70
     1
 43
0.0
 10
68546.57005394
 20
-63006.1564096
 10
68501.57005394
 20
-63006.1564096
 10
68501.57005394
 20
-63226.1564096
 10
68546.57005394
 20
-63226.1564096
  0
LWPOLYLINE
  5
570
100
AcDbEntity
  8
Ech.1_10
 62
   190
  6
CONTINUOUS
370
    -3
100
AcDbPolyline
 90
        4
 70
     1
 43
0.0
 10
68501.57005394
 20
-63226.1564096
 10
68546.57005394
 20
-63226.1564096
 10
68546.57005394
 20
-63006.1564096
 10
68501.57005394
 20
-63006.1564096
  0
LINE
  5
571
100
AcDbEntity
  8
Ech.1_10
370
    18
100
AcDbLine
 10
68262.57005394
 20
-63361.26652353
 30
0.0
 11
68262.57005394
 21
-62761.26649592
 31
0.0
  0
LWPOLYLINE
  5
572
100
AcDbEntity
  8
Ech.1_10
 62
     9
100
AcDbPolyline
 90
       27
 70
     0
 43
0.0
 10
68249.44343682
 20
-63211.3866905
 10
68249.57005394
 20
-63211.05221671
 10
68249.57005394
 20
-63183.66875262
 10
68256.57005394
 20
-63183.66875262
 10
68256.57005394
 20
-63192.66875262
 10
68262.57005394
 20
-63192.66875262
 10
68262.57005394
 20
-63165.66875262
 10
68258.57005394
 20
-63161.66875262
 10
68262.57005394
 20
-63157.66875262
 10
68262.57005394
 20
-63093.66875262
 10
68258.57005394
 20
-63089.66875262
 10
68262.57005394
 20
-63085.66875262
 10
68262.57005394
 20
-63050.66875262
 10
68255.57005394
 20
-63050.66875262
 10
68255.57005394
 20
-63044.66875262
 10
68253.07005394
 20
-63039.66875262
 10
68250.57005394
 20
-63044.66875262
 10
68250.57005394
 20
-63075.59768481
 10
68250.1894516
 20
-63077.51110197
 10
68244.03452003
 20
-63084.20428652
 10
68242.57005394
 20
-63087.73982043
 10
68242.57005394
 20
-63206.82656484
 10
68243.53037633
 20
-63208.45643348
 10
68248.26649719
 20
-63211.42778342
 10
68248.67849856
 20
-63211.66875262
 10
68248.99231605
 20
-63211.66875262
 10
68249.44343682
 20
-63211.3866905
  0
LWPOLYLINE
  5
573
100
AcDbEntity
  8
Ech.1_10
 62
     9
100
AcDbPolyline
 90
       27
 70
     0
 43
0.0
 10
68249.44343682
 20
-63356.3866905
 10
68249.57005394
 20
-63356.05221671
 10
68249.57005394
 20
-63328.66875262
 10
68256.57005394
 20
-63328.66875262
 10
68256.57005394
 20
-63337.66875262
 10
68262.57005394
 20
-63337.66875262
 10
68262.57005394
 20
-63310.66875262
 10
68258.57005394
 20
-63306.66875262
 10
68262.57005394
 20
-63302.66875262
 10
68262.57005394
 20
-63238.66875262
 10
68258.57005394
 20
-63234.66875262
 10
68262.57005394
 20
-63230.66875262
 10
68262.57005394
 20
-63195.66875262
 10
68255.57005394
 20
-63195.66875262
 10
68255.57005394
 20
-63189.66875262
 10
68253.07005394
 20
-63184.66875262
 10
68250.57005394
 20
-63189.66875262
 10
68250.57005394
 20
-63220.59768481
 10
68250.1894516
 20
-63222.51110197
 10
68244.03452003
 20
-63229.20428652
 10
68242.57005394
 20
-63232.73982043
 10
68242.57005394
 20
-63351.82656484
 10
68243.53037633
 20
-63353.45643348
 10
68248.26649719
 20
-63356.42778342
 10
68248.67849856
 20
-63356.66875262
 10
68248.99231605
 20
-63356.66875262
 10
68249.44343682
 20
-63356.3866905
  0
LWPOLYLINE
  5
574
100
AcDbEntity
  8
Ech.1_10
 62
     9
100
AcDbPolyline
 90
       27
 70
     0
 43
0.0
 10
68249.44343682
 20
-63066.3866905
 10
68249.57005394
 20
-63066.05221671
 10
68249.57005394
 20
-63038.66875262
 10
68256.57005394
 20
-63038.66875262
 10
68256.57005394
 20
-63047.66875262
 10
68262.57005394
 20
-63047.66875262
 10
68262.57005394
 20
-63020.66875262
 10
68258.57005394
 20
-63016.66875262
 10
68262.57005394
 20
-63012.66875262
 10
68262.57005394
 20
-62948.66875262
 10
68258.57005394
 20
-62944.66875262
 10
68262.57005394
 20
-62940.66875262
 10
68262.57005394
 20
-62905.66875262
 10
68255.57005394
 20
-62905.66875262
 10
68255.57005394
 20
-62899.66875262
 10
68253.07005394
 20
-62894.66875262
 10
68250.57005394
 20
-62899.66875262
 10
68250.57005394
 20
-62930.59768481
 10
68250.1894516
 20
-62932.51110197
 10
68244.03452003
 20
-62939.20428652
 10
68242.57005394
 20
-62942.73982043
 10
68242.57005394
 20
-63061.82656484
 10
68243.53037633
 20
-63063.45643348
 10
68248.26649719
 20
-63066.42778342
 10
68248.67849856
 20
-63066.66875262
 10
68248.99231605
 20
-63066.66875262
 10
68249.44343682
 20
-63066.3866905
  0
LWPOLYLINE
  5
575
100
AcDbEntity
  8
Ech.1_10
 62
     9
  6
CONTINUOUS
370
    -3
100
AcDbPolyline
 90
        4
 70
     1
 43
0.0
 10
68262.57005394
 20
-63513.04845276
 10
68287.57005394
 20
-63513.04837132
 10
68287.57005394
 20
-62517.15614223
 10
68262.57005394
 20
-62517.1564096
  0
LWPOLYLINE
  5
576
100
AcDbEntity
  8
Ech.1_10
 62
   190
  6
CONTINUOUS
370
    -3
100
AcDbPolyline
 90
        4
 70
     0
 43
0.0
 10
69013.05272506
 20
-63326.1564096
 10
68599.77833617
 20
-63326.1564096
 10
68599.77833617
 20
-63226.1564096
 10
69013.05272506
 20
-63226.1564096
  0
LINE
  5
577
100
AcDbEntity
  8
Ech.1_10
 62
   190
  6
CONTINUOUS
370
    -3
100
AcDbLine
 10
68501.57005394
 20
-63316.1564096
 30
0.0
 11
68501.57005394
 21
-63512.97674928
 31
0.0
  0
LWPOLYLINE
  5
578
100
AcDbEntity
  8
Ech.1_10
 62
     7
  6
CONTINUOUS
370
    -3
100
AcDbPolyline
 90
        4
 70
     1
 43
0.0
 10
68287.57005394
 20
-63343.52488464
 10
68347.57005394
 20
-63343.52488464
 10
68347.57005394
 20
-63298.52488464
 10
68287.57005394
 20
-63298.52488464
  0
LWPOLYLINE
  5
579
100
AcDbEntity
  8
Ech.1_10
 62
   190
370
    18
100
AcDbPolyline
 90
        4
 70
     0
 43
0.0
 10
68287.57005394
 20
-63298.52488464
 10
68347.57005394
 20
-63343.52488464
 10
68347.57005394
 20
-63298.52488464
 10
68287.57005394
 20
-63343.52488464
  0
LWPOLYLINE
  5
57A
100
AcDbEntity
  8
Ech.1_10
 62
     9
100
AcDbPolyline
 90
       27
 70
     0
 43
0.0
 10
68249.44343682
 20
-63501.3866905
 10
68249.57005394
 20
-63501.05221671
 10
68249.57005394
 20
-63473.66875262
 10
68256.57005394
 20
-63473.66875262
 10
68256.57005394
 20
-63482.66875262
 10
68262.57005394
 20
-63482.66875262
 10
68262.57005394
 20
-63455.66875262
 10
68258.57005394
 20
-63451.66875262
 10
68262.57005394
 20
-63447.66875262
 10
68262.57005394
 20
-63383.66875262
 10
68258.57005394
 20
-63379.66875262
 10
68262.57005394
 20
-63375.66875262
 10
68262.57005394
 20
-63340.66875262
 10
68255.57005394
 20
-63340.66875262
 10
68255.57005394
 20
-63334.66875262
 10
68253.07005394
 20
-63329.66875262
 10
68250.57005394
 20
-63334.66875262
 10
68250.57005394
 20
-63365.59768481
 10
68250.1894516
 20
-63367.51110197
 10
68244.03452003
 20
-63374.20428652
 10
68242.57005394
 20
-63377.73982043
 10
68242.57005394
 20
-63496.82656484
 10
68243.53037633
 20
-63498.45643348
 10
68248.26649719
 20
-63501.42778342
 10
68248.67849856
 20
-63501.66875262
 10
68248.99231605
 20
-63501.66875262
 10
68249.44343682
 20
-63501.3866905
  0
LWPOLYLINE
  5
57B
100
AcDbEntity
  8
Ech.1_10
 62
   190
  6
CONTINUOUS
370
    -3
100
AcDbPolyline
 90
       36
 70
     0
 43
0.0
 10
68534.90338727
 20
-63512.97674928
 42
1.14028181
 10
68533.17792308
 20
-63499.87057814
 10
68509.96218479
 20
-63506.08292041
 42
-1.30322619
 10
68509.96218479
 20
-63493.20391147
 10
68533.17792308
 20
-63499.41625374
 42
1.30322619
 10
68533.17792308
 20
-63486.53724481
 10
68509.96218479
 20
-63492.74958708
 42
-1.30322619
 10
68509.96218479
 20
-63479.87057814
 10
68533.17792308
 20
-63486.08292041
 42
1.30322619
 10
68533.17792308
 20
-63473.20391147
 10
68509.96218479
 20
-63479.41625374
 42
-1.30322619
 10
68509.96218479
 20
-63466.53724481
 10
68533.17792308
 20
-63472.74958708
 42
1.30322619
 10
68533.17792308
 20
-63459.87057814
 10
68509.96218479
 20
-63466.08292041
 42
-1.30322619
 10
68509.96218479
 20
-63453.20391147
 10
68533.17792308
 20
-63459.41625374
 42
1.30322619
 10
68533.17792308
 20
-63446.53724481
 10
68509.96218479
 20
-63452.74958708
 42
-1.30322619
 10
68509.96218479
 20
-63439.87057814
 10
68533.17792308
 20
-63446.08292041
 42
1.30322619
 10
68533.17792308
 20
-63433.20391147
 10
68509.96218479
 20
-63439.41625374
 42
-1.30322619
 10
68509.96218479
 20
-63426.53724481
 10
68533.17792308
 20
-63432.74958708
 42
1.30322619
 10
68533.17792308
 20
-63419.87057814
 10
68509.96218479
 20
-63426.08292041
 42
-1.30322619
 10
68509.96218479
 20
-63413.20391147
 10
68533.17792308
 20
-63419.41625374
 42
1.30322619
 10
68533.17792308
 20
-63406.53724481
 10
68509.96218479
 20
-63412.74958708
 42
-1.30322619
 10
68509.96218479
 20
-63399.87057814
 10
68533.17792308
 20
-63406.08292041
 42
1.30322619
 10
68533.17792308
 20
-63393.20391147
 10
68509.96218479
 20
-63399.41625374
 42
-0.63723841
 10
68502.19601555
 20
-63390.15640764
  0
LWPOLYLINE
  5
57C
102
{ACAD_REACTORS
330
57D
102
}
100
AcDbEntity
  8
Ech.1_10
 62
     7
  6
CONTINUOUS
370
    -3
100
AcDbPolyline
 90
        4
 70
     1
 43
0.0
 10
68356.57005394
 20
-62517.1564096
 10
68347.57005394
 20
-62517.1564096
 10
68347.57005394
 20
-63512.97808723
 10
68356.57005394
 20
-63512.97808723
  0
HATCH
  5
57D
100
AcDbEntity
  8
Ech.1_10
 62
   190
  6
CONTINUOUS
100
AcDbHatch
 10
0.0
 20
0.0
 30
0.0
210
0.0
220
0.0
230
1.0
  2
CDWK10A
 70
     0
 71
     1
 91
        1
 92
        7
 72
     0
 73
     1
 93
        4
 10
68356.57005394
 20
-62517.1564096
 10
68347.57005394
 20
-62517.1564096
 10
68347.57005394
 20
-63512.97808723
 10
68356.57005394
 20
-63512.97808723
 97
        1
330
57C
 75
     0
 76
     2
 52
0.0
 41
1.0
 77
     0
 78
     3
 53
45.0
 43
0.0
 44
0.0
 45
0.0
 46
42.00000167
 79
     0
 53
45.0
 43
0.0
 44
10.80000043
 45
0.0
 46
42.00000167
 79
     0
 53
45.0
 43
0.0
 44
21.60000086
 45
0.0
 46
42.00000167
 79
     0
 47
0.775229
 98
        1
 10
0.0
 20
0.0
  0
LWPOLYLINE
  5
57E
100
AcDbEntity
  8
Ech.1_10
 62
     9
100
AcDbPolyline
 90
        9
 70
     0
 43
0.0
 10
68262.57005394
 20
-63512.97769335
 10
68262.57005394
 20
-63485.66875262
 10
68255.57005394
 20
-63485.66875262
 10
68255.57005394
 20
-63479.66875262
 10
68253.07005394
 20
-63474.66875262
 10
68250.57005394
 20
-63479.66875262
 10
68250.57005394
 20
-63510.59768481
 10
68250.1894516
 20
-63512.51110197
 10
68249.76038259
 20
-63512.97769335
  0
LWPOLYLINE
  5
57F
100
AcDbEntity
  8
Ech.1_10
 62
     9
100
AcDbPolyline
 90
       27
 70
     0
 43
0.0
 10
68249.44343682
 20
-62921.3866905
 10
68249.57005394
 20
-62921.05221671
 10
68249.57005394
 20
-62893.66875262
 10
68256.57005394
 20
-62893.66875262
 10
68256.57005394
 20
-62902.66875262
 10
68262.57005394
 20
-62902.66875262
 10
68262.57005394
 20
-62875.66875262
 10
68258.57005394
 20
-62871.66875262
 10
68262.57005394
 20
-62867.66875262
 10
68262.57005394
 20
-62803.66875262
 10
68258.57005394
 20
-62799.66875262
 10
68262.57005394
 20
-62795.66875262
 10
68262.57005394
 20
-62760.66875262
 10
68255.57005394
 20
-62760.66875262
 10
68255.57005394
 20
-62754.66875262
 10
68253.07005394
 20
-62749.66875262
 10
68250.57005394
 20
-62754.66875262
 10
68250.57005394
 20
-62785.59768481
 10
68250.1894516
 20
-62787.51110197
 10
68244.03452003
 20
-62794.20428652
 10
68242.57005394
 20
-62797.73982043
 10
68242.57005394
 20
-62916.82656484
 10
68243.53037633
 20
-62918.45643348
 10
68248.26649719
 20
-62921.42778342
 10
68248.67849856
 20
-62921.66875262
 10
68248.99231605
 20
-62921.66875262
 10
68249.44343682
 20
-62921.3866905
  0
LWPOLYLINE
  5
580
100
AcDbEntity
  8
Ech.1_10
100
AcDbPolyline
 90
        4
 70
     0
 43
0.0
 10
69013.05272506
 20
-63326.1564096
 10
68501.57005394
 20
-63326.1564096
 10
68501.57005394
 20
-63301.4742395
 10
69013.05272506
 20
-63301.4742395
  0
LWPOLYLINE
  5
581
100
AcDbEntity
  8
Ech.1_10
370
    50
100
AcDbPolyline
 90
        3
 70
     0
 43
0.0
 10
68501.75669424
 20
-63302.84030131
 10
68501.75669424
 20
-63325.91881821
 10
68528.98253904
 20
-63325.91881821
  0
LWPOLYLINE
  5
582
100
AcDbEntity
  8
Ech.1_10
 62
   190
370
    18
100
AcDbPolyline
 90
        4
 70
     0
 43
0.0
 10
68287.57005394
 20
-62642.1564096
 10
68347.57005394
 20
-62687.1564096
 10
68347.57005394
 20
-62642.1564096
 10
68287.57005394
 20
-62687.1564096
  0
LWPOLYLINE
  5
583
100
AcDbEntity
  8
Ech.1_10
 62
   190
  6
CONTINUOUS
370
    -3
100
AcDbPolyline
 90
        4
 70
     1
 43
0.0
 10
68356.57005394
 20
-62517.1564096
 10
68356.57005394
 20
-62562.1564096
 10
68501.57005394
 20
-62562.1564096
 10
68501.57005394
 20
-62517.1564096
  0
LWPOLYLINE
  5
584
100
AcDbEntity
  8
Ech.1_10
 62
   190
  6
CONTINUOUS
370
    -3
100
AcDbPolyline
 90
        4
 70
     1
 43
0.0
 10
68501.57005394
 20
-62562.1564096
 10
68501.57005394
 20
-62517.1564096
 10
68356.57005394
 20
-62517.1564096
 10
68356.57005394
 20
-62562.1564096
  0
LWPOLYLINE
  5
585
100
AcDbEntity
  8
Ech.1_10
 62
   190
370
    18
100
AcDbPolyline
 90
        4
 70
     0
 43
0.0
 10
68287.57005394
 20
-62517.1564096
 10
68347.57005394
 20
-62562.1564096
 10
68347.57005394
 20
-62517.1564096
 10
68287.57005394
 20
-62562.1564096
  0
LWPOLYLINE
  5
586
100
AcDbEntity
  8
Ech.1_10
 62
   190
  6
CONTINUOUS
370
    -3
100
AcDbPolyline
 90
        4
 70
     1
 43
0.0
 10
68356.57005394
 20
-62642.1564096
 10
68356.57005394
 20
-62687.1564096
 10
68501.57005394
 20
-62687.1564096
 10
68501.57005394
 20
-62642.1564096
  0
LWPOLYLINE
  5
587
100
AcDbEntity
  8
Ech.1_10
 62
   190
  6
CONTINUOUS
370
    -3
100
AcDbPolyline
 90
        4
 70
     1
 43
0.0
 10
68501.57005394
 20
-62687.1564096
 10
68501.57005394
 20
-62642.1564096
 10
68356.57005394
 20
-62642.1564096
 10
68356.57005394
 20
-62687.1564096
  0
LWPOLYLINE
  5
588
100
AcDbEntity
  8
Ech.1_10
 62
     9
100
AcDbPolyline
 90
       27
 70
     0
 43
0.0
 10
68249.44343682
 20
-62776.3866905
 10
68249.57005394
 20
-62776.05221671
 10
68249.57005394
 20
-62748.66875262
 10
68256.57005394
 20
-62748.66875262
 10
68256.57005394
 20
-62757.66875262
 10
68262.57005394
 20
-62757.66875262
 10
68262.57005394
 20
-62730.66875262
 10
68258.57005394
 20
-62726.66875262
 10
68262.57005394
 20
-62722.66875262
 10
68262.57005394
 20
-62658.66875262
 10
68258.57005394
 20
-62654.66875262
 10
68262.57005394
 20
-62650.66875262
 10
68262.57005394
 20
-62615.66875262
 10
68255.57005394
 20
-62615.66875262
 10
68255.57005394
 20
-62609.66875262
 10
68253.07005394
 20
-62604.66875262
 10
68250.57005394
 20
-62609.66875262
 10
68250.57005394
 20
-62640.59768481
 10
68250.1894516
 20
-62642.51110197
 10
68244.03452003
 20
-62649.20428652
 10
68242.57005394
 20
-62652.73982043
 10
68242.57005394
 20
-62771.82656484
 10
68243.53037633
 20
-62773.45643348
 10
68248.26649719
 20
-62776.42778342
 10
68248.67849856
 20
-62776.66875262
 10
68248.99231605
 20
-62776.66875262
 10
68249.44343682
 20
-62776.3866905
  0
LWPOLYLINE
  5
589
100
AcDbEntity
  8
Ech.1_10
 62
     9
100
AcDbPolyline
 90
       16
 70
     0
 43
0.0
 10
68242.57005394
 20
-62537.1564096
 10
68242.57005394
 20
-62626.82656484
 10
68243.53037633
 20
-62628.45643348
 10
68248.26649719
 20
-62631.42778342
 10
68248.67849856
 20
-62631.66875262
 10
68248.99231605
 20
-62631.66875262
 10
68249.44343682
 20
-62631.3866905
 10
68249.57005394
 20
-62631.05221671
 10
68249.57005394
 20
-62603.66875262
 10
68256.57005394
 20
-62603.66875262
 10
68256.57005394
 20
-62612.66875262
 10
68262.57005394
 20
-62612.66875262
 10
68262.57005394
 20
-62585.66875262
 10
68258.57005394
 20
-62581.66875262
 10
68262.57005394
 20
-62577.66875262
 10
68262.57005394
 20
-62537.1564096
  0
LWPOLYLINE
  5
58A
100
AcDbEntity
  8
Ech.1_10
 62
   190
  6
CONTINUOUS
370
    -3
100
AcDbPolyline
 90
        4
 70
     1
 43
0.0
 10
68501.57005394
 20
-62987.1564096
 10
68520.57005394
 20
-62987.1564096
 10
68520.57005394
 20
-62517.1564096
 10
68501.57005394
 20
-62517.1564096
  0
LWPOLYLINE
  5
58B
102
{ACAD_REACTORS
330
58C
102
}
100
AcDbEntity
  8
Ech.1_10
 62
     7
  6
CONTINUOUS
370
    -3
100
AcDbPolyline
 90
        4
 70
     1
 43
0.0
 10
68501.57005394
 20
-62987.1564096
 10
68520.57005394
 20
-62987.1564096
 10
68520.57005394
 20
-62517.1564096
 10
68501.57005394
 20
-62517.1564096
  0
HATCH
  5
58C
100
AcDbEntity
  8
Ech.1_10
 62
   190
  6
CONTINUOUS
100
AcDbHatch
 10
0.0
 20
0.0
 30
0.0
210
0.0
220
0.0
230
1.0
  2
ANSI38
 70
     0
 71
     1
 91
        1
 92
        7
 72
     0
 73
     1
 93
        4
 10
68501.57005394
 20
-62987.1564096
 10
68520.57005394
 20
-62987.1564096
 10
68520.57005394
 20
-62517.1564096
 10
68501.57005394
 20
-62517.1564096
 97
        1
330
58B
 75
     0
 76
     2
 52
0.0
 41
1.0
 77
     0
 78
     2
 53
45.0
 43
0.0
 44
0.0
 45
-8.48528171
 46
8.48528171
 79
     2
 49
960.00003815
 49
0.0
 53
135.0
 43
0.0
 44
0.0
 45
-25.45584513
 46
8.48528171
 79
     2
 49
30.00000119
 49
-18.00000072
 47
0.775229
 98
        1
 10
0.0
 20
0.0
  0
LWPOLYLINE
  5
58D
100
AcDbEntity
  8
Ech.1_10
 62
     5
  6
CONTINUOUS
370
    -3
100
AcDbPolyline
 90
        5
 70
     0
 43
0.0
 10
68501.57005394
 20
-63006.1564096
 10
68546.57005394
 20
-63006.1564096
 10
68546.57005394
 20
-63226.1564096
 10
68501.57005394
 20
-63226.1564096
 10
68501.57005394
 20
-63006.1564096
  0
LWPOLYLINE
  5
58E
100
AcDbEntity
  8
Ech.1_10
 62
     5
100
AcDbPolyline
 90
        5
 70
     0
 43
0.0
 10
68287.57005394
 20
-63343.52488464
 10
68347.57005394
 20
-63343.52488464
 10
68347.57005394
 20
-63298.52488464
 10
68287.57005394
 20
-63298.52488464
 10
68287.57005394
 20
-63343.52488464
  0
LWPOLYLINE
  5
58F
100
AcDbEntity
  8
Ech.1_10
 62
     5
100
AcDbPolyline
 90
        5
 70
     0
 43
0.0
 10
68287.57005394
 20
-62687.1564096
 10
68347.57005394
 20
-62687.1564096
 10
68347.57005394
 20
-62642.1564096
 10
68287.57005394
 20
-62642.1564096
 10
68287.57005394
 20
-62687.1564096
  0
LWPOLYLINE
  5
590
100
AcDbEntity
  8
Ech.1_10
 62
     5
100
AcDbPolyline
 90
        5
 70
     0
 43
0.0
 10
68287.57005394
 20
-62562.1564096
 10
68347.57005394
 20
-62562.1564096
 10
68347.57005394
 20
-62517.1564096
 10
68287.57005394
 20
-62517.1564096
 10
68287.57005394
 20
-62562.1564096
  0
LWPOLYLINE
  5
591
100
AcDbEntity
  8
Ech.1_10
 62
     5
  6
CONTINUOUS
370
    -3
100
AcDbPolyline
 90
        5
 70
     0
 43
0.0
 10
68356.57005394
 20
-62687.1564096
 10
68356.57005394
 20
-62642.1564096
 10
68501.57005394
 20
-62642.1564096
 10
68501.57005394
 20
-62687.1564096
 10
68356.57005394
 20
-62687.1564096
  0
LWPOLYLINE
  5
592
100
AcDbEntity
  8
Ech.1_10
 62
     5
  6
CONTINUOUS
370
    -3
100
AcDbPolyline
 90
        5
 70
     0
 43
0.0
 10
68356.57005394
 20
-62562.1564096
 10
68356.57005394
 20
-62517.1564096
 10
68501.57005394
 20
-62517.1564096
 10
68501.57005394
 20
-62562.1564096
 10
68356.57005394
 20
-62562.1564096
  0
LINE
  5
593
100
AcDbEntity
  8
Ech.1_10
 62
   150
  6
CADWORK_22
370
    35
100
AcDbLine
 10
68286.07005394
 20
-62517.1564096
 30
0.0
 11
68286.09647877
 21
-63513.04763895
 31
0.0
  0
LWPOLYLINE
  5
594
102
{ACAD_REACTORS
330
595
102
}
100
AcDbEntity
  8
Ech.1_10
 62
   190
  6
CONTINUOUS
370
    -3
100
AcDbPolyline
 90
       13
 70
     1
 43
0.0
 10
68357.11554498
 20
-62506.33877511
 10
68220.77217742
 20
-62501.07843071
 10
68220.77217742
 20
-62567.15997627
 10
68228.30143953
 20
-62562.26502074
 10
68229.40625448
 20
-62563.93216917
 10
68219.25785271
 20
-62570.56282179
 10
68219.25785271
 20
-62499.02418206
 10
68537.10216886
 20
-62508.90955165
 10
68537.10216886
 20
-62576.58677882
 10
68524.35960937
 20
-62566.79385303
 10
68525.57832374
 20
-62565.20806134
 10
68535.44787273
 20
-62572.79301795
 10
68535.44787273
 20
-62510.85285326
  0
HATCH
  5
595
100
AcDbEntity
  8
Ech.1_10
 62
   177
  6
CONTINUOUS
100
AcDbHatch
 10
0.0
 20
0.0
 30
0.0
210
0.0
220
0.0
230
1.0
  2
SOLID
 70
     1
 71
     1
 91
        1
 92
        7
 72
     0
 73
     1
 93
       13
 10
68357.11554498
 20
-62506.33877511
 10
68220.77217742
 20
-62501.07843071
 10
68220.77217742
 20
-62567.15997627
 10
68228.30143953
 20
-62562.26502074
 10
68229.40625448
 20
-62563.93216917
 10
68219.25785271
 20
-62570.56282179
 10
68219.25785271
 20
-62499.02418206
 10
68537.10216886
 20
-62508.90955165
 10
68537.10216886
 20
-62576.58677882
 10
68524.35960937
 20
-62566.79385303
 10
68525.57832374
 20
-62565.20806134
 10
68535.44787273
 20
-62572.79301795
 10
68535.44787273
 20
-62510.85285326
 97
        1
330
594
 75
     0
 76
     2
 47
0.775229
 98
        1
 10
0.0
 20
0.0
  0
LWPOLYLINE
  5
596
100
AcDbEntity
  8
Ech.1_10
 62
   190
  6
CONTINUOUS
370
    -3
100
AcDbPolyline
 90
       68
 70
     0
 43
0.0
 10
68380.7367206
 20
-62687.1564096
 42
1.14028181
 10
68386.99152828
 20
-62734.66627996
 10
68471.1485796
 20
-62712.14653923
 42
-1.30322619
 10
68471.1485796
 20
-62758.83294662
 10
68386.99152828
 20
-62736.3132059
 42
1.30322619
 10
68386.99152828
 20
-62782.99961329
 10
68471.1485796
 20
-62760.47987257
 42
-1.30322619
 10
68471.1485796
 20
-62807.16627996
 10
68386.99152828
 20
-62784.64653923
 42
1.30322619
 10
68386.99152828
 20
-62831.33294662
 10
68471.1485796
 20
-62808.8132059
 42
-1.30322619
 10
68471.1485796
 20
-62855.49961329
 10
68386.99152828
 20
-62832.97987257
 42
1.30322619
 10
68386.99152828
 20
-62879.66627996
 10
68471.1485796
 20
-62857.14653923
 42
-1.30322619
 10
68471.1485796
 20
-62903.83294662
 10
68386.99152828
 20
-62881.3132059
 42
1.30322619
 10
68386.99152828
 20
-62927.99961329
 10
68471.1485796
 20
-62905.47987257
 42
-1.30322619
 10
68471.1485796
 20
-62952.16627996
 10
68386.99152828
 20
-62929.64653923
 42
1.30322619
 10
68386.99152828
 20
-62976.33294662
 10
68471.1485796
 20
-62953.8132059
 42
-1.30322619
 10
68471.1485796
 20
-63000.49961329
 10
68386.99152828
 20
-62977.97987257
 42
1.30322619
 10
68386.99152828
 20
-63024.66627996
 10
68471.1485796
 20
-63002.14653923
 42
-1.30322619
 10
68471.1485796
 20
-63048.83294662
 10
68386.99152828
 20
-63026.3132059
 42
1.30322619
 10
68386.99152828
 20
-63072.99961329
 10
68471.1485796
 20
-63050.47987257
 42
-1.30322619
 10
68471.1485796
 20
-63097.16627996
 10
68386.99152828
 20
-63074.64653923
 42
1.30322619
 10
68386.99152828
 20
-63121.33294662
 10
68471.1485796
 20
-63098.8132059
 42
-1.30322619
 10
68471.1485796
 20
-63145.49961329
 10
68386.99152828
 20
-63122.97987257
 42
1.30322619
 10
68386.99152828
 20
-63169.66627996
 10
68471.1485796
 20
-63147.14653923
 42
-1.30322619
 10
68471.1485796
 20
-63193.83294662
 10
68386.99152828
 20
-63171.3132059
 42
1.30322619
 10
68386.99152828
 20
-63217.99961329
 10
68471.1485796
 20
-63195.47987257
 42
-1.30322619
 10
68471.1485796
 20
-63242.16627996
 10
68386.99152828
 20
-63219.64653923
 42
1.30322619
 10
68386.99152828
 20
-63266.33294662
 10
68471.1485796
 20
-63243.8132059
 42
-1.30322619
 10
68471.1485796
 20
-63290.49961329
 10
68386.99152828
 20
-63267.97987257
 42
1.30322619
 10
68386.99152828
 20
-63314.66627996
 10
68471.1485796
 20
-63292.14653923
 42
-1.30322619
 10
68471.1485796
 20
-63338.83294662
 10
68386.99152828
 20
-63316.3132059
 42
1.30322619
 10
68386.99152828
 20
-63362.99961329
 10
68471.1485796
 20
-63340.47987257
 42
-1.30322619
 10
68471.1485796
 20
-63387.16627996
 10
68386.99152828
 20
-63364.64653923
 42
1.30322619
 10
68386.99152828
 20
-63411.33294662
 10
68471.1485796
 20
-63388.8132059
 42
-1.30322619
 10
68471.1485796
 20
-63435.49961329
 10
68386.99152828
 20
-63412.97987257
 42
1.30322619
 10
68386.99152828
 20
-63459.66627996
 10
68471.1485796
 20
-63437.14653923
 42
-1.30322619
 10
68471.1485796
 20
-63483.83294662
 10
68386.99152828
 20
-63461.3132059
 42
1.30322619
 10
68386.99152828
 20
-63507.99961329
 10
68471.1485796
 20
-63485.47987257
 42
-0.54805225
 10
68501.21018591
 20
-63512.97808723
  0
LWPOLYLINE
  5
597
100
AcDbEntity
  8
Ech.1_10
 62
     7
  6
CONTINUOUS
370
    -3
100
AcDbPolyline
 90
       66
 70
     0
 43
0.0
 10
68276.04501225
 20
-62550.61103449
 10
68276.31826791
 20
-62548.33076957
 10
68276.57379509
 20
-62546.06019078
 10
68276.7938653
 20
-62543.80898425
 10
68276.96075007
 20
-62541.58683613
 10
68277.05672091
 20
-62539.40343254
 10
68277.06404934
 20
-62537.26845961
 10
68276.96500687
 20
-62535.19160349
 10
68276.74186504
 20
-62533.18255029
 10
68276.37689534
 20
-62531.25098616
 10
68275.85236931
 20
-62529.40659723
 10
68275.15055846
 20
-62527.65906963
 10
68274.2537343
 20
-62526.01808949
 10
68273.14416836
 20
-62524.49334296
 10
68271.80445673
 20
-62523.09445302
 10
68270.23449267
 20
-62521.82767865
 10
68268.45979752
 20
-62520.69429448
 10
68266.50796459
 20
-62519.69517221
 10
68264.40658715
 20
-62518.83118352
 10
68262.18325851
 20
-62518.10320011
 10
68259.86557194
 20
-62517.51209366
 10
68257.48112075
 20
-62517.05873585
 10
68255.05749821
 20
-62516.74399838
 10
68252.62229762
 20
-62516.56875293
 10
68250.20311228
 20
-62516.53387119
 10
68247.82753546
 20
-62516.64022484
 10
68245.52316047
 20
-62516.88868559
 10
68243.31758058
 20
-62517.2801251
 10
68241.23838909
 20
-62517.81541508
 10
68239.3131793
 20
-62518.49542721
 10
68237.56954448
 20
-62519.32103317
 10
68236.03507794
 20
-62520.29310466
 10
68234.73737295
 20
-62521.41251336
 10
68233.70401769
 20
-62522.68012971
 10
68232.95115653
 20
-62524.09405427
 10
68232.45916782
 20
-62525.64373058
 10
68232.20146178
 20
-62527.31691561
 10
68232.15144865
 20
-62529.10136633
 10
68232.28253863
 20
-62530.9848397
 10
68232.56814197
 20
-62532.95509268
 10
68232.98166889
 20
-62534.99988224
 10
68233.49652961
 20
-62537.10696535
 10
68234.08613436
 20
-62539.26409895
 10
68234.72389336
 20
-62541.45904003
 10
68235.38321684
 20
-62543.67954554
 10
68236.03751503
 20
-62545.91337244
 10
68236.66019815
 20
-62548.1482777
 10
68237.22467642
 20
-62550.37201829
 10
68237.70464013
 20
-62552.57247894
 10
68238.08452548
 20
-62554.74244727
 10
68238.36264697
 20
-62556.88104291
 10
68238.5382385
 20
-62558.98780498
 10
68238.61053395
 20
-62561.0622726
 10
68238.57876724
 20
-62563.1039849
 10
68238.44217226
 20
-62565.11248097
 10
68238.1999829
 20
-62567.08729996
 10
68237.85143306
 20
-62569.02798097
 10
68237.39575664
 20
-62570.93406312
 10
68236.83218754
 20
-62572.80508553
 10
68236.15995965
 20
-62574.64058732
 10
68235.37830687
 20
-62576.44010761
 10
68234.48840364
 20
-62578.20384312
 10
68233.50795965
 20
-62579.937594
 10
68232.46305057
 20
-62581.64999546
 10
68231.37981692
 20
-62583.34970465
 10
68230.86917008
 20
-62584.14003265
  0
LINE
  5
598
100
AcDbEntity
  8
Ech.1_10
 62
     7
  6
CONTINUOUS
370
    -3
100
AcDbLine
 10
68230.86917008
 20
-62584.14003265
 30
0.0
 11
68243.03554942
 21
-62574.13199392
 31
0.0
  0
LINE
  5
599
100
AcDbEntity
  8
Ech.1_10
 62
     7
  6
CONTINUOUS
370
    -3
100
AcDbLine
 10
68230.86917008
 20
-62584.14003265
 30
0.0
 11
68231.04337647
 21
-62569.08680176
 31
0.0
  0
LWPOLYLINE
  5
59A
100
AcDbEntity
  8
Ech.1_10
 62
   190
  6
CONTINUOUS
370
    -3
100
AcDbPolyline
 90
        4
 70
     1
 43
0.0
 10
68501.57005394
 20
-63399.15640194
 10
68541.57005394
 20
-63399.15640194
 10
68541.57005394
 20
-63354.15640194
 10
68501.57005394
 20
-63354.15640194
  0
LWPOLYLINE
  5
59B
100
AcDbEntity
  8
Ech.1_10
 62
   190
370
    18
100
AcDbPolyline
 90
        4
 70
     0
 43
0.0
 10
68501.57005394
 20
-63354.15640194
 10
68541.57005394
 20
-63399.15640194
 10
68541.57005394
 20
-63354.15640194
 10
68501.57005394
 20
-63399.15640194
  0
LWPOLYLINE
  5
59C
100
AcDbEntity
  8
Ech.1_10
 62
     5
100
AcDbPolyline
 90
        5
 70
     0
 43
0.0
 10
68501.57005394
 20
-63399.15640194
 10
68541.57005394
 20
-63399.15640194
 10
68541.57005394
 20
-63354.15640194
 10
68501.57005394
 20
-63354.15640194
 10
68501.57005394
 20
-63399.15640194
  0
LINE
  5
59D
100
AcDbEntity
  8
Ech.1_10
 62
   190
  6
CONTINUOUS
370
    -3
100
AcDbLine
 10
68520.57005394
 20
-62837.1564096
 30
0.0
 11
69013.05343124
 21
-62837.1564096
 31
0.0
  0
LWPOLYLINE
  5
59E
100
AcDbEntity
  8
Ech.1_10
 62
     1
  6
CADWORK_22
 48
-5.0
370
    35
100
AcDbPolyline
 90
        3
 70
     0
 43
0.0
 10
68501.57005394
 20
-63512.97674928
 10
68501.57005394
 20
-62987.1564096
 10
68597.45560861
 20
-62987.1564096
  0
LWPOLYLINE
  5
59F
100
AcDbEntity
  8
Ech.1_10
 62
     3
370
    70
100
AcDbPolyline
 90
        4
 70
     0
 43
0.0
 10
68615.85670676
 20
-62989.99502856
 10
68602.86757334
 20
-62989.99502856
 10
68598.9328412
 20
-62984.31441559
 10
68585.4544112
 20
-62984.31441559
  0
LWPOLYLINE
  5
5A0
100
AcDbEntity
  8
Ech.1_10
 62
    36
  6
CONTINUOUS
370
    70
100
AcDbPolyline
 90
        3
 70
     0
 43
0.0
 38
2500.0
 10
68522.57005394
 20
-62687.1564096
 10
68522.57005394
 20
-62980.17963197
 10
68602.3825494
 20
-62980.17963197
  0
LINE
  5
5A1
100
AcDbEntity
  8
Ech.1_10
 62
     9
  6
CONTINUOUS
370
    -3
100
AcDbLine
 10
68262.57005394
 20
-62517.1564096
 30
0.0
 11
68287.57005394
 21
-62517.15614223
 31
0.0
  0
LINE
  5
5A2
100
AcDbEntity
  8
Ech.1_10
 62
     9
  6
CONTINUOUS
370
    -3
100
AcDbLine
 10
68242.57005394
 20
-62537.1564096
 30
0.0
 11
68262.57005394
 21
-62537.1564096
 31
0.0
  0
LINE
  5
5A3
100
AcDbEntity
  8
Ech.1_10
 62
     9
  6
CONTINUOUS
370
    -3
100
AcDbLine
 10
68262.57005394
 20
-62517.1564096
 30
0.0
 11
68262.57005394
 21
-62537.1564096
 31
0.0
  0
LINE
  5
5A4
100
AcDbEntity
  8
Ech.1_10
 62
   190
  6
CONTINUOUS
370
    -3
100
AcDbLine
 10
69419.08218574
 20
-62837.1564096
 30
0.0
 11
69049.44247203
 21
-62837.1564096
 31
0.0
  0
LINE
  5
5A5
100
AcDbEntity
  8
Ech.1_10
 62
   190
  6
CONTINUOUS
370
    -3
100
AcDbLine
 10
69013.05305756
 20
-62837.1564096
 30
0.0
 11
68948.19123911
 21
-62837.1564096
 31
0.0
  0
LWPOLYLINE
  5
5A6
100
AcDbEntity
  8
Ech.1_10
 62
   190
  6
CONTINUOUS
370
    -3
100
AcDbPolyline
 90
        4
 70
     1
 43
0.0
 10
69498.08174596
 20
-63006.1564096
 10
69543.08174596
 20
-63006.1564096
 10
69543.08174596
 20
-63226.1564096
 10
69498.08174596
 20
-63226.1564096
  0
LWPOLYLINE
  5
5A7
100
AcDbEntity
  8
Ech.1_10
 62
   190
  6
CONTINUOUS
370
    -3
100
AcDbPolyline
 90
        4
 70
     1
 43
0.0
 10
69543.08174596
 20
-63226.1564096
 10
69498.08174596
 20
-63226.1564096
 10
69498.08174596
 20
-63006.1564096
 10
69543.08174596
 20
-63006.1564096
  0
LWPOLYLINE
  5
5A8
100
AcDbEntity
  8
Ech.1_10
100
AcDbPolyline
 90
        4
 70
     0
 43
0.0
 10
69049.44148599
 20
-63326.1564096
 10
69542.08174596
 20
-63326.1564096
 10
69542.08174596
 20
-63301.4742395
 10
69049.44148599
 20
-63301.4742395
  0
LWPOLYLINE
  5
5A9
100
AcDbEntity
  8
Ech.1_10
370
    50
100
AcDbPolyline
 90
        3
 70
     0
 43
0.0
 10
69542.08174596
 20
-63302.84030131
 10
69542.08174596
 20
-63325.91881821
 10
69514.85590116
 20
-63325.91881821
  0
LWPOLYLINE
  5
5AA
100
AcDbEntity
  8
Ech.1_10
 62
     5
  6
CONTINUOUS
370
    -3
100
AcDbPolyline
 90
        5
 70
     0
 43
0.0
 10
69543.08174596
 20
-63006.1564096
 10
69498.08174596
 20
-63006.1564096
 10
69498.08174596
 20
-63226.1564096
 10
69543.08174596
 20
-63226.1564096
 10
69543.08174596
 20
-63006.1564096
  0
LWPOLYLINE
  5
5AB
100
AcDbEntity
  8
Ech.1_10
 62
   190
  6
CONTINUOUS
370
    -3
100
AcDbPolyline
 90
        4
 70
     1
 43
0.0
 10
69542.08174596
 20
-62517.1564096
 10
69542.08174596
 20
-62562.1564096
 10
69447.08174596
 20
-62562.1564096
 10
69447.08174596
 20
-62517.1564096
  0
LWPOLYLINE
  5
5AC
100
AcDbEntity
  8
Ech.1_10
 62
   190
  6
CONTINUOUS
370
    -3
100
AcDbPolyline
 90
        4
 70
     1
 43
0.0
 10
69447.08174596
 20
-62562.1564096
 10
69447.08174596
 20
-62517.1564096
 10
69542.08174596
 20
-62517.1564096
 10
69542.08174596
 20
-62562.1564096
  0
LWPOLYLINE
  5
5AD
100
AcDbEntity
  8
Ech.1_10
 62
   190
  6
CONTINUOUS
370
    -3
100
AcDbPolyline
 90
        4
 70
     1
 43
0.0
 10
69542.08174596
 20
-62687.1564096
 10
69447.08174596
 20
-62687.1564096
 10
69447.08174596
 20
-62987.1564096
 10
69542.08174596
 20
-62987.1564096
  0
LWPOLYLINE
  5
5AE
100
AcDbEntity
  8
Ech.1_10
 62
   190
  6
CONTINUOUS
370
    -3
100
AcDbPolyline
 90
        4
 70
     1
 43
0.0
 10
69542.08174596
 20
-62642.1564096
 10
69542.08174596
 20
-62687.1564096
 10
69447.08174596
 20
-62687.1564096
 10
69447.08174596
 20
-62642.1564096
  0
LWPOLYLINE
  5
5AF
100
AcDbEntity
  8
Ech.1_10
 62
   190
  6
CONTINUOUS
370
    -3
100
AcDbPolyline
 90
        4
 70
     1
 43
0.0
 10
69447.08174596
 20
-62687.1564096
 10
69447.08174596
 20
-62642.1564096
 10
69542.08174596
 20
-62642.1564096
 10
69542.08174596
 20
-62687.1564096
  0
LWPOLYLINE
  5
5B0
100
AcDbEntity
  8
Ech.1_10
 62
   190
  6
CONTINUOUS
370
    -3
100
AcDbPolyline
 90
        4
 70
     1
 43
0.0
 10
69447.08174596
 20
-62987.1564096
 10
69428.08174596
 20
-62987.1564096
 10
69428.08174596
 20
-62517.1564096
 10
69447.08174596
 20
-62517.1564096
  0
LWPOLYLINE
  5
5B1
102
{ACAD_REACTORS
330
5B2
102
}
100
AcDbEntity
  8
Ech.1_10
 62
     7
  6
CONTINUOUS
370
    -3
100
AcDbPolyline
 90
        4
 70
     1
 43
0.0
 10
69447.08174596
 20
-62987.1564096
 10
69428.08174596
 20
-62987.1564096
 10
69428.08174596
 20
-62517.1564096
 10
69447.08174596
 20
-62517.1564096
  0
HATCH
  5
5B2
100
AcDbEntity
  8
Ech.1_10
 62
   190
  6
CONTINUOUS
100
AcDbHatch
 10
0.0
 20
0.0
 30
0.0
210
0.0
220
0.0
230
1.0
  2
ANSI38
 70
     0
 71
     1
 91
        1
 92
        7
 72
     0
 73
     1
 93
        4
 10
69447.08174596
 20
-62987.1564096
 10
69428.08174596
 20
-62987.1564096
 10
69428.08174596
 20
-62517.1564096
 10
69447.08174596
 20
-62517.1564096
 97
        1
330
5B1
 75
     0
 76
     2
 52
0.0
 41
1.0
 77
     0
 78
     2
 53
45.0
 43
0.0
 44
0.0
 45
-8.48528171
 46
8.48528171
 79
     2
 49
960.00003815
 49
0.0
 53
135.0
 43
0.0
 44
0.0
 45
-25.45584513
 46
8.48528171
 79
     2
 49
30.00000119
 49
-18.00000072
 47
0.775229
 98
        1
 10
0.0
 20
0.0
  0
LWPOLYLINE
  5
5B3
100
AcDbEntity
  8
Ech.1_10
 62
     5
  6
CONTINUOUS
370
    -3
100
AcDbPolyline
 90
        5
 70
     0
 43
0.0
 10
69542.08174596
 20
-62687.1564096
 10
69542.08174596
 20
-62642.1564096
 10
69447.08174596
 20
-62642.1564096
 10
69447.08174596
 20
-62687.1564096
 10
69542.08174596
 20
-62687.1564096
  0
LWPOLYLINE
  5
5B4
100
AcDbEntity
  8
Ech.1_10
 62
     5
  6
CONTINUOUS
370
    -3
100
AcDbPolyline
 90
        5
 70
     0
 43
0.0
 10
69542.08174596
 20
-62562.1564096
 10
69542.08174596
 20
-62517.1564096
 10
69447.08174596
 20
-62517.1564096
 10
69447.08174596
 20
-62562.1564096
 10
69542.08174596
 20
-62562.1564096
  0
LWPOLYLINE
  5
5B5
100
AcDbEntity
  8
Ech.1_10
 62
   190
  6
CONTINUOUS
370
    -3
100
AcDbPolyline
 90
        4
 70
     1
 43
0.0
 10
69453.08174596
 20
-63006.1564096
 10
69498.08174596
 20
-63006.1564096
 10
69498.08174596
 20
-63226.1564096
 10
69453.08174596
 20
-63226.1564096
  0
LWPOLYLINE
  5
5B6
100
AcDbEntity
  8
Ech.1_10
 62
   190
  6
CONTINUOUS
370
    -3
100
AcDbPolyline
 90
        4
 70
     1
 43
0.0
 10
69498.08174596
 20
-63226.1564096
 10
69453.08174596
 20
-63226.1564096
 10
69453.08174596
 20
-63006.1564096
 10
69498.08174596
 20
-63006.1564096
  0
LWPOLYLINE
  5
5B7
100
AcDbEntity
  8
Ech.1_10
 62
     5
  6
CONTINUOUS
370
    -3
100
AcDbPolyline
 90
        5
 70
     0
 43
0.0
 10
69498.08174596
 20
-63006.1564096
 10
69453.08174596
 20
-63006.1564096
 10
69453.08174596
 20
-63226.1564096
 10
69498.08174596
 20
-63226.1564096
 10
69498.08174596
 20
-63006.1564096
  0
LWPOLYLINE
  5
5B8
100
AcDbEntity
  8
Ech.1_10
 62
   190
  6
CONTINUOUS
370
    -3
100
AcDbPolyline
 90
       36
 70
     0
 43
0.0
 10
69526.24841263
 20
-62687.1564096
 42
-1.14028181
 10
69522.15043519
 20
-62718.28356604
 10
69467.01305674
 20
-62703.52925315
 42
1.30322619
 10
69467.01305674
 20
-62734.11689937
 10
69522.15043519
 20
-62719.36258648
 42
-1.30322619
 10
69522.15043519
 20
-62749.95023271
 10
69467.01305674
 20
-62735.19591982
 42
1.30322619
 10
69467.01305674
 20
-62765.78356604
 10
69522.15043519
 20
-62751.02925315
 42
-1.30322619
 10
69522.15043519
 20
-62781.61689937
 10
69467.01305674
 20
-62766.86258648
 42
1.30322619
 10
69467.01305674
 20
-62797.45023271
 10
69522.15043519
 20
-62782.69591982
 42
-1.30322619
 10
69522.15043519
 20
-62813.28356604
 10
69467.01305674
 20
-62798.52925315
 42
1.30322619
 10
69467.01305674
 20
-62829.11689937
 10
69522.15043519
 20
-62814.36258648
 42
-1.30322619
 10
69522.15043519
 20
-62844.95023271
 10
69467.01305674
 20
-62830.19591982
 42
1.30322619
 10
69467.01305674
 20
-62860.78356604
 10
69522.15043519
 20
-62846.02925315
 42
-1.30322619
 10
69522.15043519
 20
-62876.61689937
 10
69467.01305674
 20
-62861.86258648
 42
1.30322619
 10
69467.01305674
 20
-62892.45023271
 10
69522.15043519
 20
-62877.69591982
 42
-1.30322619
 10
69522.15043519
 20
-62908.28356604
 10
69467.01305674
 20
-62893.52925315
 42
1.30322619
 10
69467.01305674
 20
-62924.11689937
 10
69522.15043519
 20
-62909.36258648
 42
-1.30322619
 10
69522.15043519
 20
-62939.95023271
 10
69467.01305674
 20
-62925.19591982
 42
1.30322619
 10
69467.01305674
 20
-62955.78356604
 10
69522.15043519
 20
-62941.02925315
 42
-1.30322619
 10
69522.15043519
 20
-62971.61689937
 10
69467.01305674
 20
-62956.86258648
 42
0.9684611
 10
69457.84611052
 20
-62987.1564096
  0
LWPOLYLINE
  5
5B9
100
AcDbEntity
  8
Ech.1_10
 62
   190
  6
CONTINUOUS
370
    -3
100
AcDbPolyline
 90
        4
 70
     1
 43
0.0
 10
69542.08174596
 20
-62942.1564096
 10
69542.08174596
 20
-62987.1564096
 10
69447.08174596
 20
-62987.1564096
 10
69447.08174596
 20
-62942.1564096
  0
LWPOLYLINE
  5
5BA
100
AcDbEntity
  8
Ech.1_10
 62
   190
  6
CONTINUOUS
370
    -3
100
AcDbPolyline
 90
        4
 70
     1
 43
0.0
 10
69447.08174596
 20
-62987.1564096
 10
69447.08174596
 20
-62942.1564096
 10
69542.08174596
 20
-62942.1564096
 10
69542.08174596
 20
-62987.1564096
  0
LWPOLYLINE
  5
5BB
100
AcDbEntity
  8
Ech.1_10
 62
     5
  6
CONTINUOUS
370
    -3
100
AcDbPolyline
 90
        5
 70
     0
 43
0.0
 10
69542.08174596
 20
-62987.1564096
 10
69542.08174596
 20
-62942.1564096
 10
69447.08174596
 20
-62942.1564096
 10
69447.08174596
 20
-62987.1564096
 10
69542.08174596
 20
-62987.1564096
  0
LWPOLYLINE
  5
5BC
102
{ACAD_REACTORS
330
5BD
102
}
100
AcDbEntity
  8
Ech.1_10
 62
   190
  6
CONTINUOUS
370
    -3
100
AcDbPolyline
 90
       13
 70
     1
 43
0.0
 10
69532.53625492
 20
-62506.33877511
 10
69763.15012508
 20
-62499.99221319
 10
69763.15012508
 20
-62566.07375876
 10
69755.62086298
 20
-62561.17880322
 10
69754.51604802
 20
-62562.84595166
 10
69764.66444979
 20
-62569.47660427
 10
69764.66444979
 20
-62497.93796455
 10
69403.0017865
 20
-62508.90955165
 10
69403.0017865
 20
-62576.58677882
 10
69415.74434599
 20
-62566.79385303
 10
69414.52563162
 20
-62565.20806134
 10
69404.65608263
 20
-62572.79301795
 10
69404.65608263
 20
-62510.85285326
  0
HATCH
  5
5BD
100
AcDbEntity
  8
Ech.1_10
 62
   177
  6
CONTINUOUS
100
AcDbHatch
 10
0.0
 20
0.0
 30
0.0
210
0.0
220
0.0
230
1.0
  2
SOLID
 70
     1
 71
     1
 91
        1
 92
        7
 72
     0
 73
     1
 93
       13
 10
69532.53625492
 20
-62506.33877511
 10
69763.15012508
 20
-62499.99221319
 10
69763.15012508
 20
-62566.07375876
 10
69755.62086298
 20
-62561.17880322
 10
69754.51604802
 20
-62562.84595166
 10
69764.66444979
 20
-62569.47660427
 10
69764.66444979
 20
-62497.93796455
 10
69403.0017865
 20
-62508.90955165
 10
69403.0017865
 20
-62576.58677882
 10
69415.74434599
 20
-62566.79385303
 10
69414.52563162
 20
-62565.20806134
 10
69404.65608263
 20
-62572.79301795
 10
69404.65608263
 20
-62510.85285326
 97
        1
330
5BC
 75
     0
 76
     2
 47
0.775229
 98
        1
 10
0.0
 20
0.0
  0
LWPOLYLINE
  5
5BE
100
AcDbEntity
  8
Ech.1_10
 62
    36
  6
CONTINUOUS
370
    70
100
AcDbPolyline
 90
        3
 70
     0
 43
0.0
 38
2500.0
 10
69426.08084352
 20
-62687.1564096
 10
69426.08084352
 20
-62980.97860858
 10
69337.26834805
 20
-62980.97860858
  0
3DFACE
  5
5BF
100
AcDbEntity
  8
Ech.1_10
 62
     9
  6
CONTINUOUS
370
    -3
100
AcDbFace
 70
     0
 10
69742.08174596
 20
-62687.1564096
 30
-17081.86048889
 11
69542.08174596
 21
-62687.1564096
 31
-17081.86048889
 12
69542.08174596
 22
-62517.1564096
 32
-17081.86048889
 13
69742.08174596
 23
-62517.1564096
 33
-17081.86048889
  0
CIRCLE
  5
5C0
100
AcDbEntity
  8
Ech.1_10
 62
     7
  6
CONTINUOUS
370
    -3
100
AcDbCircle
 10
68953.79160442
 20
-63279.97967672
 30
0.0
 40
2.51802373
  0
LINE
  5
5C1
100
AcDbEntity
  8
Ech.1_10
 62
     7
  6
CONTINUOUS
370
    -3
100
AcDbLine
 10
68967.29170628
 20
-63173.23259623
 30
0.0
 11
68967.29158237
 21
-63298.91886288
 31
0.0
  0
CIRCLE
  5
5C2
100
AcDbEntity
  8
Ech.1_10
 62
     7
  6
CONTINUOUS
370
    -3
100
AcDbCircle
 10
68953.79165682
 20
-63234.97967672
 30
0.0
 40
2.51802373
  0
ARC
  5
5C3
100
AcDbEntity
  8
Ech.1_10
 62
     7
  6
CONTINUOUS
370
    -3
100
AcDbCircle
 10
68935.29158237
 20
-63298.91882562
 30
0.0
 40
5.0
100
AcDbArc
 50
269.99993329
 51
359.99993329
  0
LINE
  5
5C4
100
AcDbEntity
  8
Ech.1_10
 62
     7
  6
CONTINUOUS
370
    -3
100
AcDbLine
 10
68935.06146367
 20
-63312.99912172
 30
0.0
 11
68935.061466
 21
-63310.99912172
 31
0.0
  0
LINE
  5
5C5
100
AcDbEntity
  8
Ech.1_10
 62
     7
  6
CONTINUOUS
370
    -3
100
AcDbLine
 10
68931.29157655
 20
-63303.91882096
 30
0.0
 11
68935.29157655
 21
-63303.91882562
 31
0.0
  0
ARC
  5
5C6
100
AcDbEntity
  8
Ech.1_10
 62
     7
  6
CONTINUOUS
370
    -3
100
AcDbCircle
 10
68945.05786225
 20
-63298.41434258
 30
0.0
 40
14.82598747
100
AcDbArc
 50
201.79410437
 51
238.13509164
  0
ARC
  5
5C7
100
AcDbEntity
  8
Ech.1_10
 62
     7
  6
CONTINUOUS
370
    -3
100
AcDbCircle
 10
68943.60234807
 20
-63311.88913258
 30
0.0
 40
12.47697948
100
AcDbArc
 50
189.36217724
 51
254.61211432
  0
LINE
  5
5C8
100
AcDbEntity
  8
Ech.1_10
 62
     7
  6
CONTINUOUS
370
    -3
100
AcDbLine
 10
68935.06146367
 20
-63312.99912172
 30
0.0
 11
68930.93104973
 21
-63312.99911691
 31
0.0
  0
LINE
  5
5C9
100
AcDbEntity
  8
Ech.1_10
 62
     7
  6
CONTINUOUS
370
    -3
100
AcDbLine
 10
68930.93104973
 20
-63312.99911691
 30
0.0
 11
68930.93103702
 21
-63323.91882054
 31
0.0
  0
LINE
  5
5CA
100
AcDbEntity
  8
Ech.1_10
 62
     7
  6
CONTINUOUS
370
    -3
100
AcDbLine
 10
68935.061466
 20
-63310.99912172
 30
0.0
 11
68928.93105206
 21
-63310.99911458
 31
0.0
  0
LINE
  5
5CB
100
AcDbEntity
  8
Ech.1_10
 62
     7
  6
CONTINUOUS
370
    -3
100
AcDbLine
 10
68928.93105206
 20
-63310.99911458
 30
0.0
 11
68928.93103469
 21
-63325.91881821
 31
0.0
  0
CIRCLE
  5
5CC
100
AcDbEntity
  8
Ech.1_10
 62
     7
  6
CONTINUOUS
370
    -3
100
AcDbCircle
 10
68953.79162189
 20
-63264.97967672
 30
0.0
 40
2.51802373
  0
CIRCLE
  5
5CD
100
AcDbEntity
  8
Ech.1_10
 62
     7
  6
CONTINUOUS
370
    -3
100
AcDbCircle
 10
68953.79158696
 20
-63294.97967672
 30
0.0
 40
2.51802373
  0
CIRCLE
  5
5CE
100
AcDbEntity
  8
Ech.1_10
 62
     7
  6
CONTINUOUS
370
    -3
100
AcDbCircle
 10
68953.79163935
 20
-63249.97967672
 30
0.0
 40
2.51802373
  0
ARC
  5
5CF
100
AcDbEntity
  8
Ech.1_10
 62
     7
  6
CONTINUOUS
370
    -3
100
AcDbCircle
 10
68962.52530366
 20
-63298.41436292
 30
0.0
 40
14.82598747
100
AcDbArc
 50
301.86477493
 51
338.20576221
  0
ARC
  5
5D0
100
AcDbEntity
  8
Ech.1_10
 62
     7
  6
CONTINUOUS
370
    -3
100
AcDbCircle
 10
68974.14996051
 20
-63310.77395841
 30
0.0
 40
3.80485997
100
AcDbArc
 50
183.49669989
 51
304.25383409
  0
ARC
  5
5D1
100
AcDbEntity
  8
Ech.1_10
 62
     7
  6
CONTINUOUS
370
    -3
100
AcDbCircle
 10
68963.98078647
 20
-63311.8891563
 30
0.0
 40
12.47697948
100
AcDbArc
 50
285.38775225
 51
350.63768933
  0
LINE
  5
5D2
100
AcDbEntity
  8
Ech.1_10
 62
     7
  6
CONTINUOUS
370
    -3
100
AcDbLine
 10
68976.29157655
 20
-63303.91887336
 30
0.0
 11
68972.29157655
 21
-63303.9188687
 31
0.0
  0
ARC
  5
5D3
100
AcDbEntity
  8
Ech.1_10
 62
     7
  6
CONTINUOUS
370
    -3
100
AcDbCircle
 10
68972.29158237
 20
-63298.9188687
 30
0.0
 40
5.0
100
AcDbArc
 50
179.99993329
 51
269.99993328
  0
LINE
  5
5D4
100
AcDbEntity
  8
Ech.1_10
 62
     7
  6
CONTINUOUS
370
    -3
100
AcDbLine
 10
68972.52166828
 20
-63312.99916534
 30
0.0
 11
68972.52167061
 21
-63310.99916534
 31
0.0
  0
LINE
  5
5D5
100
AcDbEntity
  8
Ech.1_10
 62
     7
  6
CONTINUOUS
370
    -3
100
AcDbLine
 10
68972.52166828
 20
-63312.99916534
 30
0.0
 11
68976.65208222
 21
-63312.99917015
 31
0.0
  0
LINE
  5
5D6
100
AcDbEntity
  8
Ech.1_10
 62
     7
  6
CONTINUOUS
370
    -3
100
AcDbLine
 10
68976.65208222
 20
-63312.99917015
 30
0.0
 11
68976.65206951
 21
-63323.91887378
 31
0.0
  0
LINE
  5
5D7
100
AcDbEntity
  8
Ech.1_10
 62
     7
  6
CONTINUOUS
370
    -3
100
AcDbLine
 10
68972.52167061
 20
-63310.99916534
 30
0.0
 11
68978.65208455
 21
-63310.99917248
 31
0.0
  0
LINE
  5
5D8
100
AcDbEntity
  8
Ech.1_10
 62
     7
  6
CONTINUOUS
370
    -3
100
AcDbLine
 10
68978.65208455
 20
-63310.99917248
 30
0.0
 11
68978.65206718
 21
-63325.91887611
 31
0.0
  0
CIRCLE
  5
5D9
100
AcDbEntity
  8
Ech.1_10
 62
     7
  6
CONTINUOUS
370
    -3
100
AcDbCircle
 10
68953.79167429
 20
-63219.97967672
 30
0.0
 40
2.51802373
  0
LINE
  5
5DA
100
AcDbEntity
  8
Ech.1_10
 62
     7
  6
CONTINUOUS
370
    -3
100
AcDbLine
 10
68940.29170628
 20
-63173.2325648
 30
0.0
 11
68940.29158237
 21
-63298.91883144
 31
0.0
  0
CIRCLE
  5
5DB
100
AcDbEntity
  8
Ech.1_10
 62
     7
  6
CONTINUOUS
370
    -3
100
AcDbCircle
 10
68953.79169175
 20
-63204.97967672
 30
0.0
 40
2.51802373
  0
LINE
  5
5DC
100
AcDbEntity
  8
Ech.1_10
 62
     7
  6
CONTINUOUS
370
    -3
100
AcDbLine
 10
68940.29170628
 20
-63173.2325648
 30
0.0
 11
68967.29170628
 21
-63173.23259623
 31
0.0
  0
LINE
  5
5DD
100
AcDbEntity
  8
Ech.1_10
 62
     7
  6
CONTINUOUS
370
    -3
100
AcDbLine
 10
68976.65206951
 20
-63323.91887378
 30
0.0
 11
68930.93103702
 21
-63323.91882054
 31
0.0
  0
LINE
  5
5DE
100
AcDbEntity
  8
Ech.1_10
 62
     7
  6
CONTINUOUS
370
    -3
100
AcDbLine
 10
68928.93103469
 20
-63325.91881821
 30
0.0
 11
68978.65206718
 21
-63325.91887611
 31
0.0
  0
ARC
  5
5DF
100
AcDbEntity
  8
Ech.1_10
 62
     7
  6
CONTINUOUS
370
    -3
100
AcDbCircle
 10
68933.43317662
 20
-63310.773911
 30
0.0
 40
3.80485997
100
AcDbArc
 50
235.74603248
 51
356.50316668
  0
LINE
  5
5E0
100
AcDbEntity
  8
Ech.1_10
 62
     7
  6
CONTINUOUS
370
    -3
100
AcDbLine
 10
68951.89929253
 20
-63184.76993281
 30
0.0
 11
68951.89929253
 21
-63184.76993281
 31
0.0
  0
CIRCLE
  5
5E1
100
AcDbEntity
  8
Ech.1_10
 62
     7
  6
CONTINUOUS
370
    -3
100
AcDbCircle
 10
68953.79169175
 20
-63190.07126529
 30
0.0
 40
2.51802373
  0
CIRCLE
  5
5E2
100
AcDbEntity
  8
Ech.1_10
 62
     7
  6
CONTINUOUS
370
    -3
100
AcDbCircle
 10
68604.81669158
 20
-63279.97967672
 30
0.0
 40
2.51802373
  0
LINE
  5
5E3
100
AcDbEntity
  8
Ech.1_10
 62
     7
  6
CONTINUOUS
370
    -3
100
AcDbLine
 10
68618.31679345
 20
-63173.23259623
 30
0.0
 11
68618.31666953
 21
-63298.91886288
 31
0.0
  0
CIRCLE
  5
5E4
100
AcDbEntity
  8
Ech.1_10
 62
     7
  6
CONTINUOUS
370
    -3
100
AcDbCircle
 10
68604.81674398
 20
-63234.97967672
 30
0.0
 40
2.51802373
  0
ARC
  5
5E5
100
AcDbEntity
  8
Ech.1_10
 62
     7
  6
CONTINUOUS
370
    -3
100
AcDbCircle
 10
68586.31666953
 20
-63298.91882562
 30
0.0
 40
5.0
100
AcDbArc
 50
269.99993329
 51
359.99993329
  0
LINE
  5
5E6
100
AcDbEntity
  8
Ech.1_10
 62
     7
  6
CONTINUOUS
370
    -3
100
AcDbLine
 10
68586.08655083
 20
-63312.99912172
 30
0.0
 11
68586.08655316
 21
-63310.99912172
 31
0.0
  0
LINE
  5
5E7
100
AcDbEntity
  8
Ech.1_10
 62
     7
  6
CONTINUOUS
370
    -3
100
AcDbLine
 10
68582.31666371
 20
-63303.91882096
 30
0.0
 11
68586.31666371
 21
-63303.91882562
 31
0.0
  0
ARC
  5
5E8
100
AcDbEntity
  8
Ech.1_10
 62
     7
  6
CONTINUOUS
370
    -3
100
AcDbCircle
 10
68596.08294942
 20
-63298.41434258
 30
0.0
 40
14.82598747
100
AcDbArc
 50
201.79410437
 51
238.13509164
  0
ARC
  5
5E9
100
AcDbEntity
  8
Ech.1_10
 62
     7
  6
CONTINUOUS
370
    -3
100
AcDbCircle
 10
68594.62743523
 20
-63311.88913258
 30
0.0
 40
12.47697948
100
AcDbArc
 50
189.36217724
 51
254.61211432
  0
LINE
  5
5EA
100
AcDbEntity
  8
Ech.1_10
 62
     7
  6
CONTINUOUS
370
    -3
100
AcDbLine
 10
68586.08655083
 20
-63312.99912172
 30
0.0
 11
68581.95613689
 21
-63312.99911691
 31
0.0
  0
LINE
  5
5EB
100
AcDbEntity
  8
Ech.1_10
 62
     7
  6
CONTINUOUS
370
    -3
100
AcDbLine
 10
68581.95613689
 20
-63312.99911691
 30
0.0
 11
68581.95612418
 21
-63323.91882054
 31
0.0
  0
LINE
  5
5EC
100
AcDbEntity
  8
Ech.1_10
 62
     7
  6
CONTINUOUS
370
    -3
100
AcDbLine
 10
68586.08655316
 20
-63310.99912172
 30
0.0
 11
68579.95613922
 21
-63310.99911458
 31
0.0
  0
LINE
  5
5ED
100
AcDbEntity
  8
Ech.1_10
 62
     7
  6
CONTINUOUS
370
    -3
100
AcDbLine
 10
68579.95613922
 20
-63310.99911458
 30
0.0
 11
68579.95612185
 21
-63325.91881821
 31
0.0
  0
CIRCLE
  5
5EE
100
AcDbEntity
  8
Ech.1_10
 62
     7
  6
CONTINUOUS
370
    -3
100
AcDbCircle
 10
68604.81670905
 20
-63264.97967672
 30
0.0
 40
2.51802373
  0
CIRCLE
  5
5EF
100
AcDbEntity
  8
Ech.1_10
 62
     7
  6
CONTINUOUS
370
    -3
100
AcDbCircle
 10
68604.81667412
 20
-63294.97967672
 30
0.0
 40
2.51802373
  0
CIRCLE
  5
5F0
100
AcDbEntity
  8
Ech.1_10
 62
     7
  6
CONTINUOUS
370
    -3
100
AcDbCircle
 10
68604.81672652
 20
-63249.97967672
 30
0.0
 40
2.51802373
  0
ARC
  5
5F1
100
AcDbEntity
  8
Ech.1_10
 62
     7
  6
CONTINUOUS
370
    -3
100
AcDbCircle
 10
68613.55039082
 20
-63298.41436292
 30
0.0
 40
14.82598747
100
AcDbArc
 50
301.86477493
 51
338.20576221
  0
ARC
  5
5F2
100
AcDbEntity
  8
Ech.1_10
 62
     7
  6
CONTINUOUS
370
    -3
100
AcDbCircle
 10
68625.17504767
 20
-63310.77395841
 30
0.0
 40
3.80485997
100
AcDbArc
 50
183.49669989
 51
304.25383409
  0
ARC
  5
5F3
100
AcDbEntity
  8
Ech.1_10
 62
     7
  6
CONTINUOUS
370
    -3
100
AcDbCircle
 10
68615.00587363
 20
-63311.8891563
 30
0.0
 40
12.47697948
100
AcDbArc
 50
285.38775225
 51
350.63768933
  0
LINE
  5
5F4
100
AcDbEntity
  8
Ech.1_10
 62
     7
  6
CONTINUOUS
370
    -3
100
AcDbLine
 10
68627.31666371
 20
-63303.91887336
 30
0.0
 11
68623.31666371
 21
-63303.9188687
 31
0.0
  0
ARC
  5
5F5
100
AcDbEntity
  8
Ech.1_10
 62
     7
  6
CONTINUOUS
370
    -3
100
AcDbCircle
 10
68623.31666953
 20
-63298.9188687
 30
0.0
 40
5.0
100
AcDbArc
 50
179.99993329
 51
269.99993328
  0
LINE
  5
5F6
100
AcDbEntity
  8
Ech.1_10
 62
     7
  6
CONTINUOUS
370
    -3
100
AcDbLine
 10
68623.54675544
 20
-63312.99916534
 30
0.0
 11
68623.54675777
 21
-63310.99916534
 31
0.0
  0
LINE
  5
5F7
100
AcDbEntity
  8
Ech.1_10
 62
     7
  6
CONTINUOUS
370
    -3
100
AcDbLine
 10
68623.54675544
 20
-63312.99916534
 30
0.0
 11
68627.67716938
 21
-63312.99917015
 31
0.0
  0
LINE
  5
5F8
100
AcDbEntity
  8
Ech.1_10
 62
     7
  6
CONTINUOUS
370
    -3
100
AcDbLine
 10
68627.67716938
 20
-63312.99917015
 30
0.0
 11
68627.67715667
 21
-63323.91887378
 31
0.0
  0
LINE
  5
5F9
100
AcDbEntity
  8
Ech.1_10
 62
     7
  6
CONTINUOUS
370
    -3
100
AcDbLine
 10
68623.54675777
 20
-63310.99916534
 30
0.0
 11
68629.67717171
 21
-63310.99917248
 31
0.0
  0
LINE
  5
5FA
100
AcDbEntity
  8
Ech.1_10
 62
     7
  6
CONTINUOUS
370
    -3
100
AcDbLine
 10
68629.67717171
 20
-63310.99917248
 30
0.0
 11
68629.67715434
 21
-63325.91887611
 31
0.0
  0
CIRCLE
  5
5FB
100
AcDbEntity
  8
Ech.1_10
 62
     7
  6
CONTINUOUS
370
    -3
100
AcDbCircle
 10
68604.81676145
 20
-63219.97967672
 30
0.0
 40
2.51802373
  0
LINE
  5
5FC
100
AcDbEntity
  8
Ech.1_10
 62
     7
  6
CONTINUOUS
370
    -3
100
AcDbLine
 10
68591.31679345
 20
-63173.2325648
 30
0.0
 11
68591.31666953
 21
-63298.91883144
 31
0.0
  0
CIRCLE
  5
5FD
100
AcDbEntity
  8
Ech.1_10
 62
     7
  6
CONTINUOUS
370
    -3
100
AcDbCircle
 10
68604.81677891
 20
-63204.97967672
 30
0.0
 40
2.51802373
  0
LINE
  5
5FE
100
AcDbEntity
  8
Ech.1_10
 62
     7
  6
CONTINUOUS
370
    -3
100
AcDbLine
 10
68591.31679345
 20
-63173.2325648
 30
0.0
 11
68618.31679345
 21
-63173.23259623
 31
0.0
  0
LINE
  5
5FF
100
AcDbEntity
  8
Ech.1_10
 62
     7
  6
CONTINUOUS
370
    -3
100
AcDbLine
 10
68627.67715667
 20
-63323.91887378
 30
0.0
 11
68581.95612418
 21
-63323.91882054
 31
0.0
  0
LINE
  5
600
100
AcDbEntity
  8
Ech.1_10
 62
     7
  6
CONTINUOUS
370
    -3
100
AcDbLine
 10
68579.95612185
 20
-63325.91881821
 30
0.0
 11
68629.67715434
 21
-63325.91887611
 31
0.0
  0
ARC
  5
601
100
AcDbEntity
  8
Ech.1_10
 62
     7
  6
CONTINUOUS
370
    -3
100
AcDbCircle
 10
68584.45826378
 20
-63310.773911
 30
0.0
 40
3.80485997
100
AcDbArc
 50
235.74603248
 51
356.50316668
  0
LINE
  5
602
100
AcDbEntity
  8
Ech.1_10
 62
     7
  6
CONTINUOUS
370
    -3
100
AcDbLine
 10
68602.92437969
 20
-63184.76993281
 30
0.0
 11
68602.92437969
 21
-63184.76993281
 31
0.0
  0
CIRCLE
  5
603
100
AcDbEntity
  8
Ech.1_10
 62
     7
  6
CONTINUOUS
370
    -3
100
AcDbCircle
 10
68604.81677891
 20
-63190.07126529
 30
0.0
 40
2.51802373
  0
CIRCLE
  5
604
100
AcDbEntity
  8
Ech.1_10
 62
     7
  6
CONTINUOUS
370
    -3
100
AcDbCircle
 10
69394.83510832
 20
-63279.97967672
 30
0.0
 40
2.51802373
  0
LINE
  5
605
100
AcDbEntity
  8
Ech.1_10
 62
     7
  6
CONTINUOUS
370
    -3
100
AcDbLine
 10
69381.33500645
 20
-63173.23259623
 30
0.0
 11
69381.33513037
 21
-63298.91886288
 31
0.0
  0
CIRCLE
  5
606
100
AcDbEntity
  8
Ech.1_10
 62
     7
  6
CONTINUOUS
370
    -3
100
AcDbCircle
 10
69394.83505592
 20
-63234.97967672
 30
0.0
 40
2.51802373
  0
ARC
  5
607
100
AcDbEntity
  8
Ech.1_10
 62
     7
  6
CONTINUOUS
370
    -3
100
AcDbCircle
 10
69413.33513037
 20
-63298.91882562
 30
0.0
 40
5.0
100
AcDbArc
 50
180.00006671
 51
270.00006671
  0
LINE
  5
608
100
AcDbEntity
  8
Ech.1_10
 62
     7
  6
CONTINUOUS
370
    -3
100
AcDbLine
 10
69413.56524907
 20
-63312.99912172
 30
0.0
 11
69413.56524674
 21
-63310.99912172
 31
0.0
  0
LINE
  5
609
100
AcDbEntity
  8
Ech.1_10
 62
     7
  6
CONTINUOUS
370
    -3
100
AcDbLine
 10
69417.33513619
 20
-63303.91882096
 30
0.0
 11
69413.33513619
 21
-63303.91882562
 31
0.0
  0
ARC
  5
60A
100
AcDbEntity
  8
Ech.1_10
 62
     7
  6
CONTINUOUS
370
    -3
100
AcDbCircle
 10
69403.56885048
 20
-63298.41434258
 30
0.0
 40
14.82598747
100
AcDbArc
 50
301.86490836
 51
338.20589563
  0
ARC
  5
60B
100
AcDbEntity
  8
Ech.1_10
 62
     7
  6
CONTINUOUS
370
    -3
100
AcDbCircle
 10
69405.02436467
 20
-63311.88913258
 30
0.0
 40
12.47697948
100
AcDbArc
 50
285.38788568
 51
350.63782276
  0
LINE
  5
60C
100
AcDbEntity
  8
Ech.1_10
 62
     7
  6
CONTINUOUS
370
    -3
100
AcDbLine
 10
69413.56524907
 20
-63312.99912172
 30
0.0
 11
69417.69566301
 21
-63312.99911691
 31
0.0
  0
LINE
  5
60D
100
AcDbEntity
  8
Ech.1_10
 62
     7
  6
CONTINUOUS
370
    -3
100
AcDbLine
 10
69417.69566301
 20
-63312.99911691
 30
0.0
 11
69417.69567572
 21
-63323.91882054
 31
0.0
  0
LINE
  5
60E
100
AcDbEntity
  8
Ech.1_10
 62
     7
  6
CONTINUOUS
370
    -3
100
AcDbLine
 10
69413.56524674
 20
-63310.99912172
 30
0.0
 11
69419.69566068
 21
-63310.99911458
 31
0.0
  0
LINE
  5
60F
100
AcDbEntity
  8
Ech.1_10
 62
     7
  6
CONTINUOUS
370
    -3
100
AcDbLine
 10
69419.69566068
 20
-63310.99911458
 30
0.0
 11
69419.69567805
 21
-63325.91881821
 31
0.0
  0
CIRCLE
  5
610
100
AcDbEntity
  8
Ech.1_10
 62
     7
  6
CONTINUOUS
370
    -3
100
AcDbCircle
 10
69394.83509085
 20
-63264.97967672
 30
0.0
 40
2.51802373
  0
CIRCLE
  5
611
100
AcDbEntity
  8
Ech.1_10
 62
     7
  6
CONTINUOUS
370
    -3
100
AcDbCircle
 10
69394.83512578
 20
-63294.97967672
 30
0.0
 40
2.51802373
  0
CIRCLE
  5
612
100
AcDbEntity
  8
Ech.1_10
 62
     7
  6
CONTINUOUS
370
    -3
100
AcDbCircle
 10
69394.83507338
 20
-63249.97967672
 30
0.0
 40
2.51802373
  0
ARC
  5
613
100
AcDbEntity
  8
Ech.1_10
 62
     7
  6
CONTINUOUS
370
    -3
100
AcDbCircle
 10
69386.10140908
 20
-63298.41436292
 30
0.0
 40
14.82598747
100
AcDbArc
 50
201.79423779
 51
238.13522507
  0
ARC
  5
614
100
AcDbEntity
  8
Ech.1_10
 62
     7
  6
CONTINUOUS
370
    -3
100
AcDbCircle
 10
69374.47675223
 20
-63310.77395841
 30
0.0
 40
3.80485997
100
AcDbArc
 50
235.74616591
 51
356.50330011
  0
ARC
  5
615
100
AcDbEntity
  8
Ech.1_10
 62
     7
  6
CONTINUOUS
370
    -3
100
AcDbCircle
 10
69528.64592627
 20
-63311.8891563
 30
0.0
 40
12.47697948
100
AcDbArc
 50
189.36231067
 51
254.61224775
  0
LINE
  5
616
100
AcDbEntity
  8
Ech.1_10
 62
     7
  6
CONTINUOUS
370
    -3
100
AcDbLine
 10
69372.33513619
 20
-63303.91887336
 30
0.0
 11
69376.33513619
 21
-63303.9188687
 31
0.0
  0
ARC
  5
617
100
AcDbEntity
  8
Ech.1_10
 62
     7
  6
CONTINUOUS
370
    -3
100
AcDbCircle
 10
69376.33513037
 20
-63298.9188687
 30
0.0
 40
5.0
100
AcDbArc
 50
270.00006672
 51
6.6713155680250E-05
  0
LINE
  5
618
100
AcDbEntity
  8
Ech.1_10
 62
     7
  6
CONTINUOUS
370
    -3
100
AcDbLine
 10
69376.10504446
 20
-63312.99916534
 30
0.0
 11
69376.10504213
 21
-63310.99916534
 31
0.0
  0
LINE
  5
619
100
AcDbEntity
  8
Ech.1_10
 62
     7
  6
CONTINUOUS
370
    -3
100
AcDbLine
 10
69376.10504446
 20
-63312.99916534
 30
0.0
 11
69371.97463052
 21
-63312.99917015
 31
0.0
  0
LINE
  5
61A
100
AcDbEntity
  8
Ech.1_10
 62
     7
  6
CONTINUOUS
370
    -3
100
AcDbLine
 10
69371.97463052
 20
-63312.99917015
 30
0.0
 11
69371.97464323
 21
-63323.91887378
 31
0.0
  0
LINE
  5
61B
100
AcDbEntity
  8
Ech.1_10
 62
     7
  6
CONTINUOUS
370
    -3
100
AcDbLine
 10
69376.10504213
 20
-63310.99916534
 30
0.0
 11
69369.97462819
 21
-63310.99917248
 31
0.0
  0
LINE
  5
61C
100
AcDbEntity
  8
Ech.1_10
 62
     7
  6
CONTINUOUS
370
    -3
100
AcDbLine
 10
69369.97462819
 20
-63310.99917248
 30
0.0
 11
69369.97464556
 21
-63325.91887611
 31
0.0
  0
CIRCLE
  5
61D
100
AcDbEntity
  8
Ech.1_10
 62
     7
  6
CONTINUOUS
370
    -3
100
AcDbCircle
 10
69394.83503845
 20
-63219.97967672
 30
0.0
 40
2.51802373
  0
LINE
  5
61E
100
AcDbEntity
  8
Ech.1_10
 62
     7
  6
CONTINUOUS
370
    -3
100
AcDbLine
 10
69408.33500645
 20
-63173.2325648
 30
0.0
 11
69408.33513037
 21
-63298.91883144
 31
0.0
  0
CIRCLE
  5
61F
100
AcDbEntity
  8
Ech.1_10
 62
     7
  6
CONTINUOUS
370
    -3
100
AcDbCircle
 10
69394.83502099
 20
-63204.97967672
 30
0.0
 40
2.51802373
  0
LINE
  5
620
100
AcDbEntity
  8
Ech.1_10
 62
     7
  6
CONTINUOUS
370
    -3
100
AcDbLine
 10
69408.33500645
 20
-63173.2325648
 30
0.0
 11
69381.33500645
 21
-63173.23259623
 31
0.0
  0
LINE
  5
621
100
AcDbEntity
  8
Ech.1_10
 62
     7
  6
CONTINUOUS
370
    -3
100
AcDbLine
 10
69371.97464323
 20
-63323.91887378
 30
0.0
 11
69417.69567572
 21
-63323.91882054
 31
0.0
  0
LINE
  5
622
100
AcDbEntity
  8
Ech.1_10
 62
     7
  6
CONTINUOUS
370
    -3
100
AcDbLine
 10
69419.69567805
 20
-63325.91881821
 30
0.0
 11
69369.97464556
 21
-63325.91887611
 31
0.0
  0
ARC
  5
623
100
AcDbEntity
  8
Ech.1_10
 62
     7
  6
CONTINUOUS
370
    -3
100
AcDbCircle
 10
69415.19353612
 20
-63310.773911
 30
0.0
 40
3.80485997
100
AcDbArc
 50
183.49683332
 51
304.25396752
  0
LINE
  5
624
100
AcDbEntity
  8
Ech.1_10
 62
     7
  6
CONTINUOUS
370
    -3
100
AcDbLine
 10
69396.72742021
 20
-63184.76993281
 30
0.0
 11
69396.72742021
 21
-63184.76993281
 31
0.0
  0
CIRCLE
  5
625
100
AcDbEntity
  8
Ech.1_10
 62
     7
  6
CONTINUOUS
370
    -3
100
AcDbCircle
 10
69394.83502099
 20
-63190.07126529
 30
0.0
 40
2.51802373
  0
LWPOLYLINE
  5
626
100
AcDbEntity
  8
Ech.1_10
 62
   190
  6
CONTINUOUS
370
    -3
100
AcDbPolyline
 90
        6
 70
     0
 43
0.0
 10
68222.57005394
 20
-63549.36747275
 10
68384.00355743
 20
-63549.36599646
 10
68400.48906059
 20
-63531.38864813
 10
68386.37912057
 20
-63567.34434806
 10
68402.86547465
 20
-63549.36599646
 10
68607.36715641
 20
-63549.36681853
  0
LWPOLYLINE
  5
627
100
AcDbEntity
  8
Ech.1_10
 62
   190
  6
CONTINUOUS
 48
0.2
370
    70
100
AcDbPolyline
 90
        4
 70
     0
 43
0.0
 10
69013.05240278
 20
-62685.51192005
 10
68537.69874246
 20
-62685.51192005
 10
68521.0222094
 20
-62685.51192005
 10
68521.0222094
 20
-62535.51192005
  0
LWPOLYLINE
  5
628
100
AcDbEntity
  8
Ech.1_10
 62
   190
  6
CONTINUOUS
 48
0.2
370
    70
100
AcDbPolyline
 90
        4
 70
     0
 43
0.0
 10
69049.44148599
 20
-62685.51192005
 10
69411.4052129
 20
-62685.51192005
 10
69428.08174596
 20
-62685.51192005
 10
69428.08174596
 20
-62535.51192005
  0
LWPOLYLINE
  5
629
102
{ACAD_REACTORS
330
62A
102
}
100
AcDbEntity
  8
Ech.1_10
 62
     7
  6
CONTINUOUS
370
    -3
100
AcDbPolyline
 90
        4
 70
     1
 43
0.0
 10
69049.44247203
 20
-62987.1564096
 10
69049.44247203
 20
-63006.1564096
 10
69551.08174596
 20
-63006.1564096
 10
69551.08174596
 20
-62987.1564096
  0
HATCH
  5
62A
100
AcDbEntity
  8
Ech.1_10
 62
   190
  6
CONTINUOUS
100
AcDbHatch
 10
0.0
 20
0.0
 30
0.0
210
0.0
220
0.0
230
1.0
  2
ANSI38
 70
     0
 71
     1
 91
        1
 92
        7
 72
     0
 73
     1
 93
        4
 10
69049.44247203
 20
-62987.1564096
 10
69049.44247203
 20
-63006.1564096
 10
69551.08174596
 20
-63006.1564096
 10
69551.08174596
 20
-62987.1564096
 97
        1
330
629
 75
     0
 76
     2
 52
0.0
 41
1.0
 77
     0
 78
     2
 53
45.0
 43
0.0
 44
0.0
 45
-8.48528171
 46
8.48528171
 79
     2
 49
960.00003815
 49
0.0
 53
135.0
 43
0.0
 44
0.0
 45
-25.45584513
 46
8.48528171
 79
     2
 49
30.00000119
 49
-18.00000072
 47
0.775229
 98
        1
 10
0.0
 20
0.0
  0
LWPOLYLINE
  5
62B
102
{ACAD_REACTORS
330
62C
102
}
100
AcDbEntity
  8
Ech.1_10
 62
     7
  6
CONTINUOUS
370
    -3
100
AcDbPolyline
 90
        4
 70
     1
 43
0.0
 10
68511.57005394
 20
-62987.1564096
 10
68511.57005394
 20
-63006.1564096
 10
69013.05305756
 20
-63006.1564096
 10
69013.05305756
 20
-62987.1564096
  0
HATCH
  5
62C
100
AcDbEntity
  8
Ech.1_10
 62
   190
  6
CONTINUOUS
100
AcDbHatch
 10
0.0
 20
0.0
 30
0.0
210
0.0
220
0.0
230
1.0
  2
ANSI38
 70
     0
 71
     1
 91
        1
 92
        7
 72
     0
 73
     1
 93
        4
 10
68511.57005394
 20
-62987.1564096
 10
68511.57005394
 20
-63006.1564096
 10
69013.05305756
 20
-63006.1564096
 10
69013.05305756
 20
-62987.1564096
 97
        1
330
62B
 75
     0
 76
     2
 52
0.0
 41
1.0
 77
     0
 78
     2
 53
45.0
 43
0.0
 44
0.0
 45
-8.48528171
 46
8.48528171
 79
     2
 49
960.00003815
 49
0.0
 53
135.0
 43
0.0
 44
0.0
 45
-25.45584513
 46
8.48528171
 79
     2
 49
30.00000119
 49
-18.00000072
 47
0.775229
 98
        1
 10
0.0
 20
0.0
  0
LWPOLYLINE
  5
62D
100
AcDbEntity
  8
Ech.1_10
 62
    36
  6
CADWORK_22
 48
-5.0
370
    35
100
AcDbPolyline
 90
        4
 70
     0
 43
0.0
 10
69362.75109083
 20
-62979.31598205
 10
69328.54500691
 20
-62979.31598205
 10
69321.66759648
 20
-62984.97860858
 10
69049.44245013
 20
-62987.1564096
  0
LWPOLYLINE
  5
62E
100
AcDbEntity
  8
Ech.1_10
 62
    36
  6
CADWORK_22
 48
-5.0
370
    35
100
AcDbPolyline
 90
        4
 70
     0
 43
0.0
 10
69013.05303567
 20
-62987.1564096
 10
68617.98330098
 20
-62984.17963197
 10
68611.10589054
 20
-62978.51700544
 10
68576.89980662
 20
-62978.51700544
  0
LWPOLYLINE
  5
62F
102
{ACAD_REACTORS
330
630
102
}
100
AcDbEntity
  8
Ech.1_10
 62
     7
  6
CONTINUOUS
370
    -3
100
AcDbPolyline
 90
        4
 70
     1
 43
0.0
 10
69049.44213952
 20
-63326.15632293
 10
69049.44247203
 20
-63339.15633395
 10
69542.08174596
 20
-63339.1564096
 10
69542.08174596
 20
-63326.1564096
  0
HATCH
  5
630
100
AcDbEntity
  8
Ech.1_10
 62
   190
  6
CONTINUOUS
100
AcDbHatch
 10
0.0
 20
0.0
 30
0.0
210
0.0
220
0.0
230
1.0
  2
DOTS2
 70
     0
 71
     1
 91
        1
 92
        7
 72
     0
 73
     1
 93
        4
 10
69049.44213952
 20
-63326.15632293
 10
69049.44247203
 20
-63339.15633395
 10
69542.08174596
 20
-63339.1564096
 10
69542.08174596
 20
-63326.1564096
 97
        1
330
62F
 75
     0
 76
     2
 52
0.0
 41
4.72440952
 77
     0
 78
     1
 53
0.0
 43
0.0
 44
0.0
 45
3.75
 46
3.535
 79
     2
 49
0.0
 49
-3.535
 47
0.775229
 98
        1
 10
0.0
 20
0.0
  0
LWPOLYLINE
  5
631
102
{ACAD_REACTORS
330
632
102
}
100
AcDbEntity
  8
Ech.1_10
 62
     7
  6
CONTINUOUS
370
    -3
100
AcDbPolyline
 90
        4
 70
     1
 43
0.0
 10
68501.57005394
 20
-63326.1564096
 10
68501.57005394
 20
-63339.1564096
 10
69013.05207152
 20
-63339.15633395
 10
69013.05305756
 20
-63326.15632293
  0
HATCH
  5
632
100
AcDbEntity
  8
Ech.1_10
 62
   190
  6
CONTINUOUS
100
AcDbHatch
 10
0.0
 20
0.0
 30
0.0
210
0.0
220
0.0
230
1.0
  2
DOTS2
 70
     0
 71
     1
 91
        1
 92
        7
 72
     0
 73
     1
 93
        4
 10
68501.57005394
 20
-63326.1564096
 10
68501.57005394
 20
-63339.1564096
 10
69013.05207152
 20
-63339.15633395
 10
69013.05305756
 20
-63326.15632293
 97
        1
330
631
 75
     0
 76
     2
 52
0.0
 41
4.72440952
 77
     0
 78
     1
 53
0.0
 43
0.0
 44
0.0
 45
3.75
 46
3.535
 79
     2
 49
0.0
 49
-3.535
 47
0.775229
 98
        1
 10
0.0
 20
0.0
  0
LWPOLYLINE
  5
633
100
AcDbEntity
  8
Ech.1_10
 62
   190
  6
CONTINUOUS
370
    -3
100
AcDbPolyline
 90
        5
 70
     0
 43
0.0
 10
67976.22771314
 20
-65168.99224683
 10
69946.22771314
 20
-65168.99224683
 10
69946.22771314
 20
-62458.99224683
 10
67976.22771314
 20
-62458.99224683
 10
67976.22771314
 20
-65168.99224683
  0
LWPOLYLINE
  5
634
100
AcDbEntity
  8
Ech.1_10
 62
   190
  6
CONTINUOUS
370
    -3
100
AcDbPolyline
 90
        6
 70
     0
 43
0.0
 10
69013.05240278
 20
-62576.7192512
 10
69013.05403233
 20
-62862.81177448
 10
69031.03138073
 20
-62879.29727763
 10
68995.07568072
 20
-62865.18733761
 10
69013.05403233
 20
-62881.67369169
 10
69013.05324659
 20
-63467.87849427
  0
LWPOLYLINE
  5
635
100
AcDbEntity
  8
Ech.1_10
 62
   190
  6
CONTINUOUS
370
    -3
100
AcDbPolyline
 90
        6
 70
     0
 43
0.0
 10
69049.44312625
 20
-63467.87849427
 10
69049.44164996
 20
-62933.31266218
 10
69031.46430164
 20
-62916.82715902
 10
69067.42000156
 20
-62930.93709904
 10
69049.44164996
 20
-62914.45074496
 10
69049.44247203
 20
-62576.7192512
  0
POLYLINE
  5
636
100
AcDbEntity
  8
Ech.1_10
 62
     9
  6
CONTINUOUS
370
    -3
100
AcDb3dPolyline
 66
     1
 70
     8
  0
VERTEX
  5
637
100
AcDbEntity
  8
Ech.1_10
100
AcDbVertex
100
AcDb3dPolylineVertex
 10
69542.08174596
 20
-63827.77064906
 30
-11978.61048889
 70
    32
  0
VERTEX
  5
638
100
AcDbEntity
  8
Ech.1_10
100
AcDbVertex
100
AcDb3dPolylineVertex
 10
69542.08174596
 20
-63745.95267354
 30
-11978.61048889
 70
    32
  0
VERTEX
  5
639
100
AcDbEntity
  8
Ech.1_10
100
AcDbVertex
100
AcDb3dPolylineVertex
 10
69542.08174596
 20
-63745.95267354
 30
-9978.61048889
 70
    32
  0
VERTEX
  5
63A
100
AcDbEntity
  8
Ech.1_10
100
AcDbVertex
100
AcDb3dPolylineVertex
 10
69542.08174596
 20
-63827.77064906
 30
-9978.61048889
 70
    32
  0
VERTEX
  5
63B
100
AcDbEntity
  8
Ech.1_10
100
AcDbVertex
100
AcDb3dPolylineVertex
 10
69542.08174596
 20
-63827.77064906
 30
-3512.86048889
 70
    32
  0
VERTEX
  5
63C
100
AcDbEntity
  8
Ech.1_10
100
AcDbVertex
100
AcDb3dPolylineVertex
 10
69542.08174596
 20
-62887.1564096
 30
-3512.86048889
 70
    32
  0
VERTEX
  5
63D
100
AcDbEntity
  8
Ech.1_10
100
AcDbVertex
100
AcDb3dPolylineVertex
 10
69542.08174596
 20
-62887.1564096
 30
-5208.86048889
 70
    32
  0
VERTEX
  5
63E
100
AcDbEntity
  8
Ech.1_10
100
AcDbVertex
100
AcDb3dPolylineVertex
 10
69542.08174596
 20
-62887.1564096
 30
-5208.86048889
 70
    32
  0
SEQEND
  5
63F
100
AcDbEntity
  8
Ech.1_10
  0
POLYLINE
  5
640
100
AcDbEntity
  8
Ech.1_10
 62
     9
  6
CONTINUOUS
370
    -3
100
AcDb3dPolyline
 66
     1
 70
     8
  0
VERTEX
  5
641
100
AcDbEntity
  8
Ech.1_10
100
AcDbVertex
100
AcDb3dPolylineVertex
 10
69542.08174596
 20
-63745.95267354
 30
-5208.86048889
 70
    32
  0
VERTEX
  5
642
100
AcDbEntity
  8
Ech.1_10
100
AcDbVertex
100
AcDb3dPolylineVertex
 10
69542.08174596
 20
-63745.95267354
 30
-5208.86048889
 70
    32
  0
VERTEX
  5
643
100
AcDbEntity
  8
Ech.1_10
100
AcDbVertex
100
AcDb3dPolylineVertex
 10
69542.08174596
 20
-64679.92701551
 30
-5208.86048889
 70
    32
  0
VERTEX
  5
644
100
AcDbEntity
  8
Ech.1_10
100
AcDbVertex
100
AcDb3dPolylineVertex
 10
69542.08174596
 20
-64679.92701551
 30
-6608.86048889
 70
    32
  0
VERTEX
  5
645
100
AcDbEntity
  8
Ech.1_10
100
AcDbVertex
100
AcDb3dPolylineVertex
 10
69542.08174596
 20
-63745.95267354
 30
-6608.86048889
 70
    32
  0
VERTEX
  5
646
100
AcDbEntity
  8
Ech.1_10
100
AcDbVertex
100
AcDb3dPolylineVertex
 10
69542.08174596
 20
-63745.95267354
 30
-5208.86048889
 70
    32
  0
SEQEND
  5
647
100
AcDbEntity
  8
Ech.1_10
  0
POLYLINE
  5
648
100
AcDbEntity
  8
Ech.1_10
 62
     9
  6
CONTINUOUS
370
    -3
100
AcDb3dPolyline
 66
     1
 70
     8
  0
VERTEX
  5
649
100
AcDbEntity
  8
Ech.1_10
100
AcDbVertex
100
AcDb3dPolylineVertex
 10
69542.08174596
 20
-62887.1564096
 30
-5208.86048889
 70
    32
  0
VERTEX
  5
64A
100
AcDbEntity
  8
Ech.1_10
100
AcDbVertex
100
AcDb3dPolylineVertex
 10
69542.08174596
 20
-62887.1564096
 30
-14667.11048889
 70
    32
  0
VERTEX
  5
64B
100
AcDbEntity
  8
Ech.1_10
100
AcDbVertex
100
AcDb3dPolylineVertex
 10
69542.08174596
 20
-62887.1564096
 30
-5208.86048889
 70
    32
  0
VERTEX
  5
64C
100
AcDbEntity
  8
Ech.1_10
100
AcDbVertex
100
AcDb3dPolylineVertex
 10
69542.08174596
 20
-62887.1564096
 30
-14667.11048889
 70
    32
  0
VERTEX
  5
64D
100
AcDbEntity
  8
Ech.1_10
100
AcDbVertex
100
AcDb3dPolylineVertex
 10
69542.08174596
 20
-62887.1564096
 30
-14667.11048889
 70
    32
  0
SEQEND
  5
64E
100
AcDbEntity
  8
Ech.1_10
  0
POLYLINE
  5
64F
100
AcDbEntity
  8
Ech.1_10
 62
     9
  6
CONTINUOUS
370
    -3
100
AcDb3dPolyline
 66
     1
 70
     8
  0
VERTEX
  5
650
100
AcDbEntity
  8
Ech.1_10
100
AcDbVertex
100
AcDb3dPolylineVertex
 10
69542.08174596
 20
-63745.95267354
 30
-14667.11048889
 70
    32
  0
VERTEX
  5
651
100
AcDbEntity
  8
Ech.1_10
100
AcDbVertex
100
AcDb3dPolylineVertex
 10
69542.08174596
 20
-63745.95267354
 30
-14667.11048889
 70
    32
  0
VERTEX
  5
652
100
AcDbEntity
  8
Ech.1_10
100
AcDbVertex
100
AcDb3dPolylineVertex
 10
69542.08174596
 20
-64679.92701551
 30
-14667.11048889
 70
    32
  0
VERTEX
  5
653
100
AcDbEntity
  8
Ech.1_10
100
AcDbVertex
100
AcDb3dPolylineVertex
 10
69542.08174596
 20
-64679.92701551
 30
-16067.11048889
 70
    32
  0
VERTEX
  5
654
100
AcDbEntity
  8
Ech.1_10
100
AcDbVertex
100
AcDb3dPolylineVertex
 10
69542.08174596
 20
-63745.95267354
 30
-16067.11048889
 70
    32
  0
VERTEX
  5
655
100
AcDbEntity
  8
Ech.1_10
100
AcDbVertex
100
AcDb3dPolylineVertex
 10
69542.08174596
 20
-63745.95267354
 30
-14667.11048889
 70
    32
  0
SEQEND
  5
656
100
AcDbEntity
  8
Ech.1_10
  0
POLYLINE
  5
657
100
AcDbEntity
  8
Ech.1_10
 62
     9
  6
CONTINUOUS
370
    -3
100
AcDb3dPolyline
 66
     1
 70
     8
  0
VERTEX
  5
658
100
AcDbEntity
  8
Ech.1_10
100
AcDbVertex
100
AcDb3dPolylineVertex
 10
69542.08174596
 20
-62887.1564096
 30
-14667.11048889
 70
    32
  0
VERTEX
  5
659
100
AcDbEntity
  8
Ech.1_10
100
AcDbVertex
100
AcDb3dPolylineVertex
 10
69542.08174596
 20
-62887.1564096
 30
-17081.86048889
 70
    32
  0
VERTEX
  5
65A
100
AcDbEntity
  8
Ech.1_10
100
AcDbVertex
100
AcDb3dPolylineVertex
 10
69542.08174596
 20
-63827.77064906
 30
-17081.86048889
 70
    32
  0
VERTEX
  5
65B
100
AcDbEntity
  8
Ech.1_10
100
AcDbVertex
100
AcDb3dPolylineVertex
 10
69542.08174596
 20
-63827.77064906
 30
-11978.61048889
 70
    32
  0
SEQEND
  5
65C
100
AcDbEntity
  8
Ech.1_10
  0
LWPOLYLINE
  5
65D
100
AcDbEntity
  8
Ech.1_10
 62
   190
  6
CONTINUOUS
370
    -3
100
AcDbPolyline
 90
       60
 70
     0
 43
0.0
 10
69013.05305756
 20
-63242.82307626
 42
1.14028181
 10
68980.28762973
 20
-63247.13673673
 10
68995.8184854
 20
-63305.17608246
 42
-1.30322619
 10
68963.62096306
 20
-63305.17608246
 10
68979.15181873
 20
-63247.13673673
 42
1.30322619
 10
68946.95429639
 20
-63247.13673673
 10
68962.48515207
 20
-63305.17608246
 42
-1.30322619
 10
68930.28762973
 20
-63305.17608246
 10
68945.8184854
 20
-63247.13673673
 42
1.30322619
 10
68913.62096306
 20
-63247.13673673
 10
68929.15181873
 20
-63305.17608246
 42
-1.30322619
 10
68896.95429639
 20
-63305.17608246
 10
68912.48515207
 20
-63247.13673673
 42
1.30322619
 10
68880.28762973
 20
-63247.13673673
 10
68895.8184854
 20
-63305.17608246
 42
-1.30322619
 10
68863.62096306
 20
-63305.17608246
 10
68879.15181873
 20
-63247.13673673
 42
1.30322619
 10
68846.95429639
 20
-63247.13673673
 10
68862.48515207
 20
-63305.17608246
 42
-1.30322619
 10
68830.28762973
 20
-63305.17608246
 10
68845.8184854
 20
-63247.13673673
 42
1.30322619
 10
68813.62096306
 20
-63247.13673673
 10
68829.15181873
 20
-63305.17608246
 42
-1.30322619
 10
68796.95429639
 20
-63305.17608246
 10
68812.48515207
 20
-63247.13673673
 42
1.30322619
 10
68780.28762973
 20
-63247.13673673
 10
68795.8184854
 20
-63305.17608246
 42
-1.30322619
 10
68763.62096306
 20
-63305.17608246
 10
68779.15181873
 20
-63247.13673673
 42
1.30322619
 10
68746.95429639
 20
-63247.13673673
 10
68762.48515207
 20
-63305.17608246
 42
-1.30322619
 10
68730.28762973
 20
-63305.17608246
 10
68745.8184854
 20
-63247.13673673
 42
1.30322619
 10
68713.62096306
 20
-63247.13673673
 10
68729.15181873
 20
-63305.17608246
 42
-1.30322619
 10
68696.95429639
 20
-63305.17608246
 10
68712.48515207
 20
-63247.13673673
 42
1.30322619
 10
68680.28762973
 20
-63247.13673673
 10
68695.8184854
 20
-63305.17608246
 42
-1.30322619
 10
68663.62096306
 20
-63305.17608246
 10
68679.15181873
 20
-63247.13673673
 42
1.30322619
 10
68646.95429639
 20
-63247.13673673
 10
68662.48515207
 20
-63305.17608246
 42
-1.30322619
 10
68630.28762973
 20
-63305.17608246
 10
68645.8184854
 20
-63247.13673673
 42
1.30322619
 10
68613.62096306
 20
-63247.13673673
 10
68629.15181873
 20
-63305.17608246
 42
-1.30322619
 10
68596.95429639
 20
-63305.17608246
 10
68612.48515207
 20
-63247.13673673
 42
1.30322619
 10
68580.28762973
 20
-63247.13673673
 10
68595.8184854
 20
-63305.17608246
 42
-1.30322619
 10
68563.62096306
 20
-63305.17608246
 10
68579.15181873
 20
-63247.13673673
 42
1.30322619
 10
68546.95429639
 20
-63247.13673673
 10
68562.48515207
 20
-63305.17608246
 42
-1.30322619
 10
68530.28762973
 20
-63305.17608246
 10
68545.8184854
 20
-63247.13673673
 42
1.30322619
 10
68513.62096306
 20
-63247.13673673
 10
68529.15181873
 20
-63305.17608246
 42
-0.75731981
 10
68501.57005394
 20
-63321.56941202
  0
LWPOLYLINE
  5
65E
100
AcDbEntity
  8
Ech.1_10
 62
   190
  6
CONTINUOUS
370
    -3
100
AcDbPolyline
 90
       58
 70
     0
 43
0.0
 10
69543.08174596
 20
-63242.82307626
 42
1.14028181
 10
69510.31631813
 20
-63247.13673673
 10
69525.8471738
 20
-63305.17608246
 42
-1.30322619
 10
69493.64965146
 20
-63305.17608246
 10
69509.18050713
 20
-63247.13673673
 42
1.30322619
 10
69476.98298479
 20
-63247.13673673
 10
69492.51384047
 20
-63305.17608246
 42
-1.30322619
 10
69460.31631813
 20
-63305.17608246
 10
69475.8471738
 20
-63247.13673673
 42
1.30322619
 10
69443.64965146
 20
-63247.13673673
 10
69459.18050713
 20
-63305.17608246
 42
-1.30322619
 10
69426.98298479
 20
-63305.17608246
 10
69442.51384047
 20
-63247.13673673
 42
1.30322619
 10
69410.31631813
 20
-63247.13673673
 10
69425.8471738
 20
-63305.17608246
 42
-1.30322619
 10
69393.64965146
 20
-63305.17608246
 10
69409.18050713
 20
-63247.13673673
 42
1.30322619
 10
69376.98298479
 20
-63247.13673673
 10
69392.51384047
 20
-63305.17608246
 42
-1.30322619
 10
69360.31631813
 20
-63305.17608246
 10
69375.8471738
 20
-63247.13673673
 42
1.30322619
 10
69343.64965146
 20
-63247.13673673
 10
69359.18050713
 20
-63305.17608246
 42
-1.30322619
 10
69326.98298479
 20
-63305.17608246
 10
69342.51384047
 20
-63247.13673673
 42
1.30322619
 10
69310.31631813
 20
-63247.13673673
 10
69325.8471738
 20
-63305.17608246
 42
-1.30322619
 10
69293.64965146
 20
-63305.17608246
 10
69309.18050713
 20
-63247.13673673
 42
1.30322619
 10
69276.98298479
 20
-63247.13673673
 10
69292.51384047
 20
-63305.17608246
 42
-1.30322619
 10
69260.31631813
 20
-63305.17608246
 10
69275.8471738
 20
-63247.13673673
 42
1.30322619
 10
69243.64965146
 20
-63247.13673673
 10
69259.18050713
 20
-63305.17608246
 42
-1.30322619
 10
69226.98298479
 20
-63305.17608246
 10
69242.51384047
 20
-63247.13673673
 42
1.30322619
 10
69210.31631813
 20
-63247.13673673
 10
69225.8471738
 20
-63305.17608246
 42
-1.30322619
 10
69193.64965146
 20
-63305.17608246
 10
69209.18050713
 20
-63247.13673673
 42
1.30322619
 10
69176.98298479
 20
-63247.13673673
 10
69192.51384047
 20
-63305.17608246
 42
-1.30322619
 10
69160.31631813
 20
-63305.17608246
 10
69175.8471738
 20
-63247.13673673
 42
1.30322619
 10
69143.64965146
 20
-63247.13673673
 10
69159.18050713
 20
-63305.17608246
 42
-1.30322619
 10
69126.98298479
 20
-63305.17608246
 10
69142.51384047
 20
-63247.13673673
 42
1.30322619
 10
69110.31631813
 20
-63247.13673673
 10
69125.8471738
 20
-63305.17608246
 42
-1.30322619
 10
69093.64965146
 20
-63305.17608246
 10
69109.18050713
 20
-63247.13673673
 42
1.30322619
 10
69076.98298479
 20
-63247.13673673
 10
69092.51384047
 20
-63305.17608246
 42
-1.30322619
 10
69060.31631813
 20
-63305.17608246
 10
69075.8471738
 20
-63247.13673673
 42
0.72119785
 10
69049.44247203
 20
-63229.72477995
  0
3DFACE
  5
65F
102
{ACAD_REACTORS
330
660
102
}
100
AcDbEntity
  8
Ech.1_10
 62
     9
  6
CONTINUOUS
370
    -3
100
AcDbFace
 70
     0
 10
69542.08174596
 20
-62687.1564096
 30
2500.0
 11
69542.08174596
 21
-62887.1564096
 31
2500.0
 12
70954.1530979
 22
-62887.1564096
 32
2500.0
 13
70954.1530979
 23
-62687.1564096
 33
2500.0
  0
HATCH
  5
660
100
AcDbEntity
  8
Ech.1_10
 62
     9
  6
CONTINUOUS
100
AcDbHatch
 10
0.0
 20
0.0
 30
0.0
210
0.0
220
0.0
230
1.0
  2
AR-CONC
 70
     0
 71
     1
 91
        1
 92
        7
 72
     0
 73
     1
 93
        4
 10
69542.08174596
 20
-62687.1564096
 10
69542.08174596
 20
-62887.1564096
 10
70954.1530979
 20
-62887.1564096
 10
70954.1530979
 20
-62687.1564096
 97
        1
330
65F
 75
     0
 76
     2
 52
0.0
 41
0.11811097
 77
     0
 78
    13
 53
50.0
 43
0.0
 44
0.0
 45
-18.84283637
 46
1.64853443
 79
     2
 49
1.97029307
 49
-21.67322338
 53
355.0
 43
0.0
 44
0.0
 45
-3.64507756
 46
19.76051824
 79
     2
 49
1.57623377
 49
-17.3385787
 53
100.45140076
 43
1.57023568
 44
-0.13737749
 45
-15.19777228
 46
-18.11197244
 79
     2
 49
1.67449124
 49
-18.41940522
 53
46.18420029
 43
0.0
 44
5.25411576
 45
-28.03703353
 46
4.34827878
 79
     2
 49
2.95543872
 49
-32.50983238
 53
96.63559723
 43
2.33641885
 44
4.89175692
 45
-24.55412615
 46
-25.59063404
 79
     2
 49
2.51173697
 49
-27.62910426
 53
351.1842041
 43
0.0
 44
5.25411576
 45
24.55410288
 46
25.59065715
 79
     2
 49
2.36435249
 49
-26.00786805
 53
21.0
 43
2.62705699
 44
3.94058615
 45
-15.68109068
 46
10.57702905
 79
     2
 49
1.97029307
 49
-21.67322338
 53
326.0
 43
2.62705699
 44
3.94058615
 45
6.39203268
 46
19.05010734
 79
     2
 49
1.57623377
 49
-17.3385787
 53
71.45140076
 43
3.93381357
 44
3.05916555
 45
-22.07312962
 46
-8.47306182
 79
     2
 49
1.67449124
 49
-18.41940522
 53
37.5
 43
0.0
 44
0.0
 45
0.31944534
 46
8.74531245
 79
     6
 49
0.01875
 49
-17.12841332
 49
0.01875
 49
-17.60128498
 49
0.01875
 49
-17.40425348
 53
7.5
 43
0.0
 44
0.0
 45
6.91098818
 46
10.3614222
 79
     6
 49
0.01875
 49
-10.03535807
 49
0.01875
 49
-16.7343539
 49
0.01875
 49
-6.6333206
 53
-32.5
 43
-5.85833833
 44
0.0
 45
14.02382061
 46
-0.59253003
 79
     6
 49
0.01875
 49
-6.56764314
 49
0.01875
 49
-20.49104869
 49
0.01875
 49
-27.19004452
 53
-42.5
 43
-8.48539531
 44
0.0
 45
15.32063571
 46
2.62981542
 79
     6
 49
0.01875
 49
-8.53793621
 49
0.01875
 49
-13.60815793
 49
0.01875
 49
-19.30887222
 47
0.775229
 98
        1
 10
0.0
 20
0.0
  0
LWPOLYLINE
  5
661
102
{ACAD_REACTORS
330
662
102
}
100
AcDbEntity
  8
Ech.1_10
 62
     9
  6
CONTINUOUS
370
    -3
100
AcDbPolyline
 90
        8
 70
     1
 43
0.0
 38
2500.0
 39
-2500.0
 10
69542.08324991
 20
-63512.97754237
 10
69542.08324991
 20
-62517.1564096
 10
69742.08324991
 20
-62517.1564096
 10
69742.08324991
 20
-63512.97818217
 10
69680.89682589
 20
-63512.97808189
 10
69664.41132273
 20
-63530.95543022
 10
69678.52126275
 20
-63494.9997303
 10
69662.03490867
 20
-63512.97808189
  0
HATCH
  5
662
100
AcDbEntity
  8
Ech.1_10
 62
     9
  6
CONTINUOUS
100
AcDbHatch
 10
0.0
 20
0.0
 30
0.0
210
0.0
220
0.0
230
1.0
  2
AR-CONC
 70
     0
 71
     1
 91
        1
 92
        7
 72
     0
 73
     1
 93
        8
 10
69542.08324991
 20
-63512.97754237
 10
69542.08324991
 20
-62517.1564096
 10
69742.08324991
 20
-62517.1564096
 10
69742.08324991
 20
-63512.97818217
 10
69680.89682589
 20
-63512.97808189
 10
69664.41132273
 20
-63530.95543022
 10
69678.52126275
 20
-63494.9997303
 10
69662.03490867
 20
-63512.97808189
 97
        1
330
661
 75
     0
 76
     2
 52
0.0
 41
0.11811097
 77
     0
 78
    13
 53
50.0
 43
0.0
 44
0.0
 45
-18.84283637
 46
1.64853443
 79
     2
 49
1.97029307
 49
-21.67322338
 53
355.0
 43
0.0
 44
0.0
 45
-3.64507756
 46
19.76051824
 79
     2
 49
1.57623377
 49
-17.3385787
 53
100.45140076
 43
1.57023568
 44
-0.13737749
 45
-15.19777228
 46
-18.11197244
 79
     2
 49
1.67449124
 49
-18.41940522
 53
46.18420029
 43
0.0
 44
5.25411576
 45
-28.03703353
 46
4.34827878
 79
     2
 49
2.95543872
 49
-32.50983238
 53
96.63559723
 43
2.33641885
 44
4.89175692
 45
-24.55412615
 46
-25.59063404
 79
     2
 49
2.51173697
 49
-27.62910426
 53
351.1842041
 43
0.0
 44
5.25411576
 45
24.55410288
 46
25.59065715
 79
     2
 49
2.36435249
 49
-26.00786805
 53
21.0
 43
2.62705699
 44
3.94058615
 45
-15.68109068
 46
10.57702905
 79
     2
 49
1.97029307
 49
-21.67322338
 53
326.0
 43
2.62705699
 44
3.94058615
 45
6.39203268
 46
19.05010734
 79
     2
 49
1.57623377
 49
-17.3385787
 53
71.45140076
 43
3.93381357
 44
3.05916555
 45
-22.07312962
 46
-8.47306182
 79
     2
 49
1.67449124
 49
-18.41940522
 53
37.5
 43
0.0
 44
0.0
 45
0.31944534
 46
8.74531245
 79
     6
 49
0.01875
 49
-17.12841332
 49
0.01875
 49
-17.60128498
 49
0.01875
 49
-17.40425348
 53
7.5
 43
0.0
 44
0.0
 45
6.91098818
 46
10.3614222
 79
     6
 49
0.01875
 49
-10.03535807
 49
0.01875
 49
-16.7343539
 49
0.01875
 49
-6.6333206
 53
-32.5
 43
-5.85833833
 44
0.0
 45
14.02382061
 46
-0.59253003
 79
     6
 49
0.01875
 49
-6.56764314
 49
0.01875
 49
-20.49104869
 49
0.01875
 49
-27.19004452
 53
-42.5
 43
-8.48539531
 44
0.0
 45
15.32063571
 46
2.62981542
 79
     6
 49
0.01875
 49
-8.53793621
 49
0.01875
 49
-13.60815793
 49
0.01875
 49
-19.30887222
 47
0.775229
 98
        1
 10
0.0
 20
0.0
  0
LWPOLYLINE
  5
663
102
{ACAD_REACTORS
330
664
102
}
100
AcDbEntity
  8
Ech.1_10
 62
     9
  6
CONTINUOUS
370
    -3
100
AcDbPolyline
 90
        8
 70
     1
 43
0.0
 38
2500.0
 39
-2500.0
 10
69542.08174596
 20
-63549.36680396
 10
69542.08174596
 20
-64679.92701551
 10
69742.08174596
 20
-64679.92701551
 10
69742.08174596
 20
-63549.36616416
 10
69629.25785564
 20
-63549.36569953
 10
69612.77150081
 20
-63567.34405113
 10
69626.88144134
 20
-63531.38835112
 10
69610.39593814
 20
-63549.36569953
  0
HATCH
  5
664
100
AcDbEntity
  8
Ech.1_10
 62
     9
  6
CONTINUOUS
100
AcDbHatch
 10
0.0
 20
0.0
 30
0.0
210
0.0
220
0.0
230
1.0
  2
AR-CONC
 70
     0
 71
     1
 91
        1
 92
        7
 72
     0
 73
     1
 93
        8
 10
69542.08174596
 20
-63549.36680396
 10
69542.08174596
 20
-64679.92701551
 10
69742.08174596
 20
-64679.92701551
 10
69742.08174596
 20
-63549.36616416
 10
69629.25785564
 20
-63549.36569953
 10
69612.77150081
 20
-63567.34405113
 10
69626.88144134
 20
-63531.38835112
 10
69610.39593814
 20
-63549.36569953
 97
        1
330
663
 75
     0
 76
     2
 52
0.0
 41
0.11811097
 77
     0
 78
    13
 53
50.0
 43
0.0
 44
0.0
 45
-18.84283637
 46
1.64853443
 79
     2
 49
1.97029307
 49
-21.67322338
 53
355.0
 43
0.0
 44
0.0
 45
-3.64507756
 46
19.76051824
 79
     2
 49
1.57623377
 49
-17.3385787
 53
100.45140076
 43
1.57023568
 44
-0.13737749
 45
-15.19777228
 46
-18.11197244
 79
     2
 49
1.67449124
 49
-18.41940522
 53
46.18420029
 43
0.0
 44
5.25411576
 45
-28.03703353
 46
4.34827878
 79
     2
 49
2.95543872
 49
-32.50983238
 53
96.63559723
 43
2.33641885
 44
4.89175692
 45
-24.55412615
 46
-25.59063404
 79
     2
 49
2.51173697
 49
-27.62910426
 53
351.1842041
 43
0.0
 44
5.25411576
 45
24.55410288
 46
25.59065715
 79
     2
 49
2.36435249
 49
-26.00786805
 53
21.0
 43
2.62705699
 44
3.94058615
 45
-15.68109068
 46
10.57702905
 79
     2
 49
1.97029307
 49
-21.67322338
 53
326.0
 43
2.62705699
 44
3.94058615
 45
6.39203268
 46
19.05010734
 79
     2
 49
1.57623377
 49
-17.3385787
 53
71.45140076
 43
3.93381357
 44
3.05916555
 45
-22.07312962
 46
-8.47306182
 79
     2
 49
1.67449124
 49
-18.41940522
 53
37.5
 43
0.0
 44
0.0
 45
0.31944534
 46
8.74531245
 79
     6
 49
0.01875
 49
-17.12841332
 49
0.01875
 49
-17.60128498
 49
0.01875
 49
-17.40425348
 53
7.5
 43
0.0
 44
0.0
 45
6.91098818
 46
10.3614222
 79
     6
 49
0.01875
 49
-10.03535807
 49
0.01875
 49
-16.7343539
 49
0.01875
 49
-6.6333206
 53
-32.5
 43
-5.85833833
 44
0.0
 45
14.02382061
 46
-0.59253003
 79
     6
 49
0.01875
 49
-6.56764314
 49
0.01875
 49
-20.49104869
 49
0.01875
 49
-27.19004452
 53
-42.5
 43
-8.48539531
 44
0.0
 45
15.32063571
 46
2.62981542
 79
     6
 49
0.01875
 49
-8.53793621
 49
0.01875
 49
-13.60815793
 49
0.01875
 49
-19.30887222
 47
0.775229
 98
        1
 10
0.0
 20
0.0
  0
LWPOLYLINE
  5
665
100
AcDbEntity
  8
Ech.1_10
 62
   190
  6
CONTINUOUS
370
    -3
100
AcDbPolyline
 90
        8
 70
     1
 43
0.0
 10
68347.57005394
 20
-64301.07870136
 10
68347.57005394
 20
-64014.25705462
 10
68356.57005394
 20
-64014.25705462
 10
68356.57005394
 20
-63775.25705462
 10
68347.57005394
 20
-63775.25705462
 10
68347.57005394
 20
-63549.36687358
 10
68287.57005394
 20
-63549.36687358
 10
68287.57005394
 20
-64301.07870136
  0
LWPOLYLINE
  5
666
100
AcDbEntity
  8
Ech.1_10
 62
   190
  6
CONTINUOUS
370
    -3
100
AcDbPolyline
 90
       40
 70
     0
 43
0.0
 10
68345.07005394
 20
-64014.25705462
 42
1.14028181
 10
68342.09362822
 20
-63991.64890941
 10
68302.04647966
 20
-64002.36519982
 42
-1.30322619
 10
68302.04647966
 20
-63980.14890941
 10
68342.09362822
 20
-63990.86519982
 42
1.30322619
 10
68342.09362822
 20
-63968.64890941
 10
68302.04647966
 20
-63979.36519982
 42
-1.30322619
 10
68302.04647966
 20
-63957.14890941
 10
68342.09362822
 20
-63967.86519982
 42
1.30322619
 10
68342.09362822
 20
-63945.64890941
 10
68302.04647966
 20
-63956.36519982
 42
-1.30322619
 10
68302.04647966
 20
-63934.14890941
 10
68342.09362822
 20
-63944.86519982
 42
1.30322619
 10
68342.09362822
 20
-63922.64890941
 10
68302.04647966
 20
-63933.36519982
 42
-1.30322619
 10
68302.04647966
 20
-63911.14890941
 10
68342.09362822
 20
-63921.86519982
 42
1.30322619
 10
68342.09362822
 20
-63899.64890941
 10
68302.04647966
 20
-63910.36519982
 42
-1.30322619
 10
68302.04647966
 20
-63888.14890941
 10
68342.09362822
 20
-63898.86519982
 42
1.30322619
 10
68342.09362822
 20
-63876.64890941
 10
68302.04647966
 20
-63887.36519982
 42
-1.30322619
 10
68302.04647966
 20
-63865.14890941
 10
68342.09362822
 20
-63875.86519982
 42
1.30322619
 10
68342.09362822
 20
-63853.64890941
 10
68302.04647966
 20
-63864.36519982
 42
-1.30322619
 10
68302.04647966
 20
-63842.14890941
 10
68342.09362822
 20
-63852.86519982
 42
1.30322619
 10
68342.09362822
 20
-63830.64890941
 10
68302.04647966
 20
-63841.36519982
 42
-1.30322619
 10
68302.04647966
 20
-63819.14890941
 10
68342.09362822
 20
-63829.86519982
 42
1.30322619
 10
68342.09362822
 20
-63807.64890941
 10
68302.04647966
 20
-63818.36519982
 42
-1.30322619
 10
68302.04647966
 20
-63796.14890941
 10
68342.09362822
 20
-63806.86519982
 42
1.30322619
 10
68342.09362822
 20
-63784.64890941
 10
68302.04647966
 20
-63795.36519982
 42
-0.81340333
 10
68291.9111434
 20
-63775.25705462
  0
LWPOLYLINE
  5
667
100
AcDbEntity
  8
Ech.1_10
 62
     7
  6
CONTINUOUS
370
    -3
100
AcDbPolyline
 90
        8
 70
     1
 43
0.0
 10
68995.07571727
 20
-63928.74011719
 10
69031.03141728
 20
-63942.8500572
 10
69013.05406887
 20
-63926.36455405
 10
69013.0535572
 20
-63794.25705462
 10
68401.57005394
 20
-63794.25705462
 10
68401.57005394
 20
-64014.25705462
 10
69013.05324659
 20
-64014.25705462
 10
69013.05406887
 20
-63945.22647127
  0
LWPOLYLINE
  5
668
100
AcDbEntity
  8
Ech.1_10
 62
   190
  6
CONTINUOUS
370
    -3
100
AcDbPolyline
 90
        4
 70
     1
 43
0.0
 10
68501.57005394
 20
-64301.0773943
 10
68541.57005394
 20
-64301.0773943
 10
68541.57005394
 20
-64178.25705266
 10
68501.57005394
 20
-64178.25705266
  0
LWPOLYLINE
  5
669
100
AcDbEntity
  8
Ech.1_10
 62
   190
  6
CONTINUOUS
370
    -3
100
AcDbPolyline
 90
       36
 70
     0
 43
0.0
 10
68534.90338727
 20
-64301.0773943
 42
1.14028181
 10
68533.17792308
 20
-64287.97122316
 10
68509.96218479
 20
-64294.18356543
 42
-1.30322619
 10
68509.96218479
 20
-64281.3045565
 10
68533.17792308
 20
-64287.51689876
 42
1.30322619
 10
68533.17792308
 20
-64274.63788983
 10
68509.96218479
 20
-64280.8502321
 42
-1.30322619
 10
68509.96218479
 20
-64267.97122316
 10
68533.17792308
 20
-64274.18356543
 42
1.30322619
 10
68533.17792308
 20
-64261.3045565
 10
68509.96218479
 20
-64267.51689876
 42
-1.30322619
 10
68509.96218479
 20
-64254.63788983
 10
68533.17792308
 20
-64260.8502321
 42
1.30322619
 10
68533.17792308
 20
-64247.97122316
 10
68509.96218479
 20
-64254.18356543
 42
-1.30322619
 10
68509.96218479
 20
-64241.3045565
 10
68533.17792308
 20
-64247.51689876
 42
1.30322619
 10
68533.17792308
 20
-64234.63788983
 10
68509.96218479
 20
-64240.8502321
 42
-1.30322619
 10
68509.96218479
 20
-64227.97122316
 10
68533.17792308
 20
-64234.18356543
 42
1.30322619
 10
68533.17792308
 20
-64221.3045565
 10
68509.96218479
 20
-64227.51689876
 42
-1.30322619
 10
68509.96218479
 20
-64214.63788983
 10
68533.17792308
 20
-64220.8502321
 42
1.30322619
 10
68533.17792308
 20
-64207.97122316
 10
68509.96218479
 20
-64214.18356543
 42
-1.30322619
 10
68509.96218479
 20
-64201.3045565
 10
68533.17792308
 20
-64207.51689876
 42
1.30322619
 10
68533.17792308
 20
-64194.63788983
 10
68509.96218479
 20
-64200.8502321
 42
-1.30322619
 10
68509.96218479
 20
-64187.97122316
 10
68533.17792308
 20
-64194.18356543
 42
1.30322619
 10
68533.17792308
 20
-64181.3045565
 10
68509.96218479
 20
-64187.51689876
 42
-0.63723841
 10
68502.19601555
 20
-64178.25705266
  0
LWPOLYLINE
  5
66A
100
AcDbEntity
  8
Ech.1_10
 62
   190
  6
CONTINUOUS
370
    -3
100
AcDbPolyline
 90
        4
 70
     1
 43
0.0
 10
68401.57005394
 20
-63794.25705462
 10
68446.57005394
 20
-63794.25705462
 10
68446.57005394
 20
-64014.25705462
 10
68401.57005394
 20
-64014.25705462
  0
LWPOLYLINE
  5
66B
100
AcDbEntity
  8
Ech.1_10
 62
   190
  6
CONTINUOUS
370
    -3
100
AcDbPolyline
 90
       58
 70
     0
 43
0.0
 10
68439.07005394
 20
-64014.25705462
 42
1.14028181
 10
68437.12890673
 20
-63999.51261209
 10
68411.01120115
 20
-64006.50149714
 42
-1.30322619
 10
68411.01120115
 20
-63992.01261209
 10
68437.12890673
 20
-63999.00149714
 42
1.30322619
 10
68437.12890673
 20
-63984.51261209
 10
68411.01120115
 20
-63991.50149714
 42
-1.30322619
 10
68411.01120115
 20
-63977.01261209
 10
68437.12890673
 20
-63984.00149714
 42
1.30322619
 10
68437.12890673
 20
-63969.51261209
 10
68411.01120115
 20
-63976.50149714
 42
-1.30322619
 10
68411.01120115
 20
-63962.01261209
 10
68437.12890673
 20
-63969.00149714
 42
1.30322619
 10
68437.12890673
 20
-63954.51261209
 10
68411.01120115
 20
-63961.50149714
 42
-1.30322619
 10
68411.01120115
 20
-63947.01261209
 10
68437.12890673
 20
-63954.00149714
 42
1.30322619
 10
68437.12890673
 20
-63939.51261209
 10
68411.01120115
 20
-63946.50149714
 42
-1.30322619
 10
68411.01120115
 20
-63932.01261209
 10
68437.12890673
 20
-63939.00149714
 42
1.30322619
 10
68437.12890673
 20
-63924.51261209
 10
68411.01120115
 20
-63931.50149714
 42
-1.30322619
 10
68411.01120115
 20
-63917.01261209
 10
68437.12890673
 20
-63924.00149714
 42
1.30322619
 10
68437.12890673
 20
-63909.51261209
 10
68411.01120115
 20
-63916.50149714
 42
-1.30322619
 10
68411.01120115
 20
-63902.01261209
 10
68437.12890673
 20
-63909.00149714
 42
1.30322619
 10
68437.12890673
 20
-63894.51261209
 10
68411.01120115
 20
-63901.50149714
 42
-1.30322619
 10
68411.01120115
 20
-63887.01261209
 10
68437.12890673
 20
-63894.00149714
 42
1.30322619
 10
68437.12890673
 20
-63879.51261209
 10
68411.01120115
 20
-63886.50149714
 42
-1.30322619
 10
68411.01120115
 20
-63872.01261209
 10
68437.12890673
 20
-63879.00149714
 42
1.30322619
 10
68437.12890673
 20
-63864.51261209
 10
68411.01120115
 20
-63871.50149714
 42
-1.30322619
 10
68411.01120115
 20
-63857.01261209
 10
68437.12890673
 20
-63864.00149714
 42
1.30322619
 10
68437.12890673
 20
-63849.51261209
 10
68411.01120115
 20
-63856.50149714
 42
-1.30322619
 10
68411.01120115
 20
-63842.01261209
 10
68437.12890673
 20
-63849.00149714
 42
1.30322619
 10
68437.12890673
 20
-63834.51261209
 10
68411.01120115
 20
-63841.50149714
 42
-1.30322619
 10
68411.01120115
 20
-63827.01261209
 10
68437.12890673
 20
-63834.00149714
 42
1.30322619
 10
68437.12890673
 20
-63819.51261209
 10
68411.01120115
 20
-63826.50149714
 42
-1.30322619
 10
68411.01120115
 20
-63812.01261209
 10
68437.12890673
 20
-63819.00149714
 42
1.30322619
 10
68437.12890673
 20
-63804.51261209
 10
68411.01120115
 20
-63811.50149714
 42
-1.30322619
 10
68411.01120115
 20
-63797.01261209
 10
68437.12890673
 20
-63804.00149714
 42
0.60366269
 10
68446.14112175
 20
-63794.25705462
  0
LWPOLYLINE
  5
66C
100
AcDbEntity
  8
Ech.1_10
 62
   190
  6
CONTINUOUS
370
    -3
100
AcDbPolyline
 90
        4
 70
     1
 43
0.0
 10
68501.57005394
 20
-63765.25705462
 10
68541.57005394
 20
-63765.25705462
 10
68541.57005394
 20
-63720.25705462
 10
68501.57005394
 20
-63720.25705462
  0
LWPOLYLINE
  5
66D
100
AcDbEntity
  8
Ech.1_10
 62
   190
  6
CONTINUOUS
370
    -3
100
AcDbPolyline
 90
       46
 70
     0
 43
0.0
 10
68346.65529594
 20
-63775.25705462
 42
0.63521829
 10
68334.98185766
 20
-63761.41947555
 10
68300.15825022
 20
-63770.73798896
 42
-1.30322619
 10
68300.15825022
 20
-63751.41947555
 10
68334.98185766
 20
-63760.73798896
 42
1.30322619
 10
68334.98185766
 20
-63741.41947555
 10
68300.15825022
 20
-63750.73798896
 42
-1.30322619
 10
68300.15825022
 20
-63731.41947555
 10
68334.98185766
 20
-63740.73798896
 42
1.30322619
 10
68334.98185766
 20
-63721.41947555
 10
68300.15825022
 20
-63730.73798896
 42
-1.30322619
 10
68300.15825022
 20
-63711.41947555
 10
68334.98185766
 20
-63720.73798896
 42
1.30322619
 10
68334.98185766
 20
-63701.41947555
 10
68300.15825022
 20
-63710.73798896
 42
-1.30322619
 10
68300.15825022
 20
-63691.41947555
 10
68334.98185766
 20
-63700.73798896
 42
1.30322619
 10
68334.98185766
 20
-63681.41947555
 10
68300.15825022
 20
-63690.73798896
 42
-1.30322619
 10
68300.15825022
 20
-63671.41947555
 10
68334.98185766
 20
-63680.73798896
 42
1.30322619
 10
68334.98185766
 20
-63661.41947555
 10
68300.15825022
 20
-63670.73798896
 42
-1.30322619
 10
68300.15825022
 20
-63651.41947555
 10
68334.98185766
 20
-63660.73798896
 42
1.30322619
 10
68334.98185766
 20
-63641.41947555
 10
68300.15825022
 20
-63650.73798896
 42
-1.30322619
 10
68300.15825022
 20
-63631.41947555
 10
68334.98185766
 20
-63640.73798896
 42
1.30322619
 10
68334.98185766
 20
-63621.41947555
 10
68300.15825022
 20
-63630.73798896
 42
-1.30322619
 10
68300.15825022
 20
-63611.41947555
 10
68334.98185766
 20
-63620.73798896
 42
1.30322619
 10
68334.98185766
 20
-63601.41947555
 10
68300.15825022
 20
-63610.73798896
 42
-1.30322619
 10
68300.15825022
 20
-63591.41947555
 10
68334.98185766
 20
-63600.73798896
 42
1.30322619
 10
68334.98185766
 20
-63581.41947555
 10
68300.15825022
 20
-63590.73798896
 42
-1.30322619
 10
68300.15825022
 20
-63571.41947555
 10
68334.98185766
 20
-63580.73798896
 42
1.30322619
 10
68334.98185766
 20
-63561.41947555
 10
68300.15825022
 20
-63570.73798896
 42
-1.30322619
 10
68300.15825022
 20
-63551.41947555
 10
68334.98185766
 20
-63560.73798896
 42
0.54780623
 10
68347.42244146
 20
-63549.36687358
  0
LWPOLYLINE
  5
66E
100
AcDbEntity
  8
Ech.1_10
 62
   190
  6
CONTINUOUS
370
    -3
100
AcDbPolyline
 90
       56
 70
     0
 43
0.0
 10
68337.57005394
 20
-64301.07873225
 42
1.14028181
 10
68334.98185766
 20
-64281.41947555
 10
68300.15825022
 20
-64290.73798896
 42
-1.30322619
 10
68300.15825022
 20
-64271.41947555
 10
68334.98185766
 20
-64280.73798896
 42
1.30322619
 10
68334.98185766
 20
-64261.41947555
 10
68300.15825022
 20
-64270.73798896
 42
-1.30322619
 10
68300.15825022
 20
-64251.41947555
 10
68334.98185766
 20
-64260.73798896
 42
1.30322619
 10
68334.98185766
 20
-64241.41947555
 10
68300.15825022
 20
-64250.73798896
 42
-1.30322619
 10
68300.15825022
 20
-64231.41947555
 10
68334.98185766
 20
-64240.73798896
 42
1.30322619
 10
68334.98185766
 20
-64221.41947555
 10
68300.15825022
 20
-64230.73798896
 42
-1.30322619
 10
68300.15825022
 20
-64211.41947555
 10
68334.98185766
 20
-64220.73798896
 42
1.30322619
 10
68334.98185766
 20
-64201.41947555
 10
68300.15825022
 20
-64210.73798896
 42
-1.30322619
 10
68300.15825022
 20
-64191.41947555
 10
68334.98185766
 20
-64200.73798896
 42
1.30322619
 10
68334.98185766
 20
-64181.41947555
 10
68300.15825022
 20
-64190.73798896
 42
-1.30322619
 10
68300.15825022
 20
-64171.41947555
 10
68334.98185766
 20
-64180.73798896
 42
1.30322619
 10
68334.98185766
 20
-64161.41947555
 10
68300.15825022
 20
-64170.73798896
 42
-1.30322619
 10
68300.15825022
 20
-64151.41947555
 10
68334.98185766
 20
-64160.73798896
 42
1.30322619
 10
68334.98185766
 20
-64141.41947555
 10
68300.15825022
 20
-64150.73798896
 42
-1.30322619
 10
68300.15825022
 20
-64131.41947555
 10
68334.98185766
 20
-64140.73798896
 42
1.30322619
 10
68334.98185766
 20
-64121.41947555
 10
68300.15825022
 20
-64130.73798896
 42
-1.30322619
 10
68300.15825022
 20
-64111.41947555
 10
68334.98185766
 20
-64120.73798896
 42
1.30322619
 10
68334.98185766
 20
-64101.41947555
 10
68300.15825022
 20
-64110.73798896
 42
-1.30322619
 10
68300.15825022
 20
-64091.41947555
 10
68334.98185766
 20
-64100.73798896
 42
1.30322619
 10
68334.98185766
 20
-64081.41947555
 10
68300.15825022
 20
-64090.73798896
 42
-1.30322619
 10
68300.15825022
 20
-64071.41947555
 10
68334.98185766
 20
-64080.73798896
 42
1.30322619
 10
68334.98185766
 20
-64061.41947555
 10
68300.15825022
 20
-64070.73798896
 42
-1.30322619
 10
68300.15825022
 20
-64051.41947555
 10
68334.98185766
 20
-64060.73798896
 42
1.30322619
 10
68334.98185766
 20
-64041.41947555
 10
68300.15825022
 20
-64050.73798896
 42
-1.30322619
 10
68300.15825022
 20
-64031.41947555
 10
68334.98185766
 20
-64040.73798896
 42
1.30322619
 10
68334.98185766
 20
-64021.41947555
 10
68300.15825022
 20
-64030.73798896
 42
-0.75364509
 10
68290.258097
 20
-64014.25705462
  0
LWPOLYLINE
  5
66F
100
AcDbEntity
  8
Ech.1_10
 62
   190
  6
CONTINUOUS
370
    -3
100
AcDbPolyline
 90
        3
 70
     0
 43
0.0
 10
68310.76238149
 20
-64014.25705462
 10
68334.98185766
 20
-64020.73798896
 42
0.39627206
 10
68347.0515236
 20
-64014.25705462
  0
LWPOLYLINE
  5
670
100
AcDbEntity
  8
Ech.1_10
 62
   190
  6
CONTINUOUS
370
    -3
100
AcDbPolyline
 90
        9
 70
     1
 43
0.0
 10
68501.57005394
 20
-63549.3663096
 10
68402.86547465
 20
-63549.36590956
 10
68386.37912057
 20
-63567.34426116
 10
68400.48906059
 20
-63531.38856115
 10
68384.00355743
 20
-63549.36590956
 10
68356.57005394
 20
-63549.36616035
 10
68356.57005394
 20
-63730.25705462
 10
68501.57005394
 20
-63730.25705462
 10
68501.57005394
 20
-63720.25705462
  0
LWPOLYLINE
  5
671
100
AcDbEntity
  8
Ech.1_10
 62
   190
  6
CONTINUOUS
370
    -3
100
AcDbPolyline
 90
        9
 70
     1
 43
0.0
 10
68501.57005394
 20
-64178.25705266
 10
68501.57005394
 20
-64104.25705462
 10
68356.57005394
 20
-64104.25705462
 10
68356.57005394
 20
-64301.07873225
 10
68435.64252791
 20
-64301.07902385
 10
68452.12888199
 20
-64283.10067224
 10
68438.01894198
 20
-64319.05637225
 10
68454.50444513
 20
-64301.07902385
 10
68501.57005394
 20
-64301.0773943
  0
LINE
  5
672
100
AcDbEntity
  8
Ech.1_10
 62
     7
  6
CONTINUOUS
370
    -3
100
AcDbLine
 10
68401.57005394
 20
-64014.25705462
 30
0.0
 11
69013.05324659
 21
-64014.25705462
 31
0.0
  0
LWPOLYLINE
  5
673
100
AcDbEntity
  8
Ech.1_10
 62
   190
  6
CONTINUOUS
370
    -3
100
AcDbPolyline
 90
        6
 70
     0
 43
0.0
 10
69013.05259305
 20
-63708.05055222
 10
69013.05406887
 20
-63926.36455405
 10
69031.03141728
 20
-63942.8500572
 10
68995.07571727
 20
-63928.74011719
 10
69013.05406887
 20
-63945.22647127
 10
69013.05324659
 20
-64227.9932881
  0
LWPOLYLINE
  5
674
100
AcDbEntity
  8
Ech.1_10
 62
   253
  6
CONTINUOUS
370
    15
100
AcDbPolyline
 90
        4
 70
     1
 43
0.0
 10
68541.57005394
 20
-64301.0773943
 10
68554.57005394
 20
-64301.0773943
 10
68554.57005394
 20
-64133.25705266
 10
68541.57005394
 20
-64133.25705266
  0
LWPOLYLINE
  5
675
100
AcDbEntity
  8
Ech.1_10
 62
   253
  6
CONTINUOUS
370
    15
100
AcDbPolyline
 90
        4
 70
     1
 43
0.0
 10
68541.57005394
 20
-63765.25705462
 10
68554.57005394
 20
-63765.25705462
 10
68554.57005394
 20
-63549.36660629
 10
68541.57005394
 20
-63549.36660629
  0
LWPOLYLINE
  5
676
102
{ACAD_REACTORS
330
677
102
}
100
AcDbEntity
  8
Ech.1_10
 62
     7
  6
CONTINUOUS
370
    -3
100
AcDbPolyline
 90
        4
 70
     1
 43
0.0
 10
68541.57005394
 20
-64301.0773943
 10
68554.57005394
 20
-64301.0773943
 10
68554.57005394
 20
-64133.25705266
 10
68541.57005394
 20
-64133.25705266
  0
HATCH
  5
677
100
AcDbEntity
  8
Ech.1_10
 62
   190
  6
CONTINUOUS
100
AcDbHatch
 10
0.0
 20
0.0
 30
0.0
210
0.0
220
0.0
230
1.0
  2
DOTS2
 70
     0
 71
     1
 91
        1
 92
        7
 72
     0
 73
     1
 93
        4
 10
68541.57005394
 20
-64301.0773943
 10
68554.57005394
 20
-64301.0773943
 10
68554.57005394
 20
-64133.25705266
 10
68541.57005394
 20
-64133.25705266
 97
        1
330
676
 75
     0
 76
     2
 52
0.0
 41
4.72440952
 77
     0
 78
     1
 53
0.0
 43
0.0
 44
0.0
 45
3.75
 46
3.535
 79
     2
 49
0.0
 49
-3.535
 47
0.775229
 98
        1
 10
0.0
 20
0.0
  0
LWPOLYLINE
  5
678
102
{ACAD_REACTORS
330
679
102
}
100
AcDbEntity
  8
Ech.1_10
 62
     7
  6
CONTINUOUS
370
    -3
100
AcDbPolyline
 90
        4
 70
     1
 43
0.0
 10
68541.57005394
 20
-63765.25705462
 10
68554.57005394
 20
-63765.25705462
 10
68554.57005394
 20
-63549.36660629
 10
68541.57005394
 20
-63549.36660629
  0
HATCH
  5
679
100
AcDbEntity
  8
Ech.1_10
 62
   190
  6
CONTINUOUS
100
AcDbHatch
 10
0.0
 20
0.0
 30
0.0
210
0.0
220
0.0
230
1.0
  2
DOTS2
 70
     0
 71
     1
 91
        1
 92
        7
 72
     0
 73
     1
 93
        4
 10
68541.57005394
 20
-63765.25705462
 10
68554.57005394
 20
-63765.25705462
 10
68554.57005394
 20
-63549.36660629
 10
68541.57005394
 20
-63549.36660629
 97
        1
330
678
 75
     0
 76
     2
 52
0.0
 41
4.72440952
 77
     0
 78
     1
 53
0.0
 43
0.0
 44
0.0
 45
3.75
 46
3.535
 79
     2
 49
0.0
 49
-3.535
 47
0.775229
 98
        1
 10
0.0
 20
0.0
  0
LWPOLYLINE
  5
67A
100
AcDbEntity
  8
Ech.1_10
 62
   190
  6
CONTINUOUS
370
    -3
100
AcDbPolyline
 90
        4
 70
     1
 43
0.0
 10
68501.57005394
 20
-63720.25705462
 10
68541.57005394
 20
-63720.25705462
 10
68541.57005394
 20
-63549.3663096
 10
68501.57005394
 20
-63549.3663096
  0
LWPOLYLINE
  5
67B
100
AcDbEntity
  8
Ech.1_10
 62
   190
  6
CONTINUOUS
370
    -3
100
AcDbPolyline
 90
        4
 70
     1
 43
0.0
 10
68347.57005394
 20
-63775.25705462
 10
68356.57005394
 20
-63775.25705462
 10
68356.57005394
 20
-63549.3662171
 10
68347.57005394
 20
-63549.3662171
  0
LWPOLYLINE
  5
67C
100
AcDbEntity
  8
Ech.1_10
 62
   190
  6
CONTINUOUS
370
    -3
100
AcDbPolyline
 90
        4
 70
     1
 43
0.0
 10
68356.57005394
 20
-64014.25705462
 10
68347.57005394
 20
-64014.25705462
 10
68347.57005394
 20
-64301.07873225
 10
68356.57005394
 20
-64301.07873225
  0
LWPOLYLINE
  5
67D
102
{ACAD_REACTORS
330
67E
102
}
100
AcDbEntity
  8
Ech.1_10
 62
     7
  6
CONTINUOUS
370
    -3
100
AcDbPolyline
 90
        4
 70
     1
 43
0.0
 10
68347.57005394
 20
-63775.25705462
 10
68356.57005394
 20
-63775.25705462
 10
68356.57005394
 20
-63549.3662171
 10
68347.57005394
 20
-63549.3662171
  0
HATCH
  5
67E
100
AcDbEntity
  8
Ech.1_10
 62
   190
  6
CONTINUOUS
100
AcDbHatch
 10
0.0
 20
0.0
 30
0.0
210
0.0
220
0.0
230
1.0
  2
CDWK10A
 70
     0
 71
     1
 91
        1
 92
        7
 72
     0
 73
     1
 93
        4
 10
68347.57005394
 20
-63775.25705462
 10
68356.57005394
 20
-63775.25705462
 10
68356.57005394
 20
-63549.3662171
 10
68347.57005394
 20
-63549.3662171
 97
        1
330
67D
 75
     0
 76
     2
 52
0.0
 41
1.0
 77
     0
 78
     3
 53
45.0
 43
0.0
 44
0.0
 45
0.0
 46
84.00000334
 79
     0
 53
45.0
 43
0.0
 44
21.60000086
 45
0.0
 46
84.00000334
 79
     0
 53
45.0
 43
0.0
 44
43.20000172
 45
0.0
 46
84.00000334
 79
     0
 47
0.775229
 98
        1
 10
0.0
 20
0.0
  0
LWPOLYLINE
  5
67F
100
AcDbEntity
  8
Ech.1_10
 62
   190
  6
CONTINUOUS
370
    -3
100
AcDbPolyline
 90
        4
 70
     1
 43
0.0
 10
68356.57005394
 20
-64014.25705462
 10
68356.57005394
 20
-64059.25705462
 10
68501.57005394
 20
-64059.25705462
 10
68501.57005394
 20
-64014.25705462
  0
LWPOLYLINE
  5
680
100
AcDbEntity
  8
Ech.1_10
 62
   190
  6
CONTINUOUS
370
    -3
100
AcDbPolyline
 90
        4
 70
     1
 43
0.0
 10
68356.57005394
 20
-63730.25705462
 10
68356.57005394
 20
-63775.25705462
 10
68501.57005394
 20
-63775.25705462
 10
68501.57005394
 20
-63730.25705462
  0
LWPOLYLINE
  5
681
100
AcDbEntity
  8
Ech.1_10
 62
   190
  6
CONTINUOUS
370
    -3
100
AcDbPolyline
 90
        4
 70
     1
 43
0.0
 10
68501.57005394
 20
-63775.25705462
 10
68501.57005394
 20
-63730.25705462
 10
68356.57005394
 20
-63730.25705462
 10
68356.57005394
 20
-63775.25705462
  0
LWPOLYLINE
  5
682
100
AcDbEntity
  8
Ech.1_10
 62
   190
  6
CONTINUOUS
370
    -3
100
AcDbPolyline
 90
        4
 70
     1
 43
0.0
 10
68501.57005394
 20
-64059.25705462
 10
68501.57005394
 20
-64014.25705462
 10
68356.57005394
 20
-64014.25705462
 10
68356.57005394
 20
-64059.25705462
  0
LWPOLYLINE
  5
683
100
AcDbEntity
  8
Ech.1_10
 62
   190
  6
CONTINUOUS
370
    -3
100
AcDbPolyline
 90
        4
 70
     1
 43
0.0
 10
68401.57005394
 20
-63794.25705462
 10
68356.57005394
 20
-63794.25705462
 10
68356.57005394
 20
-64014.25705462
 10
68401.57005394
 20
-64014.25705462
  0
LWPOLYLINE
  5
684
100
AcDbEntity
  8
Ech.1_10
 62
   190
  6
CONTINUOUS
370
    -3
100
AcDbPolyline
 90
        4
 70
     1
 43
0.0
 10
68356.57005394
 20
-64014.25705462
 10
68401.57005394
 20
-64014.25705462
 10
68401.57005394
 20
-63794.25705462
 10
68356.57005394
 20
-63794.25705462
  0
LINE
  5
685
100
AcDbEntity
  8
Ech.1_10
370
    18
100
AcDbLine
 10
68262.57005394
 20
-64149.36716855
 30
0.0
 11
68262.57005394
 21
-63549.36714094
 31
0.0
  0
LWPOLYLINE
  5
686
100
AcDbEntity
  8
Ech.1_10
 62
     9
100
AcDbPolyline
 90
       27
 70
     0
 43
0.0
 10
68249.44343682
 20
-63973.24236028
 10
68249.57005394
 20
-63972.90788649
 10
68249.57005394
 20
-63945.5244224
 10
68256.57005394
 20
-63945.5244224
 10
68256.57005394
 20
-63954.5244224
 10
68262.57005394
 20
-63954.5244224
 10
68262.57005394
 20
-63927.5244224
 10
68258.57005394
 20
-63923.5244224
 10
68262.57005394
 20
-63919.5244224
 10
68262.57005394
 20
-63855.5244224
 10
68258.57005394
 20
-63851.5244224
 10
68262.57005394
 20
-63847.5244224
 10
68262.57005394
 20
-63812.5244224
 10
68255.57005394
 20
-63812.5244224
 10
68255.57005394
 20
-63806.5244224
 10
68253.07005394
 20
-63801.5244224
 10
68250.57005394
 20
-63806.5244224
 10
68250.57005394
 20
-63837.45335459
 10
68250.1894516
 20
-63839.36677175
 10
68244.03452003
 20
-63846.0599563
 10
68242.57005394
 20
-63849.59549021
 10
68242.57005394
 20
-63968.68223462
 10
68243.53037633
 20
-63970.31210326
 10
68248.26649719
 20
-63973.2834532
 10
68248.67849856
 20
-63973.5244224
 10
68248.99231605
 20
-63973.5244224
 10
68249.44343682
 20
-63973.24236028
  0
LWPOLYLINE
  5
687
100
AcDbEntity
  8
Ech.1_10
 62
     7
100
AcDbPolyline
 90
       27
 70
     0
 43
0.0
 10
68249.44343682
 20
-64118.24236028
 10
68249.57005394
 20
-64117.90788649
 10
68249.57005394
 20
-64090.5244224
 10
68256.57005394
 20
-64090.5244224
 10
68256.57005394
 20
-64099.5244224
 10
68262.57005394
 20
-64099.5244224
 10
68262.57005394
 20
-64072.5244224
 10
68258.57005394
 20
-64068.5244224
 10
68262.57005394
 20
-64064.5244224
 10
68262.57005394
 20
-64000.5244224
 10
68258.57005394
 20
-63996.5244224
 10
68262.57005394
 20
-63992.5244224
 10
68262.57005394
 20
-63957.5244224
 10
68255.57005394
 20
-63957.5244224
 10
68255.57005394
 20
-63951.5244224
 10
68253.07005394
 20
-63946.5244224
 10
68250.57005394
 20
-63951.5244224
 10
68250.57005394
 20
-63982.45335459
 10
68250.1894516
 20
-63984.36677175
 10
68244.03452003
 20
-63991.0599563
 10
68242.57005394
 20
-63994.59549021
 10
68242.57005394
 20
-64113.68223462
 10
68243.53037633
 20
-64115.31210326
 10
68248.26649719
 20
-64118.2834532
 10
68248.67849856
 20
-64118.5244224
 10
68248.99231605
 20
-64118.5244224
 10
68249.44343682
 20
-64118.24236028
  0
LWPOLYLINE
  5
688
100
AcDbEntity
  8
Ech.1_10
 62
     9
100
AcDbPolyline
 90
       21
 70
     0
 43
0.0
 10
68250.18899033
 20
-63549.36727335
 10
68244.03452003
 20
-63556.0599563
 10
68242.57005394
 20
-63559.59549021
 10
68242.57005394
 20
-63678.68223462
 10
68243.53037633
 20
-63680.31210326
 10
68248.26649719
 20
-63683.2834532
 10
68248.67849856
 20
-63683.5244224
 10
68248.99231605
 20
-63683.5244224
 10
68249.44343682
 20
-63683.24236028
 10
68249.57005394
 20
-63682.90788649
 10
68249.57005394
 20
-63655.5244224
 10
68256.57005394
 20
-63655.5244224
 10
68256.57005394
 20
-63664.5244224
 10
68262.57005394
 20
-63664.5244224
 10
68262.57005394
 20
-63637.5244224
 10
68258.57005394
 20
-63633.5244224
 10
68262.57005394
 20
-63629.5244224
 10
68262.57005394
 20
-63565.5244224
 10
68258.57005394
 20
-63561.5244224
 10
68262.57005394
 20
-63557.5244224
 10
68262.57005394
 20
-63549.36714094
  0
LWPOLYLINE
  5
689
100
AcDbEntity
  8
Ech.1_10
 62
     9
100
AcDbPolyline
 90
       27
 70
     0
 43
0.0
 10
68249.44343682
 20
-63828.24236028
 10
68249.57005394
 20
-63827.90788649
 10
68249.57005394
 20
-63800.5244224
 10
68256.57005394
 20
-63800.5244224
 10
68256.57005394
 20
-63809.5244224
 10
68262.57005394
 20
-63809.5244224
 10
68262.57005394
 20
-63782.5244224
 10
68258.57005394
 20
-63778.5244224
 10
68262.57005394
 20
-63774.5244224
 10
68262.57005394
 20
-63710.5244224
 10
68258.57005394
 20
-63706.5244224
 10
68262.57005394
 20
-63702.5244224
 10
68262.57005394
 20
-63667.5244224
 10
68255.57005394
 20
-63667.5244224
 10
68255.57005394
 20
-63661.5244224
 10
68253.07005394
 20
-63656.5244224
 10
68250.57005394
 20
-63661.5244224
 10
68250.57005394
 20
-63692.45335459
 10
68250.1894516
 20
-63694.36677175
 10
68244.03452003
 20
-63701.0599563
 10
68242.57005394
 20
-63704.59549021
 10
68242.57005394
 20
-63823.68223462
 10
68243.53037633
 20
-63825.31210326
 10
68248.26649719
 20
-63828.2834532
 10
68248.67849856
 20
-63828.5244224
 10
68248.99231605
 20
-63828.5244224
 10
68249.44343682
 20
-63828.24236028
  0
LWPOLYLINE
  5
68A
100
AcDbEntity
  8
Ech.1_10
 62
   190
  6
CONTINUOUS
370
    -3
100
AcDbPolyline
 90
        4
 70
     1
 43
0.0
 10
68356.57005394
 20
-63794.25705462
 10
69013.0535572
 20
-63794.25705462
 10
69013.0535572
 20
-63775.25705462
 10
68356.57005394
 20
-63775.25705462
  0
LWPOLYLINE
  5
68B
102
{ACAD_REACTORS
330
68C
102
}
100
AcDbEntity
  8
Ech.1_10
 62
     7
  6
CONTINUOUS
370
    -3
100
AcDbPolyline
 90
        4
 70
     1
 43
0.0
 10
68356.57005394
 20
-63794.25705462
 10
69013.0535572
 20
-63794.25705462
 10
69013.0535572
 20
-63775.25705462
 10
68356.57005394
 20
-63775.25705462
  0
HATCH
  5
68C
100
AcDbEntity
  8
Ech.1_10
 62
   190
  6
CONTINUOUS
100
AcDbHatch
 10
0.0
 20
0.0
 30
0.0
210
0.0
220
0.0
230
1.0
  2
ANSI38
 70
     0
 71
     1
 91
        1
 92
        7
 72
     0
 73
     1
 93
        4
 10
68356.57005394
 20
-63794.25705462
 10
69013.0535572
 20
-63794.25705462
 10
69013.0535572
 20
-63775.25705462
 10
68356.57005394
 20
-63775.25705462
 97
        1
330
68B
 75
     0
 76
     2
 52
0.0
 41
1.0
 77
     0
 78
     2
 53
45.0
 43
0.0
 44
0.0
 45
-8.48528171
 46
8.48528171
 79
     2
 49
960.00003815
 49
0.0
 53
135.0
 43
0.0
 44
0.0
 45
-25.45584513
 46
8.48528171
 79
     2
 49
30.00000119
 49
-18.00000072
 47
0.775229
 98
        1
 10
0.0
 20
0.0
  0
LWPOLYLINE
  5
68D
100
AcDbEntity
  8
Ech.1_10
 62
   190
  6
CONTINUOUS
370
    -3
100
AcDbPolyline
 90
        4
 70
     1
 43
0.0
 10
68501.57005394
 20
-64119.25689211
 10
68501.57005394
 20
-64132.25689211
 10
69013.05324659
 20
-64132.25689211
 10
69013.05324659
 20
-64119.25689211
  0
LWPOLYLINE
  5
68E
102
{ACAD_REACTORS
330
68F
102
}
100
AcDbEntity
  8
Ech.1_10
 62
     7
  6
CONTINUOUS
370
    -3
100
AcDbPolyline
 90
        4
 70
     1
 43
0.0
 10
69013.05324659
 20
-64132.25696795
 10
69013.05324659
 20
-64119.25696795
 10
68501.57005394
 20
-64119.25705462
 10
68501.57005394
 20
-64132.25705462
  0
HATCH
  5
68F
100
AcDbEntity
  8
Ech.1_10
 62
   190
  6
CONTINUOUS
100
AcDbHatch
 10
0.0
 20
0.0
 30
0.0
210
0.0
220
0.0
230
1.0
  2
DOTS2
 70
     0
 71
     1
 91
        1
 92
        7
 72
     0
 73
     1
 93
        4
 10
69013.05324659
 20
-64132.25696795
 10
69013.05324659
 20
-64119.25696795
 10
68501.57005394
 20
-64119.25705462
 10
68501.57005394
 20
-64132.25705462
 97
        1
330
68E
 75
     0
 76
     2
 52
0.0
 41
4.72440952
 77
     0
 78
     1
 53
0.0
 43
0.0
 44
0.0
 45
3.75
 46
3.535
 79
     2
 49
0.0
 49
-3.535
 47
0.775229
 98
        1
 10
0.0
 20
0.0
  0
LWPOLYLINE
  5
690
100
AcDbEntity
  8
Ech.1_10
 62
   190
  6
CONTINUOUS
370
    -3
100
AcDbPolyline
 90
        4
 70
     0
 43
0.0
 10
69013.05324659
 20
-64119.25705462
 10
68599.77833617
 20
-64119.25705462
 10
68599.77833617
 20
-64019.25705462
 10
69013.05324659
 20
-64019.25705462
  0
LWPOLYLINE
  5
691
100
AcDbEntity
  8
Ech.1_10
 62
   190
  6
CONTINUOUS
370
    -3
100
AcDbPolyline
 90
        4
 70
     1
 43
0.0
 10
68501.57005394
 20
-64019.25705462
 10
68501.57005394
 20
-64119.25705462
 10
69013.05324659
 20
-64119.25705462
 10
69013.05324659
 20
-64019.25705462
  0
LWPOLYLINE
  5
692
100
AcDbEntity
  8
Ech.1_10
 62
   190
370
    18
100
AcDbPolyline
 90
        4
 70
     0
 43
0.0
 10
68501.57005394
 20
-63720.25705462
 10
68541.57005394
 20
-63765.25705462
 10
68541.57005394
 20
-63720.25705462
 10
68501.57005394
 20
-63765.25705462
  0
LWPOLYLINE
  5
693
100
AcDbEntity
  8
Ech.1_10
100
AcDbPolyline
 90
        6
 70
     0
 43
0.0
 10
68554.57146912
 20
-63695.59221005
 10
68557.57005392
 20
-63695.59227897
 42
-0.41421356
 10
68567.57005392
 20
-63705.59227897
 10
68567.57005392
 20
-63761.25705228
 10
68554.57005394
 20
-63761.25705462
 10
68554.57005394
 20
-63695.59228131
  0
LWPOLYLINE
  5
694
100
AcDbEntity
  8
Ech.1_10
 62
   190
  6
CONTINUOUS
370
    -3
100
AcDbPolyline
 90
        4
 70
     1
 43
0.0
 10
68356.57005394
 20
-64059.25705462
 10
68356.57005394
 20
-64104.25705462
 10
68501.57005394
 20
-64104.25705462
 10
68501.57005394
 20
-64059.25705462
  0
LWPOLYLINE
  5
695
100
AcDbEntity
  8
Ech.1_10
 62
   190
  6
CONTINUOUS
370
    -3
100
AcDbPolyline
 90
        4
 70
     1
 43
0.0
 10
68501.57005394
 20
-64104.25705462
 10
68501.57005394
 20
-64059.25705462
 10
68356.57005394
 20
-64059.25705462
 10
68356.57005394
 20
-64104.25705462
  0
LWPOLYLINE
  5
696
100
AcDbEntity
  8
Ech.1_10
 62
   190
  6
CONTINUOUS
370
    -3
100
AcDbPolyline
 90
        4
 70
     1
 43
0.0
 10
68501.57005394
 20
-64198.25705266
 10
68541.57005394
 20
-64198.25705266
 10
68541.57005394
 20
-64153.25705266
 10
68501.57005394
 20
-64153.25705266
  0
LINE
  5
697
100
AcDbEntity
  8
Ech.1_10
 62
   190
  6
CONTINUOUS
370
    -3
100
AcDbLine
 10
68501.57005394
 20
-63730.25705462
 30
0.0
 11
68501.57005394
 21
-63549.36673184
 31
0.0
  0
LINE
  5
698
100
AcDbEntity
  8
Ech.1_10
 62
   190
  6
CONTINUOUS
370
    -3
100
AcDbLine
 10
68501.57005394
 20
-64104.25705462
 30
0.0
 11
68501.57005394
 21
-64301.0773943
 31
0.0
  0
LWPOLYLINE
  5
699
102
{ACAD_REACTORS
330
69A
102
}
100
AcDbEntity
  8
Ech.1_10
 62
   190
  6
CONTINUOUS
370
    -3
100
AcDbPolyline
 90
        4
 70
     1
 43
0.0
 10
69013.05304981
 20
-63775.25705462
 10
69013.0530381
 20
-63761.25705462
 10
68564.57005394
 20
-63761.25705462
 10
68564.57005394
 20
-63775.25705462
  0
HATCH
  5
69A
100
AcDbEntity
  8
Ech.1_10
 62
   190
  6
CONTINUOUS
100
AcDbHatch
 10
0.0
 20
0.0
 30
0.0
210
0.0
220
0.0
230
1.0
  2
ANSI31
 70
     0
 71
     1
 91
        1
 92
        7
 72
     0
 73
     1
 93
        4
 10
69013.05304981
 20
-63775.25705462
 10
69013.0530381
 20
-63761.25705462
 10
68564.57005394
 20
-63761.25705462
 10
68564.57005394
 20
-63775.25705462
 97
        1
330
699
 75
     0
 76
     2
 52
90.0
 41
6.2992521
 77
     0
 78
     1
 53
-45.0
 43
0.0
 44
0.0
 45
14.14213562
 46
14.14213562
 79
     0
 47
0.775229
 98
        1
 10
0.0
 20
0.0
  0
LWPOLYLINE
  5
69B
100
AcDbEntity
  8
Ech.1_10
 62
     7
  6
CONTINUOUS
370
    -3
100
AcDbPolyline
 90
        4
 70
     1
 43
0.0
 10
68287.57005394
 20
-63775.25705462
 10
68347.57005394
 20
-63775.25705462
 10
68347.57005394
 20
-63730.25705462
 10
68287.57005394
 20
-63730.25705462
  0
LWPOLYLINE
  5
69C
100
AcDbEntity
  8
Ech.1_10
 62
     7
  6
CONTINUOUS
370
    -3
100
AcDbPolyline
 90
        4
 70
     1
 43
0.0
 10
68287.57005394
 20
-64059.25705462
 10
68347.57005394
 20
-64059.25705462
 10
68347.57005394
 20
-64014.25705462
 10
68287.57005394
 20
-64014.25705462
  0
LWPOLYLINE
  5
69D
100
AcDbEntity
  8
Ech.1_10
 62
   190
370
    18
100
AcDbPolyline
 90
        4
 70
     0
 43
0.0
 10
68501.57005394
 20
-64153.25705266
 10
68541.57005394
 20
-64198.25705266
 10
68541.57005394
 20
-64153.25705266
 10
68501.57005394
 20
-64198.25705266
  0
LWPOLYLINE
  5
69E
100
AcDbEntity
  8
Ech.1_10
 62
   190
370
    18
100
AcDbPolyline
 90
        4
 70
     0
 43
0.0
 10
68287.57005394
 20
-64014.25705462
 10
68347.57005394
 20
-64059.25705462
 10
68347.57005394
 20
-64014.25705462
 10
68287.57005394
 20
-64059.25705462
  0
LWPOLYLINE
  5
69F
100
AcDbEntity
  8
Ech.1_10
 62
     7
100
AcDbPolyline
 90
       27
 70
     0
 43
0.0
 10
68249.44343682
 20
-64263.24236028
 10
68249.57005394
 20
-64262.90788649
 10
68249.57005394
 20
-64235.5244224
 10
68256.57005394
 20
-64235.5244224
 10
68256.57005394
 20
-64244.5244224
 10
68262.57005394
 20
-64244.5244224
 10
68262.57005394
 20
-64217.5244224
 10
68258.57005394
 20
-64213.5244224
 10
68262.57005394
 20
-64209.5244224
 10
68262.57005394
 20
-64145.5244224
 10
68258.57005394
 20
-64141.5244224
 10
68262.57005394
 20
-64137.5244224
 10
68262.57005394
 20
-64102.5244224
 10
68255.57005394
 20
-64102.5244224
 10
68255.57005394
 20
-64096.5244224
 10
68253.07005394
 20
-64091.5244224
 10
68250.57005394
 20
-64096.5244224
 10
68250.57005394
 20
-64127.45335459
 10
68250.1894516
 20
-64129.36677175
 10
68244.03452003
 20
-64136.0599563
 10
68242.57005394
 20
-64139.59549021
 10
68242.57005394
 20
-64258.68223462
 10
68243.53037633
 20
-64260.31210326
 10
68248.26649719
 20
-64263.2834532
 10
68248.67849856
 20
-64263.5244224
 10
68248.99231605
 20
-64263.5244224
 10
68249.44343682
 20
-64263.24236028
  0
LWPOLYLINE
  5
6A0
100
AcDbEntity
  8
Ech.1_10
 62
     3
370
    70
100
AcDbPolyline
 90
        4
 70
     0
 43
0.0
 10
68505.63592774
 20
-64096.78724756
 10
68505.63592774
 20
-64083.79811414
 10
68511.3165407
 20
-64079.863382
 10
68511.3165407
 20
-64066.384952
  0
LWPOLYLINE
  5
6A1
100
AcDbEntity
  8
Ech.1_10
 62
   190
  6
CONTINUOUS
370
    -3
100
AcDbPolyline
 90
       16
 70
     0
 43
0.0
 10
68380.7367206
 20
-64104.25705462
 42
1.14028181
 10
68386.99152828
 20
-64151.76692498
 10
68471.1485796
 20
-64129.24718425
 42
-1.30322619
 10
68471.1485796
 20
-64175.93359164
 10
68386.99152828
 20
-64153.41385092
 42
1.30322619
 10
68386.99152828
 20
-64200.10025831
 10
68471.1485796
 20
-64177.58051759
 42
-1.30322619
 10
68471.1485796
 20
-64224.26692498
 10
68386.99152828
 20
-64201.74718425
 42
1.30322619
 10
68386.99152828
 20
-64248.43359164
 10
68471.1485796
 20
-64225.91385092
 42
-1.30322619
 10
68471.1485796
 20
-64272.60025831
 10
68386.99152828
 20
-64250.08051759
 42
1.30322619
 10
68386.99152828
 20
-64296.76692498
 10
68471.1485796
 20
-64274.24718425
 42
-0.53900413
 10
68501.31696567
 20
-64301.07873225
  0
LWPOLYLINE
  5
6A2
100
AcDbEntity
  8
Ech.1_10
 62
   190
  6
CONTINUOUS
370
    -3
100
AcDbPolyline
 90
       14
 70
     0
 43
0.0
 10
68380.7367206
 20
-63549.3662171
 42
1.14028181
 10
68386.99152828
 20
-63596.87608746
 10
68471.1485796
 20
-63574.35634673
 42
-1.30322619
 10
68471.1485796
 20
-63621.04275412
 10
68386.99152828
 20
-63598.5230134
 42
1.30322619
 10
68386.99152828
 20
-63645.20942079
 10
68471.1485796
 20
-63622.68968007
 42
-1.30322619
 10
68471.1485796
 20
-63669.37608746
 10
68386.99152828
 20
-63646.85634673
 42
1.30322619
 10
68386.99152828
 20
-63693.54275412
 10
68471.1485796
 20
-63671.0230134
 42
-1.30322619
 10
68471.1485796
 20
-63717.70942079
 10
68386.99152828
 20
-63695.18968007
 42
0.66202083
 10
68359.60447994
 20
-63730.25705462
  0
LWPOLYLINE
  5
6A3
100
AcDbEntity
  8
Ech.1_10
 62
   190
  6
CONTINUOUS
370
    -3
100
AcDbPolyline
 90
       50
 70
     0
 43
0.0
 10
68534.90338727
 20
-63720.25705462
 42
1.14028181
 10
68533.17792308
 20
-63707.15088348
 10
68509.96218479
 20
-63713.36322575
 42
-1.30322619
 10
68509.96218479
 20
-63700.48421682
 10
68533.17792308
 20
-63706.69655908
 42
1.30322619
 10
68533.17792308
 20
-63693.81755015
 10
68509.96218479
 20
-63700.02989242
 42
-1.30322619
 10
68509.96218479
 20
-63687.15088348
 10
68533.17792308
 20
-63693.36322575
 42
1.30322619
 10
68533.17792308
 20
-63680.48421682
 10
68509.96218479
 20
-63686.69655908
 42
-1.30322619
 10
68509.96218479
 20
-63673.81755015
 10
68533.17792308
 20
-63680.02989242
 42
1.30322619
 10
68533.17792308
 20
-63667.15088348
 10
68509.96218479
 20
-63673.36322575
 42
-1.30322619
 10
68509.96218479
 20
-63660.48421682
 10
68533.17792308
 20
-63666.69655908
 42
1.30322619
 10
68533.17792308
 20
-63653.81755015
 10
68509.96218479
 20
-63660.02989242
 42
-1.30322619
 10
68509.96218479
 20
-63647.15088348
 10
68533.17792308
 20
-63653.36322575
 42
1.30322619
 10
68533.17792308
 20
-63640.48421682
 10
68509.96218479
 20
-63646.69655908
 42
-1.30322619
 10
68509.96218479
 20
-63633.81755015
 10
68533.17792308
 20
-63640.02989242
 42
1.30322619
 10
68533.17792308
 20
-63627.15088348
 10
68509.96218479
 20
-63633.36322575
 42
-1.30322619
 10
68509.96218479
 20
-63620.48421682
 10
68533.17792308
 20
-63626.69655908
 42
1.30322619
 10
68533.17792308
 20
-63613.81755015
 10
68509.96218479
 20
-63620.02989242
 42
-1.30322619
 10
68509.96218479
 20
-63607.15088348
 10
68533.17792308
 20
-63613.36322575
 42
1.30322619
 10
68533.17792308
 20
-63600.48421682
 10
68509.96218479
 20
-63606.69655908
 42
-1.30322619
 10
68509.96218479
 20
-63593.81755015
 10
68533.17792308
 20
-63600.02989242
 42
1.30322619
 10
68533.17792308
 20
-63587.15088348
 10
68509.96218479
 20
-63593.36322575
 42
-1.30322619
 10
68509.96218479
 20
-63580.48421682
 10
68533.17792308
 20
-63586.69655908
 42
1.30322619
 10
68533.17792308
 20
-63573.81755015
 10
68509.96218479
 20
-63580.02989242
 42
-1.30322619
 10
68509.96218479
 20
-63567.15088348
 10
68533.17792308
 20
-63573.36322575
 42
1.30322619
 10
68533.17792308
 20
-63560.48421682
 10
68509.96218479
 20
-63566.69655908
 42
-1.30322619
 10
68509.96218479
 20
-63553.81755015
 10
68533.17792308
 20
-63560.02989242
 42
0.72863682
 10
68540.06130477
 20
-63549.36660629
  0
LWPOLYLINE
  5
6A4
100
AcDbEntity
  8
Ech.1_10
 62
   190
370
    18
100
AcDbPolyline
 90
        4
 70
     0
 43
0.0
 10
68287.57005394
 20
-63730.25705462
 10
68347.57005394
 20
-63775.25705462
 10
68347.57005394
 20
-63730.25705462
 10
68287.57005394
 20
-63775.25705462
  0
LWPOLYLINE
  5
6A5
102
{ACAD_REACTORS
330
6A6
102
}
100
AcDbEntity
  8
Ech.1_10
 62
     7
  6
CONTINUOUS
370
    -3
100
AcDbPolyline
 90
        4
 70
     1
 43
0.0
 10
68356.57005394
 20
-64014.25705462
 10
68347.57005394
 20
-64014.25705462
 10
68347.57005394
 20
-64301.07873225
 10
68356.57005394
 20
-64301.07873225
  0
HATCH
  5
6A6
100
AcDbEntity
  8
Ech.1_10
 62
   190
  6
CONTINUOUS
100
AcDbHatch
 10
0.0
 20
0.0
 30
0.0
210
0.0
220
0.0
230
1.0
  2
CDWK10A
 70
     0
 71
     1
 91
        1
 92
        7
 72
     0
 73
     1
 93
        4
 10
68356.57005394
 20
-64014.25705462
 10
68347.57005394
 20
-64014.25705462
 10
68347.57005394
 20
-64301.07873225
 10
68356.57005394
 20
-64301.07873225
 97
        1
330
6A5
 75
     0
 76
     2
 52
0.0
 41
1.0
 77
     0
 78
     3
 53
45.0
 43
0.0
 44
0.0
 45
0.0
 46
84.00000334
 79
     0
 53
45.0
 43
0.0
 44
21.60000086
 45
0.0
 46
84.00000334
 79
     0
 53
45.0
 43
0.0
 44
43.20000172
 45
0.0
 46
84.00000334
 79
     0
 47
0.775229
 98
        1
 10
0.0
 20
0.0
  0
LWPOLYLINE
  5
6A7
100
AcDbEntity
  8
Ech.1_10
 62
     9
100
AcDbPolyline
 90
       14
 70
     0
 43
0.0
 10
68262.57005394
 20
-64301.07823811
 10
68262.57005394
 20
-64290.5244224
 10
68258.57005394
 20
-64286.5244224
 10
68262.57005394
 20
-64282.5244224
 10
68262.57005394
 20
-64247.5244224
 10
68255.57005394
 20
-64247.5244224
 10
68255.57005394
 20
-64241.5244224
 10
68253.07005394
 20
-64236.5244224
 10
68250.57005394
 20
-64241.5244224
 10
68250.57005394
 20
-64272.45335459
 10
68250.1894516
 20
-64274.36677175
 10
68244.03452003
 20
-64281.0599563
 10
68242.57005394
 20
-64284.59549021
 10
68242.57005394
 20
-64301.07823811
  0
CIRCLE
  5
6A8
100
AcDbEntity
  8
Ech.1_10
 62
     7
100
AcDbCircle
 10
68942.19677811
 20
-64073.31788418
 30
0.0
 40
2.51802373
  0
LINE
  5
6A9
100
AcDbEntity
  8
Ech.1_10
 62
     7
100
AcDbLine
 10
68955.69677811
 20
-63966.57083264
 30
0.0
 11
68955.69677811
 21
-64092.25705462
 31
0.0
  0
CIRCLE
  5
6AA
100
AcDbEntity
  8
Ech.1_10
 62
     7
100
AcDbCircle
 10
68942.19677811
 20
-64028.31788418
 30
0.0
 40
2.51802373
  0
ARC
  5
6AB
100
AcDbEntity
  8
Ech.1_10
 62
     7
100
AcDbCircle
 10
68923.69677811
 20
-64092.25705462
 30
0.0
 40
5.0
100
AcDbArc
 50
270.0
 51
5.0025799585491E-10
  0
LINE
  5
6AC
100
AcDbEntity
  8
Ech.1_10
 62
     7
100
AcDbLine
 10
68923.4666758
 20
-64096.57488452
 30
0.0
 11
68923.4666758
 21
-64094.57488452
 31
0.0
  0
LINE
  5
6AD
100
AcDbEntity
  8
Ech.1_10
 62
     7
100
AcDbLine
 10
68919.69677811
 20
-64097.25705462
 30
0.0
 11
68923.69677811
 21
-64097.25705462
 31
0.0
  0
ARC
  5
6AE
100
AcDbEntity
  8
Ech.1_10
 62
     7
100
AcDbCircle
 10
68933.4630574
 20
-64091.75256021
 30
0.0
 40
14.82598747
100
AcDbArc
 50
201.79417108
 51
238.13515835
  0
ARC
  5
6AF
100
AcDbEntity
  8
Ech.1_10
 62
     7
100
AcDbCircle
 10
68932.00755891
 20
-64105.2273519
 30
0.0
 40
12.47697948
100
AcDbArc
 50
189.36224396
 51
254.61218104
  0
LINE
  5
6B0
100
AcDbEntity
  8
Ech.1_10
 62
     7
100
AcDbLine
 10
68923.4666758
 20
-64096.57488452
 30
0.0
 11
68919.33626186
 21
-64096.57488452
 31
0.0
  0
LINE
  5
6B1
100
AcDbEntity
  8
Ech.1_10
 62
     7
100
AcDbLine
 10
68919.33626186
 20
-64096.57488452
 30
0.0
 11
68919.33626186
 21
-64117.25705462
 31
0.0
  0
LINE
  5
6B2
100
AcDbEntity
  8
Ech.1_10
 62
     7
100
AcDbLine
 10
68923.4666758
 20
-64094.57488452
 30
0.0
 11
68917.33626186
 21
-64094.57488452
 31
0.0
  0
LINE
  5
6B3
100
AcDbEntity
  8
Ech.1_10
 62
     7
100
AcDbLine
 10
68917.33626186
 20
-64094.57488452
 30
0.0
 11
68917.33626186
 21
-64119.25705462
 31
0.0
  0
CIRCLE
  5
6B4
100
AcDbEntity
  8
Ech.1_10
 62
     7
100
AcDbCircle
 10
68942.19677811
 20
-64058.31788418
 30
0.0
 40
2.51802373
  0
CIRCLE
  5
6B5
100
AcDbEntity
  8
Ech.1_10
 62
     7
100
AcDbCircle
 10
68942.19677811
 20
-64088.31788418
 30
0.0
 40
2.51802373
  0
CIRCLE
  5
6B6
100
AcDbEntity
  8
Ech.1_10
 62
     7
100
AcDbCircle
 10
68942.19677811
 20
-64043.31788418
 30
0.0
 40
2.51802373
  0
ARC
  5
6B7
100
AcDbEntity
  8
Ech.1_10
 62
     7
100
AcDbCircle
 10
68950.93049881
 20
-64091.75256021
 30
0.0
 40
14.82598747
100
AcDbArc
 50
301.86484165
 51
338.20582892
  0
ARC
  5
6B8
100
AcDbEntity
  8
Ech.1_10
 62
     7
100
AcDbCircle
 10
68962.55517005
 20
-64104.11214217
 30
0.0
 40
3.80485997
100
AcDbArc
 50
183.49676661
 51
304.2539008
  0
ARC
  5
6B9
100
AcDbEntity
  8
Ech.1_10
 62
     7
100
AcDbCircle
 10
68952.38599731
 20
-64105.2273519
 30
0.0
 40
12.47697948
100
AcDbArc
 50
285.38781896
 51
350.63775604
  0
LINE
  5
6BA
100
AcDbEntity
  8
Ech.1_10
 62
     7
100
AcDbLine
 10
68964.69677811
 20
-64097.25705462
 30
0.0
 11
68960.69677811
 21
-64097.25705462
 31
0.0
  0
ARC
  5
6BB
100
AcDbEntity
  8
Ech.1_10
 62
     7
100
AcDbCircle
 10
68960.69677811
 20
-64092.25705462
 30
0.0
 40
5.0
100
AcDbArc
 50
180.0
 51
270.0
  0
LINE
  5
6BC
100
AcDbEntity
  8
Ech.1_10
 62
     7
100
AcDbLine
 10
68960.92688041
 20
-64096.57488452
 30
0.0
 11
68960.92688041
 21
-64094.57488452
 31
0.0
  0
LINE
  5
6BD
100
AcDbEntity
  8
Ech.1_10
 62
     7
100
AcDbLine
 10
68960.92688041
 20
-64096.57488452
 30
0.0
 11
68965.05729435
 21
-64096.57488452
 31
0.0
  0
LINE
  5
6BE
100
AcDbEntity
  8
Ech.1_10
 62
     7
100
AcDbLine
 10
68965.05729435
 20
-64096.57488452
 30
0.0
 11
68965.05729435
 21
-64117.25705462
 31
0.0
  0
LINE
  5
6BF
100
AcDbEntity
  8
Ech.1_10
 62
     7
100
AcDbLine
 10
68960.92688041
 20
-64094.57488452
 30
0.0
 11
68967.05729435
 21
-64094.57488452
 31
0.0
  0
LINE
  5
6C0
100
AcDbEntity
  8
Ech.1_10
 62
     7
100
AcDbLine
 10
68967.05729435
 20
-64094.57488452
 30
0.0
 11
68967.05729435
 21
-64119.25705462
 31
0.0
  0
CIRCLE
  5
6C1
100
AcDbEntity
  8
Ech.1_10
 62
     7
100
AcDbCircle
 10
68942.19677811
 20
-64013.31788418
 30
0.0
 40
2.51802373
  0
LINE
  5
6C2
100
AcDbEntity
  8
Ech.1_10
 62
     7
100
AcDbLine
 10
68928.69677811
 20
-63966.57083264
 30
0.0
 11
68928.69677811
 21
-64092.25705462
 31
0.0
  0
CIRCLE
  5
6C3
100
AcDbEntity
  8
Ech.1_10
 62
     7
100
AcDbCircle
 10
68942.19677811
 20
-63998.31788418
 30
0.0
 40
2.51802373
  0
LINE
  5
6C4
100
AcDbEntity
  8
Ech.1_10
 62
     7
100
AcDbLine
 10
68928.69677811
 20
-63966.57083264
 30
0.0
 11
68955.69677811
 21
-63966.57083264
 31
0.0
  0
CIRCLE
  5
6C5
100
AcDbEntity
  8
Ech.1_10
 62
     7
100
AcDbCircle
 10
68942.19677811
 20
-63983.31788418
 30
0.0
 40
2.51802373
  0
LINE
  5
6C6
100
AcDbEntity
  8
Ech.1_10
 62
     7
100
AcDbLine
 10
68965.05729435
 20
-64117.25705462
 30
0.0
 11
68919.33626186
 21
-64117.25705462
 31
0.0
  0
LINE
  5
6C7
100
AcDbEntity
  8
Ech.1_10
 62
     7
100
AcDbLine
 10
68917.33626186
 20
-64119.25705462
 30
0.0
 11
68967.05729435
 21
-64119.25705462
 31
0.0
  0
ARC
  5
6C8
100
AcDbEntity
  8
Ech.1_10
 62
     7
100
AcDbCircle
 10
68921.83838616
 20
-64104.11214217
 30
0.0
 40
3.80485997
100
AcDbArc
 50
235.7460992
 51
356.50323339
  0
LWPOLYLINE
  5
6C9
100
AcDbEntity
  8
Ech.1_10
370
    50
100
AcDbPolyline
 90
        3
 70
     0
 43
0.0
 10
68501.75669424
 20
-64095.94094633
 10
68501.75669424
 20
-64119.01946323
 10
68532.25722396
 20
-64119.01946323
  0
LWPOLYLINE
  5
6CA
100
AcDbEntity
  8
Ech.1_10
 62
     5
  6
CONTINUOUS
370
    -3
100
AcDbPolyline
 90
        5
 70
     0
 43
0.0
 10
68356.57005394
 20
-64059.25705462
 10
68356.57005394
 20
-64014.25705462
 10
68501.57005394
 20
-64014.25705462
 10
68501.57005394
 20
-64059.25705462
 10
68356.57005394
 20
-64059.25705462
  0
LWPOLYLINE
  5
6CB
100
AcDbEntity
  8
Ech.1_10
 62
     5
  6
CONTINUOUS
370
    -3
100
AcDbPolyline
 90
        5
 70
     0
 43
0.0
 10
68356.57005394
 20
-63775.25705462
 10
68356.57005394
 20
-63730.25705462
 10
68501.57005394
 20
-63730.25705462
 10
68501.57005394
 20
-63775.25705462
 10
68356.57005394
 20
-63775.25705462
  0
LWPOLYLINE
  5
6CC
100
AcDbEntity
  8
Ech.1_10
 62
     5
100
AcDbPolyline
 90
        5
 70
     0
 43
0.0
 10
68501.57005394
 20
-63765.25705462
 10
68541.57005394
 20
-63765.25705462
 10
68541.57005394
 20
-63720.25705462
 10
68501.57005394
 20
-63720.25705462
 10
68501.57005394
 20
-63765.25705462
  0
LWPOLYLINE
  5
6CD
100
AcDbEntity
  8
Ech.1_10
 62
     5
  6
CONTINUOUS
370
    -3
100
AcDbPolyline
 90
        5
 70
     0
 43
0.0
 10
68356.57005394
 20
-64104.25705462
 10
68356.57005394
 20
-64059.25705462
 10
68501.57005394
 20
-64059.25705462
 10
68501.57005394
 20
-64104.25705462
 10
68356.57005394
 20
-64104.25705462
  0
LWPOLYLINE
  5
6CE
100
AcDbEntity
  8
Ech.1_10
 62
     5
100
AcDbPolyline
 90
        5
 70
     0
 43
0.0
 10
68501.57005394
 20
-64198.25705266
 10
68541.57005394
 20
-64198.25705266
 10
68541.57005394
 20
-64153.25705266
 10
68501.57005394
 20
-64153.25705266
 10
68501.57005394
 20
-64198.25705266
  0
LWPOLYLINE
  5
6CF
100
AcDbEntity
  8
Ech.1_10
 62
     5
100
AcDbPolyline
 90
        5
 70
     0
 43
0.0
 10
68287.57005394
 20
-64059.25705462
 10
68347.57005394
 20
-64059.25705462
 10
68347.57005394
 20
-64014.25705462
 10
68287.57005394
 20
-64014.25705462
 10
68287.57005394
 20
-64059.25705462
  0
LWPOLYLINE
  5
6D0
100
AcDbEntity
  8
Ech.1_10
 62
     5
100
AcDbPolyline
 90
        5
 70
     0
 43
0.0
 10
68287.57005394
 20
-63775.25705462
 10
68347.57005394
 20
-63775.25705462
 10
68347.57005394
 20
-63730.25705462
 10
68287.57005394
 20
-63730.25705462
 10
68287.57005394
 20
-63775.25705462
  0
LINE
  5
6D1
100
AcDbEntity
  8
Ech.1_10
 62
   150
  6
CADWORK_22
370
    35
100
AcDbLine
 10
68286.07625273
 20
-63725.72106142
 30
0.0
 11
68286.09647877
 21
-64301.14828397
 31
0.0
  0
LWPOLYLINE
  5
6D2
100
AcDbEntity
  8
Ech.1_10
 62
   150
  6
CADWORK_22
370
    35
100
AcDbPolyline
 90
        4
 70
     0
 43
0.0
 10
68286.07005394
 20
-63549.36649192
 10
68286.07592128
 20
-63716.29120783
 10
68282.34878628
 20
-63723.76935066
 10
68282.34878628
 20
-64062.16821365
  0
LINE
  5
6D3
100
AcDbEntity
  8
Ech.1_10
 62
     1
  6
CADWORK_22
 48
-5.0
370
    35
100
AcDbLine
 10
68503.07005394
 20
-64301.07838506
 30
0.0
 11
68503.09647877
 21
-64028.27163925
 31
0.0
  0
LWPOLYLINE
  5
6D4
100
AcDbEntity
  8
Ech.1_10
 62
     5
  6
CONTINUOUS
370
    -3
100
AcDbPolyline
 90
        5
 70
     0
 43
0.0
 10
68356.57005394
 20
-63794.25705462
 10
68401.57005394
 20
-63794.25705462
 10
68401.57005394
 20
-64014.25705462
 10
68356.57005394
 20
-64014.25705462
 10
68356.57005394
 20
-63794.25705462
  0
LWPOLYLINE
  5
6D5
100
AcDbEntity
  8
Ech.1_10
 62
     9
100
AcDbPolyline
 90
       27
 70
     0
 43
0.0
 10
68249.44343682
 20
-64118.24236028
 10
68249.57005394
 20
-64117.90788649
 10
68249.57005394
 20
-64090.5244224
 10
68256.57005394
 20
-64090.5244224
 10
68256.57005394
 20
-64099.5244224
 10
68262.57005394
 20
-64099.5244224
 10
68262.57005394
 20
-64072.5244224
 10
68258.57005394
 20
-64068.5244224
 10
68262.57005394
 20
-64064.5244224
 10
68262.57005394
 20
-64000.5244224
 10
68258.57005394
 20
-63996.5244224
 10
68262.57005394
 20
-63992.5244224
 10
68262.57005394
 20
-63957.5244224
 10
68255.57005394
 20
-63957.5244224
 10
68255.57005394
 20
-63951.5244224
 10
68253.07005394
 20
-63946.5244224
 10
68250.57005394
 20
-63951.5244224
 10
68250.57005394
 20
-63982.45335459
 10
68250.1894516
 20
-63984.36677175
 10
68244.03452003
 20
-63991.0599563
 10
68242.57005394
 20
-63994.59549021
 10
68242.57005394
 20
-64113.68223462
 10
68243.53037633
 20
-64115.31210326
 10
68248.26649719
 20
-64118.2834532
 10
68248.67849856
 20
-64118.5244224
 10
68248.99231605
 20
-64118.5244224
 10
68249.44343682
 20
-64118.24236028
  0
LWPOLYLINE
  5
6D6
100
AcDbEntity
  8
Ech.1_10
 62
     9
100
AcDbPolyline
 90
       27
 70
     0
 43
0.0
 10
68249.44343682
 20
-64263.24236028
 10
68249.57005394
 20
-64262.90788649
 10
68249.57005394
 20
-64235.5244224
 10
68256.57005394
 20
-64235.5244224
 10
68256.57005394
 20
-64244.5244224
 10
68262.57005394
 20
-64244.5244224
 10
68262.57005394
 20
-64217.5244224
 10
68258.57005394
 20
-64213.5244224
 10
68262.57005394
 20
-64209.5244224
 10
68262.57005394
 20
-64145.5244224
 10
68258.57005394
 20
-64141.5244224
 10
68262.57005394
 20
-64137.5244224
 10
68262.57005394
 20
-64102.5244224
 10
68255.57005394
 20
-64102.5244224
 10
68255.57005394
 20
-64096.5244224
 10
68253.07005394
 20
-64091.5244224
 10
68250.57005394
 20
-64096.5244224
 10
68250.57005394
 20
-64127.45335459
 10
68250.1894516
 20
-64129.36677175
 10
68244.03452003
 20
-64136.0599563
 10
68242.57005394
 20
-64139.59549021
 10
68242.57005394
 20
-64258.68223462
 10
68243.53037633
 20
-64260.31210326
 10
68248.26649719
 20
-64263.2834532
 10
68248.67849856
 20
-64263.5244224
 10
68248.99231605
 20
-64263.5244224
 10
68249.44343682
 20
-64263.24236028
  0
LWPOLYLINE
  5
6D7
100
AcDbEntity
  8
Ech.1_10
 62
     1
  6
CADWORK_22
 48
-5.0
370
    35
100
AcDbPolyline
 90
        4
 70
     0
 43
0.0
 10
68501.57005394
 20
-63549.36673184
 10
68501.57005394
 20
-63645.72574011
 10
68508.15654455
 20
-63662.51335228
 10
68508.15654455
 20
-63709.64774714
  0
LWPOLYLINE
  5
6D8
100
AcDbEntity
  8
Ech.1_10
 62
     3
370
    70
100
AcDbPolyline
 90
        4
 70
     0
 43
0.0
 10
68505.63257637
 20
-63729.79999087
 10
68505.63257637
 20
-63716.81085745
 10
68511.31318933
 20
-63712.87612531
 10
68511.31318933
 20
-63699.39769531
  0
LWPOLYLINE
  5
6D9
100
AcDbEntity
  8
Ech.1_10
 62
     1
  6
CADWORK_22
 48
-5.0
370
    35
100
AcDbPolyline
 90
        6
 70
     0
 43
0.0
 10
68507.57239123
 20
-64075.41069424
 10
68507.57239123
 20
-64014.25705462
 10
68356.57005394
 20
-64014.25705462
 10
68356.57005394
 20
-63775.25705462
 10
68501.57005394
 20
-63775.25705462
 10
68501.57005394
 20
-63667.35546589
  0
CIRCLE
  5
6DA
100
AcDbEntity
  8
Ech.1_10
 62
     7
100
AcDbCircle
 10
68579.43057018
 20
-64073.31788418
 30
0.0
 40
2.51802373
  0
LINE
  5
6DB
100
AcDbEntity
  8
Ech.1_10
 62
     7
100
AcDbLine
 10
68592.93057018
 20
-63966.57083264
 30
0.0
 11
68592.93057018
 21
-64092.25705462
 31
0.0
  0
CIRCLE
  5
6DC
100
AcDbEntity
  8
Ech.1_10
 62
     7
100
AcDbCircle
 10
68579.43057018
 20
-64028.31788418
 30
0.0
 40
2.51802373
  0
ARC
  5
6DD
100
AcDbEntity
  8
Ech.1_10
 62
     7
100
AcDbCircle
 10
68560.93057018
 20
-64092.25705462
 30
0.0
 40
5.0
100
AcDbArc
 50
270.0
 51
5.0025799585491E-10
  0
LINE
  5
6DE
100
AcDbEntity
  8
Ech.1_10
 62
     7
100
AcDbLine
 10
68560.70046787
 20
-64096.57488452
 30
0.0
 11
68560.70046787
 21
-64094.57488452
 31
0.0
  0
LINE
  5
6DF
100
AcDbEntity
  8
Ech.1_10
 62
     7
100
AcDbLine
 10
68556.93057018
 20
-64097.25705462
 30
0.0
 11
68560.93057018
 21
-64097.25705462
 31
0.0
  0
ARC
  5
6E0
100
AcDbEntity
  8
Ech.1_10
 62
     7
100
AcDbCircle
 10
68570.69684948
 20
-64091.75256021
 30
0.0
 40
14.82598747
100
AcDbArc
 50
201.79417108
 51
238.13515835
  0
ARC
  5
6E1
100
AcDbEntity
  8
Ech.1_10
 62
     7
100
AcDbCircle
 10
68569.24135098
 20
-64105.2273519
 30
0.0
 40
12.47697948
100
AcDbArc
 50
189.36224396
 51
254.61218104
  0
LINE
  5
6E2
100
AcDbEntity
  8
Ech.1_10
 62
     7
100
AcDbLine
 10
68560.70046787
 20
-64096.57488452
 30
0.0
 11
68556.57005394
 21
-64096.57488452
 31
0.0
  0
LINE
  5
6E3
100
AcDbEntity
  8
Ech.1_10
 62
     7
100
AcDbLine
 10
68556.57005394
 20
-64096.57488452
 30
0.0
 11
68556.57005394
 21
-64117.25705462
 31
0.0
  0
LINE
  5
6E4
100
AcDbEntity
  8
Ech.1_10
 62
     7
100
AcDbLine
 10
68560.70046787
 20
-64094.57488452
 30
0.0
 11
68554.57005394
 21
-64094.57488452
 31
0.0
  0
LINE
  5
6E5
100
AcDbEntity
  8
Ech.1_10
 62
     7
100
AcDbLine
 10
68554.57005394
 20
-64094.57488452
 30
0.0
 11
68554.57005394
 21
-64119.25705462
 31
0.0
  0
CIRCLE
  5
6E6
100
AcDbEntity
  8
Ech.1_10
 62
     7
100
AcDbCircle
 10
68579.43057018
 20
-64058.31788418
 30
0.0
 40
2.51802373
  0
CIRCLE
  5
6E7
100
AcDbEntity
  8
Ech.1_10
 62
     7
100
AcDbCircle
 10
68579.43057018
 20
-64088.31788418
 30
0.0
 40
2.51802373
  0
CIRCLE
  5
6E8
100
AcDbEntity
  8
Ech.1_10
 62
     7
100
AcDbCircle
 10
68579.43057018
 20
-64043.31788418
 30
0.0
 40
2.51802373
  0
ARC
  5
6E9
100
AcDbEntity
  8
Ech.1_10
 62
     7
100
AcDbCircle
 10
68588.16429088
 20
-64091.75256021
 30
0.0
 40
14.82598747
100
AcDbArc
 50
301.86484165
 51
338.20582892
  0
ARC
  5
6EA
100
AcDbEntity
  8
Ech.1_10
 62
     7
100
AcDbCircle
 10
68599.78896213
 20
-64104.11214217
 30
0.0
 40
3.80485997
100
AcDbArc
 50
183.49676661
 51
304.2539008
  0
ARC
  5
6EB
100
AcDbEntity
  8
Ech.1_10
 62
     7
100
AcDbCircle
 10
68589.61978938
 20
-64105.2273519
 30
0.0
 40
12.47697948
100
AcDbArc
 50
285.38781896
 51
350.63775604
  0
LINE
  5
6EC
100
AcDbEntity
  8
Ech.1_10
 62
     7
100
AcDbLine
 10
68601.93057018
 20
-64097.25705462
 30
0.0
 11
68597.93057018
 21
-64097.25705462
 31
0.0
  0
ARC
  5
6ED
100
AcDbEntity
  8
Ech.1_10
 62
     7
100
AcDbCircle
 10
68597.93057018
 20
-64092.25705462
 30
0.0
 40
5.0
100
AcDbArc
 50
180.0
 51
270.0
  0
LINE
  5
6EE
100
AcDbEntity
  8
Ech.1_10
 62
     7
100
AcDbLine
 10
68598.16067249
 20
-64096.57488452
 30
0.0
 11
68598.16067249
 21
-64094.57488452
 31
0.0
  0
LINE
  5
6EF
100
AcDbEntity
  8
Ech.1_10
 62
     7
100
AcDbLine
 10
68598.16067249
 20
-64096.57488452
 30
0.0
 11
68602.29108643
 21
-64096.57488452
 31
0.0
  0
LINE
  5
6F0
100
AcDbEntity
  8
Ech.1_10
 62
     7
100
AcDbLine
 10
68602.29108643
 20
-64096.57488452
 30
0.0
 11
68602.29108643
 21
-64117.25705462
 31
0.0
  0
LINE
  5
6F1
100
AcDbEntity
  8
Ech.1_10
 62
     7
100
AcDbLine
 10
68598.16067249
 20
-64094.57488452
 30
0.0
 11
68604.29108643
 21
-64094.57488452
 31
0.0
  0
LINE
  5
6F2
100
AcDbEntity
  8
Ech.1_10
 62
     7
100
AcDbLine
 10
68604.29108643
 20
-64094.57488452
 30
0.0
 11
68604.29108643
 21
-64119.25705462
 31
0.0
  0
CIRCLE
  5
6F3
100
AcDbEntity
  8
Ech.1_10
 62
     7
100
AcDbCircle
 10
68579.43057018
 20
-64013.31788418
 30
0.0
 40
2.51802373
  0
LINE
  5
6F4
100
AcDbEntity
  8
Ech.1_10
 62
     7
100
AcDbLine
 10
68565.93057018
 20
-63966.57083264
 30
0.0
 11
68565.93057018
 21
-64092.25705462
 31
0.0
  0
CIRCLE
  5
6F5
100
AcDbEntity
  8
Ech.1_10
 62
     7
100
AcDbCircle
 10
68579.43057018
 20
-63998.31788418
 30
0.0
 40
2.51802373
  0
LINE
  5
6F6
100
AcDbEntity
  8
Ech.1_10
 62
     7
100
AcDbLine
 10
68565.93057018
 20
-63966.57083264
 30
0.0
 11
68592.93057018
 21
-63966.57083264
 31
0.0
  0
CIRCLE
  5
6F7
100
AcDbEntity
  8
Ech.1_10
 62
     7
100
AcDbCircle
 10
68579.43057018
 20
-63983.31788418
 30
0.0
 40
2.51802373
  0
LINE
  5
6F8
100
AcDbEntity
  8
Ech.1_10
 62
     7
100
AcDbLine
 10
68602.29108643
 20
-64117.25705462
 30
0.0
 11
68556.57005394
 21
-64117.25705462
 31
0.0
  0
LINE
  5
6F9
100
AcDbEntity
  8
Ech.1_10
 62
     7
100
AcDbLine
 10
68554.57005394
 20
-64119.25705462
 30
0.0
 11
68604.29108643
 21
-64119.25705462
 31
0.0
  0
ARC
  5
6FA
100
AcDbEntity
  8
Ech.1_10
 62
     7
100
AcDbCircle
 10
68559.07217824
 20
-64104.11214217
 30
0.0
 40
3.80485997
100
AcDbArc
 50
235.7460992
 51
356.50323339
  0
LWPOLYLINE
  5
6FB
100
AcDbEntity
  8
Ech.1_10
 62
   190
  6
CONTINUOUS
370
    -3
100
AcDbPolyline
 90
        6
 70
     0
 43
0.0
 10
68574.57005394
 20
-64301.0773943
 10
68454.50444513
 20
-64301.07902385
 10
68438.01894198
 20
-64319.05637225
 10
68452.12888199
 20
-64283.10067224
 10
68435.64252791
 20
-64301.07902385
 10
68222.57005394
 20
-64301.07823811
  0
LWPOLYLINE
  5
6FC
100
AcDbEntity
  8
Ech.1_10
 62
   190
  6
CONTINUOUS
370
    -3
100
AcDbPolyline
 90
        6
 70
     0
 43
0.0
 10
68222.57005394
 20
-63549.36738537
 10
68384.00355743
 20
-63549.36590956
 10
68400.48906059
 20
-63531.38856115
 10
68386.37912057
 20
-63567.34426116
 10
68402.86547465
 20
-63549.36590956
 10
68574.57005394
 20
-63549.36673184
  0
LWPOLYLINE
  5
6FD
100
AcDbEntity
  8
Ech.1_10
 62
   190
  6
CONTINUOUS
370
    -3
100
AcDbPolyline
 90
        4
 70
     1
 43
0.0
 10
69049.44247203
 20
-63775.25705462
 10
69049.44247203
 20
-63794.25705462
 10
69542.08174596
 20
-63794.25705462
 10
69542.08174596
 20
-63775.25705462
  0
LWPOLYLINE
  5
6FE
100
AcDbEntity
  8
Ech.1_10
 62
   190
  6
CONTINUOUS
370
    -3
100
AcDbPolyline
 90
        4
 70
     1
 43
0.0
 10
69049.44247203
 20
-64119.25696795
 10
69049.44247203
 20
-64132.25696795
 10
69542.08174596
 20
-64132.25696795
 10
69542.08174596
 20
-64119.25696795
  0
LWPOLYLINE
  5
6FF
100
AcDbEntity
  8
Ech.1_10
 62
     7
  6
CONTINUOUS
370
    -3
100
AcDbPolyline
 90
        4
 70
     1
 43
0.0
 10
69049.44247203
 20
-63794.25705462
 10
69049.44247203
 20
-64014.25705462
 10
69453.08174596
 20
-64014.25705462
 10
69453.08174596
 20
-63794.25705462
  0
LWPOLYLINE
  5
700
100
AcDbEntity
  8
Ech.1_10
 62
   190
  6
CONTINUOUS
370
    -3
100
AcDbPolyline
 90
        4
 70
     1
 43
0.0
 10
69049.44247203
 20
-64019.25713045
 10
69049.44247203
 20
-64119.25713045
 10
69542.08174596
 20
-64119.25713045
 10
69542.08174596
 20
-64019.25713045
  0
LWPOLYLINE
  5
701
100
AcDbEntity
  8
Ech.1_10
 62
   190
  6
CONTINUOUS
370
    -3
100
AcDbPolyline
 90
        4
 70
     1
 43
0.0
 10
69498.08174596
 20
-63794.25705462
 10
69543.08174596
 20
-63794.25705462
 10
69543.08174596
 20
-64014.25705462
 10
69498.08174596
 20
-64014.25705462
  0
LWPOLYLINE
  5
702
100
AcDbEntity
  8
Ech.1_10
 62
   190
  6
CONTINUOUS
370
    -3
100
AcDbPolyline
 90
        4
 70
     1
 43
0.0
 10
69543.08174596
 20
-64014.25705462
 10
69498.08174596
 20
-64014.25705462
 10
69498.08174596
 20
-63794.25705462
 10
69543.08174596
 20
-63794.25705462
  0
LWPOLYLINE
  5
703
100
AcDbEntity
  8
Ech.1_10
100
AcDbPolyline
 90
        4
 70
     0
 43
0.0
 10
69049.44148599
 20
-64119.25713045
 10
69542.08174596
 20
-64119.25713045
 10
69542.08174596
 20
-64094.57496035
 10
69049.44148599
 20
-64094.57496035
  0
LWPOLYLINE
  5
704
100
AcDbEntity
  8
Ech.1_10
370
    50
100
AcDbPolyline
 90
        3
 70
     0
 43
0.0
 10
69542.08174596
 20
-64095.94102216
 10
69542.08174596
 20
-64119.01953907
 10
69514.85590116
 20
-64119.01953907
  0
LWPOLYLINE
  5
705
100
AcDbEntity
  8
Ech.1_10
 62
     5
  6
CONTINUOUS
370
    -3
100
AcDbPolyline
 90
        5
 70
     0
 43
0.0
 10
69543.08174596
 20
-63794.25705462
 10
69498.08174596
 20
-63794.25705462
 10
69498.08174596
 20
-64014.25705462
 10
69543.08174596
 20
-64014.25705462
 10
69543.08174596
 20
-63794.25705462
  0
LWPOLYLINE
  5
706
100
AcDbEntity
  8
Ech.1_10
 62
   190
  6
CONTINUOUS
370
    -3
100
AcDbPolyline
 90
        4
 70
     1
 43
0.0
 10
69453.08174596
 20
-63794.25705462
 10
69498.08174596
 20
-63794.25705462
 10
69498.08174596
 20
-64014.25705462
 10
69453.08174596
 20
-64014.25705462
  0
LWPOLYLINE
  5
707
100
AcDbEntity
  8
Ech.1_10
 62
   190
  6
CONTINUOUS
370
    -3
100
AcDbPolyline
 90
        4
 70
     1
 43
0.0
 10
69498.08174596
 20
-64014.25705462
 10
69453.08174596
 20
-64014.25705462
 10
69453.08174596
 20
-63794.25705462
 10
69498.08174596
 20
-63794.25705462
  0
LWPOLYLINE
  5
708
100
AcDbEntity
  8
Ech.1_10
 62
     5
  6
CONTINUOUS
370
    -3
100
AcDbPolyline
 90
        5
 70
     0
 43
0.0
 10
69498.08174596
 20
-63794.25705462
 10
69453.08174596
 20
-63794.25705462
 10
69453.08174596
 20
-64014.25705462
 10
69498.08174596
 20
-64014.25705462
 10
69498.08174596
 20
-63794.25705462
  0
LWPOLYLINE
  5
709
102
{ACAD_REACTORS
330
70A
102
}
100
AcDbEntity
  8
Ech.1_10
 62
     7
  6
CONTINUOUS
370
    -3
100
AcDbPolyline
 90
        4
 70
     1
 43
0.0
 10
69049.44247203
 20
-63775.25705462
 10
69049.44247203
 20
-63794.25705462
 10
69542.08174596
 20
-63794.25705462
 10
69542.08174596
 20
-63775.25705462
  0
HATCH
  5
70A
100
AcDbEntity
  8
Ech.1_10
 62
   190
  6
CONTINUOUS
100
AcDbHatch
 10
0.0
 20
0.0
 30
0.0
210
0.0
220
0.0
230
1.0
  2
ANSI38
 70
     0
 71
     1
 91
        1
 92
        7
 72
     0
 73
     1
 93
        4
 10
69049.44247203
 20
-63775.25705462
 10
69049.44247203
 20
-63794.25705462
 10
69542.08174596
 20
-63794.25705462
 10
69542.08174596
 20
-63775.25705462
 97
        1
330
709
 75
     0
 76
     2
 52
0.0
 41
1.0
 77
     0
 78
     2
 53
45.0
 43
0.0
 44
0.0
 45
-8.48528171
 46
8.48528171
 79
     2
 49
960.00003815
 49
0.0
 53
135.0
 43
0.0
 44
0.0
 45
-25.45584513
 46
8.48528171
 79
     2
 49
30.00000119
 49
-18.00000072
 47
0.775229
 98
        1
 10
0.0
 20
0.0
  0
LWPOLYLINE
  5
70B
102
{ACAD_REACTORS
330
70C
102
}
100
AcDbEntity
  8
Ech.1_10
 62
     7
  6
CONTINUOUS
370
    -3
100
AcDbPolyline
 90
        4
 70
     1
 43
0.0
 10
69049.44213952
 20
-64119.25704378
 10
69049.44247203
 20
-64132.2570548
 10
69542.08174596
 20
-64132.25713045
 10
69542.08174596
 20
-64119.25713045
  0
HATCH
  5
70C
100
AcDbEntity
  8
Ech.1_10
 62
   190
  6
CONTINUOUS
100
AcDbHatch
 10
0.0
 20
0.0
 30
0.0
210
0.0
220
0.0
230
1.0
  2
DOTS2
 70
     0
 71
     1
 91
        1
 92
        7
 72
     0
 73
     1
 93
        4
 10
69049.44213952
 20
-64119.25704378
 10
69049.44247203
 20
-64132.2570548
 10
69542.08174596
 20
-64132.25713045
 10
69542.08174596
 20
-64119.25713045
 97
        1
330
70B
 75
     0
 76
     2
 52
0.0
 41
4.72440952
 77
     0
 78
     1
 53
0.0
 43
0.0
 44
0.0
 45
3.75
 46
3.535
 79
     2
 49
0.0
 49
-3.535
 47
0.775229
 98
        1
 10
0.0
 20
0.0
  0
LWPOLYLINE
  5
70D
100
AcDbEntity
  8
Ech.1_10
 62
   190
  6
CONTINUOUS
370
    -3
100
AcDbPolyline
 90
        6
 70
     0
 43
0.0
 10
69049.44312625
 20
-64227.9932881
 10
69049.44164996
 20
-63903.09182732
 10
69031.46430164
 20
-63886.60632417
 10
69067.42000156
 20
-63900.71626418
 10
69049.44164996
 20
-63884.2299101
 10
69049.44247203
 20
-63708.05055222
  0
LWPOLYLINE
  5
70E
100
AcDbEntity
  8
Ech.1_10
 62
   190
  6
CONTINUOUS
370
    -3
100
AcDbPolyline
 90
       58
 70
     0
 43
0.0
 10
69543.08174596
 20
-64035.92379712
 42
1.14028181
 10
69510.31631813
 20
-64040.23745758
 10
69525.8471738
 20
-64098.27680332
 42
-1.30322619
 10
69493.64965146
 20
-64098.27680332
 10
69509.18050713
 20
-64040.23745758
 42
1.30322619
 10
69476.98298479
 20
-64040.23745758
 10
69492.51384047
 20
-64098.27680332
 42
-1.30322619
 10
69460.31631813
 20
-64098.27680332
 10
69475.8471738
 20
-64040.23745758
 42
1.30322619
 10
69443.64965146
 20
-64040.23745758
 10
69459.18050713
 20
-64098.27680332
 42
-1.30322619
 10
69426.98298479
 20
-64098.27680332
 10
69442.51384047
 20
-64040.23745758
 42
1.30322619
 10
69410.31631813
 20
-64040.23745758
 10
69425.8471738
 20
-64098.27680332
 42
-1.30322619
 10
69393.64965146
 20
-64098.27680332
 10
69409.18050713
 20
-64040.23745758
 42
1.30322619
 10
69376.98298479
 20
-64040.23745758
 10
69392.51384047
 20
-64098.27680332
 42
-1.30322619
 10
69360.31631813
 20
-64098.27680332
 10
69375.8471738
 20
-64040.23745758
 42
1.30322619
 10
69343.64965146
 20
-64040.23745758
 10
69359.18050713
 20
-64098.27680332
 42
-1.30322619
 10
69326.98298479
 20
-64098.27680332
 10
69342.51384047
 20
-64040.23745758
 42
1.30322619
 10
69310.31631813
 20
-64040.23745758
 10
69325.8471738
 20
-64098.27680332
 42
-1.30322619
 10
69293.64965146
 20
-64098.27680332
 10
69309.18050713
 20
-64040.23745758
 42
1.30322619
 10
69276.98298479
 20
-64040.23745758
 10
69292.51384047
 20
-64098.27680332
 42
-1.30322619
 10
69260.31631813
 20
-64098.27680332
 10
69275.8471738
 20
-64040.23745758
 42
1.30322619
 10
69243.64965146
 20
-64040.23745758
 10
69259.18050713
 20
-64098.27680332
 42
-1.30322619
 10
69226.98298479
 20
-64098.27680332
 10
69242.51384047
 20
-64040.23745758
 42
1.30322619
 10
69210.31631813
 20
-64040.23745758
 10
69225.8471738
 20
-64098.27680332
 42
-1.30322619
 10
69193.64965146
 20
-64098.27680332
 10
69209.18050713
 20
-64040.23745758
 42
1.30322619
 10
69176.98298479
 20
-64040.23745758
 10
69192.51384047
 20
-64098.27680332
 42
-1.30322619
 10
69160.31631813
 20
-64098.27680332
 10
69175.8471738
 20
-64040.23745758
 42
1.30322619
 10
69143.64965146
 20
-64040.23745758
 10
69159.18050713
 20
-64098.27680332
 42
-1.30322619
 10
69126.98298479
 20
-64098.27680332
 10
69142.51384047
 20
-64040.23745758
 42
1.30322619
 10
69110.31631813
 20
-64040.23745758
 10
69125.8471738
 20
-64098.27680332
 42
-1.30322619
 10
69093.64965146
 20
-64098.27680332
 10
69109.18050713
 20
-64040.23745758
 42
1.30322619
 10
69076.98298479
 20
-64040.23745758
 10
69092.51384047
 20
-64098.27680332
 42
-1.30322619
 10
69060.31631813
 20
-64098.27680332
 10
69075.8471738
 20
-64040.23745758
 42
0.72119785
 10
69049.44247203
 20
-64022.82550081
  0
LWPOLYLINE
  5
70F
102
{ACAD_REACTORS
330
710
102
}
100
AcDbEntity
  8
Ech.1_10
 62
   190
  6
CONTINUOUS
370
    -3
100
AcDbPolyline
 90
        4
 70
     1
 43
0.0
 10
69542.08175768
 20
-63775.25705462
 10
69542.08174596
 20
-63761.25705462
 10
69049.44176
 20
-63761.25705462
 10
69049.44176
 20
-63775.25705462
  0
HATCH
  5
710
100
AcDbEntity
  8
Ech.1_10
 62
   190
  6
CONTINUOUS
100
AcDbHatch
 10
0.0
 20
0.0
 30
0.0
210
0.0
220
0.0
230
1.0
  2
ANSI31
 70
     0
 71
     1
 91
        1
 92
        7
 72
     0
 73
     1
 93
        4
 10
69542.08175768
 20
-63775.25705462
 10
69542.08174596
 20
-63761.25705462
 10
69049.44176
 20
-63761.25705462
 10
69049.44176
 20
-63775.25705462
 97
        1
330
70F
 75
     0
 76
     2
 52
90.0
 41
6.2992521
 77
     0
 78
     1
 53
-45.0
 43
0.0
 44
0.0
 45
14.14213562
 46
14.14213562
 79
     0
 47
0.775229
 98
        1
 10
0.0
 20
0.0
  0
LWPOLYLINE
  5
711
102
{ACAD_REACTORS
330
712
102
}
100
AcDbEntity
  8
Ech.1_10
 62
   190
  6
CONTINUOUS
370
    -3
100
AcDbPolyline
 90
        4
 70
     1
 43
0.0
 10
70234.72174364
 20
-63775.25705462
 10
70234.72173193
 20
-63761.25705462
 10
69742.08174596
 20
-63761.25705462
 10
69742.08174596
 20
-63775.25705462
  0
HATCH
  5
712
100
AcDbEntity
  8
Ech.1_10
 62
   190
  6
CONTINUOUS
100
AcDbHatch
 10
0.0
 20
0.0
 30
0.0
210
0.0
220
0.0
230
1.0
  2
ANSI31
 70
     0
 71
     1
 91
        1
 92
        7
 72
     0
 73
     1
 93
        4
 10
70234.72174364
 20
-63775.25705462
 10
70234.72173193
 20
-63761.25705462
 10
69742.08174596
 20
-63761.25705462
 10
69742.08174596
 20
-63775.25705462
 97
        1
330
711
 75
     0
 76
     2
 52
90.0
 41
6.2992521
 77
     0
 78
     1
 53
-45.0
 43
0.0
 44
0.0
 45
14.14213562
 46
14.14213562
 79
     0
 47
0.775229
 98
        1
 10
0.0
 20
0.0
  0
LWPOLYLINE
  5
713
100
AcDbEntity
  8
Ech.1_10
 62
   190
  6
CONTINUOUS
370
    -3
100
AcDbPolyline
 90
       60
 70
     0
 43
0.0
 10
68501.57005394
 20
-64102.59038795
 42
1.14028181
 10
68534.33548177
 20
-64098.27672749
 10
68518.8046261
 20
-64040.23738175
 42
-1.30322619
 10
68551.00214844
 20
-64040.23738175
 10
68535.47129277
 20
-64098.27672749
 42
1.30322619
 10
68567.66881511
 20
-64098.27672749
 10
68552.13795943
 20
-64040.23738175
 42
-1.30322619
 10
68584.33548177
 20
-64040.23738175
 10
68568.8046261
 20
-64098.27672749
 42
1.30322619
 10
68601.00214844
 20
-64098.27672749
 10
68585.47129277
 20
-64040.23738175
 42
-1.30322619
 10
68617.66881511
 20
-64040.23738175
 10
68602.13795943
 20
-64098.27672749
 42
1.30322619
 10
68634.33548177
 20
-64098.27672749
 10
68618.8046261
 20
-64040.23738175
 42
-1.30322619
 10
68651.00214844
 20
-64040.23738175
 10
68635.47129277
 20
-64098.27672749
 42
1.30322619
 10
68667.66881511
 20
-64098.27672749
 10
68652.13795943
 20
-64040.23738175
 42
-1.30322619
 10
68684.33548177
 20
-64040.23738175
 10
68668.8046261
 20
-64098.27672749
 42
1.30322619
 10
68701.00214844
 20
-64098.27672749
 10
68685.47129277
 20
-64040.23738175
 42
-1.30322619
 10
68717.66881511
 20
-64040.23738175
 10
68702.13795943
 20
-64098.27672749
 42
1.30322619
 10
68734.33548177
 20
-64098.27672749
 10
68718.8046261
 20
-64040.23738175
 42
-1.30322619
 10
68751.00214844
 20
-64040.23738175
 10
68735.47129277
 20
-64098.27672749
 42
1.30322619
 10
68767.66881511
 20
-64098.27672749
 10
68752.13795943
 20
-64040.23738175
 42
-1.30322619
 10
68784.33548177
 20
-64040.23738175
 10
68768.8046261
 20
-64098.27672749
 42
1.30322619
 10
68801.00214844
 20
-64098.27672749
 10
68785.47129277
 20
-64040.23738175
 42
-1.30322619
 10
68817.66881511
 20
-64040.23738175
 10
68802.13795943
 20
-64098.27672749
 42
1.30322619
 10
68834.33548177
 20
-64098.27672749
 10
68818.8046261
 20
-64040.23738175
 42
-1.30322619
 10
68851.00214844
 20
-64040.23738175
 10
68835.47129277
 20
-64098.27672749
 42
1.30322619
 10
68867.66881511
 20
-64098.27672749
 10
68852.13795943
 20
-64040.23738175
 42
-1.30322619
 10
68884.33548177
 20
-64040.23738175
 10
68868.8046261
 20
-64098.27672749
 42
1.30322619
 10
68901.00214844
 20
-64098.27672749
 10
68885.47129277
 20
-64040.23738175
 42
-1.30322619
 10
68917.66881511
 20
-64040.23738175
 10
68902.13795943
 20
-64098.27672749
 42
1.30322619
 10
68934.33548177
 20
-64098.27672749
 10
68918.8046261
 20
-64040.23738175
 42
-1.30322619
 10
68951.00214844
 20
-64040.23738175
 10
68935.47129277
 20
-64098.27672749
 42
1.30322619
 10
68967.66881511
 20
-64098.27672749
 10
68952.13795943
 20
-64040.23738175
 42
-1.30322619
 10
68984.33548177
 20
-64040.23738175
 10
68968.8046261
 20
-64098.27672749
 42
1.30322619
 10
69001.00214844
 20
-64098.27672749
 10
68985.47129277
 20
-64040.23738175
 42
-0.75732597
 10
69013.05324659
 20
-64023.84423188
  0
CIRCLE
  5
714
100
AcDbEntity
  8
Ech.1_10
 62
     7
  6
CONTINUOUS
370
    -3
100
AcDbCircle
 10
69394.83510832
 20
-64073.31798896
 30
0.0
 40
2.51802373
  0
LINE
  5
715
100
AcDbEntity
  8
Ech.1_10
 62
     7
  6
CONTINUOUS
370
    -3
100
AcDbLine
 10
69381.33500645
 20
-63966.57090847
 30
0.0
 11
69381.33513037
 21
-64092.25717512
 31
0.0
  0
CIRCLE
  5
716
100
AcDbEntity
  8
Ech.1_10
 62
     7
  6
CONTINUOUS
370
    -3
100
AcDbCircle
 10
69394.83505592
 20
-64028.31798896
 30
0.0
 40
2.51802373
  0
ARC
  5
717
100
AcDbEntity
  8
Ech.1_10
 62
     7
  6
CONTINUOUS
370
    -3
100
AcDbCircle
 10
69413.33513037
 20
-64092.25713786
 30
0.0
 40
5.0
100
AcDbArc
 50
180.00006671
 51
270.00006671
  0
LINE
  5
718
100
AcDbEntity
  8
Ech.1_10
 62
     7
  6
CONTINUOUS
370
    -3
100
AcDbLine
 10
69413.56524907
 20
-64106.33743396
 30
0.0
 11
69413.56524674
 21
-64104.33743396
 31
0.0
  0
LINE
  5
719
100
AcDbEntity
  8
Ech.1_10
 62
     7
  6
CONTINUOUS
370
    -3
100
AcDbLine
 10
69417.33513619
 20
-64097.2571332
 30
0.0
 11
69413.33513619
 21
-64097.25713786
 31
0.0
  0
ARC
  5
71A
100
AcDbEntity
  8
Ech.1_10
 62
     7
  6
CONTINUOUS
370
    -3
100
AcDbCircle
 10
69403.56885048
 20
-64091.75265482
 30
0.0
 40
14.82598747
100
AcDbArc
 50
301.86490836
 51
338.20589563
  0
ARC
  5
71B
100
AcDbEntity
  8
Ech.1_10
 62
     7
  6
CONTINUOUS
370
    -3
100
AcDbCircle
 10
69405.02436467
 20
-64105.22744481
 30
0.0
 40
12.47697948
100
AcDbArc
 50
285.38788568
 51
350.63782276
  0
LINE
  5
71C
100
AcDbEntity
  8
Ech.1_10
 62
     7
  6
CONTINUOUS
370
    -3
100
AcDbLine
 10
69413.56524907
 20
-64106.33743396
 30
0.0
 11
69417.69566301
 21
-64106.33742915
 31
0.0
  0
LINE
  5
71D
100
AcDbEntity
  8
Ech.1_10
 62
     7
  6
CONTINUOUS
370
    -3
100
AcDbLine
 10
69417.69566301
 20
-64106.33742915
 30
0.0
 11
69417.69567572
 21
-64117.25713278
 31
0.0
  0
LINE
  5
71E
100
AcDbEntity
  8
Ech.1_10
 62
     7
  6
CONTINUOUS
370
    -3
100
AcDbLine
 10
69413.56524674
 20
-64104.33743396
 30
0.0
 11
69419.69566068
 21
-64104.33742682
 31
0.0
  0
LINE
  5
71F
100
AcDbEntity
  8
Ech.1_10
 62
     7
  6
CONTINUOUS
370
    -3
100
AcDbLine
 10
69419.69566068
 20
-64104.33742682
 30
0.0
 11
69419.69567805
 21
-64119.25713045
 31
0.0
  0
CIRCLE
  5
720
100
AcDbEntity
  8
Ech.1_10
 62
     7
  6
CONTINUOUS
370
    -3
100
AcDbCircle
 10
69394.83509085
 20
-64058.31798896
 30
0.0
 40
2.51802373
  0
CIRCLE
  5
721
100
AcDbEntity
  8
Ech.1_10
 62
     7
  6
CONTINUOUS
370
    -3
100
AcDbCircle
 10
69394.83512578
 20
-64088.31798896
 30
0.0
 40
2.51802373
  0
CIRCLE
  5
722
100
AcDbEntity
  8
Ech.1_10
 62
     7
  6
CONTINUOUS
370
    -3
100
AcDbCircle
 10
69394.83507338
 20
-64043.31798896
 30
0.0
 40
2.51802373
  0
ARC
  5
723
100
AcDbEntity
  8
Ech.1_10
 62
     7
  6
CONTINUOUS
370
    -3
100
AcDbCircle
 10
69386.10140908
 20
-64091.75267516
 30
0.0
 40
14.82598747
100
AcDbArc
 50
201.79423779
 51
238.13522507
  0
ARC
  5
724
100
AcDbEntity
  8
Ech.1_10
 62
     7
  6
CONTINUOUS
370
    -3
100
AcDbCircle
 10
69374.47675223
 20
-64104.11227065
 30
0.0
 40
3.80485997
100
AcDbArc
 50
235.74616591
 51
356.50330011
  0
ARC
  5
725
100
AcDbEntity
  8
Ech.1_10
 62
     7
  6
CONTINUOUS
370
    -3
100
AcDbCircle
 10
69528.64592627
 20
-64105.22746854
 30
0.0
 40
12.47697948
100
AcDbArc
 50
189.36231067
 51
254.61224775
  0
LINE
  5
726
100
AcDbEntity
  8
Ech.1_10
 62
     7
  6
CONTINUOUS
370
    -3
100
AcDbLine
 10
69372.33513619
 20
-64097.2571856
 30
0.0
 11
69376.33513619
 21
-64097.25718094
 31
0.0
  0
ARC
  5
727
100
AcDbEntity
  8
Ech.1_10
 62
     7
  6
CONTINUOUS
370
    -3
100
AcDbCircle
 10
69376.33513037
 20
-64092.25718094
 30
0.0
 40
5.0
100
AcDbArc
 50
270.00006672
 51
6.6713072303917E-05
  0
LINE
  5
728
100
AcDbEntity
  8
Ech.1_10
 62
     7
  6
CONTINUOUS
370
    -3
100
AcDbLine
 10
69376.10504446
 20
-64106.33747758
 30
0.0
 11
69376.10504213
 21
-64104.33747758
 31
0.0
  0
LINE
  5
729
100
AcDbEntity
  8
Ech.1_10
 62
     7
  6
CONTINUOUS
370
    -3
100
AcDbLine
 10
69376.10504446
 20
-64106.33747758
 30
0.0
 11
69371.97463052
 21
-64106.33748238
 31
0.0
  0
LINE
  5
72A
100
AcDbEntity
  8
Ech.1_10
 62
     7
  6
CONTINUOUS
370
    -3
100
AcDbLine
 10
69371.97463052
 20
-64106.33748238
 30
0.0
 11
69371.97464323
 21
-64117.25718602
 31
0.0
  0
LINE
  5
72B
100
AcDbEntity
  8
Ech.1_10
 62
     7
  6
CONTINUOUS
370
    -3
100
AcDbLine
 10
69376.10504213
 20
-64104.33747758
 30
0.0
 11
69369.97462819
 21
-64104.33748471
 31
0.0
  0
LINE
  5
72C
100
AcDbEntity
  8
Ech.1_10
 62
     7
  6
CONTINUOUS
370
    -3
100
AcDbLine
 10
69369.97462819
 20
-64104.33748471
 30
0.0
 11
69369.97464556
 21
-64119.25718834
 31
0.0
  0
CIRCLE
  5
72D
100
AcDbEntity
  8
Ech.1_10
 62
     7
  6
CONTINUOUS
370
    -3
100
AcDbCircle
 10
69394.83503845
 20
-64013.31798896
 30
0.0
 40
2.51802373
  0
LINE
  5
72E
100
AcDbEntity
  8
Ech.1_10
 62
     7
  6
CONTINUOUS
370
    -3
100
AcDbLine
 10
69408.33500645
 20
-63966.57087703
 30
0.0
 11
69408.33513037
 21
-64092.25714368
 31
0.0
  0
CIRCLE
  5
72F
100
AcDbEntity
  8
Ech.1_10
 62
     7
  6
CONTINUOUS
370
    -3
100
AcDbCircle
 10
69394.83502099
 20
-63998.31798896
 30
0.0
 40
2.51802373
  0
LINE
  5
730
100
AcDbEntity
  8
Ech.1_10
 62
     7
  6
CONTINUOUS
370
    -3
100
AcDbLine
 10
69408.33500645
 20
-63966.57087703
 30
0.0
 11
69381.33500645
 21
-63966.57090847
 31
0.0
  0
LINE
  5
731
100
AcDbEntity
  8
Ech.1_10
 62
     7
  6
CONTINUOUS
370
    -3
100
AcDbLine
 10
69371.97464323
 20
-64117.25718602
 30
0.0
 11
69417.69567572
 21
-64117.25713278
 31
0.0
  0
LINE
  5
732
100
AcDbEntity
  8
Ech.1_10
 62
     7
  6
CONTINUOUS
370
    -3
100
AcDbLine
 10
69419.69567805
 20
-64119.25713045
 30
0.0
 11
69369.97464556
 21
-64119.25718834
 31
0.0
  0
ARC
  5
733
100
AcDbEntity
  8
Ech.1_10
 62
     7
  6
CONTINUOUS
370
    -3
100
AcDbCircle
 10
69415.19353612
 20
-64104.11222324
 30
0.0
 40
3.80485997
100
AcDbArc
 50
183.49683332
 51
304.25396752
  0
LINE
  5
734
100
AcDbEntity
  8
Ech.1_10
 62
     7
  6
CONTINUOUS
370
    -3
100
AcDbLine
 10
69396.72742021
 20
-63978.10824505
 30
0.0
 11
69396.72742021
 21
-63978.10824505
 31
0.0
  0
CIRCLE
  5
735
100
AcDbEntity
  8
Ech.1_10
 62
     7
  6
CONTINUOUS
370
    -3
100
AcDbCircle
 10
69394.83502099
 20
-63983.40957753
 30
0.0
 40
2.51802373
  0
LWPOLYLINE
  5
736
100
AcDbEntity
  8
Ech.1_10
 62
     9
  6
CONTINUOUS
370
    -3
100
AcDbPolyline
 90
        6
 70
     0
 43
0.0
 10
69833.75953666
 20
-63512.97674928
 10
69680.89682538
 20
-63512.97837883
 10
69664.41132222
 20
-63530.95572723
 10
69678.52126224
 20
-63495.00002722
 10
69662.03490816
 20
-63512.97837883
 10
69448.96243418
 20
-63512.97759309
  0
LWPOLYLINE
  5
737
100
AcDbEntity
  8
Ech.1_10
 62
     9
  6
CONTINUOUS
370
    -3
100
AcDbPolyline
 90
        6
 70
     0
 43
0.0
 10
69448.96243418
 20
-63549.36747275
 10
69610.39593767
 20
-63549.36599646
 10
69626.88144083
 20
-63531.38864813
 10
69612.77150081
 20
-63567.34434806
 10
69629.25785489
 20
-63549.36599646
 10
69833.75953666
 20
-63549.36681853
  0
LWPOLYLINE
  5
738
100
AcDbEntity
  8
Ech.1_10
 62
     7
  6
CONTINUOUS
370
    -3
100
AcDbPolyline
 90
       21
 70
     0
 43
0.0
 10
68692.89487977
 20
-63030.65285087
 10
68700.44347155
 20
-63028.41359972
 10
68707.80619195
 20
-63021.75098408
 10
68714.80174635
 20
-63010.82905965
 10
68721.257881
 20
-62995.91676045
 10
68727.01562442
 20
-62977.3812768
 10
68731.93320187
 20
-62955.6790138
 10
68735.88952627
 20
-62931.3443532
 10
68738.78717978
 20
-62904.97649511
 10
68740.55481256
 20
-62877.2247037
 10
68741.14889962
 20
-62848.77232018
 10
68740.55481256
 20
-62820.31993666
 10
68738.78717978
 20
-62792.56814525
 10
68735.88952627
 20
-62766.20028716
 10
68731.93320187
 20
-62741.86562656
 10
68727.01562442
 20
-62720.16336356
 10
68721.257881
 20
-62701.62787991
 10
68714.80174635
 20
-62686.71558071
 10
68707.80619195
 20
-62675.79365628
 10
68700.44347155
 20
-62669.13104064
 10
68692.89487977
 20
-62666.89178949
  0
LWPOLYLINE
  5
739
100
AcDbEntity
  8
Ech.1_10
 62
     7
  6
CONTINUOUS
370
    -3
100
AcDbPolyline
 90
       21
 70
     0
 43
0.0
 10
68692.89487977
 20
-62666.89178949
 10
68685.34628799
 20
-62669.13104064
 10
68677.98356759
 20
-62675.79365628
 10
68670.98801318
 20
-62686.71558071
 10
68664.53187854
 20
-62701.62787991
 10
68658.77413511
 20
-62720.16336356
 10
68653.85655766
 20
-62741.86562656
 10
68649.90023326
 20
-62766.20028716
 10
68647.00257975
 20
-62792.56814525
 10
68645.23494698
 20
-62820.31993666
 10
68644.64085992
 20
-62848.77232018
 10
68645.23494698
 20
-62877.2247037
 10
68647.00257975
 20
-62904.97649511
 10
68649.90023326
 20
-62931.3443532
 10
68653.85655766
 20
-62955.6790138
 10
68658.77413511
 20
-62977.3812768
 10
68664.53187854
 20
-62995.91676045
 10
68670.98801318
 20
-63010.82905965
 10
68677.98356759
 20
-63021.75098408
 10
68685.34628799
 20
-63028.41359972
 10
68692.89487977
 20
-63030.65285087
  0
INSERT
  5
73A
100
AcDbEntity
  8
Ech.1_10
 62
     0
370
    -3
100
AcDbBlockReference
  2
*D19
 10
0.0
 20
0.0
 30
0.0
  0
ENDSEC
  0
SECTION
  2
OBJECTS
  0
DICTIONARY
  5
1
100
AcDbDictionary
  3
ACAD_GROUP
350
2
  3
ACAD_MLINESTYLE
350
3
  0
DICTIONARY
  5
2
102
{CDWK_REACTORS
330
1
102
}
100
AcDbDictionary
  0
DICTIONARY
  5
3
102
{CDWK_REACTORS
330
1
102
}
100
AcDbDictionary
  3
STANDARD
350
4
  0
MLINESTYLE
  5
4
102
{CDWK_REACTORS
330
3
102
}
100
AcDbMlineStyle
  2
STANDARD
 70
     0
  3

 62
     0
 51
90.0
 52
90.0
 71
     2
 49
0.5
 62
   256
  6
BYLAYER
 49
-0.5
 62
   256
  6
BYLAYER
  0
ENDSEC
  0
EOF
