  0
SECTION
  2
HEADER
  9
$ACADVER
  1
AC1014
  9
$DWGCODEPAGE
  3
ANSI_1252
  9
$INSBASE
 10
0.0
 20
0.0
 30
0.0
  9
$EXTMIN
 10
8298.84597889
 20
-30740.35496444
  9
$EXTMAX
 10
36760.83913382
 20
-5997.09001988
  9
$LIMMIN
 10
8298.84597889
 20
-30740.35496444
  9
$LIMMAX
 10
36760.83913382
 20
-5997.09001988
  9
$ORTHOMODE
 70
     0
  9
$REGENMODE
 70
     1
  9
$FILLMODE
 70
     1
  9
$QTEXTMODE
 70
     0
  9
$MIRRTEXT
 70
     1
  9
$DRAGMODE
 70
     2
  9
$LTSCALE
 40
5.0
  9
$OSMODE
 70
     0
  9
$ATTMODE
 70
     1
  9
$TEXTSIZE
 40
3.5
  9
$TRACEWID
 40
1.0
  9
$TEXTSTYLE
  7
STANDARD
  9
$CLAYER
  8
0
  9
$CELTYPE
  6
BYLAYER
  9
$CECOLOR
 62
   256
  9
$DIMSCALE
 40
1.0
  9
$DIMASZ
 40
2.0
  9
$DIMEXO
 40
5.0
  9
$DIMDLI
 40
10.0
  9
$DIMRND
 40
0.0
  9
$DIMDLE
 40
2.0
  9
$DIMEXE
 40
2.0
  9
$DIMTP
 40
0.0
  9
$DIMTM
 40
0.0
  9
$DIMTXT
 40
2.5
  9
$DIMCEN
 40
1.5
  9
$DIMTSZ
 40
0.0
  9
$DIMTOL
 70
     0
  9
$DIMLIM
 70
     0
  9
$DIMTIH
 70
     1
  9
$DIMTOH
 70
     0
  9
$DIMSE1
 70
     0
  9
$DIMSE2
 70
     0
  9
$DIMTAD
 70
     1
  9
$DIMZIN
 70
     8
  9
$DIMBLK
  1

  9
$DIMASO
 70
     1
  9
$DIMSHO
 70
     1
  9
$DIMPOST
  1

  9
$DIMAPOST
  1

  9
$DIMALT
 70
     0
  9
$DIMALTD
 70
     2
  9
$DIMALTF
 40
25.4
  9
$DIMLFAC
 40
1.0
  9
$DIMTOFL
 70
     0
  9
$DIMTVP
 40
0.0
  9
$DIMTIX
 70
     0
  9
$DIMSOXD
 70
     0
  9
$DIMSAH
 70
     0
  9
$DIMBLK1
  1

  9
$DIMBLK2
  1

  9
$DIMSTYLE
  2
*UNNAMED
  9
$DIMCLRD
 70
   190
  9
$DIMCLRE
 70
   190
  9
$DIMCLRT
 70
   190
  9
$DIMTFAC
 40
1.0
  9
$DIMGAP
 40
0.09
  9
$DIMUNIT
 70
     2
  9
$LUNITS
 70
     2
  9
$LUPREC
 70
     6
  9
$AXISMODE
 70
     0
  9
$AXISUNIT
 10
0.0
 20
0.0
  9
$SKETCHINC
 40
0.1
  9
$FILLETRAD
 40
0.0
  9
$AUNITS
 70
     0
  9
$AUPREC
 70
     0
  9
$MENU
  1
ACAD
  9
$ELEVATION
 40
0.0
  9
$PELEVATION
 40
0.0
  9
$THICKNESS
 40
0.0
  9
$LIMCHECK
 70
     0
  9
$BLIPMODE
 70
     1
  9
$CHAMFERA
 40
0.0
  9
$CHAMFERB
 40
0.0
  9
$SKPOLY
 70
     1
  9
$TDCREATE
 40
2457811.0000000000
  9
$TDUPDATE
 40
2457811.0000000000
  9
$TDINDWG
 40
0.0
  9
$TDUSRTIMER
 40
0.0
  9
$USRTIMER
 70
     1
  9
$ANGBASE
 50
0.0
  9
$ANGDIR
 70
     0
  9
$PDMODE
 70
     0
  9
$PDSIZE
 40
0.0
  9
$PLINEWID
 40
0.0
  9
$COORDS
 70
     2
  9
$SPLFRAME
 70
     0
  9
$SPLINETYPE
 70
     6
  9
$SPLINESEGS
 70
     8
  9
$ATTDIA
 70
     1
  9
$ATTREQ
 70
     1
  9
$HANDLING
 70
     1
  9
$HANDSEED
  5
     82A
  9
$SURFTAB1
 70
     6
  9
$SURFTAB2
 70
     6
  9
$SURFTYPE
 70
     6
  9
$SURFU
 70
     6
  9
$SURFV
 70
     6
  9
$UCSNAME
  2

  9
$UCSORG
 10
0.0
 20
0.0
 30
0.0
  9
$UCSXDIR
 10
1.0
 20
0.0
 30
0.0
  9
$UCSYDIR
 10
0.0
 20
1.0
 30
0.0
  9
$PUCSNAME
  2

  9
$PUCSORG
 10
0.0
 20
0.0
 30
0.0
  9
$PUCSXDIR
 10
1.0
 20
0.0
 30
0.0
  9
$PUCSYDIR
 10
0.0
 20
1.0
 30
0.0
  9
$USERI1
 70
     0
  9
$USERI2
 70
     0
  9
$USERI3
 70
     0
  9
$USERI4
 70
     0
  9
$USERI5
 70
     0
  9
$USERR1
 40
0.0
  9
$USERR2
 40
0.0
  9
$USERR3
 40
0.0
  9
$USERR4
 40
0.0
  9
$USERR5
 40
0.0
  9
$WORLDVIEW
 70
     1
  9
$SHADEDGE
 70
     3
  9
$SHADEDIF
 70
    70
  9
$TILEMODE
 70
     1
  9
$MAXACTVP
 70
    16
  9
$PINSBASE
 10
0.0
 20
0.0
 30
0.0
  9
$PLIMCHECK
 70
     0
  9
$PEXTMIN
 10
1.0000000000000E+20
 20
1.0000000000000E+20
 30
1.0000000000000E+20
  9
$PEXTMAX
 10
-1.0000000000000E+20
 20
-1.0000000000000E+20
 30
-1.0000000000000E+20
  9
$PLIMMIN
 10
0.0
 20
0.0
  9
$UNITMODE
 70
     0
  9
$VISRETAIN
 70
     0
  9
$MEASUREMENT
 70
     1
  0
ENDSEC
  0
SECTION
  2
TABLES
  0
TABLE
  2
VPORT
  5
36E
100
AcDbSymbolTable
 70
     1
  0
ENDTAB
  0
TABLE
  2
STYLE
  5
36F
100
AcDbSymbolTable
 70
     3
  0
STYLE
  5
370
100
AcDbSymbolTableRecord
100
AcDbTextStyleTableRecord
  2
STANDARD
 70
     0
 40
0.0
 41
1.0
 50
0.0
 71
     0
 42
3.5
  3
MONOTXT
  4

  0
STYLE
  5
371
100
AcDbSymbolTableRecord
100
AcDbTextStyleTableRecord
  2
SYMAP
 70
     0
 40
0.0
 41
1.0
 50
0.0
 71
     0
 42
3.5
  3
SYMAP
  4

  0
STYLE
  5
372
100
AcDbSymbolTableRecord
100
AcDbTextStyleTableRecord
  2
CADWORK1
 70
     0
 40
0.0
 41
1.0
 50
0.0
 71
     0
 42
3.5
  3
MONOTXT
  4

  0
STYLE
  5
373
100
AcDbSymbolTableRecord
100
AcDbTextStyleTableRecord
  2
MONOTXT
 70
     0
 40
0.0
 41
1.0
 50
0.0
 71
     0
 42
3.5
  3
MONOTXT
  4

  0
STYLE
  5
374
100
AcDbSymbolTableRecord
100
AcDbTextStyleTableRecord
  2
ARIAL
 70
     0
 40
0.0
 41
1.0
 50
0.0
 71
     0
 42
3.5
  3

  4

1001
ACAD
1000
Arial
1071
        0
  0
ENDTAB
  0
TABLE
  2
LTYPE
  5
375
100
AcDbSymbolTable
 70
    13
  0
LTYPE
  5
376
100
AcDbSymbolTableRecord
100
AcDbLinetypeTableRecord
  2
BYBLOCK
 70
    64
  3

 72
    65
 73
     0
 40
0.0
  0
LTYPE
  5
377
100
AcDbSymbolTableRecord
100
AcDbLinetypeTableRecord
  2
BYLAYER
 70
    64
  3

 72
    65
 73
     0
 40
0.0
  0
LTYPE
  5
378
100
AcDbSymbolTableRecord
100
AcDbLinetypeTableRecord
  2
CONTINUOUS
 70
    64
  3
Solid line
 72
    65
 73
     0
 40
0.0
  0
LTYPE
  5
379
100
AcDbSymbolTableRecord
100
AcDbLinetypeTableRecord
  2
DOT2
 70
    64
  3
...............................................
 72
    65
 73
     2
 40
1.25
 49
0.0
 74
     0
 49
-1.25
 74
     0
  0
LTYPE
  5
37A
100
AcDbSymbolTableRecord
100
AcDbLinetypeTableRecord
  2
DASHDOT
 70
    64
  3
 __ . __ . __ . __ . __ . __ . __ . __ . __ . __
 72
    65
 73
     4
 40
10.0
 49
5.0
 74
     0
 49
-2.5
 74
     0
 49
0.0
 74
     0
 49
-2.5
 74
     0
  0
LTYPE
  5
37B
100
AcDbSymbolTableRecord
100
AcDbLinetypeTableRecord
  2
CENTER
 70
    64
  3
 ____ _ ____ _ ____ _ ____ _ ____ _ ____ _ ____
 72
    65
 73
     4
 40
20.0
 49
12.5
 74
     0
 49
-2.5
 74
     0
 49
2.5
 74
     0
 49
-2.5
 74
     0
  0
LTYPE
  5
37C
100
AcDbSymbolTableRecord
100
AcDbLinetypeTableRecord
  2
CADWORK_22
 70
    64
  3
22 =======================================
 72
    65
 73
     0
 40
0.0
  0
LTYPE
  5
37D
100
AcDbSymbolTableRecord
100
AcDbLinetypeTableRecord
  2
DAL
 70
    64
  3
Solid line (for MAPS)
 72
    65
 73
     0
 40
0.0
  0
LTYPE
  5
37E
100
AcDbSymbolTableRecord
100
AcDbLinetypeTableRecord
  2
MUR
 70
    64
  3
Solid line (for MAPS)
 72
    65
 73
     0
 40
0.0
  0
LTYPE
  5
37F
100
AcDbSymbolTableRecord
100
AcDbLinetypeTableRecord
  2
SOM
 70
    64
  3
Solid line (for MAPS)
 72
    65
 73
     0
 40
0.0
  0
LTYPE
  5
380
100
AcDbSymbolTableRecord
100
AcDbLinetypeTableRecord
  2
COL
 70
    64
  3
Solid line (for MAPS)
 72
    65
 73
     0
 40
0.0
  0
LTYPE
  5
381
100
AcDbSymbolTableRecord
100
AcDbLinetypeTableRecord
  2
LGN
 70
    64
  3
Solid line (for MAPS)
 72
    65
 73
     0
 40
0.0
  0
LTYPE
  5
382
100
AcDbSymbolTableRecord
100
AcDbLinetypeTableRecord
  2
PNT
 70
    64
  3
Solid line (for MAPS)
 72
    65
 73
     0
 40
0.0
  0
ENDTAB
  0
TABLE
  2
LAYER
  5
383
100
AcDbSymbolTable
 70
    32
  0
LAYER
  5
384
100
AcDbSymbolTableRecord
100
AcDbLayerTableRecord
  2
Standard
 70
     0
 62
     7
  6
CONTINUOUS
370
    -3
  0
LAYER
  5
385
100
AcDbSymbolTableRecord
100
AcDbLayerTableRecord
  2
Ech.1_1
 70
     0
 62
     7
  6
CONTINUOUS
370
    -3
  0
LAYER
  5
386
100
AcDbSymbolTableRecord
100
AcDbLayerTableRecord
  2
Ech.1_2
 70
     0
 62
     7
  6
CONTINUOUS
370
    -3
  0
LAYER
  5
387
100
AcDbSymbolTableRecord
100
AcDbLayerTableRecord
  2
Ech.1_5
 70
     0
 62
     7
  6
CONTINUOUS
370
    -3
  0
LAYER
  5
388
100
AcDbSymbolTableRecord
100
AcDbLayerTableRecord
  2
Ech.1_10
 70
     0
 62
     7
  6
CONTINUOUS
370
    -3
  0
LAYER
  5
389
100
AcDbSymbolTableRecord
100
AcDbLayerTableRecord
  2
Ech.1_20
 70
     0
 62
     7
  6
CONTINUOUS
370
    -3
  0
LAYER
  5
38A
100
AcDbSymbolTableRecord
100
AcDbLayerTableRecord
  2
Ech.1_25
 70
     0
 62
     7
  6
CONTINUOUS
370
    -3
  0
LAYER
  5
38B
100
AcDbSymbolTableRecord
100
AcDbLayerTableRecord
  2
Ech.1_33
 70
     0
 62
     7
  6
CONTINUOUS
370
    -3
  0
LAYER
  5
38C
100
AcDbSymbolTableRecord
100
AcDbLayerTableRecord
  2
Ech.1_50
 70
     0
 62
     7
  6
CONTINUOUS
370
    -3
  0
LAYER
  5
38D
100
AcDbSymbolTableRecord
100
AcDbLayerTableRecord
  2
Ech.1_75
 70
     0
 62
     7
  6
CONTINUOUS
370
    -3
  0
LAYER
  5
38E
100
AcDbSymbolTableRecord
100
AcDbLayerTableRecord
  2
Ech.1_100
 70
     0
 62
     7
  6
CONTINUOUS
370
    -3
  0
LAYER
  5
38F
100
AcDbSymbolTableRecord
100
AcDbLayerTableRecord
  2
Ech.1_200
 70
     0
 62
     7
  6
CONTINUOUS
370
    -3
  0
LAYER
  5
390
100
AcDbSymbolTableRecord
100
AcDbLayerTableRecord
  2
Ech.1_500
 70
     0
 62
     7
  6
CONTINUOUS
370
    -3
  0
LAYER
  5
391
100
AcDbSymbolTableRecord
100
AcDbLayerTableRecord
  2
Ech.1_1000
 70
     0
 62
     7
  6
CONTINUOUS
370
    -3
  0
LAYER
  5
392
100
AcDbSymbolTableRecord
100
AcDbLayerTableRecord
  2
Cadres traceur
 70
     0
 62
     7
  6
CONTINUOUS
370
    18
  0
LAYER
  5
393
100
AcDbSymbolTableRecord
100
AcDbLayerTableRecord
  2
Cadres laser
 70
     0
 62
     7
  6
CONTINUOUS
370
    18
  0
LAYER
  5
394
100
AcDbSymbolTableRecord
100
AcDbLayerTableRecord
  2
Légende d_aide
 70
     0
 62
     7
  6
CONTINUOUS
370
    18
  0
LAYER
  5
395
100
AcDbSymbolTableRecord
100
AcDbLayerTableRecord
  2
hachures ok
 70
     0
 62
     7
  6
CONTINUOUS
370
    18
  0
LAYER
  5
396
100
AcDbSymbolTableRecord
100
AcDbLayerTableRecord
  2
ossature bois
 70
     0
 62
     7
  6
CONTINUOUS
370
    18
  0
LAYER
  5
397
100
AcDbSymbolTableRecord
100
AcDbLayerTableRecord
  2
VR
 70
     0
 62
     7
  6
CONTINUOUS
370
    25
  0
LAYER
  5
398
100
AcDbSymbolTableRecord
100
AcDbLayerTableRecord
  2
Calque1
 70
     0
 62
     7
  6
CONTINUOUS
370
     9
  0
LAYER
  5
399
100
AcDbSymbolTableRecord
100
AcDbLayerTableRecord
  2
0
 70
     0
 62
     7
  6
CONTINUOUS
370
    -3
  0
LAYER
  5
39A
100
AcDbSymbolTableRecord
100
AcDbLayerTableRecord
  2
menuiserie
 70
     0
 62
     7
  6
CONTINUOUS
370
    -3
  0
LAYER
  5
39B
100
AcDbSymbolTableRecord
100
AcDbLayerTableRecord
  2
cotation
 70
     0
 62
   250
  6
CONTINUOUS
370
     9
  0
LAYER
  5
39C
100
AcDbSymbolTableRecord
100
AcDbLayerTableRecord
  2
Defpoints
 70
     0
 62
    10
  6
CONTINUOUS
370
    -3
  0
LAYER
  5
39D
100
AcDbSymbolTableRecord
100
AcDbLayerTableRecord
  2
HACHURE
 70
     0
 62
   254
  6
CONTINUOUS
370
    25
  0
LAYER
  5
39E
100
AcDbSymbolTableRecord
100
AcDbLayerTableRecord
  2
mat1
 70
     0
 62
     7
  6
CONTINUOUS
370
    30
  0
LAYER
  5
39F
100
AcDbSymbolTableRecord
100
AcDbLayerTableRecord
  2
mat2
 70
     0
 62
     7
  6
CONTINUOUS
370
     5
  0
LAYER
  5
3A0
100
AcDbSymbolTableRecord
100
AcDbLayerTableRecord
  2
hach
 70
     0
 62
     8
  6
CONTINUOUS
370
     5
  0
LAYER
  5
3A1
100
AcDbSymbolTableRecord
100
AcDbLayerTableRecord
  2
menuiseries
 70
     0
 62
     7
  6
CONTINUOUS
370
     9
  0
LAYER
  5
3A2
100
AcDbSymbolTableRecord
100
AcDbLayerTableRecord
  2
BétonMétal
 70
     0
 62
     7
  6
CONTINUOUS
370
    80
  0
LAYER
  5
3A3
100
AcDbSymbolTableRecord
100
AcDbLayerTableRecord
  2
bois
 70
     0
 62
     7
  6
CONTINUOUS
370
    60
  0
ENDTAB
  0
TABLE
  2
VIEW
  5
3A4
100
AcDbSymbolTable
 70
     0
  0
ENDTAB
  0
TABLE
  2
UCS
  5
3A5
100
AcDbSymbolTable
 70
     0
  0
ENDTAB
  0
TABLE
  2
APPID
  5
3A6
100
AcDbSymbolTable
 70
     1
  0
APPID
  5
3A7
100
AcDbSymbolTableRecord
100
AcDbRegAppTableRecord
  2
ACAD
 70
     0
  0
ENDTAB
  0
TABLE
  2
DIMSTYLE
  5
3A8
100
AcDbSymbolTable
 70
     0
  0
ENDTAB
  0
TABLE
  2
BLOCK_RECORD
  5
3A9
100
AcDbSymbolTable
 70
     0
  0
BLOCK_RECORD
  5
3AA
100
AcDbSymbolTableRecord
100
AcDbBlockTableRecord
  2
*MODEL_SPACE
  0
BLOCK_RECORD
  5
3AB
100
AcDbSymbolTableRecord
100
AcDbBlockTableRecord
  2
*PAPER_SPACE
  0
BLOCK_RECORD
  5
3AC
100
AcDbSymbolTableRecord
100
AcDbBlockTableRecord
  2
CDWK_EXTR_0
  0
BLOCK_RECORD
  5
3AD
100
AcDbSymbolTableRecord
100
AcDbBlockTableRecord
  2
CDWK_EXTR_1D
  0
BLOCK_RECORD
  5
3AE
100
AcDbSymbolTableRecord
100
AcDbBlockTableRecord
  2
CDWK_EXTR_1G
  0
BLOCK_RECORD
  5
3AF
100
AcDbSymbolTableRecord
100
AcDbBlockTableRecord
  2
CDWK_EXTR_2
  0
BLOCK_RECORD
  5
3B0
100
AcDbSymbolTableRecord
100
AcDbBlockTableRecord
  2
CDWK_EXTR_3
  0
BLOCK_RECORD
  5
3B1
100
AcDbSymbolTableRecord
100
AcDbBlockTableRecord
  2
CDWK_EXTR_4
  0
BLOCK_RECORD
  5
3B2
100
AcDbSymbolTableRecord
100
AcDbBlockTableRecord
  2
CDWK_PTTYP0
  0
BLOCK_RECORD
  5
3B3
100
AcDbSymbolTableRecord
100
AcDbBlockTableRecord
  2
CDWK_PTTYP1
  0
BLOCK_RECORD
  5
3B4
100
AcDbSymbolTableRecord
100
AcDbBlockTableRecord
  2
CDWK_PTTYP2
  0
BLOCK_RECORD
  5
3B5
100
AcDbSymbolTableRecord
100
AcDbBlockTableRecord
  2
CDWK_PTTYP3
  0
BLOCK_RECORD
  5
3B6
100
AcDbSymbolTableRecord
100
AcDbBlockTableRecord
  2
CDWK_PTTYP4
  0
BLOCK_RECORD
  5
3B7
100
AcDbSymbolTableRecord
100
AcDbBlockTableRecord
  2
CDWK_PTTYP5
  0
BLOCK_RECORD
  5
3B8
100
AcDbSymbolTableRecord
100
AcDbBlockTableRecord
  2
CDWK_PTTYP6
  0
BLOCK_RECORD
  5
3B9
100
AcDbSymbolTableRecord
100
AcDbBlockTableRecord
  2
CDWK_PTTYP7
  0
BLOCK_RECORD
  5
3BA
100
AcDbSymbolTableRecord
100
AcDbBlockTableRecord
  2
CDWK_PTTYP8
  0
BLOCK_RECORD
  5
3BB
100
AcDbSymbolTableRecord
100
AcDbBlockTableRecord
  2
CDWK_PTTYP9
  0
BLOCK_RECORD
  5
3BC
100
AcDbSymbolTableRecord
100
AcDbBlockTableRecord
  2
CDWK_PTTYP10
  0
BLOCK_RECORD
  5
3BD
100
AcDbSymbolTableRecord
100
AcDbBlockTableRecord
  2
CDWK_PTTYP11
  0
BLOCK_RECORD
  5
3BE
100
AcDbSymbolTableRecord
100
AcDbBlockTableRecord
  2
CDWK_PTTYP12
  0
BLOCK_RECORD
  5
3BF
100
AcDbSymbolTableRecord
100
AcDbBlockTableRecord
  2
CDWK_PTTYP13
  0
BLOCK_RECORD
  5
3C0
100
AcDbSymbolTableRecord
100
AcDbBlockTableRecord
  2
CDWK_PTTYP14
  0
BLOCK_RECORD
  5
3C1
100
AcDbSymbolTableRecord
100
AcDbBlockTableRecord
  2
CDWK_PTTYP15
  0
BLOCK_RECORD
  5
3C2
100
AcDbSymbolTableRecord
100
AcDbBlockTableRecord
  2
CDWK_PTTYP16
  0
BLOCK_RECORD
  5
3C3
100
AcDbSymbolTableRecord
100
AcDbBlockTableRecord
  2
CDWK_PTTYP17
  0
BLOCK_RECORD
  5
3C4
100
AcDbSymbolTableRecord
100
AcDbBlockTableRecord
  2
CDWK_PTTYP18
  0
BLOCK_RECORD
  5
3C5
100
AcDbSymbolTableRecord
100
AcDbBlockTableRecord
  2
CDWK_PTTYP19
  0
BLOCK_RECORD
  5
3C6
100
AcDbSymbolTableRecord
100
AcDbBlockTableRecord
  2
CDWK_PTTYP20
  0
BLOCK_RECORD
  5
3C7
100
AcDbSymbolTableRecord
100
AcDbBlockTableRecord
  2
CDWK_PTTYP21
  0
BLOCK_RECORD
  5
3C8
100
AcDbSymbolTableRecord
100
AcDbBlockTableRecord
  2
CDWK_PTTYP22
  0
BLOCK_RECORD
  5
3C9
100
AcDbSymbolTableRecord
100
AcDbBlockTableRecord
  2
CDWK_PTTYP23
  0
BLOCK_RECORD
  5
3CA
100
AcDbSymbolTableRecord
100
AcDbBlockTableRecord
  2
CDWK_PTTYP24
  0
BLOCK_RECORD
  5
3CB
100
AcDbSymbolTableRecord
100
AcDbBlockTableRecord
  2
CDWK_PTTYP25
  0
BLOCK_RECORD
  5
3CC
100
AcDbSymbolTableRecord
100
AcDbBlockTableRecord
  2
CDWK_PTTYP26
  0
BLOCK_RECORD
  5
3CD
100
AcDbSymbolTableRecord
100
AcDbBlockTableRecord
  2
CDWK_PTTYP27
  0
BLOCK_RECORD
  5
3CE
100
AcDbSymbolTableRecord
100
AcDbBlockTableRecord
  2
CDWK_PTTYP28
  0
BLOCK_RECORD
  5
3CF
100
AcDbSymbolTableRecord
100
AcDbBlockTableRecord
  2
CDWK_PTTYP29
  0
BLOCK_RECORD
  5
3D0
100
AcDbSymbolTableRecord
100
AcDbBlockTableRecord
  2
CDWK_PTTYP30
  0
BLOCK_RECORD
  5
3D1
100
AcDbSymbolTableRecord
100
AcDbBlockTableRecord
  2
CDWK_PTTYP31
  0
BLOCK_RECORD
  5
3D2
100
AcDbSymbolTableRecord
100
AcDbBlockTableRecord
  2
CDWK_PTTYP32
  0
BLOCK_RECORD
  5
3D3
100
AcDbSymbolTableRecord
100
AcDbBlockTableRecord
  2
CDWK_PTTYP33
  0
BLOCK_RECORD
  5
3D4
100
AcDbSymbolTableRecord
100
AcDbBlockTableRecord
  2
CDWK_PTTYP34
  0
BLOCK_RECORD
  5
3D5
100
AcDbSymbolTableRecord
100
AcDbBlockTableRecord
  2
CDWK_PTTYP35
  0
BLOCK_RECORD
  5
3D6
100
AcDbSymbolTableRecord
100
AcDbBlockTableRecord
  2
CDWK_PTTYP36
  0
BLOCK_RECORD
  5
3D7
100
AcDbSymbolTableRecord
100
AcDbBlockTableRecord
  2
CDWK_PTTYP37
  0
BLOCK_RECORD
  5
3D8
100
AcDbSymbolTableRecord
100
AcDbBlockTableRecord
  2
CDWK_PTTYP38
  0
ENDTAB
  0
ENDSEC
  0
SECTION
  2
BLOCKS
  0
BLOCK
  5
3D9
100
AcDbEntity
  8
0
100
AcDbBlockBegin
  2
*MODEL_SPACE
 70
     0
 10
0.0
 20
0.0
 30
0.0
  3
*MODEL_SPACE
  1

  0
ENDBLK
  5
3DA
100
AcDbEntity
100
AcDbBlockEnd
  0
BLOCK
  5
3DB
100
AcDbEntity
  8
0
100
AcDbBlockBegin
  2
*PAPER_SPACE
 70
     0
 10
0.0
 20
0.0
 30
0.0
  3
*PAPER_SPACE
  1

  0
ENDBLK
  5
3DC
100
AcDbEntity
100
AcDbBlockEnd
  0
BLOCK
  5
3DD
100
AcDbEntity
  8
0
100
AcDbBlockBegin
  2
CDWK_EXTR_0
 70
     0
 10
0.0
 20
0.0
 30
0.0
  3
CDWK_EXTR_0
  1

  4
Cadwork line-extremity
  0
LINE
  5
3DE
100
AcDbEntity
  8
0
 62
     0
370
    -2
100
AcDbLine
 10
0.0
 20
0.0
 30
0.0
 11
2.0
 21
0.5
 31
0.0
  0
LINE
  5
3DF
100
AcDbEntity
  8
0
 62
     0
370
    -2
100
AcDbLine
 10
0.0
 20
0.0
 30
0.0
 11
2.0
 21
-0.5
 31
0.0
  0
LINE
  5
3E0
100
AcDbEntity
  8
0
 62
     0
370
    -2
100
AcDbLine
 10
2.0
 20
0.5
 30
0.0
 11
2.0
 21
-0.5
 31
0.0
  0
ENDBLK
  5
3E1
100
AcDbEntity
100
AcDbBlockEnd
  0
BLOCK
  5
3E2
100
AcDbEntity
  8
0
100
AcDbBlockBegin
  2
CDWK_EXTR_1D
 70
     0
 10
0.0
 20
0.0
 30
0.0
  3
CDWK_EXTR_1D
  1

  4
Cadwork line-extremity
  0
LINE
  5
3E3
100
AcDbEntity
  8
0
 62
     0
370
    -2
100
AcDbLine
 10
0.0
 20
0.0
 30
0.0
 11
0.0
 21
1.0
 31
0.0
  0
LINE
  5
3E4
100
AcDbEntity
  8
0
 62
     0
370
    -2
100
AcDbLine
 10
0.0
 20
1.0
 30
0.0
 11
0.5
 21
1.5
 31
0.0
  0
LINE
  5
3E5
100
AcDbEntity
  8
0
 62
     0
370
    -2
100
AcDbLine
 10
0.5
 20
1.5
 30
0.0
 11
1.5
 21
1.5
 31
0.0
  0
ENDBLK
  5
3E6
100
AcDbEntity
100
AcDbBlockEnd
  0
BLOCK
  5
3E7
100
AcDbEntity
  8
0
100
AcDbBlockBegin
  2
CDWK_EXTR_1G
 70
     0
 10
0.0
 20
0.0
 30
0.0
  3
CDWK_EXTR_1G
  1

  4
Cadwork line-extremity
  0
LINE
  5
3E8
100
AcDbEntity
  8
0
 62
     0
370
    -2
100
AcDbLine
 10
0.0
 20
0.0
 30
0.0
 11
0.0
 21
-1.0
 31
0.0
  0
LINE
  5
3E9
100
AcDbEntity
  8
0
 62
     0
370
    -2
100
AcDbLine
 10
0.0
 20
-1.0
 30
0.0
 11
0.5
 21
-1.5
 31
0.0
  0
LINE
  5
3EA
100
AcDbEntity
  8
0
 62
     0
370
    -2
100
AcDbLine
 10
0.5
 20
-1.5
 30
0.0
 11
1.5
 21
-1.5
 31
0.0
  0
ENDBLK
  5
3EB
100
AcDbEntity
100
AcDbBlockEnd
  0
BLOCK
  5
3EC
100
AcDbEntity
  8
0
100
AcDbBlockBegin
  2
CDWK_EXTR_2
 70
     0
 10
0.0
 20
0.0
 30
0.0
  3
CDWK_EXTR_2
  1

  4
Cadwork line-extremity
  0
SOLID
  5
3ED
100
AcDbEntity
  8
0
 62
     0
100
AcDbTrace
 10
0.0
 20
0.0
 11
2.0
 21
0.5
 12
2.0
 22
-0.5
 13
2.0
 23
-0.5
  0
ENDBLK
  5
3EE
100
AcDbEntity
100
AcDbBlockEnd
  0
BLOCK
  5
3EF
100
AcDbEntity
  8
0
100
AcDbBlockBegin
  2
CDWK_EXTR_3
 70
     0
 10
0.0
 20
0.0
 30
0.0
  3
CDWK_EXTR_3
  1

  4
Cadwork line-extremity
  0
SOLID
  5
3F0
100
AcDbEntity
  8
0
 62
     0
100
AcDbTrace
 10
0.0
 20
0.0
 11
2.0
 21
0.5
 12
2.0
 22
-0.5
 13
2.0
 23
-0.5
  0
LINE
  5
3F1
100
AcDbEntity
  8
0
 62
     0
370
    -2
100
AcDbLine
 10
0.0
 20
1.0
 30
0.0
 11
0.0
 21
-1.0
 31
0.0
  0
ENDBLK
  5
3F2
100
AcDbEntity
100
AcDbBlockEnd
  0
BLOCK
  5
3F3
100
AcDbEntity
  8
0
100
AcDbBlockBegin
  2
CDWK_EXTR_4
 70
     0
 10
0.0
 20
0.0
 30
0.0
  3
CDWK_EXTR_4
  1

  4
Cadwork line-extremity
  0
HATCH
  5
3F4
100
AcDbEntity
  8
0
 62
     0
370
    -2
100
AcDbHatch
 10
0.0
 20
0.0
 30
0.0
210
0.0
220
0.0
230
1.0
  2
SOLID
 70
     1
 71
     0
 91
        1
 92
        1
 93
        1
 72
     2
 10
0.0
 20
0.0
 40
0.5
 50
0.0
 51
360.0
 73
     1
 97
        0
 75
     0
 76
     1
 98
        1
 10
0.0
 20
0.0
  0
ENDBLK
  5
3F5
100
AcDbEntity
100
AcDbBlockEnd
  0
BLOCK
  5
3F6
100
AcDbEntity
  8
0
100
AcDbBlockBegin
  2
CDWK_PTTYP0
 70
     0
 10
0.0
 20
0.0
 30
0.0
  3
CDWK_PTTYP0
  1

  4
Cadwork point
  0
POINT
  5
3F7
100
AcDbEntity
  8
0
 62
     0
100
AcDbPoint
 10
0.0
 20
0.0
 30
0.0
  0
ENDBLK
  5
3F8
100
AcDbEntity
100
AcDbBlockEnd
  0
BLOCK
  5
3F9
100
AcDbEntity
  8
0
100
AcDbBlockBegin
  2
CDWK_PTTYP1
 70
     0
 10
0.0
 20
0.0
 30
0.0
  3
CDWK_PTTYP1
  1

  4
Cadwork node
  0
LINE
  5
3FA
100
AcDbEntity
  8
0
 62
     0
370
    -2
100
AcDbLine
 10
-0.5
 20
0.5
 30
0.0
 11
0.5
 21
0.5
 31
0.0
  0
LINE
  5
3FB
100
AcDbEntity
  8
0
 62
     0
370
    -2
100
AcDbLine
 10
0.5
 20
0.5
 30
0.0
 11
0.5
 21
-0.5
 31
0.0
  0
LINE
  5
3FC
100
AcDbEntity
  8
0
 62
     0
370
    -2
100
AcDbLine
 10
0.5
 20
-0.5
 30
0.0
 11
-0.5
 21
-0.5
 31
0.0
  0
LINE
  5
3FD
100
AcDbEntity
  8
0
 62
     0
370
    -2
100
AcDbLine
 10
-0.5
 20
-0.5
 30
0.0
 11
-0.5
 21
0.5
 31
0.0
  0
ENDBLK
  5
3FE
100
AcDbEntity
100
AcDbBlockEnd
  0
BLOCK
  5
3FF
100
AcDbEntity
  8
0
100
AcDbBlockBegin
  2
CDWK_PTTYP2
 70
     0
 10
0.0
 20
0.0
 30
0.0
  3
CDWK_PTTYP2
  1

  4
Cadwork node
  0
LINE
  5
400
100
AcDbEntity
  8
0
 62
     0
370
    -2
100
AcDbLine
 10
0.0
 20
0.5
 30
0.0
 11
0.0
 21
-0.5
 31
0.0
  0
LINE
  5
401
100
AcDbEntity
  8
0
 62
     0
370
    -2
100
AcDbLine
 10
-0.5
 20
0.0
 30
0.0
 11
0.5
 21
0.0
 31
0.0
  0
ENDBLK
  5
402
100
AcDbEntity
100
AcDbBlockEnd
  0
BLOCK
  5
403
100
AcDbEntity
  8
0
100
AcDbBlockBegin
  2
CDWK_PTTYP3
 70
     0
 10
0.0
 20
0.0
 30
0.0
  3
CDWK_PTTYP3
  1

  4
Cadwork node
  0
CIRCLE
  5
404
100
AcDbEntity
  8
0
 62
     0
370
    -2
100
AcDbCircle
 10
0.0
 20
0.0
 30
0.0
 40
0.5
  0
ENDBLK
  5
405
100
AcDbEntity
100
AcDbBlockEnd
  0
BLOCK
  5
406
100
AcDbEntity
  8
0
100
AcDbBlockBegin
  2
CDWK_PTTYP4
 70
     0
 10
0.0
 20
0.0
 30
0.0
  3
CDWK_PTTYP4
  1

  4
Cadwork node
  0
HATCH
  5
407
100
AcDbEntity
  8
0
 62
     0
370
    -2
100
AcDbHatch
 10
0.0
 20
0.0
 30
0.0
210
0.0
220
0.0
230
1.0
  2
SOLID
 70
     1
 71
     0
 91
        1
 92
        1
 93
        1
 72
     2
 10
0.0
 20
0.0
 40
0.5
 50
0.0
 51
360.0
 73
     1
 97
        0
 75
     0
 76
     1
 98
        1
 10
0.0
 20
0.0
  0
ENDBLK
  5
408
100
AcDbEntity
100
AcDbBlockEnd
  0
BLOCK
  5
409
100
AcDbEntity
  8
0
100
AcDbBlockBegin
  2
CDWK_PTTYP5
 70
     0
 10
0.0
 20
0.0
 30
0.0
  3
CDWK_PTTYP5
  1

  4
Cadwork node
  0
LINE
  5
40A
100
AcDbEntity
  8
0
 62
     0
370
    -2
100
AcDbLine
 10
-0.5
 20
0.5
 30
0.0
 11
0.5
 21
0.5
 31
0.0
  0
LINE
  5
40B
100
AcDbEntity
  8
0
 62
     0
370
    -2
100
AcDbLine
 10
0.5
 20
0.5
 30
0.0
 11
0.5
 21
-0.5
 31
0.0
  0
LINE
  5
40C
100
AcDbEntity
  8
0
 62
     0
370
    -2
100
AcDbLine
 10
0.5
 20
-0.5
 30
0.0
 11
-0.5
 21
-0.5
 31
0.0
  0
LINE
  5
40D
100
AcDbEntity
  8
0
 62
     0
370
    -2
100
AcDbLine
 10
-0.5
 20
-0.5
 30
0.0
 11
-0.5
 21
0.5
 31
0.0
  0
SOLID
  5
40E
100
AcDbEntity
  8
0
 62
     0
100
AcDbTrace
 10
-0.5
 20
-0.5
 11
-0.5
 21
0.0
 12
0.0
 22
-0.5
 13
0.0
 23
0.0
  0
SOLID
  5
40F
100
AcDbEntity
  8
0
 62
     0
100
AcDbTrace
 10
0.0
 20
0.0
 11
0.0
 21
0.5
 12
0.5
 22
0.0
 13
0.5
 23
0.5
  0
ENDBLK
  5
410
100
AcDbEntity
100
AcDbBlockEnd
  0
BLOCK
  5
411
100
AcDbEntity
  8
0
100
AcDbBlockBegin
  2
CDWK_PTTYP6
 70
     0
 10
0.0
 20
0.0
 30
0.0
  3
CDWK_PTTYP6
  1

  4
Cadwork node
  0
LINE
  5
412
100
AcDbEntity
  8
0
 62
     0
370
    -2
100
AcDbLine
 10
-0.5
 20
0.5
 30
0.0
 11
0.5
 21
0.5
 31
0.0
  0
LINE
  5
413
100
AcDbEntity
  8
0
 62
     0
370
    -2
100
AcDbLine
 10
0.5
 20
0.5
 30
0.0
 11
0.5
 21
-0.5
 31
0.0
  0
LINE
  5
414
100
AcDbEntity
  8
0
 62
     0
370
    -2
100
AcDbLine
 10
0.5
 20
-0.5
 30
0.0
 11
-0.5
 21
-0.5
 31
0.0
  0
LINE
  5
415
100
AcDbEntity
  8
0
 62
     0
370
    -2
100
AcDbLine
 10
-0.5
 20
-0.5
 30
0.0
 11
-0.5
 21
0.5
 31
0.0
  0
SOLID
  5
416
100
AcDbEntity
  8
0
 62
     0
100
AcDbTrace
 10
-0.5
 20
-0.5
 11
-0.5
 21
0.5
 12
0.5
 22
0.5
 13
0.5
 23
0.5
  0
ENDBLK
  5
417
100
AcDbEntity
100
AcDbBlockEnd
  0
BLOCK
  5
418
100
AcDbEntity
  8
0
100
AcDbBlockBegin
  2
CDWK_PTTYP7
 70
     0
 10
0.0
 20
0.0
 30
0.0
  3
CDWK_PTTYP7
  1

  4
Cadwork node
  0
LINE
  5
419
100
AcDbEntity
  8
0
 62
     0
370
    -2
100
AcDbLine
 10
-0.5
 20
0.5
 30
0.0
 11
0.5
 21
0.5
 31
0.0
  0
LINE
  5
41A
100
AcDbEntity
  8
0
 62
     0
370
    -2
100
AcDbLine
 10
0.5
 20
0.5
 30
0.0
 11
0.5
 21
-0.5
 31
0.0
  0
LINE
  5
41B
100
AcDbEntity
  8
0
 62
     0
370
    -2
100
AcDbLine
 10
0.5
 20
-0.5
 30
0.0
 11
-0.5
 21
-0.5
 31
0.0
  0
LINE
  5
41C
100
AcDbEntity
  8
0
 62
     0
370
    -2
100
AcDbLine
 10
-0.5
 20
-0.5
 30
0.0
 11
-0.5
 21
0.5
 31
0.0
  0
LINE
  5
41D
100
AcDbEntity
  8
0
 62
     0
370
    -2
100
AcDbLine
 10
0.0
 20
0.5
 30
0.0
 11
0.0
 21
-0.5
 31
0.0
  0
LINE
  5
41E
100
AcDbEntity
  8
0
 62
     0
370
    -2
100
AcDbLine
 10
-0.5
 20
0.0
 30
0.0
 11
0.5
 21
0.0
 31
0.0
  0
ENDBLK
  5
41F
100
AcDbEntity
100
AcDbBlockEnd
  0
BLOCK
  5
420
100
AcDbEntity
  8
0
100
AcDbBlockBegin
  2
CDWK_PTTYP8
 70
     0
 10
0.0
 20
0.0
 30
0.0
  3
CDWK_PTTYP8
  1

  4
Cadwork node
  0
SOLID
  5
421
100
AcDbEntity
  8
0
 62
     0
100
AcDbTrace
 10
-0.5
 20
0.5
 11
0.5
 21
0.5
 12
-0.5
 22
-0.5
 13
0.5
 23
-0.5
  0
ENDBLK
  5
422
100
AcDbEntity
100
AcDbBlockEnd
  0
BLOCK
  5
423
100
AcDbEntity
  8
0
100
AcDbBlockBegin
  2
CDWK_PTTYP9
 70
     0
 10
0.0
 20
0.0
 30
0.0
  3
CDWK_PTTYP9
  1

  4
Cadwork node
  0
CIRCLE
  5
424
100
AcDbEntity
  8
0
 62
     0
370
    -2
100
AcDbCircle
 10
0.0
 20
0.0
 30
0.0
 40
0.5
  0
CIRCLE
  5
425
100
AcDbEntity
  8
0
 62
     0
370
    -2
100
AcDbCircle
 10
0.0
 20
0.0
 30
0.0
 40
0.16666667
  0
ENDBLK
  5
426
100
AcDbEntity
100
AcDbBlockEnd
  0
BLOCK
  5
427
100
AcDbEntity
  8
0
100
AcDbBlockBegin
  2
CDWK_PTTYP10
 70
     0
 10
0.0
 20
0.0
 30
0.0
  3
CDWK_PTTYP10
  1

  4
Cadwork node
  0
CIRCLE
  5
428
100
AcDbEntity
  8
0
 62
     0
370
    -2
100
AcDbCircle
 10
0.0
 20
0.0
 30
0.0
 40
0.5
  0
ENDBLK
  5
429
100
AcDbEntity
100
AcDbBlockEnd
  0
BLOCK
  5
42A
100
AcDbEntity
  8
0
100
AcDbBlockBegin
  2
CDWK_PTTYP11
 70
     0
 10
0.0
 20
0.0
 30
0.0
  3
CDWK_PTTYP11
  1

  4
Cadwork node
  0
CIRCLE
  5
42B
100
AcDbEntity
  8
0
 62
     0
370
    -2
100
AcDbCircle
 10
0.0
 20
0.0
 30
0.0
 40
0.5
  0
CIRCLE
  5
42C
100
AcDbEntity
  8
0
 62
     0
370
    -2
100
AcDbCircle
 10
0.0
 20
0.0
 30
0.0
 40
0.25
  0
ENDBLK
  5
42D
100
AcDbEntity
100
AcDbBlockEnd
  0
BLOCK
  5
42E
100
AcDbEntity
  8
0
100
AcDbBlockBegin
  2
CDWK_PTTYP12
 70
     0
 10
0.0
 20
0.0
 30
0.0
  3
CDWK_PTTYP12
  1

  4
Cadwork node
  0
CIRCLE
  5
42F
100
AcDbEntity
  8
0
 62
     0
370
    -2
100
AcDbCircle
 10
0.0
 20
0.0
 30
0.0
 40
0.5
  0
CIRCLE
  5
430
100
AcDbEntity
  8
0
 62
     0
370
    -2
100
AcDbCircle
 10
0.25
 20
0.0
 30
0.0
 40
0.25
  0
ENDBLK
  5
431
100
AcDbEntity
100
AcDbBlockEnd
  0
BLOCK
  5
432
100
AcDbEntity
  8
0
100
AcDbBlockBegin
  2
CDWK_PTTYP13
 70
     0
 10
0.0
 20
0.0
 30
0.0
  3
CDWK_PTTYP13
  1

  4
Cadwork node
  0
CIRCLE
  5
433
100
AcDbEntity
  8
0
 62
     0
370
    -2
100
AcDbCircle
 10
0.0
 20
0.0
 30
0.0
 40
0.5
  0
CIRCLE
  5
434
100
AcDbEntity
  8
0
 62
     0
370
    -2
100
AcDbCircle
 10
0.25
 20
0.0
 30
0.0
 40
0.25
  0
CIRCLE
  5
435
100
AcDbEntity
  8
0
 62
     0
370
    -2
100
AcDbCircle
 10
-0.25
 20
0.0
 30
0.0
 40
0.25
  0
ENDBLK
  5
436
100
AcDbEntity
100
AcDbBlockEnd
  0
BLOCK
  5
437
100
AcDbEntity
  8
0
100
AcDbBlockBegin
  2
CDWK_PTTYP14
 70
     0
 10
0.0
 20
0.0
 30
0.0
  3
CDWK_PTTYP14
  1

  4
Cadwork node
  0
POINT
  5
438
100
AcDbEntity
  8
0
 62
     0
100
AcDbPoint
 10
0.0
 20
0.0
 30
0.0
  0
ENDBLK
  5
439
100
AcDbEntity
100
AcDbBlockEnd
  0
BLOCK
  5
43A
100
AcDbEntity
  8
0
100
AcDbBlockBegin
  2
CDWK_PTTYP15
 70
     0
 10
0.0
 20
0.0
 30
0.0
  3
CDWK_PTTYP15
  1

  4
Cadwork node
  0
POINT
  5
43B
100
AcDbEntity
  8
0
 62
     0
100
AcDbPoint
 10
0.0
 20
0.0
 30
0.0
  0
ENDBLK
  5
43C
100
AcDbEntity
100
AcDbBlockEnd
  0
BLOCK
  5
43D
100
AcDbEntity
  8
0
100
AcDbBlockBegin
  2
CDWK_PTTYP16
 70
     0
 10
0.0
 20
0.0
 30
0.0
  3
CDWK_PTTYP16
  1

  4
Cadwork node
  0
LINE
  5
43E
100
AcDbEntity
  8
0
 62
     0
370
    -2
100
AcDbLine
 10
-0.5
 20
-0.28867513
 30
0.0
 11
0.5
 21
-0.28867513
 31
0.0
  0
LINE
  5
43F
100
AcDbEntity
  8
0
 62
     0
370
    -2
100
AcDbLine
 10
0.5
 20
-0.28867513
 30
0.0
 11
0.0
 21
0.57735027
 31
0.0
  0
LINE
  5
440
100
AcDbEntity
  8
0
 62
     0
370
    -2
100
AcDbLine
 10
0.0
 20
0.57735027
 30
0.0
 11
-0.5
 21
-0.28867513
 31
0.0
  0
CIRCLE
  5
441
100
AcDbEntity
  8
0
 62
     0
370
    -2
100
AcDbCircle
 10
0.0
 20
0.0
 30
0.0
 40
0.28867513
  0
ENDBLK
  5
442
100
AcDbEntity
100
AcDbBlockEnd
  0
BLOCK
  5
443
100
AcDbEntity
  8
0
100
AcDbBlockBegin
  2
CDWK_PTTYP17
 70
     0
 10
0.0
 20
0.0
 30
0.0
  3
CDWK_PTTYP17
  1

  4
Cadwork node
  0
CIRCLE
  5
444
100
AcDbEntity
  8
0
 62
     0
370
    -2
100
AcDbCircle
 10
0.0
 20
0.0
 30
0.0
 40
0.5
  0
HATCH
  5
445
100
AcDbEntity
  8
0
 62
     0
370
    -2
100
AcDbHatch
 10
0.0
 20
0.0
 30
0.0
210
0.0
220
0.0
230
1.0
  2
SOLID
 70
     1
 71
     0
 91
        1
 92
        1
 93
        1
 72
     2
 10
0.0
 20
0.0
 40
0.25
 50
0.0
 51
360.0
 73
     1
 97
        0
 75
     0
 76
     1
 98
        1
 10
0.0
 20
0.0
  0
ENDBLK
  5
446
100
AcDbEntity
100
AcDbBlockEnd
  0
BLOCK
  5
447
100
AcDbEntity
  8
0
100
AcDbBlockBegin
  2
CDWK_PTTYP18
 70
     0
 10
0.0
 20
0.0
 30
0.0
  3
CDWK_PTTYP18
  1

  4
Cadwork node
  0
CIRCLE
  5
448
100
AcDbEntity
  8
0
 62
     0
370
    -2
100
AcDbCircle
 10
0.0
 20
0.0
 30
0.0
 40
0.5
  0
CIRCLE
  5
449
100
AcDbEntity
  8
0
 62
     0
370
    -2
100
AcDbCircle
 10
0.0
 20
0.0
 30
0.0
 40
0.2
  0
ENDBLK
  5
44A
100
AcDbEntity
100
AcDbBlockEnd
  0
BLOCK
  5
44B
100
AcDbEntity
  8
0
100
AcDbBlockBegin
  2
CDWK_PTTYP19
 70
     0
 10
0.0
 20
0.0
 30
0.0
  3
CDWK_PTTYP19
  1

  4
Cadwork node
  0
CIRCLE
  5
44C
100
AcDbEntity
  8
0
 62
     0
370
    -2
100
AcDbCircle
 10
0.0
 20
0.0
 30
0.0
 40
0.4
  0
CIRCLE
  5
44D
100
AcDbEntity
  8
0
 62
     0
370
    -2
100
AcDbCircle
 10
0.0
 20
0.0
 30
0.0
 40
0.25
  0
LINE
  5
44E
100
AcDbEntity
  8
0
 62
     0
370
    -2
100
AcDbLine
 10
-0.25
 20
0.0
 30
0.0
 11
0.25
 21
0.0
 31
0.0
  0
ENDBLK
  5
44F
100
AcDbEntity
100
AcDbBlockEnd
  0
BLOCK
  5
450
100
AcDbEntity
  8
0
100
AcDbBlockBegin
  2
CDWK_PTTYP20
 70
     0
 10
0.0
 20
0.0
 30
0.0
  3
CDWK_PTTYP20
  1

  4
Cadwork node
  0
CIRCLE
  5
451
100
AcDbEntity
  8
0
 62
     0
370
    -2
100
AcDbCircle
 10
0.0
 20
0.0
 30
0.0
 40
0.5
  0
CIRCLE
  5
452
100
AcDbEntity
  8
0
 62
     0
370
    -2
100
AcDbCircle
 10
0.0
 20
0.0
 30
0.0
 40
0.3
  0
ENDBLK
  5
453
100
AcDbEntity
100
AcDbBlockEnd
  0
BLOCK
  5
454
100
AcDbEntity
  8
0
100
AcDbBlockBegin
  2
CDWK_PTTYP21
 70
     0
 10
0.0
 20
0.0
 30
0.0
  3
CDWK_PTTYP21
  1

  4
Cadwork node
  0
CIRCLE
  5
455
100
AcDbEntity
  8
0
 62
     0
370
    -2
100
AcDbCircle
 10
0.0
 20
0.0
 30
0.0
 40
0.5
  0
LINE
  5
456
100
AcDbEntity
  8
0
 62
     0
370
    -2
100
AcDbLine
 10
-0.5
 20
0.0
 30
0.0
 11
0.5
 21
0.0
 31
0.0
  0
ENDBLK
  5
457
100
AcDbEntity
100
AcDbBlockEnd
  0
BLOCK
  5
458
100
AcDbEntity
  8
0
100
AcDbBlockBegin
  2
CDWK_PTTYP22
 70
     0
 10
0.0
 20
0.0
 30
0.0
  3
CDWK_PTTYP22
  1

  4
Cadwork node
  0
POINT
  5
459
100
AcDbEntity
  8
0
 62
     0
100
AcDbPoint
 10
0.0
 20
0.0
 30
0.0
  0
ENDBLK
  5
45A
100
AcDbEntity
100
AcDbBlockEnd
  0
BLOCK
  5
45B
100
AcDbEntity
  8
0
100
AcDbBlockBegin
  2
CDWK_PTTYP23
 70
     0
 10
0.0
 20
0.0
 30
0.0
  3
CDWK_PTTYP23
  1

  4
Cadwork node
  0
POINT
  5
45C
100
AcDbEntity
  8
0
 62
     0
100
AcDbPoint
 10
0.0
 20
0.0
 30
0.0
  0
ENDBLK
  5
45D
100
AcDbEntity
100
AcDbBlockEnd
  0
BLOCK
  5
45E
100
AcDbEntity
  8
0
100
AcDbBlockBegin
  2
CDWK_PTTYP24
 70
     0
 10
0.0
 20
0.0
 30
0.0
  3
CDWK_PTTYP24
  1

  4
Cadwork node
  0
POINT
  5
45F
100
AcDbEntity
  8
0
 62
     0
100
AcDbPoint
 10
0.0
 20
0.0
 30
0.0
  0
ENDBLK
  5
460
100
AcDbEntity
100
AcDbBlockEnd
  0
BLOCK
  5
461
100
AcDbEntity
  8
0
100
AcDbBlockBegin
  2
CDWK_PTTYP25
 70
     0
 10
0.0
 20
0.0
 30
0.0
  3
CDWK_PTTYP25
  1

  4
Cadwork node
  0
LINE
  5
462
100
AcDbEntity
  8
0
 62
     0
370
    -2
100
AcDbLine
 10
-0.43290044
 20
-0.25
 30
0.0
 11
0.43290044
 21
-0.25
 31
0.0
  0
LINE
  5
463
100
AcDbEntity
  8
0
 62
     0
370
    -2
100
AcDbLine
 10
-0.43290044
 20
-0.25
 30
0.0
 11
0.0
 21
0.5
 31
0.0
  0
LINE
  5
464
100
AcDbEntity
  8
0
 62
     0
370
    -2
100
AcDbLine
 10
0.43290044
 20
-0.25
 30
0.0
 11
0.0
 21
0.5
 31
0.0
  0
CIRCLE
  5
465
100
AcDbEntity
  8
0
 62
     0
370
    -2
100
AcDbCircle
 10
0.0
 20
0.0
 30
0.0
 40
0.5
  0
ENDBLK
  5
466
100
AcDbEntity
100
AcDbBlockEnd
  0
BLOCK
  5
467
100
AcDbEntity
  8
0
100
AcDbBlockBegin
  2
CDWK_PTTYP26
 70
     0
 10
0.0
 20
0.0
 30
0.0
  3
CDWK_PTTYP26
  1

  4
Cadwork node
  0
LINE
  5
468
100
AcDbEntity
  8
0
 62
     0
370
    -2
100
AcDbLine
 10
-0.5
 20
-0.28850001
 30
0.0
 11
0.5
 21
-0.28850001
 31
0.0
  0
LINE
  5
469
100
AcDbEntity
  8
0
 62
     0
370
    -2
100
AcDbLine
 10
-0.5
 20
-0.28850001
 30
0.0
 11
0.0
 21
0.57736721
 31
0.0
  0
LINE
  5
46A
100
AcDbEntity
  8
0
 62
     0
370
    -2
100
AcDbLine
 10
0.5
 20
-0.28850001
 30
0.0
 11
0.0
 21
0.57736721
 31
0.0
  0
CIRCLE
  5
46B
100
AcDbEntity
  8
0
 62
     0
370
    -2
100
AcDbCircle
 10
0.0
 20
0.0
 30
0.0
 40
0.1312336
  0
ENDBLK
  5
46C
100
AcDbEntity
100
AcDbBlockEnd
  0
BLOCK
  5
46D
100
AcDbEntity
  8
0
100
AcDbBlockBegin
  2
CDWK_PTTYP27
 70
     0
 10
0.0
 20
0.0
 30
0.0
  3
CDWK_PTTYP27
  1

  4
Cadwork node
  0
LINE
  5
46E
100
AcDbEntity
  8
0
 62
     0
370
    -2
100
AcDbLine
 10
-0.43290044
 20
-0.25
 30
0.0
 11
0.43290044
 21
-0.25
 31
0.0
  0
LINE
  5
46F
100
AcDbEntity
  8
0
 62
     0
370
    -2
100
AcDbLine
 10
-0.43290044
 20
-0.25
 30
0.0
 11
0.0
 21
0.5
 31
0.0
  0
LINE
  5
470
100
AcDbEntity
  8
0
 62
     0
370
    -2
100
AcDbLine
 10
0.43290044
 20
-0.25
 30
0.0
 11
0.0
 21
0.5
 31
0.0
  0
CIRCLE
  5
471
100
AcDbEntity
  8
0
 62
     0
370
    -2
100
AcDbCircle
 10
0.0
 20
0.0
 30
0.0
 40
0.5
  0
CIRCLE
  5
472
100
AcDbEntity
  8
0
 62
     0
370
    -2
100
AcDbCircle
 10
0.0
 20
0.0
 30
0.0
 40
0.1312336
  0
ENDBLK
  5
473
100
AcDbEntity
100
AcDbBlockEnd
  0
BLOCK
  5
474
100
AcDbEntity
  8
0
100
AcDbBlockBegin
  2
CDWK_PTTYP28
 70
     0
 10
0.0
 20
0.0
 30
0.0
  3
CDWK_PTTYP28
  1

  4
Cadwork node
  0
POINT
  5
475
100
AcDbEntity
  8
0
 62
     0
100
AcDbPoint
 10
0.0
 20
0.0
 30
0.0
  0
ENDBLK
  5
476
100
AcDbEntity
100
AcDbBlockEnd
  0
BLOCK
  5
477
100
AcDbEntity
  8
0
100
AcDbBlockBegin
  2
CDWK_PTTYP29
 70
     0
 10
0.0
 20
0.0
 30
0.0
  3
CDWK_PTTYP29
  1

  4
Cadwork node
  0
CIRCLE
  5
478
100
AcDbEntity
  8
0
 62
     0
370
    -2
100
AcDbCircle
 10
0.0
 20
0.0
 30
0.0
 40
0.5
  0
CIRCLE
  5
479
100
AcDbEntity
  8
0
 62
     0
370
    -2
100
AcDbCircle
 10
0.0
 20
0.0
 30
0.0
 40
0.375
  0
CIRCLE
  5
47A
100
AcDbEntity
  8
0
 62
     0
370
    -2
100
AcDbCircle
 10
0.0
 20
0.0
 30
0.0
 40
0.21875
  0
ENDBLK
  5
47B
100
AcDbEntity
100
AcDbBlockEnd
  0
BLOCK
  5
47C
100
AcDbEntity
  8
0
100
AcDbBlockBegin
  2
CDWK_PTTYP30
 70
     0
 10
0.0
 20
0.0
 30
0.0
  3
CDWK_PTTYP30
  1

  4
Cadwork node
  0
LINE
  5
47D
100
AcDbEntity
  8
0
 62
     0
370
    -2
100
AcDbLine
 10
0.17680339
 20
0.17680339
 30
0.0
 11
0.5
 21
0.5
 31
0.0
  0
LINE
  5
47E
100
AcDbEntity
  8
0
 62
     0
370
    -2
100
AcDbLine
 10
-0.17680339
 20
0.17680339
 30
0.0
 11
-0.5
 21
0.5
 31
0.0
  0
LINE
  5
47F
100
AcDbEntity
  8
0
 62
     0
370
    -2
100
AcDbLine
 10
0.17680339
 20
-0.17680339
 30
0.0
 11
0.5
 21
-0.5
 31
0.0
  0
LINE
  5
480
100
AcDbEntity
  8
0
 62
     0
370
    -2
100
AcDbLine
 10
-0.17680339
 20
-0.17680339
 30
0.0
 11
-0.5
 21
-0.5
 31
0.0
  0
ENDBLK
  5
481
100
AcDbEntity
100
AcDbBlockEnd
  0
BLOCK
  5
482
100
AcDbEntity
  8
0
100
AcDbBlockBegin
  2
CDWK_PTTYP31
 70
     0
 10
0.0
 20
0.0
 30
0.0
  3
CDWK_PTTYP31
  1

  4
Cadwork node
  0
CIRCLE
  5
483
100
AcDbEntity
  8
0
 62
     0
370
    -2
100
AcDbCircle
 10
0.0
 20
0.0
 30
0.0
 40
0.075
  0
LINE
  5
484
100
AcDbEntity
  8
0
 62
     0
370
    -2
100
AcDbLine
 10
0.075
 20
0.0
 30
0.0
 11
0.5
 21
0.0
 31
0.0
  0
LINE
  5
485
100
AcDbEntity
  8
0
 62
     0
370
    -2
100
AcDbLine
 10
-0.075
 20
0.0
 30
0.0
 11
-0.5
 21
0.0
 31
0.0
  0
LINE
  5
486
100
AcDbEntity
  8
0
 62
     0
370
    -2
100
AcDbLine
 10
0.0
 20
0.075
 30
0.0
 11
0.0
 21
0.5
 31
0.0
  0
LINE
  5
487
100
AcDbEntity
  8
0
 62
     0
370
    -2
100
AcDbLine
 10
0.0
 20
-0.075
 30
0.0
 11
0.0
 21
-0.5
 31
0.0
  0
ENDBLK
  5
488
100
AcDbEntity
100
AcDbBlockEnd
  0
BLOCK
  5
489
100
AcDbEntity
  8
0
100
AcDbBlockBegin
  2
CDWK_PTTYP32
 70
     0
 10
0.0
 20
0.0
 30
0.0
  3
CDWK_PTTYP32
  1

  4
Cadwork node
  0
CIRCLE
  5
48A
100
AcDbEntity
  8
0
 62
     0
370
    -2
100
AcDbCircle
 10
0.0
 20
0.0
 30
0.0
 40
0.5
  0
CIRCLE
  5
48B
100
AcDbEntity
  8
0
 62
     0
370
    -2
100
AcDbCircle
 10
0.0
 20
0.0
 30
0.0
 40
0.16666667
  0
LINE
  5
48C
100
AcDbEntity
  8
0
 62
     0
370
    -2
100
AcDbLine
 10
0.11786893
 20
0.11786893
 30
0.0
 11
0.35360678
 21
0.35360678
 31
0.0
  0
LINE
  5
48D
100
AcDbEntity
  8
0
 62
     0
370
    -2
100
AcDbLine
 10
-0.11786893
 20
0.11786893
 30
0.0
 11
-0.35360678
 21
0.35360678
 31
0.0
  0
LINE
  5
48E
100
AcDbEntity
  8
0
 62
     0
370
    -2
100
AcDbLine
 10
0.11786893
 20
-0.11786893
 30
0.0
 11
0.35360678
 21
-0.35360678
 31
0.0
  0
LINE
  5
48F
100
AcDbEntity
  8
0
 62
     0
370
    -2
100
AcDbLine
 10
-0.11786893
 20
-0.11786893
 30
0.0
 11
-0.35360678
 21
-0.35360678
 31
0.0
  0
ENDBLK
  5
490
100
AcDbEntity
100
AcDbBlockEnd
  0
BLOCK
  5
491
100
AcDbEntity
  8
0
100
AcDbBlockBegin
  2
CDWK_PTTYP33
 70
     0
 10
0.0
 20
0.0
 30
0.0
  3
CDWK_PTTYP33
  1

  4
Cadwork node
  0
CIRCLE
  5
492
100
AcDbEntity
  8
0
 62
     0
370
    -2
100
AcDbCircle
 10
0.0
 20
0.0
 30
0.0
 40
0.5
  0
LINE
  5
493
100
AcDbEntity
  8
0
 62
     0
370
    -2
100
AcDbLine
 10
0.0
 20
0.5
 30
0.0
 11
0.0
 21
-0.5
 31
0.0
  0
LINE
  5
494
100
AcDbEntity
  8
0
 62
     0
370
    -2
100
AcDbLine
 10
-0.5
 20
0.0
 30
0.0
 11
0.5
 21
0.0
 31
0.0
  0
ENDBLK
  5
495
100
AcDbEntity
100
AcDbBlockEnd
  0
BLOCK
  5
496
100
AcDbEntity
  8
0
100
AcDbBlockBegin
  2
CDWK_PTTYP34
 70
     0
 10
0.0
 20
0.0
 30
0.0
  3
CDWK_PTTYP34
  1

  4
Cadwork node
  0
CIRCLE
  5
497
100
AcDbEntity
  8
0
 62
     0
370
    -2
100
AcDbCircle
 10
0.0
 20
0.0
 30
0.0
 40
0.5
  0
LINE
  5
498
100
AcDbEntity
  8
0
 62
     0
370
    -2
100
AcDbLine
 10
-0.30360678
 20
-0.40360678
 30
0.0
 11
0.40360678
 21
0.30360678
 31
0.0
  0
LINE
  5
499
100
AcDbEntity
  8
0
 62
     0
370
    -2
100
AcDbLine
 10
-0.40360678
 20
-0.30360678
 30
0.0
 11
0.30360678
 21
0.40360678
 31
0.0
  0
ENDBLK
  5
49A
100
AcDbEntity
100
AcDbBlockEnd
  0
BLOCK
  5
49B
100
AcDbEntity
  8
0
100
AcDbBlockBegin
  2
CDWK_PTTYP35
 70
     0
 10
0.0
 20
0.0
 30
0.0
  3
CDWK_PTTYP35
  1

  4
Cadwork node
  0
CIRCLE
  5
49C
100
AcDbEntity
  8
0
 62
     0
370
    -2
100
AcDbCircle
 10
0.0
 20
0.0
 30
0.0
 40
0.21431634
  0
LINE
  5
49D
100
AcDbEntity
  8
0
 62
     0
370
    -2
100
AcDbLine
 10
0.0
 20
0.21431634
 30
0.0
 11
0.0
 21
0.5
 31
0.0
  0
LINE
  5
49E
100
AcDbEntity
  8
0
 62
     0
370
    -2
100
AcDbLine
 10
0.0
 20
-0.21431634
 30
0.0
 11
0.0
 21
-0.5
 31
0.0
  0
ENDBLK
  5
49F
100
AcDbEntity
100
AcDbBlockEnd
  0
BLOCK
  5
4A0
100
AcDbEntity
  8
0
100
AcDbBlockBegin
  2
CDWK_PTTYP36
 70
     0
 10
0.0
 20
0.0
 30
0.0
  3
CDWK_PTTYP36
  1

  4
Cadwork node
  0
LINE
  5
4A1
100
AcDbEntity
  8
0
 62
     0
370
    -2
100
AcDbLine
 10
-0.5
 20
-0.16666667
 30
0.0
 11
0.5
 21
-0.16666667
 31
0.0
  0
LINE
  5
4A2
100
AcDbEntity
  8
0
 62
     0
370
    -2
100
AcDbLine
 10
0.5
 20
-0.16666667
 30
0.0
 11
0.5
 21
0.16666667
 31
0.0
  0
LINE
  5
4A3
100
AcDbEntity
  8
0
 62
     0
370
    -2
100
AcDbLine
 10
0.5
 20
0.16666667
 30
0.0
 11
-0.5
 21
0.16666667
 31
0.0
  0
LINE
  5
4A4
100
AcDbEntity
  8
0
 62
     0
370
    -2
100
AcDbLine
 10
-0.5
 20
0.16666667
 30
0.0
 11
-0.5
 21
-0.16666667
 31
0.0
  0
SOLID
  5
4A5
100
AcDbEntity
  8
0
 62
     0
100
AcDbTrace
 10
-0.5
 20
-0.16666667
 11
0.5
 21
0.16666667
 12
0.5
 22
-0.16666667
 13
0.5
 23
-0.16666667
  0
ENDBLK
  5
4A6
100
AcDbEntity
100
AcDbBlockEnd
  0
BLOCK
  5
4A7
100
AcDbEntity
  8
0
100
AcDbBlockBegin
  2
CDWK_PTTYP37
 70
     0
 10
0.0
 20
0.0
 30
0.0
  3
CDWK_PTTYP37
  1

  4
Cadwork node
  0
CIRCLE
  5
4A8
100
AcDbEntity
  8
0
 62
     0
370
    -2
100
AcDbCircle
 10
0.0
 20
0.0
 30
0.0
 40
0.5
  0
SOLID
  5
4A9
100
AcDbEntity
  8
0
 62
     0
100
AcDbTrace
 10
0.0
 20
0.0
 11
0.35350001
 21
0.35350001
 12
0.5
 22
0.0
 13
0.46200001
 23
0.19149999
  0
SOLID
  5
4AA
100
AcDbEntity
  8
0
 62
     0
100
AcDbTrace
 10
0.0
 20
0.0
 11
0.35350001
 21
-0.35350001
 12
0.5
 22
0.0
 13
0.46200001
 23
-0.19149999
  0
SOLID
  5
4AB
100
AcDbEntity
  8
0
 62
     0
100
AcDbTrace
 10
0.0
 20
0.0
 11
0.0
 21
-0.5
 12
0.35350001
 22
-0.35350001
 13
0.19149999
 23
-0.46200001
  0
SOLID
  5
4AC
100
AcDbEntity
  8
0
 62
     0
100
AcDbTrace
 10
0.0
 20
0.0
 11
0.0
 21
-0.5
 12
-0.35350001
 22
-0.35350001
 13
-0.19149999
 23
-0.46200001
  0
ENDBLK
  5
4AD
100
AcDbEntity
100
AcDbBlockEnd
  0
BLOCK
  5
4AE
100
AcDbEntity
  8
0
100
AcDbBlockBegin
  2
CDWK_PTTYP38
 70
     0
 10
0.0
 20
0.0
 30
0.0
  3
CDWK_PTTYP38
  1

  4
Cadwork node
  0
CIRCLE
  5
4AF
100
AcDbEntity
  8
0
 62
     0
370
    -2
100
AcDbCircle
 10
0.0
 20
0.0
 30
0.0
 40
0.5
  0
SOLID
  5
4B0
100
AcDbEntity
  8
0
 62
     0
100
AcDbTrace
 10
0.0
 20
0.0
 11
0.35350001
 21
0.35350001
 12
0.0
 22
0.5
 13
0.19149999
 23
0.46200001
  0
SOLID
  5
4B1
100
AcDbEntity
  8
0
 62
     0
100
AcDbTrace
 10
0.0
 20
0.0
 11
0.5
 21
0.0
 12
0.35350001
 22
0.35350001
 13
0.46200001
 23
0.19149999
  0
SOLID
  5
4B2
100
AcDbEntity
  8
0
 62
     0
100
AcDbTrace
 10
0.0
 20
0.0
 11
0.0
 21
-0.5
 12
-0.35350001
 22
-0.35350001
 13
-0.19149999
 23
-0.46200001
  0
SOLID
  5
4B3
100
AcDbEntity
  8
0
 62
     0
100
AcDbTrace
 10
0.0
 20
0.0
 11
-0.5
 21
0.0
 12
-0.35350001
 22
-0.35350001
 13
-0.46200001
 23
-0.19149999
  0
ENDBLK
  5
4B4
100
AcDbEntity
100
AcDbBlockEnd
  0
ENDSEC
  0
SECTION
  2
ENTITIES
  0
LWPOLYLINE
  5
4B5
100
AcDbEntity
  8
Ech.1_5
 62
   253
  6
CONTINUOUS
370
    15
100
AcDbPolyline
 90
        4
 70
     1
 43
0.0
 10
35831.08165756
 20
-30430.76011943
 10
35844.08165756
 20
-30430.76011943
 10
35844.08165756
 20
-29679.68148212
 10
35831.08165756
 20
-29679.68148212
  0
LWPOLYLINE
  5
4B6
100
AcDbEntity
  8
Ech.1_5
 62
   190
  6
CONTINUOUS
370
    -3
100
AcDbPolyline
 90
        9
 70
     1
 43
0.0
 10
35964.9618832
 20
-30430.76137081
 10
35948.47552932
 20
-30412.78301921
 10
35962.5854689
 20
-30448.73871922
 10
35946.0999657
 20
-30430.76137081
 10
35884.08020366
 20
-30430.7634256
 10
35884.08190979
 20
-30153.11517332
 10
35884.08161116
 20
-29679.68504009
 10
36029.08165757
 20
-29679.68504009
 10
36029.08165757
 20
-30430.76288224
  0
LWPOLYLINE
  5
4B7
100
AcDbEntity
  8
Ech.1_5
 62
   190
  6
CONTINUOUS
370
    -3
100
AcDbPolyline
 90
       10
 70
     1
 43
0.0
 10
36721.58327405
 20
-29879.68148212
 10
36721.58327405
 20
-29829.42463196
 10
36703.60492245
 20
-29812.93827788
 10
36739.56062237
 20
-29827.0482179
 10
36721.58327405
 20
-29810.56271474
 10
36721.58327405
 20
-29779.68148212
 10
36168.2422864
 20
-29779.68148212
 10
36168.2422864
 20
-29827.04906882
 10
36168.2422864
 20
-29879.68148212
 10
36242.02718505
 20
-29879.68148212
  0
LWPOLYLINE
  5
4B8
100
AcDbEntity
  8
Ech.1_5
 62
   190
  6
CONTINUOUS
370
    -3
100
AcDbPolyline
 90
       64
 70
     0
 43
0.0
 10
36168.2422864
 20
-29862.77048745
 42
1.14028181
 10
36201.48804494
 20
-29858.3935901
 10
36185.72951189
 20
-29799.50340611
 42
-1.30322619
 10
36218.39903961
 20
-29799.50340611
 10
36202.64050656
 20
-29858.3935901
 42
1.30322619
 10
36235.31003428
 20
-29858.3935901
 10
36219.55150123
 20
-29799.50340611
 42
-1.30322619
 10
36252.22102895
 20
-29799.50340611
 10
36236.4624959
 20
-29858.3935901
 42
1.30322619
 10
36269.13202363
 20
-29858.3935901
 10
36253.37349058
 20
-29799.50340611
 42
-1.30322619
 10
36286.0430183
 20
-29799.50340611
 10
36270.28448525
 20
-29858.3935901
 42
1.30322619
 10
36302.95401297
 20
-29858.3935901
 10
36287.19547992
 20
-29799.50340611
 42
-1.30322619
 10
36319.86500765
 20
-29799.50340611
 10
36304.10647459
 20
-29858.3935901
 42
1.30322619
 10
36336.77600232
 20
-29858.3935901
 10
36321.01746927
 20
-29799.50340611
 42
-1.30322619
 10
36353.68699699
 20
-29799.50340611
 10
36337.92846394
 20
-29858.3935901
 42
1.30322619
 10
36370.59799166
 20
-29858.3935901
 10
36354.83945861
 20
-29799.50340611
 42
-1.30322619
 10
36387.50898634
 20
-29799.50340611
 10
36371.75045328
 20
-29858.3935901
 42
1.30322619
 10
36404.41998101
 20
-29858.3935901
 10
36388.66144796
 20
-29799.50340611
 42
-1.30322619
 10
36421.33097568
 20
-29799.50340611
 10
36405.57244263
 20
-29858.3935901
 42
1.30322619
 10
36438.24197035
 20
-29858.3935901
 10
36422.4834373
 20
-29799.50340611
 42
-1.30322619
 10
36455.15296503
 20
-29799.50340611
 10
36439.39443198
 20
-29858.3935901
 42
1.30322619
 10
36472.0639597
 20
-29858.3935901
 10
36456.30542665
 20
-29799.50340611
 42
-1.30322619
 10
36488.97495437
 20
-29799.50340611
 10
36473.21642132
 20
-29858.3935901
 42
1.30322619
 10
36505.88594904
 20
-29858.3935901
 10
36490.12741599
 20
-29799.50340611
 42
-1.30322619
 10
36522.79694372
 20
-29799.50340611
 10
36507.03841067
 20
-29858.3935901
 42
1.30322619
 10
36539.70793839
 20
-29858.3935901
 10
36523.94940534
 20
-29799.50340611
 42
-1.30322619
 10
36556.61893306
 20
-29799.50340611
 10
36540.86040001
 20
-29858.3935901
 42
1.30322619
 10
36573.52992774
 20
-29858.3935901
 10
36557.77139468
 20
-29799.50340611
 42
-1.30322619
 10
36590.44092241
 20
-29799.50340611
 10
36574.68238936
 20
-29858.3935901
 42
1.30322619
 10
36607.35191708
 20
-29858.3935901
 10
36591.59338403
 20
-29799.50340611
 42
-1.30322619
 10
36624.26291175
 20
-29799.50340611
 10
36608.5043787
 20
-29858.3935901
 42
1.30322619
 10
36641.17390643
 20
-29858.3935901
 10
36625.41537338
 20
-29799.50340611
 42
-1.30322619
 10
36658.0849011
 20
-29799.50340611
 10
36642.32636805
 20
-29858.3935901
 42
1.30322619
 10
36674.99589577
 20
-29858.3935901
 10
36659.23736272
 20
-29799.50340611
 42
-1.30322619
 10
36691.90689044
 20
-29799.50340611
 10
36676.14835739
 20
-29858.3935901
 42
1.30322619
 10
36708.81788512
 20
-29858.3935901
 10
36693.05935207
 20
-29799.50340611
 42
-0.775115
 10
36721.58327405
 20
-29783.40447117
  0
LWPOLYLINE
  5
4B9
100
AcDbEntity
  8
Ech.1_5
 62
   190
  6
CONTINUOUS
370
    -3
100
AcDbPolyline
 90
        4
 70
     1
 43
0.0
 10
35884.08165756
 20
-30430.76011943
 10
35884.08165756
 20
-29679.68148212
 10
35844.08165756
 20
-29679.68148212
 10
35844.08165756
 20
-30430.76011943
  0
LWPOLYLINE
  5
4BA
100
AcDbEntity
  8
Ech.1_5
 62
   190
  6
CONTINUOUS
370
    -3
100
AcDbPolyline
 90
      224
 70
     0
 43
0.0
 10
35850.74751575
 20
-29679.68148212
 42
1.14028181
 10
35852.47277068
 20
-29692.78606384
 10
35875.68569355
 20
-29686.57447496
 42
-1.30322619
 10
35875.68569355
 20
-29699.45192203
 10
35852.47277068
 20
-29693.24033314
 42
1.30322619
 10
35852.47277068
 20
-29706.11778021
 10
35875.68569355
 20
-29699.90619133
 42
-1.30322619
 10
35875.68569355
 20
-29712.7836384
 10
35852.47277068
 20
-29706.57204952
 42
1.30322619
 10
35852.47277068
 20
-29719.44949659
 10
35875.68569355
 20
-29713.2379077
 42
-1.30322619
 10
35875.68569355
 20
-29726.11535477
 10
35852.47277068
 20
-29719.90376589
 42
1.30322619
 10
35852.47277068
 20
-29732.78121296
 10
35875.68569355
 20
-29726.56962407
 42
-1.30322619
 10
35875.68569355
 20
-29739.44707114
 10
35852.47277068
 20
-29733.23548226
 42
1.30322619
 10
35852.47277068
 20
-29746.11292933
 10
35875.68569355
 20
-29739.90134045
 42
-1.30322619
 10
35875.68569355
 20
-29752.77878752
 10
35852.47277068
 20
-29746.56719863
 42
1.30322619
 10
35852.47277068
 20
-29759.4446457
 10
35875.68569355
 20
-29753.23305682
 42
-1.30322619
 10
35875.68569355
 20
-29766.11050389
 10
35852.47277068
 20
-29759.898915
 42
1.30322619
 10
35852.47277068
 20
-29772.77636207
 10
35875.68569355
 20
-29766.56477319
 42
-1.30322619
 10
35875.68569355
 20
-29779.44222026
 10
35852.47277068
 20
-29773.23063138
 42
1.30322619
 10
35852.47277068
 20
-29786.10807845
 10
35875.68569355
 20
-29779.89648956
 42
-1.30322619
 10
35875.68569355
 20
-29792.77393663
 10
35852.47277068
 20
-29786.56234775
 42
1.30322619
 10
35852.47277068
 20
-29799.43979482
 10
35875.68569355
 20
-29793.22820593
 42
-1.30322619
 10
35875.68569355
 20
-29806.105653
 10
35852.47277068
 20
-29799.89406412
 42
1.30322619
 10
35852.47277068
 20
-29812.77151119
 10
35875.68569355
 20
-29806.5599223
 42
-1.30322619
 10
35875.68569355
 20
-29819.43736938
 10
35852.47277068
 20
-29813.22578049
 42
1.30322619
 10
35852.47277068
 20
-29826.10322756
 10
35875.68569355
 20
-29819.89163868
 42
-1.30322619
 10
35875.68569355
 20
-29832.76908575
 10
35852.47277068
 20
-29826.55749686
 42
1.30322619
 10
35852.47277068
 20
-29839.43494393
 10
35875.68569355
 20
-29833.22335505
 42
-1.30322619
 10
35875.68569355
 20
-29846.10080212
 10
35852.47277068
 20
-29839.88921323
 42
1.30322619
 10
35852.47277068
 20
-29852.76666031
 10
35875.68569355
 20
-29846.55507142
 42
-1.30322619
 10
35875.68569355
 20
-29859.43251849
 10
35852.47277068
 20
-29853.22092961
 42
1.30322619
 10
35852.47277068
 20
-29866.09837668
 10
35875.68569355
 20
-29859.88678779
 42
-1.30322619
 10
35875.68569355
 20
-29872.76423486
 10
35852.47277068
 20
-29866.55264598
 42
1.30322619
 10
35852.47277068
 20
-29879.43009305
 10
35875.68569355
 20
-29873.21850416
 42
-1.30322619
 10
35875.68569355
 20
-29886.09595124
 10
35852.47277068
 20
-29879.88436235
 42
1.30322619
 10
35852.47277068
 20
-29892.76180942
 10
35875.68569355
 20
-29886.55022054
 42
-1.30322619
 10
35875.68569355
 20
-29899.42766761
 10
35852.47277068
 20
-29893.21607872
 42
1.30322619
 10
35852.47277068
 20
-29906.09352579
 10
35875.68569355
 20
-29899.88193691
 42
-1.30322619
 10
35875.68569355
 20
-29912.75938398
 10
35852.47277068
 20
-29906.54779509
 42
1.30322619
 10
35852.47277068
 20
-29919.42524216
 10
35875.68569355
 20
-29913.21365328
 42
-1.30322619
 10
35875.68569355
 20
-29926.09110035
 10
35852.47277068
 20
-29919.87951147
 42
1.30322619
 10
35852.47277068
 20
-29932.75695854
 10
35875.68569355
 20
-29926.54536965
 42
-1.30322619
 10
35875.68569355
 20
-29939.42281672
 10
35852.47277068
 20
-29933.21122784
 42
1.30322619
 10
35852.47277068
 20
-29946.08867491
 10
35875.68569355
 20
-29939.87708602
 42
-1.30322619
 10
35875.68569355
 20
-29952.75453309
 10
35852.47277068
 20
-29946.54294421
 42
1.30322619
 10
35852.47277068
 20
-29959.42039128
 10
35875.68569355
 20
-29953.2088024
 42
-1.30322619
 10
35875.68569355
 20
-29966.08624947
 10
35852.47277068
 20
-29959.87466058
 42
1.30322619
 10
35852.47277068
 20
-29972.75210765
 10
35875.68569355
 20
-29966.54051877
 42
-1.30322619
 10
35875.68569355
 20
-29979.41796584
 10
35852.47277068
 20
-29973.20637695
 42
1.30322619
 10
35852.47277068
 20
-29986.08382402
 10
35875.68569355
 20
-29979.87223514
 42
-1.30322619
 10
35875.68569355
 20
-29992.74968221
 10
35852.47277068
 20
-29986.53809333
 42
1.30322619
 10
35852.47277068
 20
-29999.4155404
 10
35875.68569355
 20
-29993.20395151
 42
-1.30322619
 10
35875.68569355
 20
-30006.08139858
 10
35852.47277068
 20
-29999.8698097
 42
1.30322619
 10
35852.47277068
 20
-30012.74725677
 10
35875.68569355
 20
-30006.53566788
 42
-1.30322619
 10
35875.68569355
 20
-30019.41311495
 10
35852.47277068
 20
-30013.20152607
 42
1.30322619
 10
35852.47277068
 20
-30026.07897314
 10
35875.68569355
 20
-30019.86738426
 42
-1.30322619
 10
35875.68569355
 20
-30032.74483133
 10
35852.47277068
 20
-30026.53324244
 42
1.30322619
 10
35852.47277068
 20
-30039.41068951
 10
35875.68569355
 20
-30033.19910063
 42
-1.30322619
 10
35875.68569355
 20
-30046.0765477
 10
35852.47277068
 20
-30039.86495881
 42
1.30322619
 10
35852.47277068
 20
-30052.74240588
 10
35875.68569355
 20
-30046.530817
 42
-1.30322619
 10
35875.68569355
 20
-30059.40826407
 10
35852.47277068
 20
-30053.19667519
 42
1.30322619
 10
35852.47277068
 20
-30066.07412226
 10
35875.68569355
 20
-30059.86253337
 42
-1.30322619
 10
35875.68569355
 20
-30072.73998044
 10
35852.47277068
 20
-30066.52839156
 42
1.30322619
 10
35852.47277068
 20
-30079.40583863
 10
35875.68569355
 20
-30073.19424974
 42
-1.30322619
 10
35875.68569355
 20
-30086.07169681
 10
35852.47277068
 20
-30079.86010793
 42
1.30322619
 10
35852.47277068
 20
-30092.737555
 10
35875.68569355
 20
-30086.52596612
 42
-1.30322619
 10
35875.68569355
 20
-30099.40341319
 10
35852.47277068
 20
-30093.1918243
 42
1.30322619
 10
35852.47277068
 20
-30106.06927137
 10
35875.68569355
 20
-30099.85768249
 42
-1.30322619
 10
35875.68569355
 20
-30112.73512956
 10
35852.47277068
 20
-30106.52354067
 42
1.30322619
 10
35852.47277068
 20
-30119.40098774
 10
35875.68569355
 20
-30113.18939886
 42
-1.30322619
 10
35875.68569355
 20
-30126.06684593
 10
35852.47277068
 20
-30119.85525705
 42
1.30322619
 10
35852.47277068
 20
-30132.73270412
 10
35875.68569355
 20
-30126.52111523
 42
-1.30322619
 10
35875.68569355
 20
-30139.3985623
 10
35852.47277068
 20
-30133.18697342
 42
1.30322619
 10
35852.47277068
 20
-30146.06442049
 10
35875.68569355
 20
-30139.8528316
 42
-1.30322619
 10
35875.68569355
 20
-30152.73027867
 10
35852.47277068
 20
-30146.51868979
 42
1.30322619
 10
35852.47277068
 20
-30159.39613686
 10
35875.68569355
 20
-30153.18454797
 42
-1.30322619
 10
35875.68569355
 20
-30166.06199505
 10
35852.47277068
 20
-30159.85040616
 42
1.30322619
 10
35852.47277068
 20
-30172.72785323
 10
35875.68569355
 20
-30166.51626435
 42
-1.30322619
 10
35875.68569355
 20
-30179.39371142
 10
35852.47277068
 20
-30173.18212253
 42
1.30322619
 10
35852.47277068
 20
-30186.0595696
 10
35875.68569355
 20
-30179.84798072
 42
-1.30322619
 10
35875.68569355
 20
-30192.72542779
 10
35852.47277068
 20
-30186.5138389
 42
1.30322619
 10
35852.47277068
 20
-30199.39128598
 10
35875.68569355
 20
-30193.17969709
 42
-1.30322619
 10
35875.68569355
 20
-30206.05714416
 10
35852.47277068
 20
-30199.84555528
 42
1.30322619
 10
35852.47277068
 20
-30212.72300235
 10
35875.68569355
 20
-30206.51141346
 42
-1.30322619
 10
35875.68569355
 20
-30219.38886053
 10
35852.47277068
 20
-30213.17727165
 42
1.30322619
 10
35852.47277068
 20
-30226.05471872
 10
35875.68569355
 20
-30219.84312983
 42
-1.30322619
 10
35875.68569355
 20
-30232.72057691
 10
35852.47277068
 20
-30226.50898802
 42
1.30322619
 10
35852.47277068
 20
-30239.38643509
 10
35875.68569355
 20
-30233.17484621
 42
-1.30322619
 10
35875.68569355
 20
-30246.05229328
 10
35852.47277068
 20
-30239.84070439
 42
1.30322619
 10
35852.47277068
 20
-30252.71815146
 10
35875.68569355
 20
-30246.50656258
 42
-1.30322619
 10
35875.68569355
 20
-30259.38400965
 10
35852.47277068
 20
-30253.17242076
 42
1.30322619
 10
35852.47277068
 20
-30266.04986783
 10
35875.68569355
 20
-30259.83827895
 42
-1.30322619
 10
35875.68569355
 20
-30272.71572602
 10
35852.47277068
 20
-30266.50413714
 42
1.30322619
 10
35852.47277068
 20
-30279.38158421
 10
35875.68569355
 20
-30273.16999532
 42
-1.30322619
 10
35875.68569355
 20
-30286.04744239
 10
35852.47277068
 20
-30279.83585351
 42
1.30322619
 10
35852.47277068
 20
-30292.71330058
 10
35875.68569355
 20
-30286.50171169
 42
-1.30322619
 10
35875.68569355
 20
-30299.37915876
 10
35852.47277068
 20
-30293.16756988
 42
1.30322619
 10
35852.47277068
 20
-30306.04501695
 10
35875.68569355
 20
-30299.83342807
 42
-1.30322619
 10
35875.68569355
 20
-30312.71087514
 10
35852.47277068
 20
-30306.49928625
 42
1.30322619
 10
35852.47277068
 20
-30319.37673332
 10
35875.68569355
 20
-30313.16514444
 42
-1.30322619
 10
35875.68569355
 20
-30326.04259151
 10
35852.47277068
 20
-30319.83100262
 42
1.30322619
 10
35852.47277068
 20
-30332.70844969
 10
35875.68569355
 20
-30326.49686081
 42
-1.30322619
 10
35875.68569355
 20
-30339.37430788
 10
35852.47277068
 20
-30333.162719
 42
1.30322619
 10
35852.47277068
 20
-30346.04016607
 10
35875.68569355
 20
-30339.82857718
 42
-1.30322619
 10
35875.68569355
 20
-30352.70602425
 10
35852.47277068
 20
-30346.49443537
 42
1.30322619
 10
35852.47277068
 20
-30359.37188244
 10
35875.68569355
 20
-30353.16029355
 42
-1.30322619
 10
35875.68569355
 20
-30366.03774062
 10
35852.47277068
 20
-30359.82615174
 42
1.30322619
 10
35852.47277068
 20
-30372.70359881
 10
35875.68569355
 20
-30366.49200993
 42
-1.30322619
 10
35875.68569355
 20
-30379.369457
 10
35852.47277068
 20
-30373.15786811
 42
1.30322619
 10
35852.47277068
 20
-30386.03531518
 10
35875.68569355
 20
-30379.8237263
 42
-1.30322619
 10
35875.68569355
 20
-30392.70117337
 10
35852.47277068
 20
-30386.48958448
 42
1.30322619
 10
35852.47277068
 20
-30399.36703155
 10
35875.68569355
 20
-30393.15544267
 42
-1.30322619
 10
35875.68569355
 20
-30406.03288974
 10
35852.47277068
 20
-30399.82130086
 42
1.30322619
 10
35852.47277068
 20
-30412.69874793
 10
35875.68569355
 20
-30406.48715904
 42
-1.30322619
 10
35875.68569355
 20
-30419.36460611
 10
35852.47277068
 20
-30413.15301723
 42
1.30322619
 10
35852.47277068
 20
-30426.0304643
 10
35875.68569355
 20
-30419.81887541
 42
-0.7500704
 10
35882.32632992
 20
-30430.76011943
  0
LWPOLYLINE
  5
4BB
100
AcDbEntity
  8
Ech.1_5
 62
   190
  6
CONTINUOUS
370
    -3
100
AcDbPolyline
 90
        4
 70
     1
 43
0.0
 10
36038.08165757
 20
-30430.76011943
 10
36098.08165757
 20
-30430.76011943
 10
36098.08165757
 20
-29679.68148212
 10
36038.08165757
 20
-29679.68148212
  0
LWPOLYLINE
  5
4BC
100
AcDbEntity
  8
Ech.1_5
 62
   190
  6
CONTINUOUS
370
    -3
100
AcDbPolyline
 90
      146
 70
     0
 43
0.0
 10
36048.33129136
 20
-29679.68148212
 42
1.14028181
 10
36050.98409776
 20
-29699.8315003
 10
36086.67702011
 20
-29690.28036531
 42
-1.30322619
 10
36086.67702011
 20
-29710.08113409
 10
36050.98409776
 20
-29700.5299991
 42
1.30322619
 10
36050.98409776
 20
-29720.33076787
 10
36086.67702011
 20
-29710.77963289
 42
-1.30322619
 10
36086.67702011
 20
-29730.58040166
 10
36050.98409776
 20
-29721.02926668
 42
1.30322619
 10
36050.98409776
 20
-29740.83003545
 10
36086.67702011
 20
-29731.27890047
 42
-1.30322619
 10
36086.67702011
 20
-29751.07966924
 10
36050.98409776
 20
-29741.52853426
 42
1.30322619
 10
36050.98409776
 20
-29761.32930303
 10
36086.67702011
 20
-29751.77816805
 42
-1.30322619
 10
36086.67702011
 20
-29771.57893682
 10
36050.98409776
 20
-29762.02780184
 42
1.30322619
 10
36050.98409776
 20
-29781.82857061
 10
36086.67702011
 20
-29772.27743563
 42
-1.30322619
 10
36086.67702011
 20
-29792.0782044
 10
36050.98409776
 20
-29782.52706941
 42
1.30322619
 10
36050.98409776
 20
-29802.32783819
 10
36086.67702011
 20
-29792.7767032
 42
-1.30322619
 10
36086.67702011
 20
-29812.57747198
 10
36050.98409776
 20
-29803.02633699
 42
1.30322619
 10
36050.98409776
 20
-29822.82710577
 10
36086.67702011
 20
-29813.27597078
 42
-1.30322619
 10
36086.67702011
 20
-29833.07673955
 10
36050.98409776
 20
-29823.52560457
 42
1.30322619
 10
36050.98409776
 20
-29843.32637334
 10
36086.67702011
 20
-29833.77523836
 42
-1.30322619
 10
36086.67702011
 20
-29853.57600713
 10
36050.98409776
 20
-29844.02487215
 42
1.30322619
 10
36050.98409776
 20
-29863.82564092
 10
36086.67702011
 20
-29854.27450594
 42
-1.30322619
 10
36086.67702011
 20
-29874.07527471
 10
36050.98409776
 20
-29864.52413973
 42
1.30322619
 10
36050.98409776
 20
-29884.3249085
 10
36086.67702011
 20
-29874.77377352
 42
-1.30322619
 10
36086.67702011
 20
-29894.57454229
 10
36050.98409776
 20
-29885.0234073
 42
1.30322619
 10
36050.98409776
 20
-29904.82417608
 10
36086.67702011
 20
-29895.27304109
 42
-1.30322619
 10
36086.67702011
 20
-29915.07380987
 10
36050.98409776
 20
-29905.52267488
 42
1.30322619
 10
36050.98409776
 20
-29925.32344366
 10
36086.67702011
 20
-29915.77230867
 42
-1.30322619
 10
36086.67702011
 20
-29935.57307744
 10
36050.98409776
 20
-29926.02194246
 42
1.30322619
 10
36050.98409776
 20
-29945.82271123
 10
36086.67702011
 20
-29936.27157625
 42
-1.30322619
 10
36086.67702011
 20
-29956.07234502
 10
36050.98409776
 20
-29946.52121004
 42
1.30322619
 10
36050.98409776
 20
-29966.32197881
 10
36086.67702011
 20
-29956.77084383
 42
-1.30322619
 10
36086.67702011
 20
-29976.5716126
 10
36050.98409776
 20
-29967.02047762
 42
1.30322619
 10
36050.98409776
 20
-29986.82124639
 10
36086.67702011
 20
-29977.27011141
 42
-1.30322619
 10
36086.67702011
 20
-29997.07088018
 10
36050.98409776
 20
-29987.5197452
 42
1.30322619
 10
36050.98409776
 20
-30007.32051397
 10
36086.67702011
 20
-29997.76937898
 42
-1.30322619
 10
36086.67702011
 20
-30017.57014776
 10
36050.98409776
 20
-30008.01901277
 42
1.30322619
 10
36050.98409776
 20
-30027.81978155
 10
36086.67702011
 20
-30018.26864656
 42
-1.30322619
 10
36086.67702011
 20
-30038.06941534
 10
36050.98409776
 20
-30028.51828035
 42
1.30322619
 10
36050.98409776
 20
-30048.31904912
 10
36086.67702011
 20
-30038.76791414
 42
-1.30322619
 10
36086.67702011
 20
-30058.56868291
 10
36050.98409776
 20
-30049.01754793
 42
1.30322619
 10
36050.98409776
 20
-30068.8183167
 10
36086.67702011
 20
-30059.26718172
 42
-1.30322619
 10
36086.67702011
 20
-30079.06795049
 10
36050.98409776
 20
-30069.51681551
 42
1.30322619
 10
36050.98409776
 20
-30089.31758428
 10
36086.67702011
 20
-30079.7664493
 42
-1.30322619
 10
36086.67702011
 20
-30099.56721807
 10
36050.98409776
 20
-30090.01608309
 42
1.30322619
 10
36050.98409776
 20
-30109.81685186
 10
36086.67702011
 20
-30100.26571688
 42
-1.30322619
 10
36086.67702011
 20
-30120.06648565
 10
36050.98409776
 20
-30110.51535066
 42
1.30322619
 10
36050.98409776
 20
-30130.31611944
 10
36086.67702011
 20
-30120.76498445
 42
-1.30322619
 10
36086.67702011
 20
-30140.56575323
 10
36050.98409776
 20
-30131.01461824
 42
1.30322619
 10
36050.98409776
 20
-30150.81538702
 10
36086.67702011
 20
-30141.26425203
 42
-1.30322619
 10
36086.67702011
 20
-30161.0650208
 10
36050.98409776
 20
-30151.51388582
 42
1.30322619
 10
36050.98409776
 20
-30171.31465459
 10
36086.67702011
 20
-30161.76351961
 42
-1.30322619
 10
36086.67702011
 20
-30181.56428838
 10
36050.98409776
 20
-30172.0131534
 42
1.30322619
 10
36050.98409776
 20
-30191.81392217
 10
36086.67702011
 20
-30182.26278719
 42
-1.30322619
 10
36086.67702011
 20
-30202.06355596
 10
36050.98409776
 20
-30192.51242098
 42
1.30322619
 10
36050.98409776
 20
-30212.31318975
 10
36086.67702011
 20
-30202.76205477
 42
-1.30322619
 10
36086.67702011
 20
-30222.56282354
 10
36050.98409776
 20
-30213.01168855
 42
1.30322619
 10
36050.98409776
 20
-30232.81245733
 10
36086.67702011
 20
-30223.26132234
 42
-1.30322619
 10
36086.67702011
 20
-30243.06209112
 10
36050.98409776
 20
-30233.51095613
 42
1.30322619
 10
36050.98409776
 20
-30253.31172491
 10
36086.67702011
 20
-30243.76058992
 42
-1.30322619
 10
36086.67702011
 20
-30263.56135869
 10
36050.98409776
 20
-30254.01022371
 42
1.30322619
 10
36050.98409776
 20
-30273.81099248
 10
36086.67702011
 20
-30264.2598575
 42
-1.30322619
 10
36086.67702011
 20
-30284.06062627
 10
36050.98409776
 20
-30274.50949129
 42
1.30322619
 10
36050.98409776
 20
-30294.31026006
 10
36086.67702011
 20
-30284.75912508
 42
-1.30322619
 10
36086.67702011
 20
-30304.55989385
 10
36050.98409776
 20
-30295.00875887
 42
1.30322619
 10
36050.98409776
 20
-30314.80952764
 10
36086.67702011
 20
-30305.25839266
 42
-1.30322619
 10
36086.67702011
 20
-30325.05916143
 10
36050.98409776
 20
-30315.50802645
 42
1.30322619
 10
36050.98409776
 20
-30335.30879522
 10
36086.67702011
 20
-30325.75766023
 42
-1.30322619
 10
36086.67702011
 20
-30345.55842901
 10
36050.98409776
 20
-30336.00729402
 42
1.30322619
 10
36050.98409776
 20
-30355.8080628
 10
36086.67702011
 20
-30346.25692781
 42
-1.30322619
 10
36086.67702011
 20
-30366.05769659
 10
36050.98409776
 20
-30356.5065616
 42
1.30322619
 10
36050.98409776
 20
-30376.30733037
 10
36086.67702011
 20
-30366.75619539
 42
-1.30322619
 10
36086.67702011
 20
-30386.55696416
 10
36050.98409776
 20
-30377.00582918
 42
1.30322619
 10
36050.98409776
 20
-30396.80659795
 10
36086.67702011
 20
-30387.25546297
 42
-1.30322619
 10
36086.67702011
 20
-30407.05623174
 10
36050.98409776
 20
-30397.50509676
 42
1.30322619
 10
36050.98409776
 20
-30417.30586553
 10
36086.67702011
 20
-30407.75473055
 42
-1.30322619
 10
36086.67702011
 20
-30427.55549932
 10
36050.98409776
 20
-30418.00436434
 42
0.58421041
 10
36038.48741758
 20
-30430.76011943
  0
LWPOLYLINE
  5
4BD
100
AcDbEntity
  8
Ech.1_5
 62
   190
  6
CONTINUOUS
370
    -3
100
AcDbPolyline
 90
       62
 70
     0
 43
0.0
 10
35908.24759165
 20
-29679.6815289
 42
1.14028181
 10
35914.50211775
 20
-29727.18997117
 10
35998.65666156
 20
-29704.671076
 42
-1.30322619
 10
35998.65657119
 20
-29751.35606816
 10
35914.50211456
 20
-29728.83684719
 42
1.30322619
 10
35914.50202419
 20
-29775.52183935
 10
35998.656568
 20
-29753.00294418
 42
-1.30322619
 10
35998.65647763
 20
-29799.68793633
 10
35914.50202101
 20
-29777.16871536
 42
1.30322619
 10
35914.50193064
 20
-29823.85370752
 10
35998.65647444
 20
-29801.33481235
 42
-1.30322619
 10
35998.65638407
 20
-29848.01980451
 10
35914.50192745
 20
-29825.50058354
 42
1.30322619
 10
35914.50183708
 20
-29872.18557569
 10
35998.65638088
 20
-29849.66668053
 42
-1.30322619
 10
35998.65629051
 20
-29896.35167268
 10
35914.50183389
 20
-29873.83245171
 42
1.30322619
 10
35914.50174352
 20
-29920.51744387
 10
35998.65628732
 20
-29897.9985487
 42
-1.30322619
 10
35998.65619695
 20
-29944.68354086
 10
35914.50174033
 20
-29922.16431989
 42
1.30322619
 10
35914.50164996
 20
-29968.84931204
 10
35998.65619377
 20
-29946.33041687
 42
-1.30322619
 10
35998.6561034
 20
-29993.01540903
 10
35914.50164678
 20
-29970.49618806
 42
1.30322619
 10
35914.50155641
 20
-30017.18118022
 10
35998.65610021
 20
-29994.66228505
 42
-1.30322619
 10
35998.65600984
 20
-30041.3472772
 10
35914.50155322
 20
-30018.82805623
 42
1.30322619
 10
35914.50146285
 20
-30065.51304839
 10
35998.65600665
 20
-30042.99415322
 42
-1.30322619
 10
35998.65591628
 20
-30089.67914538
 10
35914.50145966
 20
-30067.15992441
 42
1.30322619
 10
35914.50136929
 20
-30113.84491656
 10
35998.65591309
 20
-30091.3260214
 42
-1.30322619
 10
35998.65582272
 20
-30138.01101355
 10
35914.5013661
 20
-30115.49179258
 42
1.30322619
 10
35914.50127573
 20
-30162.17678474
 10
35998.65581954
 20
-30139.65788957
 42
-1.30322619
 10
35998.65572917
 20
-30186.34288172
 10
35914.50127254
 20
-30163.82366076
 42
1.30322619
 10
35914.50118217
 20
-30210.50865291
 10
35998.65572598
 20
-30187.98975774
 42
-1.30322619
 10
35998.65563561
 20
-30234.6747499
 10
35914.50117899
 20
-30212.15552893
 42
1.30322619
 10
35914.50108862
 20
-30258.84052108
 10
35998.65563242
 20
-30236.32162592
 42
-1.30322619
 10
35998.65554205
 20
-30283.00661807
 10
35914.50108543
 20
-30260.4873971
 42
1.30322619
 10
35914.50099506
 20
-30307.17238926
 10
35998.65553886
 20
-30284.65349409
 42
-1.30322619
 10
35998.65544849
 20
-30331.33848625
 10
35914.50099187
 20
-30308.81926528
 42
1.30322619
 10
35914.5009015
 20
-30355.50425743
 10
35998.6554453
 20
-30332.98536227
 42
-1.30322619
 10
35998.65535493
 20
-30379.67035442
 10
35914.50089831
 20
-30357.15113345
 42
1.30322619
 10
35914.50080794
 20
-30403.83612561
 10
35998.65535175
 20
-30381.31723044
 42
-1.30322619
 10
35998.65526138
 20
-30428.00222259
 10
35914.50080475
 20
-30405.48300163
 42
0.5183497
 10
35884.15803742
 20
-30430.76342575
  0
LWPOLYLINE
  5
4BE
100
AcDbEntity
  8
Ech.1_5
 62
   190
  6
CONTINUOUS
370
    -3
100
AcDbPolyline
 90
        5
 70
     0
 43
0.0
 10
35775.83913382
 20
-30740.35496444
 10
36760.83913382
 20
-30740.35496444
 10
36760.83913382
 20
-29385.35496444
 10
35775.83913382
 20
-29385.35496444
 10
35775.83913382
 20
-30740.35496444
  0
LWPOLYLINE
  5
4BF
100
AcDbEntity
  8
Ech.1_5
 62
   190
  6
CONTINUOUS
370
    -3
100
AcDbPolyline
 90
        5
 70
     1
 43
0.0
 10
36309.47089307
 20
-29779.68148212
 10
36721.58327405
 20
-29779.68148212
 10
36721.58327405
 20
-29679.68148212
 10
36098.08165757
 20
-29679.68148212
 10
36098.08165757
 20
-29779.68148212
  0
LWPOLYLINE
  5
4C0
102
{ACAD_REACTORS
330
4C1
102
}
100
AcDbEntity
  8
Ech.1_5
 62
     9
  6
CONTINUOUS
370
    -3
100
AcDbPolyline
 90
        4
 70
     1
 43
0.0
 10
35775.83913382
 20
-29679.68148212
 10
36721.58327405
 20
-29679.68148212
 10
36721.58327405
 20
-29479.68148212
 10
35775.83913382
 20
-29479.68148212
  0
HATCH
  5
4C1
100
AcDbEntity
  8
Ech.1_5
 62
     9
  6
CONTINUOUS
100
AcDbHatch
 10
0.0
 20
0.0
 30
0.0
210
0.0
220
0.0
230
1.0
  2
AR-CONC
 70
     0
 71
     1
 91
        1
 92
        7
 72
     0
 73
     1
 93
        4
 10
35775.83913382
 20
-29679.68148212
 10
36721.58327405
 20
-29679.68148212
 10
36721.58327405
 20
-29479.68148212
 10
35775.83913382
 20
-29479.68148212
 97
        1
330
4C0
 75
     0
 76
     2
 52
0.0
 41
0.11811097
 77
     0
 78
    13
 53
50.0
 43
0.0
 44
0.0
 45
-18.84283637
 46
1.64853443
 79
     2
 49
1.97029307
 49
-21.67322338
 53
355.0
 43
0.0
 44
0.0
 45
-3.64507756
 46
19.76051824
 79
     2
 49
1.57623377
 49
-17.3385787
 53
100.45140076
 43
1.57023568
 44
-0.13737749
 45
-15.19777228
 46
-18.11197244
 79
     2
 49
1.67449124
 49
-18.41940522
 53
46.18420029
 43
0.0
 44
5.25411576
 45
-28.03703353
 46
4.34827878
 79
     2
 49
2.95543872
 49
-32.50983238
 53
96.63559723
 43
2.33641885
 44
4.89175692
 45
-24.55412615
 46
-25.59063404
 79
     2
 49
2.51173697
 49
-27.62910426
 53
351.1842041
 43
0.0
 44
5.25411576
 45
24.55410288
 46
25.59065715
 79
     2
 49
2.36435249
 49
-26.00786805
 53
21.0
 43
2.62705699
 44
3.94058615
 45
-15.68109068
 46
10.57702905
 79
     2
 49
1.97029307
 49
-21.67322338
 53
326.0
 43
2.62705699
 44
3.94058615
 45
6.39203268
 46
19.05010734
 79
     2
 49
1.57623377
 49
-17.3385787
 53
71.45140076
 43
3.93381357
 44
3.05916555
 45
-22.07312962
 46
-8.47306182
 79
     2
 49
1.67449124
 49
-18.41940522
 53
37.5
 43
0.0
 44
0.0
 45
0.31944534
 46
8.74531245
 79
     6
 49
0.01875
 49
-17.12841332
 49
0.01875
 49
-17.60128498
 49
0.01875
 49
-17.40425348
 53
7.5
 43
0.0
 44
0.0
 45
6.91098818
 46
10.3614222
 79
     6
 49
0.01875
 49
-10.03535807
 49
0.01875
 49
-16.7343539
 49
0.01875
 49
-6.6333206
 53
-32.5
 43
-5.85833833
 44
0.0
 45
14.02382061
 46
-0.59253003
 79
     6
 49
0.01875
 49
-6.56764314
 49
0.01875
 49
-20.49104869
 49
0.01875
 49
-27.19004452
 53
-42.5
 43
-8.48539531
 44
0.0
 45
15.32063571
 46
2.62981542
 79
     6
 49
0.01875
 49
-8.53793621
 49
0.01875
 49
-13.60815793
 49
0.01875
 49
-19.30887222
 47
0.775229
 98
        1
 10
0.0
 20
0.0
  0
LWPOLYLINE
  5
4C2
100
AcDbEntity
  8
Ech.1_5
 62
     9
  6
CONTINUOUS
370
    -3
100
AcDbPolyline
 90
        5
 70
     0
 43
0.0
 10
36123.2422864
 20
-29899.68148212
 10
36123.2422864
 20
-29919.68148212
 10
36721.58327405
 20
-29919.68148212
 10
36721.58327405
 20
-29899.68148212
 10
36123.2422864
 20
-29899.68148212
  0
LWPOLYLINE
  5
4C3
100
AcDbEntity
  8
Ech.1_5
 62
   190
  6
CONTINUOUS
370
    -3
100
AcDbPolyline
 90
        6
 70
     0
 43
0.0
 10
36721.58327405
 20
-29417.82259693
 10
36721.58327405
 20
-29810.56271474
 10
36739.56062237
 20
-29827.0482179
 10
36703.60492245
 20
-29812.93827788
 10
36721.58327405
 20
-29829.42463196
 10
36721.58327405
 20
-29945.03867147
  0
LWPOLYLINE
  5
4C4
100
AcDbEntity
  8
Ech.1_5
 62
     7
  6
CONTINUOUS
370
    -3
100
AcDbPolyline
 90
        4
 70
     1
 43
0.0
 10
36123.2422864
 20
-29779.68148212
 10
36123.2422864
 20
-29899.68148212
 10
36168.2422864
 20
-29899.68148212
 10
36168.2422864
 20
-29779.68148212
  0
LWPOLYLINE
  5
4C5
100
AcDbEntity
  8
Ech.1_5
 62
   190
  6
CONTINUOUS
370
    -3
100
AcDbPolyline
 90
        4
 70
     0
 43
0.0
 10
36168.2422864
 20
-29899.68148212
 10
36123.2422864
 20
-29779.68148212
 10
36168.2422864
 20
-29779.68148212
 10
36123.2422864
 20
-29899.68148212
  0
LWPOLYLINE
  5
4C6
100
AcDbEntity
  8
Ech.1_5
 62
     5
  6
CONTINUOUS
370
    -3
100
AcDbPolyline
 90
        5
 70
     0
 43
0.0
 10
36123.2422864
 20
-29779.68148212
 10
36123.2422864
 20
-29899.68148212
 10
36168.2422864
 20
-29899.68148212
 10
36168.2422864
 20
-29779.68148212
 10
36123.2422864
 20
-29779.68148212
  0
LWPOLYLINE
  5
4C7
102
{ACAD_REACTORS
330
4C8
102
}
100
AcDbEntity
  8
Ech.1_5
 62
     7
  6
CONTINUOUS
370
    -3
100
AcDbPolyline
 90
        6
 70
     1
 43
0.0
 10
36168.2422864
 20
-29679.68148212
 10
36225.2815462
 20
-29679.68148212
 10
36225.2815462
 20
-29683.68148212
 10
36172.24228659
 20
-29683.68148212
 10
36172.24228659
 20
-29832.78276106
 10
36168.2422864
 20
-29832.78276106
  0
HATCH
  5
4C8
100
AcDbEntity
  8
Ech.1_5
 62
     7
  6
CONTINUOUS
100
AcDbHatch
 10
0.0
 20
0.0
 30
0.0
210
0.0
220
0.0
230
1.0
  2
SOLID
 70
     1
 71
     1
 91
        1
 92
        7
 72
     0
 73
     1
 93
        6
 10
36168.2422864
 20
-29679.68148212
 10
36225.2815462
 20
-29679.68148212
 10
36225.2815462
 20
-29683.68148212
 10
36172.24228659
 20
-29683.68148212
 10
36172.24228659
 20
-29832.78276106
 10
36168.2422864
 20
-29832.78276106
 97
        1
330
4C7
 75
     0
 76
     2
 47
0.775229
 98
        1
 10
0.0
 20
0.0
  0
LWPOLYLINE
  5
4C9
100
AcDbEntity
  8
Ech.1_5
 62
     7
  6
CONTINUOUS
370
    -3
100
AcDbPolyline
 90
        4
 70
     1
 43
0.0
 10
36619.58017052
 20
-29779.68148212
 10
36619.58017052
 20
-29899.68148212
 10
36664.58017052
 20
-29899.68148212
 10
36664.58017052
 20
-29779.68148212
  0
LWPOLYLINE
  5
4CA
100
AcDbEntity
  8
Ech.1_5
 62
   190
  6
CONTINUOUS
370
    -3
100
AcDbPolyline
 90
        4
 70
     0
 43
0.0
 10
36664.58017052
 20
-29899.68148212
 10
36619.58017052
 20
-29779.68148212
 10
36664.58017052
 20
-29779.68148212
 10
36619.58017052
 20
-29899.68148212
  0
LWPOLYLINE
  5
4CB
100
AcDbEntity
  8
Ech.1_5
 62
     5
  6
CONTINUOUS
370
    -3
100
AcDbPolyline
 90
        5
 70
     0
 43
0.0
 10
36619.58017052
 20
-29779.68148212
 10
36619.58017052
 20
-29899.68148212
 10
36664.58017052
 20
-29899.68148212
 10
36664.58017052
 20
-29779.68148212
 10
36619.58017052
 20
-29779.68148212
  0
LWPOLYLINE
  5
4CC
102
{ACAD_REACTORS
330
4CD
102
}
100
AcDbEntity
  8
Ech.1_5
 62
     7
  6
CONTINUOUS
370
    -3
100
AcDbPolyline
 90
        6
 70
     1
 43
0.0
 10
36619.58017052
 20
-29679.68148212
 10
36562.54091072
 20
-29679.68148212
 10
36562.54091072
 20
-29683.68148212
 10
36615.58017033
 20
-29683.68148212
 10
36615.58017033
 20
-29832.78276106
 10
36619.58017052
 20
-29832.78276106
  0
HATCH
  5
4CD
100
AcDbEntity
  8
Ech.1_5
 62
     7
  6
CONTINUOUS
100
AcDbHatch
 10
0.0
 20
0.0
 30
0.0
210
0.0
220
0.0
230
1.0
  2
SOLID
 70
     1
 71
     1
 91
        1
 92
        7
 72
     0
 73
     1
 93
        6
 10
36619.58017052
 20
-29679.68148212
 10
36562.54091072
 20
-29679.68148212
 10
36562.54091072
 20
-29683.68148212
 10
36615.58017033
 20
-29683.68148212
 10
36615.58017033
 20
-29832.78276106
 10
36619.58017052
 20
-29832.78276106
 97
        1
330
4CC
 75
     0
 76
     2
 47
0.775229
 98
        1
 10
0.0
 20
0.0
  0
LWPOLYLINE
  5
4CE
100
AcDbEntity
  8
Ech.1_5
 62
     9
  6
CONTINUOUS
370
    40
100
AcDbPolyline
 90
        5
 70
     0
 43
0.0
 10
36123.08165757
 20
-30326.15995526
 10
36123.08165757
 20
-30276.15995526
 10
36098.08165757
 20
-30276.15995526
 10
36098.08165757
 20
-30326.15995526
 10
36123.08165757
 20
-30326.15995526
  0
LWPOLYLINE
  5
4CF
100
AcDbEntity
  8
Ech.1_5
 62
     9
  6
CONTINUOUS
370
    -3
100
AcDbPolyline
 90
        4
 70
     0
 43
0.0
 10
36098.13874451
 20
-30326.15995526
 10
36123.13874451
 20
-30276.15995526
 10
36098.13874451
 20
-30276.15995526
 10
36123.13874451
 20
-30326.15984195
  0
LWPOLYLINE
  5
4D0
100
AcDbEntity
  8
Ech.1_5
 62
     9
  6
CONTINUOUS
370
    -3
100
AcDbPolyline
 90
        4
 70
     0
 43
0.0
 10
36123.09744374
 20
-29927.07295924
 10
36123.13627259
 20
-30430.75948201
 10
36143.0794603
 20
-30430.75928929
 10
36143.0794603
 20
-29927.07295924
  0
LWPOLYLINE
  5
4D1
100
AcDbEntity
  8
Ech.1_5
 62
   190
  6
CONTINUOUS
370
    -3
100
AcDbPolyline
 90
        4
 70
     1
 43
0.0
 10
36038.08165757
 20
-29679.68148212
 10
36029.08165757
 20
-29679.68148212
 10
36029.08165757
 20
-30430.76011943
 10
36038.08165757
 20
-30430.76011943
  0
LWPOLYLINE
  5
4D2
100
AcDbEntity
  8
Ech.1_5
 62
     7
  6
CONTINUOUS
370
    -3
100
AcDbPolyline
 90
        4
 70
     1
 43
0.0
 10
36029.08165757
 20
-30323.65707941
 10
35884.07680668
 20
-30323.65639729
 10
35884.07680668
 20
-30278.65639729
 10
36029.08165757
 20
-30278.65707941
  0
LWPOLYLINE
  5
4D3
100
AcDbEntity
  8
Ech.1_5
 62
   190
  6
CONTINUOUS
370
    -3
100
AcDbPolyline
 90
        4
 70
     0
 43
0.0
 10
36029.08065812
 20
-30278.65995526
 10
35884.07487644
 20
-30323.65995526
 10
35884.07487644
 20
-30278.65995526
 10
36029.08065812
 20
-30323.65995526
  0
LWPOLYLINE
  5
4D4
100
AcDbEntity
  8
Ech.1_5
 62
     5
  6
CONTINUOUS
370
    -3
100
AcDbPolyline
 90
        5
 70
     0
 43
0.0
 10
36029.07726208
 20
-30323.65639729
 10
35884.07680668
 20
-30323.65639729
 10
35884.07680668
 20
-30278.65639729
 10
36029.07726208
 20
-30278.65639729
 10
36029.07726208
 20
-30323.65639729
  0
LINE
  5
4D5
100
AcDbEntity
  8
Ech.1_5
 62
   190
  6
CONTINUOUS
370
    -3
100
AcDbLine
 10
35909.0794603
 20
-30430.76040106
 30
0.0
 11
35909.0794603
 21
-30430.7634256
 31
0.0
  0
LWPOLYLINE
  5
4D6
102
{ACAD_REACTORS
330
4D7
102
}
100
AcDbEntity
  8
Ech.1_5
 62
     7
  6
CONTINUOUS
370
    -3
100
AcDbPolyline
 90
        4
 70
     1
 43
0.0
 10
35831.08165756
 20
-30430.76011943
 10
35844.08165756
 20
-30430.76011943
 10
35844.08165756
 20
-29679.68148212
 10
35831.08165756
 20
-29679.68148212
  0
HATCH
  5
4D7
100
AcDbEntity
  8
Ech.1_5
 62
   190
  6
CONTINUOUS
100
AcDbHatch
 10
0.0
 20
0.0
 30
0.0
210
0.0
220
0.0
230
1.0
  2
DOTS2
 70
     0
 71
     1
 91
        1
 92
        7
 72
     0
 73
     1
 93
        4
 10
35831.08165756
 20
-30430.76011943
 10
35844.08165756
 20
-30430.76011943
 10
35844.08165756
 20
-29679.68148212
 10
35831.08165756
 20
-29679.68148212
 97
        1
330
4D6
 75
     0
 76
     2
 52
0.0
 41
4.72440952
 77
     0
 78
     1
 53
0.0
 43
0.0
 44
0.0
 45
3.75
 46
3.535
 79
     2
 49
0.0
 49
-3.535
 47
0.775229
 98
        1
 10
0.0
 20
0.0
  0
LWPOLYLINE
  5
4D8
100
AcDbEntity
  8
Ech.1_5
 62
     9
  6
CONTINUOUS
370
    40
100
AcDbPolyline
 90
        5
 70
     0
 43
0.0
 10
36123.08165757
 20
-29997.07295924
 10
36123.08165757
 20
-29927.07295924
 10
36098.08165757
 20
-29927.07295924
 10
36098.08165757
 20
-29997.07295924
 10
36123.08165757
 20
-29997.07295924
  0
LWPOLYLINE
  5
4D9
100
AcDbEntity
  8
Ech.1_5
 62
     9
  6
CONTINUOUS
370
    -3
100
AcDbPolyline
 90
        4
 70
     0
 43
0.0
 10
36098.13874451
 20
-29997.07295924
 10
36123.13874451
 20
-29927.07295924
 10
36098.13874451
 20
-29927.07295924
 10
36123.13874451
 20
-29997.07284593
  0
LINE
  5
4DA
100
AcDbEntity
  8
Ech.1_5
 62
     9
  6
CONTINUOUS
370
    -3
100
AcDbLine
 10
36143.0794603
 20
-29927.07295924
 30
0.0
 11
36123.13874451
 21
-29927.07295924
 31
0.0
  0
LWPOLYLINE
  5
4DB
100
AcDbEntity
  8
Ech.1_5
 62
   190
  6
CONTINUOUS
370
    -3
100
AcDbPolyline
 90
        6
 70
     0
 43
0.0
 10
36184.03183639
 20
-30430.76137081
 10
35964.96188292
 20
-30430.76137081
 10
35948.47637977
 20
-30412.78402248
 10
35962.58631978
 20
-30448.7397224
 10
35946.0999657
 20
-30430.76137081
 10
35795.08937355
 20
-30430.76137081
  0
LWPOLYLINE
  5
4DC
100
AcDbEntity
  8
Ech.1_5
 62
     7
  6
CONTINUOUS
370
    -3
100
AcDbPolyline
 90
        4
 70
     1
 43
0.0
 10
36029.08165757
 20
-29724.68216424
 10
35884.07680668
 20
-29724.68148212
 10
35884.07680668
 20
-29679.68148212
 10
36029.08165757
 20
-29679.68216424
  0
LWPOLYLINE
  5
4DD
100
AcDbEntity
  8
Ech.1_5
 62
   190
  6
CONTINUOUS
370
    -3
100
AcDbPolyline
 90
        4
 70
     0
 43
0.0
 10
36029.08065812
 20
-29679.68504009
 10
35884.07487644
 20
-29724.68504009
 10
35884.07487644
 20
-29679.68504009
 10
36029.08065812
 20
-29724.68504009
  0
LWPOLYLINE
  5
4DE
100
AcDbEntity
  8
Ech.1_5
 62
     5
  6
CONTINUOUS
370
    -3
100
AcDbPolyline
 90
        5
 70
     0
 43
0.0
 10
36029.07726208
 20
-29724.68148212
 10
35884.07680668
 20
-29724.68148212
 10
35884.07680668
 20
-29679.68148212
 10
36029.07726208
 20
-29679.68148212
 10
36029.07726208
 20
-29724.68148212
  0
LWPOLYLINE
  5
4DF
100
AcDbEntity
  8
Ech.1_5
 62
   190
  6
CONTINUOUS
370
    -3
100
AcDbPolyline
 90
       74
 70
     0
 43
0.0
 10
36098.08165757
 20
-29763.01481545
 42
1.14028181
 10
36130.8470854
 20
-29758.70115499
 10
36115.31622973
 20
-29700.66180925
 42
-1.30322619
 10
36147.51375207
 20
-29700.66180925
 10
36131.9828964
 20
-29758.70115499
 42
1.30322619
 10
36164.18041874
 20
-29758.70115499
 10
36148.64956307
 20
-29700.66180925
 42
-1.30322619
 10
36180.8470854
 20
-29700.66180925
 10
36165.31622973
 20
-29758.70115499
 42
1.30322619
 10
36197.51375207
 20
-29758.70115499
 10
36181.9828964
 20
-29700.66180925
 42
-1.30322619
 10
36214.18041874
 20
-29700.66180925
 10
36198.64956307
 20
-29758.70115499
 42
1.30322619
 10
36230.8470854
 20
-29758.70115499
 10
36215.31622973
 20
-29700.66180925
 42
-1.30322619
 10
36247.51375207
 20
-29700.66180925
 10
36231.9828964
 20
-29758.70115499
 42
1.30322619
 10
36264.18041874
 20
-29758.70115499
 10
36248.64956307
 20
-29700.66180925
 42
-1.30322619
 10
36280.8470854
 20
-29700.66180925
 10
36265.31622973
 20
-29758.70115499
 42
1.30322619
 10
36297.51375207
 20
-29758.70115499
 10
36281.9828964
 20
-29700.66180925
 42
-1.30322619
 10
36314.18041874
 20
-29700.66180925
 10
36298.64956307
 20
-29758.70115499
 42
1.30322619
 10
36330.8470854
 20
-29758.70115499
 10
36315.31622973
 20
-29700.66180925
 42
-1.30322619
 10
36347.51375207
 20
-29700.66180925
 10
36331.9828964
 20
-29758.70115499
 42
1.30322619
 10
36364.18041874
 20
-29758.70115499
 10
36348.64956307
 20
-29700.66180925
 42
-1.30322619
 10
36380.8470854
 20
-29700.66180925
 10
36365.31622973
 20
-29758.70115499
 42
1.30322619
 10
36397.51375207
 20
-29758.70115499
 10
36381.9828964
 20
-29700.66180925
 42
-1.30322619
 10
36414.18041874
 20
-29700.66180925
 10
36398.64956307
 20
-29758.70115499
 42
1.30322619
 10
36430.8470854
 20
-29758.70115499
 10
36415.31622973
 20
-29700.66180925
 42
-1.30322619
 10
36447.51375207
 20
-29700.66180925
 10
36431.9828964
 20
-29758.70115499
 42
1.30322619
 10
36464.18041874
 20
-29758.70115499
 10
36448.64956307
 20
-29700.66180925
 42
-1.30322619
 10
36480.8470854
 20
-29700.66180925
 10
36465.31622973
 20
-29758.70115499
 42
1.30322619
 10
36497.51375207
 20
-29758.70115499
 10
36481.9828964
 20
-29700.66180925
 42
-1.30322619
 10
36514.18041874
 20
-29700.66180925
 10
36498.64956307
 20
-29758.70115499
 42
1.30322619
 10
36530.8470854
 20
-29758.70115499
 10
36515.31622973
 20
-29700.66180925
 42
-1.30322619
 10
36547.51375207
 20
-29700.66180925
 10
36531.9828964
 20
-29758.70115499
 42
1.30322619
 10
36564.18041874
 20
-29758.70115499
 10
36548.64956307
 20
-29700.66180925
 42
-1.30322619
 10
36580.8470854
 20
-29700.66180925
 10
36565.31622973
 20
-29758.70115499
 42
1.30322619
 10
36597.51375207
 20
-29758.70115499
 10
36581.9828964
 20
-29700.66180925
 42
-1.30322619
 10
36614.18041874
 20
-29700.66180925
 10
36598.64956307
 20
-29758.70115499
 42
1.30322619
 10
36630.8470854
 20
-29758.70115499
 10
36615.31622973
 20
-29700.66180925
 42
-1.30322619
 10
36647.51375207
 20
-29700.66180925
 10
36631.9828964
 20
-29758.70115499
 42
1.30322619
 10
36664.18041874
 20
-29758.70115499
 10
36648.64956307
 20
-29700.66180925
 42
-1.30322619
 10
36680.8470854
 20
-29700.66180925
 10
36665.31622973
 20
-29758.70115499
 42
1.30322619
 10
36697.51375207
 20
-29758.70115499
 10
36681.9828964
 20
-29700.66180925
 42
-1.30322619
 10
36714.18041874
 20
-29700.66180925
 10
36698.64956307
 20
-29758.70115499
 42
0.63224071
 10
36721.58327405
 20
-29778.21551408
  0
CIRCLE
  5
4E0
100
AcDbEntity
  8
Ech.1_5
 62
     7
  6
CONTINUOUS
100
AcDbCircle
 10
35853.91950034
 20
-29682.32227663
 30
0.0
 40
6.16444121
  0
LWPOLYLINE
  5
4E1
100
AcDbEntity
  8
Ech.1_5
 62
   190
  6
CONTINUOUS
370
    -3
100
AcDbPolyline
 90
        4
 70
     0
 43
0.0
 10
36029.08065812
 20
-29944.43907186
 10
35884.07487644
 20
-29989.43907186
 10
35884.07487644
 20
-29944.43907186
 10
36029.08065812
 20
-29989.43907186
  0
LWPOLYLINE
  5
4E2
100
AcDbEntity
  8
Ech.1_5
 62
     7
  6
CONTINUOUS
370
    -3
100
AcDbPolyline
 90
        4
 70
     1
 43
0.0
 10
36029.08165757
 20
-29989.436196
 10
35884.07680668
 20
-29989.43551389
 10
35884.07680668
 20
-29944.43551389
 10
36029.08165757
 20
-29944.436196
  0
LWPOLYLINE
  5
4E3
100
AcDbEntity
  8
Ech.1_5
 62
     5
  6
CONTINUOUS
370
    -3
100
AcDbPolyline
 90
        5
 70
     0
 43
0.0
 10
36029.07726208
 20
-29989.43551389
 10
35884.07680668
 20
-29989.43551389
 10
35884.07680668
 20
-29944.43551389
 10
36029.07726208
 20
-29944.43551389
 10
36029.07726208
 20
-29989.43551389
  0
LWPOLYLINE
  5
4E4
102
{ACAD_REACTORS
330
4E5
102
}
100
AcDbEntity
  8
Ech.1_5
 62
     7
  6
CONTINUOUS
370
    -3
100
AcDbPolyline
 90
        6
 70
     1
 43
0.0
 10
36123.2422864
 20
-29899.68148212
 10
36180.2815462
 20
-29899.68148212
 10
36180.2815462
 20
-29903.68148212
 10
36127.24228659
 20
-29903.68148212
 10
36127.24228659
 20
-30014.41916596
 10
36123.2422864
 20
-30014.41916596
  0
HATCH
  5
4E5
100
AcDbEntity
  8
Ech.1_5
 62
     7
  6
CONTINUOUS
100
AcDbHatch
 10
0.0
 20
0.0
 30
0.0
210
0.0
220
0.0
230
1.0
  2
SOLID
 70
     1
 71
     1
 91
        1
 92
        7
 72
     0
 73
     1
 93
        6
 10
36123.2422864
 20
-29899.68148212
 10
36180.2815462
 20
-29899.68148212
 10
36180.2815462
 20
-29903.68148212
 10
36127.24228659
 20
-29903.68148212
 10
36127.24228659
 20
-30014.41916596
 10
36123.2422864
 20
-30014.41916596
 97
        1
330
4E4
 75
     0
 76
     2
 47
0.775229
 98
        1
 10
0.0
 20
0.0
  0
LWPOLYLINE
  5
4E6
100
AcDbEntity
  8
Ech.1_5
 62
     1
  6
CADWORK_22
 48
-5.0
370
    35
100
AcDbPolyline
 90
        7
 70
     0
 43
0.0
 10
35884.08165756
 20
-30430.76011943
 10
35884.08165756
 20
-29763.58758074
 10
35884.08165756
 20
-29679.68148212
 10
35861.35408885
 20
-29679.68148212
 10
35853.14632652
 20
-29687.78167532
 10
35846.56696911
 20
-29679.6816612
 10
35819.90781724
 20
-29679.6816612
  0
CIRCLE
  5
4E7
100
AcDbEntity
  8
Ech.1_5
 62
     7
  6
CONTINUOUS
100
AcDbCircle
 10
36129.65644885
 20
-29682.32227663
 30
0.0
 40
6.16444121
  0
LWPOLYLINE
  5
4E8
100
AcDbEntity
  8
Ech.1_5
 62
   150
  6
CADWORK_22
370
    35
100
AcDbPolyline
 90
        8
 70
     0
 43
0.0
 38
2500.0
 10
36099.5794603
 20
-30430.75995802
 10
36099.5794603
 20
-29769.92012825
 10
36099.5794603
 20
-29763.58758074
 10
36099.5794603
 20
-29679.68148212
 10
36122.30702901
 20
-29679.68148212
 10
36130.51479134
 20
-29687.78167532
 10
36137.09414876
 20
-29679.6816612
 10
36163.75330063
 20
-29679.6816612
  0
LINE
  5
4E9
100
AcDbEntity
  8
Ech.1_5
 62
    36
  6
CONTINUOUS
370
    -3
100
AcDbLine
 10
36613.52593279
 20
-30312.09233679
 30
0.0
 11
36621.18041794
 21
-30309.35166096
 31
0.0
  0
LWPOLYLINE
  5
4EA
100
AcDbEntity
  8
Ech.1_5
 62
    36
  6
CONTINUOUS
370
    -3
100
AcDbPolyline
 90
        4
 70
     0
 43
0.0
 10
36611.84360242
 20
-30283.42754185
 10
36611.84360139
 20
-30311.75611109
 10
36611.84360139
 20
-30311.75611109
 10
36613.52593279
 20
-30312.09233679
  0
LINE
  5
4EB
100
AcDbEntity
  8
Ech.1_5
 62
    36
  6
CONTINUOUS
370
    -3
100
AcDbLine
 10
36613.52593381
 20
-30283.76376755
 30
0.0
 11
36621.18041896
 21
-30281.02309172
 31
0.0
  0
LINE
  5
4EC
100
AcDbEntity
  8
Ech.1_5
 62
    36
  6
CONTINUOUS
370
    -3
100
AcDbLine
 10
36613.52593279
 20
-30312.09233679
 30
0.0
 11
36613.52593381
 21
-30283.76376755
 31
0.0
  0
LINE
  5
4ED
100
AcDbEntity
  8
Ech.1_5
 62
    36
  6
CONTINUOUS
370
    -3
100
AcDbLine
 10
36611.84360023
 20
-30344.13161466
 30
0.0
 11
36570.22709221
 21
-30335.81426432
 31
0.0
  0
LWPOLYLINE
  5
4EE
100
AcDbEntity
  8
Ech.1_5
 62
    36
  6
CONTINUOUS
370
    -3
100
AcDbPolyline
 90
        4
 70
     0
 43
0.0
 10
36596.9234841
 20
-30358.65972107
 10
36586.40409972
 20
-30356.55734849
 10
36586.40409972
 20
-30356.55734849
 10
36586.40410009
 20
-30346.12949973
  0
LINE
  5
4EF
100
AcDbEntity
  8
Ech.1_5
 62
    36
  6
CONTINUOUS
370
    -3
100
AcDbLine
 10
36585.14720573
 20
-30357.00737731
 30
0.0
 11
36586.40409972
 21
-30356.55734849
 31
0.0
  0
LWPOLYLINE
  5
4F0
100
AcDbEntity
  8
Ech.1_5
 62
    36
  6
CONTINUOUS
370
    -3
100
AcDbPolyline
 90
        4
 70
     0
 43
0.0
 10
36585.14720613
 20
-30345.87830309
 10
36585.14720573
 20
-30357.00737731
 10
36585.14720573
 20
-30357.00737731
 10
36596.92348538
 20
-30359.36094921
  0
LWPOLYLINE
  5
4F1
100
AcDbEntity
  8
Ech.1_5
 62
    36
  6
CONTINUOUS
370
    -3
100
AcDbPolyline
 90
        4
 70
     0
 43
0.0
 10
36596.92348538
 20
-30359.36094921
 10
36596.92348579
 20
-30348.23187498
 10
36596.92348579
 20
-30348.23187498
 10
36585.14720613
 20
-30345.87830309
  0
LWPOLYLINE
  5
4F2
100
AcDbEntity
  8
Ech.1_5
 62
    36
  6
CONTINUOUS
370
    -3
100
AcDbPolyline
 90
        4
 70
     0
 43
0.0
 10
36611.8435992
 20
-30372.4601839
 10
36570.22709118
 20
-30364.14283356
 10
36570.22709118
 20
-30364.14283356
 10
36570.22709221
 20
-30335.81426432
  0
LINE
  5
4F3
100
AcDbEntity
  8
Ech.1_5
 62
    36
  6
CONTINUOUS
370
    -3
100
AcDbLine
 10
36611.84360023
 20
-30344.13161466
 30
0.0
 11
36611.8435992
 21
-30372.4601839
 31
0.0
  0
LINE
  5
4F4
100
AcDbEntity
  8
Ech.1_5
 62
    36
  6
CONTINUOUS
370
    -3
100
AcDbLine
 10
36568.54476081
 20
-30335.47803862
 30
0.0
 11
36568.54475979
 21
-30363.80660786
 31
0.0
  0
LINE
  5
4F5
100
AcDbEntity
  8
Ech.1_5
 62
    36
  6
CONTINUOUS
370
    -3
100
AcDbLine
 10
36613.5259306
 20
-30372.7964096
 30
0.0
 11
36621.18041575
 21
-30370.05573377
 31
0.0
  0
LINE
  5
4F6
100
AcDbEntity
  8
Ech.1_5
 62
    36
  6
CONTINUOUS
370
    -3
100
AcDbLine
 10
36611.8435992
 20
-30372.4601839
 30
0.0
 11
36613.5259306
 21
-30372.7964096
 31
0.0
  0
LINE
  5
4F7
100
AcDbEntity
  8
Ech.1_5
 62
    36
  6
CONTINUOUS
370
    -3
100
AcDbLine
 10
36613.52593162
 20
-30344.46784036
 30
0.0
 11
36621.18041677
 21
-30341.72716453
 31
0.0
  0
LWPOLYLINE
  5
4F8
100
AcDbEntity
  8
Ech.1_5
 62
    36
  6
CONTINUOUS
370
    -3
100
AcDbPolyline
 90
        4
 70
     0
 43
0.0
 10
36613.5259306
 20
-30372.7964096
 10
36613.52593162
 20
-30344.46784036
 10
36613.52593162
 20
-30344.46784036
 10
36611.84360023
 20
-30344.13161466
  0
LWPOLYLINE
  5
4F9
100
AcDbEntity
  8
Ech.1_5
 62
    36
  6
CONTINUOUS
370
    -3
100
AcDbPolyline
 90
        4
 70
     0
 43
0.0
 10
36490.88233192
 20
-30276.76259119
 10
36480.36295556
 20
-30274.66022021
 10
36480.36295556
 20
-30274.66022021
 10
36480.36295594
 20
-30264.23236181
  0
LINE
  5
4FA
100
AcDbEntity
  8
Ech.1_5
 62
    36
  6
CONTINUOUS
370
    -3
100
AcDbLine
 10
36479.10606158
 20
-30275.11024904
 30
0.0
 11
36480.36295556
 21
-30274.66022021
 31
0.0
  0
LWPOLYLINE
  5
4FB
100
AcDbEntity
  8
Ech.1_5
 62
    36
  6
CONTINUOUS
370
    -3
100
AcDbPolyline
 90
        4
 70
     0
 43
0.0
 10
36479.10606198
 20
-30263.98116516
 10
36479.10606158
 20
-30275.11024904
 10
36479.10606158
 20
-30275.11024904
 10
36490.88233321
 20
-30277.46381933
  0
LWPOLYLINE
  5
4FC
100
AcDbEntity
  8
Ech.1_5
 62
    36
  6
CONTINUOUS
370
    -3
100
AcDbPolyline
 90
        4
 70
     0
 43
0.0
 10
36490.88233321
 20
-30277.46381933
 10
36490.88233361
 20
-30266.33473545
 10
36490.88233361
 20
-30266.33473545
 10
36479.10606198
 20
-30263.98116516
  0
LWPOLYLINE
  5
4FD
100
AcDbEntity
  8
Ech.1_5
 62
    36
  6
CONTINUOUS
370
    -3
100
AcDbPolyline
 90
        4
 70
     0
 43
0.0
 10
36505.80245505
 20
-30290.56304597
 10
36464.18593901
 20
-30282.24569403
 10
36464.18593901
 20
-30282.24569403
 10
36464.18594003
 20
-30253.91712479
  0
LINE
  5
4FE
100
AcDbEntity
  8
Ech.1_5
 62
    36
  6
CONTINUOUS
370
    -3
100
AcDbLine
 10
36505.80245607
 20
-30262.23447673
 30
0.0
 11
36505.80245505
 21
-30290.56304597
 31
0.0
  0
LINE
  5
4FF
100
AcDbEntity
  8
Ech.1_5
 62
    36
  6
CONTINUOUS
370
    -3
100
AcDbLine
 10
36507.48478644
 20
-30290.89927167
 30
0.0
 11
36515.13927159
 21
-30288.15859584
 31
0.0
  0
LINE
  5
500
100
AcDbEntity
  8
Ech.1_5
 62
    36
  6
CONTINUOUS
370
    -3
100
AcDbLine
 10
36505.80245505
 20
-30290.56304597
 30
0.0
 11
36507.48478644
 21
-30290.89927167
 31
0.0
  0
LINE
  5
501
100
AcDbEntity
  8
Ech.1_5
 62
    36
  6
CONTINUOUS
370
    -3
100
AcDbLine
 10
36507.48478746
 20
-30262.57070243
 30
0.0
 11
36515.13927262
 21
-30259.8300266
 31
0.0
  0
LINE
  5
502
100
AcDbEntity
  8
Ech.1_5
 62
    36
  6
CONTINUOUS
370
    -3
100
AcDbLine
 10
36507.48478644
 20
-30290.89927167
 30
0.0
 11
36507.48478746
 21
-30262.57070243
 31
0.0
  0
LINE
  5
503
100
AcDbEntity
  8
Ech.1_5
 62
    36
  6
CONTINUOUS
370
    -3
100
AcDbLine
 10
36462.50362468
 20
-30253.5809023
 30
0.0
 11
36462.50362366
 21
-30281.90947154
 31
0.0
  0
LWPOLYLINE
  5
504
100
AcDbEntity
  8
Ech.1_5
 62
    36
  6
CONTINUOUS
370
    -3
100
AcDbPolyline
 90
        4
 70
     0
 43
0.0
 10
36596.92348629
 20
-30297.95565791
 10
36586.40410191
 20
-30295.85328533
 10
36586.40410191
 20
-30295.85328533
 10
36586.40410228
 20
-30285.42542693
  0
LINE
  5
505
100
AcDbEntity
  8
Ech.1_5
 62
    36
  6
CONTINUOUS
370
    -3
100
AcDbLine
 10
36585.14720792
 20
-30296.30331415
 30
0.0
 11
36586.40410191
 21
-30295.85328533
 31
0.0
  0
LWPOLYLINE
  5
506
100
AcDbEntity
  8
Ech.1_5
 62
    36
  6
CONTINUOUS
370
    -3
100
AcDbPolyline
 90
        4
 70
     0
 43
0.0
 10
36585.14720832
 20
-30285.17423028
 10
36585.14720792
 20
-30296.30331415
 10
36585.14720792
 20
-30296.30331415
 10
36596.92348757
 20
-30298.65688605
  0
LWPOLYLINE
  5
507
100
AcDbEntity
  8
Ech.1_5
 62
    36
  6
CONTINUOUS
370
    -3
100
AcDbPolyline
 90
        4
 70
     0
 43
0.0
 10
36596.92348757
 20
-30298.65688605
 10
36596.92348798
 20
-30287.52780217
 10
36596.92348798
 20
-30287.52780217
 10
36585.14720832
 20
-30285.17423028
  0
LWPOLYLINE
  5
508
100
AcDbEntity
  8
Ech.1_5
 62
    36
  6
CONTINUOUS
370
    -3
100
AcDbPolyline
 90
        4
 70
     0
 43
0.0
 10
36611.84360139
 20
-30311.75611109
 10
36570.22709337
 20
-30303.43876075
 10
36570.22709337
 20
-30303.43876075
 10
36570.2270944
 20
-30275.11019151
  0
LINE
  5
509
100
AcDbEntity
  8
Ech.1_5
 62
    36
  6
CONTINUOUS
370
    -3
100
AcDbLine
 10
36568.544763
 20
-30274.77396581
 30
0.0
 11
36568.54476198
 21
-30303.10253505
 31
0.0
  0
LINE
  5
50A
100
AcDbEntity
  8
Ech.1_5
 62
    36
  6
CONTINUOUS
370
    -3
100
AcDbLine
 10
36505.80245169
 20
-30383.64262717
 30
0.0
 11
36464.18593565
 21
-30375.32527523
 31
0.0
  0
LWPOLYLINE
  5
50B
100
AcDbEntity
  8
Ech.1_5
 62
    36
  6
CONTINUOUS
370
    -3
100
AcDbPolyline
 90
        4
 70
     0
 43
0.0
 10
36490.88232754
 20
-30398.17072716
 10
36480.36295118
 20
-30396.06835618
 10
36480.36295118
 20
-30396.06835618
 10
36480.36295156
 20
-30385.64050743
  0
LINE
  5
50C
100
AcDbEntity
  8
Ech.1_5
 62
    36
  6
CONTINUOUS
370
    -3
100
AcDbLine
 10
36479.1060572
 20
-30396.51838501
 30
0.0
 11
36480.36295118
 21
-30396.06835618
 31
0.0
  0
LWPOLYLINE
  5
50D
100
AcDbEntity
  8
Ech.1_5
 62
    36
  6
CONTINUOUS
370
    -3
100
AcDbPolyline
 90
        4
 70
     0
 43
0.0
 10
36479.1060576
 20
-30385.38930596
 10
36479.1060572
 20
-30396.51838501
 10
36479.1060572
 20
-30396.51838501
 10
36490.88232883
 20
-30398.8719553
  0
LWPOLYLINE
  5
50E
100
AcDbEntity
  8
Ech.1_5
 62
    36
  6
CONTINUOUS
370
    -3
100
AcDbPolyline
 90
        4
 70
     0
 43
0.0
 10
36490.88232883
 20
-30398.8719553
 10
36490.88232923
 20
-30387.74287625
 10
36490.88232923
 20
-30387.74287625
 10
36479.1060576
 20
-30385.38930596
  0
LWPOLYLINE
  5
50F
100
AcDbEntity
  8
Ech.1_5
 62
    36
  6
CONTINUOUS
370
    -3
100
AcDbPolyline
 90
        4
 70
     0
 43
0.0
 10
36505.80245067
 20
-30411.971194
 10
36464.18593463
 20
-30403.65384206
 10
36464.18593463
 20
-30403.65384206
 10
36464.18593565
 20
-30375.32527523
  0
LINE
  5
510
100
AcDbEntity
  8
Ech.1_5
 62
    36
  6
CONTINUOUS
370
    -3
100
AcDbLine
 10
36505.80245169
 20
-30383.64262717
 30
0.0
 11
36505.80245067
 21
-30411.971194
 31
0.0
  0
LINE
  5
511
100
AcDbEntity
  8
Ech.1_5
 62
    36
  6
CONTINUOUS
370
    -3
100
AcDbLine
 10
36611.84359804
 20
-30404.83569229
 30
0.0
 11
36570.22709002
 21
-30396.51834195
 31
0.0
  0
LWPOLYLINE
  5
512
100
AcDbEntity
  8
Ech.1_5
 62
    36
  6
CONTINUOUS
370
    -3
100
AcDbPolyline
 90
        4
 70
     0
 43
0.0
 10
36596.92348191
 20
-30419.36379388
 10
36586.40409753
 20
-30417.2614213
 10
36586.40409753
 20
-30417.2614213
 10
36586.4040979
 20
-30406.83357254
  0
LINE
  5
513
100
AcDbEntity
  8
Ech.1_5
 62
    36
  6
CONTINUOUS
370
    -3
100
AcDbLine
 10
36585.14720354
 20
-30417.71145012
 30
0.0
 11
36586.40409753
 21
-30417.2614213
 31
0.0
  0
LWPOLYLINE
  5
514
100
AcDbEntity
  8
Ech.1_5
 62
    36
  6
CONTINUOUS
370
    -3
100
AcDbPolyline
 90
        4
 70
     0
 43
0.0
 10
36585.14720394
 20
-30406.58237107
 10
36585.14720354
 20
-30417.71145012
 10
36585.14720354
 20
-30417.71145012
 10
36596.92348319
 20
-30420.06502202
  0
LWPOLYLINE
  5
515
100
AcDbEntity
  8
Ech.1_5
 62
    36
  6
CONTINUOUS
370
    -3
100
AcDbPolyline
 90
        4
 70
     0
 43
0.0
 10
36596.92348319
 20
-30420.06502202
 10
36596.9234836
 20
-30408.93594297
 10
36596.9234836
 20
-30408.93594297
 10
36585.14720394
 20
-30406.58237107
  0
LWPOLYLINE
  5
516
100
AcDbEntity
  8
Ech.1_5
 62
    36
  6
CONTINUOUS
370
    -3
100
AcDbPolyline
 90
        4
 70
     0
 43
0.0
 10
36611.84359701
 20
-30433.16425912
 10
36570.22708899
 20
-30424.84690878
 10
36570.22708899
 20
-30424.84690878
 10
36570.22709002
 20
-30396.51834195
  0
LINE
  5
517
100
AcDbEntity
  8
Ech.1_5
 62
    36
  6
CONTINUOUS
370
    -3
100
AcDbLine
 10
36611.84359804
 20
-30404.83569229
 30
0.0
 11
36611.84359701
 21
-30433.16425912
 31
0.0
  0
LINE
  5
518
100
AcDbEntity
  8
Ech.1_5
 62
    36
  6
CONTINUOUS
370
    -3
100
AcDbLine
 10
36613.52592841
 20
-30433.50048482
 30
0.0
 11
36621.18041356
 21
-30430.75980899
 31
0.0
  0
LINE
  5
519
100
AcDbEntity
  8
Ech.1_5
 62
    36
  6
CONTINUOUS
370
    -3
100
AcDbLine
 10
36611.84359701
 20
-30433.16425912
 30
0.0
 11
36613.52592841
 21
-30433.50048482
 31
0.0
  0
LINE
  5
51A
100
AcDbEntity
  8
Ech.1_5
 62
    36
  6
CONTINUOUS
370
    -3
100
AcDbLine
 10
36613.52592943
 20
-30405.17191799
 30
0.0
 11
36621.18041458
 21
-30402.43124216
 31
0.0
  0
LWPOLYLINE
  5
51B
100
AcDbEntity
  8
Ech.1_5
 62
    36
  6
CONTINUOUS
370
    -3
100
AcDbPolyline
 90
        4
 70
     0
 43
0.0
 10
36613.52592841
 20
-30433.50048482
 10
36613.52592943
 20
-30405.17191799
 10
36613.52592943
 20
-30405.17191799
 10
36611.84359804
 20
-30404.83569229
  0
LINE
  5
51C
100
AcDbEntity
  8
Ech.1_5
 62
    36
  6
CONTINUOUS
370
    -3
100
AcDbLine
 10
36568.54475862
 20
-30396.18211625
 30
0.0
 11
36568.5447576
 21
-30424.51068308
 31
0.0
  0
LINE
  5
51D
100
AcDbEntity
  8
Ech.1_5
 62
    36
  6
CONTINUOUS
370
    -3
100
AcDbLine
 10
36462.5036203
 20
-30374.98905274
 30
0.0
 11
36462.50361928
 21
-30403.31761957
 31
0.0
  0
LINE
  5
51E
100
AcDbEntity
  8
Ech.1_5
 62
    36
  6
CONTINUOUS
370
    -3
100
AcDbLine
 10
36507.48478206
 20
-30412.3074197
 30
0.0
 11
36515.13926721
 21
-30409.56674387
 31
0.0
  0
LINE
  5
51F
100
AcDbEntity
  8
Ech.1_5
 62
    36
  6
CONTINUOUS
370
    -3
100
AcDbLine
 10
36505.80245067
 20
-30411.971194
 30
0.0
 11
36507.48478206
 21
-30412.3074197
 31
0.0
  0
LINE
  5
520
100
AcDbEntity
  8
Ech.1_5
 62
    36
  6
CONTINUOUS
370
    -3
100
AcDbLine
 10
36507.48478308
 20
-30383.97885287
 30
0.0
 11
36515.13926824
 21
-30381.23817705
 31
0.0
  0
LWPOLYLINE
  5
521
100
AcDbEntity
  8
Ech.1_5
 62
    36
  6
CONTINUOUS
370
    -3
100
AcDbPolyline
 90
        4
 70
     0
 43
0.0
 10
36507.48478206
 20
-30412.3074197
 10
36507.48478308
 20
-30383.97885287
 10
36507.48478308
 20
-30383.97885287
 10
36505.80245169
 20
-30383.64262717
  0
LINE
  5
522
100
AcDbEntity
  8
Ech.1_5
 62
    36
  6
CONTINUOUS
370
    -3
100
AcDbLine
 10
36505.80245388
 20
-30322.93854954
 30
0.0
 11
36464.18593784
 21
-30314.6211976
 31
0.0
  0
LWPOLYLINE
  5
523
100
AcDbEntity
  8
Ech.1_5
 62
    36
  6
CONTINUOUS
370
    -3
100
AcDbPolyline
 90
        4
 70
     0
 43
0.0
 10
36490.88232973
 20
-30337.46665435
 10
36480.36295337
 20
-30335.36428337
 10
36480.36295337
 20
-30335.36428337
 10
36480.36295375
 20
-30324.93643462
  0
LINE
  5
524
100
AcDbEntity
  8
Ech.1_5
 62
    36
  6
CONTINUOUS
370
    -3
100
AcDbLine
 10
36479.10605939
 20
-30335.8143122
 30
0.0
 11
36480.36295337
 21
-30335.36428337
 31
0.0
  0
LWPOLYLINE
  5
525
100
AcDbEntity
  8
Ech.1_5
 62
    36
  6
CONTINUOUS
370
    -3
100
AcDbPolyline
 90
        4
 70
     0
 43
0.0
 10
36479.10605979
 20
-30324.68523797
 10
36479.10605939
 20
-30335.8143122
 10
36479.10605939
 20
-30335.8143122
 10
36490.88233102
 20
-30338.16788249
  0
LWPOLYLINE
  5
526
100
AcDbEntity
  8
Ech.1_5
 62
    36
  6
CONTINUOUS
370
    -3
100
AcDbPolyline
 90
        4
 70
     0
 43
0.0
 10
36490.88233102
 20
-30338.16788249
 10
36490.88233142
 20
-30327.03880826
 10
36490.88233142
 20
-30327.03880826
 10
36479.10605979
 20
-30324.68523797
  0
LWPOLYLINE
  5
527
100
AcDbEntity
  8
Ech.1_5
 62
    36
  6
CONTINUOUS
370
    -3
100
AcDbPolyline
 90
        4
 70
     0
 43
0.0
 10
36505.80245286
 20
-30351.26711878
 10
36464.18593682
 20
-30342.94976684
 10
36464.18593682
 20
-30342.94976684
 10
36464.18593784
 20
-30314.6211976
  0
LINE
  5
528
100
AcDbEntity
  8
Ech.1_5
 62
    36
  6
CONTINUOUS
370
    -3
100
AcDbLine
 10
36505.80245388
 20
-30322.93854954
 30
0.0
 11
36505.80245286
 21
-30351.26711878
 31
0.0
  0
LINE
  5
529
100
AcDbEntity
  8
Ech.1_5
 62
    36
  6
CONTINUOUS
370
    -3
100
AcDbLine
 10
36507.48478425
 20
-30351.60334448
 30
0.0
 11
36515.1392694
 21
-30348.86266865
 31
0.0
  0
LINE
  5
52A
100
AcDbEntity
  8
Ech.1_5
 62
    36
  6
CONTINUOUS
370
    -3
100
AcDbLine
 10
36505.80245286
 20
-30351.26711878
 30
0.0
 11
36507.48478425
 21
-30351.60334448
 31
0.0
  0
LINE
  5
52B
100
AcDbEntity
  8
Ech.1_5
 62
    36
  6
CONTINUOUS
370
    -3
100
AcDbLine
 10
36507.48478527
 20
-30323.27477524
 30
0.0
 11
36515.13927043
 21
-30320.53409941
 31
0.0
  0
LWPOLYLINE
  5
52C
100
AcDbEntity
  8
Ech.1_5
 62
    36
  6
CONTINUOUS
370
    -3
100
AcDbPolyline
 90
        4
 70
     0
 43
0.0
 10
36507.48478425
 20
-30351.60334448
 10
36507.48478527
 20
-30323.27477524
 10
36507.48478527
 20
-30323.27477524
 10
36505.80245388
 20
-30322.93854954
  0
LINE
  5
52D
100
AcDbEntity
  8
Ech.1_5
 62
    36
  6
CONTINUOUS
370
    -3
100
AcDbLine
 10
36462.50362249
 20
-30314.2849751
 30
0.0
 11
36462.50362147
 21
-30342.61354435
 31
0.0
  0
LINE
  5
52E
100
AcDbEntity
  8
Ech.1_5
 62
    36
  6
CONTINUOUS
370
    -3
100
AcDbLine
 10
36464.18593353
 20
-30434.00587786
 30
0.0
 11
36464.18593455
 21
-30405.67731164
 31
0.0
  0
LINE
  5
52F
100
AcDbEntity
  8
Ech.1_5
 62
    36
  6
CONTINUOUS
370
    -3
100
AcDbLine
 10
36462.5036192
 20
-30405.34108914
 30
0.0
 11
36462.50361818
 21
-30433.66965537
 31
0.0
  0
LINE
  5
530
100
AcDbEntity
  8
Ech.1_5
 62
    36
  6
CONTINUOUS
370
    -3
100
AcDbLine
 10
36505.80245059
 20
-30413.99466358
 30
0.0
 11
36464.18593455
 21
-30405.67731164
 31
0.0
  0
LWPOLYLINE
  5
531
100
AcDbEntity
  8
Ech.1_5
 62
    36
  6
CONTINUOUS
370
    -3
100
AcDbPolyline
 90
        4
 70
     0
 43
0.0
 10
36490.88232645
 20
-30428.52276597
 10
36480.36295008
 20
-30426.420395
 10
36480.36295008
 20
-30426.420395
 10
36480.36295046
 20
-30415.99254142
  0
LINE
  5
532
100
AcDbEntity
  8
Ech.1_5
 62
    36
  6
CONTINUOUS
370
    -3
100
AcDbLine
 10
36479.1060561
 20
-30426.87042382
 30
0.0
 11
36480.36295008
 21
-30426.420395
 31
0.0
  0
LWPOLYLINE
  5
533
100
AcDbEntity
  8
Ech.1_5
 62
    36
  6
CONTINUOUS
370
    -3
100
AcDbPolyline
 90
        4
 70
     0
 43
0.0
 10
36479.1060565
 20
-30415.74134236
 10
36479.1060561
 20
-30426.87042382
 10
36479.1060561
 20
-30426.87042382
 10
36490.88232773
 20
-30429.22399411
  0
LWPOLYLINE
  5
534
100
AcDbEntity
  8
Ech.1_5
 62
    36
  6
CONTINUOUS
370
    -3
100
AcDbPolyline
 90
        4
 70
     0
 43
0.0
 10
36490.88232773
 20
-30429.22399411
 10
36490.88232813
 20
-30418.09491265
 10
36490.88232813
 20
-30418.09491265
 10
36479.1060565
 20
-30415.74134236
  0
LINE
  5
535
100
AcDbEntity
  8
Ech.1_5
 62
    36
  6
CONTINUOUS
370
    -3
100
AcDbLine
 10
36505.80244957
 20
-30442.3232298
 30
0.0
 11
36464.18593353
 21
-30434.00587786
 31
0.0
  0
LINE
  5
536
100
AcDbEntity
  8
Ech.1_5
 62
    36
  6
CONTINUOUS
370
    -3
100
AcDbLine
 10
36505.80245059
 20
-30413.99466358
 30
0.0
 11
36505.80244957
 21
-30442.3232298
 31
0.0
  0
LINE
  5
537
100
AcDbEntity
  8
Ech.1_5
 62
    36
  6
CONTINUOUS
370
    -3
100
AcDbLine
 10
36507.48478097
 20
-30442.6594555
 30
0.0
 11
36515.13926612
 21
-30439.91877967
 31
0.0
  0
LINE
  5
538
100
AcDbEntity
  8
Ech.1_5
 62
    36
  6
CONTINUOUS
370
    -3
100
AcDbLine
 10
36505.80244957
 20
-30442.3232298
 30
0.0
 11
36507.48478097
 21
-30442.6594555
 31
0.0
  0
LINE
  5
539
100
AcDbEntity
  8
Ech.1_5
 62
    36
  6
CONTINUOUS
370
    -3
100
AcDbLine
 10
36507.48478199
 20
-30414.33088928
 30
0.0
 11
36515.13926714
 21
-30411.59021345
 31
0.0
  0
LWPOLYLINE
  5
53A
100
AcDbEntity
  8
Ech.1_5
 62
    36
  6
CONTINUOUS
370
    -3
100
AcDbPolyline
 90
        4
 70
     0
 43
0.0
 10
36507.48478097
 20
-30442.6594555
 10
36507.48478199
 20
-30414.33088928
 10
36507.48478199
 20
-30414.33088928
 10
36505.80245059
 20
-30413.99466358
  0
LINE
  5
53B
100
AcDbEntity
  8
Ech.1_5
 62
     9
  6
CONTINUOUS
370
    -3
100
AcDbLine
 10
36640.69752482
 20
-30454.12377479
 30
0.0
 11
36647.22275049
 21
-30451.78742846
 31
0.0
  0
LINE
  5
53C
100
AcDbEntity
  8
Ech.1_5
 62
     9
  6
CONTINUOUS
370
    -3
100
AcDbLine
 10
36591.66076408
 20
-30447.52465205
 30
0.0
 11
36596.92342869
 21
-30445.64036363
 31
0.0
  0
LINE
  5
53D
100
AcDbEntity
  8
Ech.1_5
 62
     9
  6
CONTINUOUS
370
    -3
100
AcDbLine
 10
36663.29693105
 20
-30441.13043658
 30
0.0
 11
36714.56563887
 21
-30422.77376001
 31
0.0
  0
LINE
  5
53E
100
AcDbEntity
  8
Ech.1_5
 62
     9
  6
CONTINUOUS
370
    -3
100
AcDbLine
 10
36663.29693003
 20
-30469.45900281
 30
0.0
 11
36663.29693105
 21
-30441.13043658
 31
0.0
  0
LINE
  5
53F
100
AcDbEntity
  8
Ech.1_5
 62
     9
  6
CONTINUOUS
370
    -3
100
AcDbLine
 10
36663.29693003
 20
-30469.45900281
 30
0.0
 11
36714.56563784
 21
-30451.10232623
 31
0.0
  0
LINE
  5
540
100
AcDbEntity
  8
Ech.1_5
 62
     9
  6
CONTINUOUS
370
    -3
100
AcDbLine
 10
36714.56563887
 20
-30422.77376001
 30
0.0
 11
36714.56563784
 21
-30451.10232623
 31
0.0
  0
LINE
  5
541
100
AcDbEntity
  8
Ech.1_5
 62
     9
  6
CONTINUOUS
370
    -3
100
AcDbLine
 10
36566.86869764
 20
-30439.36856706
 30
0.0
 11
36567.66351613
 21
-30439.0839836
 31
0.0
  0
LINE
  5
542
100
AcDbEntity
  8
Ech.1_5
 62
    36
  6
CONTINUOUS
370
    -3
100
AcDbLine
 10
36613.52592731
 20
-30463.85252062
 30
0.0
 11
36621.18041246
 21
-30461.11184479
 31
0.0
  0
LWPOLYLINE
  5
543
100
AcDbEntity
  8
Ech.1_5
 62
    36
  6
CONTINUOUS
370
    -3
100
AcDbPolyline
 90
        4
 70
     0
 43
0.0
 10
36611.84359694
 20
-30435.18772869
 10
36611.84359592
 20
-30463.51629492
 10
36611.84359592
 20
-30463.51629492
 10
36613.52592731
 20
-30463.85252062
  0
LINE
  5
544
100
AcDbEntity
  8
Ech.1_5
 62
    36
  6
CONTINUOUS
370
    -3
100
AcDbLine
 10
36613.52592833
 20
-30435.5239544
 30
0.0
 11
36621.18041349
 21
-30432.78327857
 31
0.0
  0
LWPOLYLINE
  5
545
100
AcDbEntity
  8
Ech.1_5
 62
    36
  6
CONTINUOUS
370
    -3
100
AcDbPolyline
 90
        4
 70
     0
 43
0.0
 10
36613.52592731
 20
-30463.85252062
 10
36613.52592833
 20
-30435.5239544
 10
36613.52592833
 20
-30435.5239544
 10
36611.84359694
 20
-30435.18772869
  0
LINE
  5
546
100
AcDbEntity
  8
Ech.1_5
 62
    36
  6
CONTINUOUS
370
    -3
100
AcDbLine
 10
36611.84359694
 20
-30435.18772869
 30
0.0
 11
36570.22708892
 21
-30426.87037836
 31
0.0
  0
LWPOLYLINE
  5
547
100
AcDbEntity
  8
Ech.1_5
 62
    36
  6
CONTINUOUS
370
    -3
100
AcDbPolyline
 90
        4
 70
     0
 43
0.0
 10
36596.92348082
 20
-30449.71583269
 10
36586.40409643
 20
-30447.61346011
 10
36586.40409643
 20
-30447.61346011
 10
36586.40409681
 20
-30437.18560654
  0
LINE
  5
548
100
AcDbEntity
  8
Ech.1_5
 62
    36
  6
CONTINUOUS
370
    -3
100
AcDbLine
 10
36585.14720245
 20
-30448.06348894
 30
0.0
 11
36586.40409643
 21
-30447.61346011
 31
0.0
  0
LWPOLYLINE
  5
549
100
AcDbEntity
  8
Ech.1_5
 62
    36
  6
CONTINUOUS
370
    -3
100
AcDbPolyline
 90
        4
 70
     0
 43
0.0
 10
36585.14720285
 20
-30436.93440748
 10
36585.14720245
 20
-30448.06348894
 10
36585.14720245
 20
-30448.06348894
 10
36596.9234821
 20
-30450.41706083
  0
LWPOLYLINE
  5
54A
100
AcDbEntity
  8
Ech.1_5
 62
    36
  6
CONTINUOUS
370
    -3
100
AcDbPolyline
 90
        4
 70
     0
 43
0.0
 10
36596.9234821
 20
-30450.41706083
 10
36596.9234825
 20
-30439.28797937
 10
36596.9234825
 20
-30439.28797937
 10
36585.14720285
 20
-30436.93440748
  0
LWPOLYLINE
  5
54B
100
AcDbEntity
  8
Ech.1_5
 62
    36
  6
CONTINUOUS
370
    -3
100
AcDbPolyline
 90
        4
 70
     0
 43
0.0
 10
36611.84359592
 20
-30463.51629492
 10
36570.2270879
 20
-30455.19894458
 10
36570.2270879
 20
-30455.19894458
 10
36570.22708892
 20
-30426.87037836
  0
LINE
  5
54C
100
AcDbEntity
  8
Ech.1_5
 62
    36
  6
CONTINUOUS
370
    -3
100
AcDbLine
 10
36568.54475753
 20
-30426.53415266
 30
0.0
 11
36568.5447565
 21
-30454.86271888
 31
0.0
  0
LINE
  5
54D
100
AcDbEntity
  8
Ech.1_5
 62
    36
  6
CONTINUOUS
370
    -3
100
AcDbLine
 10
36464.18593572
 20
-30373.30180324
 30
0.0
 11
36464.18593674
 21
-30344.973234
 31
0.0
  0
LINE
  5
54E
100
AcDbEntity
  8
Ech.1_5
 62
    36
  6
CONTINUOUS
370
    -3
100
AcDbLine
 10
36462.50362139
 20
-30344.63701151
 30
0.0
 11
36462.50362037
 21
-30372.96558075
 31
0.0
  0
LINE
  5
54F
100
AcDbEntity
  8
Ech.1_5
 62
    36
  6
CONTINUOUS
370
    -3
100
AcDbLine
 10
36611.84360132
 20
-30313.77957825
 30
0.0
 11
36570.2270933
 21
-30305.46222792
 31
0.0
  0
LWPOLYLINE
  5
550
100
AcDbEntity
  8
Ech.1_5
 62
    36
  6
CONTINUOUS
370
    -3
100
AcDbPolyline
 90
        4
 70
     0
 43
0.0
 10
36596.9234852
 20
-30328.30768466
 10
36586.40410081
 20
-30326.20531209
 10
36586.40410081
 20
-30326.20531209
 10
36586.40410119
 20
-30315.77746333
  0
LINE
  5
551
100
AcDbEntity
  8
Ech.1_5
 62
    36
  6
CONTINUOUS
370
    -3
100
AcDbLine
 10
36585.14720683
 20
-30326.65534091
 30
0.0
 11
36586.40410081
 21
-30326.20531209
 31
0.0
  0
LWPOLYLINE
  5
552
100
AcDbEntity
  8
Ech.1_5
 62
    36
  6
CONTINUOUS
370
    -3
100
AcDbPolyline
 90
        4
 70
     0
 43
0.0
 10
36585.14720723
 20
-30315.52626668
 10
36585.14720683
 20
-30326.65534091
 10
36585.14720683
 20
-30326.65534091
 10
36596.92348648
 20
-30329.0089128
  0
LWPOLYLINE
  5
553
100
AcDbEntity
  8
Ech.1_5
 62
    36
  6
CONTINUOUS
370
    -3
100
AcDbPolyline
 90
        4
 70
     0
 43
0.0
 10
36596.92348648
 20
-30329.0089128
 10
36596.92348688
 20
-30317.87983858
 10
36596.92348688
 20
-30317.87983858
 10
36585.14720723
 20
-30315.52626668
  0
LWPOLYLINE
  5
554
100
AcDbEntity
  8
Ech.1_5
 62
    36
  6
CONTINUOUS
370
    -3
100
AcDbPolyline
 90
        4
 70
     0
 43
0.0
 10
36611.8436003
 20
-30342.10814749
 10
36570.22709228
 20
-30333.79079716
 10
36570.22709228
 20
-30333.79079716
 10
36570.2270933
 20
-30305.46222792
  0
LINE
  5
555
100
AcDbEntity
  8
Ech.1_5
 62
    36
  6
CONTINUOUS
370
    -3
100
AcDbLine
 10
36611.84360132
 20
-30313.77957825
 30
0.0
 11
36611.8436003
 21
-30342.10814749
 31
0.0
  0
LINE
  5
556
100
AcDbEntity
  8
Ech.1_5
 62
    36
  6
CONTINUOUS
370
    -3
100
AcDbLine
 10
36613.52593169
 20
-30342.44437319
 30
0.0
 11
36621.18041685
 21
-30339.70369736
 31
0.0
  0
LINE
  5
557
100
AcDbEntity
  8
Ech.1_5
 62
    36
  6
CONTINUOUS
370
    -3
100
AcDbLine
 10
36611.8436003
 20
-30342.10814749
 30
0.0
 11
36613.52593169
 21
-30342.44437319
 31
0.0
  0
LINE
  5
558
100
AcDbEntity
  8
Ech.1_5
 62
    36
  6
CONTINUOUS
370
    -3
100
AcDbLine
 10
36613.52593272
 20
-30314.11580395
 30
0.0
 11
36621.18041787
 21
-30311.37512812
 31
0.0
  0
LWPOLYLINE
  5
559
100
AcDbEntity
  8
Ech.1_5
 62
    36
  6
CONTINUOUS
370
    -3
100
AcDbPolyline
 90
        4
 70
     0
 43
0.0
 10
36613.52593169
 20
-30342.44437319
 10
36613.52593272
 20
-30314.11580395
 10
36613.52593272
 20
-30314.11580395
 10
36611.84360132
 20
-30313.77957825
  0
LINE
  5
55A
100
AcDbEntity
  8
Ech.1_5
 62
    36
  6
CONTINUOUS
370
    -3
100
AcDbLine
 10
36568.54476191
 20
-30305.12600221
 30
0.0
 11
36568.54476088
 21
-30333.45457145
 31
0.0
  0
LINE
  5
55B
100
AcDbEntity
  8
Ech.1_5
 62
    36
  6
CONTINUOUS
370
    -3
100
AcDbLine
 10
36505.80245278
 20
-30353.29058594
 30
0.0
 11
36464.18593674
 21
-30344.973234
 31
0.0
  0
LWPOLYLINE
  5
55C
100
AcDbEntity
  8
Ech.1_5
 62
    36
  6
CONTINUOUS
370
    -3
100
AcDbPolyline
 90
        4
 70
     0
 43
0.0
 10
36490.88232864
 20
-30367.81869075
 10
36480.36295227
 20
-30365.71631978
 10
36480.36295227
 20
-30365.71631978
 10
36480.36295265
 20
-30355.28847102
  0
LINE
  5
55D
100
AcDbEntity
  8
Ech.1_5
 62
    36
  6
CONTINUOUS
370
    -3
100
AcDbLine
 10
36479.10605829
 20
-30366.1663486
 30
0.0
 11
36480.36295227
 21
-30365.71631978
 31
0.0
  0
LWPOLYLINE
  5
55E
100
AcDbEntity
  8
Ech.1_5
 62
    36
  6
CONTINUOUS
370
    -3
100
AcDbPolyline
 90
        4
 70
     0
 43
0.0
 10
36479.10605869
 20
-30355.03727438
 10
36479.10605829
 20
-30366.1663486
 10
36479.10605829
 20
-30366.1663486
 10
36490.88232992
 20
-30368.51991889
  0
LWPOLYLINE
  5
55F
100
AcDbEntity
  8
Ech.1_5
 62
    36
  6
CONTINUOUS
370
    -3
100
AcDbPolyline
 90
        4
 70
     0
 43
0.0
 10
36490.88232992
 20
-30368.51991889
 10
36490.88233032
 20
-30357.39084467
 10
36490.88233032
 20
-30357.39084467
 10
36479.10605869
 20
-30355.03727438
  0
LINE
  5
560
100
AcDbEntity
  8
Ech.1_5
 62
    36
  6
CONTINUOUS
370
    -3
100
AcDbLine
 10
36505.80245176
 20
-30381.61915519
 30
0.0
 11
36464.18593572
 21
-30373.30180324
 31
0.0
  0
LINE
  5
561
100
AcDbEntity
  8
Ech.1_5
 62
    36
  6
CONTINUOUS
370
    -3
100
AcDbLine
 10
36505.80245278
 20
-30353.29058594
 30
0.0
 11
36505.80245176
 21
-30381.61915519
 31
0.0
  0
LINE
  5
562
100
AcDbEntity
  8
Ech.1_5
 62
    36
  6
CONTINUOUS
370
    -3
100
AcDbLine
 10
36507.48478316
 20
-30381.95538089
 30
0.0
 11
36515.13926831
 21
-30379.21470506
 31
0.0
  0
LINE
  5
563
100
AcDbEntity
  8
Ech.1_5
 62
    36
  6
CONTINUOUS
370
    -3
100
AcDbLine
 10
36505.80245176
 20
-30381.61915519
 30
0.0
 11
36507.48478316
 21
-30381.95538089
 31
0.0
  0
LINE
  5
564
100
AcDbEntity
  8
Ech.1_5
 62
    36
  6
CONTINUOUS
370
    -3
100
AcDbLine
 10
36507.48478418
 20
-30353.62681165
 30
0.0
 11
36515.13926933
 21
-30350.88613582
 31
0.0
  0
LWPOLYLINE
  5
565
100
AcDbEntity
  8
Ech.1_5
 62
    36
  6
CONTINUOUS
370
    -3
100
AcDbPolyline
 90
        4
 70
     0
 43
0.0
 10
36507.48478316
 20
-30381.95538089
 10
36507.48478418
 20
-30353.62681165
 10
36507.48478418
 20
-30353.62681165
 10
36505.80245278
 20
-30353.29058594
  0
LINE
  5
566
100
AcDbEntity
  8
Ech.1_5
 62
    36
  6
CONTINUOUS
370
    -3
100
AcDbLine
 10
36611.84359913
 20
-30374.48365106
 30
0.0
 11
36570.22709111
 21
-30366.16630072
 31
0.0
  0
LWPOLYLINE
  5
567
100
AcDbEntity
  8
Ech.1_5
 62
    36
  6
CONTINUOUS
370
    -3
100
AcDbPolyline
 90
        4
 70
     0
 43
0.0
 10
36596.92348301
 20
-30389.01175747
 10
36586.40409862
 20
-30386.90938489
 10
36586.40409862
 20
-30386.90938489
 10
36586.404099
 20
-30376.48153614
  0
LINE
  5
568
100
AcDbEntity
  8
Ech.1_5
 62
    36
  6
CONTINUOUS
370
    -3
100
AcDbLine
 10
36585.14720464
 20
-30387.35941372
 30
0.0
 11
36586.40409862
 21
-30386.90938489
 31
0.0
  0
LWPOLYLINE
  5
569
100
AcDbEntity
  8
Ech.1_5
 62
    36
  6
CONTINUOUS
370
    -3
100
AcDbPolyline
 90
        4
 70
     0
 43
0.0
 10
36585.14720504
 20
-30376.23033949
 10
36585.14720464
 20
-30387.35941372
 10
36585.14720464
 20
-30387.35941372
 10
36596.92348429
 20
-30389.71298561
  0
LWPOLYLINE
  5
56A
100
AcDbEntity
  8
Ech.1_5
 62
    36
  6
CONTINUOUS
370
    -3
100
AcDbPolyline
 90
        4
 70
     0
 43
0.0
 10
36596.92348429
 20
-30389.71298561
 10
36596.92348469
 20
-30378.58391139
 10
36596.92348469
 20
-30378.58391139
 10
36585.14720504
 20
-30376.23033949
  0
LWPOLYLINE
  5
56B
100
AcDbEntity
  8
Ech.1_5
 62
    36
  6
CONTINUOUS
370
    -3
100
AcDbPolyline
 90
        4
 70
     0
 43
0.0
 10
36611.84359811
 20
-30402.8122203
 10
36570.22709009
 20
-30394.49486996
 10
36570.22709009
 20
-30394.49486996
 10
36570.22709111
 20
-30366.16630072
  0
LINE
  5
56C
100
AcDbEntity
  8
Ech.1_5
 62
    36
  6
CONTINUOUS
370
    -3
100
AcDbLine
 10
36611.84359913
 20
-30374.48365106
 30
0.0
 11
36611.84359811
 21
-30402.8122203
 31
0.0
  0
LINE
  5
56D
100
AcDbEntity
  8
Ech.1_5
 62
    36
  6
CONTINUOUS
370
    -3
100
AcDbLine
 10
36613.5259295
 20
-30403.148446
 30
0.0
 11
36621.18041466
 21
-30400.40777017
 31
0.0
  0
LINE
  5
56E
100
AcDbEntity
  8
Ech.1_5
 62
    36
  6
CONTINUOUS
370
    -3
100
AcDbLine
 10
36611.84359811
 20
-30402.8122203
 30
0.0
 11
36613.5259295
 21
-30403.148446
 31
0.0
  0
LINE
  5
56F
100
AcDbEntity
  8
Ech.1_5
 62
    36
  6
CONTINUOUS
370
    -3
100
AcDbLine
 10
36613.52593052
 20
-30374.81987676
 30
0.0
 11
36621.18041568
 21
-30372.07920093
 31
0.0
  0
LWPOLYLINE
  5
570
100
AcDbEntity
  8
Ech.1_5
 62
    36
  6
CONTINUOUS
370
    -3
100
AcDbPolyline
 90
        4
 70
     0
 43
0.0
 10
36613.5259295
 20
-30403.148446
 10
36613.52593052
 20
-30374.81987676
 10
36613.52593052
 20
-30374.81987676
 10
36611.84359913
 20
-30374.48365106
  0
LINE
  5
571
100
AcDbEntity
  8
Ech.1_5
 62
    36
  6
CONTINUOUS
370
    -3
100
AcDbLine
 10
36568.54475972
 20
-30365.83007502
 30
0.0
 11
36568.54475869
 21
-30394.15864426
 31
0.0
  0
LINE
  5
572
100
AcDbEntity
  8
Ech.1_5
 62
    36
  6
CONTINUOUS
370
    -3
100
AcDbLine
 10
36464.18593791
 20
-30312.59773044
 30
0.0
 11
36464.18593893
 21
-30284.2691612
 31
0.0
  0
LINE
  5
573
100
AcDbEntity
  8
Ech.1_5
 62
    36
  6
CONTINUOUS
370
    -3
100
AcDbLine
 10
36462.50362358
 20
-30283.9329387
 30
0.0
 11
36462.50362256
 21
-30312.26150794
 31
0.0
  0
LINE
  5
574
100
AcDbEntity
  8
Ech.1_5
 62
    36
  6
CONTINUOUS
370
    -3
100
AcDbLine
 10
36505.80245497
 20
-30292.58651314
 30
0.0
 11
36464.18593893
 21
-30284.2691612
 31
0.0
  0
LWPOLYLINE
  5
575
100
AcDbEntity
  8
Ech.1_5
 62
    36
  6
CONTINUOUS
370
    -3
100
AcDbPolyline
 90
        4
 70
     0
 43
0.0
 10
36490.88233083
 20
-30307.11461794
 10
36480.36295446
 20
-30305.01224697
 10
36480.36295446
 20
-30305.01224697
 10
36480.36295484
 20
-30294.58439821
  0
LINE
  5
576
100
AcDbEntity
  8
Ech.1_5
 62
    36
  6
CONTINUOUS
370
    -3
100
AcDbLine
 10
36479.10606048
 20
-30305.46227579
 30
0.0
 11
36480.36295446
 21
-30305.01224697
 31
0.0
  0
LWPOLYLINE
  5
577
100
AcDbEntity
  8
Ech.1_5
 62
    36
  6
CONTINUOUS
370
    -3
100
AcDbPolyline
 90
        4
 70
     0
 43
0.0
 10
36479.10606088
 20
-30294.33320157
 10
36479.10606048
 20
-30305.46227579
 10
36479.10606048
 20
-30305.46227579
 10
36490.88233211
 20
-30307.81584608
  0
LWPOLYLINE
  5
578
100
AcDbEntity
  8
Ech.1_5
 62
    36
  6
CONTINUOUS
370
    -3
100
AcDbPolyline
 90
        4
 70
     0
 43
0.0
 10
36490.88233211
 20
-30307.81584608
 10
36490.88233251
 20
-30296.68677186
 10
36490.88233251
 20
-30296.68677186
 10
36479.10606088
 20
-30294.33320157
  0
LINE
  5
579
100
AcDbEntity
  8
Ech.1_5
 62
    36
  6
CONTINUOUS
370
    -3
100
AcDbLine
 10
36505.80245395
 20
-30320.91508238
 30
0.0
 11
36464.18593791
 21
-30312.59773044
 31
0.0
  0
LINE
  5
57A
100
AcDbEntity
  8
Ech.1_5
 62
    36
  6
CONTINUOUS
370
    -3
100
AcDbLine
 10
36505.80245497
 20
-30292.58651314
 30
0.0
 11
36505.80245395
 21
-30320.91508238
 31
0.0
  0
LINE
  5
57B
100
AcDbEntity
  8
Ech.1_5
 62
    36
  6
CONTINUOUS
370
    -3
100
AcDbLine
 10
36507.48478535
 20
-30321.25130808
 30
0.0
 11
36515.1392705
 21
-30318.51063225
 31
0.0
  0
LINE
  5
57C
100
AcDbEntity
  8
Ech.1_5
 62
    36
  6
CONTINUOUS
370
    -3
100
AcDbLine
 10
36505.80245395
 20
-30320.91508238
 30
0.0
 11
36507.48478535
 21
-30321.25130808
 31
0.0
  0
LINE
  5
57D
100
AcDbEntity
  8
Ech.1_5
 62
    36
  6
CONTINUOUS
370
    -3
100
AcDbLine
 10
36507.48478637
 20
-30292.92273884
 30
0.0
 11
36515.13927152
 21
-30290.18206301
 31
0.0
  0
LWPOLYLINE
  5
57E
100
AcDbEntity
  8
Ech.1_5
 62
    36
  6
CONTINUOUS
370
    -3
100
AcDbPolyline
 90
        4
 70
     0
 43
0.0
 10
36507.48478535
 20
-30321.25130808
 10
36507.48478637
 20
-30292.92273884
 10
36507.48478637
 20
-30292.92273884
 10
36505.80245497
 20
-30292.58651314
  0
LINE
  5
57F
100
AcDbEntity
  8
Ech.1_5
 62
     9
  6
CONTINUOUS
370
    -3
100
AcDbLine
 10
36640.69752701
 20
-30393.41970017
 30
0.0
 11
36647.22275268
 21
-30391.08335384
 31
0.0
  0
LINE
  5
580
100
AcDbEntity
  8
Ech.1_5
 62
     9
  6
CONTINUOUS
370
    -3
100
AcDbLine
 10
36591.66076627
 20
-30386.82057743
 30
0.0
 11
36596.92343088
 21
-30384.93628901
 31
0.0
  0
LINE
  5
581
100
AcDbEntity
  8
Ech.1_5
 62
     9
  6
CONTINUOUS
370
    -3
100
AcDbLine
 10
36566.86869983
 20
-30378.66449244
 30
0.0
 11
36567.66351832
 21
-30378.37990899
 31
0.0
  0
LWPOLYLINE
  5
582
100
AcDbEntity
  8
Ech.1_5
 62
     9
  6
CONTINUOUS
370
    -3
100
AcDbPolyline
 90
        4
 70
     0
 43
0.0
 10
36525.05754431
 20
-30359.95051391
 10
36525.05754394
 20
-30370.3082459
 10
36525.05754394
 20
-30370.3082459
 10
36529.72081614
 20
-30371.24023348
  0
LINE
  5
583
100
AcDbEntity
  8
Ech.1_5
 62
     9
  6
CONTINUOUS
370
    -3
100
AcDbLine
 10
36525.05754394
 20
-30370.3082459
 30
0.0
 11
36523.80065033
 21
-30370.7582746
 31
0.0
  0
LWPOLYLINE
  5
584
100
AcDbEntity
  8
Ech.1_5
 62
     9
  6
CONTINUOUS
370
    -3
100
AcDbPolyline
 90
        4
 70
     0
 43
0.0
 10
36529.7208178
 20
-30371.94146149
 10
36523.80065033
 20
-30370.7582746
 10
36523.80065033
 20
-30370.7582746
 10
36523.80065073
 20
-30359.69931713
  0
LINE
  5
585
100
AcDbEntity
  8
Ech.1_5
 62
     9
  6
CONTINUOUS
370
    -3
100
AcDbLine
 10
36485.61964551
 20
-30356.33905303
 30
0.0
 11
36485.61964513
 21
-30366.76690661
 31
0.0
  0
LINE
  5
586
100
AcDbEntity
  8
Ech.1_5
 62
     9
  6
CONTINUOUS
370
    -3
100
AcDbLine
 10
36484.36275155
 20
-30366.51570501
 30
0.0
 11
36484.36275193
 21
-30356.08785625
 31
0.0
  0
LWPOLYLINE
  5
587
100
AcDbEntity
  8
Ech.1_5
 62
     9
  6
CONTINUOUS
370
    -3
100
AcDbPolyline
 90
        4
 70
     0
 43
0.0
 10
36450.16156635
 20
-30356.04098837
 10
36444.24139888
 20
-30354.85780148
 10
36444.24139888
 20
-30354.85780148
 10
36444.24139928
 20
-30343.79884401
  0
LINE
  5
588
100
AcDbEntity
  8
Ech.1_5
 62
     9
  6
CONTINUOUS
370
    -3
100
AcDbLine
 10
36444.24139888
 20
-30354.85780148
 30
0.0
 11
36445.49829249
 21
-30354.40777279
 31
0.0
  0
LWPOLYLINE
  5
589
100
AcDbEntity
  8
Ech.1_5
 62
     9
  6
CONTINUOUS
370
    -3
100
AcDbPolyline
 90
        4
 70
     0
 43
0.0
 10
36445.49829287
 20
-30344.05004079
 10
36445.49829249
 20
-30354.40777279
 10
36445.49829249
 20
-30354.40777279
 10
36450.16156469
 20
-30355.33976037
  0
LINE
  5
58A
100
AcDbEntity
  8
Ech.1_5
 62
     9
  6
CONTINUOUS
370
    -3
100
AcDbLine
 10
36485.61961191
 20
-30365.62751071
 30
0.0
 11
36489.59942651
 21
-30364.20254463
 31
0.0
  0
LINE
  5
58B
100
AcDbEntity
  8
Ech.1_5
 62
     9
  6
CONTINUOUS
370
    -3
100
AcDbLine
 10
36449.36669693
 20
-30355.18089495
 30
0.0
 11
36450.16151542
 21
-30354.89631149
 31
0.0
  0
LWPOLYLINE
  5
58C
100
AcDbEntity
  8
Ech.1_5
 62
     9
  6
CONTINUOUS
370
    -3
100
AcDbPolyline
 90
        4
 70
     0
 43
0.0
 10
36525.05754322
 20
-30390.30255514
 10
36525.05754285
 20
-30400.66028231
 10
36525.05754285
 20
-30400.66028231
 10
36529.72081504
 20
-30401.59226989
  0
LINE
  5
58D
100
AcDbEntity
  8
Ech.1_5
 62
     9
  6
CONTINUOUS
370
    -3
100
AcDbLine
 10
36525.05754285
 20
-30400.66028231
 30
0.0
 11
36523.80064924
 21
-30401.110311
 31
0.0
  0
LWPOLYLINE
  5
58E
100
AcDbEntity
  8
Ech.1_5
 62
     9
  6
CONTINUOUS
370
    -3
100
AcDbPolyline
 90
        4
 70
     0
 43
0.0
 10
36529.7208167
 20
-30402.29349789
 10
36523.80064924
 20
-30401.110311
 10
36523.80064924
 20
-30401.110311
 10
36523.80064964
 20
-30390.05135353
  0
LINE
  5
58F
100
AcDbEntity
  8
Ech.1_5
 62
     9
  6
CONTINUOUS
370
    -3
100
AcDbLine
 10
36485.61964442
 20
-30386.69108943
 30
0.0
 11
36485.61964404
 21
-30397.11894301
 31
0.0
  0
LINE
  5
590
100
AcDbEntity
  8
Ech.1_5
 62
     9
  6
CONTINUOUS
370
    -3
100
AcDbLine
 10
36484.36275046
 20
-30396.86774382
 30
0.0
 11
36484.36275083
 21
-30386.43989265
 31
0.0
  0
LWPOLYLINE
  5
591
100
AcDbEntity
  8
Ech.1_5
 62
     9
  6
CONTINUOUS
370
    -3
100
AcDbPolyline
 90
        4
 70
     0
 43
0.0
 10
36450.16156525
 20
-30386.39302478
 10
36444.24139779
 20
-30385.20983788
 10
36444.24139779
 20
-30385.20983788
 10
36444.24139819
 20
-30374.15088042
  0
LINE
  5
592
100
AcDbEntity
  8
Ech.1_5
 62
     9
  6
CONTINUOUS
370
    -3
100
AcDbLine
 10
36444.24139779
 20
-30385.20983788
 30
0.0
 11
36445.4982914
 21
-30384.75980919
 31
0.0
  0
LWPOLYLINE
  5
593
100
AcDbEntity
  8
Ech.1_5
 62
     9
  6
CONTINUOUS
370
    -3
100
AcDbPolyline
 90
        4
 70
     0
 43
0.0
 10
36445.49829177
 20
-30374.40208202
 10
36445.4982914
 20
-30384.75980919
 10
36445.4982914
 20
-30384.75980919
 10
36450.1615636
 20
-30385.69179677
  0
LINE
  5
594
100
AcDbEntity
  8
Ech.1_5
 62
     9
  6
CONTINUOUS
370
    -3
100
AcDbLine
 10
36485.61961081
 20
-30395.97954953
 30
0.0
 11
36489.59942542
 21
-30394.55458345
 31
0.0
  0
LINE
  5
595
100
AcDbEntity
  8
Ech.1_5
 62
     9
  6
CONTINUOUS
370
    -3
100
AcDbLine
 10
36449.36669583
 20
-30385.53293376
 30
0.0
 11
36450.16151433
 21
-30385.24835031
 31
0.0
  0
LINE
  5
596
100
AcDbEntity
  8
Ech.1_5
 62
     9
  6
CONTINUOUS
370
    -3
100
AcDbLine
 10
36507.48478206
 20
-30412.3074197
 30
0.0
 11
36515.13926721
 21
-30409.56674387
 31
0.0
  0
LWPOLYLINE
  5
597
100
AcDbEntity
  8
Ech.1_5
 62
     9
  6
CONTINUOUS
370
    -3
100
AcDbPolyline
 90
        4
 70
     0
 43
0.0
 10
36462.50361928
 20
-30403.31761957
 10
36507.48478206
 20
-30412.3074197
 10
36507.48478206
 20
-30412.3074197
 10
36507.48478199
 20
-30414.33088928
  0
LINE
  5
598
100
AcDbEntity
  8
Ech.1_5
 62
     9
  6
CONTINUOUS
370
    -3
100
AcDbLine
 10
36515.13926714
 20
-30411.59021345
 30
0.0
 11
36507.48478199
 21
-30414.33088928
 31
0.0
  0
LWPOLYLINE
  5
599
100
AcDbEntity
  8
Ech.1_5
 62
     9
  6
CONTINUOUS
370
    -3
100
AcDbPolyline
 90
        4
 70
     0
 43
0.0
 10
36507.48478199
 20
-30414.33088928
 10
36462.5036192
 20
-30405.34108914
 10
36462.5036192
 20
-30405.34108914
 10
36462.50361928
 20
-30403.31761957
  0
LINE
  5
59A
100
AcDbEntity
  8
Ech.1_5
 62
     9
  6
CONTINUOUS
370
    -3
100
AcDbLine
 10
36613.52592943
 20
-30405.17191799
 30
0.0
 11
36621.18041458
 21
-30402.43124216
 31
0.0
  0
LINE
  5
59B
100
AcDbEntity
  8
Ech.1_5
 62
     9
  6
CONTINUOUS
370
    -3
100
AcDbLine
 10
36568.54475862
 20
-30396.18211625
 30
0.0
 11
36613.52592943
 21
-30405.17191799
 31
0.0
  0
LINE
  5
59C
100
AcDbEntity
  8
Ech.1_5
 62
     9
  6
CONTINUOUS
370
    -3
100
AcDbLine
 10
36621.18041466
 20
-30400.40777017
 30
0.0
 11
36613.5259295
 21
-30403.148446
 31
0.0
  0
LINE
  5
59D
100
AcDbEntity
  8
Ech.1_5
 62
     9
  6
CONTINUOUS
370
    -3
100
AcDbLine
 10
36613.5259295
 20
-30403.148446
 30
0.0
 11
36568.54475869
 21
-30394.15864426
 31
0.0
  0
LINE
  5
59E
100
AcDbEntity
  8
Ech.1_5
 62
     9
  6
CONTINUOUS
370
    -3
100
AcDbLine
 10
36613.5259295
 20
-30403.148446
 30
0.0
 11
36613.52592943
 21
-30405.17191799
 31
0.0
  0
LINE
  5
59F
100
AcDbEntity
  8
Ech.1_5
 62
     9
  6
CONTINUOUS
370
    -3
100
AcDbLine
 10
36568.54475862
 20
-30396.18211625
 30
0.0
 11
36568.54475869
 21
-30394.15864426
 31
0.0
  0
LINE
  5
5A0
100
AcDbEntity
  8
Ech.1_5
 62
     9
  6
CONTINUOUS
370
    -3
100
AcDbLine
 10
36663.29693324
 20
-30380.42635895
 30
0.0
 11
36714.56564106
 21
-30362.06968237
 31
0.0
  0
LINE
  5
5A1
100
AcDbEntity
  8
Ech.1_5
 62
     9
  6
CONTINUOUS
370
    -3
100
AcDbLine
 10
36663.29693222
 20
-30408.75492819
 30
0.0
 11
36663.29693324
 21
-30380.42635895
 31
0.0
  0
LINE
  5
5A2
100
AcDbEntity
  8
Ech.1_5
 62
     9
  6
CONTINUOUS
370
    -3
100
AcDbLine
 10
36663.29693222
 20
-30408.75492819
 30
0.0
 11
36714.56564003
 21
-30390.39825161
 31
0.0
  0
LINE
  5
5A3
100
AcDbEntity
  8
Ech.1_5
 62
     9
  6
CONTINUOUS
370
    -3
100
AcDbLine
 10
36714.56564106
 20
-30362.06968237
 30
0.0
 11
36714.56564003
 21
-30390.39825161
 31
0.0
  0
LWPOLYLINE
  5
5A4
100
AcDbEntity
  8
Ech.1_5
 62
     9
  6
CONTINUOUS
370
    -3
100
AcDbPolyline
 90
        4
 70
     0
 43
0.0
 10
36556.0129699
 20
-30366.13717452
 10
36556.0129695
 20
-30377.19613198
 10
36556.0129695
 20
-30377.19613198
 10
36567.6635532
 20
-30379.52458266
  0
LINE
  5
5A5
100
AcDbEntity
  8
Ech.1_5
 62
     9
  6
CONTINUOUS
370
    -3
100
AcDbLine
 10
36557.2698631
 20
-30376.74610329
 30
0.0
 11
36556.0129695
 21
-30377.19613198
 31
0.0
  0
LWPOLYLINE
  5
5A6
100
AcDbEntity
  8
Ech.1_5
 62
     9
  6
CONTINUOUS
370
    -3
100
AcDbPolyline
 90
        4
 70
     0
 43
0.0
 10
36567.66355155
 20
-30378.82335466
 10
36557.2698631
 20
-30376.74610329
 10
36557.2698631
 20
-30376.74610329
 10
36557.26986348
 20
-30366.3883713
  0
LINE
  5
5A7
100
AcDbEntity
  8
Ech.1_5
 62
     9
  6
CONTINUOUS
370
    -3
100
AcDbLine
 10
36591.66079148
 20
-30387.95997173
 30
0.0
 11
36591.66079186
 21
-30377.53211815
 31
0.0
  0
LINE
  5
5A8
100
AcDbEntity
  8
Ech.1_5
 62
     9
  6
CONTINUOUS
370
    -3
100
AcDbLine
 10
36590.40389827
 20
-30377.28092137
 30
0.0
 11
36590.4038979
 21
-30387.70877012
 31
0.0
  0
LWPOLYLINE
  5
5A9
100
AcDbEntity
  8
Ech.1_5
 62
     9
  6
CONTINUOUS
370
    -3
100
AcDbPolyline
 90
        4
 70
     0
 43
0.0
 10
36635.57221733
 20
-30382.03764683
 10
36635.57221693
 20
-30393.0966043
 10
36635.57221693
 20
-30393.0966043
 10
36647.22280064
 20
-30395.42505498
  0
LINE
  5
5AA
100
AcDbEntity
  8
Ech.1_5
 62
     9
  6
CONTINUOUS
370
    -3
100
AcDbLine
 10
36636.82911054
 20
-30392.64657561
 30
0.0
 11
36635.57221693
 21
-30393.0966043
 31
0.0
  0
LWPOLYLINE
  5
5AB
100
AcDbEntity
  8
Ech.1_5
 62
     9
  6
CONTINUOUS
370
    -3
100
AcDbPolyline
 90
        4
 70
     0
 43
0.0
 10
36647.22279898
 20
-30394.72382697
 10
36636.82911054
 20
-30392.64657561
 10
36636.82911054
 20
-30392.64657561
 10
36636.82911092
 20
-30382.28884361
  0
LWPOLYLINE
  5
5AC
100
AcDbEntity
  8
Ech.1_5
 62
     9
  6
CONTINUOUS
370
    -3
100
AcDbPolyline
 90
        4
 70
     0
 43
0.0
 10
36525.05754541
 20
-30329.5984775
 10
36525.05754504
 20
-30339.9562095
 10
36525.05754504
 20
-30339.9562095
 10
36529.72081723
 20
-30340.88819708
  0
LINE
  5
5AD
100
AcDbEntity
  8
Ech.1_5
 62
     9
  6
CONTINUOUS
370
    -3
100
AcDbLine
 10
36525.05754504
 20
-30339.9562095
 30
0.0
 11
36523.80065143
 21
-30340.40623819
 31
0.0
  0
LWPOLYLINE
  5
5AE
100
AcDbEntity
  8
Ech.1_5
 62
     9
  6
CONTINUOUS
370
    -3
100
AcDbPolyline
 90
        4
 70
     0
 43
0.0
 10
36529.72081889
 20
-30341.58942508
 10
36523.80065143
 20
-30340.40623819
 10
36523.80065143
 20
-30340.40623819
 10
36523.80065183
 20
-30329.34728072
  0
LINE
  5
5AF
100
AcDbEntity
  8
Ech.1_5
 62
     9
  6
CONTINUOUS
370
    -3
100
AcDbLine
 10
36485.61964661
 20
-30325.98702145
 30
0.0
 11
36485.61964623
 21
-30336.41487021
 31
0.0
  0
LINE
  5
5B0
100
AcDbEntity
  8
Ech.1_5
 62
     9
  6
CONTINUOUS
370
    -3
100
AcDbLine
 10
36484.36275265
 20
-30336.16367343
 30
0.0
 11
36484.36275302
 21
-30325.73581502
 31
0.0
  0
LWPOLYLINE
  5
5B1
100
AcDbEntity
  8
Ech.1_5
 62
     9
  6
CONTINUOUS
370
    -3
100
AcDbPolyline
 90
        4
 70
     0
 43
0.0
 10
36450.16156744
 20
-30325.68895197
 10
36444.24139998
 20
-30324.50576508
 10
36444.24139998
 20
-30324.50576508
 10
36444.24140038
 20
-30313.44680761
  0
LINE
  5
5B2
100
AcDbEntity
  8
Ech.1_5
 62
     9
  6
CONTINUOUS
370
    -3
100
AcDbLine
 10
36444.24139998
 20
-30324.50576508
 30
0.0
 11
36445.49829359
 21
-30324.05573638
 31
0.0
  0
LWPOLYLINE
  5
5B3
100
AcDbEntity
  8
Ech.1_5
 62
     9
  6
CONTINUOUS
370
    -3
100
AcDbPolyline
 90
        4
 70
     0
 43
0.0
 10
36445.49829396
 20
-30313.69800439
 10
36445.49829359
 20
-30324.05573638
 10
36445.49829359
 20
-30324.05573638
 10
36450.16156579
 20
-30324.98772396
  0
LINE
  5
5B4
100
AcDbEntity
  8
Ech.1_5
 62
     9
  6
CONTINUOUS
370
    -3
100
AcDbLine
 10
36485.619613
 20
-30335.27547431
 30
0.0
 11
36489.59942761
 21
-30333.85050823
 31
0.0
  0
LINE
  5
5B5
100
AcDbEntity
  8
Ech.1_5
 62
     9
  6
CONTINUOUS
370
    -3
100
AcDbLine
 10
36449.36669802
 20
-30324.82885854
 30
0.0
 11
36450.16151652
 21
-30324.54427509
 31
0.0
  0
LINE
  5
5B6
100
AcDbEntity
  8
Ech.1_5
 62
     9
  6
CONTINUOUS
370
    -3
100
AcDbLine
 10
36507.48478425
 20
-30351.60334448
 30
0.0
 11
36515.1392694
 21
-30348.86266865
 31
0.0
  0
LWPOLYLINE
  5
5B7
100
AcDbEntity
  8
Ech.1_5
 62
     9
  6
CONTINUOUS
370
    -3
100
AcDbPolyline
 90
        4
 70
     0
 43
0.0
 10
36462.50362147
 20
-30342.61354435
 10
36507.48478425
 20
-30351.60334448
 10
36507.48478425
 20
-30351.60334448
 10
36507.48478418
 20
-30353.62681165
  0
LINE
  5
5B8
100
AcDbEntity
  8
Ech.1_5
 62
     9
  6
CONTINUOUS
370
    -3
100
AcDbLine
 10
36515.13926933
 20
-30350.88613582
 30
0.0
 11
36507.48478418
 21
-30353.62681165
 31
0.0
  0
LWPOLYLINE
  5
5B9
100
AcDbEntity
  8
Ech.1_5
 62
     9
  6
CONTINUOUS
370
    -3
100
AcDbPolyline
 90
        4
 70
     0
 43
0.0
 10
36507.48478418
 20
-30353.62681165
 10
36462.50362139
 20
-30344.63701151
 10
36462.50362139
 20
-30344.63701151
 10
36462.50362147
 20
-30342.61354435
  0
LINE
  5
5BA
100
AcDbEntity
  8
Ech.1_5
 62
     9
  6
CONTINUOUS
370
    -3
100
AcDbLine
 10
36613.52593162
 20
-30344.46784036
 30
0.0
 11
36621.18041677
 21
-30341.72716453
 31
0.0
  0
LINE
  5
5BB
100
AcDbEntity
  8
Ech.1_5
 62
     9
  6
CONTINUOUS
370
    -3
100
AcDbLine
 10
36568.54476081
 20
-30335.47803862
 30
0.0
 11
36613.52593162
 21
-30344.46784036
 31
0.0
  0
LINE
  5
5BC
100
AcDbEntity
  8
Ech.1_5
 62
     9
  6
CONTINUOUS
370
    -3
100
AcDbLine
 10
36621.18041685
 20
-30339.70369736
 30
0.0
 11
36613.52593169
 21
-30342.44437319
 31
0.0
  0
LINE
  5
5BD
100
AcDbEntity
  8
Ech.1_5
 62
     9
  6
CONTINUOUS
370
    -3
100
AcDbLine
 10
36613.52593169
 20
-30342.44437319
 30
0.0
 11
36568.54476088
 21
-30333.45457145
 31
0.0
  0
LINE
  5
5BE
100
AcDbEntity
  8
Ech.1_5
 62
     9
  6
CONTINUOUS
370
    -3
100
AcDbLine
 10
36613.52593169
 20
-30342.44437319
 30
0.0
 11
36613.52593162
 21
-30344.46784036
 31
0.0
  0
LINE
  5
5BF
100
AcDbEntity
  8
Ech.1_5
 62
     9
  6
CONTINUOUS
370
    -3
100
AcDbLine
 10
36568.54476081
 20
-30335.47803862
 30
0.0
 11
36568.54476088
 21
-30333.45457145
 31
0.0
  0
LINE
  5
5C0
100
AcDbEntity
  8
Ech.1_5
 62
     9
  6
CONTINUOUS
370
    -3
100
AcDbLine
 10
36663.29693543
 20
-30319.72228614
 30
0.0
 11
36714.56564325
 21
-30301.36560956
 31
0.0
  0
LINE
  5
5C1
100
AcDbEntity
  8
Ech.1_5
 62
     9
  6
CONTINUOUS
370
    -3
100
AcDbLine
 10
36663.29693441
 20
-30348.05085538
 30
0.0
 11
36663.29693543
 21
-30319.72228614
 31
0.0
  0
LINE
  5
5C2
100
AcDbEntity
  8
Ech.1_5
 62
     9
  6
CONTINUOUS
370
    -3
100
AcDbLine
 10
36663.29693441
 20
-30348.05085538
 30
0.0
 11
36714.56564222
 21
-30329.6941788
 31
0.0
  0
LINE
  5
5C3
100
AcDbEntity
  8
Ech.1_5
 62
     9
  6
CONTINUOUS
370
    -3
100
AcDbLine
 10
36714.56564325
 20
-30301.36560956
 30
0.0
 11
36714.56564222
 21
-30329.6941788
 31
0.0
  0
LWPOLYLINE
  5
5C4
100
AcDbEntity
  8
Ech.1_5
 62
     9
  6
CONTINUOUS
370
    -3
100
AcDbPolyline
 90
        4
 70
     0
 43
0.0
 10
36556.01297209
 20
-30305.43310171
 10
36556.01297169
 20
-30316.49205918
 10
36556.01297169
 20
-30316.49205918
 10
36567.66355539
 20
-30318.82050985
  0
LINE
  5
5C5
100
AcDbEntity
  8
Ech.1_5
 62
     9
  6
CONTINUOUS
370
    -3
100
AcDbLine
 10
36557.26986529
 20
-30316.04203049
 30
0.0
 11
36556.01297169
 21
-30316.49205918
 31
0.0
  0
LWPOLYLINE
  5
5C6
100
AcDbEntity
  8
Ech.1_5
 62
     9
  6
CONTINUOUS
370
    -3
100
AcDbPolyline
 90
        4
 70
     0
 43
0.0
 10
36567.66355374
 20
-30318.11928185
 10
36557.26986529
 20
-30316.04203049
 10
36557.26986529
 20
-30316.04203049
 10
36557.26986567
 20
-30305.68429849
  0
LINE
  5
5C7
100
AcDbEntity
  8
Ech.1_5
 62
     9
  6
CONTINUOUS
370
    -3
100
AcDbLine
 10
36591.66079367
 20
-30327.25589892
 30
0.0
 11
36591.66079405
 21
-30316.82805016
 31
0.0
  0
LINE
  5
5C8
100
AcDbEntity
  8
Ech.1_5
 62
     9
  6
CONTINUOUS
370
    -3
100
AcDbLine
 10
36590.40390046
 20
-30316.57684373
 30
0.0
 11
36590.40390009
 21
-30327.00470214
 31
0.0
  0
LWPOLYLINE
  5
5C9
100
AcDbEntity
  8
Ech.1_5
 62
     9
  6
CONTINUOUS
370
    -3
100
AcDbPolyline
 90
        4
 70
     0
 43
0.0
 10
36635.57221952
 20
-30321.33357402
 10
36635.57221912
 20
-30332.39253149
 10
36635.57221912
 20
-30332.39253149
 10
36647.22280283
 20
-30334.72098217
  0
LINE
  5
5CA
100
AcDbEntity
  8
Ech.1_5
 62
     9
  6
CONTINUOUS
370
    -3
100
AcDbLine
 10
36636.82911273
 20
-30331.9425028
 30
0.0
 11
36635.57221912
 21
-30332.39253149
 31
0.0
  0
LWPOLYLINE
  5
5CB
100
AcDbEntity
  8
Ech.1_5
 62
     9
  6
CONTINUOUS
370
    -3
100
AcDbPolyline
 90
        4
 70
     0
 43
0.0
 10
36647.22280117
 20
-30334.01975416
 10
36636.82911273
 20
-30331.9425028
 10
36636.82911273
 20
-30331.9425028
 10
36636.82911311
 20
-30321.5847708
  0
LINE
  5
5CC
100
AcDbEntity
  8
Ech.1_5
 62
     9
  6
CONTINUOUS
370
    -3
100
AcDbLine
 10
36507.48478316
 20
-30381.95538089
 30
0.0
 11
36515.13926831
 21
-30379.21470506
 31
0.0
  0
LWPOLYLINE
  5
5CD
100
AcDbEntity
  8
Ech.1_5
 62
     9
  6
CONTINUOUS
370
    -3
100
AcDbPolyline
 90
        4
 70
     0
 43
0.0
 10
36462.50362037
 20
-30372.96558075
 10
36507.48478316
 20
-30381.95538089
 10
36507.48478316
 20
-30381.95538089
 10
36507.48478308
 20
-30383.97885287
  0
LINE
  5
5CE
100
AcDbEntity
  8
Ech.1_5
 62
     9
  6
CONTINUOUS
370
    -3
100
AcDbLine
 10
36515.13926824
 20
-30381.23817705
 30
0.0
 11
36507.48478308
 21
-30383.97885287
 31
0.0
  0
LWPOLYLINE
  5
5CF
100
AcDbEntity
  8
Ech.1_5
 62
     9
  6
CONTINUOUS
370
    -3
100
AcDbPolyline
 90
        4
 70
     0
 43
0.0
 10
36507.48478308
 20
-30383.97885287
 10
36462.5036203
 20
-30374.98905274
 10
36462.5036203
 20
-30374.98905274
 10
36462.50362037
 20
-30372.96558075
  0
LINE
  5
5D0
100
AcDbEntity
  8
Ech.1_5
 62
     9
  6
CONTINUOUS
370
    -3
100
AcDbLine
 10
36613.52593052
 20
-30374.81987676
 30
0.0
 11
36621.18041568
 21
-30372.07920093
 31
0.0
  0
LINE
  5
5D1
100
AcDbEntity
  8
Ech.1_5
 62
     9
  6
CONTINUOUS
370
    -3
100
AcDbLine
 10
36568.54475972
 20
-30365.83007502
 30
0.0
 11
36613.52593052
 21
-30374.81987676
 31
0.0
  0
LINE
  5
5D2
100
AcDbEntity
  8
Ech.1_5
 62
     9
  6
CONTINUOUS
370
    -3
100
AcDbLine
 10
36621.18041575
 20
-30370.05573377
 30
0.0
 11
36613.5259306
 21
-30372.7964096
 31
0.0
  0
LINE
  5
5D3
100
AcDbEntity
  8
Ech.1_5
 62
     9
  6
CONTINUOUS
370
    -3
100
AcDbLine
 10
36613.5259306
 20
-30372.7964096
 30
0.0
 11
36568.54475979
 21
-30363.80660786
 31
0.0
  0
LINE
  5
5D4
100
AcDbEntity
  8
Ech.1_5
 62
     9
  6
CONTINUOUS
370
    -3
100
AcDbLine
 10
36613.5259306
 20
-30372.7964096
 30
0.0
 11
36613.52593052
 21
-30374.81987676
 31
0.0
  0
LINE
  5
5D5
100
AcDbEntity
  8
Ech.1_5
 62
     9
  6
CONTINUOUS
370
    -3
100
AcDbLine
 10
36568.54475972
 20
-30365.83007502
 30
0.0
 11
36568.54475979
 21
-30363.80660786
 31
0.0
  0
LINE
  5
5D6
100
AcDbEntity
  8
Ech.1_5
 62
     9
  6
CONTINUOUS
370
    -3
100
AcDbLine
 10
36663.29693434
 20
-30350.07432255
 30
0.0
 11
36714.56564215
 21
-30331.71764597
 31
0.0
  0
LINE
  5
5D7
100
AcDbEntity
  8
Ech.1_5
 62
     9
  6
CONTINUOUS
370
    -3
100
AcDbLine
 10
36663.29693331
 20
-30378.40289179
 30
0.0
 11
36663.29693434
 21
-30350.07432255
 31
0.0
  0
LINE
  5
5D8
100
AcDbEntity
  8
Ech.1_5
 62
     9
  6
CONTINUOUS
370
    -3
100
AcDbLine
 10
36663.29693331
 20
-30378.40289179
 30
0.0
 11
36714.56564113
 21
-30360.04621521
 31
0.0
  0
LINE
  5
5D9
100
AcDbEntity
  8
Ech.1_5
 62
     9
  6
CONTINUOUS
370
    -3
100
AcDbLine
 10
36714.56564215
 20
-30331.71764597
 30
0.0
 11
36714.56564113
 21
-30360.04621521
 31
0.0
  0
LWPOLYLINE
  5
5DA
100
AcDbEntity
  8
Ech.1_5
 62
     9
  6
CONTINUOUS
370
    -3
100
AcDbPolyline
 90
        4
 70
     0
 43
0.0
 10
36556.01297099
 20
-30335.78513811
 10
36556.01297059
 20
-30346.84409558
 10
36556.01297059
 20
-30346.84409558
 10
36567.6635543
 20
-30349.17254626
  0
LINE
  5
5DB
100
AcDbEntity
  8
Ech.1_5
 62
     9
  6
CONTINUOUS
370
    -3
100
AcDbLine
 10
36557.2698642
 20
-30346.39406689
 30
0.0
 11
36556.01297059
 21
-30346.84409558
 31
0.0
  0
LWPOLYLINE
  5
5DC
100
AcDbEntity
  8
Ech.1_5
 62
     9
  6
CONTINUOUS
370
    -3
100
AcDbPolyline
 90
        4
 70
     0
 43
0.0
 10
36567.66355264
 20
-30348.47131825
 10
36557.2698642
 20
-30346.39406689
 10
36557.2698642
 20
-30346.39406689
 10
36557.26986457
 20
-30336.03633489
  0
LINE
  5
5DD
100
AcDbEntity
  8
Ech.1_5
 62
     9
  6
CONTINUOUS
370
    -3
100
AcDbLine
 10
36591.66079258
 20
-30357.60793532
 30
0.0
 11
36591.66079295
 21
-30347.18008657
 31
0.0
  0
LINE
  5
5DE
100
AcDbEntity
  8
Ech.1_5
 62
     9
  6
CONTINUOUS
370
    -3
100
AcDbLine
 10
36590.40389937
 20
-30346.92888014
 30
0.0
 11
36590.40389899
 21
-30357.35673854
 31
0.0
  0
LWPOLYLINE
  5
5DF
100
AcDbEntity
  8
Ech.1_5
 62
     9
  6
CONTINUOUS
370
    -3
100
AcDbPolyline
 90
        4
 70
     0
 43
0.0
 10
36635.57221843
 20
-30351.68561043
 10
36635.57221803
 20
-30362.74456789
 10
36635.57221803
 20
-30362.74456789
 10
36647.22280174
 20
-30365.07301857
  0
LINE
  5
5E0
100
AcDbEntity
  8
Ech.1_5
 62
     9
  6
CONTINUOUS
370
    -3
100
AcDbLine
 10
36636.82911164
 20
-30362.2945392
 30
0.0
 11
36635.57221803
 21
-30362.74456789
 31
0.0
  0
LWPOLYLINE
  5
5E1
100
AcDbEntity
  8
Ech.1_5
 62
     9
  6
CONTINUOUS
370
    -3
100
AcDbPolyline
 90
        4
 70
     0
 43
0.0
 10
36647.22280008
 20
-30364.37179057
 10
36636.82911164
 20
-30362.2945392
 10
36636.82911164
 20
-30362.2945392
 10
36636.82911201
 20
-30351.93680721
  0
LINE
  5
5E2
100
AcDbEntity
  8
Ech.1_5
 62
     9
  6
CONTINUOUS
370
    -3
100
AcDbLine
 10
36640.69752811
 20
-30363.06766376
 30
0.0
 11
36647.22275377
 21
-30360.73131744
 31
0.0
  0
LINE
  5
5E3
100
AcDbEntity
  8
Ech.1_5
 62
     9
  6
CONTINUOUS
370
    -3
100
AcDbLine
 10
36591.66076737
 20
-30356.46854103
 30
0.0
 11
36596.92343198
 21
-30354.58425261
 31
0.0
  0
LINE
  5
5E4
100
AcDbEntity
  8
Ech.1_5
 62
     9
  6
CONTINUOUS
370
    -3
100
AcDbLine
 10
36566.86870092
 20
-30348.31245604
 30
0.0
 11
36567.66351942
 21
-30348.02787258
 31
0.0
  0
LINE
  5
5E5
100
AcDbEntity
  8
Ech.1_5
 62
     9
  6
CONTINUOUS
370
    -3
100
AcDbLine
 10
36449.36669474
 20
-30415.88496956
 30
0.0
 11
36450.16151323
 21
-30415.60038611
 31
0.0
  0
LWPOLYLINE
  5
5E6
100
AcDbEntity
  8
Ech.1_5
 62
     9
  6
CONTINUOUS
370
    -3
100
AcDbPolyline
 90
        4
 70
     0
 43
0.0
 10
36525.05754212
 20
-30420.65459154
 10
36525.05754175
 20
-30431.01232113
 10
36525.05754175
 20
-30431.01232113
 10
36529.72081395
 20
-30431.94430871
  0
LINE
  5
5E7
100
AcDbEntity
  8
Ech.1_5
 62
     9
  6
CONTINUOUS
370
    -3
100
AcDbLine
 10
36525.05754175
 20
-30431.01232113
 30
0.0
 11
36523.80064814
 21
-30431.46234982
 31
0.0
  0
LWPOLYLINE
  5
5E8
100
AcDbEntity
  8
Ech.1_5
 62
     9
  6
CONTINUOUS
370
    -3
100
AcDbPolyline
 90
        4
 70
     0
 43
0.0
 10
36529.72081561
 20
-30432.64553671
 10
36523.80064814
 20
-30431.46234982
 10
36523.80064814
 20
-30431.46234982
 10
36523.80064854
 20
-30420.40339235
  0
LINE
  5
5E9
100
AcDbEntity
  8
Ech.1_5
 62
     9
  6
CONTINUOUS
370
    -3
100
AcDbLine
 10
36485.61964332
 20
-30417.04312584
 30
0.0
 11
36485.61964294
 21
-30427.47097882
 31
0.0
  0
LINE
  5
5EA
100
AcDbEntity
  8
Ech.1_5
 62
     9
  6
CONTINUOUS
370
    -3
100
AcDbLine
 10
36484.36274936
 20
-30427.21978023
 30
0.0
 11
36484.36274974
 21
-30416.79192785
 31
0.0
  0
LWPOLYLINE
  5
5EB
100
AcDbEntity
  8
Ech.1_5
 62
     9
  6
CONTINUOUS
370
    -3
100
AcDbPolyline
 90
        4
 70
     0
 43
0.0
 10
36450.16156416
 20
-30416.74506359
 10
36444.24139669
 20
-30415.5618767
 10
36444.24139669
 20
-30415.5618767
 10
36444.24139709
 20
-30404.50291923
  0
LINE
  5
5EC
100
AcDbEntity
  8
Ech.1_5
 62
     9
  6
CONTINUOUS
370
    -3
100
AcDbLine
 10
36444.24139669
 20
-30415.5618767
 30
0.0
 11
36445.4982903
 21
-30415.11184801
 31
0.0
  0
LWPOLYLINE
  5
5ED
100
AcDbEntity
  8
Ech.1_5
 62
     9
  6
CONTINUOUS
370
    -3
100
AcDbPolyline
 90
        4
 70
     0
 43
0.0
 10
36445.49829068
 20
-30404.75411843
 10
36445.4982903
 20
-30415.11184801
 10
36445.4982903
 20
-30415.11184801
 10
36450.1615625
 20
-30416.04383559
  0
LINE
  5
5EE
100
AcDbEntity
  8
Ech.1_5
 62
     9
  6
CONTINUOUS
370
    -3
100
AcDbLine
 10
36485.61960972
 20
-30426.33158533
 30
0.0
 11
36489.59942432
 21
-30424.90661925
 31
0.0
  0
LINE
  5
5EF
100
AcDbEntity
  8
Ech.1_5
 62
     9
  6
CONTINUOUS
370
    -3
100
AcDbLine
 10
36613.52592833
 20
-30435.5239544
 30
0.0
 11
36621.18041349
 21
-30432.78327857
 31
0.0
  0
LINE
  5
5F0
100
AcDbEntity
  8
Ech.1_5
 62
     9
  6
CONTINUOUS
370
    -3
100
AcDbLine
 10
36568.54475753
 20
-30426.53415266
 30
0.0
 11
36613.52592833
 21
-30435.5239544
 31
0.0
  0
LINE
  5
5F1
100
AcDbEntity
  8
Ech.1_5
 62
     9
  6
CONTINUOUS
370
    -3
100
AcDbLine
 10
36621.18041356
 20
-30430.75980899
 30
0.0
 11
36613.52592841
 21
-30433.50048482
 31
0.0
  0
LINE
  5
5F2
100
AcDbEntity
  8
Ech.1_5
 62
     9
  6
CONTINUOUS
370
    -3
100
AcDbLine
 10
36613.52592841
 20
-30433.50048482
 30
0.0
 11
36568.5447576
 21
-30424.51068308
 31
0.0
  0
LINE
  5
5F3
100
AcDbEntity
  8
Ech.1_5
 62
     9
  6
CONTINUOUS
370
    -3
100
AcDbLine
 10
36613.52592841
 20
-30433.50048482
 30
0.0
 11
36613.52592833
 21
-30435.5239544
 31
0.0
  0
LINE
  5
5F4
100
AcDbEntity
  8
Ech.1_5
 62
     9
  6
CONTINUOUS
370
    -3
100
AcDbLine
 10
36568.54475753
 20
-30426.53415266
 30
0.0
 11
36568.5447576
 21
-30424.51068308
 31
0.0
  0
LINE
  5
5F5
100
AcDbEntity
  8
Ech.1_5
 62
     9
  6
CONTINUOUS
370
    -3
100
AcDbLine
 10
36663.29693215
 20
-30410.77840018
 30
0.0
 11
36714.56563996
 21
-30392.4217236
 31
0.0
  0
LINE
  5
5F6
100
AcDbEntity
  8
Ech.1_5
 62
     9
  6
CONTINUOUS
370
    -3
100
AcDbLine
 10
36663.29693112
 20
-30439.10696701
 30
0.0
 11
36663.29693215
 21
-30410.77840018
 31
0.0
  0
LINE
  5
5F7
100
AcDbEntity
  8
Ech.1_5
 62
     9
  6
CONTINUOUS
370
    -3
100
AcDbLine
 10
36663.29693112
 20
-30439.10696701
 30
0.0
 11
36714.56563894
 21
-30420.75029043
 31
0.0
  0
LINE
  5
5F8
100
AcDbEntity
  8
Ech.1_5
 62
     9
  6
CONTINUOUS
370
    -3
100
AcDbLine
 10
36714.56563996
 20
-30392.4217236
 30
0.0
 11
36714.56563894
 21
-30420.75029043
 31
0.0
  0
LWPOLYLINE
  5
5F9
100
AcDbEntity
  8
Ech.1_5
 62
     9
  6
CONTINUOUS
370
    -3
100
AcDbPolyline
 90
        4
 70
     0
 43
0.0
 10
36556.0129688
 20
-30396.48921092
 10
36556.0129684
 20
-30407.54816839
 10
36556.0129684
 20
-30407.54816839
 10
36567.66355211
 20
-30409.87661907
  0
LINE
  5
5FA
100
AcDbEntity
  8
Ech.1_5
 62
     9
  6
CONTINUOUS
370
    -3
100
AcDbLine
 10
36557.26986201
 20
-30407.0981397
 30
0.0
 11
36556.0129684
 21
-30407.54816839
 31
0.0
  0
LWPOLYLINE
  5
5FB
100
AcDbEntity
  8
Ech.1_5
 62
     9
  6
CONTINUOUS
370
    -3
100
AcDbPolyline
 90
        4
 70
     0
 43
0.0
 10
36567.66355045
 20
-30409.17539106
 10
36557.26986201
 20
-30407.0981397
 10
36557.26986201
 20
-30407.0981397
 10
36557.26986238
 20
-30396.74041253
  0
LINE
  5
5FC
100
AcDbEntity
  8
Ech.1_5
 62
     9
  6
CONTINUOUS
370
    -3
100
AcDbLine
 10
36591.66079039
 20
-30418.31200813
 30
0.0
 11
36591.66079076
 21
-30407.88415455
 31
0.0
  0
LINE
  5
5FD
100
AcDbEntity
  8
Ech.1_5
 62
     9
  6
CONTINUOUS
370
    -3
100
AcDbLine
 10
36590.40389718
 20
-30407.63295777
 30
0.0
 11
36590.4038968
 21
-30418.06080894
 31
0.0
  0
LWPOLYLINE
  5
5FE
100
AcDbEntity
  8
Ech.1_5
 62
     9
  6
CONTINUOUS
370
    -3
100
AcDbPolyline
 90
        4
 70
     0
 43
0.0
 10
36635.57221624
 20
-30412.38968323
 10
36635.57221584
 20
-30423.4486407
 10
36635.57221584
 20
-30423.4486407
 10
36647.22279955
 20
-30425.77709138
  0
LINE
  5
5FF
100
AcDbEntity
  8
Ech.1_5
 62
     9
  6
CONTINUOUS
370
    -3
100
AcDbLine
 10
36636.82910945
 20
-30422.99861201
 30
0.0
 11
36635.57221584
 21
-30423.4486407
 31
0.0
  0
LWPOLYLINE
  5
600
100
AcDbEntity
  8
Ech.1_5
 62
     9
  6
CONTINUOUS
370
    -3
100
AcDbPolyline
 90
        4
 70
     0
 43
0.0
 10
36647.22279789
 20
-30425.07586338
 10
36636.82910945
 20
-30422.99861201
 10
36636.82910945
 20
-30422.99861201
 10
36636.82910982
 20
-30412.64088484
  0
LINE
  5
601
100
AcDbEntity
  8
Ech.1_5
 62
     9
  6
CONTINUOUS
370
    -3
100
AcDbLine
 10
36640.69752592
 20
-30423.77173899
 30
0.0
 11
36647.22275158
 21
-30421.43539266
 31
0.0
  0
LINE
  5
602
100
AcDbEntity
  8
Ech.1_5
 62
     9
  6
CONTINUOUS
370
    -3
100
AcDbLine
 10
36591.66076518
 20
-30417.17261625
 30
0.0
 11
36596.92342979
 21
-30415.28832783
 31
0.0
  0
LINE
  5
603
100
AcDbEntity
  8
Ech.1_5
 62
     9
  6
CONTINUOUS
370
    -3
100
AcDbLine
 10
36566.86869873
 20
-30409.01653126
 30
0.0
 11
36567.66351723
 21
-30408.7319478
 31
0.0
  0
LINE
  5
604
100
AcDbEntity
  8
Ech.1_5
 62
    36
  6
CONTINUOUS
370
    -3
100
AcDbLine
 10
36507.48478754
 20
-30260.54724492
 30
0.0
 11
36515.26496198
 21
-30257.76156625
 31
0.0
  0
LINE
  5
605
100
AcDbEntity
  8
Ech.1_5
 62
    36
  6
CONTINUOUS
370
    -3
100
AcDbLine
 10
36470.28379919
 20
-30248.77176611
 30
0.0
 11
36515.26496198
 21
-30257.76156625
 31
0.0
  0
LINE
  5
606
100
AcDbEntity
  8
Ech.1_5
 62
    36
  6
CONTINUOUS
370
    -3
100
AcDbLine
 10
36470.28379919
 20
-30248.77176611
 30
0.0
 11
36462.50362475
 21
-30251.55744478
 31
0.0
  0
LWPOLYLINE
  5
607
100
AcDbEntity
  8
Ech.1_5
 62
    36
  6
CONTINUOUS
370
    -3
100
AcDbPolyline
 90
        4
 70
     0
 43
0.0
 10
36462.50362475
 20
-30251.55744478
 10
36507.48478754
 20
-30260.54724492
 10
36507.48478754
 20
-30260.54724492
 10
36507.48478746
 20
-30262.57070243
  0
LWPOLYLINE
  5
608
100
AcDbEntity
  8
Ech.1_5
 62
    36
  6
CONTINUOUS
370
    -3
100
AcDbPolyline
 90
        4
 70
     0
 43
0.0
 10
36507.48478746
 20
-30262.57070243
 10
36462.50362468
 20
-30253.5809023
 10
36462.50362468
 20
-30253.5809023
 10
36462.50362475
 20
-30251.55744478
  0
LINE
  5
609
100
AcDbEntity
  8
Ech.1_5
 62
     9
  6
CONTINUOUS
370
    -3
100
AcDbLine
 10
36507.48478535
 20
-30321.25130808
 30
0.0
 11
36515.1392705
 21
-30318.51063225
 31
0.0
  0
LWPOLYLINE
  5
60A
100
AcDbEntity
  8
Ech.1_5
 62
     9
  6
CONTINUOUS
370
    -3
100
AcDbPolyline
 90
        4
 70
     0
 43
0.0
 10
36462.50362256
 20
-30312.26150794
 10
36507.48478535
 20
-30321.25130808
 10
36507.48478535
 20
-30321.25130808
 10
36507.48478527
 20
-30323.27477524
  0
LINE
  5
60B
100
AcDbEntity
  8
Ech.1_5
 62
     9
  6
CONTINUOUS
370
    -3
100
AcDbLine
 10
36515.13927043
 20
-30320.53409941
 30
0.0
 11
36507.48478527
 21
-30323.27477524
 31
0.0
  0
LWPOLYLINE
  5
60C
100
AcDbEntity
  8
Ech.1_5
 62
     9
  6
CONTINUOUS
370
    -3
100
AcDbPolyline
 90
        4
 70
     0
 43
0.0
 10
36507.48478527
 20
-30323.27477524
 10
36462.50362249
 20
-30314.2849751
 10
36462.50362249
 20
-30314.2849751
 10
36462.50362256
 20
-30312.26150794
  0
LINE
  5
60D
100
AcDbEntity
  8
Ech.1_5
 62
     9
  6
CONTINUOUS
370
    -3
100
AcDbLine
 10
36613.52593272
 20
-30314.11580395
 30
0.0
 11
36621.18041787
 21
-30311.37512812
 31
0.0
  0
LINE
  5
60E
100
AcDbEntity
  8
Ech.1_5
 62
     9
  6
CONTINUOUS
370
    -3
100
AcDbLine
 10
36568.54476191
 20
-30305.12600221
 30
0.0
 11
36613.52593272
 21
-30314.11580395
 31
0.0
  0
LINE
  5
60F
100
AcDbEntity
  8
Ech.1_5
 62
     9
  6
CONTINUOUS
370
    -3
100
AcDbLine
 10
36621.18041794
 20
-30309.35166096
 30
0.0
 11
36613.52593279
 21
-30312.09233679
 31
0.0
  0
LINE
  5
610
100
AcDbEntity
  8
Ech.1_5
 62
     9
  6
CONTINUOUS
370
    -3
100
AcDbLine
 10
36613.52593279
 20
-30312.09233679
 30
0.0
 11
36568.54476198
 21
-30303.10253505
 31
0.0
  0
LINE
  5
611
100
AcDbEntity
  8
Ech.1_5
 62
     9
  6
CONTINUOUS
370
    -3
100
AcDbLine
 10
36613.52593279
 20
-30312.09233679
 30
0.0
 11
36613.52593272
 21
-30314.11580395
 31
0.0
  0
LINE
  5
612
100
AcDbEntity
  8
Ech.1_5
 62
     9
  6
CONTINUOUS
370
    -3
100
AcDbLine
 10
36568.54476191
 20
-30305.12600221
 30
0.0
 11
36568.54476198
 21
-30303.10253505
 31
0.0
  0
LINE
  5
613
100
AcDbEntity
  8
Ech.1_5
 62
     9
  6
CONTINUOUS
370
    -3
100
AcDbLine
 10
36663.29693653
 20
-30289.37024974
 30
0.0
 11
36714.56564434
 21
-30271.01357316
 31
0.0
  0
LINE
  5
614
100
AcDbEntity
  8
Ech.1_5
 62
     9
  6
CONTINUOUS
370
    -3
100
AcDbLine
 10
36663.29693551
 20
-30317.69881898
 30
0.0
 11
36663.29693653
 21
-30289.37024974
 31
0.0
  0
LINE
  5
615
100
AcDbEntity
  8
Ech.1_5
 62
     9
  6
CONTINUOUS
370
    -3
100
AcDbLine
 10
36663.29693551
 20
-30317.69881898
 30
0.0
 11
36714.56564332
 21
-30299.3421424
 31
0.0
  0
LINE
  5
616
100
AcDbEntity
  8
Ech.1_5
 62
     9
  6
CONTINUOUS
370
    -3
100
AcDbLine
 10
36714.56564434
 20
-30271.01357316
 30
0.0
 11
36714.56564332
 21
-30299.3421424
 31
0.0
  0
LWPOLYLINE
  5
617
100
AcDbEntity
  8
Ech.1_5
 62
     9
  6
CONTINUOUS
370
    -3
100
AcDbPolyline
 90
        4
 70
     0
 43
0.0
 10
36556.01297318
 20
-30275.08107495
 10
36556.01297278
 20
-30286.14003242
 10
36556.01297278
 20
-30286.14003242
 10
36567.66355649
 20
-30288.4684831
  0
LINE
  5
618
100
AcDbEntity
  8
Ech.1_5
 62
     9
  6
CONTINUOUS
370
    -3
100
AcDbLine
 10
36557.26986639
 20
-30285.69000373
 30
0.0
 11
36556.01297278
 21
-30286.14003242
 31
0.0
  0
LWPOLYLINE
  5
619
100
AcDbEntity
  8
Ech.1_5
 62
     9
  6
CONTINUOUS
370
    -3
100
AcDbPolyline
 90
        4
 70
     0
 43
0.0
 10
36567.66355483
 20
-30287.76725509
 10
36557.26986639
 20
-30285.69000373
 10
36557.26986639
 20
-30285.69000373
 10
36557.26986676
 20
-30275.33227173
  0
LINE
  5
61A
100
AcDbEntity
  8
Ech.1_5
 62
     9
  6
CONTINUOUS
370
    -3
100
AcDbLine
 10
36591.66079477
 20
-30296.90386251
 30
0.0
 11
36591.66079514
 21
-30286.47601376
 31
0.0
  0
LINE
  5
61B
100
AcDbEntity
  8
Ech.1_5
 62
     9
  6
CONTINUOUS
370
    -3
100
AcDbLine
 10
36590.40390156
 20
-30286.22481698
 30
0.0
 11
36590.40390118
 21
-30296.65266573
 31
0.0
  0
LWPOLYLINE
  5
61C
100
AcDbEntity
  8
Ech.1_5
 62
     9
  6
CONTINUOUS
370
    -3
100
AcDbPolyline
 90
        4
 70
     0
 43
0.0
 10
36635.57222062
 20
-30290.98154727
 10
36635.57222022
 20
-30302.04050473
 10
36635.57222022
 20
-30302.04050473
 10
36647.22280393
 20
-30304.36895541
  0
LINE
  5
61D
100
AcDbEntity
  8
Ech.1_5
 62
     9
  6
CONTINUOUS
370
    -3
100
AcDbLine
 10
36636.82911383
 20
-30301.59047604
 30
0.0
 11
36635.57222022
 21
-30302.04050473
 31
0.0
  0
LWPOLYLINE
  5
61E
100
AcDbEntity
  8
Ech.1_5
 62
     9
  6
CONTINUOUS
370
    -3
100
AcDbPolyline
 90
        4
 70
     0
 43
0.0
 10
36647.22280227
 20
-30303.66772741
 10
36636.82911383
 20
-30301.59047604
 10
36636.82911383
 20
-30301.59047604
 10
36636.8291142
 20
-30291.23274405
  0
LINE
  5
61F
100
AcDbEntity
  8
Ech.1_5
 62
     9
  6
CONTINUOUS
370
    -3
100
AcDbLine
 10
36640.6975303
 20
-30302.36359096
 30
0.0
 11
36647.22275596
 21
-30300.02724463
 31
0.0
  0
LINE
  5
620
100
AcDbEntity
  8
Ech.1_5
 62
     9
  6
CONTINUOUS
370
    -3
100
AcDbLine
 10
36591.66076956
 20
-30295.76446822
 30
0.0
 11
36596.92343417
 21
-30293.8801798
 31
0.0
  0
LINE
  5
621
100
AcDbEntity
  8
Ech.1_5
 62
     9
  6
CONTINUOUS
370
    -3
100
AcDbLine
 10
36566.86870311
 20
-30287.60838323
 30
0.0
 11
36567.66352161
 21
-30287.32379977
 31
0.0
  0
LINE
  5
622
100
AcDbEntity
  8
Ech.1_5
 62
     9
  6
CONTINUOUS
370
    -3
100
AcDbLine
 10
36640.6975292
 20
-30332.71562736
 30
0.0
 11
36647.22275487
 21
-30330.37928103
 31
0.0
  0
LINE
  5
623
100
AcDbEntity
  8
Ech.1_5
 62
     9
  6
CONTINUOUS
370
    -3
100
AcDbLine
 10
36591.66076846
 20
-30326.11650462
 30
0.0
 11
36596.92343307
 21
-30324.23221621
 31
0.0
  0
LINE
  5
624
100
AcDbEntity
  8
Ech.1_5
 62
     9
  6
CONTINUOUS
370
    -3
100
AcDbLine
 10
36566.86870202
 20
-30317.96041963
 30
0.0
 11
36567.66352051
 21
-30317.67583618
 31
0.0
  0
LWPOLYLINE
  5
625
100
AcDbEntity
  8
Ech.1_5
 62
     9
  6
CONTINUOUS
370
    -3
100
AcDbPolyline
 90
        4
 70
     0
 43
0.0
 10
36525.0575465
 20
-30299.2464411
 10
36525.05754613
 20
-30309.6041731
 10
36525.05754613
 20
-30309.6041731
 10
36529.72081833
 20
-30310.53616068
  0
LINE
  5
626
100
AcDbEntity
  8
Ech.1_5
 62
     9
  6
CONTINUOUS
370
    -3
100
AcDbLine
 10
36525.05754613
 20
-30309.6041731
 30
0.0
 11
36523.80065252
 21
-30310.05420179
 31
0.0
  0
LWPOLYLINE
  5
627
100
AcDbEntity
  8
Ech.1_5
 62
     9
  6
CONTINUOUS
370
    -3
100
AcDbPolyline
 90
        4
 70
     0
 43
0.0
 10
36529.72081999
 20
-30311.23738868
 10
36523.80065252
 20
-30310.05420179
 10
36523.80065252
 20
-30310.05420179
 10
36523.80065292
 20
-30298.99524432
  0
LINE
  5
628
100
AcDbEntity
  8
Ech.1_5
 62
     9
  6
CONTINUOUS
370
    -3
100
AcDbLine
 10
36485.6196477
 20
-30295.63498505
 30
0.0
 11
36485.61964732
 21
-30306.0628338
 31
0.0
  0
LINE
  5
629
100
AcDbEntity
  8
Ech.1_5
 62
     9
  6
CONTINUOUS
370
    -3
100
AcDbLine
 10
36484.36275374
 20
-30305.81163702
 30
0.0
 11
36484.36275412
 21
-30295.38377862
 31
0.0
  0
LWPOLYLINE
  5
62A
100
AcDbEntity
  8
Ech.1_5
 62
     9
  6
CONTINUOUS
370
    -3
100
AcDbPolyline
 90
        4
 70
     0
 43
0.0
 10
36450.16156854
 20
-30295.33691557
 10
36444.24140107
 20
-30294.15372867
 10
36444.24140107
 20
-30294.15372867
 10
36444.24140147
 20
-30283.0947712
  0
LINE
  5
62B
100
AcDbEntity
  8
Ech.1_5
 62
     9
  6
CONTINUOUS
370
    -3
100
AcDbLine
 10
36444.24140107
 20
-30294.15372867
 30
0.0
 11
36445.49829468
 21
-30293.70369998
 31
0.0
  0
LWPOLYLINE
  5
62C
100
AcDbEntity
  8
Ech.1_5
 62
     9
  6
CONTINUOUS
370
    -3
100
AcDbPolyline
 90
        4
 70
     0
 43
0.0
 10
36445.49829506
 20
-30283.34596798
 10
36445.49829468
 20
-30293.70369998
 10
36445.49829468
 20
-30293.70369998
 10
36450.16156688
 20
-30294.63568756
  0
LINE
  5
62D
100
AcDbEntity
  8
Ech.1_5
 62
     9
  6
CONTINUOUS
370
    -3
100
AcDbLine
 10
36485.6196141
 20
-30304.9234379
 30
0.0
 11
36489.5994287
 21
-30303.49847182
 31
0.0
  0
LINE
  5
62E
100
AcDbEntity
  8
Ech.1_5
 62
     9
  6
CONTINUOUS
370
    -3
100
AcDbLine
 10
36449.36669912
 20
-30294.47682214
 30
0.0
 11
36450.16151761
 21
-30294.19223868
 31
0.0
  0
LWPOLYLINE
  5
62F
100
AcDbEntity
  8
Ech.1_5
 62
     9
  6
CONTINUOUS
370
    -3
100
AcDbPolyline
 90
        4
 70
     0
 43
0.0
 10
36525.0575476
 20
-30268.89441434
 10
36525.05754723
 20
-30279.25214634
 10
36525.05754723
 20
-30279.25214634
 10
36529.72081942
 20
-30280.18413392
  0
LINE
  5
630
100
AcDbEntity
  8
Ech.1_5
 62
     9
  6
CONTINUOUS
370
    -3
100
AcDbLine
 10
36525.05754723
 20
-30279.25214634
 30
0.0
 11
36523.80065362
 21
-30279.70217503
 31
0.0
  0
LWPOLYLINE
  5
631
100
AcDbEntity
  8
Ech.1_5
 62
     9
  6
CONTINUOUS
370
    -3
100
AcDbPolyline
 90
        4
 70
     0
 43
0.0
 10
36529.72082108
 20
-30280.88536192
 10
36523.80065362
 20
-30279.70217503
 10
36523.80065362
 20
-30279.70217503
 10
36523.80065402
 20
-30268.64321756
  0
LINE
  5
632
100
AcDbEntity
  8
Ech.1_5
 62
     9
  6
CONTINUOUS
370
    -3
100
AcDbLine
 10
36485.6196488
 20
-30265.28294864
 30
0.0
 11
36485.61964842
 21
-30275.7107974
 31
0.0
  0
LINE
  5
633
100
AcDbEntity
  8
Ech.1_5
 62
     9
  6
CONTINUOUS
370
    -3
100
AcDbLine
 10
36484.36275484
 20
-30275.45960062
 30
0.0
 11
36484.36275521
 21
-30265.03175186
 31
0.0
  0
LWPOLYLINE
  5
634
100
AcDbEntity
  8
Ech.1_5
 62
     9
  6
CONTINUOUS
370
    -3
100
AcDbPolyline
 90
        4
 70
     0
 43
0.0
 10
36450.16156963
 20
-30264.98488881
 10
36444.24140217
 20
-30263.80170192
 10
36444.24140217
 20
-30263.80170192
 10
36444.24140257
 20
-30252.74274445
  0
LINE
  5
635
100
AcDbEntity
  8
Ech.1_5
 62
     9
  6
CONTINUOUS
370
    -3
100
AcDbLine
 10
36444.24140217
 20
-30263.80170192
 30
0.0
 11
36445.49829578
 21
-30263.35167322
 31
0.0
  0
LWPOLYLINE
  5
636
100
AcDbEntity
  8
Ech.1_5
 62
     9
  6
CONTINUOUS
370
    -3
100
AcDbPolyline
 90
        4
 70
     0
 43
0.0
 10
36445.49829615
 20
-30252.99394123
 10
36445.49829578
 20
-30263.35167322
 10
36445.49829578
 20
-30263.35167322
 10
36450.16156798
 20
-30264.2836608
  0
LINE
  5
637
100
AcDbEntity
  8
Ech.1_5
 62
     9
  6
CONTINUOUS
370
    -3
100
AcDbLine
 10
36485.61961519
 20
-30274.5714015
 30
0.0
 11
36489.5994298
 21
-30273.14643542
 31
0.0
  0
LINE
  5
638
100
AcDbEntity
  8
Ech.1_5
 62
     9
  6
CONTINUOUS
370
    -3
100
AcDbLine
 10
36449.36670021
 20
-30264.12478573
 30
0.0
 11
36450.16151871
 21
-30263.84020228
 31
0.0
  0
LINE
  5
639
100
AcDbEntity
  8
Ech.1_5
 62
     9
  6
CONTINUOUS
370
    -3
100
AcDbLine
 10
36507.48478644
 20
-30290.89927167
 30
0.0
 11
36515.13927159
 21
-30288.15859584
 31
0.0
  0
LWPOLYLINE
  5
63A
100
AcDbEntity
  8
Ech.1_5
 62
     9
  6
CONTINUOUS
370
    -3
100
AcDbPolyline
 90
        4
 70
     0
 43
0.0
 10
36462.50362366
 20
-30281.90947154
 10
36507.48478644
 20
-30290.89927167
 10
36507.48478644
 20
-30290.89927167
 10
36507.48478637
 20
-30292.92273884
  0
LINE
  5
63B
100
AcDbEntity
  8
Ech.1_5
 62
     9
  6
CONTINUOUS
370
    -3
100
AcDbLine
 10
36515.13927152
 20
-30290.18206301
 30
0.0
 11
36507.48478637
 21
-30292.92273884
 31
0.0
  0
LWPOLYLINE
  5
63C
100
AcDbEntity
  8
Ech.1_5
 62
     9
  6
CONTINUOUS
370
    -3
100
AcDbPolyline
 90
        4
 70
     0
 43
0.0
 10
36507.48478637
 20
-30292.92273884
 10
36462.50362358
 20
-30283.9329387
 10
36462.50362358
 20
-30283.9329387
 10
36462.50362366
 20
-30281.90947154
  0
LINE
  5
63D
100
AcDbEntity
  8
Ech.1_5
 62
    36
  6
CONTINUOUS
370
    -3
100
AcDbLine
 10
36568.544763
 20
-30274.77396581
 30
0.0
 11
36613.52593381
 21
-30283.76376755
 31
0.0
  0
LINE
  5
63E
100
AcDbEntity
  8
Ech.1_5
 62
    36
  6
CONTINUOUS
370
    -3
100
AcDbLine
 10
36621.30610832
 20
-30278.95463136
 30
0.0
 11
36613.52593388
 21
-30281.74031003
 31
0.0
  0
LINE
  5
63F
100
AcDbEntity
  8
Ech.1_5
 62
    36
  6
CONTINUOUS
370
    -3
100
AcDbLine
 10
36568.54476308
 20
-30272.75050829
 30
0.0
 11
36576.32493751
 21
-30269.96482962
 31
0.0
  0
LINE
  5
640
100
AcDbEntity
  8
Ech.1_5
 62
    36
  6
CONTINUOUS
370
    -3
100
AcDbLine
 10
36613.52593388
 20
-30281.74031003
 30
0.0
 11
36568.54476308
 21
-30272.75050829
 31
0.0
  0
LINE
  5
641
100
AcDbEntity
  8
Ech.1_5
 62
    36
  6
CONTINUOUS
370
    -3
100
AcDbLine
 10
36613.52593388
 20
-30281.74031003
 30
0.0
 11
36613.52593381
 21
-30283.76376755
 31
0.0
  0
LINE
  5
642
100
AcDbEntity
  8
Ech.1_5
 62
    36
  6
CONTINUOUS
370
    -3
100
AcDbLine
 10
36568.544763
 20
-30274.77396581
 30
0.0
 11
36568.54476308
 21
-30272.75050829
 31
0.0
  0
LWPOLYLINE
  5
643
100
AcDbEntity
  8
Ech.1_5
 62
     9
  6
CONTINUOUS
370
    -3
100
AcDbPolyline
 90
        4
 70
     0
 43
0.0
 10
36556.0129677
 20
-30426.84124974
 10
36556.01296731
 20
-30437.90020721
 10
36556.01296731
 20
-30437.90020721
 10
36567.66355101
 20
-30440.22865788
  0
LINE
  5
644
100
AcDbEntity
  8
Ech.1_5
 62
     9
  6
CONTINUOUS
370
    -3
100
AcDbLine
 10
36557.26986091
 20
-30437.45017851
 30
0.0
 11
36556.01296731
 21
-30437.90020721
 31
0.0
  0
LWPOLYLINE
  5
645
100
AcDbEntity
  8
Ech.1_5
 62
     9
  6
CONTINUOUS
370
    -3
100
AcDbPolyline
 90
        4
 70
     0
 43
0.0
 10
36567.66354936
 20
-30439.52742988
 10
36557.26986091
 20
-30437.45017851
 10
36557.26986091
 20
-30437.45017851
 10
36557.26986129
 20
-30427.09244893
  0
LINE
  5
646
100
AcDbEntity
  8
Ech.1_5
 62
     9
  6
CONTINUOUS
370
    -3
100
AcDbLine
 10
36591.66078929
 20
-30448.66404393
 30
0.0
 11
36591.66078967
 21
-30438.23619096
 31
0.0
  0
LINE
  5
647
100
AcDbEntity
  8
Ech.1_5
 62
     9
  6
CONTINUOUS
370
    -3
100
AcDbLine
 10
36590.40389608
 20
-30437.98499297
 30
0.0
 11
36590.40389571
 21
-30448.41284534
 31
0.0
  0
LWPOLYLINE
  5
648
100
AcDbEntity
  8
Ech.1_5
 62
     9
  6
CONTINUOUS
370
    -3
100
AcDbPolyline
 90
        4
 70
     0
 43
0.0
 10
36635.57221514
 20
-30442.74172205
 10
36635.57221474
 20
-30453.80067952
 10
36635.57221474
 20
-30453.80067952
 10
36647.22279845
 20
-30456.1291302
  0
LINE
  5
649
100
AcDbEntity
  8
Ech.1_5
 62
     9
  6
CONTINUOUS
370
    -3
100
AcDbLine
 10
36636.82910835
 20
-30453.35065083
 30
0.0
 11
36635.57221474
 21
-30453.80067952
 31
0.0
  0
LWPOLYLINE
  5
64A
100
AcDbEntity
  8
Ech.1_5
 62
     9
  6
CONTINUOUS
370
    -3
100
AcDbPolyline
 90
        4
 70
     0
 43
0.0
 10
36647.22279679
 20
-30455.42790219
 10
36636.82910835
 20
-30453.35065083
 10
36636.82910835
 20
-30453.35065083
 10
36636.82910873
 20
-30442.99292124
  0
LINE
  5
64B
100
AcDbEntity
  8
Ech.1_5
 62
     9
  6
CONTINUOUS
370
    -3
100
AcDbLine
 10
36507.48478097
 20
-30442.6594555
 30
0.0
 11
36515.13926612
 21
-30439.91877967
 31
0.0
  0
LWPOLYLINE
  5
64C
100
AcDbEntity
  8
Ech.1_5
 62
     9
  6
CONTINUOUS
370
    -3
100
AcDbPolyline
 90
        4
 70
     0
 43
0.0
 10
36462.50361818
 20
-30433.66965537
 10
36507.48478097
 20
-30442.6594555
 10
36507.48478097
 20
-30442.6594555
 10
36507.48478089
 20
-30444.6829247
  0
LINE
  5
64D
100
AcDbEntity
  8
Ech.1_5
 62
     9
  6
CONTINUOUS
370
    -3
100
AcDbLine
 10
36515.13926605
 20
-30441.94224887
 30
0.0
 11
36507.48478089
 21
-30444.6829247
 31
0.0
  0
LWPOLYLINE
  5
64E
100
AcDbEntity
  8
Ech.1_5
 62
     9
  6
CONTINUOUS
370
    -3
100
AcDbPolyline
 90
        4
 70
     0
 43
0.0
 10
36507.48478089
 20
-30444.6829247
 10
36462.50361811
 20
-30435.69312457
 10
36462.50361811
 20
-30435.69312457
 10
36462.50361818
 20
-30433.66965537
  0
LINE
  5
64F
100
AcDbEntity
  8
Ech.1_5
 62
     9
  6
CONTINUOUS
370
    -3
100
AcDbLine
 10
36663.2969366
 20
-30287.34679222
 30
0.0
 11
36714.56564441
 21
-30268.99011564
 31
0.0
  0
LWPOLYLINE
  5
650
100
AcDbEntity
  8
Ech.1_5
 62
     9
  6
CONTINUOUS
370
    -3
100
AcDbPolyline
 90
        4
 70
     0
 43
0.0
 10
36663.29693653
 20
-30289.37024974
 10
36663.2969366
 20
-30287.34679222
 10
36663.2969366
 20
-30287.34679222
 10
36545.79494974
 20
-30263.86319793
  0
LWPOLYLINE
  5
651
100
AcDbEntity
  8
Ech.1_5
 62
     9
  6
CONTINUOUS
370
    -3
100
AcDbPolyline
 90
        4
 70
     0
 43
0.0
 10
36597.06365756
 20
-30245.50652135
 10
36714.56564441
 20
-30268.99011564
 10
36714.56564441
 20
-30268.99011564
 10
36714.56564434
 20
-30271.01357316
  0
LINE
  5
652
100
AcDbEntity
  8
Ech.1_5
 62
     9
  6
CONTINUOUS
370
    -3
100
AcDbLine
 10
36545.79494974
 20
-30263.86319793
 30
0.0
 11
36597.06365756
 21
-30245.50652135
 31
0.0
  0
LINE
  5
653
100
AcDbEntity
  8
Ech.1_5
 62
     9
  6
CONTINUOUS
370
    -3
100
AcDbLine
 10
36428.29296289
 20
-30240.37960364
 30
0.0
 11
36479.5616707
 21
-30222.02292707
 31
0.0
  0
LINE
  5
654
100
AcDbEntity
  8
Ech.1_5
 62
     9
  6
CONTINUOUS
370
    -3
100
AcDbLine
 10
36428.29296289
 20
-30240.37960364
 30
0.0
 11
36545.79494974
 21
-30263.86319793
 31
0.0
  0
LINE
  5
655
100
AcDbEntity
  8
Ech.1_5
 62
     9
  6
CONTINUOUS
370
    -3
100
AcDbLine
 10
36597.06365756
 20
-30245.50652135
 30
0.0
 11
36479.5616707
 21
-30222.02292707
 31
0.0
  0
LINE
  5
656
100
AcDbEntity
  8
Ech.1_5
 62
     9
  6
CONTINUOUS
370
    -3
100
AcDbLine
 10
36663.29693543
 20
-30319.72228614
 30
0.0
 11
36663.29693551
 21
-30317.69881898
 31
0.0
  0
LINE
  5
657
100
AcDbEntity
  8
Ech.1_5
 62
     9
  6
CONTINUOUS
370
    -3
100
AcDbLine
 10
36714.56564332
 20
-30299.3421424
 30
0.0
 11
36714.56564325
 21
-30301.36560956
 31
0.0
  0
LINE
  5
658
100
AcDbEntity
  8
Ech.1_5
 62
     9
  6
CONTINUOUS
370
    -3
100
AcDbLine
 10
36663.29693434
 20
-30350.07432255
 30
0.0
 11
36663.29693441
 21
-30348.05085538
 31
0.0
  0
LINE
  5
659
100
AcDbEntity
  8
Ech.1_5
 62
     9
  6
CONTINUOUS
370
    -3
100
AcDbLine
 10
36714.56564222
 20
-30329.6941788
 30
0.0
 11
36714.56564215
 21
-30331.71764597
 31
0.0
  0
LINE
  5
65A
100
AcDbEntity
  8
Ech.1_5
 62
     9
  6
CONTINUOUS
370
    -3
100
AcDbLine
 10
36663.29693324
 20
-30380.42635895
 30
0.0
 11
36663.29693331
 21
-30378.40289179
 31
0.0
  0
LINE
  5
65B
100
AcDbEntity
  8
Ech.1_5
 62
     9
  6
CONTINUOUS
370
    -3
100
AcDbLine
 10
36714.56564113
 20
-30360.04621521
 30
0.0
 11
36714.56564106
 21
-30362.06968237
 31
0.0
  0
LINE
  5
65C
100
AcDbEntity
  8
Ech.1_5
 62
     9
  6
CONTINUOUS
370
    -3
100
AcDbLine
 10
36663.29693215
 20
-30410.77840018
 30
0.0
 11
36663.29693222
 21
-30408.75492819
 31
0.0
  0
LINE
  5
65D
100
AcDbEntity
  8
Ech.1_5
 62
     9
  6
CONTINUOUS
370
    -3
100
AcDbLine
 10
36714.56564003
 20
-30390.39825161
 30
0.0
 11
36714.56563996
 21
-30392.4217236
 31
0.0
  0
LINE
  5
65E
100
AcDbEntity
  8
Ech.1_5
 62
     9
  6
CONTINUOUS
370
    -3
100
AcDbLine
 10
36663.29693105
 20
-30441.13043658
 30
0.0
 11
36663.29693112
 21
-30439.10696701
 31
0.0
  0
LINE
  5
65F
100
AcDbEntity
  8
Ech.1_5
 62
     9
  6
CONTINUOUS
370
    -3
100
AcDbLine
 10
36714.56563894
 20
-30420.75029043
 30
0.0
 11
36714.56563887
 21
-30422.77376001
 31
0.0
  0
LINE
  5
660
100
AcDbEntity
  8
Ech.1_5
 62
     9
  6
CONTINUOUS
370
    -3
100
AcDbLine
 10
36663.29692996
 20
-30471.48247201
 30
0.0
 11
36663.29693003
 21
-30469.45900281
 31
0.0
  0
LINE
  5
661
100
AcDbEntity
  8
Ech.1_5
 62
     9
  6
CONTINUOUS
370
    -3
100
AcDbLine
 10
36663.29692996
 20
-30471.48247201
 30
0.0
 11
36714.56563777
 21
-30453.12579543
 31
0.0
  0
LINE
  5
662
100
AcDbEntity
  8
Ech.1_5
 62
     9
  6
CONTINUOUS
370
    -3
100
AcDbLine
 10
36714.56563784
 20
-30451.10232623
 30
0.0
 11
36714.56563777
 21
-30453.12579543
 31
0.0
  0
LWPOLYLINE
  5
663
100
AcDbEntity
  8
Ech.1_5
 62
     2
  6
CONTINUOUS
370
    -3
100
AcDbPolyline
 90
        4
 70
     0
 43
0.0
 10
36647.22280657
 20
-30304.43907867
 10
36635.44653093
 20
-30302.08550758
 10
36635.44653093
 20
-30302.08550758
 10
36635.44653133
 20
-30290.9564237
  0
LINE
  5
664
100
AcDbEntity
  8
Ech.1_5
 62
     2
  6
CONTINUOUS
370
    -3
100
AcDbLine
 10
36635.57222022
 20
-30302.04050473
 30
0.0
 11
36635.44653093
 21
-30302.08550758
 31
0.0
  0
LWPOLYLINE
  5
665
100
AcDbEntity
  8
Ech.1_5
 62
     2
  6
CONTINUOUS
370
    -3
100
AcDbPolyline
 90
        4
 70
     0
 43
0.0
 10
36647.22280393
 20
-30304.36895541
 10
36635.57222022
 20
-30302.04050473
 10
36635.57222022
 20
-30302.04050473
 10
36635.57222062
 20
-30290.98154727
  0
LWPOLYLINE
  5
666
100
AcDbEntity
  8
Ech.1_5
 62
     2
  6
CONTINUOUS
370
    -3
100
AcDbPolyline
 90
        4
 70
     0
 43
0.0
 10
36545.66926039
 20
-30265.93165829
 10
36545.66925936
 20
-30294.26022753
 10
36545.66925936
 20
-30294.26022753
 10
36568.54474999
 20
-30298.8320544
  0
LINE
  5
667
100
AcDbEntity
  8
Ech.1_5
 62
     2
  6
CONTINUOUS
370
    -3
100
AcDbLine
 10
36590.40390118
 20
-30296.65266573
 30
0.0
 11
36590.40390156
 21
-30286.22481698
 31
0.0
  0
LINE
  5
668
100
AcDbEntity
  8
Ech.1_5
 62
     2
  6
CONTINUOUS
370
    -3
100
AcDbLine
 10
36663.29693653
 20
-30289.37024974
 30
0.0
 11
36663.29693551
 21
-30317.69881898
 31
0.0
  0
LWPOLYLINE
  5
669
100
AcDbEntity
  8
Ech.1_5
 62
     2
  6
CONTINUOUS
370
    -3
100
AcDbPolyline
 90
        4
 70
     0
 43
0.0
 10
36567.66355649
 20
-30288.4684831
 10
36556.01297278
 20
-30286.14003242
 10
36556.01297278
 20
-30286.14003242
 10
36556.01297318
 20
-30275.08107495
  0
LINE
  5
66A
100
AcDbEntity
  8
Ech.1_5
 62
     2
  6
CONTINUOUS
370
    -3
100
AcDbLine
 10
36663.17124724
 20
-30289.41525258
 30
0.0
 11
36621.18041896
 21
-30281.02309172
 31
0.0
  0
LINE
  5
66B
100
AcDbEntity
  8
Ech.1_5
 62
     2
  6
CONTINUOUS
370
    -3
100
AcDbLine
 10
36572.57233978
 20
-30271.30842696
 30
0.0
 11
36545.66926039
 21
-30265.93165829
 31
0.0
  0
LINE
  5
66C
100
AcDbEntity
  8
Ech.1_5
 62
     2
  6
CONTINUOUS
370
    -3
100
AcDbLine
 10
36663.17124724
 20
-30289.41525258
 30
0.0
 11
36663.29693653
 21
-30289.37024974
 31
0.0
  0
LINE
  5
66D
100
AcDbEntity
  8
Ech.1_5
 62
     2
  6
CONTINUOUS
370
    -3
100
AcDbLine
 10
36590.2782119
 20
-30296.62754217
 30
0.0
 11
36590.27821228
 21
-30286.19969341
 31
0.0
  0
LINE
  5
66E
100
AcDbEntity
  8
Ech.1_5
 62
     2
  6
CONTINUOUS
370
    -3
100
AcDbLine
 10
36621.18041794
 20
-30309.35166096
 30
0.0
 11
36663.17124622
 21
-30317.74382182
 31
0.0
  0
LINE
  5
66F
100
AcDbEntity
  8
Ech.1_5
 62
     2
  6
CONTINUOUS
370
    -3
100
AcDbLine
 10
36663.17124724
 20
-30289.41525258
 30
0.0
 11
36663.17124622
 21
-30317.74382182
 31
0.0
  0
LWPOLYLINE
  5
670
100
AcDbEntity
  8
Ech.1_5
 62
     2
  6
CONTINUOUS
370
    -3
100
AcDbPolyline
 90
        4
 70
     0
 43
0.0
 10
36567.66355513
 20
-30288.53860555
 10
36555.8872835
 20
-30286.18503526
 10
36555.8872835
 20
-30286.18503526
 10
36555.8872839
 20
-30275.05595139
  0
LWPOLYLINE
  5
671
100
AcDbEntity
  8
Ech.1_5
 62
     2
  6
CONTINUOUS
370
    -3
100
AcDbPolyline
 90
        4
 70
     0
 43
0.0
 10
36555.8872839
 20
-30275.05595139
 10
36567.66355553
 20
-30277.40952168
 10
36567.66355553
 20
-30277.40952168
 10
36567.66355513
 20
-30288.53860555
  0
LWPOLYLINE
  5
672
100
AcDbEntity
  8
Ech.1_5
 62
     2
  6
CONTINUOUS
370
    -3
100
AcDbPolyline
 90
        4
 70
     0
 43
0.0
 10
36635.44653133
 20
-30290.9564237
 10
36647.22280698
 20
-30293.30999479
 10
36647.22280698
 20
-30293.30999479
 10
36647.22280657
 20
-30304.43907867
  0
LINE
  5
673
100
AcDbEntity
  8
Ech.1_5
 62
     2
  6
CONTINUOUS
370
    -3
100
AcDbLine
 10
36663.29693551
 20
-30317.69881898
 30
0.0
 11
36663.17124622
 21
-30317.74382182
 31
0.0
  0
LINE
  5
674
100
AcDbEntity
  8
Ech.1_5
 62
     2
  6
CONTINUOUS
370
    -3
100
AcDbLine
 10
36556.01297278
 20
-30286.14003242
 30
0.0
 11
36555.8872835
 21
-30286.18503526
 31
0.0
  0
LINE
  5
675
100
AcDbEntity
  8
Ech.1_5
 62
     9
  6
CONTINUOUS
370
    -3
100
AcDbLine
 10
36613.52592724
 20
-30465.87598982
 30
0.0
 11
36621.18041239
 21
-30463.13531399
 31
0.0
  0
LINE
  5
676
100
AcDbEntity
  8
Ech.1_5
 62
     9
  6
CONTINUOUS
370
    -3
100
AcDbLine
 10
36568.54475643
 20
-30456.88618808
 30
0.0
 11
36613.52592724
 21
-30465.87598982
 31
0.0
  0
LINE
  5
677
100
AcDbEntity
  8
Ech.1_5
 62
     9
  6
CONTINUOUS
370
    -3
100
AcDbLine
 10
36621.18041246
 20
-30461.11184479
 30
0.0
 11
36613.52592731
 21
-30463.85252062
 31
0.0
  0
LINE
  5
678
100
AcDbEntity
  8
Ech.1_5
 62
     9
  6
CONTINUOUS
370
    -3
100
AcDbLine
 10
36613.52592731
 20
-30463.85252062
 30
0.0
 11
36568.5447565
 21
-30454.86271888
 31
0.0
  0
LINE
  5
679
100
AcDbEntity
  8
Ech.1_5
 62
     9
  6
CONTINUOUS
370
    -3
100
AcDbLine
 10
36613.52592731
 20
-30463.85252062
 30
0.0
 11
36613.52592724
 21
-30465.87598982
 31
0.0
  0
LINE
  5
67A
100
AcDbEntity
  8
Ech.1_5
 62
     9
  6
CONTINUOUS
370
    -3
100
AcDbLine
 10
36568.54475643
 20
-30456.88618808
 30
0.0
 11
36568.5447565
 21
-30454.86271888
 31
0.0
  0
LWPOLYLINE
  5
67B
100
AcDbEntity
  8
Ech.1_5
 62
     2
  6
CONTINUOUS
370
    -3
100
AcDbPolyline
 90
        4
 70
     0
 43
0.0
 10
36545.79494974
 20
-30263.86319793
 10
36663.2969366
 20
-30287.34679222
 10
36663.2969366
 20
-30287.34679222
 10
36663.29693653
 20
-30289.37024974
  0
LINE
  5
67C
100
AcDbEntity
  8
Ech.1_5
 62
     2
  6
CONTINUOUS
370
    -3
100
AcDbLine
 10
36663.17124731
 20
-30287.39179507
 30
0.0
 11
36663.2969366
 21
-30287.34679222
 31
0.0
  0
LWPOLYLINE
  5
67D
100
AcDbEntity
  8
Ech.1_5
 62
     2
  6
CONTINUOUS
370
    -3
100
AcDbPolyline
 90
        4
 70
     0
 43
0.0
 10
36663.17124724
 20
-30289.41525258
 10
36663.17124731
 20
-30287.39179507
 10
36663.17124731
 20
-30287.39179507
 10
36545.66926046
 20
-30263.90820078
  0
LINE
  5
67E
100
AcDbEntity
  8
Ech.1_5
 62
     2
  6
CONTINUOUS
370
    -3
100
AcDbLine
 10
36545.66926046
 20
-30263.90820078
 30
0.0
 11
36545.79494974
 21
-30263.86319793
 31
0.0
  0
LINE
  5
67F
100
AcDbEntity
  8
Ech.1_5
 62
     2
  6
CONTINUOUS
370
    -3
100
AcDbLine
 10
36545.66926046
 20
-30263.90820078
 30
0.0
 11
36545.66926039
 21
-30265.93165829
 31
0.0
  0
LWPOLYLINE
  5
680
100
AcDbEntity
  8
Ech.1_5
 62
     2
  6
CONTINUOUS
370
    -3
100
AcDbPolyline
 90
        4
 70
     0
 43
0.0
 10
36529.72081424
 20
-30432.71565916
 10
36517.94454261
 20
-30430.36208887
 10
36517.94454261
 20
-30430.36208887
 10
36517.94454301
 20
-30419.23300741
  0
LINE
  5
681
100
AcDbEntity
  8
Ech.1_5
 62
     2
  6
CONTINUOUS
370
    -3
100
AcDbLine
 10
36518.0702319
 20
-30430.31708603
 30
0.0
 11
36517.94454261
 21
-30430.36208887
 31
0.0
  0
LWPOLYLINE
  5
682
100
AcDbEntity
  8
Ech.1_5
 62
     2
  6
CONTINUOUS
370
    -3
100
AcDbPolyline
 90
        4
 70
     0
 43
0.0
 10
36529.72081561
 20
-30432.64553671
 10
36518.0702319
 20
-30430.31708603
 10
36518.0702319
 20
-30430.31708603
 10
36518.0702323
 20
-30419.25812856
  0
LWPOLYLINE
  5
683
100
AcDbEntity
  8
Ech.1_5
 62
     2
  6
CONTINUOUS
370
    -3
100
AcDbPolyline
 90
        4
 70
     0
 43
0.0
 10
36428.16726805
 20
-30394.20825085
 10
36428.16726703
 20
-30422.53681707
 10
36428.16726703
 20
-30422.53681707
 10
36462.50359015
 20
-30429.39917152
  0
LWPOLYLINE
  5
684
100
AcDbEntity
  8
Ech.1_5
 62
     2
  6
CONTINUOUS
370
    -3
100
AcDbPolyline
 90
        4
 70
     0
 43
0.0
 10
36450.16156416
 20
-30416.74506359
 10
36438.51098045
 20
-30414.41661292
 10
36438.51098045
 20
-30414.41661292
 10
36438.51098085
 20
-30403.35765545
  0
LINE
  5
685
100
AcDbEntity
  8
Ech.1_5
 62
     2
  6
CONTINUOUS
370
    -3
100
AcDbLine
 10
36545.66925491
 20
-30417.69184514
 30
0.0
 11
36515.13926714
 21
-30411.59021345
 31
0.0
  0
LINE
  5
686
100
AcDbEntity
  8
Ech.1_5
 62
     2
  6
CONTINUOUS
370
    -3
100
AcDbLine
 10
36462.50359117
 20
-30401.07060529
 30
0.0
 11
36428.16726805
 21
-30394.20825085
 31
0.0
  0
LINE
  5
687
100
AcDbEntity
  8
Ech.1_5
 62
     2
  6
CONTINUOUS
370
    -3
100
AcDbLine
 10
36489.59946169
 20
-30417.83852132
 30
0.0
 11
36489.59946131
 21
-30428.26637369
 31
0.0
  0
LINE
  5
688
100
AcDbEntity
  8
Ech.1_5
 62
     2
  6
CONTINUOUS
370
    -3
100
AcDbLine
 10
36515.13926612
 20
-30439.91877967
 30
0.0
 11
36545.66925389
 21
-30446.02041136
 31
0.0
  0
LINE
  5
689
100
AcDbEntity
  8
Ech.1_5
 62
     2
  6
CONTINUOUS
370
    -3
100
AcDbLine
 10
36545.66925491
 20
-30417.69184514
 30
0.0
 11
36545.66925389
 21
-30446.02041136
 31
0.0
  0
LWPOLYLINE
  5
68A
100
AcDbEntity
  8
Ech.1_5
 62
     2
  6
CONTINUOUS
370
    -3
100
AcDbPolyline
 90
        4
 70
     0
 43
0.0
 10
36450.16156279
 20
-30416.81518605
 10
36438.38529116
 20
-30414.46161576
 10
36438.38529116
 20
-30414.46161576
 10
36438.38529157
 20
-30403.3325343
  0
LWPOLYLINE
  5
68B
100
AcDbEntity
  8
Ech.1_5
 62
     2
  6
CONTINUOUS
370
    -3
100
AcDbPolyline
 90
        4
 70
     0
 43
0.0
 10
36438.38529157
 20
-30403.3325343
 10
36450.1615632
 20
-30405.68610459
 10
36450.1615632
 20
-30405.68610459
 10
36450.16156279
 20
-30416.81518605
  0
LWPOLYLINE
  5
68C
100
AcDbEntity
  8
Ech.1_5
 62
     2
  6
CONTINUOUS
370
    -3
100
AcDbPolyline
 90
        4
 70
     0
 43
0.0
 10
36517.94454301
 20
-30419.23300741
 10
36529.72081464
 20
-30421.5865777
 10
36529.72081464
 20
-30421.5865777
 10
36529.72081424
 20
-30432.71565916
  0
LINE
  5
68D
100
AcDbEntity
  8
Ech.1_5
 62
     2
  6
CONTINUOUS
370
    -3
100
AcDbLine
 10
36438.51098045
 20
-30414.41661292
 30
0.0
 11
36438.38529116
 21
-30414.46161576
 31
0.0
  0
LINE
  5
68E
100
AcDbEntity
  8
Ech.1_5
 62
     2
  6
CONTINUOUS
370
    -3
100
AcDbLine
 10
36663.17124067
 20
-30471.52747485
 30
0.0
 11
36663.29692996
 21
-30471.48247201
 31
0.0
  0
LINE
  5
68F
100
AcDbEntity
  8
Ech.1_5
 62
     2
  6
CONTINUOUS
370
    -3
100
AcDbLine
 10
36663.29693003
 20
-30469.45900281
 30
0.0
 11
36663.29692996
 21
-30471.48247201
 31
0.0
  0
LINE
  5
690
100
AcDbEntity
  8
Ech.1_5
 62
     2
  6
CONTINUOUS
370
    -3
100
AcDbLine
 10
36663.17124074
 20
-30469.50400565
 30
0.0
 11
36663.29693003
 21
-30469.45900281
 31
0.0
  0
LWPOLYLINE
  5
691
100
AcDbEntity
  8
Ech.1_5
 62
     2
  6
CONTINUOUS
370
    -3
100
AcDbPolyline
 90
        4
 70
     0
 43
0.0
 10
36663.17124067
 20
-30471.52747485
 10
36663.17124074
 20
-30469.50400565
 10
36663.17124074
 20
-30469.50400565
 10
36621.18041246
 20
-30461.11184479
  0
LWPOLYLINE
  5
692
100
AcDbEntity
  8
Ech.1_5
 62
     2
  6
CONTINUOUS
370
    -3
100
AcDbPolyline
 90
        4
 70
     0
 43
0.0
 10
36545.66925389
 20
-30446.02041136
 10
36545.66925381
 20
-30448.04388056
 10
36545.66925381
 20
-30448.04388056
 10
36568.54474444
 20
-30452.61570743
  0
LINE
  5
693
100
AcDbEntity
  8
Ech.1_5
 62
     2
  6
CONTINUOUS
370
    -3
100
AcDbLine
 10
36621.18041239
 20
-30463.13531399
 30
0.0
 11
36663.17124067
 21
-30471.52747485
 31
0.0
  0
LINE
  5
694
100
AcDbEntity
  8
Ech.1_5
 62
     2
  6
CONTINUOUS
370
    -3
100
AcDbLine
 10
36568.54474452
 20
-30450.59223824
 30
0.0
 11
36545.66925389
 21
-30446.02041136
 31
0.0
  0
LWPOLYLINE
  5
695
100
AcDbEntity
  8
Ech.1_5
 62
     2
  6
CONTINUOUS
370
    -3
100
AcDbPolyline
 90
        4
 70
     0
 43
0.0
 10
36545.66925601
 20
-30387.33980873
 10
36545.66925608
 20
-30385.31633675
 10
36545.66925608
 20
-30385.31633675
 10
36515.13926831
 20
-30379.21470506
  0
LWPOLYLINE
  5
696
100
AcDbEntity
  8
Ech.1_5
 62
     2
  6
CONTINUOUS
370
    -3
100
AcDbPolyline
 90
        4
 70
     0
 43
0.0
 10
36428.16726922
 20
-30361.83274246
 10
36428.16726915
 20
-30363.85621444
 10
36428.16726915
 20
-30363.85621444
 10
36462.50359226
 20
-30370.71856889
  0
LINE
  5
697
100
AcDbEntity
  8
Ech.1_5
 62
     2
  6
CONTINUOUS
370
    -3
100
AcDbLine
 10
36515.13926824
 20
-30381.23817705
 30
0.0
 11
36545.66925601
 21
-30387.33980873
 31
0.0
  0
LINE
  5
698
100
AcDbEntity
  8
Ech.1_5
 62
     2
  6
CONTINUOUS
370
    -3
100
AcDbLine
 10
36462.50359234
 20
-30368.6950969
 30
0.0
 11
36428.16726922
 21
-30361.83274246
 31
0.0
  0
LWPOLYLINE
  5
699
100
AcDbEntity
  8
Ech.1_5
 62
     2
  6
CONTINUOUS
370
    -3
100
AcDbPolyline
 90
        4
 70
     0
 43
0.0
 10
36529.72081534
 20
-30402.36362035
 10
36517.94454371
 20
-30400.01005006
 10
36517.94454371
 20
-30400.01005006
 10
36517.94454411
 20
-30388.88097101
  0
LINE
  5
69A
100
AcDbEntity
  8
Ech.1_5
 62
     2
  6
CONTINUOUS
370
    -3
100
AcDbLine
 10
36518.07023299
 20
-30399.96504721
 30
0.0
 11
36517.94454371
 21
-30400.01005006
 31
0.0
  0
LWPOLYLINE
  5
69B
100
AcDbEntity
  8
Ech.1_5
 62
     2
  6
CONTINUOUS
370
    -3
100
AcDbPolyline
 90
        4
 70
     0
 43
0.0
 10
36529.7208167
 20
-30402.29349789
 10
36518.07023299
 20
-30399.96504721
 10
36518.07023299
 20
-30399.96504721
 10
36518.07023339
 20
-30388.90608975
  0
LWPOLYLINE
  5
69C
100
AcDbEntity
  8
Ech.1_5
 62
     2
  6
CONTINUOUS
370
    -3
100
AcDbPolyline
 90
        4
 70
     0
 43
0.0
 10
36428.16726915
 20
-30363.85621444
 10
36428.16726813
 20
-30392.18478127
 10
36428.16726813
 20
-30392.18478127
 10
36462.50359124
 20
-30399.04713571
  0
LWPOLYLINE
  5
69D
100
AcDbEntity
  8
Ech.1_5
 62
     2
  6
CONTINUOUS
370
    -3
100
AcDbPolyline
 90
        4
 70
     0
 43
0.0
 10
36450.16156525
 20
-30386.39302478
 10
36438.51098155
 20
-30384.0645741
 10
36438.51098155
 20
-30384.0645741
 10
36438.51098194
 20
-30373.00561663
  0
LINE
  5
69E
100
AcDbEntity
  8
Ech.1_5
 62
     2
  6
CONTINUOUS
370
    -3
100
AcDbLine
 10
36489.59946279
 20
-30387.4864825
 30
0.0
 11
36489.59946241
 21
-30397.91433608
 31
0.0
  0
LINE
  5
69F
100
AcDbEntity
  8
Ech.1_5
 62
     2
  6
CONTINUOUS
370
    -3
100
AcDbLine
 10
36515.13926721
 20
-30409.56674387
 30
0.0
 11
36545.66925498
 21
-30415.66837556
 31
0.0
  0
LINE
  5
6A0
100
AcDbEntity
  8
Ech.1_5
 62
     2
  6
CONTINUOUS
370
    -3
100
AcDbLine
 10
36545.66925601
 20
-30387.33980873
 30
0.0
 11
36545.66925498
 21
-30415.66837556
 31
0.0
  0
LWPOLYLINE
  5
6A1
100
AcDbEntity
  8
Ech.1_5
 62
     2
  6
CONTINUOUS
370
    -3
100
AcDbPolyline
 90
        4
 70
     0
 43
0.0
 10
36450.16156389
 20
-30386.46314723
 10
36438.38529226
 20
-30384.10957694
 10
36438.38529226
 20
-30384.10957694
 10
36438.38529266
 20
-30372.98049789
  0
LWPOLYLINE
  5
6A2
100
AcDbEntity
  8
Ech.1_5
 62
     2
  6
CONTINUOUS
370
    -3
100
AcDbPolyline
 90
        4
 70
     0
 43
0.0
 10
36438.38529266
 20
-30372.98049789
 10
36450.16156429
 20
-30375.33406818
 10
36450.16156429
 20
-30375.33406818
 10
36450.16156389
 20
-30386.46314723
  0
LWPOLYLINE
  5
6A3
100
AcDbEntity
  8
Ech.1_5
 62
     2
  6
CONTINUOUS
370
    -3
100
AcDbPolyline
 90
        4
 70
     0
 43
0.0
 10
36517.94454411
 20
-30388.88097101
 10
36529.72081574
 20
-30391.2345413
 10
36529.72081574
 20
-30391.2345413
 10
36529.72081534
 20
-30402.36362035
  0
LINE
  5
6A4
100
AcDbEntity
  8
Ech.1_5
 62
     2
  6
CONTINUOUS
370
    -3
100
AcDbLine
 10
36438.51098155
 20
-30384.0645741
 30
0.0
 11
36438.38529226
 21
-30384.10957694
 31
0.0
  0
LINE
  5
6A5
100
AcDbEntity
  8
Ech.1_5
 62
     2
  6
CONTINUOUS
370
    -3
100
AcDbLine
 10
36545.66925491
 20
-30417.69184514
 30
0.0
 11
36545.66925498
 21
-30415.66837556
 31
0.0
  0
LINE
  5
6A6
100
AcDbEntity
  8
Ech.1_5
 62
     2
  6
CONTINUOUS
370
    -3
100
AcDbLine
 10
36428.16726813
 20
-30392.18478127
 30
0.0
 11
36428.16726805
 21
-30394.20825085
 31
0.0
  0
LWPOLYLINE
  5
6A7
100
AcDbEntity
  8
Ech.1_5
 62
     2
  6
CONTINUOUS
370
    -3
100
AcDbPolyline
 90
        4
 70
     0
 43
0.0
 10
36428.16726703
 20
-30422.53681707
 10
36428.16726696
 20
-30424.56028627
 10
36428.16726696
 20
-30424.56028627
 10
36462.50359007
 20
-30431.42264071
  0
LINE
  5
6A8
100
AcDbEntity
  8
Ech.1_5
 62
     2
  6
CONTINUOUS
370
    -3
100
AcDbLine
 10
36515.13926605
 20
-30441.94224887
 30
0.0
 11
36545.66925381
 21
-30448.04388056
 31
0.0
  0
LWPOLYLINE
  5
6A9
100
AcDbEntity
  8
Ech.1_5
 62
     2
  6
CONTINUOUS
370
    -3
100
AcDbPolyline
 90
        4
 70
     0
 43
0.0
 10
36529.72081972
 20
-30280.95548438
 10
36517.94454809
 20
-30278.60191409
 10
36517.94454809
 20
-30278.60191409
 10
36517.94454849
 20
-30267.47283021
  0
LINE
  5
6AA
100
AcDbEntity
  8
Ech.1_5
 62
     2
  6
CONTINUOUS
370
    -3
100
AcDbLine
 10
36518.07023737
 20
-30278.55691125
 30
0.0
 11
36517.94454809
 21
-30278.60191409
 31
0.0
  0
LWPOLYLINE
  5
6AB
100
AcDbEntity
  8
Ech.1_5
 62
     2
  6
CONTINUOUS
370
    -3
100
AcDbPolyline
 90
        4
 70
     0
 43
0.0
 10
36529.72082108
 20
-30280.88536192
 10
36518.07023737
 20
-30278.55691125
 10
36518.07023737
 20
-30278.55691125
 10
36518.07023777
 20
-30267.49795378
  0
LWPOLYLINE
  5
6AC
100
AcDbEntity
  8
Ech.1_5
 62
     2
  6
CONTINUOUS
370
    -3
100
AcDbPolyline
 90
        4
 70
     0
 43
0.0
 10
36428.16727353
 20
-30242.448064
 10
36428.16727251
 20
-30270.77663324
 10
36428.16727251
 20
-30270.77663324
 10
36462.50359562
 20
-30277.63898768
  0
LWPOLYLINE
  5
6AD
100
AcDbEntity
  8
Ech.1_5
 62
     2
  6
CONTINUOUS
370
    -3
100
AcDbPolyline
 90
        4
 70
     0
 43
0.0
 10
36450.16156963
 20
-30264.98488881
 10
36438.51098593
 20
-30262.65643813
 10
36438.51098593
 20
-30262.65643813
 10
36438.51098632
 20
-30251.59748066
  0
LINE
  5
6AE
100
AcDbEntity
  8
Ech.1_5
 62
     2
  6
CONTINUOUS
370
    -3
100
AcDbLine
 10
36545.66926039
 20
-30265.93165829
 30
0.0
 11
36515.13927262
 21
-30259.8300266
 31
0.0
  0
LINE
  5
6AF
100
AcDbEntity
  8
Ech.1_5
 62
     2
  6
CONTINUOUS
370
    -3
100
AcDbLine
 10
36466.53119343
 20
-30250.11536184
 30
0.0
 11
36428.16727353
 21
-30242.448064
 31
0.0
  0
LINE
  5
6B0
100
AcDbEntity
  8
Ech.1_5
 62
     2
  6
CONTINUOUS
370
    -3
100
AcDbLine
 10
36489.59946717
 20
-30266.07834171
 30
0.0
 11
36489.59946679
 21
-30276.50619046
 31
0.0
  0
LINE
  5
6B1
100
AcDbEntity
  8
Ech.1_5
 62
     2
  6
CONTINUOUS
370
    -3
100
AcDbLine
 10
36515.13927159
 20
-30288.15859584
 30
0.0
 11
36545.66925936
 21
-30294.26022753
 31
0.0
  0
LWPOLYLINE
  5
6B2
100
AcDbEntity
  8
Ech.1_5
 62
     2
  6
CONTINUOUS
370
    -3
100
AcDbPolyline
 90
        4
 70
     0
 43
0.0
 10
36450.16156827
 20
-30265.05501126
 10
36438.38529664
 20
-30262.70144097
 10
36438.38529664
 20
-30262.70144097
 10
36438.38529704
 20
-30251.5723571
  0
LWPOLYLINE
  5
6B3
100
AcDbEntity
  8
Ech.1_5
 62
     2
  6
CONTINUOUS
370
    -3
100
AcDbPolyline
 90
        4
 70
     0
 43
0.0
 10
36438.38529704
 20
-30251.5723571
 10
36450.16156867
 20
-30253.92592739
 10
36450.16156867
 20
-30253.92592739
 10
36450.16156827
 20
-30265.05501126
  0
LWPOLYLINE
  5
6B4
100
AcDbEntity
  8
Ech.1_5
 62
     2
  6
CONTINUOUS
370
    -3
100
AcDbPolyline
 90
        4
 70
     0
 43
0.0
 10
36517.94454849
 20
-30267.47283021
 10
36529.72082012
 20
-30269.8264005
 10
36529.72082012
 20
-30269.8264005
 10
36529.72081972
 20
-30280.95548438
  0
LINE
  5
6B5
100
AcDbEntity
  8
Ech.1_5
 62
     2
  6
CONTINUOUS
370
    -3
100
AcDbLine
 10
36438.51098593
 20
-30262.65643813
 30
0.0
 11
36438.38529664
 21
-30262.70144097
 31
0.0
  0
LINE
  5
6B6
100
AcDbEntity
  8
Ech.1_5
 62
     2
  6
CONTINUOUS
370
    -3
100
AcDbLine
 10
36428.29296289
 20
-30240.37960364
 30
0.0
 11
36545.79494974
 21
-30263.86319793
 31
0.0
  0
LINE
  5
6B7
100
AcDbEntity
  8
Ech.1_5
 62
     2
  6
CONTINUOUS
370
    -3
100
AcDbLine
 10
36428.1672736
 20
-30240.42460649
 30
0.0
 11
36428.29296289
 21
-30240.37960364
 31
0.0
  0
LINE
  5
6B8
100
AcDbEntity
  8
Ech.1_5
 62
     2
  6
CONTINUOUS
370
    -3
100
AcDbLine
 10
36428.1672736
 20
-30240.42460649
 30
0.0
 11
36428.16727353
 21
-30242.448064
 31
0.0
  0
LINE
  5
6B9
100
AcDbEntity
  8
Ech.1_5
 62
     2
  6
CONTINUOUS
370
    -3
100
AcDbLine
 10
36545.66926046
 20
-30263.90820078
 30
0.0
 11
36428.1672736
 21
-30240.42460649
 31
0.0
  0
LINE
  5
6BA
100
AcDbEntity
  8
Ech.1_5
 62
     2
  6
CONTINUOUS
370
    -3
100
AcDbLine
 10
36545.66925929
 20
-30296.2836947
 30
0.0
 11
36545.66925936
 21
-30294.26022753
 31
0.0
  0
LWPOLYLINE
  5
6BB
100
AcDbEntity
  8
Ech.1_5
 62
     2
  6
CONTINUOUS
370
    -3
100
AcDbPolyline
 90
        4
 70
     0
 43
0.0
 10
36428.16727251
 20
-30270.77663324
 10
36428.16727243
 20
-30272.80010041
 10
36428.16727243
 20
-30272.80010041
 10
36462.50359555
 20
-30279.66245485
  0
LINE
  5
6BC
100
AcDbEntity
  8
Ech.1_5
 62
     2
  6
CONTINUOUS
370
    -3
100
AcDbLine
 10
36515.13927152
 20
-30290.18206301
 30
0.0
 11
36545.66925929
 21
-30296.2836947
 31
0.0
  0
LWPOLYLINE
  5
6BD
100
AcDbEntity
  8
Ech.1_5
 62
     2
  6
CONTINUOUS
370
    -3
100
AcDbPolyline
 90
        4
 70
     0
 43
0.0
 10
36529.72081862
 20
-30311.30751113
 10
36517.94454699
 20
-30308.95394084
 10
36517.94454699
 20
-30308.95394084
 10
36517.94454739
 20
-30297.82486662
  0
LINE
  5
6BE
100
AcDbEntity
  8
Ech.1_5
 62
     2
  6
CONTINUOUS
370
    -3
100
AcDbLine
 10
36518.07023628
 20
-30308.908938
 30
0.0
 11
36517.94454699
 21
-30308.95394084
 31
0.0
  0
LWPOLYLINE
  5
6BF
100
AcDbEntity
  8
Ech.1_5
 62
     2
  6
CONTINUOUS
370
    -3
100
AcDbPolyline
 90
        4
 70
     0
 43
0.0
 10
36529.72081999
 20
-30311.23738868
 10
36518.07023628
 20
-30308.908938
 10
36518.07023628
 20
-30308.908938
 10
36518.07023668
 20
-30297.84998053
  0
LWPOLYLINE
  5
6C0
100
AcDbEntity
  8
Ech.1_5
 62
     2
  6
CONTINUOUS
370
    -3
100
AcDbPolyline
 90
        4
 70
     0
 43
0.0
 10
36428.16727243
 20
-30272.80010041
 10
36428.16727141
 20
-30301.12866965
 10
36428.16727141
 20
-30301.12866965
 10
36462.50359453
 20
-30307.99102409
  0
LWPOLYLINE
  5
6C1
100
AcDbEntity
  8
Ech.1_5
 62
     2
  6
CONTINUOUS
370
    -3
100
AcDbPolyline
 90
        4
 70
     0
 43
0.0
 10
36450.16156854
 20
-30295.33691557
 10
36438.51098483
 20
-30293.00846489
 10
36438.51098483
 20
-30293.00846489
 10
36438.51098523
 20
-30281.94950742
  0
LINE
  5
6C2
100
AcDbEntity
  8
Ech.1_5
 62
     2
  6
CONTINUOUS
370
    -3
100
AcDbLine
 10
36489.59946607
 20
-30296.43037811
 30
0.0
 11
36489.5994657
 21
-30306.85822687
 31
0.0
  0
LINE
  5
6C3
100
AcDbEntity
  8
Ech.1_5
 62
     2
  6
CONTINUOUS
370
    -3
100
AcDbLine
 10
36515.1392705
 20
-30318.51063225
 30
0.0
 11
36545.66925827
 21
-30324.61226394
 31
0.0
  0
LINE
  5
6C4
100
AcDbEntity
  8
Ech.1_5
 62
     2
  6
CONTINUOUS
370
    -3
100
AcDbLine
 10
36545.66925929
 20
-30296.2836947
 30
0.0
 11
36545.66925827
 21
-30324.61226394
 31
0.0
  0
LWPOLYLINE
  5
6C5
100
AcDbEntity
  8
Ech.1_5
 62
     2
  6
CONTINUOUS
370
    -3
100
AcDbPolyline
 90
        4
 70
     0
 43
0.0
 10
36450.16156717
 20
-30295.40703802
 10
36438.38529554
 20
-30293.05346773
 10
36438.38529554
 20
-30293.05346773
 10
36438.38529595
 20
-30281.9243935
  0
LWPOLYLINE
  5
6C6
100
AcDbEntity
  8
Ech.1_5
 62
     2
  6
CONTINUOUS
370
    -3
100
AcDbPolyline
 90
        4
 70
     0
 43
0.0
 10
36438.38529595
 20
-30281.9243935
 10
36450.16156758
 20
-30284.27796379
 10
36450.16156758
 20
-30284.27796379
 10
36450.16156717
 20
-30295.40703802
  0
LWPOLYLINE
  5
6C7
100
AcDbEntity
  8
Ech.1_5
 62
     2
  6
CONTINUOUS
370
    -3
100
AcDbPolyline
 90
        4
 70
     0
 43
0.0
 10
36517.94454739
 20
-30297.82486662
 10
36529.72081902
 20
-30300.17843691
 10
36529.72081902
 20
-30300.17843691
 10
36529.72081862
 20
-30311.30751113
  0
LINE
  5
6C8
100
AcDbEntity
  8
Ech.1_5
 62
     2
  6
CONTINUOUS
370
    -3
100
AcDbLine
 10
36438.51098483
 20
-30293.00846489
 30
0.0
 11
36438.38529554
 21
-30293.05346773
 31
0.0
  0
LINE
  5
6C9
100
AcDbEntity
  8
Ech.1_5
 62
     2
  6
CONTINUOUS
370
    -3
100
AcDbLine
 10
36545.6692582
 20
-30326.6357311
 30
0.0
 11
36545.66925827
 21
-30324.61226394
 31
0.0
  0
LWPOLYLINE
  5
6CA
100
AcDbEntity
  8
Ech.1_5
 62
     2
  6
CONTINUOUS
370
    -3
100
AcDbPolyline
 90
        4
 70
     0
 43
0.0
 10
36428.16727141
 20
-30301.12866965
 10
36428.16727134
 20
-30303.15213681
 10
36428.16727134
 20
-30303.15213681
 10
36462.50359445
 20
-30310.01449125
  0
LINE
  5
6CB
100
AcDbEntity
  8
Ech.1_5
 62
     2
  6
CONTINUOUS
370
    -3
100
AcDbLine
 10
36515.13927043
 20
-30320.53409941
 30
0.0
 11
36545.6692582
 21
-30326.6357311
 31
0.0
  0
LWPOLYLINE
  5
6CC
100
AcDbEntity
  8
Ech.1_5
 62
     2
  6
CONTINUOUS
370
    -3
100
AcDbPolyline
 90
        4
 70
     0
 43
0.0
 10
36529.72081753
 20
-30341.65954754
 10
36517.9445459
 20
-30339.30597725
 10
36517.9445459
 20
-30339.30597725
 10
36517.9445463
 20
-30328.17690302
  0
LINE
  5
6CD
100
AcDbEntity
  8
Ech.1_5
 62
     2
  6
CONTINUOUS
370
    -3
100
AcDbLine
 10
36518.07023518
 20
-30339.26097441
 30
0.0
 11
36517.9445459
 21
-30339.30597725
 31
0.0
  0
LWPOLYLINE
  5
6CE
100
AcDbEntity
  8
Ech.1_5
 62
     2
  6
CONTINUOUS
370
    -3
100
AcDbPolyline
 90
        4
 70
     0
 43
0.0
 10
36529.72081889
 20
-30341.58942508
 10
36518.07023518
 20
-30339.26097441
 10
36518.07023518
 20
-30339.26097441
 10
36518.07023558
 20
-30328.20201694
  0
LWPOLYLINE
  5
6CF
100
AcDbEntity
  8
Ech.1_5
 62
     2
  6
CONTINUOUS
370
    -3
100
AcDbPolyline
 90
        4
 70
     0
 43
0.0
 10
36428.16727134
 20
-30303.15213681
 10
36428.16727032
 20
-30331.48070605
 10
36428.16727032
 20
-30331.48070605
 10
36462.50359343
 20
-30338.34306049
  0
LWPOLYLINE
  5
6D0
100
AcDbEntity
  8
Ech.1_5
 62
     2
  6
CONTINUOUS
370
    -3
100
AcDbPolyline
 90
        4
 70
     0
 43
0.0
 10
36450.16156744
 20
-30325.68895197
 10
36438.51098374
 20
-30323.36050129
 10
36438.51098374
 20
-30323.36050129
 10
36438.51098413
 20
-30312.30154382
  0
LINE
  5
6D1
100
AcDbEntity
  8
Ech.1_5
 62
     2
  6
CONTINUOUS
370
    -3
100
AcDbLine
 10
36489.59946498
 20
-30326.78241452
 30
0.0
 11
36489.5994646
 21
-30337.21026327
 31
0.0
  0
LINE
  5
6D2
100
AcDbEntity
  8
Ech.1_5
 62
     2
  6
CONTINUOUS
370
    -3
100
AcDbLine
 10
36515.1392694
 20
-30348.86266865
 30
0.0
 11
36545.66925717
 21
-30354.96430034
 31
0.0
  0
LINE
  5
6D3
100
AcDbEntity
  8
Ech.1_5
 62
     2
  6
CONTINUOUS
370
    -3
100
AcDbLine
 10
36545.6692582
 20
-30326.6357311
 30
0.0
 11
36545.66925717
 21
-30354.96430034
 31
0.0
  0
LWPOLYLINE
  5
6D4
100
AcDbEntity
  8
Ech.1_5
 62
     2
  6
CONTINUOUS
370
    -3
100
AcDbPolyline
 90
        4
 70
     0
 43
0.0
 10
36450.16156608
 20
-30325.75907442
 10
36438.38529445
 20
-30323.40550413
 10
36438.38529445
 20
-30323.40550413
 10
36438.38529485
 20
-30312.27642991
  0
LWPOLYLINE
  5
6D5
100
AcDbEntity
  8
Ech.1_5
 62
     2
  6
CONTINUOUS
370
    -3
100
AcDbPolyline
 90
        4
 70
     0
 43
0.0
 10
36438.38529485
 20
-30312.27642991
 10
36450.16156648
 20
-30314.6300002
 10
36450.16156648
 20
-30314.6300002
 10
36450.16156608
 20
-30325.75907442
  0
LWPOLYLINE
  5
6D6
100
AcDbEntity
  8
Ech.1_5
 62
     2
  6
CONTINUOUS
370
    -3
100
AcDbPolyline
 90
        4
 70
     0
 43
0.0
 10
36517.9445463
 20
-30328.17690302
 10
36529.72081793
 20
-30330.53047331
 10
36529.72081793
 20
-30330.53047331
 10
36529.72081753
 20
-30341.65954754
  0
LINE
  5
6D7
100
AcDbEntity
  8
Ech.1_5
 62
     2
  6
CONTINUOUS
370
    -3
100
AcDbLine
 10
36438.51098374
 20
-30323.36050129
 30
0.0
 11
36438.38529445
 21
-30323.40550413
 31
0.0
  0
LINE
  5
6D8
100
AcDbEntity
  8
Ech.1_5
 62
     2
  6
CONTINUOUS
370
    -3
100
AcDbLine
 10
36545.6692571
 20
-30356.9877675
 30
0.0
 11
36545.66925717
 21
-30354.96430034
 31
0.0
  0
LWPOLYLINE
  5
6D9
100
AcDbEntity
  8
Ech.1_5
 62
     2
  6
CONTINUOUS
370
    -3
100
AcDbPolyline
 90
        4
 70
     0
 43
0.0
 10
36428.16727032
 20
-30331.48070605
 10
36428.16727024
 20
-30333.50417322
 10
36428.16727024
 20
-30333.50417322
 10
36462.50359336
 20
-30340.36652766
  0
LINE
  5
6DA
100
AcDbEntity
  8
Ech.1_5
 62
     2
  6
CONTINUOUS
370
    -3
100
AcDbLine
 10
36515.13926933
 20
-30350.88613582
 30
0.0
 11
36545.6692571
 21
-30356.9877675
 31
0.0
  0
LWPOLYLINE
  5
6DB
100
AcDbEntity
  8
Ech.1_5
 62
     2
  6
CONTINUOUS
370
    -3
100
AcDbPolyline
 90
        4
 70
     0
 43
0.0
 10
36529.72081643
 20
-30372.01158394
 10
36517.9445448
 20
-30369.65801365
 10
36517.9445448
 20
-30369.65801365
 10
36517.9445452
 20
-30358.52893943
  0
LWPOLYLINE
  5
6DC
100
AcDbEntity
  8
Ech.1_5
 62
     2
  6
CONTINUOUS
370
    -3
100
AcDbPolyline
 90
        4
 70
     0
 43
0.0
 10
36529.7208178
 20
-30371.94146149
 10
36518.07023409
 20
-30369.61301081
 10
36518.07023409
 20
-30369.61301081
 10
36518.07023449
 20
-30358.55405334
  0
LWPOLYLINE
  5
6DD
100
AcDbEntity
  8
Ech.1_5
 62
     2
  6
CONTINUOUS
370
    -3
100
AcDbPolyline
 90
        4
 70
     0
 43
0.0
 10
36450.16156635
 20
-30356.04098837
 10
36438.51098264
 20
-30353.7125377
 10
36438.51098264
 20
-30353.7125377
 10
36438.51098304
 20
-30342.65358023
  0
LINE
  5
6DE
100
AcDbEntity
  8
Ech.1_5
 62
     2
  6
CONTINUOUS
370
    -3
100
AcDbLine
 10
36428.16727024
 20
-30333.50417322
 30
0.0
 11
36428.16726922
 21
-30361.83274246
 31
0.0
  0
LINE
  5
6DF
100
AcDbEntity
  8
Ech.1_5
 62
     2
  6
CONTINUOUS
370
    -3
100
AcDbLine
 10
36489.59946388
 20
-30357.1344461
 30
0.0
 11
36489.59946351
 21
-30367.56229968
 31
0.0
  0
LINE
  5
6E0
100
AcDbEntity
  8
Ech.1_5
 62
     2
  6
CONTINUOUS
370
    -3
100
AcDbLine
 10
36545.6692571
 20
-30356.9877675
 30
0.0
 11
36545.66925608
 21
-30385.31633675
 31
0.0
  0
LWPOLYLINE
  5
6E1
100
AcDbEntity
  8
Ech.1_5
 62
     2
  6
CONTINUOUS
370
    -3
100
AcDbPolyline
 90
        4
 70
     0
 43
0.0
 10
36450.16156498
 20
-30356.11111083
 10
36438.38529335
 20
-30353.75754054
 10
36438.38529335
 20
-30353.75754054
 10
36438.38529376
 20
-30342.62846631
  0
LWPOLYLINE
  5
6E2
100
AcDbEntity
  8
Ech.1_5
 62
     2
  6
CONTINUOUS
370
    -3
100
AcDbPolyline
 90
        4
 70
     0
 43
0.0
 10
36438.38529376
 20
-30342.62846631
 10
36450.16156539
 20
-30344.9820366
 10
36450.16156539
 20
-30344.9820366
 10
36450.16156498
 20
-30356.11111083
  0
LWPOLYLINE
  5
6E3
100
AcDbEntity
  8
Ech.1_5
 62
     2
  6
CONTINUOUS
370
    -3
100
AcDbPolyline
 90
        4
 70
     0
 43
0.0
 10
36517.9445452
 20
-30358.52893943
 10
36529.72081683
 20
-30360.88250972
 10
36529.72081683
 20
-30360.88250972
 10
36529.72081643
 20
-30372.01158394
  0
LINE
  5
6E4
100
AcDbEntity
  8
Ech.1_5
 62
     2
  6
CONTINUOUS
370
    -3
100
AcDbLine
 10
36438.51098264
 20
-30353.7125377
 30
0.0
 11
36438.38529335
 21
-30353.75754054
 31
0.0
  0
LINE
  5
6E5
100
AcDbEntity
  8
Ech.1_5
 62
     2
  6
CONTINUOUS
370
    -3
100
AcDbLine
 10
36663.17124505
 20
-30350.11932539
 30
0.0
 11
36663.29693434
 21
-30350.07432255
 31
0.0
  0
LINE
  5
6E6
100
AcDbEntity
  8
Ech.1_5
 62
     2
  6
CONTINUOUS
370
    -3
100
AcDbLine
 10
36663.29693441
 20
-30348.05085538
 30
0.0
 11
36663.29693434
 21
-30350.07432255
 31
0.0
  0
LINE
  5
6E7
100
AcDbEntity
  8
Ech.1_5
 62
     2
  6
CONTINUOUS
370
    -3
100
AcDbLine
 10
36663.17124512
 20
-30348.09585823
 30
0.0
 11
36663.29693441
 21
-30348.05085538
 31
0.0
  0
LWPOLYLINE
  5
6E8
100
AcDbEntity
  8
Ech.1_5
 62
     2
  6
CONTINUOUS
370
    -3
100
AcDbPolyline
 90
        4
 70
     0
 43
0.0
 10
36663.17124505
 20
-30350.11932539
 10
36663.17124512
 20
-30348.09585823
 10
36663.17124512
 20
-30348.09585823
 10
36621.18041685
 20
-30339.70369736
  0
LINE
  5
6E9
100
AcDbEntity
  8
Ech.1_5
 62
     2
  6
CONTINUOUS
370
    -3
100
AcDbLine
 10
36545.6692582
 20
-30326.6357311
 30
0.0
 11
36568.54474882
 21
-30331.20755797
 31
0.0
  0
LINE
  5
6EA
100
AcDbEntity
  8
Ech.1_5
 62
     2
  6
CONTINUOUS
370
    -3
100
AcDbLine
 10
36621.18041677
 20
-30341.72716453
 30
0.0
 11
36663.17124505
 21
-30350.11932539
 31
0.0
  0
LINE
  5
6EB
100
AcDbEntity
  8
Ech.1_5
 62
     2
  6
CONTINUOUS
370
    -3
100
AcDbLine
 10
36568.5447489
 20
-30329.18409081
 30
0.0
 11
36545.66925827
 21
-30324.61226394
 31
0.0
  0
LWPOLYLINE
  5
6EC
100
AcDbEntity
  8
Ech.1_5
 62
     2
  6
CONTINUOUS
370
    -3
100
AcDbPolyline
 90
        4
 70
     0
 43
0.0
 10
36647.22280438
 20
-30365.14314183
 10
36635.44652874
 20
-30362.78957074
 10
36635.44652874
 20
-30362.78957074
 10
36635.44652914
 20
-30351.66049651
  0
LINE
  5
6ED
100
AcDbEntity
  8
Ech.1_5
 62
     2
  6
CONTINUOUS
370
    -3
100
AcDbLine
 10
36635.57221803
 20
-30362.74456789
 30
0.0
 11
36635.44652874
 21
-30362.78957074
 31
0.0
  0
LWPOLYLINE
  5
6EE
100
AcDbEntity
  8
Ech.1_5
 62
     2
  6
CONTINUOUS
370
    -3
100
AcDbPolyline
 90
        4
 70
     0
 43
0.0
 10
36647.22280174
 20
-30365.07301857
 10
36635.57221803
 20
-30362.74456789
 10
36635.57221803
 20
-30362.74456789
 10
36635.57221843
 20
-30351.68561043
  0
LINE
  5
6EF
100
AcDbEntity
  8
Ech.1_5
 62
     2
  6
CONTINUOUS
370
    -3
100
AcDbLine
 10
36545.66925717
 20
-30354.96430034
 30
0.0
 11
36568.5447478
 21
-30359.53612721
 31
0.0
  0
LINE
  5
6F0
100
AcDbEntity
  8
Ech.1_5
 62
     2
  6
CONTINUOUS
370
    -3
100
AcDbLine
 10
36590.40389899
 20
-30357.35673854
 30
0.0
 11
36590.40389937
 21
-30346.92888014
 31
0.0
  0
LINE
  5
6F1
100
AcDbEntity
  8
Ech.1_5
 62
     2
  6
CONTINUOUS
370
    -3
100
AcDbLine
 10
36663.29693434
 20
-30350.07432255
 30
0.0
 11
36663.29693331
 21
-30378.40289179
 31
0.0
  0
LWPOLYLINE
  5
6F2
100
AcDbEntity
  8
Ech.1_5
 62
     2
  6
CONTINUOUS
370
    -3
100
AcDbPolyline
 90
        4
 70
     0
 43
0.0
 10
36567.6635543
 20
-30349.17254626
 10
36556.01297059
 20
-30346.84409558
 10
36556.01297059
 20
-30346.84409558
 10
36556.01297099
 20
-30335.78513811
  0
LINE
  5
6F3
100
AcDbEntity
  8
Ech.1_5
 62
     2
  6
CONTINUOUS
370
    -3
100
AcDbLine
 10
36590.27820971
 20
-30357.33161498
 30
0.0
 11
36590.27821009
 21
-30346.90376622
 31
0.0
  0
LINE
  5
6F4
100
AcDbEntity
  8
Ech.1_5
 62
     2
  6
CONTINUOUS
370
    -3
100
AcDbLine
 10
36621.18041575
 20
-30370.05573377
 30
0.0
 11
36663.17124403
 21
-30378.44789463
 31
0.0
  0
LINE
  5
6F5
100
AcDbEntity
  8
Ech.1_5
 62
     2
  6
CONTINUOUS
370
    -3
100
AcDbLine
 10
36663.17124505
 20
-30350.11932539
 30
0.0
 11
36663.17124403
 21
-30378.44789463
 31
0.0
  0
LWPOLYLINE
  5
6F6
100
AcDbEntity
  8
Ech.1_5
 62
     2
  6
CONTINUOUS
370
    -3
100
AcDbPolyline
 90
        4
 70
     0
 43
0.0
 10
36567.66355293
 20
-30349.24266871
 10
36555.88728131
 20
-30346.88909842
 10
36555.88728131
 20
-30346.88909842
 10
36555.88728171
 20
-30335.7600242
  0
LWPOLYLINE
  5
6F7
100
AcDbEntity
  8
Ech.1_5
 62
     2
  6
CONTINUOUS
370
    -3
100
AcDbPolyline
 90
        4
 70
     0
 43
0.0
 10
36555.88728171
 20
-30335.7600242
 10
36567.66355334
 20
-30338.11359449
 10
36567.66355334
 20
-30338.11359449
 10
36567.66355293
 20
-30349.24266871
  0
LWPOLYLINE
  5
6F8
100
AcDbEntity
  8
Ech.1_5
 62
     2
  6
CONTINUOUS
370
    -3
100
AcDbPolyline
 90
        4
 70
     0
 43
0.0
 10
36635.44652914
 20
-30351.66049651
 10
36647.22280478
 20
-30354.0140676
 10
36647.22280478
 20
-30354.0140676
 10
36647.22280438
 20
-30365.14314183
  0
LINE
  5
6F9
100
AcDbEntity
  8
Ech.1_5
 62
     2
  6
CONTINUOUS
370
    -3
100
AcDbLine
 10
36663.29693331
 20
-30378.40289179
 30
0.0
 11
36663.17124403
 21
-30378.44789463
 31
0.0
  0
LINE
  5
6FA
100
AcDbEntity
  8
Ech.1_5
 62
     2
  6
CONTINUOUS
370
    -3
100
AcDbLine
 10
36556.01297059
 20
-30346.84409558
 30
0.0
 11
36555.88728131
 21
-30346.88909842
 31
0.0
  0
LINE
  5
6FB
100
AcDbEntity
  8
Ech.1_5
 62
     2
  6
CONTINUOUS
370
    -3
100
AcDbLine
 10
36663.17124396
 20
-30380.47136179
 30
0.0
 11
36663.29693324
 21
-30380.42635895
 31
0.0
  0
LINE
  5
6FC
100
AcDbEntity
  8
Ech.1_5
 62
     2
  6
CONTINUOUS
370
    -3
100
AcDbLine
 10
36663.29693331
 20
-30378.40289179
 30
0.0
 11
36663.29693324
 21
-30380.42635895
 31
0.0
  0
LINE
  5
6FD
100
AcDbEntity
  8
Ech.1_5
 62
     2
  6
CONTINUOUS
370
    -3
100
AcDbLine
 10
36663.17124396
 20
-30380.47136179
 30
0.0
 11
36663.17124403
 21
-30378.44789463
 31
0.0
  0
LINE
  5
6FE
100
AcDbEntity
  8
Ech.1_5
 62
     2
  6
CONTINUOUS
370
    -3
100
AcDbLine
 10
36545.6692571
 20
-30356.9877675
 30
0.0
 11
36568.54474773
 21
-30361.55959438
 31
0.0
  0
LINE
  5
6FF
100
AcDbEntity
  8
Ech.1_5
 62
     2
  6
CONTINUOUS
370
    -3
100
AcDbLine
 10
36621.18041568
 20
-30372.07920093
 30
0.0
 11
36663.17124396
 21
-30380.47136179
 31
0.0
  0
LWPOLYLINE
  5
700
100
AcDbEntity
  8
Ech.1_5
 62
     2
  6
CONTINUOUS
370
    -3
100
AcDbPolyline
 90
        4
 70
     0
 43
0.0
 10
36647.22280329
 20
-30395.49517823
 10
36635.44652765
 20
-30393.14160714
 10
36635.44652765
 20
-30393.14160714
 10
36635.44652805
 20
-30382.01253291
  0
LINE
  5
701
100
AcDbEntity
  8
Ech.1_5
 62
     2
  6
CONTINUOUS
370
    -3
100
AcDbLine
 10
36635.57221693
 20
-30393.0966043
 30
0.0
 11
36635.44652765
 21
-30393.14160714
 31
0.0
  0
LWPOLYLINE
  5
702
100
AcDbEntity
  8
Ech.1_5
 62
     2
  6
CONTINUOUS
370
    -3
100
AcDbPolyline
 90
        4
 70
     0
 43
0.0
 10
36647.22280064
 20
-30395.42505498
 10
36635.57221693
 20
-30393.0966043
 10
36635.57221693
 20
-30393.0966043
 10
36635.57221733
 20
-30382.03764683
  0
LINE
  5
703
100
AcDbEntity
  8
Ech.1_5
 62
     2
  6
CONTINUOUS
370
    -3
100
AcDbLine
 10
36545.66925608
 20
-30385.31633675
 30
0.0
 11
36568.54474671
 21
-30389.88816362
 31
0.0
  0
LINE
  5
704
100
AcDbEntity
  8
Ech.1_5
 62
     2
  6
CONTINUOUS
370
    -3
100
AcDbLine
 10
36590.4038979
 20
-30387.70877012
 30
0.0
 11
36590.40389827
 21
-30377.28092137
 31
0.0
  0
LINE
  5
705
100
AcDbEntity
  8
Ech.1_5
 62
     2
  6
CONTINUOUS
370
    -3
100
AcDbLine
 10
36663.29693324
 20
-30380.42635895
 30
0.0
 11
36663.29693222
 21
-30408.75492819
 31
0.0
  0
LWPOLYLINE
  5
706
100
AcDbEntity
  8
Ech.1_5
 62
     2
  6
CONTINUOUS
370
    -3
100
AcDbPolyline
 90
        4
 70
     0
 43
0.0
 10
36567.6635532
 20
-30379.52458266
 10
36556.0129695
 20
-30377.19613198
 10
36556.0129695
 20
-30377.19613198
 10
36556.0129699
 20
-30366.13717452
  0
LINE
  5
707
100
AcDbEntity
  8
Ech.1_5
 62
     2
  6
CONTINUOUS
370
    -3
100
AcDbLine
 10
36590.27820861
 20
-30387.68365138
 30
0.0
 11
36590.27820899
 21
-30377.2557978
 31
0.0
  0
LINE
  5
708
100
AcDbEntity
  8
Ech.1_5
 62
     2
  6
CONTINUOUS
370
    -3
100
AcDbLine
 10
36621.18041466
 20
-30400.40777017
 30
0.0
 11
36663.17124293
 21
-30408.79993103
 31
0.0
  0
LINE
  5
709
100
AcDbEntity
  8
Ech.1_5
 62
     2
  6
CONTINUOUS
370
    -3
100
AcDbLine
 10
36663.17124396
 20
-30380.47136179
 30
0.0
 11
36663.17124293
 21
-30408.79993103
 31
0.0
  0
LWPOLYLINE
  5
70A
100
AcDbEntity
  8
Ech.1_5
 62
     2
  6
CONTINUOUS
370
    -3
100
AcDbPolyline
 90
        4
 70
     0
 43
0.0
 10
36567.66355184
 20
-30379.59470512
 10
36555.88728021
 20
-30377.24113483
 10
36555.88728021
 20
-30377.24113483
 10
36555.88728061
 20
-30366.1120606
  0
LWPOLYLINE
  5
70B
100
AcDbEntity
  8
Ech.1_5
 62
     2
  6
CONTINUOUS
370
    -3
100
AcDbPolyline
 90
        4
 70
     0
 43
0.0
 10
36555.88728061
 20
-30366.1120606
 10
36567.66355224
 20
-30368.46563089
 10
36567.66355224
 20
-30368.46563089
 10
36567.66355184
 20
-30379.59470512
  0
LWPOLYLINE
  5
70C
100
AcDbEntity
  8
Ech.1_5
 62
     2
  6
CONTINUOUS
370
    -3
100
AcDbPolyline
 90
        4
 70
     0
 43
0.0
 10
36635.44652805
 20
-30382.01253291
 10
36647.22280369
 20
-30384.36610401
 10
36647.22280369
 20
-30384.36610401
 10
36647.22280329
 20
-30395.49517823
  0
LINE
  5
70D
100
AcDbEntity
  8
Ech.1_5
 62
     2
  6
CONTINUOUS
370
    -3
100
AcDbLine
 10
36663.29693222
 20
-30408.75492819
 30
0.0
 11
36663.17124293
 21
-30408.79993103
 31
0.0
  0
LINE
  5
70E
100
AcDbEntity
  8
Ech.1_5
 62
     2
  6
CONTINUOUS
370
    -3
100
AcDbLine
 10
36556.0129695
 20
-30377.19613198
 30
0.0
 11
36555.88728021
 21
-30377.24113483
 31
0.0
  0
LINE
  5
70F
100
AcDbEntity
  8
Ech.1_5
 62
     2
  6
CONTINUOUS
370
    -3
100
AcDbLine
 10
36663.17124286
 20
-30410.82340302
 30
0.0
 11
36663.29693215
 21
-30410.77840018
 31
0.0
  0
LINE
  5
710
100
AcDbEntity
  8
Ech.1_5
 62
     2
  6
CONTINUOUS
370
    -3
100
AcDbLine
 10
36663.29693222
 20
-30408.75492819
 30
0.0
 11
36663.29693215
 21
-30410.77840018
 31
0.0
  0
LINE
  5
711
100
AcDbEntity
  8
Ech.1_5
 62
     2
  6
CONTINUOUS
370
    -3
100
AcDbLine
 10
36663.17124286
 20
-30410.82340302
 30
0.0
 11
36663.17124293
 21
-30408.79993103
 31
0.0
  0
LINE
  5
712
100
AcDbEntity
  8
Ech.1_5
 62
     2
  6
CONTINUOUS
370
    -3
100
AcDbLine
 10
36545.66925601
 20
-30387.33980873
 30
0.0
 11
36568.54474663
 21
-30391.91163561
 31
0.0
  0
LINE
  5
713
100
AcDbEntity
  8
Ech.1_5
 62
     2
  6
CONTINUOUS
370
    -3
100
AcDbLine
 10
36621.18041458
 20
-30402.43124216
 30
0.0
 11
36663.17124286
 21
-30410.82340302
 31
0.0
  0
LWPOLYLINE
  5
714
100
AcDbEntity
  8
Ech.1_5
 62
     2
  6
CONTINUOUS
370
    -3
100
AcDbPolyline
 90
        4
 70
     0
 43
0.0
 10
36647.22280219
 20
-30425.84721464
 10
36635.44652655
 20
-30423.49364354
 10
36635.44652655
 20
-30423.49364354
 10
36635.44652695
 20
-30412.36456449
  0
LINE
  5
715
100
AcDbEntity
  8
Ech.1_5
 62
     2
  6
CONTINUOUS
370
    -3
100
AcDbLine
 10
36635.57221584
 20
-30423.4486407
 30
0.0
 11
36635.44652655
 21
-30423.49364354
 31
0.0
  0
LWPOLYLINE
  5
716
100
AcDbEntity
  8
Ech.1_5
 62
     2
  6
CONTINUOUS
370
    -3
100
AcDbPolyline
 90
        4
 70
     0
 43
0.0
 10
36647.22279955
 20
-30425.77709138
 10
36635.57221584
 20
-30423.4486407
 10
36635.57221584
 20
-30423.4486407
 10
36635.57221624
 20
-30412.38968323
  0
LINE
  5
717
100
AcDbEntity
  8
Ech.1_5
 62
     2
  6
CONTINUOUS
370
    -3
100
AcDbLine
 10
36545.66925498
 20
-30415.66837556
 30
0.0
 11
36568.54474561
 21
-30420.24020243
 31
0.0
  0
LINE
  5
718
100
AcDbEntity
  8
Ech.1_5
 62
     2
  6
CONTINUOUS
370
    -3
100
AcDbLine
 10
36590.4038968
 20
-30418.06080894
 30
0.0
 11
36590.40389718
 21
-30407.63295777
 31
0.0
  0
LINE
  5
719
100
AcDbEntity
  8
Ech.1_5
 62
     2
  6
CONTINUOUS
370
    -3
100
AcDbLine
 10
36663.29693215
 20
-30410.77840018
 30
0.0
 11
36663.29693112
 21
-30439.10696701
 31
0.0
  0
LWPOLYLINE
  5
71A
100
AcDbEntity
  8
Ech.1_5
 62
     2
  6
CONTINUOUS
370
    -3
100
AcDbPolyline
 90
        4
 70
     0
 43
0.0
 10
36567.66355211
 20
-30409.87661907
 10
36556.0129684
 20
-30407.54816839
 10
36556.0129684
 20
-30407.54816839
 10
36556.0129688
 20
-30396.48921092
  0
LINE
  5
71B
100
AcDbEntity
  8
Ech.1_5
 62
     2
  6
CONTINUOUS
370
    -3
100
AcDbLine
 10
36590.27820752
 20
-30418.03568779
 30
0.0
 11
36590.2782079
 21
-30407.60783421
 31
0.0
  0
LINE
  5
71C
100
AcDbEntity
  8
Ech.1_5
 62
     2
  6
CONTINUOUS
370
    -3
100
AcDbLine
 10
36621.18041356
 20
-30430.75980899
 30
0.0
 11
36663.17124184
 21
-30439.15196985
 31
0.0
  0
LINE
  5
71D
100
AcDbEntity
  8
Ech.1_5
 62
     2
  6
CONTINUOUS
370
    -3
100
AcDbLine
 10
36663.17124286
 20
-30410.82340302
 30
0.0
 11
36663.17124184
 21
-30439.15196985
 31
0.0
  0
LWPOLYLINE
  5
71E
100
AcDbEntity
  8
Ech.1_5
 62
     2
  6
CONTINUOUS
370
    -3
100
AcDbPolyline
 90
        4
 70
     0
 43
0.0
 10
36567.66355074
 20
-30409.94674152
 10
36555.88727912
 20
-30407.59317123
 10
36555.88727912
 20
-30407.59317123
 10
36555.88727952
 20
-30396.46409218
  0
LWPOLYLINE
  5
71F
100
AcDbEntity
  8
Ech.1_5
 62
     2
  6
CONTINUOUS
370
    -3
100
AcDbPolyline
 90
        4
 70
     0
 43
0.0
 10
36555.88727952
 20
-30396.46409218
 10
36567.66355115
 20
-30398.81766247
 10
36567.66355115
 20
-30398.81766247
 10
36567.66355074
 20
-30409.94674152
  0
LWPOLYLINE
  5
720
100
AcDbEntity
  8
Ech.1_5
 62
     2
  6
CONTINUOUS
370
    -3
100
AcDbPolyline
 90
        4
 70
     0
 43
0.0
 10
36635.44652695
 20
-30412.36456449
 10
36647.22280259
 20
-30414.71813559
 10
36647.22280259
 20
-30414.71813559
 10
36647.22280219
 20
-30425.84721464
  0
LINE
  5
721
100
AcDbEntity
  8
Ech.1_5
 62
     2
  6
CONTINUOUS
370
    -3
100
AcDbLine
 10
36663.29693112
 20
-30439.10696701
 30
0.0
 11
36663.17124184
 21
-30439.15196985
 31
0.0
  0
LINE
  5
722
100
AcDbEntity
  8
Ech.1_5
 62
     2
  6
CONTINUOUS
370
    -3
100
AcDbLine
 10
36556.0129684
 20
-30407.54816839
 30
0.0
 11
36555.88727912
 21
-30407.59317123
 31
0.0
  0
LINE
  5
723
100
AcDbEntity
  8
Ech.1_5
 62
     2
  6
CONTINUOUS
370
    -3
100
AcDbLine
 10
36663.17124177
 20
-30441.17543943
 30
0.0
 11
36663.29693105
 21
-30441.13043658
 31
0.0
  0
LINE
  5
724
100
AcDbEntity
  8
Ech.1_5
 62
     2
  6
CONTINUOUS
370
    -3
100
AcDbLine
 10
36663.29693112
 20
-30439.10696701
 30
0.0
 11
36663.29693105
 21
-30441.13043658
 31
0.0
  0
LINE
  5
725
100
AcDbEntity
  8
Ech.1_5
 62
     2
  6
CONTINUOUS
370
    -3
100
AcDbLine
 10
36663.17124177
 20
-30441.17543943
 30
0.0
 11
36663.17124184
 21
-30439.15196985
 31
0.0
  0
LINE
  5
726
100
AcDbEntity
  8
Ech.1_5
 62
     2
  6
CONTINUOUS
370
    -3
100
AcDbLine
 10
36545.66925491
 20
-30417.69184514
 30
0.0
 11
36568.54474554
 21
-30422.26367201
 31
0.0
  0
LINE
  5
727
100
AcDbEntity
  8
Ech.1_5
 62
     2
  6
CONTINUOUS
370
    -3
100
AcDbLine
 10
36621.18041349
 20
-30432.78327857
 30
0.0
 11
36663.17124177
 21
-30441.17543943
 31
0.0
  0
LWPOLYLINE
  5
728
100
AcDbEntity
  8
Ech.1_5
 62
     2
  6
CONTINUOUS
370
    -3
100
AcDbPolyline
 90
        4
 70
     0
 43
0.0
 10
36647.2228011
 20
-30456.19925345
 10
36635.44652546
 20
-30453.84568236
 10
36635.44652546
 20
-30453.84568236
 10
36635.44652586
 20
-30442.7166009
  0
LINE
  5
729
100
AcDbEntity
  8
Ech.1_5
 62
     2
  6
CONTINUOUS
370
    -3
100
AcDbLine
 10
36635.57221474
 20
-30453.80067952
 30
0.0
 11
36635.44652546
 21
-30453.84568236
 31
0.0
  0
LWPOLYLINE
  5
72A
100
AcDbEntity
  8
Ech.1_5
 62
     2
  6
CONTINUOUS
370
    -3
100
AcDbPolyline
 90
        4
 70
     0
 43
0.0
 10
36647.22279845
 20
-30456.1291302
 10
36635.57221474
 20
-30453.80067952
 10
36635.57221474
 20
-30453.80067952
 10
36635.57221514
 20
-30442.74172205
  0
LINE
  5
72B
100
AcDbEntity
  8
Ech.1_5
 62
     2
  6
CONTINUOUS
370
    -3
100
AcDbLine
 10
36590.40389571
 20
-30448.41284534
 30
0.0
 11
36590.40389608
 21
-30437.98499297
 31
0.0
  0
LINE
  5
72C
100
AcDbEntity
  8
Ech.1_5
 62
     2
  6
CONTINUOUS
370
    -3
100
AcDbLine
 10
36663.29693105
 20
-30441.13043658
 30
0.0
 11
36663.29693003
 21
-30469.45900281
 31
0.0
  0
LWPOLYLINE
  5
72D
100
AcDbEntity
  8
Ech.1_5
 62
     2
  6
CONTINUOUS
370
    -3
100
AcDbPolyline
 90
        4
 70
     0
 43
0.0
 10
36567.66355101
 20
-30440.22865788
 10
36556.01296731
 20
-30437.90020721
 10
36556.01296731
 20
-30437.90020721
 10
36556.0129677
 20
-30426.84124974
  0
LINE
  5
72E
100
AcDbEntity
  8
Ech.1_5
 62
     2
  6
CONTINUOUS
370
    -3
100
AcDbLine
 10
36590.27820642
 20
-30448.3877254
 30
0.0
 11
36590.2782068
 21
-30437.95987302
 31
0.0
  0
LINE
  5
72F
100
AcDbEntity
  8
Ech.1_5
 62
     2
  6
CONTINUOUS
370
    -3
100
AcDbLine
 10
36663.17124177
 20
-30441.17543943
 30
0.0
 11
36663.17124074
 21
-30469.50400565
 31
0.0
  0
LWPOLYLINE
  5
730
100
AcDbEntity
  8
Ech.1_5
 62
     2
  6
CONTINUOUS
370
    -3
100
AcDbPolyline
 90
        4
 70
     0
 43
0.0
 10
36567.66354965
 20
-30440.29878034
 10
36555.88727802
 20
-30437.94521005
 10
36555.88727802
 20
-30437.94521005
 10
36555.88727842
 20
-30426.81612859
  0
LWPOLYLINE
  5
731
100
AcDbEntity
  8
Ech.1_5
 62
     2
  6
CONTINUOUS
370
    -3
100
AcDbPolyline
 90
        4
 70
     0
 43
0.0
 10
36555.88727842
 20
-30426.81612859
 10
36567.66355005
 20
-30429.16969887
 10
36567.66355005
 20
-30429.16969887
 10
36567.66354965
 20
-30440.29878034
  0
LWPOLYLINE
  5
732
100
AcDbEntity
  8
Ech.1_5
 62
     2
  6
CONTINUOUS
370
    -3
100
AcDbPolyline
 90
        4
 70
     0
 43
0.0
 10
36635.44652586
 20
-30442.7166009
 10
36647.2228015
 20
-30445.07017199
 10
36647.2228015
 20
-30445.07017199
 10
36647.2228011
 20
-30456.19925345
  0
LINE
  5
733
100
AcDbEntity
  8
Ech.1_5
 62
     2
  6
CONTINUOUS
370
    -3
100
AcDbLine
 10
36556.01296731
 20
-30437.90020721
 30
0.0
 11
36555.88727802
 21
-30437.94521005
 31
0.0
  0
LINE
  5
734
100
AcDbEntity
  8
Ech.1_5
 62
     2
  6
CONTINUOUS
370
    -3
100
AcDbLine
 10
36663.17124615
 20
-30319.76728899
 30
0.0
 11
36663.29693543
 21
-30319.72228614
 31
0.0
  0
LINE
  5
735
100
AcDbEntity
  8
Ech.1_5
 62
     2
  6
CONTINUOUS
370
    -3
100
AcDbLine
 10
36663.29693551
 20
-30317.69881898
 30
0.0
 11
36663.29693543
 21
-30319.72228614
 31
0.0
  0
LINE
  5
736
100
AcDbEntity
  8
Ech.1_5
 62
     2
  6
CONTINUOUS
370
    -3
100
AcDbLine
 10
36663.17124615
 20
-30319.76728899
 30
0.0
 11
36663.17124622
 21
-30317.74382182
 31
0.0
  0
LINE
  5
737
100
AcDbEntity
  8
Ech.1_5
 62
     2
  6
CONTINUOUS
370
    -3
100
AcDbLine
 10
36545.66925929
 20
-30296.2836947
 30
0.0
 11
36568.54474992
 21
-30300.85552157
 31
0.0
  0
LINE
  5
738
100
AcDbEntity
  8
Ech.1_5
 62
     2
  6
CONTINUOUS
370
    -3
100
AcDbLine
 10
36621.18041787
 20
-30311.37512812
 30
0.0
 11
36663.17124615
 21
-30319.76728899
 31
0.0
  0
LWPOLYLINE
  5
739
100
AcDbEntity
  8
Ech.1_5
 62
     2
  6
CONTINUOUS
370
    -3
100
AcDbPolyline
 90
        4
 70
     0
 43
0.0
 10
36647.22280548
 20
-30334.79110542
 10
36635.44652984
 20
-30332.43753433
 10
36635.44652984
 20
-30332.43753433
 10
36635.44653024
 20
-30321.30846011
  0
LINE
  5
73A
100
AcDbEntity
  8
Ech.1_5
 62
     2
  6
CONTINUOUS
370
    -3
100
AcDbLine
 10
36635.57221912
 20
-30332.39253149
 30
0.0
 11
36635.44652984
 21
-30332.43753433
 31
0.0
  0
LWPOLYLINE
  5
73B
100
AcDbEntity
  8
Ech.1_5
 62
     2
  6
CONTINUOUS
370
    -3
100
AcDbPolyline
 90
        4
 70
     0
 43
0.0
 10
36647.22280283
 20
-30334.72098217
 10
36635.57221912
 20
-30332.39253149
 10
36635.57221912
 20
-30332.39253149
 10
36635.57221952
 20
-30321.33357402
  0
LINE
  5
73C
100
AcDbEntity
  8
Ech.1_5
 62
     2
  6
CONTINUOUS
370
    -3
100
AcDbLine
 10
36590.40390009
 20
-30327.00470214
 30
0.0
 11
36590.40390046
 21
-30316.57684373
 31
0.0
  0
LINE
  5
73D
100
AcDbEntity
  8
Ech.1_5
 62
     2
  6
CONTINUOUS
370
    -3
100
AcDbLine
 10
36663.29693543
 20
-30319.72228614
 30
0.0
 11
36663.29693441
 21
-30348.05085538
 31
0.0
  0
LWPOLYLINE
  5
73E
100
AcDbEntity
  8
Ech.1_5
 62
     2
  6
CONTINUOUS
370
    -3
100
AcDbPolyline
 90
        4
 70
     0
 43
0.0
 10
36567.66355539
 20
-30318.82050985
 10
36556.01297169
 20
-30316.49205918
 10
36556.01297169
 20
-30316.49205918
 10
36556.01297209
 20
-30305.43310171
  0
LINE
  5
73F
100
AcDbEntity
  8
Ech.1_5
 62
     2
  6
CONTINUOUS
370
    -3
100
AcDbLine
 10
36590.2782108
 20
-30326.97957857
 30
0.0
 11
36590.27821118
 21
-30316.55172982
 31
0.0
  0
LINE
  5
740
100
AcDbEntity
  8
Ech.1_5
 62
     2
  6
CONTINUOUS
370
    -3
100
AcDbLine
 10
36663.17124615
 20
-30319.76728899
 30
0.0
 11
36663.17124512
 21
-30348.09585823
 31
0.0
  0
LWPOLYLINE
  5
741
100
AcDbEntity
  8
Ech.1_5
 62
     2
  6
CONTINUOUS
370
    -3
100
AcDbPolyline
 90
        4
 70
     0
 43
0.0
 10
36567.66355403
 20
-30318.89063231
 10
36555.8872824
 20
-30316.53706202
 10
36555.8872824
 20
-30316.53706202
 10
36555.8872828
 20
-30305.40798779
  0
LWPOLYLINE
  5
742
100
AcDbEntity
  8
Ech.1_5
 62
     2
  6
CONTINUOUS
370
    -3
100
AcDbPolyline
 90
        4
 70
     0
 43
0.0
 10
36555.8872828
 20
-30305.40798779
 10
36567.66355443
 20
-30307.76155808
 10
36567.66355443
 20
-30307.76155808
 10
36567.66355403
 20
-30318.89063231
  0
LWPOLYLINE
  5
743
100
AcDbEntity
  8
Ech.1_5
 62
     2
  6
CONTINUOUS
370
    -3
100
AcDbPolyline
 90
        4
 70
     0
 43
0.0
 10
36635.44653024
 20
-30321.30846011
 10
36647.22280588
 20
-30323.6620312
 10
36647.22280588
 20
-30323.6620312
 10
36647.22280548
 20
-30334.79110542
  0
LINE
  5
744
100
AcDbEntity
  8
Ech.1_5
 62
     2
  6
CONTINUOUS
370
    -3
100
AcDbLine
 10
36556.01297169
 20
-30316.49205918
 30
0.0
 11
36555.8872824
 21
-30316.53706202
 31
0.0
  0
LWPOLYLINE
  5
745
100
AcDbEntity
  8
Ech.1_5
 62
     2
  6
CONTINUOUS
370
    -3
100
AcDbPolyline
 90
        4
 70
     0
 43
0.0
 10
36515.13927269
 20
-30257.80656909
 10
36515.13926605
 20
-30441.94224887
 10
36515.13927159
 20
-30288.15859584
 10
36515.13927159
 20
-30288.15859584
  0
LWPOLYLINE
  5
746
100
AcDbEntity
  8
Ech.1_5
 62
     2
  6
CONTINUOUS
370
    -3
100
AcDbPolyline
 90
        4
 70
     0
 43
0.0
 10
36621.18041904
 20
-30278.9996342
 10
36621.18041239
 20
-30463.13531399
 10
36621.18041794
 20
-30309.35166096
 10
36621.18041794
 20
-30309.35166096
  0
LWPOLYLINE
  5
747
100
AcDbEntity
  8
Ech.1_5
 62
   190
  6
CONTINUOUS
370
    -3
100
AcDbPolyline
 90
        4
 70
     1
 43
0.0
 10
36597.0636544
 20
-30245.50653233
 10
36479.5616707
 20
-30222.02292707
 10
36428.29296042
 20
-30240.37960623
 10
36545.79494412
 20
-30263.8632115
  0
LWPOLYLINE
  5
748
100
AcDbEntity
  8
Ech.1_5
 62
   190
  6
CONTINUOUS
370
    -3
100
AcDbPolyline
 90
        4
 70
     1
 43
0.0
 10
36597.0636544
 20
-30245.50653233
 10
36545.79494412
 20
-30263.8632115
 10
36663.29692783
 20
-30287.34681677
 10
36714.56563811
 20
-30268.9901376
  0
LWPOLYLINE
  5
749
100
AcDbEntity
  8
Ech.1_5
 62
   190
  6
CONTINUOUS
370
    -3
100
AcDbPolyline
 90
        4
 70
     1
 43
0.0
 10
36714.56563796
 20
-30271.01359507
 10
36663.29692768
 20
-30289.37027424
 10
36663.29692568
 20
-30317.69884292
 10
36714.56563596
 20
-30299.34216375
  0
LWPOLYLINE
  5
74A
100
AcDbEntity
  8
Ech.1_5
 62
   190
  6
CONTINUOUS
370
    -3
100
AcDbPolyline
 90
        4
 70
     1
 43
0.0
 10
36714.56563581
 20
-30301.36563087
 10
36663.29692553
 20
-30319.72231004
 10
36663.29692353
 20
-30348.05087872
 10
36714.56563381
 20
-30329.69419955
  0
LWPOLYLINE
  5
74B
100
AcDbEntity
  8
Ech.1_5
 62
   190
  6
CONTINUOUS
370
    -3
100
AcDbPolyline
 90
        4
 70
     1
 43
0.0
 10
36714.56563366
 20
-30331.71766667
 10
36663.29692338
 20
-30350.07434584
 10
36663.29692138
 20
-30378.40291452
 10
36714.56563166
 20
-30360.04623535
  0
LWPOLYLINE
  5
74C
100
AcDbEntity
  8
Ech.1_5
 62
   190
  6
CONTINUOUS
370
    -3
100
AcDbPolyline
 90
        4
 70
     1
 43
0.0
 10
36714.56563151
 20
-30362.06970247
 10
36663.29692123
 20
-30380.42638164
 10
36663.29691923
 20
-30408.75495032
 10
36714.56562951
 20
-30390.39827115
  0
LWPOLYLINE
  5
74D
100
AcDbEntity
  8
Ech.1_5
 62
   190
  6
CONTINUOUS
370
    -3
100
AcDbPolyline
 90
        4
 70
     1
 43
0.0
 10
36714.56562937
 20
-30392.4217431
 10
36663.29691909
 20
-30410.77842227
 10
36663.29691708
 20
-30439.10698853
 10
36714.56562736
 20
-30420.75030936
  0
LWPOLYLINE
  5
74E
100
AcDbEntity
  8
Ech.1_5
 62
   190
  6
CONTINUOUS
370
    -3
100
AcDbPolyline
 90
        4
 70
     1
 43
0.0
 10
36714.56562722
 20
-30422.7737789
 10
36663.29691694
 20
-30441.13045807
 10
36663.29691493
 20
-30469.45902373
 10
36714.56562521
 20
-30451.10234456
  0
LWPOLYLINE
  5
74F
100
AcDbEntity
  8
Ech.1_5
 62
   190
  6
CONTINUOUS
370
    -3
100
AcDbPolyline
 90
        4
 70
     1
 43
0.0
 10
36714.56562507
 20
-30453.12581372
 10
36714.56562521
 20
-30451.10234456
 10
36663.29691493
 20
-30469.45902373
 10
36663.29691479
 20
-30471.48249289
  0
LWPOLYLINE
  5
750
100
AcDbEntity
  8
Ech.1_5
 62
   190
  6
CONTINUOUS
370
    -3
100
AcDbPolyline
 90
        4
 70
     1
 43
0.0
 10
36714.56562722
 20
-30422.7737789
 10
36714.56562736
 20
-30420.75030936
 10
36663.29691708
 20
-30439.10698853
 10
36663.29691694
 20
-30441.13045807
  0
LWPOLYLINE
  5
751
100
AcDbEntity
  8
Ech.1_5
 62
   190
  6
CONTINUOUS
370
    -3
100
AcDbPolyline
 90
        4
 70
     1
 43
0.0
 10
36714.56562937
 20
-30392.4217431
 10
36714.56562951
 20
-30390.39827115
 10
36663.29691923
 20
-30408.75495032
 10
36663.29691909
 20
-30410.77842227
  0
LWPOLYLINE
  5
752
100
AcDbEntity
  8
Ech.1_5
 62
   190
  6
CONTINUOUS
370
    -3
100
AcDbPolyline
 90
        4
 70
     1
 43
0.0
 10
36714.56563151
 20
-30362.06970247
 10
36714.56563166
 20
-30360.04623535
 10
36663.29692138
 20
-30378.40291452
 10
36663.29692123
 20
-30380.42638164
  0
LWPOLYLINE
  5
753
100
AcDbEntity
  8
Ech.1_5
 62
   190
  6
CONTINUOUS
370
    -3
100
AcDbPolyline
 90
        4
 70
     1
 43
0.0
 10
36714.56563366
 20
-30331.71766667
 10
36714.56563381
 20
-30329.69419955
 10
36663.29692353
 20
-30348.05087872
 10
36663.29692338
 20
-30350.07434584
  0
LWPOLYLINE
  5
754
100
AcDbEntity
  8
Ech.1_5
 62
   190
  6
CONTINUOUS
370
    -3
100
AcDbPolyline
 90
        4
 70
     1
 43
0.0
 10
36714.56563581
 20
-30301.36563087
 10
36714.56563596
 20
-30299.34216375
 10
36663.29692568
 20
-30317.69884292
 10
36663.29692553
 20
-30319.72231004
  0
LWPOLYLINE
  5
755
100
AcDbEntity
  8
Ech.1_5
 62
   190
  6
CONTINUOUS
370
    -3
100
AcDbPolyline
 90
        4
 70
     1
 43
0.0
 10
36714.56563796
 20
-30271.01359507
 10
36714.56563811
 20
-30268.9901376
 10
36663.29692783
 20
-30287.34681677
 10
36663.29692768
 20
-30289.37027424
  0
LWPOLYLINE
  5
756
100
AcDbEntity
  8
Ech.1_5
 62
   190
  6
CONTINUOUS
370
    -3
100
AcDbPolyline
 90
        4
 70
     1
 43
0.0
 10
36428.1672736
 20
-30240.42460649
 10
36428.16727353
 20
-30242.448064
 10
36466.53119343
 20
-30250.11536184
 10
36470.15810879
 20
-30248.81676873
  0
LWPOLYLINE
  5
757
100
AcDbEntity
  8
Ech.1_5
 62
   190
  6
CONTINUOUS
370
    -3
100
AcDbPolyline
 90
        4
 70
     1
 43
0.0
 10
36515.13927269
 20
-30257.80656909
 10
36515.13927262
 20
-30259.8300266
 10
36545.66926039
 20
-30265.93165829
 10
36545.66926046
 20
-30263.90820078
  0
LWPOLYLINE
  5
758
100
AcDbEntity
  8
Ech.1_5
 62
   190
  6
CONTINUOUS
370
    -3
100
AcDbPolyline
 90
        4
 70
     1
 43
0.0
 10
36545.66926046
 20
-30263.90820078
 10
36545.66926039
 20
-30265.93165829
 10
36572.57233978
 20
-30271.30842696
 10
36576.19924738
 20
-30270.0098323
  0
LWPOLYLINE
  5
759
100
AcDbEntity
  8
Ech.1_5
 62
   190
  6
CONTINUOUS
370
    -3
100
AcDbPolyline
 90
        4
 70
     1
 43
0.0
 10
36621.18041904
 20
-30278.9996342
 10
36621.18041896
 20
-30281.02309172
 10
36663.17124724
 20
-30289.41525258
 10
36663.17124731
 20
-30287.39179507
  0
LWPOLYLINE
  5
75A
100
AcDbEntity
  8
Ech.1_5
 62
   190
  6
CONTINUOUS
370
    -3
100
AcDbPolyline
 90
        4
 70
     1
 43
0.0
 10
36507.48478644
 20
-30290.89927167
 10
36462.50362366
 20
-30281.90947154
 10
36462.50362358
 20
-30283.9329387
 10
36507.48478637
 20
-30292.92273884
  0
LWPOLYLINE
  5
75B
100
AcDbEntity
  8
Ech.1_5
 62
   190
  6
CONTINUOUS
370
    -3
100
AcDbPolyline
 90
        4
 70
     1
 43
0.0
 10
36515.13927152
 20
-30290.18206301
 10
36515.13927159
 20
-30288.15859584
 10
36507.48478644
 20
-30290.89927167
 10
36507.48478637
 20
-30292.92273884
  0
LWPOLYLINE
  5
75C
100
AcDbEntity
  8
Ech.1_5
 62
   190
  6
CONTINUOUS
370
    -3
100
AcDbPolyline
 90
        4
 70
     1
 43
0.0
 10
36507.48478644
 20
-30321.25130808
 10
36462.50362366
 20
-30312.26150794
 10
36462.50362358
 20
-30314.2849751
 10
36507.48478637
 20
-30323.27477524
  0
LWPOLYLINE
  5
75D
100
AcDbEntity
  8
Ech.1_5
 62
   190
  6
CONTINUOUS
370
    -3
100
AcDbPolyline
 90
        4
 70
     1
 43
0.0
 10
36515.13927152
 20
-30320.53409941
 10
36515.13927159
 20
-30318.51063225
 10
36507.48478644
 20
-30321.25130808
 10
36507.48478637
 20
-30323.27477524
  0
LWPOLYLINE
  5
75E
100
AcDbEntity
  8
Ech.1_5
 62
   190
  6
CONTINUOUS
370
    -3
100
AcDbPolyline
 90
        4
 70
     1
 43
0.0
 10
36507.48478644
 20
-30351.60334448
 10
36462.50362366
 20
-30342.61354435
 10
36462.50362358
 20
-30344.63701151
 10
36507.48478637
 20
-30353.62681165
  0
LWPOLYLINE
  5
75F
100
AcDbEntity
  8
Ech.1_5
 62
   190
  6
CONTINUOUS
370
    -3
100
AcDbPolyline
 90
        4
 70
     1
 43
0.0
 10
36515.13927152
 20
-30350.88613582
 10
36515.13927159
 20
-30348.86266865
 10
36507.48478644
 20
-30351.60334448
 10
36507.48478637
 20
-30353.62681165
  0
LWPOLYLINE
  5
760
100
AcDbEntity
  8
Ech.1_5
 62
   190
  6
CONTINUOUS
370
    -3
100
AcDbPolyline
 90
        4
 70
     1
 43
0.0
 10
36507.48478644
 20
-30381.95538089
 10
36462.50362366
 20
-30372.96558075
 10
36462.50362358
 20
-30374.98904791
 10
36507.48478637
 20
-30383.97884805
  0
LWPOLYLINE
  5
761
100
AcDbEntity
  8
Ech.1_5
 62
   190
  6
CONTINUOUS
370
    -3
100
AcDbPolyline
 90
        4
 70
     1
 43
0.0
 10
36515.13927152
 20
-30381.23817222
 10
36515.13927159
 20
-30379.21470506
 10
36507.48478644
 20
-30381.95538089
 10
36507.48478637
 20
-30383.97884805
  0
LWPOLYLINE
  5
762
100
AcDbEntity
  8
Ech.1_5
 62
   190
  6
CONTINUOUS
370
    -3
100
AcDbPolyline
 90
        4
 70
     1
 43
0.0
 10
36507.48478644
 20
-30412.30741729
 10
36462.50362366
 20
-30403.31761715
 10
36462.50362358
 20
-30405.34108432
 10
36507.48478637
 20
-30414.33088445
  0
LWPOLYLINE
  5
763
100
AcDbEntity
  8
Ech.1_5
 62
   190
  6
CONTINUOUS
370
    -3
100
AcDbPolyline
 90
        4
 70
     1
 43
0.0
 10
36515.13927152
 20
-30411.59020863
 10
36515.13927159
 20
-30409.56674146
 10
36507.48478644
 20
-30412.30741729
 10
36507.48478637
 20
-30414.33088445
  0
LWPOLYLINE
  5
764
100
AcDbEntity
  8
Ech.1_5
 62
   190
  6
CONTINUOUS
370
    -3
100
AcDbPolyline
 90
        4
 70
     1
 43
0.0
 10
36507.48478644
 20
-30442.6594537
 10
36462.50362366
 20
-30433.66965356
 10
36462.50362358
 20
-30435.69312072
 10
36507.48478637
 20
-30444.68292086
  0
LWPOLYLINE
  5
765
100
AcDbEntity
  8
Ech.1_5
 62
   190
  6
CONTINUOUS
370
    -3
100
AcDbPolyline
 90
        4
 70
     1
 43
0.0
 10
36515.13927152
 20
-30441.94224503
 10
36515.13927159
 20
-30439.91877787
 10
36507.48478644
 20
-30442.6594537
 10
36507.48478637
 20
-30444.68292086
  0
LWPOLYLINE
  5
766
100
AcDbEntity
  8
Ech.1_5
 62
   190
  6
CONTINUOUS
370
    -3
100
AcDbPolyline
 90
        4
 70
     1
 43
0.0
 10
36613.52593169
 20
-30312.09233679
 10
36568.54476891
 20
-30303.10253665
 10
36568.54476883
 20
-30305.12600382
 10
36613.52593162
 20
-30314.11580395
  0
LWPOLYLINE
  5
767
100
AcDbEntity
  8
Ech.1_5
 62
   190
  6
CONTINUOUS
370
    -3
100
AcDbPolyline
 90
        4
 70
     1
 43
0.0
 10
36621.18041677
 20
-30311.37512812
 10
36621.18041685
 20
-30309.35166096
 10
36613.52593169
 20
-30312.09233679
 10
36613.52593162
 20
-30314.11580395
  0
LWPOLYLINE
  5
768
100
AcDbEntity
  8
Ech.1_5
 62
   190
  6
CONTINUOUS
370
    -3
100
AcDbPolyline
 90
        4
 70
     1
 43
0.0
 10
36613.52593169
 20
-30342.44437319
 10
36568.54476891
 20
-30333.45457306
 10
36568.54476883
 20
-30335.47804022
 10
36613.52593162
 20
-30344.46784036
  0
LWPOLYLINE
  5
769
100
AcDbEntity
  8
Ech.1_5
 62
   190
  6
CONTINUOUS
370
    -3
100
AcDbPolyline
 90
        4
 70
     1
 43
0.0
 10
36621.18041677
 20
-30341.72716453
 10
36621.18041685
 20
-30339.70369736
 10
36613.52593169
 20
-30342.44437319
 10
36613.52593162
 20
-30344.46784036
  0
LWPOLYLINE
  5
76A
100
AcDbEntity
  8
Ech.1_5
 62
   190
  6
CONTINUOUS
370
    -3
100
AcDbPolyline
 90
        4
 70
     1
 43
0.0
 10
36613.52593169
 20
-30372.7964096
 10
36568.54476891
 20
-30363.80660946
 10
36568.54476883
 20
-30365.83007663
 10
36613.52593162
 20
-30374.81987676
  0
LWPOLYLINE
  5
76B
100
AcDbEntity
  8
Ech.1_5
 62
   190
  6
CONTINUOUS
370
    -3
100
AcDbPolyline
 90
        4
 70
     1
 43
0.0
 10
36621.18041677
 20
-30372.07920093
 10
36621.18041685
 20
-30370.05573377
 10
36613.52593169
 20
-30372.7964096
 10
36613.52593162
 20
-30374.81987676
  0
LWPOLYLINE
  5
76C
100
AcDbEntity
  8
Ech.1_5
 62
   190
  6
CONTINUOUS
370
    -3
100
AcDbPolyline
 90
        4
 70
     1
 43
0.0
 10
36613.52593169
 20
-30403.148446
 10
36568.54476891
 20
-30394.15864587
 10
36568.54476883
 20
-30396.18211303
 10
36613.52593162
 20
-30405.17191317
  0
LWPOLYLINE
  5
76D
100
AcDbEntity
  8
Ech.1_5
 62
   190
  6
CONTINUOUS
370
    -3
100
AcDbPolyline
 90
        4
 70
     1
 43
0.0
 10
36621.18041677
 20
-30402.43123734
 10
36621.18041685
 20
-30400.40777017
 10
36613.52593169
 20
-30403.148446
 10
36613.52593162
 20
-30405.17191317
  0
LWPOLYLINE
  5
76E
100
AcDbEntity
  8
Ech.1_5
 62
   190
  6
CONTINUOUS
370
    -3
100
AcDbPolyline
 90
        4
 70
     1
 43
0.0
 10
36613.52593169
 20
-30433.50048241
 10
36568.54476891
 20
-30424.51068227
 10
36568.54476883
 20
-30426.53414943
 10
36613.52593162
 20
-30435.52394957
  0
LWPOLYLINE
  5
76F
100
AcDbEntity
  8
Ech.1_5
 62
   190
  6
CONTINUOUS
370
    -3
100
AcDbPolyline
 90
        4
 70
     1
 43
0.0
 10
36621.18041677
 20
-30432.78327374
 10
36621.18041685
 20
-30430.75980658
 10
36613.52593169
 20
-30433.50048241
 10
36613.52593162
 20
-30435.52394957
  0
LWPOLYLINE
  5
770
100
AcDbEntity
  8
Ech.1_5
 62
   190
  6
CONTINUOUS
370
    -3
100
AcDbPolyline
 90
        4
 70
     1
 43
0.0
 10
36613.52593169
 20
-30463.85251881
 10
36568.54476891
 20
-30454.86271867
 10
36568.54476883
 20
-30456.88618584
 10
36613.52593162
 20
-30465.87598598
  0
LWPOLYLINE
  5
771
100
AcDbEntity
  8
Ech.1_5
 62
   190
  6
CONTINUOUS
370
    -3
100
AcDbPolyline
 90
        4
 70
     1
 43
0.0
 10
36621.18041677
 20
-30463.13531015
 10
36621.18041685
 20
-30461.11184298
 10
36613.52593169
 20
-30463.85251881
 10
36613.52593162
 20
-30465.87598598
  0
LWPOLYLINE
  5
772
100
AcDbEntity
  8
Ech.1_5
 62
   190
  6
CONTINUOUS
370
    -3
100
AcDbPolyline
 90
        4
 70
     1
 43
0.0
 10
36507.48478754
 20
-30260.54724492
 10
36462.50362475
 20
-30251.55744478
 10
36462.50362468
 20
-30253.5809023
 10
36507.48478746
 20
-30262.57070243
  0
LWPOLYLINE
  5
773
100
AcDbEntity
  8
Ech.1_5
 62
   190
  6
CONTINUOUS
370
    -3
100
AcDbPolyline
 90
        4
 70
     1
 43
0.0
 10
36515.13927262
 20
-30259.8300266
 10
36515.13927269
 20
-30257.80656909
 10
36507.48478754
 20
-30260.54724492
 10
36507.48478746
 20
-30262.57070243
  0
LWPOLYLINE
  5
774
100
AcDbEntity
  8
Ech.1_5
 62
   190
  6
CONTINUOUS
370
    -3
100
AcDbPolyline
 90
        4
 70
     1
 43
0.0
 10
36515.13927269
 20
-30257.80656909
 10
36470.1581099
 20
-30248.81676895
 10
36462.50362475
 20
-30251.55744478
 10
36507.48478754
 20
-30260.54724492
  0
LWPOLYLINE
  5
775
100
AcDbEntity
  8
Ech.1_5
 62
   190
  6
CONTINUOUS
370
    -3
100
AcDbPolyline
 90
        4
 70
     1
 43
0.0
 10
36515.13927262
 20
-30259.8300266
 10
36507.48478746
 20
-30262.57070243
 10
36507.48478644
 20
-30290.89927167
 10
36515.13927159
 20
-30288.15859584
  0
LWPOLYLINE
  5
776
100
AcDbEntity
  8
Ech.1_5
 62
   190
  6
CONTINUOUS
370
    -3
100
AcDbPolyline
 90
        4
 70
     1
 43
0.0
 10
36507.48478746
 20
-30262.57070243
 10
36505.80245607
 20
-30262.23447673
 10
36505.80245505
 20
-30290.56304597
 10
36507.48478644
 20
-30290.89927167
  0
LWPOLYLINE
  5
777
100
AcDbEntity
  8
Ech.1_5
 62
   190
  6
CONTINUOUS
370
    -3
100
AcDbPolyline
 90
        4
 70
     1
 43
0.0
 10
36464.18594003
 20
-30253.91712479
 10
36462.50362468
 20
-30253.5809023
 10
36462.50362366
 20
-30281.90947154
 10
36464.18593901
 20
-30282.24569403
  0
LINE
  5
778
100
AcDbEntity
  8
Ech.1_5
 62
   190
  6
CONTINUOUS
370
    -3
100
AcDbLine
 10
36505.80245505
 20
-30290.56304597
 30
0.0
 11
36505.80245607
 21
-30262.23447673
 31
0.0
  0
LWPOLYLINE
  5
779
100
AcDbEntity
  8
Ech.1_5
 62
   190
  6
CONTINUOUS
370
    -3
100
AcDbPolyline
 90
       10
 70
     0
 43
0.0
 10
36480.36295594
 20
-30264.23236422
 10
36484.36275521
 20
-30265.03175209
 10
36485.6196488
 20
-30265.28295107
 10
36489.59946717
 20
-30266.07834562
 10
36490.88233361
 20
-30266.33473545
 10
36490.88233323
 20
-30276.76259119
 10
36490.88233321
 20
-30277.46381933
 10
36479.10606158
 20
-30275.11024904
 10
36480.36295556
 20
-30274.66022021
 10
36480.36295594
 20
-30264.23236422
  0
LWPOLYLINE
  5
77A
100
AcDbEntity
  8
Ech.1_5
 62
   190
  6
CONTINUOUS
370
    -3
100
AcDbPolyline
 90
        4
 70
     0
 43
0.0
 10
36505.80245607
 20
-30262.23447673
 10
36464.18594003
 20
-30253.91712479
 10
36464.18593901
 20
-30282.24569403
 10
36505.80245505
 20
-30290.56304597
  0
LINE
  5
77B
100
AcDbEntity
  8
Ech.1_5
 62
   190
  6
CONTINUOUS
370
    -3
100
AcDbLine
 10
36466.53119933
 20
-30250.11537832
 30
0.0
 11
36428.16727353
 21
-30242.448064
 31
0.0
  0
LWPOLYLINE
  5
77C
100
AcDbEntity
  8
Ech.1_5
 62
   190
  6
CONTINUOUS
370
    -3
100
AcDbPolyline
 90
       11
 70
     0
 43
0.0
 10
36450.16156867
 20
-30253.92592739
 10
36450.16151871
 20
-30263.84020228
 10
36450.1615683
 20
-30264.2836608
 10
36450.16156827
 20
-30264.98488854
 10
36450.16156827
 20
-30265.05501126
 10
36438.38529664
 20
-30262.70144097
 10
36438.38529704
 20
-30251.5723571
 10
36438.51098632
 20
-30251.59748066
 10
36444.24140257
 20
-30252.74274445
 10
36445.49829615
 20
-30252.99394123
 10
36450.16156867
 20
-30253.92592739
  0
LWPOLYLINE
  5
77D
100
AcDbEntity
  8
Ech.1_5
 62
   190
  6
CONTINUOUS
370
    -3
100
AcDbPolyline
 90
        6
 70
     0
 43
0.0
 10
36428.16727353
 20
-30242.448064
 10
36428.16727251
 20
-30270.77663324
 10
36462.50359562
 20
-30277.63898768
 10
36462.50362468
 20
-30253.5809023
 10
36462.50362475
 20
-30251.55744478
 10
36466.53119933
 20
-30250.11537832
  0
LWPOLYLINE
  5
77E
100
AcDbEntity
  8
Ech.1_5
 62
   190
  6
CONTINUOUS
370
    -3
100
AcDbPolyline
 90
        4
 70
     1
 43
0.0
 10
36428.16727251
 20
-30270.77663324
 10
36428.16727243
 20
-30272.80010041
 10
36462.50359555
 20
-30279.66245485
 10
36462.50362381
 20
-30277.63898768
  0
LINE
  5
77F
100
AcDbEntity
  8
Ech.1_5
 62
   190
  6
CONTINUOUS
370
    -3
100
AcDbLine
 10
36515.13927262
 20
-30259.8300266
 30
0.0
 11
36515.13927159
 21
-30288.15859584
 31
0.0
  0
LWPOLYLINE
  5
780
100
AcDbEntity
  8
Ech.1_5
 62
   190
  6
CONTINUOUS
370
    -3
100
AcDbPolyline
 90
       10
 70
     0
 43
0.0
 10
36529.72081972
 20
-30280.95548438
 10
36517.94454809
 20
-30278.60191409
 10
36517.94454849
 20
-30267.47283021
 10
36518.07023777
 20
-30267.49795378
 10
36523.80065402
 20
-30268.64321756
 10
36525.0575476
 20
-30268.89441434
 10
36529.72082012
 20
-30269.8264005
 10
36529.72081942
 20
-30280.18413392
 10
36529.72081972
 20
-30280.88536165
 10
36529.72081972
 20
-30280.95548438
  0
LWPOLYLINE
  5
781
100
AcDbEntity
  8
Ech.1_5
 62
   190
  6
CONTINUOUS
370
    -3
100
AcDbPolyline
 90
        4
 70
     0
 43
0.0
 10
36515.13927159
 20
-30288.15859584
 10
36545.66925936
 20
-30294.26022753
 10
36545.66926039
 20
-30265.93165829
 10
36515.13927262
 20
-30259.8300266
  0
LINE
  5
782
100
AcDbEntity
  8
Ech.1_5
 62
   190
  6
CONTINUOUS
370
    -3
100
AcDbLine
 10
36572.57234426
 20
-30271.30843947
 30
0.0
 11
36545.66926039
 21
-30265.93165829
 31
0.0
  0
LWPOLYLINE
  5
783
100
AcDbEntity
  8
Ech.1_5
 62
   190
  6
CONTINUOUS
370
    -3
100
AcDbPolyline
 90
       10
 70
     0
 43
0.0
 10
36555.8872835
 20
-30286.18503526
 10
36555.8872839
 20
-30275.05595139
 10
36556.01297318
 20
-30275.08107495
 10
36557.26986676
 20
-30275.33227173
 10
36567.66355553
 20
-30277.40952168
 10
36567.66352161
 20
-30287.32379977
 10
36567.66355515
 20
-30287.76725509
 10
36567.66355513
 20
-30288.46848283
 10
36567.66355513
 20
-30288.53860555
 10
36555.8872835
 20
-30286.18503526
  0
LWPOLYLINE
  5
784
100
AcDbEntity
  8
Ech.1_5
 62
   190
  6
CONTINUOUS
370
    -3
100
AcDbPolyline
 90
        6
 70
     0
 43
0.0
 10
36545.66926039
 20
-30265.93165829
 10
36545.66925936
 20
-30294.26022753
 10
36568.54474999
 20
-30298.8320544
 10
36568.544763
 20
-30274.77396581
 10
36568.54476308
 20
-30272.75050829
 10
36572.57234426
 20
-30271.30843947
  0
LINE
  5
785
100
AcDbEntity
  8
Ech.1_5
 62
   190
  6
CONTINUOUS
370
    -3
100
AcDbLine
 10
36621.18041896
 20
-30281.02309172
 30
0.0
 11
36621.18041794
 21
-30309.35166096
 31
0.0
  0
LWPOLYLINE
  5
786
100
AcDbEntity
  8
Ech.1_5
 62
   190
  6
CONTINUOUS
370
    -3
100
AcDbPolyline
 90
       10
 70
     0
 43
0.0
 10
36635.44653093
 20
-30302.08550758
 10
36635.44653133
 20
-30290.9564237
 10
36635.57222062
 20
-30290.98154727
 10
36636.8291142
 20
-30291.23274405
 10
36647.22280698
 20
-30293.30999479
 10
36647.22275596
 20
-30300.02724463
 10
36647.22280412
 20
-30303.66772741
 10
36647.22280393
 20
-30304.36895541
 10
36647.22280657
 20
-30304.43907867
 10
36635.44653093
 20
-30302.08550758
  0
LWPOLYLINE
  5
787
100
AcDbEntity
  8
Ech.1_5
 62
   190
  6
CONTINUOUS
370
    -3
100
AcDbPolyline
 90
        4
 70
     0
 43
0.0
 10
36621.18041794
 20
-30309.35166096
 10
36663.17124622
 20
-30317.74382182
 10
36663.17124724
 20
-30289.41525258
 10
36621.18041896
 20
-30281.02309172
  0
LWPOLYLINE
  5
788
100
AcDbEntity
  8
Ech.1_5
 62
   190
  6
CONTINUOUS
370
    -3
100
AcDbPolyline
 90
        4
 70
     1
 43
0.0
 10
36515.13927159
 20
-30288.15859584
 10
36515.13927152
 20
-30290.18206301
 10
36545.66925929
 20
-30296.2836947
 10
36545.66925936
 20
-30294.26022753
  0
LWPOLYLINE
  5
789
100
AcDbEntity
  8
Ech.1_5
 62
   190
  6
CONTINUOUS
370
    -3
100
AcDbPolyline
 90
        4
 70
     1
 43
0.0
 10
36545.66925936
 20
-30294.26022753
 10
36545.66925929
 20
-30296.2836947
 10
36568.54474992
 20
-30300.85552157
 10
36568.54475093
 20
-30298.8320544
  0
LWPOLYLINE
  5
78A
100
AcDbEntity
  8
Ech.1_5
 62
   190
  6
CONTINUOUS
370
    -3
100
AcDbPolyline
 90
        4
 70
     1
 43
0.0
 10
36621.18041794
 20
-30309.35166096
 10
36621.18041787
 20
-30311.37512812
 10
36663.17124615
 20
-30319.76728899
 10
36663.17124622
 20
-30317.74382182
  0
LINE
  5
78B
100
AcDbEntity
  8
Ech.1_5
 62
   190
  6
CONTINUOUS
370
    -3
100
AcDbLine
 10
36462.50359453
 20
-30307.99102409
 30
0.0
 11
36462.50362358
 21
-30283.9329387
 31
0.0
  0
LWPOLYLINE
  5
78C
100
AcDbEntity
  8
Ech.1_5
 62
   190
  6
CONTINUOUS
370
    -3
100
AcDbPolyline
 90
       11
 70
     0
 43
0.0
 10
36438.38529595
 20
-30281.9243935
 10
36438.51098523
 20
-30281.94951339
 10
36444.24140147
 20
-30283.09477717
 10
36445.49829506
 20
-30283.34597615
 10
36450.16156758
 20
-30284.27796379
 10
36450.16151761
 20
-30294.19223868
 10
36450.1615672
 20
-30294.63568756
 10
36450.16156718
 20
-30295.33691529
 10
36450.16156717
 20
-30295.40703802
 10
36438.38529554
 20
-30293.05346773
 10
36438.38529595
 20
-30281.9243935
  0
LWPOLYLINE
  5
78D
100
AcDbEntity
  8
Ech.1_5
 62
   190
  6
CONTINUOUS
370
    -3
100
AcDbPolyline
 90
        6
 70
     0
 43
0.0
 10
36462.50362358
 20
-30283.9329387
 10
36462.50362366
 20
-30281.90947154
 10
36462.50362374
 20
-30279.66245485
 10
36428.16727243
 20
-30272.80010041
 10
36428.16727141
 20
-30301.12866965
 10
36462.50359453
 20
-30307.99102409
  0
LINE
  5
78E
100
AcDbEntity
  8
Ech.1_5
 62
   190
  6
CONTINUOUS
370
    -3
100
AcDbLine
 10
36464.18593893
 20
-30284.2691612
 30
0.0
 11
36464.18593791
 21
-30312.59773044
 31
0.0
  0
LWPOLYLINE
  5
78F
100
AcDbEntity
  8
Ech.1_5
 62
   190
  6
CONTINUOUS
370
    -3
100
AcDbPolyline
 90
       10
 70
     0
 43
0.0
 10
36490.88233211
 20
-30307.81584608
 10
36479.10606048
 20
-30305.46227579
 10
36479.10606088
 20
-30294.33320157
 10
36480.36295484
 20
-30294.58440062
 10
36484.36275412
 20
-30295.38378849
 10
36485.6196477
 20
-30295.63498747
 10
36489.59946607
 20
-30296.43038202
 10
36490.88233251
 20
-30296.68677186
 10
36490.88233214
 20
-30307.11461794
 10
36490.88233211
 20
-30307.81584608
  0
LWPOLYLINE
  5
790
100
AcDbEntity
  8
Ech.1_5
 62
   190
  6
CONTINUOUS
370
    -3
100
AcDbPolyline
 90
        4
 70
     0
 43
0.0
 10
36464.18593791
 20
-30312.59773044
 10
36505.80245395
 20
-30320.91508238
 10
36505.80245497
 20
-30292.58651314
 10
36464.18593893
 20
-30284.2691612
  0
LWPOLYLINE
  5
791
100
AcDbEntity
  8
Ech.1_5
 62
   190
  6
CONTINUOUS
370
    -3
100
AcDbPolyline
 90
        4
 70
     1
 43
0.0
 10
36464.18593893
 20
-30284.2691612
 10
36462.50362358
 20
-30283.9329387
 10
36462.50362256
 20
-30312.26150794
 10
36464.18593791
 20
-30312.59773022
  0
LWPOLYLINE
  5
792
100
AcDbEntity
  8
Ech.1_5
 62
   190
  6
CONTINUOUS
370
    -3
100
AcDbPolyline
 90
        4
 70
     1
 43
0.0
 10
36462.50362271
 20
-30307.99102409
 10
36428.16727141
 20
-30301.12866965
 10
36428.16727134
 20
-30303.15213681
 10
36462.50359445
 20
-30310.01449125
  0
LWPOLYLINE
  5
793
100
AcDbEntity
  8
Ech.1_5
 62
   190
  6
CONTINUOUS
370
    -3
100
AcDbPolyline
 90
        4
 70
     1
 43
0.0
 10
36507.48478637
 20
-30292.92273884
 10
36505.80245497
 20
-30292.58651314
 10
36505.80245395
 20
-30320.91508238
 10
36507.48478644
 20
-30321.25130808
  0
LWPOLYLINE
  5
794
100
AcDbEntity
  8
Ech.1_5
 62
   190
  6
CONTINUOUS
370
    -3
100
AcDbPolyline
 90
        4
 70
     1
 43
0.0
 10
36515.13927152
 20
-30290.18206301
 10
36507.48478637
 20
-30292.92273884
 10
36507.48478644
 20
-30321.25130808
 10
36515.1392705
 20
-30318.51063225
  0
LINE
  5
795
100
AcDbEntity
  8
Ech.1_5
 62
   190
  6
CONTINUOUS
370
    -3
100
AcDbLine
 10
36545.66925827
 20
-30324.61226394
 30
0.0
 11
36545.66925929
 21
-30296.2836947
 31
0.0
  0
LWPOLYLINE
  5
796
100
AcDbEntity
  8
Ech.1_5
 62
   190
  6
CONTINUOUS
370
    -3
100
AcDbPolyline
 90
       10
 70
     0
 43
0.0
 10
36517.94454739
 20
-30297.82486662
 10
36518.07023668
 20
-30297.8499865
 10
36523.80065292
 20
-30298.99525029
 10
36525.0575465
 20
-30299.24644926
 10
36529.72081902
 20
-30300.17843691
 10
36529.72081833
 20
-30310.53616068
 10
36529.72081863
 20
-30311.23738841
 10
36529.72081862
 20
-30311.30751113
 10
36517.94454699
 20
-30308.95394084
 10
36517.94454739
 20
-30297.82486662
  0
LWPOLYLINE
  5
797
100
AcDbEntity
  8
Ech.1_5
 62
   190
  6
CONTINUOUS
370
    -3
100
AcDbPolyline
 90
        4
 70
     0
 43
0.0
 10
36545.66925929
 20
-30296.2836947
 10
36515.13927152
 20
-30290.18206301
 10
36515.1392705
 20
-30318.51063225
 10
36545.66925827
 20
-30324.61226394
  0
LINE
  5
798
100
AcDbEntity
  8
Ech.1_5
 62
   190
  6
CONTINUOUS
370
    -3
100
AcDbLine
 10
36568.5447489
 20
-30329.18409081
 30
0.0
 11
36568.54476191
 21
-30305.12600221
 31
0.0
  0
LWPOLYLINE
  5
799
100
AcDbEntity
  8
Ech.1_5
 62
   190
  6
CONTINUOUS
370
    -3
100
AcDbPolyline
 90
       10
 70
     0
 43
0.0
 10
36555.8872828
 20
-30305.40798779
 10
36556.01297209
 20
-30305.43310768
 10
36557.26986567
 20
-30305.68430665
 10
36567.66355443
 20
-30307.76155808
 10
36567.66352051
 20
-30317.67583618
 10
36567.66355406
 20
-30318.11928185
 10
36567.66355403
 20
-30318.82050958
 10
36567.66355403
 20
-30318.89063231
 10
36555.8872824
 20
-30316.53706202
 10
36555.8872828
 20
-30305.40798779
  0
LWPOLYLINE
  5
79A
100
AcDbEntity
  8
Ech.1_5
 62
   190
  6
CONTINUOUS
370
    -3
100
AcDbPolyline
 90
        6
 70
     0
 43
0.0
 10
36568.54476191
 20
-30305.12600221
 10
36568.54476198
 20
-30303.10253505
 10
36568.54476206
 20
-30300.85552157
 10
36545.66925929
 20
-30296.2836947
 10
36545.66925827
 20
-30324.61226394
 10
36568.5447489
 20
-30329.18409081
  0
LWPOLYLINE
  5
79B
100
AcDbEntity
  8
Ech.1_5
 62
   190
  6
CONTINUOUS
370
    -3
100
AcDbPolyline
 90
        4
 70
     1
 43
0.0
 10
36545.66925827
 20
-30324.61226394
 10
36515.1392705
 20
-30318.51063225
 10
36515.13927152
 20
-30320.53409941
 10
36545.6692582
 20
-30326.6357311
  0
LWPOLYLINE
  5
79C
100
AcDbEntity
  8
Ech.1_5
 62
   190
  6
CONTINUOUS
370
    -3
100
AcDbPolyline
 90
        4
 70
     1
 43
0.0
 10
36545.66925827
 20
-30324.61226394
 10
36545.6692582
 20
-30326.6357311
 10
36568.54474882
 20
-30331.20755797
 10
36568.54474984
 20
-30329.18409081
  0
LWPOLYLINE
  5
79D
100
AcDbEntity
  8
Ech.1_5
 62
   190
  6
CONTINUOUS
370
    -3
100
AcDbPolyline
 90
        4
 70
     1
 43
0.0
 10
36570.2270933
 20
-30305.46222792
 10
36568.54476191
 20
-30305.12600221
 10
36568.54476088
 20
-30333.45457145
 10
36570.22709228
 20
-30333.79079716
  0
LWPOLYLINE
  5
79E
100
AcDbEntity
  8
Ech.1_5
 62
   190
  6
CONTINUOUS
370
    -3
100
AcDbPolyline
 90
        4
 70
     1
 43
0.0
 10
36613.52593272
 20
-30314.11580395
 10
36611.84360132
 20
-30313.77957847
 10
36611.8436003
 20
-30342.10814749
 10
36613.52593169
 20
-30342.44437319
  0
LWPOLYLINE
  5
79F
100
AcDbEntity
  8
Ech.1_5
 62
   190
  6
CONTINUOUS
370
    -3
100
AcDbPolyline
 90
        4
 70
     1
 43
0.0
 10
36621.18041787
 20
-30311.37512812
 10
36613.52593272
 20
-30314.11580395
 10
36613.52593169
 20
-30342.44437319
 10
36621.18041685
 20
-30339.70369736
  0
LINE
  5
7A0
100
AcDbEntity
  8
Ech.1_5
 62
   190
  6
CONTINUOUS
370
    -3
100
AcDbLine
 10
36611.8436003
 20
-30342.10814749
 30
0.0
 11
36611.84360132
 21
-30313.77957825
 31
0.0
  0
LWPOLYLINE
  5
7A1
100
AcDbEntity
  8
Ech.1_5
 62
   190
  6
CONTINUOUS
370
    -3
100
AcDbPolyline
 90
       11
 70
     0
 43
0.0
 10
36585.14720723
 20
-30315.52626668
 10
36586.40410119
 20
-30315.77746574
 10
36590.27821118
 20
-30316.55173373
 10
36590.40390046
 20
-30316.57685361
 10
36591.66079405
 20
-30316.82805259
 10
36596.92348688
 20
-30317.87983858
 10
36596.92343307
 20
-30324.23221621
 10
36596.9234865
 20
-30328.30768466
 10
36596.92348648
 20
-30329.0089128
 10
36585.14720683
 20
-30326.65534091
 10
36585.14720723
 20
-30315.52626668
  0
LWPOLYLINE
  5
7A2
100
AcDbEntity
  8
Ech.1_5
 62
   190
  6
CONTINUOUS
370
    -3
100
AcDbPolyline
 90
        4
 70
     0
 43
0.0
 10
36611.84360132
 20
-30313.77957825
 10
36570.2270933
 20
-30305.46222792
 10
36570.22709228
 20
-30333.79079716
 10
36611.8436003
 20
-30342.10814749
  0
LINE
  5
7A3
100
AcDbEntity
  8
Ech.1_5
 62
   190
  6
CONTINUOUS
370
    -3
100
AcDbLine
 10
36621.18041787
 20
-30311.37512812
 30
0.0
 11
36621.18041685
 21
-30339.70369736
 31
0.0
  0
LWPOLYLINE
  5
7A4
100
AcDbEntity
  8
Ech.1_5
 62
   190
  6
CONTINUOUS
370
    -3
100
AcDbPolyline
 90
       10
 70
     0
 43
0.0
 10
36635.44652984
 20
-30332.43754398
 10
36635.44653024
 20
-30321.30846011
 10
36635.57221952
 20
-30321.33358367
 10
36636.82911311
 20
-30321.58478045
 10
36647.22280588
 20
-30323.6620312
 10
36647.22275487
 20
-30330.37928103
 10
36647.22280302
 20
-30334.01976381
 10
36647.22280283
 20
-30334.72099182
 10
36647.22280548
 20
-30334.79111507
 10
36635.44652984
 20
-30332.43754398
  0
LWPOLYLINE
  5
7A5
100
AcDbEntity
  8
Ech.1_5
 62
   190
  6
CONTINUOUS
370
    -3
100
AcDbPolyline
 90
        4
 70
     0
 43
0.0
 10
36621.18041685
 20
-30339.70369736
 10
36663.17124512
 20
-30348.09585823
 10
36663.17124615
 20
-30319.76728899
 10
36621.18041787
 20
-30311.37512812
  0
LWPOLYLINE
  5
7A6
100
AcDbEntity
  8
Ech.1_5
 62
   190
  6
CONTINUOUS
370
    -3
100
AcDbPolyline
 90
        4
 70
     1
 43
0.0
 10
36621.18041685
 20
-30339.70369736
 10
36621.18041677
 20
-30341.72716453
 10
36663.17124505
 20
-30350.11932539
 10
36663.17124512
 20
-30348.09585823
  0
LWPOLYLINE
  5
7A7
100
AcDbEntity
  8
Ech.1_5
 62
   190
  6
CONTINUOUS
370
    -3
100
AcDbPolyline
 90
        4
 70
     1
 43
0.0
 10
36613.52594191
 20
-30281.74031164
 10
36568.54477912
 20
-30272.7505115
 10
36568.54477905
 20
-30274.77396902
 10
36613.52594183
 20
-30283.76376915
  0
LWPOLYLINE
  5
7A8
100
AcDbEntity
  8
Ech.1_5
 62
   190
  6
CONTINUOUS
370
    -3
100
AcDbPolyline
 90
        4
 70
     1
 43
0.0
 10
36621.18042698
 20
-30281.02309332
 10
36621.18042706
 20
-30278.99963581
 10
36613.52594191
 20
-30281.74031164
 10
36613.52594183
 20
-30283.76376915
  0
LWPOLYLINE
  5
7A9
100
AcDbEntity
  8
Ech.1_5
 62
   190
  6
CONTINUOUS
370
    -3
100
AcDbPolyline
 90
        4
 70
     1
 43
0.0
 10
36621.18042706
 20
-30278.99963581
 10
36576.19926427
 20
-30270.00983567
 10
36568.54477912
 20
-30272.7505115
 10
36613.52594191
 20
-30281.74031164
  0
LWPOLYLINE
  5
7AA
100
AcDbEntity
  8
Ech.1_5
 62
   190
  6
CONTINUOUS
370
    -3
100
AcDbPolyline
 90
        4
 70
     1
 43
0.0
 10
36621.18042698
 20
-30281.02309332
 10
36613.52594183
 20
-30283.76376915
 10
36613.52594081
 20
-30312.09233839
 10
36621.18042596
 20
-30309.35166256
  0
LWPOLYLINE
  5
7AB
100
AcDbEntity
  8
Ech.1_5
 62
   190
  6
CONTINUOUS
370
    -3
100
AcDbPolyline
 90
        4
 70
     1
 43
0.0
 10
36613.52594183
 20
-30283.76376915
 10
36611.84361044
 20
-30283.42754345
 10
36611.84360942
 20
-30311.75611269
 10
36613.52594081
 20
-30312.09233839
  0
LWPOLYLINE
  5
7AC
100
AcDbEntity
  8
Ech.1_5
 62
   190
  6
CONTINUOUS
370
    -3
100
AcDbPolyline
 90
        4
 70
     1
 43
0.0
 10
36570.2270944
 20
-30275.11019151
 10
36568.54477905
 20
-30274.77396902
 10
36568.54477802
 20
-30303.10253826
 10
36570.22709337
 20
-30303.43876075
  0
LINE
  5
7AD
100
AcDbEntity
  8
Ech.1_5
 62
   190
  6
CONTINUOUS
370
    -3
100
AcDbLine
 10
36611.84360942
 20
-30311.75611269
 30
0.0
 11
36611.84361044
 21
-30283.42754345
 31
0.0
  0
LWPOLYLINE
  5
7AE
100
AcDbEntity
  8
Ech.1_5
 62
   190
  6
CONTINUOUS
370
    -3
100
AcDbPolyline
 90
       10
 70
     0
 43
0.0
 10
36586.4041103
 20
-30285.42543094
 10
36590.40390958
 20
-30286.22481881
 10
36591.66080316
 20
-30286.47601779
 10
36595.64062154
 20
-30287.27141234
 10
36596.92348798
 20
-30287.52780217
 10
36596.9234876
 20
-30297.95565791
 10
36596.92348757
 20
-30298.65688605
 10
36585.14721595
 20
-30296.30331576
 10
36586.40410993
 20
-30295.85328693
 10
36586.4041103
 20
-30285.42543094
  0
LWPOLYLINE
  5
7AF
100
AcDbEntity
  8
Ech.1_5
 62
   190
  6
CONTINUOUS
370
    -3
100
AcDbPolyline
 90
        4
 70
     0
 43
0.0
 10
36611.84361044
 20
-30283.42754345
 10
36570.2270944
 20
-30275.11019151
 10
36570.22709337
 20
-30303.43876075
 10
36611.84360942
 20
-30311.75611269
  0
LINE
  5
7B0
100
AcDbEntity
  8
Ech.1_5
 62
   190
  6
CONTINUOUS
370
    -3
100
AcDbLine
 10
36464.18593893
 20
-30314.6211976
 30
0.0
 11
36464.18593791
 21
-30342.94976684
 31
0.0
  0
LWPOLYLINE
  5
7B1
100
AcDbEntity
  8
Ech.1_5
 62
   190
  6
CONTINUOUS
370
    -3
100
AcDbPolyline
 90
       10
 70
     0
 43
0.0
 10
36490.88233211
 20
-30338.16788249
 10
36479.10606048
 20
-30335.8143122
 10
36479.10606088
 20
-30324.68523797
 10
36480.36295484
 20
-30324.93643702
 10
36484.36275412
 20
-30325.7358249
 10
36485.6196477
 20
-30325.98702388
 10
36489.59946607
 20
-30326.78241843
 10
36490.88233251
 20
-30327.03880826
 10
36490.88233214
 20
-30337.46665435
 10
36490.88233211
 20
-30338.16788249
  0
LWPOLYLINE
  5
7B2
100
AcDbEntity
  8
Ech.1_5
 62
   190
  6
CONTINUOUS
370
    -3
100
AcDbPolyline
 90
        4
 70
     0
 43
0.0
 10
36464.18593791
 20
-30342.94976684
 10
36505.80245395
 20
-30351.26711878
 10
36505.80245497
 20
-30322.93854954
 10
36464.18593893
 20
-30314.6211976
  0
LWPOLYLINE
  5
7B3
100
AcDbEntity
  8
Ech.1_5
 62
   190
  6
CONTINUOUS
370
    -3
100
AcDbPolyline
 90
        4
 70
     1
 43
0.0
 10
36464.18593893
 20
-30314.6211976
 10
36462.50362358
 20
-30314.2849751
 10
36462.50362256
 20
-30342.61354435
 10
36464.18593791
 20
-30342.94976662
  0
LWPOLYLINE
  5
7B4
100
AcDbEntity
  8
Ech.1_5
 62
   190
  6
CONTINUOUS
370
    -3
100
AcDbPolyline
 90
        4
 70
     1
 43
0.0
 10
36507.48478637
 20
-30323.27477524
 10
36505.80245497
 20
-30322.93854954
 10
36505.80245395
 20
-30351.26711878
 10
36507.48478644
 20
-30351.60334448
  0
LWPOLYLINE
  5
7B5
100
AcDbEntity
  8
Ech.1_5
 62
   190
  6
CONTINUOUS
370
    -3
100
AcDbPolyline
 90
        4
 70
     1
 43
0.0
 10
36515.13927152
 20
-30320.53409941
 10
36507.48478637
 20
-30323.27477524
 10
36507.48478644
 20
-30351.60334448
 10
36515.1392705
 20
-30348.86266865
  0
LWPOLYLINE
  5
7B6
100
AcDbEntity
  8
Ech.1_5
 62
   190
  6
CONTINUOUS
370
    -3
100
AcDbPolyline
 90
        4
 70
     1
 43
0.0
 10
36570.2270933
 20
-30335.81426432
 10
36568.54476191
 20
-30335.47803862
 10
36568.54476088
 20
-30363.80660786
 10
36570.22709228
 20
-30364.14283356
  0
LWPOLYLINE
  5
7B7
100
AcDbEntity
  8
Ech.1_5
 62
   190
  6
CONTINUOUS
370
    -3
100
AcDbPolyline
 90
        4
 70
     1
 43
0.0
 10
36613.52593272
 20
-30344.46784036
 10
36611.84360132
 20
-30344.13161488
 10
36611.8436003
 20
-30372.4601839
 10
36613.52593169
 20
-30372.7964096
  0
LWPOLYLINE
  5
7B8
100
AcDbEntity
  8
Ech.1_5
 62
   190
  6
CONTINUOUS
370
    -3
100
AcDbPolyline
 90
        4
 70
     1
 43
0.0
 10
36621.18041787
 20
-30341.72716453
 10
36613.52593272
 20
-30344.46784036
 10
36613.52593169
 20
-30372.7964096
 10
36621.18041685
 20
-30370.05573377
  0
LINE
  5
7B9
100
AcDbEntity
  8
Ech.1_5
 62
   190
  6
CONTINUOUS
370
    -3
100
AcDbLine
 10
36611.8436003
 20
-30372.4601839
 30
0.0
 11
36611.84360132
 21
-30344.13161466
 31
0.0
  0
LWPOLYLINE
  5
7BA
100
AcDbEntity
  8
Ech.1_5
 62
   190
  6
CONTINUOUS
370
    -3
100
AcDbPolyline
 90
       11
 70
     0
 43
0.0
 10
36585.14720723
 20
-30345.87830309
 10
36586.40410119
 20
-30346.12950214
 10
36590.27821118
 20
-30346.90377013
 10
36590.40390046
 20
-30346.92889002
 10
36591.66079405
 20
-30347.18008899
 10
36596.92348688
 20
-30348.23187498
 10
36596.92343307
 20
-30354.58425261
 10
36596.9234865
 20
-30358.65972107
 10
36596.92348648
 20
-30359.36094921
 10
36585.14720683
 20
-30357.00737731
 10
36585.14720723
 20
-30345.87830309
  0
LWPOLYLINE
  5
7BB
100
AcDbEntity
  8
Ech.1_5
 62
   190
  6
CONTINUOUS
370
    -3
100
AcDbPolyline
 90
        4
 70
     0
 43
0.0
 10
36611.84360132
 20
-30344.13161466
 10
36570.2270933
 20
-30335.81426432
 10
36570.22709228
 20
-30364.14283356
 10
36611.8436003
 20
-30372.4601839
  0
LINE
  5
7BC
100
AcDbEntity
  8
Ech.1_5
 62
   190
  6
CONTINUOUS
370
    -3
100
AcDbLine
 10
36464.18593893
 20
-30344.973234
 30
0.0
 11
36464.18593791
 21
-30373.30180324
 31
0.0
  0
LWPOLYLINE
  5
7BD
100
AcDbEntity
  8
Ech.1_5
 62
   190
  6
CONTINUOUS
370
    -3
100
AcDbPolyline
 90
       10
 70
     0
 43
0.0
 10
36490.88233211
 20
-30368.51991889
 10
36479.10606048
 20
-30366.1663486
 10
36479.10606088
 20
-30355.03727438
 10
36480.36295484
 20
-30355.28847343
 10
36484.36275412
 20
-30356.0878613
 10
36485.6196477
 20
-30356.33906028
 10
36489.59946607
 20
-30357.13445483
 10
36490.88233251
 20
-30357.39084467
 10
36490.88233214
 20
-30367.81869075
 10
36490.88233211
 20
-30368.51991889
  0
LWPOLYLINE
  5
7BE
100
AcDbEntity
  8
Ech.1_5
 62
   190
  6
CONTINUOUS
370
    -3
100
AcDbPolyline
 90
        4
 70
     0
 43
0.0
 10
36464.18593791
 20
-30373.30180324
 10
36505.80245395
 20
-30381.61915519
 10
36505.80245497
 20
-30353.29058594
 10
36464.18593893
 20
-30344.973234
  0
LWPOLYLINE
  5
7BF
100
AcDbEntity
  8
Ech.1_5
 62
   190
  6
CONTINUOUS
370
    -3
100
AcDbPolyline
 90
        4
 70
     1
 43
0.0
 10
36464.18593893
 20
-30344.973234
 10
36462.50362358
 20
-30344.63701151
 10
36462.50362256
 20
-30372.96558075
 10
36464.18593791
 20
-30373.30180303
  0
LWPOLYLINE
  5
7C0
100
AcDbEntity
  8
Ech.1_5
 62
   190
  6
CONTINUOUS
370
    -3
100
AcDbPolyline
 90
        4
 70
     1
 43
0.0
 10
36507.48478637
 20
-30353.62681165
 10
36505.80245497
 20
-30353.29058594
 10
36505.80245395
 20
-30381.61915519
 10
36507.48478644
 20
-30381.95538089
  0
LWPOLYLINE
  5
7C1
100
AcDbEntity
  8
Ech.1_5
 62
   190
  6
CONTINUOUS
370
    -3
100
AcDbPolyline
 90
        4
 70
     1
 43
0.0
 10
36515.13927152
 20
-30350.88613582
 10
36507.48478637
 20
-30353.62681165
 10
36507.48478644
 20
-30381.95538089
 10
36515.1392705
 20
-30379.21470506
  0
LWPOLYLINE
  5
7C2
100
AcDbEntity
  8
Ech.1_5
 62
   190
  6
CONTINUOUS
370
    -3
100
AcDbPolyline
 90
        4
 70
     1
 43
0.0
 10
36570.2270933
 20
-30366.16630072
 10
36568.54476191
 20
-30365.83007502
 10
36568.54476088
 20
-30394.15864426
 10
36570.22709228
 20
-30394.49486996
  0
LWPOLYLINE
  5
7C3
100
AcDbEntity
  8
Ech.1_5
 62
   190
  6
CONTINUOUS
370
    -3
100
AcDbPolyline
 90
        4
 70
     1
 43
0.0
 10
36613.52593272
 20
-30374.81987676
 10
36611.84360132
 20
-30374.48365128
 10
36611.8436003
 20
-30402.8122203
 10
36613.52593169
 20
-30403.148446
  0
LWPOLYLINE
  5
7C4
100
AcDbEntity
  8
Ech.1_5
 62
   190
  6
CONTINUOUS
370
    -3
100
AcDbPolyline
 90
        4
 70
     1
 43
0.0
 10
36621.18041787
 20
-30372.07920093
 10
36613.52593272
 20
-30374.81987676
 10
36613.52593169
 20
-30403.148446
 10
36621.18041685
 20
-30400.40777017
  0
LINE
  5
7C5
100
AcDbEntity
  8
Ech.1_5
 62
   190
  6
CONTINUOUS
370
    -3
100
AcDbLine
 10
36611.8436003
 20
-30402.8122203
 30
0.0
 11
36611.84360132
 21
-30374.48365106
 31
0.0
  0
LWPOLYLINE
  5
7C6
100
AcDbEntity
  8
Ech.1_5
 62
   190
  6
CONTINUOUS
370
    -3
100
AcDbPolyline
 90
       11
 70
     0
 43
0.0
 10
36585.14720723
 20
-30376.23033949
 10
36586.40410119
 20
-30376.48153855
 10
36590.27821118
 20
-30377.25580654
 10
36590.40390046
 20
-30377.28092642
 10
36591.66079405
 20
-30377.5321254
 10
36596.92348688
 20
-30378.58391139
 10
36596.92343307
 20
-30384.93628901
 10
36596.9234865
 20
-30389.01175747
 10
36596.92348648
 20
-30389.71298561
 10
36585.14720683
 20
-30387.35941372
 10
36585.14720723
 20
-30376.23033949
  0
LWPOLYLINE
  5
7C7
100
AcDbEntity
  8
Ech.1_5
 62
   190
  6
CONTINUOUS
370
    -3
100
AcDbPolyline
 90
        4
 70
     0
 43
0.0
 10
36611.84360132
 20
-30374.48365106
 10
36570.2270933
 20
-30366.16630072
 10
36570.22709228
 20
-30394.49486996
 10
36611.8436003
 20
-30402.8122203
  0
LINE
  5
7C8
100
AcDbEntity
  8
Ech.1_5
 62
   190
  6
CONTINUOUS
370
    -3
100
AcDbLine
 10
36464.18593893
 20
-30375.32527041
 30
0.0
 11
36464.18593791
 21
-30403.65383965
 31
0.0
  0
LWPOLYLINE
  5
7C9
100
AcDbEntity
  8
Ech.1_5
 62
   190
  6
CONTINUOUS
370
    -3
100
AcDbPolyline
 90
       10
 70
     0
 43
0.0
 10
36490.88233211
 20
-30398.8719553
 10
36479.10606048
 20
-30396.51838501
 10
36479.10606088
 20
-30385.38931078
 10
36480.36295484
 20
-30385.64050983
 10
36484.36275412
 20
-30386.43989771
 10
36485.6196477
 20
-30386.69109668
 10
36489.59946607
 20
-30387.48649123
 10
36490.88233251
 20
-30387.74288107
 10
36490.88233214
 20
-30398.17072716
 10
36490.88233211
 20
-30398.8719553
  0
LWPOLYLINE
  5
7CA
100
AcDbEntity
  8
Ech.1_5
 62
   190
  6
CONTINUOUS
370
    -3
100
AcDbPolyline
 90
        4
 70
     0
 43
0.0
 10
36464.18593791
 20
-30403.65383965
 10
36505.80245395
 20
-30411.97119159
 10
36505.80245497
 20
-30383.64262235
 10
36464.18593893
 20
-30375.32527041
  0
LWPOLYLINE
  5
7CB
100
AcDbEntity
  8
Ech.1_5
 62
   190
  6
CONTINUOUS
370
    -3
100
AcDbPolyline
 90
        4
 70
     1
 43
0.0
 10
36464.18593893
 20
-30375.32527041
 10
36462.50362358
 20
-30374.98904791
 10
36462.50362256
 20
-30403.31761715
 10
36464.18593791
 20
-30403.65383943
  0
LWPOLYLINE
  5
7CC
100
AcDbEntity
  8
Ech.1_5
 62
   190
  6
CONTINUOUS
370
    -3
100
AcDbPolyline
 90
        4
 70
     1
 43
0.0
 10
36507.48478637
 20
-30383.97884805
 10
36505.80245497
 20
-30383.64262235
 10
36505.80245395
 20
-30411.97119159
 10
36507.48478644
 20
-30412.30741729
  0
LWPOLYLINE
  5
7CD
100
AcDbEntity
  8
Ech.1_5
 62
   190
  6
CONTINUOUS
370
    -3
100
AcDbPolyline
 90
        4
 70
     1
 43
0.0
 10
36515.13927152
 20
-30381.23817222
 10
36507.48478637
 20
-30383.97884805
 10
36507.48478644
 20
-30412.30741729
 10
36515.1392705
 20
-30409.56674146
  0
LWPOLYLINE
  5
7CE
100
AcDbEntity
  8
Ech.1_5
 62
   190
  6
CONTINUOUS
370
    -3
100
AcDbPolyline
 90
        4
 70
     1
 43
0.0
 10
36570.2270933
 20
-30396.51833713
 10
36568.54476191
 20
-30396.18211143
 10
36568.54476088
 20
-30424.51068067
 10
36570.22709228
 20
-30424.84690637
  0
LWPOLYLINE
  5
7CF
100
AcDbEntity
  8
Ech.1_5
 62
   190
  6
CONTINUOUS
370
    -3
100
AcDbPolyline
 90
        4
 70
     1
 43
0.0
 10
36613.52593272
 20
-30405.17191317
 10
36611.84360132
 20
-30404.83568768
 10
36611.8436003
 20
-30433.16425671
 10
36613.52593169
 20
-30433.50048241
  0
LWPOLYLINE
  5
7D0
100
AcDbEntity
  8
Ech.1_5
 62
   190
  6
CONTINUOUS
370
    -3
100
AcDbPolyline
 90
        4
 70
     1
 43
0.0
 10
36621.18041787
 20
-30402.43123734
 10
36613.52593272
 20
-30405.17191317
 10
36613.52593169
 20
-30433.50048241
 10
36621.18041685
 20
-30430.75980658
  0
LINE
  5
7D1
100
AcDbEntity
  8
Ech.1_5
 62
   190
  6
CONTINUOUS
370
    -3
100
AcDbLine
 10
36611.8436003
 20
-30433.16425671
 30
0.0
 11
36611.84360132
 21
-30404.83568747
 31
0.0
  0
LWPOLYLINE
  5
7D2
100
AcDbEntity
  8
Ech.1_5
 62
   190
  6
CONTINUOUS
370
    -3
100
AcDbPolyline
 90
       11
 70
     0
 43
0.0
 10
36585.14720723
 20
-30406.5823759
 10
36586.40410119
 20
-30406.83357495
 10
36590.27821118
 20
-30407.60784294
 10
36590.40390046
 20
-30407.63296282
 10
36591.66079405
 20
-30407.8841618
 10
36596.92348688
 20
-30408.93594779
 10
36596.92343307
 20
-30415.28832542
 10
36596.9234865
 20
-30419.36379388
 10
36596.92348648
 20
-30420.06502202
 10
36585.14720683
 20
-30417.71145012
 10
36585.14720723
 20
-30406.5823759
  0
LWPOLYLINE
  5
7D3
100
AcDbEntity
  8
Ech.1_5
 62
   190
  6
CONTINUOUS
370
    -3
100
AcDbPolyline
 90
        4
 70
     0
 43
0.0
 10
36611.84360132
 20
-30404.83568747
 10
36570.2270933
 20
-30396.51833713
 10
36570.22709228
 20
-30424.84690637
 10
36611.8436003
 20
-30433.16425671
  0
LINE
  5
7D4
100
AcDbEntity
  8
Ech.1_5
 62
   190
  6
CONTINUOUS
370
    -3
100
AcDbLine
 10
36464.18593893
 20
-30405.67730681
 30
0.0
 11
36464.18593791
 21
-30434.00587605
 31
0.0
  0
LWPOLYLINE
  5
7D5
100
AcDbEntity
  8
Ech.1_5
 62
   190
  6
CONTINUOUS
370
    -3
100
AcDbPolyline
 90
       10
 70
     0
 43
0.0
 10
36490.88233211
 20
-30429.2239917
 10
36479.10606048
 20
-30426.87042141
 10
36479.10606088
 20
-30415.74134719
 10
36480.36295484
 20
-30415.99254624
 10
36484.36275412
 20
-30416.79193411
 10
36485.6196477
 20
-30417.04313309
 10
36489.59946607
 20
-30417.83852764
 10
36490.88233251
 20
-30418.09491747
 10
36490.88233214
 20
-30428.52276356
 10
36490.88233211
 20
-30429.2239917
  0
LWPOLYLINE
  5
7D6
100
AcDbEntity
  8
Ech.1_5
 62
   190
  6
CONTINUOUS
370
    -3
100
AcDbPolyline
 90
        4
 70
     0
 43
0.0
 10
36464.18593791
 20
-30434.00587605
 10
36505.80245395
 20
-30442.32322799
 10
36505.80245497
 20
-30413.99465875
 10
36464.18593893
 20
-30405.67730681
  0
LWPOLYLINE
  5
7D7
100
AcDbEntity
  8
Ech.1_5
 62
   190
  6
CONTINUOUS
370
    -3
100
AcDbPolyline
 90
        4
 70
     1
 43
0.0
 10
36464.18593893
 20
-30405.67730681
 10
36462.50362358
 20
-30405.34108432
 10
36462.50362256
 20
-30433.66965356
 10
36464.18593791
 20
-30434.00587583
  0
LWPOLYLINE
  5
7D8
100
AcDbEntity
  8
Ech.1_5
 62
   190
  6
CONTINUOUS
370
    -3
100
AcDbPolyline
 90
        4
 70
     1
 43
0.0
 10
36507.48478637
 20
-30414.33088445
 10
36505.80245497
 20
-30413.99465875
 10
36505.80245395
 20
-30442.32322799
 10
36507.48478644
 20
-30442.6594537
  0
LWPOLYLINE
  5
7D9
100
AcDbEntity
  8
Ech.1_5
 62
   190
  6
CONTINUOUS
370
    -3
100
AcDbPolyline
 90
        4
 70
     1
 43
0.0
 10
36515.13927152
 20
-30411.59020863
 10
36507.48478637
 20
-30414.33088445
 10
36507.48478644
 20
-30442.6594537
 10
36515.1392705
 20
-30439.91877787
  0
LWPOLYLINE
  5
7DA
100
AcDbEntity
  8
Ech.1_5
 62
   190
  6
CONTINUOUS
370
    -3
100
AcDbPolyline
 90
        4
 70
     1
 43
0.0
 10
36570.2270933
 20
-30426.87037353
 10
36568.54476191
 20
-30426.53414783
 10
36568.54476088
 20
-30454.86271707
 10
36570.22709228
 20
-30455.19894277
  0
LWPOLYLINE
  5
7DB
100
AcDbEntity
  8
Ech.1_5
 62
   190
  6
CONTINUOUS
370
    -3
100
AcDbPolyline
 90
        4
 70
     1
 43
0.0
 10
36613.52593272
 20
-30435.52394957
 10
36611.84360132
 20
-30435.18772409
 10
36611.8436003
 20
-30463.51629311
 10
36613.52593169
 20
-30463.85251881
  0
LWPOLYLINE
  5
7DC
100
AcDbEntity
  8
Ech.1_5
 62
   190
  6
CONTINUOUS
370
    -3
100
AcDbPolyline
 90
        4
 70
     1
 43
0.0
 10
36621.18041787
 20
-30432.78327374
 10
36613.52593272
 20
-30435.52394957
 10
36613.52593169
 20
-30463.85251881
 10
36621.18041685
 20
-30461.11184298
  0
LINE
  5
7DD
100
AcDbEntity
  8
Ech.1_5
 62
   190
  6
CONTINUOUS
370
    -3
100
AcDbLine
 10
36611.8436003
 20
-30463.51629311
 30
0.0
 11
36611.84360132
 21
-30435.18772387
 31
0.0
  0
LWPOLYLINE
  5
7DE
100
AcDbEntity
  8
Ech.1_5
 62
   190
  6
CONTINUOUS
370
    -3
100
AcDbPolyline
 90
       11
 70
     0
 43
0.0
 10
36585.14720723
 20
-30436.9344123
 10
36586.40410119
 20
-30437.18561135
 10
36590.27821118
 20
-30437.95987935
 10
36590.40390046
 20
-30437.98499923
 10
36591.66079405
 20
-30438.23619821
 10
36596.92348688
 20
-30439.28798419
 10
36596.92343307
 20
-30445.64036182
 10
36596.9234865
 20
-30449.71583028
 10
36596.92348648
 20
-30450.41705842
 10
36585.14720683
 20
-30448.06348653
 10
36585.14720723
 20
-30436.9344123
  0
LWPOLYLINE
  5
7DF
100
AcDbEntity
  8
Ech.1_5
 62
   190
  6
CONTINUOUS
370
    -3
100
AcDbPolyline
 90
        4
 70
     0
 43
0.0
 10
36611.84360132
 20
-30435.18772387
 10
36570.2270933
 20
-30426.87037353
 10
36570.22709228
 20
-30455.19894277
 10
36611.8436003
 20
-30463.51629311
  0
LINE
  5
7E0
100
AcDbEntity
  8
Ech.1_5
 62
   190
  6
CONTINUOUS
370
    -3
100
AcDbLine
 10
36462.50359453
 20
-30338.34306049
 30
0.0
 11
36462.50362358
 21
-30314.2849751
 31
0.0
  0
LWPOLYLINE
  5
7E1
100
AcDbEntity
  8
Ech.1_5
 62
   190
  6
CONTINUOUS
370
    -3
100
AcDbPolyline
 90
       11
 70
     0
 43
0.0
 10
36438.38529595
 20
-30312.27642991
 10
36438.51098523
 20
-30312.30154979
 10
36444.24140147
 20
-30313.44681358
 10
36445.49829506
 20
-30313.69801255
 10
36450.16156758
 20
-30314.6300002
 10
36450.16151761
 20
-30324.54427509
 10
36450.1615672
 20
-30324.98772396
 10
36450.16156718
 20
-30325.6889517
 10
36450.16156717
 20
-30325.75907442
 10
36438.38529554
 20
-30323.40550413
 10
36438.38529595
 20
-30312.27642991
  0
LWPOLYLINE
  5
7E2
100
AcDbEntity
  8
Ech.1_5
 62
   190
  6
CONTINUOUS
370
    -3
100
AcDbPolyline
 90
        6
 70
     0
 43
0.0
 10
36462.50362358
 20
-30314.2849751
 10
36462.50362366
 20
-30312.26150794
 10
36462.50362374
 20
-30310.01449125
 10
36428.16727243
 20
-30303.15213681
 10
36428.16727141
 20
-30331.48070605
 10
36462.50359453
 20
-30338.34306049
  0
LWPOLYLINE
  5
7E3
100
AcDbEntity
  8
Ech.1_5
 62
   190
  6
CONTINUOUS
370
    -3
100
AcDbPolyline
 90
        4
 70
     1
 43
0.0
 10
36462.50362271
 20
-30338.34306049
 10
36428.16727141
 20
-30331.48070605
 10
36428.16727134
 20
-30333.50417322
 10
36462.50359445
 20
-30340.36652766
  0
LINE
  5
7E4
100
AcDbEntity
  8
Ech.1_5
 62
   190
  6
CONTINUOUS
370
    -3
100
AcDbLine
 10
36545.66925827
 20
-30354.96430034
 30
0.0
 11
36545.66925929
 21
-30326.6357311
 31
0.0
  0
LWPOLYLINE
  5
7E5
100
AcDbEntity
  8
Ech.1_5
 62
   190
  6
CONTINUOUS
370
    -3
100
AcDbPolyline
 90
       10
 70
     0
 43
0.0
 10
36517.94454739
 20
-30328.17690302
 10
36518.07023668
 20
-30328.20202291
 10
36523.80065292
 20
-30329.34728669
 10
36525.0575465
 20
-30329.59848567
 10
36529.72081902
 20
-30330.53047331
 10
36529.72081833
 20
-30340.88819708
 10
36529.72081863
 20
-30341.58942481
 10
36529.72081862
 20
-30341.65954754
 10
36517.94454699
 20
-30339.30597725
 10
36517.94454739
 20
-30328.17690302
  0
LWPOLYLINE
  5
7E6
100
AcDbEntity
  8
Ech.1_5
 62
   190
  6
CONTINUOUS
370
    -3
100
AcDbPolyline
 90
        4
 70
     0
 43
0.0
 10
36545.66925929
 20
-30326.6357311
 10
36515.13927152
 20
-30320.53409941
 10
36515.1392705
 20
-30348.86266865
 10
36545.66925827
 20
-30354.96430034
  0
LINE
  5
7E7
100
AcDbEntity
  8
Ech.1_5
 62
   190
  6
CONTINUOUS
370
    -3
100
AcDbLine
 10
36568.5447489
 20
-30359.53612721
 30
0.0
 11
36568.54476191
 21
-30335.47803862
 31
0.0
  0
LWPOLYLINE
  5
7E8
100
AcDbEntity
  8
Ech.1_5
 62
   190
  6
CONTINUOUS
370
    -3
100
AcDbPolyline
 90
       10
 70
     0
 43
0.0
 10
36555.8872828
 20
-30335.7600242
 10
36556.01297209
 20
-30335.78514408
 10
36557.26986567
 20
-30336.03634306
 10
36567.66355443
 20
-30338.11359449
 10
36567.66352051
 20
-30348.02787258
 10
36567.66355406
 20
-30348.47131825
 10
36567.66355403
 20
-30349.17254599
 10
36567.66355403
 20
-30349.24266871
 10
36555.8872824
 20
-30346.88909842
 10
36555.8872828
 20
-30335.7600242
  0
LWPOLYLINE
  5
7E9
100
AcDbEntity
  8
Ech.1_5
 62
   190
  6
CONTINUOUS
370
    -3
100
AcDbPolyline
 90
        6
 70
     0
 43
0.0
 10
36568.54476191
 20
-30335.47803862
 10
36568.54476198
 20
-30333.45457145
 10
36568.54476206
 20
-30331.20755797
 10
36545.66925929
 20
-30326.6357311
 10
36545.66925827
 20
-30354.96430034
 10
36568.5447489
 20
-30359.53612721
  0
LWPOLYLINE
  5
7EA
100
AcDbEntity
  8
Ech.1_5
 62
   190
  6
CONTINUOUS
370
    -3
100
AcDbPolyline
 90
        4
 70
     1
 43
0.0
 10
36545.66925827
 20
-30354.96430034
 10
36515.1392705
 20
-30348.86266865
 10
36515.13927152
 20
-30350.88613582
 10
36545.6692582
 20
-30356.9877675
  0
LWPOLYLINE
  5
7EB
100
AcDbEntity
  8
Ech.1_5
 62
   190
  6
CONTINUOUS
370
    -3
100
AcDbPolyline
 90
        4
 70
     1
 43
0.0
 10
36545.66925827
 20
-30354.96430034
 10
36545.6692582
 20
-30356.9877675
 10
36568.54474882
 20
-30361.55959438
 10
36568.54474984
 20
-30359.53612721
  0
LINE
  5
7EC
100
AcDbEntity
  8
Ech.1_5
 62
   190
  6
CONTINUOUS
370
    -3
100
AcDbLine
 10
36621.18041787
 20
-30341.72716453
 30
0.0
 11
36621.18041685
 21
-30370.05573377
 31
0.0
  0
LWPOLYLINE
  5
7ED
100
AcDbEntity
  8
Ech.1_5
 62
   190
  6
CONTINUOUS
370
    -3
100
AcDbPolyline
 90
       10
 70
     0
 43
0.0
 10
36635.44652984
 20
-30362.78958038
 10
36635.44653024
 20
-30351.66049651
 10
36635.57221952
 20
-30351.68562007
 10
36636.82911311
 20
-30351.93681685
 10
36647.22280588
 20
-30354.0140676
 10
36647.22275487
 20
-30360.73131744
 10
36647.22280302
 20
-30364.37180022
 10
36647.22280283
 20
-30365.07302822
 10
36647.22280548
 20
-30365.14315148
 10
36635.44652984
 20
-30362.78958038
  0
LWPOLYLINE
  5
7EE
100
AcDbEntity
  8
Ech.1_5
 62
   190
  6
CONTINUOUS
370
    -3
100
AcDbPolyline
 90
        4
 70
     0
 43
0.0
 10
36621.18041685
 20
-30370.05573377
 10
36663.17124512
 20
-30378.44789463
 10
36663.17124615
 20
-30350.11932539
 10
36621.18041787
 20
-30341.72716453
  0
LWPOLYLINE
  5
7EF
100
AcDbEntity
  8
Ech.1_5
 62
   190
  6
CONTINUOUS
370
    -3
100
AcDbPolyline
 90
        4
 70
     1
 43
0.0
 10
36621.18041685
 20
-30370.05573377
 10
36621.18041677
 20
-30372.07920093
 10
36663.17124505
 20
-30380.47136179
 10
36663.17124512
 20
-30378.44789463
  0
LINE
  5
7F0
100
AcDbEntity
  8
Ech.1_5
 62
   190
  6
CONTINUOUS
370
    -3
100
AcDbLine
 10
36462.50359453
 20
-30368.6950969
 30
0.0
 11
36462.50362358
 21
-30344.63701151
 31
0.0
  0
LWPOLYLINE
  5
7F1
100
AcDbEntity
  8
Ech.1_5
 62
   190
  6
CONTINUOUS
370
    -3
100
AcDbPolyline
 90
       11
 70
     0
 43
0.0
 10
36438.38529595
 20
-30342.62846631
 10
36438.51098523
 20
-30342.65358619
 10
36444.24140147
 20
-30343.79884998
 10
36445.49829506
 20
-30344.05004896
 10
36450.16156758
 20
-30344.9820366
 10
36450.16151761
 20
-30354.89631149
 10
36450.1615672
 20
-30355.33976037
 10
36450.16156718
 20
-30356.0409881
 10
36450.16156717
 20
-30356.11111083
 10
36438.38529554
 20
-30353.75754054
 10
36438.38529595
 20
-30342.62846631
  0
LWPOLYLINE
  5
7F2
100
AcDbEntity
  8
Ech.1_5
 62
   190
  6
CONTINUOUS
370
    -3
100
AcDbPolyline
 90
        6
 70
     0
 43
0.0
 10
36462.50362358
 20
-30344.63701151
 10
36462.50362366
 20
-30342.61354435
 10
36462.50362374
 20
-30340.36652766
 10
36428.16727243
 20
-30333.50417322
 10
36428.16727141
 20
-30361.83274246
 10
36462.50359453
 20
-30368.6950969
  0
LWPOLYLINE
  5
7F3
100
AcDbEntity
  8
Ech.1_5
 62
   190
  6
CONTINUOUS
370
    -3
100
AcDbPolyline
 90
        4
 70
     1
 43
0.0
 10
36462.50362271
 20
-30368.6950969
 10
36428.16727141
 20
-30361.83274246
 10
36428.16727134
 20
-30363.85620962
 10
36462.50359445
 20
-30370.71856406
  0
LINE
  5
7F4
100
AcDbEntity
  8
Ech.1_5
 62
   190
  6
CONTINUOUS
370
    -3
100
AcDbLine
 10
36545.66925827
 20
-30385.31633675
 30
0.0
 11
36545.66925929
 21
-30356.9877675
 31
0.0
  0
LWPOLYLINE
  5
7F5
100
AcDbEntity
  8
Ech.1_5
 62
   190
  6
CONTINUOUS
370
    -3
100
AcDbPolyline
 90
       10
 70
     0
 43
0.0
 10
36517.94454739
 20
-30358.52893943
 10
36518.07023668
 20
-30358.55405931
 10
36523.80065292
 20
-30359.69932309
 10
36525.0575465
 20
-30359.95052207
 10
36529.72081902
 20
-30360.88250972
 10
36529.72081833
 20
-30371.24023348
 10
36529.72081863
 20
-30371.94146122
 10
36529.72081862
 20
-30372.01158394
 10
36517.94454699
 20
-30369.65801365
 10
36517.94454739
 20
-30358.52893943
  0
LWPOLYLINE
  5
7F6
100
AcDbEntity
  8
Ech.1_5
 62
   190
  6
CONTINUOUS
370
    -3
100
AcDbPolyline
 90
        4
 70
     0
 43
0.0
 10
36545.66925929
 20
-30356.9877675
 10
36515.13927152
 20
-30350.88613582
 10
36515.1392705
 20
-30379.21470506
 10
36545.66925827
 20
-30385.31633675
  0
LINE
  5
7F7
100
AcDbEntity
  8
Ech.1_5
 62
   190
  6
CONTINUOUS
370
    -3
100
AcDbLine
 10
36568.5447489
 20
-30389.88816362
 30
0.0
 11
36568.54476191
 21
-30365.83007502
 31
0.0
  0
LWPOLYLINE
  5
7F8
100
AcDbEntity
  8
Ech.1_5
 62
   190
  6
CONTINUOUS
370
    -3
100
AcDbPolyline
 90
       10
 70
     0
 43
0.0
 10
36555.8872828
 20
-30366.1120606
 10
36556.01297209
 20
-30366.13718048
 10
36557.26986567
 20
-30366.38837946
 10
36567.66355443
 20
-30368.46563089
 10
36567.66352051
 20
-30378.37990899
 10
36567.66355406
 20
-30378.82335466
 10
36567.66355403
 20
-30379.52458239
 10
36567.66355403
 20
-30379.59470512
 10
36555.8872824
 20
-30377.24113483
 10
36555.8872828
 20
-30366.1120606
  0
LWPOLYLINE
  5
7F9
100
AcDbEntity
  8
Ech.1_5
 62
   190
  6
CONTINUOUS
370
    -3
100
AcDbPolyline
 90
        6
 70
     0
 43
0.0
 10
36568.54476191
 20
-30365.83007502
 10
36568.54476198
 20
-30363.80660786
 10
36568.54476206
 20
-30361.55959438
 10
36545.66925929
 20
-30356.9877675
 10
36545.66925827
 20
-30385.31633675
 10
36568.5447489
 20
-30389.88816362
  0
LWPOLYLINE
  5
7FA
100
AcDbEntity
  8
Ech.1_5
 62
   190
  6
CONTINUOUS
370
    -3
100
AcDbPolyline
 90
        4
 70
     1
 43
0.0
 10
36545.66925827
 20
-30385.31633675
 10
36515.1392705
 20
-30379.21470506
 10
36515.13927152
 20
-30381.23817222
 10
36545.6692582
 20
-30387.33980391
  0
LWPOLYLINE
  5
7FB
100
AcDbEntity
  8
Ech.1_5
 62
   190
  6
CONTINUOUS
370
    -3
100
AcDbPolyline
 90
        4
 70
     1
 43
0.0
 10
36545.66925827
 20
-30385.31633675
 10
36545.6692582
 20
-30387.33980391
 10
36568.54474882
 20
-30391.91163078
 10
36568.54474984
 20
-30389.88816362
  0
LINE
  5
7FC
100
AcDbEntity
  8
Ech.1_5
 62
   190
  6
CONTINUOUS
370
    -3
100
AcDbLine
 10
36621.18041787
 20
-30372.07920093
 30
0.0
 11
36621.18041685
 21
-30400.40777017
 31
0.0
  0
LWPOLYLINE
  5
7FD
100
AcDbEntity
  8
Ech.1_5
 62
   190
  6
CONTINUOUS
370
    -3
100
AcDbPolyline
 90
       10
 70
     0
 43
0.0
 10
36635.44652984
 20
-30393.14161679
 10
36635.44653024
 20
-30382.01253291
 10
36635.57221952
 20
-30382.03765648
 10
36636.82911311
 20
-30382.28885326
 10
36647.22280588
 20
-30384.36610401
 10
36647.22275487
 20
-30391.08335384
 10
36647.22280302
 20
-30394.72383662
 10
36647.22280283
 20
-30395.42506463
 10
36647.22280548
 20
-30395.49518788
 10
36635.44652984
 20
-30393.14161679
  0
LWPOLYLINE
  5
7FE
100
AcDbEntity
  8
Ech.1_5
 62
   190
  6
CONTINUOUS
370
    -3
100
AcDbPolyline
 90
        4
 70
     0
 43
0.0
 10
36621.18041685
 20
-30400.40777017
 10
36663.17124512
 20
-30408.79993103
 10
36663.17124615
 20
-30380.47136179
 10
36621.18041787
 20
-30372.07920093
  0
LWPOLYLINE
  5
7FF
100
AcDbEntity
  8
Ech.1_5
 62
   190
  6
CONTINUOUS
370
    -3
100
AcDbPolyline
 90
        4
 70
     1
 43
0.0
 10
36621.18041685
 20
-30400.40777017
 10
36621.18041677
 20
-30402.43123734
 10
36663.17124505
 20
-30410.8233982
 10
36663.17124512
 20
-30408.79993103
  0
LINE
  5
800
100
AcDbEntity
  8
Ech.1_5
 62
   190
  6
CONTINUOUS
370
    -3
100
AcDbLine
 10
36462.50359453
 20
-30399.0471333
 30
0.0
 11
36462.50362358
 21
-30374.98904791
 31
0.0
  0
LWPOLYLINE
  5
801
100
AcDbEntity
  8
Ech.1_5
 62
   190
  6
CONTINUOUS
370
    -3
100
AcDbPolyline
 90
       11
 70
     0
 43
0.0
 10
36438.38529595
 20
-30372.98050272
 10
36438.51098523
 20
-30373.0056226
 10
36444.24140147
 20
-30374.15088638
 10
36445.49829506
 20
-30374.40208536
 10
36450.16156758
 20
-30375.33407301
 10
36450.16151761
 20
-30385.24834789
 10
36450.1615672
 20
-30385.69179677
 10
36450.16156718
 20
-30386.39302451
 10
36450.16156717
 20
-30386.46314723
 10
36438.38529554
 20
-30384.10957694
 10
36438.38529595
 20
-30372.98050272
  0
LWPOLYLINE
  5
802
100
AcDbEntity
  8
Ech.1_5
 62
   190
  6
CONTINUOUS
370
    -3
100
AcDbPolyline
 90
        6
 70
     0
 43
0.0
 10
36462.50362358
 20
-30374.98904791
 10
36462.50362366
 20
-30372.96558075
 10
36462.50362374
 20
-30370.71856406
 10
36428.16727243
 20
-30363.85620962
 10
36428.16727141
 20
-30392.18477886
 10
36462.50359453
 20
-30399.0471333
  0
LWPOLYLINE
  5
803
100
AcDbEntity
  8
Ech.1_5
 62
   190
  6
CONTINUOUS
370
    -3
100
AcDbPolyline
 90
        4
 70
     1
 43
0.0
 10
36462.50362271
 20
-30399.0471333
 10
36428.16727141
 20
-30392.18477886
 10
36428.16727134
 20
-30394.20824602
 10
36462.50359445
 20
-30401.07060047
  0
LINE
  5
804
100
AcDbEntity
  8
Ech.1_5
 62
   190
  6
CONTINUOUS
370
    -3
100
AcDbLine
 10
36545.66925827
 20
-30415.66837315
 30
0.0
 11
36545.66925929
 21
-30387.33980391
 31
0.0
  0
LWPOLYLINE
  5
805
100
AcDbEntity
  8
Ech.1_5
 62
   190
  6
CONTINUOUS
370
    -3
100
AcDbPolyline
 90
       10
 70
     0
 43
0.0
 10
36517.94454739
 20
-30388.88097583
 10
36518.07023668
 20
-30388.90609571
 10
36523.80065292
 20
-30390.0513595
 10
36525.0575465
 20
-30390.30255848
 10
36529.72081902
 20
-30391.23454612
 10
36529.72081833
 20
-30401.59226989
 10
36529.72081863
 20
-30402.29349762
 10
36529.72081862
 20
-30402.36362035
 10
36517.94454699
 20
-30400.01005006
 10
36517.94454739
 20
-30388.88097583
  0
LWPOLYLINE
  5
806
100
AcDbEntity
  8
Ech.1_5
 62
   190
  6
CONTINUOUS
370
    -3
100
AcDbPolyline
 90
        4
 70
     0
 43
0.0
 10
36545.66925929
 20
-30387.33980391
 10
36515.13927152
 20
-30381.23817222
 10
36515.1392705
 20
-30409.56674146
 10
36545.66925827
 20
-30415.66837315
  0
LINE
  5
807
100
AcDbEntity
  8
Ech.1_5
 62
   190
  6
CONTINUOUS
370
    -3
100
AcDbLine
 10
36568.5447489
 20
-30420.24020002
 30
0.0
 11
36568.54476191
 21
-30396.18211143
 31
0.0
  0
LWPOLYLINE
  5
808
100
AcDbEntity
  8
Ech.1_5
 62
   190
  6
CONTINUOUS
370
    -3
100
AcDbPolyline
 90
       10
 70
     0
 43
0.0
 10
36555.8872828
 20
-30396.46409701
 10
36556.01297209
 20
-30396.48921689
 10
36557.26986567
 20
-30396.74041587
 10
36567.66355443
 20
-30398.81766729
 10
36567.66352051
 20
-30408.73194539
 10
36567.66355406
 20
-30409.17539106
 10
36567.66355403
 20
-30409.8766188
 10
36567.66355403
 20
-30409.94674152
 10
36555.8872824
 20
-30407.59317123
 10
36555.8872828
 20
-30396.46409701
  0
LWPOLYLINE
  5
809
100
AcDbEntity
  8
Ech.1_5
 62
   190
  6
CONTINUOUS
370
    -3
100
AcDbPolyline
 90
        6
 70
     0
 43
0.0
 10
36568.54476191
 20
-30396.18211143
 10
36568.54476198
 20
-30394.15864426
 10
36568.54476206
 20
-30391.91163078
 10
36545.66925929
 20
-30387.33980391
 10
36545.66925827
 20
-30415.66837315
 10
36568.5447489
 20
-30420.24020002
  0
LWPOLYLINE
  5
80A
100
AcDbEntity
  8
Ech.1_5
 62
   190
  6
CONTINUOUS
370
    -3
100
AcDbPolyline
 90
        4
 70
     1
 43
0.0
 10
36545.66925827
 20
-30415.66837315
 10
36515.1392705
 20
-30409.56674146
 10
36515.13927152
 20
-30411.59020863
 10
36545.6692582
 20
-30417.69184031
  0
LWPOLYLINE
  5
80B
100
AcDbEntity
  8
Ech.1_5
 62
   190
  6
CONTINUOUS
370
    -3
100
AcDbPolyline
 90
        4
 70
     1
 43
0.0
 10
36545.66925827
 20
-30415.66837315
 10
36545.6692582
 20
-30417.69184031
 10
36568.54474882
 20
-30422.26366719
 10
36568.54474984
 20
-30420.24020002
  0
LINE
  5
80C
100
AcDbEntity
  8
Ech.1_5
 62
   190
  6
CONTINUOUS
370
    -3
100
AcDbLine
 10
36621.18041787
 20
-30402.43123734
 30
0.0
 11
36621.18041685
 21
-30430.75980658
 31
0.0
  0
LWPOLYLINE
  5
80D
100
AcDbEntity
  8
Ech.1_5
 62
   190
  6
CONTINUOUS
370
    -3
100
AcDbPolyline
 90
       10
 70
     0
 43
0.0
 10
36635.44652984
 20
-30423.49365319
 10
36635.44653024
 20
-30412.36456932
 10
36635.57221952
 20
-30412.38969288
 10
36636.82911311
 20
-30412.64088966
 10
36647.22280588
 20
-30414.71814041
 10
36647.22275487
 20
-30421.43539025
 10
36647.22280302
 20
-30425.07587303
 10
36647.22280283
 20
-30425.77710103
 10
36647.22280548
 20
-30425.84722428
 10
36635.44652984
 20
-30423.49365319
  0
LWPOLYLINE
  5
80E
100
AcDbEntity
  8
Ech.1_5
 62
   190
  6
CONTINUOUS
370
    -3
100
AcDbPolyline
 90
        4
 70
     0
 43
0.0
 10
36621.18041685
 20
-30430.75980658
 10
36663.17124512
 20
-30439.15196744
 10
36663.17124615
 20
-30410.8233982
 10
36621.18041787
 20
-30402.43123734
  0
LWPOLYLINE
  5
80F
100
AcDbEntity
  8
Ech.1_5
 62
   190
  6
CONTINUOUS
370
    -3
100
AcDbPolyline
 90
        4
 70
     1
 43
0.0
 10
36621.18041685
 20
-30430.75980658
 10
36621.18041677
 20
-30432.78327374
 10
36663.17124505
 20
-30441.1754346
 10
36663.17124512
 20
-30439.15196744
  0
LINE
  5
810
100
AcDbEntity
  8
Ech.1_5
 62
   190
  6
CONTINUOUS
370
    -3
100
AcDbLine
 10
36462.50359453
 20
-30429.39916971
 30
0.0
 11
36462.50362358
 21
-30405.34108432
 31
0.0
  0
LWPOLYLINE
  5
811
100
AcDbEntity
  8
Ech.1_5
 62
   190
  6
CONTINUOUS
370
    -3
100
AcDbPolyline
 90
       11
 70
     0
 43
0.0
 10
36438.38529595
 20
-30403.33253912
 10
36438.51098523
 20
-30403.357659
 10
36444.24140147
 20
-30404.50292279
 10
36445.49829506
 20
-30404.75412177
 10
36450.16156758
 20
-30405.68610941
 10
36450.16151761
 20
-30415.6003843
 10
36450.1615672
 20
-30416.04383318
 10
36450.16156718
 20
-30416.74506091
 10
36450.16156717
 20
-30416.81518364
 10
36438.38529554
 20
-30414.46161335
 10
36438.38529595
 20
-30403.33253912
  0
LWPOLYLINE
  5
812
100
AcDbEntity
  8
Ech.1_5
 62
   190
  6
CONTINUOUS
370
    -3
100
AcDbPolyline
 90
        6
 70
     0
 43
0.0
 10
36462.50362358
 20
-30405.34108432
 10
36462.50362366
 20
-30403.31761715
 10
36462.50362374
 20
-30401.07060047
 10
36428.16727243
 20
-30394.20824602
 10
36428.16727141
 20
-30422.53681526
 10
36462.50359453
 20
-30429.39916971
  0
LWPOLYLINE
  5
813
100
AcDbEntity
  8
Ech.1_5
 62
   190
  6
CONTINUOUS
370
    -3
100
AcDbPolyline
 90
        4
 70
     1
 43
0.0
 10
36462.50362271
 20
-30429.39916971
 10
36428.16727141
 20
-30422.53681526
 10
36428.16727134
 20
-30424.56028243
 10
36462.50359445
 20
-30431.42263687
  0
LINE
  5
814
100
AcDbEntity
  8
Ech.1_5
 62
   190
  6
CONTINUOUS
370
    -3
100
AcDbLine
 10
36545.66925827
 20
-30446.02040955
 30
0.0
 11
36545.66925929
 21
-30417.69184031
 31
0.0
  0
LWPOLYLINE
  5
815
100
AcDbEntity
  8
Ech.1_5
 62
   190
  6
CONTINUOUS
370
    -3
100
AcDbPolyline
 90
       10
 70
     0
 43
0.0
 10
36517.94454739
 20
-30419.23301224
 10
36518.07023668
 20
-30419.25813212
 10
36523.80065292
 20
-30420.4033959
 10
36525.0575465
 20
-30420.65459488
 10
36529.72081902
 20
-30421.58658253
 10
36529.72081833
 20
-30431.94430629
 10
36529.72081863
 20
-30432.64553403
 10
36529.72081862
 20
-30432.71565675
 10
36517.94454699
 20
-30430.36208646
 10
36517.94454739
 20
-30419.23301224
  0
LWPOLYLINE
  5
816
100
AcDbEntity
  8
Ech.1_5
 62
   190
  6
CONTINUOUS
370
    -3
100
AcDbPolyline
 90
        4
 70
     0
 43
0.0
 10
36545.66925929
 20
-30417.69184031
 10
36515.13927152
 20
-30411.59020863
 10
36515.1392705
 20
-30439.91877787
 10
36545.66925827
 20
-30446.02040955
  0
LINE
  5
817
100
AcDbEntity
  8
Ech.1_5
 62
   190
  6
CONTINUOUS
370
    -3
100
AcDbLine
 10
36568.5447489
 20
-30450.59223643
 30
0.0
 11
36568.54476191
 21
-30426.53414783
 31
0.0
  0
LWPOLYLINE
  5
818
100
AcDbEntity
  8
Ech.1_5
 62
   190
  6
CONTINUOUS
370
    -3
100
AcDbPolyline
 90
       10
 70
     0
 43
0.0
 10
36555.8872828
 20
-30426.81613341
 10
36556.01297209
 20
-30426.84125329
 10
36557.26986567
 20
-30427.09245227
 10
36567.66355443
 20
-30429.1697037
 10
36567.66352051
 20
-30439.08398179
 10
36567.66355406
 20
-30439.52742747
 10
36567.66355403
 20
-30440.2286552
 10
36567.66355403
 20
-30440.29877793
 10
36555.8872824
 20
-30437.94520764
 10
36555.8872828
 20
-30426.81613341
  0
LWPOLYLINE
  5
819
100
AcDbEntity
  8
Ech.1_5
 62
   190
  6
CONTINUOUS
370
    -3
100
AcDbPolyline
 90
        6
 70
     0
 43
0.0
 10
36568.54476191
 20
-30426.53414783
 10
36568.54476198
 20
-30424.51068067
 10
36568.54476206
 20
-30422.26366719
 10
36545.66925929
 20
-30417.69184031
 10
36545.66925827
 20
-30446.02040955
 10
36568.5447489
 20
-30450.59223643
  0
LWPOLYLINE
  5
81A
100
AcDbEntity
  8
Ech.1_5
 62
   190
  6
CONTINUOUS
370
    -3
100
AcDbPolyline
 90
        4
 70
     1
 43
0.0
 10
36545.66925827
 20
-30446.02040955
 10
36515.1392705
 20
-30439.91877787
 10
36515.13927152
 20
-30441.94224503
 10
36545.6692582
 20
-30448.04387672
  0
LWPOLYLINE
  5
81B
100
AcDbEntity
  8
Ech.1_5
 62
   190
  6
CONTINUOUS
370
    -3
100
AcDbPolyline
 90
        4
 70
     1
 43
0.0
 10
36545.66925827
 20
-30446.02040955
 10
36545.6692582
 20
-30448.04387672
 10
36568.54474882
 20
-30452.61570359
 10
36568.54474984
 20
-30450.59223643
  0
LINE
  5
81C
100
AcDbEntity
  8
Ech.1_5
 62
   190
  6
CONTINUOUS
370
    -3
100
AcDbLine
 10
36621.18041787
 20
-30432.78327374
 30
0.0
 11
36621.18041685
 21
-30461.11184298
 31
0.0
  0
LWPOLYLINE
  5
81D
100
AcDbEntity
  8
Ech.1_5
 62
   190
  6
CONTINUOUS
370
    -3
100
AcDbPolyline
 90
       10
 70
     0
 43
0.0
 10
36635.44652984
 20
-30453.8456896
 10
36635.44653024
 20
-30442.71660572
 10
36635.57221952
 20
-30442.74172929
 10
36636.82911311
 20
-30442.99292607
 10
36647.22280588
 20
-30445.07017681
 10
36647.22275487
 20
-30451.78742665
 10
36647.22280302
 20
-30455.42790943
 10
36647.22280283
 20
-30456.12913743
 10
36647.22280548
 20
-30456.19926069
 10
36635.44652984
 20
-30453.8456896
  0
LWPOLYLINE
  5
81E
100
AcDbEntity
  8
Ech.1_5
 62
   190
  6
CONTINUOUS
370
    -3
100
AcDbPolyline
 90
        4
 70
     0
 43
0.0
 10
36621.18041685
 20
-30461.11184298
 10
36663.17124512
 20
-30469.50400384
 10
36663.17124615
 20
-30441.1754346
 10
36621.18041787
 20
-30432.78327374
  0
LWPOLYLINE
  5
81F
100
AcDbEntity
  8
Ech.1_5
 62
   190
  6
CONTINUOUS
370
    -3
100
AcDbPolyline
 90
        4
 70
     1
 43
0.0
 10
36621.18041685
 20
-30461.11184298
 10
36621.18041677
 20
-30463.13531015
 10
36663.17124505
 20
-30471.52747101
 10
36663.17124512
 20
-30469.50400384
  0
CIRCLE
  5
820
100
AcDbEntity
  8
Ech.1_5
 62
     1
  6
CONTINUOUS
370
    70
100
AcDbCircle
 39
-12500.0
 10
36620.82810755
 20
-30295.24977903
 30
2500.0
 40
10.83949135
  0
HATCH
  5
821
100
AcDbEntity
  8
Ech.1_5
 62
     1
  6
CONTINUOUS
100
AcDbHatch
 10
0.0
 20
0.0
 30
0.0
210
0.0
220
0.0
230
1.0
  2
ISOL_01
 70
     0
 71
     1
 91
        1
 92
        7
 72
     1
 73
     1
 93
        2
 10
36620.82810755
 20
-30306.08927038
 42
1.0
 10
36620.82810755
 20
-30284.41028768
 42
1.0
 97
        1
330
820
 75
     0
 76
     2
 52
0.0
 41
1.0
 77
     0
 78
    29
 53
0.0
 43
-2.23196998
 44
0.0
 45
0.0
 46
100.0
 79
     2
 49
4.46393996
 49
-12.20273018
 53
90.0
 43
-16.66666031
 44
13.96203995
 45
-33.33333015
 46
2.0410778039266E-15
 79
     2
 49
2.7046299
 49
-97.2953701
 53
90.0
 43
0.0
 44
83.33333015
 45
-33.33333015
 46
2.0410778039266E-15
 79
     2
 49
2.7046299
 49
-97.2953701
 53
104.9324646
 43
16.26942039
 44
20.24184942
 45
-33.33515852
 46
99.99952051
 79
     2
 49
61.59638882
 49
-455.87608337
 53
75.0675354
 43
17.06390977
 44
20.24184942
 45
-33.33515852
 46
-99.99952051
 79
     2
 49
61.59638882
 49
-455.87608337
 53
15.25511932
 43
2.23196998
 44
0.0
 45
-33.33332911
 46
8.9354887378157E-07
 79
     2
 49
4.53040987
 49
-375.52806854
 53
164.74488831
 43
-2.23196998
 44
0.0
 45
-33.33332911
 46
-5.3321501281012E-06
 79
     2
 49
4.53040987
 49
-375.52806854
 53
15.25511932
 43
10.06392002
 44
98.80797386
 45
-33.33332911
 46
8.9354887378157E-07
 79
     2
 49
4.53040987
 49
-375.52806854
 53
-15.25511932
 43
18.89863014
 44
100.0
 45
33.33332911
 46
8.9354887378157E-07
 79
     2
 49
4.53040987
 49
-375.52806854
 53
30.96375656
 43
6.60274029
 44
1.19203001
 45
-33.33333591
 46
-2.2143347822023E-07
 79
     2
 49
4.3523699
 49
-190.01268387
 53
149.03623962
 43
-6.62739992
 44
1.19203001
 45
-33.33333591
 46
2.4407345633470E-06
 79
     2
 49
4.3523699
 49
-190.01268387
 53
30.96375656
 43
6.33180022
 44
96.56868935
 45
-33.33333591
 46
-2.2143347822023E-07
 79
     2
 49
4.3523699
 49
-190.01268387
 53
-30.96375656
 43
23.26941013
 44
98.80797386
 45
33.33333591
 46
-2.2143347822023E-07
 79
     2
 49
4.3523699
 49
-190.01268387
 53
45.0
 43
10.33486009
 44
3.43131006
 45
-33.33333894
 46
2.2204460492503E-15
 79
     2
 49
3.70128989
 49
-137.72006989
 53
135.0
 43
-10.33486009
 44
3.43131006
 45
-33.33333894
 46
2.2204460492503E-15
 79
     2
 49
3.70128989
 49
-137.72006989
 53
45.0
 43
3.71459991
 44
93.95149231
 45
-33.33333894
 46
2.2204460492503E-15
 79
     2
 49
3.70128989
 49
-137.72006989
 53
-45.0
 43
27.00153112
 44
96.56868935
 45
33.33333894
 46
2.2204460492503E-15
 79
     2
 49
3.70128989
 49
-137.72006989
 53
56.30993271
 43
12.95207024
 44
6.04851007
 45
-33.33333502
 46
-3.7734524749311E-06
 79
     2
 49
3.88229012
 49
-116.30274773
 53
123.69006348
 43
-12.95207024
 44
6.04851007
 45
-33.33333502
 46
5.9927534890036E-06
 79
     2
 49
3.88229012
 49
-116.30274773
 53
56.30993271
 43
1.56109005
 44
90.72122574
 45
-33.33333502
 46
-3.7734524749311E-06
 79
     2
 49
3.88229012
 49
-116.30274773
 53
-56.30993271
 43
29.61874008
 44
93.95149231
 45
33.33333502
 46
-3.7734524749311E-06
 79
     2
 49
3.88229012
 49
-116.30274773
 53
71.56504822
 43
15.10558009
 44
9.27877009
 45
-33.33333738
 46
-1.6711020434101E-06
 79
     2
 49
4.93660003
 49
-100.47266006
 53
108.43495178
 43
-15.10558009
 44
9.27877009
 45
-33.33333738
 46
1.6711020500715E-06
 79
     2
 49
4.93660003
 49
-100.47266006
 53
71.56504822
 43
0.0
 44
86.03796005
 45
-33.33333738
 46
-1.6711020434101E-06
 79
     2
 49
4.93660003
 49
-100.47266006
 53
-71.56504822
 43
31.77223921
 44
90.72122574
 45
33.33333738
 46
-1.6711020434101E-06
 79
     2
 49
4.93660003
 49
-100.47266006
 53
83.6598053
 43
-16.66666031
 44
16.66666031
 45
-33.33334277
 46
-200.00001009
 79
     2
 49
3.59719008
 49
-298.24897766
 53
96.3401947
 43
16.66666031
 44
16.66666031
 45
-33.33334277
 46
200.00001009
 79
     2
 49
3.59719008
 49
-298.24897766
 53
263.65982056
 43
0.0
 44
83.33333015
 45
33.33328951
 46
200.00001897
 79
     2
 49
3.59719008
 49
-298.24897766
 53
-83.6598053
 43
0.0
 44
83.33333015
 45
33.33334277
 46
-200.00001009
 79
     2
 49
3.59719008
 49
-298.24897766
 47
0.775229
 98
        1
 10
0.0
 20
0.0
  0
LWPOLYLINE
  5
822
100
AcDbEntity
  8
Ech.1_5
 62
   190
100
AcDbPolyline
 90
        4
 70
     1
 43
0.0
 10
36221.61737224
 20
-30422.31730716
 10
36356.04615123
 20
-30422.31730716
 10
36356.04615123
 20
-30479.04026597
 10
36221.61737224
 20
-30479.04026597
  0
HATCH
  5
823
100
AcDbEntity
  8
Ech.1_5
 62
   190
100
AcDbHatch
 10
0.0
 20
0.0
 30
0.0
210
0.0
220
0.0
230
1.0
  2
SOLID
 70
     1
 71
     0
 91
        1
 92
        7
 72
     0
 73
     1
 93
        4
 10
36239.89741802
 20
-30455.97411829
 10
36289.89741802
 20
-30455.97411829
 10
36289.89741802
 20
-30448.55898076
 10
36239.89741802
 20
-30448.55898076
 97
        0
 75
     0
 76
     2
 47
0.775229
 98
        1
 10
0.0
 20
0.0
  0
LWPOLYLINE
  5
824
100
AcDbEntity
  8
Ech.1_5
 62
   190
100
AcDbPolyline
 90
        5
 70
     0
 43
0.0
 10
36239.89741802
 20
-30455.97411829
 10
36289.89741802
 20
-30455.97411829
 10
36289.89741802
 20
-30448.55898076
 10
36239.89741802
 20
-30448.55898076
 10
36239.89741802
 20
-30455.97411829
  0
LWPOLYLINE
  5
825
100
AcDbEntity
  8
Ech.1_5
 62
   190
100
AcDbPolyline
 90
        5
 70
     0
 43
0.0
 10
36289.89741802
 20
-30455.97411829
 10
36339.89741802
 20
-30455.97411829
 10
36339.89741802
 20
-30448.55898076
 10
36289.89741802
 20
-30448.55898076
 10
36289.89741802
 20
-30455.97411829
  0
TEXT
  5
826
100
AcDbEntity
  8
Ech.1_5
 62
   190
100
AcDbText
 10
36251.19171065
 20
-30438.97297768
 30
0.0
 40
8.00000012
  1
Echelle en mm
  7
ARIAL
 50
0.0
 41
1.0
 51
0.0
100
AcDbText
  0
TEXT
  5
827
100
AcDbEntity
  8
Ech.1_5
 62
   190
100
AcDbText
 10
36237.2111259
 20
-30467.18281321
 30
0.0
 40
8.00000012
  1
0
  7
ARIAL
 50
0.0
 41
1.0
 51
0.0
100
AcDbText
  0
TEXT
  5
828
100
AcDbEntity
  8
Ech.1_5
 62
   190
100
AcDbText
 10
36323.80818379
 20
-30467.18281321
 30
0.0
 40
8.00000012
  1
100
  7
ARIAL
 50
0.0
 41
1.0
 51
0.0
100
AcDbText
  0
TEXT
  5
829
100
AcDbEntity
  8
Ech.1_5
 62
   190
100
AcDbText
 10
36285.06775223
 20
-30467.18281321
 30
0.0
 40
8.00000012
  1
50
  7
ARIAL
 50
0.0
 41
1.0
 51
0.0
100
AcDbText
  0
ENDSEC
  0
SECTION
  2
OBJECTS
  0
DICTIONARY
  5
1
100
AcDbDictionary
  3
ACAD_GROUP
350
2
  3
ACAD_MLINESTYLE
350
3
  0
DICTIONARY
  5
2
102
{CDWK_REACTORS
330
1
102
}
100
AcDbDictionary
  0
DICTIONARY
  5
3
102
{CDWK_REACTORS
330
1
102
}
100
AcDbDictionary
  3
STANDARD
350
4
  0
MLINESTYLE
  5
4
102
{CDWK_REACTORS
330
3
102
}
100
AcDbMlineStyle
  2
STANDARD
 70
     0
  3

 62
     0
 51
90.0
 52
90.0
 71
     2
 49
0.5
 62
   256
  6
BYLAYER
 49
-0.5
 62
   256
  6
BYLAYER
  0
ENDSEC
  0
EOF
