  0
SECTION
  2
HEADER
  9
$ACADVER
  1
AC1014
  9
$DWGCODEPAGE
  3
ANSI_1252
  9
$INSBASE
 10
0.0
 20
0.0
 30
0.0
  9
$EXTMIN
 10
16597.69195778
 20
-61480.70992888
  9
$EXTMAX
 10
70954.1530979
 20
-11994.18003977
  9
$LIMMIN
 10
16597.69195778
 20
-61480.70992888
  9
$LIMMAX
 10
70954.1530979
 20
-11994.18003977
  9
$ORTHOMODE
 70
     0
  9
$REGENMODE
 70
     1
  9
$FILLMODE
 70
     1
  9
$QTEXTMODE
 70
     0
  9
$MIRRTEXT
 70
     1
  9
$DRAGMODE
 70
     2
  9
$LTSCALE
 40
10.0
  9
$OSMODE
 70
     0
  9
$ATTMODE
 70
     1
  9
$TEXTSIZE
 40
3.5
  9
$TRACEWID
 40
1.0
  9
$TEXTSTYLE
  7
STANDARD
  9
$CLAYER
  8
0
  9
$CELTYPE
  6
BYLAYER
  9
$CECOLOR
 62
   256
  9
$DIMSCALE
 40
1.0
  9
$DIMASZ
 40
2.0
  9
$DIMEXO
 40
5.0
  9
$DIMDLI
 40
10.0
  9
$DIMRND
 40
0.0
  9
$DIMDLE
 40
2.0
  9
$DIMEXE
 40
2.0
  9
$DIMTP
 40
0.0
  9
$DIMTM
 40
0.0
  9
$DIMTXT
 40
2.5
  9
$DIMCEN
 40
1.5
  9
$DIMTSZ
 40
0.0
  9
$DIMTOL
 70
     0
  9
$DIMLIM
 70
     0
  9
$DIMTIH
 70
     1
  9
$DIMTOH
 70
     0
  9
$DIMSE1
 70
     0
  9
$DIMSE2
 70
     0
  9
$DIMTAD
 70
     1
  9
$DIMZIN
 70
     8
  9
$DIMBLK
  1

  9
$DIMASO
 70
     1
  9
$DIMSHO
 70
     1
  9
$DIMPOST
  1

  9
$DIMAPOST
  1

  9
$DIMALT
 70
     0
  9
$DIMALTD
 70
     2
  9
$DIMALTF
 40
25.4
  9
$DIMLFAC
 40
1.0
  9
$DIMTOFL
 70
     0
  9
$DIMTVP
 40
0.0
  9
$DIMTIX
 70
     0
  9
$DIMSOXD
 70
     0
  9
$DIMSAH
 70
     0
  9
$DIMBLK1
  1

  9
$DIMBLK2
  1

  9
$DIMSTYLE
  2
*UNNAMED
  9
$DIMCLRD
 70
   190
  9
$DIMCLRE
 70
   190
  9
$DIMCLRT
 70
   190
  9
$DIMTFAC
 40
1.0
  9
$DIMGAP
 40
0.09
  9
$DIMUNIT
 70
     2
  9
$LUNITS
 70
     2
  9
$LUPREC
 70
     6
  9
$AXISMODE
 70
     0
  9
$AXISUNIT
 10
0.0
 20
0.0
  9
$SKETCHINC
 40
0.1
  9
$FILLETRAD
 40
0.0
  9
$AUNITS
 70
     0
  9
$AUPREC
 70
     0
  9
$MENU
  1
ACAD
  9
$ELEVATION
 40
0.0
  9
$PELEVATION
 40
0.0
  9
$THICKNESS
 40
0.0
  9
$LIMCHECK
 70
     0
  9
$BLIPMODE
 70
     1
  9
$CHAMFERA
 40
0.0
  9
$CHAMFERB
 40
0.0
  9
$SKPOLY
 70
     1
  9
$TDCREATE
 40
2457811.0000000000
  9
$TDUPDATE
 40
2457811.0000000000
  9
$TDINDWG
 40
0.0
  9
$TDUSRTIMER
 40
0.0
  9
$USRTIMER
 70
     1
  9
$ANGBASE
 50
0.0
  9
$ANGDIR
 70
     0
  9
$PDMODE
 70
     0
  9
$PDSIZE
 40
0.0
  9
$PLINEWID
 40
0.0
  9
$COORDS
 70
     2
  9
$SPLFRAME
 70
     0
  9
$SPLINETYPE
 70
     6
  9
$SPLINESEGS
 70
     8
  9
$ATTDIA
 70
     1
  9
$ATTREQ
 70
     1
  9
$HANDLING
 70
     1
  9
$HANDSEED
  5
     6B6
  9
$SURFTAB1
 70
     6
  9
$SURFTAB2
 70
     6
  9
$SURFTYPE
 70
     6
  9
$SURFU
 70
     6
  9
$SURFV
 70
     6
  9
$UCSNAME
  2

  9
$UCSORG
 10
0.0
 20
0.0
 30
0.0
  9
$UCSXDIR
 10
1.0
 20
0.0
 30
0.0
  9
$UCSYDIR
 10
0.0
 20
1.0
 30
0.0
  9
$PUCSNAME
  2

  9
$PUCSORG
 10
0.0
 20
0.0
 30
0.0
  9
$PUCSXDIR
 10
1.0
 20
0.0
 30
0.0
  9
$PUCSYDIR
 10
0.0
 20
1.0
 30
0.0
  9
$USERI1
 70
     0
  9
$USERI2
 70
     0
  9
$USERI3
 70
     0
  9
$USERI4
 70
     0
  9
$USERI5
 70
     0
  9
$USERR1
 40
0.0
  9
$USERR2
 40
0.0
  9
$USERR3
 40
0.0
  9
$USERR4
 40
0.0
  9
$USERR5
 40
0.0
  9
$WORLDVIEW
 70
     1
  9
$SHADEDGE
 70
     3
  9
$SHADEDIF
 70
    70
  9
$TILEMODE
 70
     1
  9
$MAXACTVP
 70
    16
  9
$PINSBASE
 10
0.0
 20
0.0
 30
0.0
  9
$PLIMCHECK
 70
     0
  9
$PEXTMIN
 10
1.0000000000000E+20
 20
1.0000000000000E+20
 30
1.0000000000000E+20
  9
$PEXTMAX
 10
-1.0000000000000E+20
 20
-1.0000000000000E+20
 30
-1.0000000000000E+20
  9
$PLIMMIN
 10
0.0
 20
0.0
  9
$UNITMODE
 70
     0
  9
$VISRETAIN
 70
     0
  9
$MEASUREMENT
 70
     1
  0
ENDSEC
  0
SECTION
  2
TABLES
  0
TABLE
  2
VPORT
  5
36E
100
AcDbSymbolTable
 70
     1
  0
ENDTAB
  0
TABLE
  2
STYLE
  5
36F
100
AcDbSymbolTable
 70
     3
  0
STYLE
  5
370
100
AcDbSymbolTableRecord
100
AcDbTextStyleTableRecord
  2
STANDARD
 70
     0
 40
0.0
 41
1.0
 50
0.0
 71
     0
 42
3.5
  3
MONOTXT
  4

  0
STYLE
  5
371
100
AcDbSymbolTableRecord
100
AcDbTextStyleTableRecord
  2
SYMAP
 70
     0
 40
0.0
 41
1.0
 50
0.0
 71
     0
 42
3.5
  3
SYMAP
  4

  0
STYLE
  5
372
100
AcDbSymbolTableRecord
100
AcDbTextStyleTableRecord
  2
CADWORK1
 70
     0
 40
0.0
 41
1.0
 50
0.0
 71
     0
 42
3.5
  3
MONOTXT
  4

  0
STYLE
  5
373
100
AcDbSymbolTableRecord
100
AcDbTextStyleTableRecord
  2
MONOTXT
 70
     0
 40
0.0
 41
1.0
 50
0.0
 71
     0
 42
3.5
  3
MONOTXT
  4

  0
STYLE
  5
374
100
AcDbSymbolTableRecord
100
AcDbTextStyleTableRecord
  2
ARIAL
 70
     0
 40
0.0
 41
1.0
 50
0.0
 71
     0
 42
3.5
  3

  4

1001
ACAD
1000
Arial
1071
        0
  0
ENDTAB
  0
TABLE
  2
LTYPE
  5
375
100
AcDbSymbolTable
 70
    13
  0
LTYPE
  5
376
100
AcDbSymbolTableRecord
100
AcDbLinetypeTableRecord
  2
BYBLOCK
 70
    64
  3

 72
    65
 73
     0
 40
0.0
  0
LTYPE
  5
377
100
AcDbSymbolTableRecord
100
AcDbLinetypeTableRecord
  2
BYLAYER
 70
    64
  3

 72
    65
 73
     0
 40
0.0
  0
LTYPE
  5
378
100
AcDbSymbolTableRecord
100
AcDbLinetypeTableRecord
  2
CONTINUOUS
 70
    64
  3
Solid line
 72
    65
 73
     0
 40
0.0
  0
LTYPE
  5
379
100
AcDbSymbolTableRecord
100
AcDbLinetypeTableRecord
  2
DOT2
 70
    64
  3
...............................................
 72
    65
 73
     2
 40
1.25
 49
0.0
 74
     0
 49
-1.25
 74
     0
  0
LTYPE
  5
37A
100
AcDbSymbolTableRecord
100
AcDbLinetypeTableRecord
  2
DASHDOT
 70
    64
  3
 __ . __ . __ . __ . __ . __ . __ . __ . __ . __
 72
    65
 73
     4
 40
10.0
 49
5.0
 74
     0
 49
-2.5
 74
     0
 49
0.0
 74
     0
 49
-2.5
 74
     0
  0
LTYPE
  5
37B
100
AcDbSymbolTableRecord
100
AcDbLinetypeTableRecord
  2
CENTER
 70
    64
  3
 ____ _ ____ _ ____ _ ____ _ ____ _ ____ _ ____
 72
    65
 73
     4
 40
20.0
 49
12.5
 74
     0
 49
-2.5
 74
     0
 49
2.5
 74
     0
 49
-2.5
 74
     0
  0
LTYPE
  5
37C
100
AcDbSymbolTableRecord
100
AcDbLinetypeTableRecord
  2
CADWORK_22
 70
    64
  3
22 =======================================
 72
    65
 73
     0
 40
0.0
  0
LTYPE
  5
37D
100
AcDbSymbolTableRecord
100
AcDbLinetypeTableRecord
  2
DAL
 70
    64
  3
Solid line (for MAPS)
 72
    65
 73
     0
 40
0.0
  0
LTYPE
  5
37E
100
AcDbSymbolTableRecord
100
AcDbLinetypeTableRecord
  2
MUR
 70
    64
  3
Solid line (for MAPS)
 72
    65
 73
     0
 40
0.0
  0
LTYPE
  5
37F
100
AcDbSymbolTableRecord
100
AcDbLinetypeTableRecord
  2
SOM
 70
    64
  3
Solid line (for MAPS)
 72
    65
 73
     0
 40
0.0
  0
LTYPE
  5
380
100
AcDbSymbolTableRecord
100
AcDbLinetypeTableRecord
  2
COL
 70
    64
  3
Solid line (for MAPS)
 72
    65
 73
     0
 40
0.0
  0
LTYPE
  5
381
100
AcDbSymbolTableRecord
100
AcDbLinetypeTableRecord
  2
LGN
 70
    64
  3
Solid line (for MAPS)
 72
    65
 73
     0
 40
0.0
  0
LTYPE
  5
382
100
AcDbSymbolTableRecord
100
AcDbLinetypeTableRecord
  2
PNT
 70
    64
  3
Solid line (for MAPS)
 72
    65
 73
     0
 40
0.0
  0
ENDTAB
  0
TABLE
  2
LAYER
  5
383
100
AcDbSymbolTable
 70
    32
  0
LAYER
  5
384
100
AcDbSymbolTableRecord
100
AcDbLayerTableRecord
  2
Standard
 70
     0
 62
     7
  6
CONTINUOUS
370
    -3
  0
LAYER
  5
385
100
AcDbSymbolTableRecord
100
AcDbLayerTableRecord
  2
Ech.1_1
 70
     0
 62
     7
  6
CONTINUOUS
370
    -3
  0
LAYER
  5
386
100
AcDbSymbolTableRecord
100
AcDbLayerTableRecord
  2
Ech.1_2
 70
     0
 62
     7
  6
CONTINUOUS
370
    -3
  0
LAYER
  5
387
100
AcDbSymbolTableRecord
100
AcDbLayerTableRecord
  2
Ech.1_5
 70
     0
 62
     7
  6
CONTINUOUS
370
    -3
  0
LAYER
  5
388
100
AcDbSymbolTableRecord
100
AcDbLayerTableRecord
  2
Ech.1_10
 70
     0
 62
     7
  6
CONTINUOUS
370
    -3
  0
LAYER
  5
389
100
AcDbSymbolTableRecord
100
AcDbLayerTableRecord
  2
Ech.1_20
 70
     0
 62
     7
  6
CONTINUOUS
370
    -3
  0
LAYER
  5
38A
100
AcDbSymbolTableRecord
100
AcDbLayerTableRecord
  2
Ech.1_25
 70
     0
 62
     7
  6
CONTINUOUS
370
    -3
  0
LAYER
  5
38B
100
AcDbSymbolTableRecord
100
AcDbLayerTableRecord
  2
Ech.1_33
 70
     0
 62
     7
  6
CONTINUOUS
370
    -3
  0
LAYER
  5
38C
100
AcDbSymbolTableRecord
100
AcDbLayerTableRecord
  2
Ech.1_50
 70
     0
 62
     7
  6
CONTINUOUS
370
    -3
  0
LAYER
  5
38D
100
AcDbSymbolTableRecord
100
AcDbLayerTableRecord
  2
Ech.1_75
 70
     0
 62
     7
  6
CONTINUOUS
370
    -3
  0
LAYER
  5
38E
100
AcDbSymbolTableRecord
100
AcDbLayerTableRecord
  2
Ech.1_100
 70
     0
 62
     7
  6
CONTINUOUS
370
    -3
  0
LAYER
  5
38F
100
AcDbSymbolTableRecord
100
AcDbLayerTableRecord
  2
Ech.1_200
 70
     0
 62
     7
  6
CONTINUOUS
370
    -3
  0
LAYER
  5
390
100
AcDbSymbolTableRecord
100
AcDbLayerTableRecord
  2
Ech.1_500
 70
     0
 62
     7
  6
CONTINUOUS
370
    -3
  0
LAYER
  5
391
100
AcDbSymbolTableRecord
100
AcDbLayerTableRecord
  2
Ech.1_1000
 70
     0
 62
     7
  6
CONTINUOUS
370
    -3
  0
LAYER
  5
392
100
AcDbSymbolTableRecord
100
AcDbLayerTableRecord
  2
Cadres traceur
 70
     0
 62
     7
  6
CONTINUOUS
370
    18
  0
LAYER
  5
393
100
AcDbSymbolTableRecord
100
AcDbLayerTableRecord
  2
Cadres laser
 70
     0
 62
     7
  6
CONTINUOUS
370
    18
  0
LAYER
  5
394
100
AcDbSymbolTableRecord
100
AcDbLayerTableRecord
  2
Légende d_aide
 70
     0
 62
     7
  6
CONTINUOUS
370
    18
  0
LAYER
  5
395
100
AcDbSymbolTableRecord
100
AcDbLayerTableRecord
  2
hachures ok
 70
     0
 62
     7
  6
CONTINUOUS
370
    18
  0
LAYER
  5
396
100
AcDbSymbolTableRecord
100
AcDbLayerTableRecord
  2
ossature bois
 70
     0
 62
     7
  6
CONTINUOUS
370
    18
  0
LAYER
  5
397
100
AcDbSymbolTableRecord
100
AcDbLayerTableRecord
  2
VR
 70
     0
 62
     7
  6
CONTINUOUS
370
    25
  0
LAYER
  5
398
100
AcDbSymbolTableRecord
100
AcDbLayerTableRecord
  2
Calque1
 70
     0
 62
     7
  6
CONTINUOUS
370
     9
  0
LAYER
  5
399
100
AcDbSymbolTableRecord
100
AcDbLayerTableRecord
  2
0
 70
     0
 62
     7
  6
CONTINUOUS
370
    -3
  0
LAYER
  5
39A
100
AcDbSymbolTableRecord
100
AcDbLayerTableRecord
  2
menuiserie
 70
     0
 62
     7
  6
CONTINUOUS
370
    -3
  0
LAYER
  5
39B
100
AcDbSymbolTableRecord
100
AcDbLayerTableRecord
  2
cotation
 70
     0
 62
   250
  6
CONTINUOUS
370
     9
  0
LAYER
  5
39C
100
AcDbSymbolTableRecord
100
AcDbLayerTableRecord
  2
Defpoints
 70
     0
 62
    10
  6
CONTINUOUS
370
    -3
  0
LAYER
  5
39D
100
AcDbSymbolTableRecord
100
AcDbLayerTableRecord
  2
HACHURE
 70
     0
 62
   254
  6
CONTINUOUS
370
    25
  0
LAYER
  5
39E
100
AcDbSymbolTableRecord
100
AcDbLayerTableRecord
  2
mat1
 70
     0
 62
     7
  6
CONTINUOUS
370
    30
  0
LAYER
  5
39F
100
AcDbSymbolTableRecord
100
AcDbLayerTableRecord
  2
mat2
 70
     0
 62
     7
  6
CONTINUOUS
370
     5
  0
LAYER
  5
3A0
100
AcDbSymbolTableRecord
100
AcDbLayerTableRecord
  2
hach
 70
     0
 62
     8
  6
CONTINUOUS
370
     5
  0
LAYER
  5
3A1
100
AcDbSymbolTableRecord
100
AcDbLayerTableRecord
  2
menuiseries
 70
     0
 62
     7
  6
CONTINUOUS
370
     9
  0
LAYER
  5
3A2
100
AcDbSymbolTableRecord
100
AcDbLayerTableRecord
  2
BétonMétal
 70
     0
 62
     7
  6
CONTINUOUS
370
    80
  0
LAYER
  5
3A3
100
AcDbSymbolTableRecord
100
AcDbLayerTableRecord
  2
bois
 70
     0
 62
     7
  6
CONTINUOUS
370
    60
  0
ENDTAB
  0
TABLE
  2
VIEW
  5
3A4
100
AcDbSymbolTable
 70
     0
  0
ENDTAB
  0
TABLE
  2
UCS
  5
3A5
100
AcDbSymbolTable
 70
     0
  0
ENDTAB
  0
TABLE
  2
APPID
  5
3A6
100
AcDbSymbolTable
 70
     1
  0
APPID
  5
3A7
100
AcDbSymbolTableRecord
100
AcDbRegAppTableRecord
  2
ACAD
 70
     0
  0
ENDTAB
  0
TABLE
  2
DIMSTYLE
  5
3A8
100
AcDbSymbolTable
 70
     0
  0
ENDTAB
  0
TABLE
  2
BLOCK_RECORD
  5
3A9
100
AcDbSymbolTable
 70
     0
  0
BLOCK_RECORD
  5
3AA
100
AcDbSymbolTableRecord
100
AcDbBlockTableRecord
  2
*MODEL_SPACE
  0
BLOCK_RECORD
  5
3AB
100
AcDbSymbolTableRecord
100
AcDbBlockTableRecord
  2
*PAPER_SPACE
  0
BLOCK_RECORD
  5
3AC
100
AcDbSymbolTableRecord
100
AcDbBlockTableRecord
  2
CDWK_EXTR_0
  0
BLOCK_RECORD
  5
3AD
100
AcDbSymbolTableRecord
100
AcDbBlockTableRecord
  2
CDWK_EXTR_1D
  0
BLOCK_RECORD
  5
3AE
100
AcDbSymbolTableRecord
100
AcDbBlockTableRecord
  2
CDWK_EXTR_1G
  0
BLOCK_RECORD
  5
3AF
100
AcDbSymbolTableRecord
100
AcDbBlockTableRecord
  2
CDWK_EXTR_2
  0
BLOCK_RECORD
  5
3B0
100
AcDbSymbolTableRecord
100
AcDbBlockTableRecord
  2
CDWK_EXTR_3
  0
BLOCK_RECORD
  5
3B1
100
AcDbSymbolTableRecord
100
AcDbBlockTableRecord
  2
CDWK_EXTR_4
  0
BLOCK_RECORD
  5
3B2
100
AcDbSymbolTableRecord
100
AcDbBlockTableRecord
  2
CDWK_PTTYP0
  0
BLOCK_RECORD
  5
3B3
100
AcDbSymbolTableRecord
100
AcDbBlockTableRecord
  2
CDWK_PTTYP1
  0
BLOCK_RECORD
  5
3B4
100
AcDbSymbolTableRecord
100
AcDbBlockTableRecord
  2
CDWK_PTTYP2
  0
BLOCK_RECORD
  5
3B5
100
AcDbSymbolTableRecord
100
AcDbBlockTableRecord
  2
CDWK_PTTYP3
  0
BLOCK_RECORD
  5
3B6
100
AcDbSymbolTableRecord
100
AcDbBlockTableRecord
  2
CDWK_PTTYP4
  0
BLOCK_RECORD
  5
3B7
100
AcDbSymbolTableRecord
100
AcDbBlockTableRecord
  2
CDWK_PTTYP5
  0
BLOCK_RECORD
  5
3B8
100
AcDbSymbolTableRecord
100
AcDbBlockTableRecord
  2
CDWK_PTTYP6
  0
BLOCK_RECORD
  5
3B9
100
AcDbSymbolTableRecord
100
AcDbBlockTableRecord
  2
CDWK_PTTYP7
  0
BLOCK_RECORD
  5
3BA
100
AcDbSymbolTableRecord
100
AcDbBlockTableRecord
  2
CDWK_PTTYP8
  0
BLOCK_RECORD
  5
3BB
100
AcDbSymbolTableRecord
100
AcDbBlockTableRecord
  2
CDWK_PTTYP9
  0
BLOCK_RECORD
  5
3BC
100
AcDbSymbolTableRecord
100
AcDbBlockTableRecord
  2
CDWK_PTTYP10
  0
BLOCK_RECORD
  5
3BD
100
AcDbSymbolTableRecord
100
AcDbBlockTableRecord
  2
CDWK_PTTYP11
  0
BLOCK_RECORD
  5
3BE
100
AcDbSymbolTableRecord
100
AcDbBlockTableRecord
  2
CDWK_PTTYP12
  0
BLOCK_RECORD
  5
3BF
100
AcDbSymbolTableRecord
100
AcDbBlockTableRecord
  2
CDWK_PTTYP13
  0
BLOCK_RECORD
  5
3C0
100
AcDbSymbolTableRecord
100
AcDbBlockTableRecord
  2
CDWK_PTTYP14
  0
BLOCK_RECORD
  5
3C1
100
AcDbSymbolTableRecord
100
AcDbBlockTableRecord
  2
CDWK_PTTYP15
  0
BLOCK_RECORD
  5
3C2
100
AcDbSymbolTableRecord
100
AcDbBlockTableRecord
  2
CDWK_PTTYP16
  0
BLOCK_RECORD
  5
3C3
100
AcDbSymbolTableRecord
100
AcDbBlockTableRecord
  2
CDWK_PTTYP17
  0
BLOCK_RECORD
  5
3C4
100
AcDbSymbolTableRecord
100
AcDbBlockTableRecord
  2
CDWK_PTTYP18
  0
BLOCK_RECORD
  5
3C5
100
AcDbSymbolTableRecord
100
AcDbBlockTableRecord
  2
CDWK_PTTYP19
  0
BLOCK_RECORD
  5
3C6
100
AcDbSymbolTableRecord
100
AcDbBlockTableRecord
  2
CDWK_PTTYP20
  0
BLOCK_RECORD
  5
3C7
100
AcDbSymbolTableRecord
100
AcDbBlockTableRecord
  2
CDWK_PTTYP21
  0
BLOCK_RECORD
  5
3C8
100
AcDbSymbolTableRecord
100
AcDbBlockTableRecord
  2
CDWK_PTTYP22
  0
BLOCK_RECORD
  5
3C9
100
AcDbSymbolTableRecord
100
AcDbBlockTableRecord
  2
CDWK_PTTYP23
  0
BLOCK_RECORD
  5
3CA
100
AcDbSymbolTableRecord
100
AcDbBlockTableRecord
  2
CDWK_PTTYP24
  0
BLOCK_RECORD
  5
3CB
100
AcDbSymbolTableRecord
100
AcDbBlockTableRecord
  2
CDWK_PTTYP25
  0
BLOCK_RECORD
  5
3CC
100
AcDbSymbolTableRecord
100
AcDbBlockTableRecord
  2
CDWK_PTTYP26
  0
BLOCK_RECORD
  5
3CD
100
AcDbSymbolTableRecord
100
AcDbBlockTableRecord
  2
CDWK_PTTYP27
  0
BLOCK_RECORD
  5
3CE
100
AcDbSymbolTableRecord
100
AcDbBlockTableRecord
  2
CDWK_PTTYP28
  0
BLOCK_RECORD
  5
3CF
100
AcDbSymbolTableRecord
100
AcDbBlockTableRecord
  2
CDWK_PTTYP29
  0
BLOCK_RECORD
  5
3D0
100
AcDbSymbolTableRecord
100
AcDbBlockTableRecord
  2
CDWK_PTTYP30
  0
BLOCK_RECORD
  5
3D1
100
AcDbSymbolTableRecord
100
AcDbBlockTableRecord
  2
CDWK_PTTYP31
  0
BLOCK_RECORD
  5
3D2
100
AcDbSymbolTableRecord
100
AcDbBlockTableRecord
  2
CDWK_PTTYP32
  0
BLOCK_RECORD
  5
3D3
100
AcDbSymbolTableRecord
100
AcDbBlockTableRecord
  2
CDWK_PTTYP33
  0
BLOCK_RECORD
  5
3D4
100
AcDbSymbolTableRecord
100
AcDbBlockTableRecord
  2
CDWK_PTTYP34
  0
BLOCK_RECORD
  5
3D5
100
AcDbSymbolTableRecord
100
AcDbBlockTableRecord
  2
CDWK_PTTYP35
  0
BLOCK_RECORD
  5
3D6
100
AcDbSymbolTableRecord
100
AcDbBlockTableRecord
  2
CDWK_PTTYP36
  0
BLOCK_RECORD
  5
3D7
100
AcDbSymbolTableRecord
100
AcDbBlockTableRecord
  2
CDWK_PTTYP37
  0
BLOCK_RECORD
  5
3D8
100
AcDbSymbolTableRecord
100
AcDbBlockTableRecord
  2
CDWK_PTTYP38
  0
BLOCK_RECORD
  5
3D9
100
AcDbSymbolTableRecord
100
AcDbBlockTableRecord
  2
*X1
  0
BLOCK_RECORD
  5
3DA
100
AcDbSymbolTableRecord
100
AcDbBlockTableRecord
  2
*X2
  0
BLOCK_RECORD
  5
3DB
100
AcDbSymbolTableRecord
100
AcDbBlockTableRecord
  2
*X3
  0
BLOCK_RECORD
  5
3DC
100
AcDbSymbolTableRecord
100
AcDbBlockTableRecord
  2
*X4
  0
BLOCK_RECORD
  5
3DD
100
AcDbSymbolTableRecord
100
AcDbBlockTableRecord
  2
*X5
  0
BLOCK_RECORD
  5
3DE
100
AcDbSymbolTableRecord
100
AcDbBlockTableRecord
  2
*X6
  0
BLOCK_RECORD
  5
3DF
100
AcDbSymbolTableRecord
100
AcDbBlockTableRecord
  2
*X7
  0
BLOCK_RECORD
  5
3E0
100
AcDbSymbolTableRecord
100
AcDbBlockTableRecord
  2
*X8
  0
BLOCK_RECORD
  5
3E1
100
AcDbSymbolTableRecord
100
AcDbBlockTableRecord
  2
*X9
  0
BLOCK_RECORD
  5
3E2
100
AcDbSymbolTableRecord
100
AcDbBlockTableRecord
  2
*X10
  0
BLOCK_RECORD
  5
3E3
100
AcDbSymbolTableRecord
100
AcDbBlockTableRecord
  2
*X11
  0
BLOCK_RECORD
  5
3E4
100
AcDbSymbolTableRecord
100
AcDbBlockTableRecord
  2
*D21
  0
ENDTAB
  0
ENDSEC
  0
SECTION
  2
BLOCKS
  0
BLOCK
  5
3E5
100
AcDbEntity
  8
0
100
AcDbBlockBegin
  2
*MODEL_SPACE
 70
     0
 10
0.0
 20
0.0
 30
0.0
  3
*MODEL_SPACE
  1

  0
ENDBLK
  5
3E6
100
AcDbEntity
100
AcDbBlockEnd
  0
BLOCK
  5
3E7
100
AcDbEntity
  8
0
100
AcDbBlockBegin
  2
*PAPER_SPACE
 70
     0
 10
0.0
 20
0.0
 30
0.0
  3
*PAPER_SPACE
  1

  0
ENDBLK
  5
3E8
100
AcDbEntity
100
AcDbBlockEnd
  0
BLOCK
  5
3E9
100
AcDbEntity
  8
0
100
AcDbBlockBegin
  2
CDWK_EXTR_0
 70
     0
 10
0.0
 20
0.0
 30
0.0
  3
CDWK_EXTR_0
  1

  4
Cadwork line-extremity
  0
LINE
  5
3EA
100
AcDbEntity
  8
0
 62
     0
370
    -2
100
AcDbLine
 10
0.0
 20
0.0
 30
0.0
 11
2.0
 21
0.5
 31
0.0
  0
LINE
  5
3EB
100
AcDbEntity
  8
0
 62
     0
370
    -2
100
AcDbLine
 10
0.0
 20
0.0
 30
0.0
 11
2.0
 21
-0.5
 31
0.0
  0
LINE
  5
3EC
100
AcDbEntity
  8
0
 62
     0
370
    -2
100
AcDbLine
 10
2.0
 20
0.5
 30
0.0
 11
2.0
 21
-0.5
 31
0.0
  0
ENDBLK
  5
3ED
100
AcDbEntity
100
AcDbBlockEnd
  0
BLOCK
  5
3EE
100
AcDbEntity
  8
0
100
AcDbBlockBegin
  2
CDWK_EXTR_1D
 70
     0
 10
0.0
 20
0.0
 30
0.0
  3
CDWK_EXTR_1D
  1

  4
Cadwork line-extremity
  0
LINE
  5
3EF
100
AcDbEntity
  8
0
 62
     0
370
    -2
100
AcDbLine
 10
0.0
 20
0.0
 30
0.0
 11
0.0
 21
1.0
 31
0.0
  0
LINE
  5
3F0
100
AcDbEntity
  8
0
 62
     0
370
    -2
100
AcDbLine
 10
0.0
 20
1.0
 30
0.0
 11
0.5
 21
1.5
 31
0.0
  0
LINE
  5
3F1
100
AcDbEntity
  8
0
 62
     0
370
    -2
100
AcDbLine
 10
0.5
 20
1.5
 30
0.0
 11
1.5
 21
1.5
 31
0.0
  0
ENDBLK
  5
3F2
100
AcDbEntity
100
AcDbBlockEnd
  0
BLOCK
  5
3F3
100
AcDbEntity
  8
0
100
AcDbBlockBegin
  2
CDWK_EXTR_1G
 70
     0
 10
0.0
 20
0.0
 30
0.0
  3
CDWK_EXTR_1G
  1

  4
Cadwork line-extremity
  0
LINE
  5
3F4
100
AcDbEntity
  8
0
 62
     0
370
    -2
100
AcDbLine
 10
0.0
 20
0.0
 30
0.0
 11
0.0
 21
-1.0
 31
0.0
  0
LINE
  5
3F5
100
AcDbEntity
  8
0
 62
     0
370
    -2
100
AcDbLine
 10
0.0
 20
-1.0
 30
0.0
 11
0.5
 21
-1.5
 31
0.0
  0
LINE
  5
3F6
100
AcDbEntity
  8
0
 62
     0
370
    -2
100
AcDbLine
 10
0.5
 20
-1.5
 30
0.0
 11
1.5
 21
-1.5
 31
0.0
  0
ENDBLK
  5
3F7
100
AcDbEntity
100
AcDbBlockEnd
  0
BLOCK
  5
3F8
100
AcDbEntity
  8
0
100
AcDbBlockBegin
  2
CDWK_EXTR_2
 70
     0
 10
0.0
 20
0.0
 30
0.0
  3
CDWK_EXTR_2
  1

  4
Cadwork line-extremity
  0
SOLID
  5
3F9
100
AcDbEntity
  8
0
 62
     0
100
AcDbTrace
 10
0.0
 20
0.0
 11
2.0
 21
0.5
 12
2.0
 22
-0.5
 13
2.0
 23
-0.5
  0
ENDBLK
  5
3FA
100
AcDbEntity
100
AcDbBlockEnd
  0
BLOCK
  5
3FB
100
AcDbEntity
  8
0
100
AcDbBlockBegin
  2
CDWK_EXTR_3
 70
     0
 10
0.0
 20
0.0
 30
0.0
  3
CDWK_EXTR_3
  1

  4
Cadwork line-extremity
  0
SOLID
  5
3FC
100
AcDbEntity
  8
0
 62
     0
100
AcDbTrace
 10
0.0
 20
0.0
 11
2.0
 21
0.5
 12
2.0
 22
-0.5
 13
2.0
 23
-0.5
  0
LINE
  5
3FD
100
AcDbEntity
  8
0
 62
     0
370
    -2
100
AcDbLine
 10
0.0
 20
1.0
 30
0.0
 11
0.0
 21
-1.0
 31
0.0
  0
ENDBLK
  5
3FE
100
AcDbEntity
100
AcDbBlockEnd
  0
BLOCK
  5
3FF
100
AcDbEntity
  8
0
100
AcDbBlockBegin
  2
CDWK_EXTR_4
 70
     0
 10
0.0
 20
0.0
 30
0.0
  3
CDWK_EXTR_4
  1

  4
Cadwork line-extremity
  0
HATCH
  5
400
100
AcDbEntity
  8
0
 62
     0
370
    -2
100
AcDbHatch
 10
0.0
 20
0.0
 30
0.0
210
0.0
220
0.0
230
1.0
  2
SOLID
 70
     1
 71
     0
 91
        1
 92
        1
 93
        1
 72
     2
 10
0.0
 20
0.0
 40
0.5
 50
0.0
 51
360.0
 73
     1
 97
        0
 75
     0
 76
     1
 98
        1
 10
0.0
 20
0.0
  0
ENDBLK
  5
401
100
AcDbEntity
100
AcDbBlockEnd
  0
BLOCK
  5
402
100
AcDbEntity
  8
0
100
AcDbBlockBegin
  2
CDWK_PTTYP0
 70
     0
 10
0.0
 20
0.0
 30
0.0
  3
CDWK_PTTYP0
  1

  4
Cadwork point
  0
POINT
  5
403
100
AcDbEntity
  8
0
 62
     0
100
AcDbPoint
 10
0.0
 20
0.0
 30
0.0
  0
ENDBLK
  5
404
100
AcDbEntity
100
AcDbBlockEnd
  0
BLOCK
  5
405
100
AcDbEntity
  8
0
100
AcDbBlockBegin
  2
CDWK_PTTYP1
 70
     0
 10
0.0
 20
0.0
 30
0.0
  3
CDWK_PTTYP1
  1

  4
Cadwork node
  0
LINE
  5
406
100
AcDbEntity
  8
0
 62
     0
370
    -2
100
AcDbLine
 10
-0.5
 20
0.5
 30
0.0
 11
0.5
 21
0.5
 31
0.0
  0
LINE
  5
407
100
AcDbEntity
  8
0
 62
     0
370
    -2
100
AcDbLine
 10
0.5
 20
0.5
 30
0.0
 11
0.5
 21
-0.5
 31
0.0
  0
LINE
  5
408
100
AcDbEntity
  8
0
 62
     0
370
    -2
100
AcDbLine
 10
0.5
 20
-0.5
 30
0.0
 11
-0.5
 21
-0.5
 31
0.0
  0
LINE
  5
409
100
AcDbEntity
  8
0
 62
     0
370
    -2
100
AcDbLine
 10
-0.5
 20
-0.5
 30
0.0
 11
-0.5
 21
0.5
 31
0.0
  0
ENDBLK
  5
40A
100
AcDbEntity
100
AcDbBlockEnd
  0
BLOCK
  5
40B
100
AcDbEntity
  8
0
100
AcDbBlockBegin
  2
CDWK_PTTYP2
 70
     0
 10
0.0
 20
0.0
 30
0.0
  3
CDWK_PTTYP2
  1

  4
Cadwork node
  0
LINE
  5
40C
100
AcDbEntity
  8
0
 62
     0
370
    -2
100
AcDbLine
 10
0.0
 20
0.5
 30
0.0
 11
0.0
 21
-0.5
 31
0.0
  0
LINE
  5
40D
100
AcDbEntity
  8
0
 62
     0
370
    -2
100
AcDbLine
 10
-0.5
 20
0.0
 30
0.0
 11
0.5
 21
0.0
 31
0.0
  0
ENDBLK
  5
40E
100
AcDbEntity
100
AcDbBlockEnd
  0
BLOCK
  5
40F
100
AcDbEntity
  8
0
100
AcDbBlockBegin
  2
CDWK_PTTYP3
 70
     0
 10
0.0
 20
0.0
 30
0.0
  3
CDWK_PTTYP3
  1

  4
Cadwork node
  0
CIRCLE
  5
410
100
AcDbEntity
  8
0
 62
     0
370
    -2
100
AcDbCircle
 10
0.0
 20
0.0
 30
0.0
 40
0.5
  0
ENDBLK
  5
411
100
AcDbEntity
100
AcDbBlockEnd
  0
BLOCK
  5
412
100
AcDbEntity
  8
0
100
AcDbBlockBegin
  2
CDWK_PTTYP4
 70
     0
 10
0.0
 20
0.0
 30
0.0
  3
CDWK_PTTYP4
  1

  4
Cadwork node
  0
HATCH
  5
413
100
AcDbEntity
  8
0
 62
     0
370
    -2
100
AcDbHatch
 10
0.0
 20
0.0
 30
0.0
210
0.0
220
0.0
230
1.0
  2
SOLID
 70
     1
 71
     0
 91
        1
 92
        1
 93
        1
 72
     2
 10
0.0
 20
0.0
 40
0.5
 50
0.0
 51
360.0
 73
     1
 97
        0
 75
     0
 76
     1
 98
        1
 10
0.0
 20
0.0
  0
ENDBLK
  5
414
100
AcDbEntity
100
AcDbBlockEnd
  0
BLOCK
  5
415
100
AcDbEntity
  8
0
100
AcDbBlockBegin
  2
CDWK_PTTYP5
 70
     0
 10
0.0
 20
0.0
 30
0.0
  3
CDWK_PTTYP5
  1

  4
Cadwork node
  0
LINE
  5
416
100
AcDbEntity
  8
0
 62
     0
370
    -2
100
AcDbLine
 10
-0.5
 20
0.5
 30
0.0
 11
0.5
 21
0.5
 31
0.0
  0
LINE
  5
417
100
AcDbEntity
  8
0
 62
     0
370
    -2
100
AcDbLine
 10
0.5
 20
0.5
 30
0.0
 11
0.5
 21
-0.5
 31
0.0
  0
LINE
  5
418
100
AcDbEntity
  8
0
 62
     0
370
    -2
100
AcDbLine
 10
0.5
 20
-0.5
 30
0.0
 11
-0.5
 21
-0.5
 31
0.0
  0
LINE
  5
419
100
AcDbEntity
  8
0
 62
     0
370
    -2
100
AcDbLine
 10
-0.5
 20
-0.5
 30
0.0
 11
-0.5
 21
0.5
 31
0.0
  0
SOLID
  5
41A
100
AcDbEntity
  8
0
 62
     0
100
AcDbTrace
 10
-0.5
 20
-0.5
 11
-0.5
 21
0.0
 12
0.0
 22
-0.5
 13
0.0
 23
0.0
  0
SOLID
  5
41B
100
AcDbEntity
  8
0
 62
     0
100
AcDbTrace
 10
0.0
 20
0.0
 11
0.0
 21
0.5
 12
0.5
 22
0.0
 13
0.5
 23
0.5
  0
ENDBLK
  5
41C
100
AcDbEntity
100
AcDbBlockEnd
  0
BLOCK
  5
41D
100
AcDbEntity
  8
0
100
AcDbBlockBegin
  2
CDWK_PTTYP6
 70
     0
 10
0.0
 20
0.0
 30
0.0
  3
CDWK_PTTYP6
  1

  4
Cadwork node
  0
LINE
  5
41E
100
AcDbEntity
  8
0
 62
     0
370
    -2
100
AcDbLine
 10
-0.5
 20
0.5
 30
0.0
 11
0.5
 21
0.5
 31
0.0
  0
LINE
  5
41F
100
AcDbEntity
  8
0
 62
     0
370
    -2
100
AcDbLine
 10
0.5
 20
0.5
 30
0.0
 11
0.5
 21
-0.5
 31
0.0
  0
LINE
  5
420
100
AcDbEntity
  8
0
 62
     0
370
    -2
100
AcDbLine
 10
0.5
 20
-0.5
 30
0.0
 11
-0.5
 21
-0.5
 31
0.0
  0
LINE
  5
421
100
AcDbEntity
  8
0
 62
     0
370
    -2
100
AcDbLine
 10
-0.5
 20
-0.5
 30
0.0
 11
-0.5
 21
0.5
 31
0.0
  0
SOLID
  5
422
100
AcDbEntity
  8
0
 62
     0
100
AcDbTrace
 10
-0.5
 20
-0.5
 11
-0.5
 21
0.5
 12
0.5
 22
0.5
 13
0.5
 23
0.5
  0
ENDBLK
  5
423
100
AcDbEntity
100
AcDbBlockEnd
  0
BLOCK
  5
424
100
AcDbEntity
  8
0
100
AcDbBlockBegin
  2
CDWK_PTTYP7
 70
     0
 10
0.0
 20
0.0
 30
0.0
  3
CDWK_PTTYP7
  1

  4
Cadwork node
  0
LINE
  5
425
100
AcDbEntity
  8
0
 62
     0
370
    -2
100
AcDbLine
 10
-0.5
 20
0.5
 30
0.0
 11
0.5
 21
0.5
 31
0.0
  0
LINE
  5
426
100
AcDbEntity
  8
0
 62
     0
370
    -2
100
AcDbLine
 10
0.5
 20
0.5
 30
0.0
 11
0.5
 21
-0.5
 31
0.0
  0
LINE
  5
427
100
AcDbEntity
  8
0
 62
     0
370
    -2
100
AcDbLine
 10
0.5
 20
-0.5
 30
0.0
 11
-0.5
 21
-0.5
 31
0.0
  0
LINE
  5
428
100
AcDbEntity
  8
0
 62
     0
370
    -2
100
AcDbLine
 10
-0.5
 20
-0.5
 30
0.0
 11
-0.5
 21
0.5
 31
0.0
  0
LINE
  5
429
100
AcDbEntity
  8
0
 62
     0
370
    -2
100
AcDbLine
 10
0.0
 20
0.5
 30
0.0
 11
0.0
 21
-0.5
 31
0.0
  0
LINE
  5
42A
100
AcDbEntity
  8
0
 62
     0
370
    -2
100
AcDbLine
 10
-0.5
 20
0.0
 30
0.0
 11
0.5
 21
0.0
 31
0.0
  0
ENDBLK
  5
42B
100
AcDbEntity
100
AcDbBlockEnd
  0
BLOCK
  5
42C
100
AcDbEntity
  8
0
100
AcDbBlockBegin
  2
CDWK_PTTYP8
 70
     0
 10
0.0
 20
0.0
 30
0.0
  3
CDWK_PTTYP8
  1

  4
Cadwork node
  0
SOLID
  5
42D
100
AcDbEntity
  8
0
 62
     0
100
AcDbTrace
 10
-0.5
 20
0.5
 11
0.5
 21
0.5
 12
-0.5
 22
-0.5
 13
0.5
 23
-0.5
  0
ENDBLK
  5
42E
100
AcDbEntity
100
AcDbBlockEnd
  0
BLOCK
  5
42F
100
AcDbEntity
  8
0
100
AcDbBlockBegin
  2
CDWK_PTTYP9
 70
     0
 10
0.0
 20
0.0
 30
0.0
  3
CDWK_PTTYP9
  1

  4
Cadwork node
  0
CIRCLE
  5
430
100
AcDbEntity
  8
0
 62
     0
370
    -2
100
AcDbCircle
 10
0.0
 20
0.0
 30
0.0
 40
0.5
  0
CIRCLE
  5
431
100
AcDbEntity
  8
0
 62
     0
370
    -2
100
AcDbCircle
 10
0.0
 20
0.0
 30
0.0
 40
0.16666667
  0
ENDBLK
  5
432
100
AcDbEntity
100
AcDbBlockEnd
  0
BLOCK
  5
433
100
AcDbEntity
  8
0
100
AcDbBlockBegin
  2
CDWK_PTTYP10
 70
     0
 10
0.0
 20
0.0
 30
0.0
  3
CDWK_PTTYP10
  1

  4
Cadwork node
  0
CIRCLE
  5
434
100
AcDbEntity
  8
0
 62
     0
370
    -2
100
AcDbCircle
 10
0.0
 20
0.0
 30
0.0
 40
0.5
  0
ENDBLK
  5
435
100
AcDbEntity
100
AcDbBlockEnd
  0
BLOCK
  5
436
100
AcDbEntity
  8
0
100
AcDbBlockBegin
  2
CDWK_PTTYP11
 70
     0
 10
0.0
 20
0.0
 30
0.0
  3
CDWK_PTTYP11
  1

  4
Cadwork node
  0
CIRCLE
  5
437
100
AcDbEntity
  8
0
 62
     0
370
    -2
100
AcDbCircle
 10
0.0
 20
0.0
 30
0.0
 40
0.5
  0
CIRCLE
  5
438
100
AcDbEntity
  8
0
 62
     0
370
    -2
100
AcDbCircle
 10
0.0
 20
0.0
 30
0.0
 40
0.25
  0
ENDBLK
  5
439
100
AcDbEntity
100
AcDbBlockEnd
  0
BLOCK
  5
43A
100
AcDbEntity
  8
0
100
AcDbBlockBegin
  2
CDWK_PTTYP12
 70
     0
 10
0.0
 20
0.0
 30
0.0
  3
CDWK_PTTYP12
  1

  4
Cadwork node
  0
CIRCLE
  5
43B
100
AcDbEntity
  8
0
 62
     0
370
    -2
100
AcDbCircle
 10
0.0
 20
0.0
 30
0.0
 40
0.5
  0
CIRCLE
  5
43C
100
AcDbEntity
  8
0
 62
     0
370
    -2
100
AcDbCircle
 10
0.25
 20
0.0
 30
0.0
 40
0.25
  0
ENDBLK
  5
43D
100
AcDbEntity
100
AcDbBlockEnd
  0
BLOCK
  5
43E
100
AcDbEntity
  8
0
100
AcDbBlockBegin
  2
CDWK_PTTYP13
 70
     0
 10
0.0
 20
0.0
 30
0.0
  3
CDWK_PTTYP13
  1

  4
Cadwork node
  0
CIRCLE
  5
43F
100
AcDbEntity
  8
0
 62
     0
370
    -2
100
AcDbCircle
 10
0.0
 20
0.0
 30
0.0
 40
0.5
  0
CIRCLE
  5
440
100
AcDbEntity
  8
0
 62
     0
370
    -2
100
AcDbCircle
 10
0.25
 20
0.0
 30
0.0
 40
0.25
  0
CIRCLE
  5
441
100
AcDbEntity
  8
0
 62
     0
370
    -2
100
AcDbCircle
 10
-0.25
 20
0.0
 30
0.0
 40
0.25
  0
ENDBLK
  5
442
100
AcDbEntity
100
AcDbBlockEnd
  0
BLOCK
  5
443
100
AcDbEntity
  8
0
100
AcDbBlockBegin
  2
CDWK_PTTYP14
 70
     0
 10
0.0
 20
0.0
 30
0.0
  3
CDWK_PTTYP14
  1

  4
Cadwork node
  0
POINT
  5
444
100
AcDbEntity
  8
0
 62
     0
100
AcDbPoint
 10
0.0
 20
0.0
 30
0.0
  0
ENDBLK
  5
445
100
AcDbEntity
100
AcDbBlockEnd
  0
BLOCK
  5
446
100
AcDbEntity
  8
0
100
AcDbBlockBegin
  2
CDWK_PTTYP15
 70
     0
 10
0.0
 20
0.0
 30
0.0
  3
CDWK_PTTYP15
  1

  4
Cadwork node
  0
POINT
  5
447
100
AcDbEntity
  8
0
 62
     0
100
AcDbPoint
 10
0.0
 20
0.0
 30
0.0
  0
ENDBLK
  5
448
100
AcDbEntity
100
AcDbBlockEnd
  0
BLOCK
  5
449
100
AcDbEntity
  8
0
100
AcDbBlockBegin
  2
CDWK_PTTYP16
 70
     0
 10
0.0
 20
0.0
 30
0.0
  3
CDWK_PTTYP16
  1

  4
Cadwork node
  0
LINE
  5
44A
100
AcDbEntity
  8
0
 62
     0
370
    -2
100
AcDbLine
 10
-0.5
 20
-0.28867513
 30
0.0
 11
0.5
 21
-0.28867513
 31
0.0
  0
LINE
  5
44B
100
AcDbEntity
  8
0
 62
     0
370
    -2
100
AcDbLine
 10
0.5
 20
-0.28867513
 30
0.0
 11
0.0
 21
0.57735027
 31
0.0
  0
LINE
  5
44C
100
AcDbEntity
  8
0
 62
     0
370
    -2
100
AcDbLine
 10
0.0
 20
0.57735027
 30
0.0
 11
-0.5
 21
-0.28867513
 31
0.0
  0
CIRCLE
  5
44D
100
AcDbEntity
  8
0
 62
     0
370
    -2
100
AcDbCircle
 10
0.0
 20
0.0
 30
0.0
 40
0.28867513
  0
ENDBLK
  5
44E
100
AcDbEntity
100
AcDbBlockEnd
  0
BLOCK
  5
44F
100
AcDbEntity
  8
0
100
AcDbBlockBegin
  2
CDWK_PTTYP17
 70
     0
 10
0.0
 20
0.0
 30
0.0
  3
CDWK_PTTYP17
  1

  4
Cadwork node
  0
CIRCLE
  5
450
100
AcDbEntity
  8
0
 62
     0
370
    -2
100
AcDbCircle
 10
0.0
 20
0.0
 30
0.0
 40
0.5
  0
HATCH
  5
451
100
AcDbEntity
  8
0
 62
     0
370
    -2
100
AcDbHatch
 10
0.0
 20
0.0
 30
0.0
210
0.0
220
0.0
230
1.0
  2
SOLID
 70
     1
 71
     0
 91
        1
 92
        1
 93
        1
 72
     2
 10
0.0
 20
0.0
 40
0.25
 50
0.0
 51
360.0
 73
     1
 97
        0
 75
     0
 76
     1
 98
        1
 10
0.0
 20
0.0
  0
ENDBLK
  5
452
100
AcDbEntity
100
AcDbBlockEnd
  0
BLOCK
  5
453
100
AcDbEntity
  8
0
100
AcDbBlockBegin
  2
CDWK_PTTYP18
 70
     0
 10
0.0
 20
0.0
 30
0.0
  3
CDWK_PTTYP18
  1

  4
Cadwork node
  0
CIRCLE
  5
454
100
AcDbEntity
  8
0
 62
     0
370
    -2
100
AcDbCircle
 10
0.0
 20
0.0
 30
0.0
 40
0.5
  0
CIRCLE
  5
455
100
AcDbEntity
  8
0
 62
     0
370
    -2
100
AcDbCircle
 10
0.0
 20
0.0
 30
0.0
 40
0.2
  0
ENDBLK
  5
456
100
AcDbEntity
100
AcDbBlockEnd
  0
BLOCK
  5
457
100
AcDbEntity
  8
0
100
AcDbBlockBegin
  2
CDWK_PTTYP19
 70
     0
 10
0.0
 20
0.0
 30
0.0
  3
CDWK_PTTYP19
  1

  4
Cadwork node
  0
CIRCLE
  5
458
100
AcDbEntity
  8
0
 62
     0
370
    -2
100
AcDbCircle
 10
0.0
 20
0.0
 30
0.0
 40
0.4
  0
CIRCLE
  5
459
100
AcDbEntity
  8
0
 62
     0
370
    -2
100
AcDbCircle
 10
0.0
 20
0.0
 30
0.0
 40
0.25
  0
LINE
  5
45A
100
AcDbEntity
  8
0
 62
     0
370
    -2
100
AcDbLine
 10
-0.25
 20
0.0
 30
0.0
 11
0.25
 21
0.0
 31
0.0
  0
ENDBLK
  5
45B
100
AcDbEntity
100
AcDbBlockEnd
  0
BLOCK
  5
45C
100
AcDbEntity
  8
0
100
AcDbBlockBegin
  2
CDWK_PTTYP20
 70
     0
 10
0.0
 20
0.0
 30
0.0
  3
CDWK_PTTYP20
  1

  4
Cadwork node
  0
CIRCLE
  5
45D
100
AcDbEntity
  8
0
 62
     0
370
    -2
100
AcDbCircle
 10
0.0
 20
0.0
 30
0.0
 40
0.5
  0
CIRCLE
  5
45E
100
AcDbEntity
  8
0
 62
     0
370
    -2
100
AcDbCircle
 10
0.0
 20
0.0
 30
0.0
 40
0.3
  0
ENDBLK
  5
45F
100
AcDbEntity
100
AcDbBlockEnd
  0
BLOCK
  5
460
100
AcDbEntity
  8
0
100
AcDbBlockBegin
  2
CDWK_PTTYP21
 70
     0
 10
0.0
 20
0.0
 30
0.0
  3
CDWK_PTTYP21
  1

  4
Cadwork node
  0
CIRCLE
  5
461
100
AcDbEntity
  8
0
 62
     0
370
    -2
100
AcDbCircle
 10
0.0
 20
0.0
 30
0.0
 40
0.5
  0
LINE
  5
462
100
AcDbEntity
  8
0
 62
     0
370
    -2
100
AcDbLine
 10
-0.5
 20
0.0
 30
0.0
 11
0.5
 21
0.0
 31
0.0
  0
ENDBLK
  5
463
100
AcDbEntity
100
AcDbBlockEnd
  0
BLOCK
  5
464
100
AcDbEntity
  8
0
100
AcDbBlockBegin
  2
CDWK_PTTYP22
 70
     0
 10
0.0
 20
0.0
 30
0.0
  3
CDWK_PTTYP22
  1

  4
Cadwork node
  0
POINT
  5
465
100
AcDbEntity
  8
0
 62
     0
100
AcDbPoint
 10
0.0
 20
0.0
 30
0.0
  0
ENDBLK
  5
466
100
AcDbEntity
100
AcDbBlockEnd
  0
BLOCK
  5
467
100
AcDbEntity
  8
0
100
AcDbBlockBegin
  2
CDWK_PTTYP23
 70
     0
 10
0.0
 20
0.0
 30
0.0
  3
CDWK_PTTYP23
  1

  4
Cadwork node
  0
POINT
  5
468
100
AcDbEntity
  8
0
 62
     0
100
AcDbPoint
 10
0.0
 20
0.0
 30
0.0
  0
ENDBLK
  5
469
100
AcDbEntity
100
AcDbBlockEnd
  0
BLOCK
  5
46A
100
AcDbEntity
  8
0
100
AcDbBlockBegin
  2
CDWK_PTTYP24
 70
     0
 10
0.0
 20
0.0
 30
0.0
  3
CDWK_PTTYP24
  1

  4
Cadwork node
  0
POINT
  5
46B
100
AcDbEntity
  8
0
 62
     0
100
AcDbPoint
 10
0.0
 20
0.0
 30
0.0
  0
ENDBLK
  5
46C
100
AcDbEntity
100
AcDbBlockEnd
  0
BLOCK
  5
46D
100
AcDbEntity
  8
0
100
AcDbBlockBegin
  2
CDWK_PTTYP25
 70
     0
 10
0.0
 20
0.0
 30
0.0
  3
CDWK_PTTYP25
  1

  4
Cadwork node
  0
LINE
  5
46E
100
AcDbEntity
  8
0
 62
     0
370
    -2
100
AcDbLine
 10
-0.43290044
 20
-0.25
 30
0.0
 11
0.43290044
 21
-0.25
 31
0.0
  0
LINE
  5
46F
100
AcDbEntity
  8
0
 62
     0
370
    -2
100
AcDbLine
 10
-0.43290044
 20
-0.25
 30
0.0
 11
0.0
 21
0.5
 31
0.0
  0
LINE
  5
470
100
AcDbEntity
  8
0
 62
     0
370
    -2
100
AcDbLine
 10
0.43290044
 20
-0.25
 30
0.0
 11
0.0
 21
0.5
 31
0.0
  0
CIRCLE
  5
471
100
AcDbEntity
  8
0
 62
     0
370
    -2
100
AcDbCircle
 10
0.0
 20
0.0
 30
0.0
 40
0.5
  0
ENDBLK
  5
472
100
AcDbEntity
100
AcDbBlockEnd
  0
BLOCK
  5
473
100
AcDbEntity
  8
0
100
AcDbBlockBegin
  2
CDWK_PTTYP26
 70
     0
 10
0.0
 20
0.0
 30
0.0
  3
CDWK_PTTYP26
  1

  4
Cadwork node
  0
LINE
  5
474
100
AcDbEntity
  8
0
 62
     0
370
    -2
100
AcDbLine
 10
-0.5
 20
-0.28850001
 30
0.0
 11
0.5
 21
-0.28850001
 31
0.0
  0
LINE
  5
475
100
AcDbEntity
  8
0
 62
     0
370
    -2
100
AcDbLine
 10
-0.5
 20
-0.28850001
 30
0.0
 11
0.0
 21
0.57736721
 31
0.0
  0
LINE
  5
476
100
AcDbEntity
  8
0
 62
     0
370
    -2
100
AcDbLine
 10
0.5
 20
-0.28850001
 30
0.0
 11
0.0
 21
0.57736721
 31
0.0
  0
CIRCLE
  5
477
100
AcDbEntity
  8
0
 62
     0
370
    -2
100
AcDbCircle
 10
0.0
 20
0.0
 30
0.0
 40
0.1312336
  0
ENDBLK
  5
478
100
AcDbEntity
100
AcDbBlockEnd
  0
BLOCK
  5
479
100
AcDbEntity
  8
0
100
AcDbBlockBegin
  2
CDWK_PTTYP27
 70
     0
 10
0.0
 20
0.0
 30
0.0
  3
CDWK_PTTYP27
  1

  4
Cadwork node
  0
LINE
  5
47A
100
AcDbEntity
  8
0
 62
     0
370
    -2
100
AcDbLine
 10
-0.43290044
 20
-0.25
 30
0.0
 11
0.43290044
 21
-0.25
 31
0.0
  0
LINE
  5
47B
100
AcDbEntity
  8
0
 62
     0
370
    -2
100
AcDbLine
 10
-0.43290044
 20
-0.25
 30
0.0
 11
0.0
 21
0.5
 31
0.0
  0
LINE
  5
47C
100
AcDbEntity
  8
0
 62
     0
370
    -2
100
AcDbLine
 10
0.43290044
 20
-0.25
 30
0.0
 11
0.0
 21
0.5
 31
0.0
  0
CIRCLE
  5
47D
100
AcDbEntity
  8
0
 62
     0
370
    -2
100
AcDbCircle
 10
0.0
 20
0.0
 30
0.0
 40
0.5
  0
CIRCLE
  5
47E
100
AcDbEntity
  8
0
 62
     0
370
    -2
100
AcDbCircle
 10
0.0
 20
0.0
 30
0.0
 40
0.1312336
  0
ENDBLK
  5
47F
100
AcDbEntity
100
AcDbBlockEnd
  0
BLOCK
  5
480
100
AcDbEntity
  8
0
100
AcDbBlockBegin
  2
CDWK_PTTYP28
 70
     0
 10
0.0
 20
0.0
 30
0.0
  3
CDWK_PTTYP28
  1

  4
Cadwork node
  0
POINT
  5
481
100
AcDbEntity
  8
0
 62
     0
100
AcDbPoint
 10
0.0
 20
0.0
 30
0.0
  0
ENDBLK
  5
482
100
AcDbEntity
100
AcDbBlockEnd
  0
BLOCK
  5
483
100
AcDbEntity
  8
0
100
AcDbBlockBegin
  2
CDWK_PTTYP29
 70
     0
 10
0.0
 20
0.0
 30
0.0
  3
CDWK_PTTYP29
  1

  4
Cadwork node
  0
CIRCLE
  5
484
100
AcDbEntity
  8
0
 62
     0
370
    -2
100
AcDbCircle
 10
0.0
 20
0.0
 30
0.0
 40
0.5
  0
CIRCLE
  5
485
100
AcDbEntity
  8
0
 62
     0
370
    -2
100
AcDbCircle
 10
0.0
 20
0.0
 30
0.0
 40
0.375
  0
CIRCLE
  5
486
100
AcDbEntity
  8
0
 62
     0
370
    -2
100
AcDbCircle
 10
0.0
 20
0.0
 30
0.0
 40
0.21875
  0
ENDBLK
  5
487
100
AcDbEntity
100
AcDbBlockEnd
  0
BLOCK
  5
488
100
AcDbEntity
  8
0
100
AcDbBlockBegin
  2
CDWK_PTTYP30
 70
     0
 10
0.0
 20
0.0
 30
0.0
  3
CDWK_PTTYP30
  1

  4
Cadwork node
  0
LINE
  5
489
100
AcDbEntity
  8
0
 62
     0
370
    -2
100
AcDbLine
 10
0.17680339
 20
0.17680339
 30
0.0
 11
0.5
 21
0.5
 31
0.0
  0
LINE
  5
48A
100
AcDbEntity
  8
0
 62
     0
370
    -2
100
AcDbLine
 10
-0.17680339
 20
0.17680339
 30
0.0
 11
-0.5
 21
0.5
 31
0.0
  0
LINE
  5
48B
100
AcDbEntity
  8
0
 62
     0
370
    -2
100
AcDbLine
 10
0.17680339
 20
-0.17680339
 30
0.0
 11
0.5
 21
-0.5
 31
0.0
  0
LINE
  5
48C
100
AcDbEntity
  8
0
 62
     0
370
    -2
100
AcDbLine
 10
-0.17680339
 20
-0.17680339
 30
0.0
 11
-0.5
 21
-0.5
 31
0.0
  0
ENDBLK
  5
48D
100
AcDbEntity
100
AcDbBlockEnd
  0
BLOCK
  5
48E
100
AcDbEntity
  8
0
100
AcDbBlockBegin
  2
CDWK_PTTYP31
 70
     0
 10
0.0
 20
0.0
 30
0.0
  3
CDWK_PTTYP31
  1

  4
Cadwork node
  0
CIRCLE
  5
48F
100
AcDbEntity
  8
0
 62
     0
370
    -2
100
AcDbCircle
 10
0.0
 20
0.0
 30
0.0
 40
0.075
  0
LINE
  5
490
100
AcDbEntity
  8
0
 62
     0
370
    -2
100
AcDbLine
 10
0.075
 20
0.0
 30
0.0
 11
0.5
 21
0.0
 31
0.0
  0
LINE
  5
491
100
AcDbEntity
  8
0
 62
     0
370
    -2
100
AcDbLine
 10
-0.075
 20
0.0
 30
0.0
 11
-0.5
 21
0.0
 31
0.0
  0
LINE
  5
492
100
AcDbEntity
  8
0
 62
     0
370
    -2
100
AcDbLine
 10
0.0
 20
0.075
 30
0.0
 11
0.0
 21
0.5
 31
0.0
  0
LINE
  5
493
100
AcDbEntity
  8
0
 62
     0
370
    -2
100
AcDbLine
 10
0.0
 20
-0.075
 30
0.0
 11
0.0
 21
-0.5
 31
0.0
  0
ENDBLK
  5
494
100
AcDbEntity
100
AcDbBlockEnd
  0
BLOCK
  5
495
100
AcDbEntity
  8
0
100
AcDbBlockBegin
  2
CDWK_PTTYP32
 70
     0
 10
0.0
 20
0.0
 30
0.0
  3
CDWK_PTTYP32
  1

  4
Cadwork node
  0
CIRCLE
  5
496
100
AcDbEntity
  8
0
 62
     0
370
    -2
100
AcDbCircle
 10
0.0
 20
0.0
 30
0.0
 40
0.5
  0
CIRCLE
  5
497
100
AcDbEntity
  8
0
 62
     0
370
    -2
100
AcDbCircle
 10
0.0
 20
0.0
 30
0.0
 40
0.16666667
  0
LINE
  5
498
100
AcDbEntity
  8
0
 62
     0
370
    -2
100
AcDbLine
 10
0.11786893
 20
0.11786893
 30
0.0
 11
0.35360678
 21
0.35360678
 31
0.0
  0
LINE
  5
499
100
AcDbEntity
  8
0
 62
     0
370
    -2
100
AcDbLine
 10
-0.11786893
 20
0.11786893
 30
0.0
 11
-0.35360678
 21
0.35360678
 31
0.0
  0
LINE
  5
49A
100
AcDbEntity
  8
0
 62
     0
370
    -2
100
AcDbLine
 10
0.11786893
 20
-0.11786893
 30
0.0
 11
0.35360678
 21
-0.35360678
 31
0.0
  0
LINE
  5
49B
100
AcDbEntity
  8
0
 62
     0
370
    -2
100
AcDbLine
 10
-0.11786893
 20
-0.11786893
 30
0.0
 11
-0.35360678
 21
-0.35360678
 31
0.0
  0
ENDBLK
  5
49C
100
AcDbEntity
100
AcDbBlockEnd
  0
BLOCK
  5
49D
100
AcDbEntity
  8
0
100
AcDbBlockBegin
  2
CDWK_PTTYP33
 70
     0
 10
0.0
 20
0.0
 30
0.0
  3
CDWK_PTTYP33
  1

  4
Cadwork node
  0
CIRCLE
  5
49E
100
AcDbEntity
  8
0
 62
     0
370
    -2
100
AcDbCircle
 10
0.0
 20
0.0
 30
0.0
 40
0.5
  0
LINE
  5
49F
100
AcDbEntity
  8
0
 62
     0
370
    -2
100
AcDbLine
 10
0.0
 20
0.5
 30
0.0
 11
0.0
 21
-0.5
 31
0.0
  0
LINE
  5
4A0
100
AcDbEntity
  8
0
 62
     0
370
    -2
100
AcDbLine
 10
-0.5
 20
0.0
 30
0.0
 11
0.5
 21
0.0
 31
0.0
  0
ENDBLK
  5
4A1
100
AcDbEntity
100
AcDbBlockEnd
  0
BLOCK
  5
4A2
100
AcDbEntity
  8
0
100
AcDbBlockBegin
  2
CDWK_PTTYP34
 70
     0
 10
0.0
 20
0.0
 30
0.0
  3
CDWK_PTTYP34
  1

  4
Cadwork node
  0
CIRCLE
  5
4A3
100
AcDbEntity
  8
0
 62
     0
370
    -2
100
AcDbCircle
 10
0.0
 20
0.0
 30
0.0
 40
0.5
  0
LINE
  5
4A4
100
AcDbEntity
  8
0
 62
     0
370
    -2
100
AcDbLine
 10
-0.30360678
 20
-0.40360678
 30
0.0
 11
0.40360678
 21
0.30360678
 31
0.0
  0
LINE
  5
4A5
100
AcDbEntity
  8
0
 62
     0
370
    -2
100
AcDbLine
 10
-0.40360678
 20
-0.30360678
 30
0.0
 11
0.30360678
 21
0.40360678
 31
0.0
  0
ENDBLK
  5
4A6
100
AcDbEntity
100
AcDbBlockEnd
  0
BLOCK
  5
4A7
100
AcDbEntity
  8
0
100
AcDbBlockBegin
  2
CDWK_PTTYP35
 70
     0
 10
0.0
 20
0.0
 30
0.0
  3
CDWK_PTTYP35
  1

  4
Cadwork node
  0
CIRCLE
  5
4A8
100
AcDbEntity
  8
0
 62
     0
370
    -2
100
AcDbCircle
 10
0.0
 20
0.0
 30
0.0
 40
0.21431634
  0
LINE
  5
4A9
100
AcDbEntity
  8
0
 62
     0
370
    -2
100
AcDbLine
 10
0.0
 20
0.21431634
 30
0.0
 11
0.0
 21
0.5
 31
0.0
  0
LINE
  5
4AA
100
AcDbEntity
  8
0
 62
     0
370
    -2
100
AcDbLine
 10
0.0
 20
-0.21431634
 30
0.0
 11
0.0
 21
-0.5
 31
0.0
  0
ENDBLK
  5
4AB
100
AcDbEntity
100
AcDbBlockEnd
  0
BLOCK
  5
4AC
100
AcDbEntity
  8
0
100
AcDbBlockBegin
  2
CDWK_PTTYP36
 70
     0
 10
0.0
 20
0.0
 30
0.0
  3
CDWK_PTTYP36
  1

  4
Cadwork node
  0
LINE
  5
4AD
100
AcDbEntity
  8
0
 62
     0
370
    -2
100
AcDbLine
 10
-0.5
 20
-0.16666667
 30
0.0
 11
0.5
 21
-0.16666667
 31
0.0
  0
LINE
  5
4AE
100
AcDbEntity
  8
0
 62
     0
370
    -2
100
AcDbLine
 10
0.5
 20
-0.16666667
 30
0.0
 11
0.5
 21
0.16666667
 31
0.0
  0
LINE
  5
4AF
100
AcDbEntity
  8
0
 62
     0
370
    -2
100
AcDbLine
 10
0.5
 20
0.16666667
 30
0.0
 11
-0.5
 21
0.16666667
 31
0.0
  0
LINE
  5
4B0
100
AcDbEntity
  8
0
 62
     0
370
    -2
100
AcDbLine
 10
-0.5
 20
0.16666667
 30
0.0
 11
-0.5
 21
-0.16666667
 31
0.0
  0
SOLID
  5
4B1
100
AcDbEntity
  8
0
 62
     0
100
AcDbTrace
 10
-0.5
 20
-0.16666667
 11
0.5
 21
0.16666667
 12
0.5
 22
-0.16666667
 13
0.5
 23
-0.16666667
  0
ENDBLK
  5
4B2
100
AcDbEntity
100
AcDbBlockEnd
  0
BLOCK
  5
4B3
100
AcDbEntity
  8
0
100
AcDbBlockBegin
  2
CDWK_PTTYP37
 70
     0
 10
0.0
 20
0.0
 30
0.0
  3
CDWK_PTTYP37
  1

  4
Cadwork node
  0
CIRCLE
  5
4B4
100
AcDbEntity
  8
0
 62
     0
370
    -2
100
AcDbCircle
 10
0.0
 20
0.0
 30
0.0
 40
0.5
  0
SOLID
  5
4B5
100
AcDbEntity
  8
0
 62
     0
100
AcDbTrace
 10
0.0
 20
0.0
 11
0.35350001
 21
0.35350001
 12
0.5
 22
0.0
 13
0.46200001
 23
0.19149999
  0
SOLID
  5
4B6
100
AcDbEntity
  8
0
 62
     0
100
AcDbTrace
 10
0.0
 20
0.0
 11
0.35350001
 21
-0.35350001
 12
0.5
 22
0.0
 13
0.46200001
 23
-0.19149999
  0
SOLID
  5
4B7
100
AcDbEntity
  8
0
 62
     0
100
AcDbTrace
 10
0.0
 20
0.0
 11
0.0
 21
-0.5
 12
0.35350001
 22
-0.35350001
 13
0.19149999
 23
-0.46200001
  0
SOLID
  5
4B8
100
AcDbEntity
  8
0
 62
     0
100
AcDbTrace
 10
0.0
 20
0.0
 11
0.0
 21
-0.5
 12
-0.35350001
 22
-0.35350001
 13
-0.19149999
 23
-0.46200001
  0
ENDBLK
  5
4B9
100
AcDbEntity
100
AcDbBlockEnd
  0
BLOCK
  5
4BA
100
AcDbEntity
  8
0
100
AcDbBlockBegin
  2
CDWK_PTTYP38
 70
     0
 10
0.0
 20
0.0
 30
0.0
  3
CDWK_PTTYP38
  1

  4
Cadwork node
  0
CIRCLE
  5
4BB
100
AcDbEntity
  8
0
 62
     0
370
    -2
100
AcDbCircle
 10
0.0
 20
0.0
 30
0.0
 40
0.5
  0
SOLID
  5
4BC
100
AcDbEntity
  8
0
 62
     0
100
AcDbTrace
 10
0.0
 20
0.0
 11
0.35350001
 21
0.35350001
 12
0.0
 22
0.5
 13
0.19149999
 23
0.46200001
  0
SOLID
  5
4BD
100
AcDbEntity
  8
0
 62
     0
100
AcDbTrace
 10
0.0
 20
0.0
 11
0.5
 21
0.0
 12
0.35350001
 22
0.35350001
 13
0.46200001
 23
0.19149999
  0
SOLID
  5
4BE
100
AcDbEntity
  8
0
 62
     0
100
AcDbTrace
 10
0.0
 20
0.0
 11
0.0
 21
-0.5
 12
-0.35350001
 22
-0.35350001
 13
-0.19149999
 23
-0.46200001
  0
SOLID
  5
4BF
100
AcDbEntity
  8
0
 62
     0
100
AcDbTrace
 10
0.0
 20
0.0
 11
-0.5
 21
0.0
 12
-0.35350001
 22
-0.35350001
 13
-0.46200001
 23
-0.19149999
  0
ENDBLK
  5
4C0
100
AcDbEntity
100
AcDbBlockEnd
  0
BLOCK
  5
4C1
100
AcDbEntity
  8
Ech.1_10
100
AcDbBlockBegin
  2
*X1
 70
     1
 10
0.0
 20
0.0
 30
0.0
  3
*X1
  1

  4
Cadwork hatch
  0
LINE
  5
4C2
100
AcDbEntity
  8
Ech.1_10
 62
   190
  6
CONTINUOUS
370
    -2
100
AcDbLine
 10
68501.56795742
 20
-59537.87421776
 30
0.0
 11
68546.57022779
 21
-59317.87418459
 31
0.0
  0
LINE
  5
4C3
100
AcDbEntity
  8
Ech.1_10
 62
   190
  6
CONTINUOUS
370
    -2
100
AcDbLine
 10
68546.57022779
 20
-59537.87421776
 30
0.0
 11
68501.56795742
 21
-59317.87418459
 31
0.0
  0
ENDBLK
  5
4C4
100
AcDbEntity
100
AcDbBlockEnd
  0
BLOCK
  5
4C5
100
AcDbEntity
  8
Ech.1_10
100
AcDbBlockBegin
  2
*X2
 70
     1
 10
0.0
 20
0.0
 30
0.0
  3
*X2
  1

  4
Cadwork hatch
  0
LINE
  5
4C6
100
AcDbEntity
  8
Ech.1_10
 62
   190
  6
CONTINUOUS
370
    -2
100
AcDbLine
 10
68501.56795742
 20
-58873.87427056
 30
0.0
 11
68356.56772429
 21
-58828.87377082
 31
0.0
  0
LINE
  5
4C7
100
AcDbEntity
  8
Ech.1_10
 62
   190
  6
CONTINUOUS
370
    -2
100
AcDbLine
 10
68501.56795742
 20
-58828.87377082
 30
0.0
 11
68356.56772429
 21
-58873.87427056
 31
0.0
  0
ENDBLK
  5
4C8
100
AcDbEntity
100
AcDbBlockEnd
  0
BLOCK
  5
4C9
100
AcDbEntity
  8
Ech.1_10
100
AcDbBlockBegin
  2
*X3
 70
     1
 10
0.0
 20
0.0
 30
0.0
  3
*X3
  1

  4
Cadwork hatch
  0
LINE
  5
4CA
100
AcDbEntity
  8
Ech.1_10
 62
   190
  6
CONTINUOUS
370
    -2
100
AcDbLine
 10
68501.56795742
 20
-58998.8739373
 30
0.0
 11
68356.56772429
 21
-58953.87432287
 31
0.0
  0
LINE
  5
4CB
100
AcDbEntity
  8
Ech.1_10
 62
   190
  6
CONTINUOUS
370
    -2
100
AcDbLine
 10
68501.56795742
 20
-58953.87432287
 30
0.0
 11
68356.56772429
 21
-58998.8739373
 31
0.0
  0
ENDBLK
  5
4CC
100
AcDbEntity
100
AcDbBlockEnd
  0
BLOCK
  5
4CD
100
AcDbEntity
  8
Ech.1_10
100
AcDbBlockBegin
  2
*X4
 70
     1
 10
0.0
 20
0.0
 30
0.0
  3
*X4
  1

  4
Cadwork hatch
  0
LINE
  5
4CE
100
AcDbEntity
  8
Ech.1_10
 62
   190
  6
CONTINUOUS
370
    -2
100
AcDbLine
 10
69543.07942535
 20
-59537.87421776
 30
0.0
 11
69498.08423749
 21
-59317.87418459
 31
0.0
  0
LINE
  5
4CF
100
AcDbEntity
  8
Ech.1_10
 62
   190
  6
CONTINUOUS
370
    -2
100
AcDbLine
 10
69498.08423749
 20
-59537.87421776
 30
0.0
 11
69543.07942535
 21
-59317.87418459
 31
0.0
  0
ENDBLK
  5
4D0
100
AcDbEntity
100
AcDbBlockEnd
  0
BLOCK
  5
4D1
100
AcDbEntity
  8
Ech.1_10
100
AcDbBlockBegin
  2
*X5
 70
     1
 10
0.0
 20
0.0
 30
0.0
  3
*X5
  1

  4
Cadwork hatch
  0
LINE
  5
4D2
100
AcDbEntity
  8
Ech.1_10
 62
   190
  6
CONTINUOUS
370
    -2
100
AcDbLine
 10
69447.0830809
 20
-58873.87427056
 30
0.0
 11
69542.0807914
 21
-58828.87377082
 31
0.0
  0
LINE
  5
4D3
100
AcDbEntity
  8
Ech.1_10
 62
   190
  6
CONTINUOUS
370
    -2
100
AcDbLine
 10
69447.0830809
 20
-58828.87377082
 30
0.0
 11
69542.0807914
 21
-58873.87427056
 31
0.0
  0
ENDBLK
  5
4D4
100
AcDbEntity
100
AcDbBlockEnd
  0
BLOCK
  5
4D5
100
AcDbEntity
  8
Ech.1_10
100
AcDbBlockBegin
  2
*X6
 70
     1
 10
0.0
 20
0.0
 30
0.0
  3
*X6
  1

  4
Cadwork hatch
  0
LINE
  5
4D6
100
AcDbEntity
  8
Ech.1_10
 62
   190
  6
CONTINUOUS
370
    -2
100
AcDbLine
 10
69447.0830809
 20
-58998.8739373
 30
0.0
 11
69542.0807914
 21
-58953.87432287
 31
0.0
  0
LINE
  5
4D7
100
AcDbEntity
  8
Ech.1_10
 62
   190
  6
CONTINUOUS
370
    -2
100
AcDbLine
 10
69447.0830809
 20
-58953.87432287
 30
0.0
 11
69542.0807914
 21
-58998.8739373
 31
0.0
  0
ENDBLK
  5
4D8
100
AcDbEntity
100
AcDbBlockEnd
  0
BLOCK
  5
4D9
100
AcDbEntity
  8
Ech.1_10
100
AcDbBlockBegin
  2
*X7
 70
     1
 10
0.0
 20
0.0
 30
0.0
  3
*X7
  1

  4
Cadwork hatch
  0
LINE
  5
4DA
100
AcDbEntity
  8
Ech.1_10
 62
   190
  6
CONTINUOUS
370
    -2
100
AcDbLine
 10
69498.08423749
 20
-59537.87421776
 30
0.0
 11
69453.08196712
 21
-59317.87418459
 31
0.0
  0
LINE
  5
4DB
100
AcDbEntity
  8
Ech.1_10
 62
   190
  6
CONTINUOUS
370
    -2
100
AcDbLine
 10
69453.08196712
 20
-59537.87421776
 30
0.0
 11
69498.08423749
 21
-59317.87418459
 31
0.0
  0
ENDBLK
  5
4DC
100
AcDbEntity
100
AcDbBlockEnd
  0
BLOCK
  5
4DD
100
AcDbEntity
  8
Ech.1_10
100
AcDbBlockBegin
  2
*X8
 70
     1
 10
0.0
 20
0.0
 30
0.0
  3
*X8
  1

  4
Cadwork hatch
  0
LINE
  5
4DE
100
AcDbEntity
  8
Ech.1_10
 62
   190
  6
CONTINUOUS
370
    -2
100
AcDbLine
 10
69447.0830809
 20
-59298.87446543
 30
0.0
 11
69542.0807914
 21
-59253.87396569
 31
0.0
  0
LINE
  5
4DF
100
AcDbEntity
  8
Ech.1_10
 62
   190
  6
CONTINUOUS
370
    -2
100
AcDbLine
 10
69447.0830809
 20
-59253.87396569
 30
0.0
 11
69542.0807914
 21
-59298.87446543
 31
0.0
  0
ENDBLK
  5
4E0
100
AcDbEntity
100
AcDbBlockEnd
  0
BLOCK
  5
4E1
100
AcDbEntity
  8
Ech.1_10
100
AcDbBlockBegin
  2
*X9
 70
     1
 10
0.0
 20
0.0
 30
0.0
  3
*X9
  1

  4
Cadwork hatch
  0
LINE
  5
4E2
100
AcDbEntity
  8
Ech.1_10
 62
   190
  6
CONTINUOUS
370
    -2
100
AcDbLine
 10
68501.56795742
 20
-60139.48698777
 30
0.0
 11
68356.56772429
 21
-60094.48648803
 31
0.0
  0
LINE
  5
4E3
100
AcDbEntity
  8
Ech.1_10
 62
   190
  6
CONTINUOUS
370
    -2
100
AcDbLine
 10
68501.56795742
 20
-60094.48648803
 30
0.0
 11
68356.56772429
 21
-60139.48698777
 31
0.0
  0
ENDBLK
  5
4E4
100
AcDbEntity
100
AcDbBlockEnd
  0
BLOCK
  5
4E5
100
AcDbEntity
  8
Ech.1_10
100
AcDbBlockBegin
  2
*X10
 70
     1
 10
0.0
 20
0.0
 30
0.0
  3
*X10
  1

  4
Cadwork hatch
  0
LINE
  5
4E6
100
AcDbEntity
  8
Ech.1_10
 62
   190
  6
CONTINUOUS
370
    -2
100
AcDbLine
 10
68501.56795742
 20
-60313.48700194
 30
0.0
 11
68356.56772429
 21
-60243.48656885
 31
0.0
  0
LINE
  5
4E7
100
AcDbEntity
  8
Ech.1_10
 62
   190
  6
CONTINUOUS
370
    -2
100
AcDbLine
 10
68501.56795742
 20
-60243.48656885
 30
0.0
 11
68356.56772429
 21
-60313.48700194
 31
0.0
  0
ENDBLK
  5
4E8
100
AcDbEntity
100
AcDbBlockEnd
  0
BLOCK
  5
4E9
100
AcDbEntity
  8
Ech.1_10
100
AcDbBlockBegin
  2
*X11
 70
     1
 10
0.0
 20
0.0
 30
0.0
  3
*X11
  1

  4
Cadwork hatch
  0
LINE
  5
4EA
100
AcDbEntity
  8
Ech.1_10
 62
   190
  6
CONTINUOUS
370
    -2
100
AcDbLine
 10
68501.56795742
 20
-60313.48700194
 30
0.0
 11
68456.56568705
 21
-60493.48678763
 31
0.0
  0
LINE
  5
4EB
100
AcDbEntity
  8
Ech.1_10
 62
   190
  6
CONTINUOUS
370
    -2
100
AcDbLine
 10
68456.56568705
 20
-60313.48700194
 30
0.0
 11
68501.56795742
 21
-60493.48678763
 31
0.0
  0
ENDBLK
  5
4EC
100
AcDbEntity
100
AcDbBlockEnd
  0
BLOCK
  5
4ED
100
AcDbEntity
  8
Ech.1_10
100
AcDbBlockBegin
  2
*D21
 70
     1
 10
0.0
 20
0.0
 30
0.0
  3
*D21
  1

  4
Cadwork dimension
  0
TEXT
  5
4EE
100
AcDbEntity
  8
Ech.1_10
 62
   190
370
    18
100
AcDbText
 10
68187.00310045
 20
-59297.75284794
 30
0.0
 40
25.0
  1

  7
ARIAL
 50
89.9999975
 41
1.0
 51
0.0
100
AcDbText
  0
LINE
  5
4EF
100
AcDbEntity
  8
Ech.1_10
 62
   190
370
    -2
100
AcDbLine
 10
68187.00310045
 20
-59539.61105447
 30
0.0
 11
68257.57005394
 21
-59539.61105447
 31
0.0
  0
LINE
  5
4F0
100
AcDbEntity
  8
Ech.1_10
 62
   190
370
    -2
100
AcDbLine
 10
68187.00310045
 20
-58998.87409164
 30
0.0
 11
68257.57005394
 21
-58998.87409164
 31
0.0
  0
LINE
  5
4F1
100
AcDbEntity
  8
Ech.1_10
 62
   190
370
    -2
100
AcDbLine
 10
68197.00310045
 20
-59549.61105447
 30
0.0
 11
68197.00310045
 21
-58988.87409164
 31
0.0
  0
LINE
  5
4F2
100
AcDbEntity
  8
Ech.1_10
 62
   190
370
    -2
100
AcDbLine
 10
68202.00310045
 20
-59544.61105447
 30
0.0
 11
68192.00310045
 21
-59534.61105447
 31
0.0
  0
LINE
  5
4F3
100
AcDbEntity
  8
Ech.1_10
 62
   190
370
    -2
100
AcDbLine
 10
68202.00310045
 20
-59003.87409164
 30
0.0
 11
68192.00310045
 21
-58993.87409164
 31
0.0
  0
ENDBLK
  5
4F4
100
AcDbEntity
100
AcDbBlockEnd
  0
ENDSEC
  0
SECTION
  2
ENTITIES
  0
INSERT
  5
4F5
100
AcDbEntity
  8
Ech.1_10
 62
     0
370
    -3
100
AcDbBlockReference
  2
*X1
 10
0.0
 20
0.0
 30
0.0
  0
INSERT
  5
4F6
100
AcDbEntity
  8
Ech.1_10
 62
     0
370
    -3
100
AcDbBlockReference
  2
*X2
 10
0.0
 20
0.0
 30
0.0
  0
INSERT
  5
4F7
100
AcDbEntity
  8
Ech.1_10
 62
     0
370
    -3
100
AcDbBlockReference
  2
*X3
 10
0.0
 20
0.0
 30
0.0
  0
INSERT
  5
4F8
100
AcDbEntity
  8
Ech.1_10
 62
     0
370
    -3
100
AcDbBlockReference
  2
*X4
 10
0.0
 20
0.0
 30
0.0
  0
INSERT
  5
4F9
100
AcDbEntity
  8
Ech.1_10
 62
     0
370
    -3
100
AcDbBlockReference
  2
*X5
 10
0.0
 20
0.0
 30
0.0
  0
INSERT
  5
4FA
100
AcDbEntity
  8
Ech.1_10
 62
     0
370
    -3
100
AcDbBlockReference
  2
*X6
 10
0.0
 20
0.0
 30
0.0
  0
INSERT
  5
4FB
100
AcDbEntity
  8
Ech.1_10
 62
     0
370
    -3
100
AcDbBlockReference
  2
*X7
 10
0.0
 20
0.0
 30
0.0
  0
INSERT
  5
4FC
100
AcDbEntity
  8
Ech.1_10
 62
     0
370
    -3
100
AcDbBlockReference
  2
*X8
 10
0.0
 20
0.0
 30
0.0
  0
INSERT
  5
4FD
100
AcDbEntity
  8
Ech.1_10
 62
     0
370
    -3
100
AcDbBlockReference
  2
*X9
 10
0.0
 20
0.0
 30
0.0
  0
INSERT
  5
4FE
100
AcDbEntity
  8
Ech.1_10
 62
     0
370
    -3
100
AcDbBlockReference
  2
*X10
 10
0.0
 20
0.0
 30
0.0
  0
INSERT
  5
4FF
100
AcDbEntity
  8
Ech.1_10
 62
     0
370
    -3
100
AcDbBlockReference
  2
*X11
 10
0.0
 20
0.0
 30
0.0
  0
LWPOLYLINE
  5
500
102
{ACAD_REACTORS
330
501
102
}
100
AcDbEntity
  8
Ech.1_10
 62
     9
  6
CONTINUOUS
370
    -3
100
AcDbPolyline
 90
        8
 70
     1
 43
0.0
 38
2500.0
 39
-2500.0
 10
69542.08174596
 20
-59861.084486
 10
69542.08174596
 20
-60991.64469756
 10
69742.08174596
 20
-60991.64469756
 10
69742.08174596
 20
-59861.08384621
 10
69629.25785564
 20
-59861.08338158
 10
69612.77150081
 20
-59879.06173318
 10
69626.88144134
 20
-59843.10603317
 10
69610.39593814
 20
-59861.08338158
  0
HATCH
  5
501
100
AcDbEntity
  8
Ech.1_10
 62
     9
  6
CONTINUOUS
100
AcDbHatch
 10
0.0
 20
0.0
 30
0.0
210
0.0
220
0.0
230
1.0
  2
AR-CONC
 70
     0
 71
     1
 91
        1
 92
        7
 72
     0
 73
     1
 93
        8
 10
69542.08174596
 20
-59861.084486
 10
69542.08174596
 20
-60991.64469756
 10
69742.08174596
 20
-60991.64469756
 10
69742.08174596
 20
-59861.08384621
 10
69629.25785564
 20
-59861.08338158
 10
69612.77150081
 20
-59879.06173318
 10
69626.88144134
 20
-59843.10603317
 10
69610.39593814
 20
-59861.08338158
 97
        1
330
500
 75
     0
 76
     2
 52
0.0
 41
0.11811097
 77
     0
 78
    13
 53
50.0
 43
0.0
 44
0.0
 45
-18.84283637
 46
1.64853443
 79
     2
 49
1.97029307
 49
-21.67322338
 53
355.0
 43
0.0
 44
0.0
 45
-3.64507756
 46
19.76051824
 79
     2
 49
1.57623377
 49
-17.3385787
 53
100.45140076
 43
1.57023568
 44
-0.13737749
 45
-15.19777228
 46
-18.11197244
 79
     2
 49
1.67449124
 49
-18.41940522
 53
46.18420029
 43
0.0
 44
5.25411576
 45
-28.03703353
 46
4.34827878
 79
     2
 49
2.95543872
 49
-32.50983238
 53
96.63559723
 43
2.33641885
 44
4.89175692
 45
-24.55412615
 46
-25.59063404
 79
     2
 49
2.51173697
 49
-27.62910426
 53
351.1842041
 43
0.0
 44
5.25411576
 45
24.55410288
 46
25.59065715
 79
     2
 49
2.36435249
 49
-26.00786805
 53
21.0
 43
2.62705699
 44
3.94058615
 45
-15.68109068
 46
10.57702905
 79
     2
 49
1.97029307
 49
-21.67322338
 53
326.0
 43
2.62705699
 44
3.94058615
 45
6.39203268
 46
19.05010734
 79
     2
 49
1.57623377
 49
-17.3385787
 53
71.45140076
 43
3.93381357
 44
3.05916555
 45
-22.07312962
 46
-8.47306182
 79
     2
 49
1.67449124
 49
-18.41940522
 53
37.5
 43
0.0
 44
0.0
 45
0.31944534
 46
8.74531245
 79
     6
 49
0.01875
 49
-17.12841332
 49
0.01875
 49
-17.60128498
 49
0.01875
 49
-17.40425348
 53
7.5
 43
0.0
 44
0.0
 45
6.91098818
 46
10.3614222
 79
     6
 49
0.01875
 49
-10.03535807
 49
0.01875
 49
-16.7343539
 49
0.01875
 49
-6.6333206
 53
-32.5
 43
-5.85833833
 44
0.0
 45
14.02382061
 46
-0.59253003
 79
     6
 49
0.01875
 49
-6.56764314
 49
0.01875
 49
-20.49104869
 49
0.01875
 49
-27.19004452
 53
-42.5
 43
-8.48539531
 44
0.0
 45
15.32063571
 46
2.62981542
 79
     6
 49
0.01875
 49
-8.53793621
 49
0.01875
 49
-13.60815793
 49
0.01875
 49
-19.30887222
 47
0.775229
 98
        1
 10
0.0
 20
0.0
  0
LWPOLYLINE
  5
502
100
AcDbEntity
  8
Ech.1_10
 62
   190
  6
CONTINUOUS
370
    -3
100
AcDbPolyline
 90
        4
 70
     1
 43
0.0
 10
68541.57005394
 20
-59861.08396999
 10
68501.57005394
 20
-59861.08396999
 10
68501.57005394
 20
-60094.48682716
 10
68541.57005394
 20
-60094.48682716
  0
LWPOLYLINE
  5
503
100
AcDbEntity
  8
Ech.1_10
 62
   190
  6
CONTINUOUS
370
    -3
100
AcDbPolyline
 90
       70
 70
     0
 43
0.0
 10
68508.2367206
 20
-59861.08396999
 42
1.14028181
 10
68509.96218479
 20
-59874.19014113
 10
68533.17792308
 20
-59867.97779886
 42
-1.30322619
 10
68533.17792308
 20
-59880.85680779
 10
68509.96218479
 20
-59874.64446552
 42
1.30322619
 10
68509.96218479
 20
-59887.52347446
 10
68533.17792308
 20
-59881.31113219
 42
-1.30322619
 10
68533.17792308
 20
-59894.19014113
 10
68509.96218479
 20
-59887.97779886
 42
1.30322619
 10
68509.96218479
 20
-59900.85680779
 10
68533.17792308
 20
-59894.64446552
 42
-1.30322619
 10
68533.17792308
 20
-59907.52347446
 10
68509.96218479
 20
-59901.31113219
 42
1.30322619
 10
68509.96218479
 20
-59914.19014113
 10
68533.17792308
 20
-59907.97779886
 42
-1.30322619
 10
68533.17792308
 20
-59920.85680779
 10
68509.96218479
 20
-59914.64446552
 42
1.30322619
 10
68509.96218479
 20
-59927.52347446
 10
68533.17792308
 20
-59921.31113219
 42
-1.30322619
 10
68533.17792308
 20
-59934.19014113
 10
68509.96218479
 20
-59927.97779886
 42
1.30322619
 10
68509.96218479
 20
-59940.85680779
 10
68533.17792308
 20
-59934.64446552
 42
-1.30322619
 10
68533.17792308
 20
-59947.52347446
 10
68509.96218479
 20
-59941.31113219
 42
1.30322619
 10
68509.96218479
 20
-59954.19014113
 10
68533.17792308
 20
-59947.97779886
 42
-1.30322619
 10
68533.17792308
 20
-59960.85680779
 10
68509.96218479
 20
-59954.64446553
 42
1.30322619
 10
68509.96218479
 20
-59967.52347446
 10
68533.17792308
 20
-59961.31113219
 42
-1.30322619
 10
68533.17792308
 20
-59974.19014113
 10
68509.96218479
 20
-59967.97779886
 42
1.30322619
 10
68509.96218479
 20
-59980.85680779
 10
68533.17792308
 20
-59974.64446553
 42
-1.30322619
 10
68533.17792308
 20
-59987.52347446
 10
68509.96218479
 20
-59981.31113219
 42
1.30322619
 10
68509.96218479
 20
-59994.19014113
 10
68533.17792308
 20
-59987.97779886
 42
-1.30322619
 10
68533.17792308
 20
-60000.85680779
 10
68509.96218479
 20
-59994.64446553
 42
1.30322619
 10
68509.96218479
 20
-60007.52347446
 10
68533.17792308
 20
-60001.31113219
 42
-1.30322619
 10
68533.17792308
 20
-60014.19014113
 10
68509.96218479
 20
-60007.97779886
 42
1.30322619
 10
68509.96218479
 20
-60020.85680779
 10
68533.17792308
 20
-60014.64446553
 42
-1.30322619
 10
68533.17792308
 20
-60027.52347446
 10
68509.96218479
 20
-60021.31113219
 42
1.30322619
 10
68509.96218479
 20
-60034.19014113
 10
68533.17792308
 20
-60027.97779886
 42
-1.30322619
 10
68533.17792308
 20
-60040.85680779
 10
68509.96218479
 20
-60034.64446553
 42
1.30322619
 10
68509.96218479
 20
-60047.52347446
 10
68533.17792308
 20
-60041.31113219
 42
-1.30322619
 10
68533.17792308
 20
-60054.19014113
 10
68509.96218479
 20
-60047.97779886
 42
1.30322619
 10
68509.96218479
 20
-60060.85680779
 10
68533.17792308
 20
-60054.64446553
 42
-1.30322619
 10
68533.17792308
 20
-60067.52347446
 10
68509.96218479
 20
-60061.31113219
 42
1.30322619
 10
68509.96218479
 20
-60074.19014113
 10
68533.17792308
 20
-60067.97779886
 42
-1.30322619
 10
68533.17792308
 20
-60080.85680779
 10
68509.96218479
 20
-60074.64446553
 42
1.30322619
 10
68509.96218479
 20
-60087.52347446
 10
68533.17792308
 20
-60081.31113219
 42
-1.30322619
 10
68533.17792308
 20
-60094.19014113
 10
68509.96218479
 20
-60087.97779886
 42
0.49639103
 10
68501.57041646
 20
-60094.48682716
  0
3DFACE
  5
504
100
AcDbEntity
  8
Ech.1_10
 62
     9
  6
CONTINUOUS
370
    -3
100
AcDbFace
 70
     0
 10
69542.08174596
 20
-60339.48833111
 30
-3312.86048889
 11
70954.1530979
 21
-60339.48833111
 31
-3312.86048889
 12
70954.1530979
 22
-60339.48833111
 32
-3512.86048889
 13
69542.08174596
 23
-60339.48833111
 33
-3512.86048889
  0
3DFACE
  5
505
100
AcDbEntity
  8
Ech.1_10
 62
     9
  6
CONTINUOUS
370
    -3
100
AcDbFace
 70
     0
 10
69742.08174596
 20
-60339.48833111
 30
-17081.86048889
 11
69542.08174596
 21
-60339.48833111
 31
-17081.86048889
 12
69542.08174596
 22
-60339.48833111
 32
-3512.86048889
 13
69742.08174596
 23
-60339.48833111
 33
-3512.86048889
  0
3DFACE
  5
506
100
AcDbEntity
  8
Ech.1_10
 62
     9
  6
CONTINUOUS
370
    -3
100
AcDbFace
 70
     0
 10
69542.08174596
 20
-60139.48833111
 30
-13652.36048889
 11
69542.08174596
 21
-60139.48833111
 31
-8304.86048889
 12
69542.08174596
 22
-60339.48833111
 32
-8304.86048889
 13
69542.08174596
 23
-60339.48833111
 33
-13652.36048889
  0
3DFACE
  5
507
100
AcDbEntity
  8
Ech.1_10
 62
     9
  6
CONTINUOUS
370
    -3
100
AcDbFace
 70
     0
 10
69542.08174596
 20
-60139.48833111
 30
-13652.36048889
 11
68521.56904275
 21
-60139.48833111
 31
-13652.36048889
 12
68521.56904275
 22
-60139.48833111
 32
-8304.86048889
 13
69542.08174596
 23
-60139.48833111
 33
-8304.86048889
  0
3DFACE
  5
508
100
AcDbEntity
  8
Ech.1_10
 62
     9
  6
CONTINUOUS
370
    -3
100
AcDbFace
 70
     0
 10
69542.08174596
 20
-60339.48833111
 30
-8304.86048889
 11
69542.08174596
 21
-60139.48833111
 31
-8304.86048889
 12
68521.56904275
 22
-60139.48833111
 32
-8304.86048889
 13
68521.56904275
 23
-60339.48833111
 33
-8304.86048889
  0
3DFACE
  5
509
100
AcDbEntity
  8
Ech.1_10
 62
     9
  6
CONTINUOUS
370
    -3
100
AcDbFace
 70
     0
 10
69542.08174596
 20
-60339.48833111
 30
-13652.36048889
 11
68521.56904275
 21
-60339.48833111
 31
-13652.36048889
 12
68521.56904275
 22
-60139.48833111
 32
-13652.36048889
 13
69542.08174596
 23
-60139.48833111
 33
-13652.36048889
  0
3DFACE
  5
50A
100
AcDbEntity
  8
Ech.1_10
 62
     9
  6
CONTINUOUS
370
    -3
100
AcDbFace
 70
     0
 10
68903.3063237
 20
-60339.48833111
 30
-8304.86048889
 11
68521.56904275
 21
-60339.48833111
 31
-8304.86048889
 12
68521.56904275
 22
-60339.48833111
 32
-13652.36048889
 13
68903.3063237
 23
-60339.48833111
 33
-13652.36048889
  0
3DFACE
  5
50B
100
AcDbEntity
  8
Ech.1_10
 62
     9
  6
CONTINUOUS
370
    -3
100
AcDbFace
 70
     0
 10
69542.08174596
 20
-60139.48833111
 30
-3512.86048889
 11
69542.08174596
 21
-60139.48833111
 31
-3312.86048889
 12
69542.08174596
 22
-59198.87409164
 32
-3312.86048889
 13
69542.08174596
 23
-59198.87409164
 33
-3512.86048889
  0
3DFACE
  5
50C
100
AcDbEntity
  8
Ech.1_10
 62
     9
  6
CONTINUOUS
370
    -3
100
AcDbFace
 70
     0
 10
69542.08174596
 20
-60139.48833111
 30
-3512.86048889
 11
70954.1530979
 21
-60139.48833111
 31
-3512.86048889
 12
70954.1530979
 22
-60139.48833111
 32
-3312.86048889
 13
69542.08174596
 23
-60139.48833111
 33
-3312.86048889
  0
3DFACE
  5
50D
100
AcDbEntity
  8
Ech.1_10
 62
     9
  6
CONTINUOUS
370
    -3
100
AcDbFace
 70
     0
 10
69542.08174596
 20
-59198.87409164
 30
-3512.86048889
 11
70954.1530979
 21
-59198.87409164
 31
-3512.86048889
 12
70954.1530979
 22
-60139.48833111
 32
-3512.86048889
 13
69542.08174596
 23
-60139.48833111
 33
-3512.86048889
  0
3DFACE
  5
50E
100
AcDbEntity
  8
Ech.1_10
 62
     9
  6
CONTINUOUS
370
    -3
100
AcDbFace
 70
     0
 10
69542.08174596
 20
-59198.87409164
 30
-3312.86048889
 11
70954.1530979
 21
-59198.87409164
 31
-3312.86048889
 12
70954.1530979
 22
-59198.87409164
 32
-3512.86048889
 13
69542.08174596
 23
-59198.87409164
 33
-3512.86048889
  0
3DFACE
  5
50F
100
AcDbEntity
  8
Ech.1_10
 62
     9
  6
CONTINUOUS
370
    -3
100
AcDbFace
 70
     0
 10
69542.08174596
 20
-60139.48833111
 30
-3312.86048889
 11
70954.1530979
 21
-60139.48833111
 31
-3312.86048889
 12
70954.1530979
 22
-59198.87409164
 32
-3312.86048889
 13
69542.08174596
 23
-59198.87409164
 33
-3312.86048889
  0
3DFACE
  5
510
100
AcDbEntity
  8
Ech.1_10
 62
     9
  6
CONTINUOUS
370
    -3
100
AcDbFace
 70
     0
 10
69542.08174596
 20
-60139.48833111
 30
-17081.86048889
 11
69742.08174596
 21
-60139.48833111
 31
-17081.86048889
 12
69742.08174596
 22
-60139.48833111
 32
-11978.61048889
 13
69542.08174596
 23
-60139.48833111
 33
-11978.61048889
  0
3DFACE
  5
511
100
AcDbEntity
  8
Ech.1_10
 62
     9
  6
CONTINUOUS
370
    -3
100
AcDbFace
 70
     0
 10
69742.08174596
 20
-59198.87409164
 30
-3512.86048889
 11
69542.08174596
 21
-59198.87409164
 31
-3512.86048889
 12
69542.08174596
 22
-60139.48833111
 32
-3512.86048889
 13
69742.08174596
 23
-60139.48833111
 33
-3512.86048889
  0
POLYLINE
  5
512
100
AcDbEntity
  8
Ech.1_10
 62
     9
  6
CONTINUOUS
370
    -3
100
AcDb3dPolyline
 66
     1
 70
     8
  0
VERTEX
  5
513
100
AcDbEntity
  8
Ech.1_10
100
AcDbVertex
100
AcDb3dPolylineVertex
 10
69742.08174596
 20
-60139.48833111
 30
-11978.61048889
 70
    32
  0
VERTEX
  5
514
100
AcDbEntity
  8
Ech.1_10
100
AcDbVertex
100
AcDb3dPolylineVertex
 10
69742.08174596
 20
-60057.67035559
 30
-11978.61048889
 70
    32
  0
VERTEX
  5
515
100
AcDbEntity
  8
Ech.1_10
100
AcDbVertex
100
AcDb3dPolylineVertex
 10
69742.08174596
 20
-60057.67035559
 30
-9978.61048889
 70
    32
  0
VERTEX
  5
516
100
AcDbEntity
  8
Ech.1_10
100
AcDbVertex
100
AcDb3dPolylineVertex
 10
69742.08174596
 20
-60139.48833111
 30
-9978.61048889
 70
    32
  0
VERTEX
  5
517
100
AcDbEntity
  8
Ech.1_10
100
AcDbVertex
100
AcDb3dPolylineVertex
 10
69742.08174596
 20
-60139.48833111
 30
-3512.86048889
 70
    32
  0
VERTEX
  5
518
100
AcDbEntity
  8
Ech.1_10
100
AcDbVertex
100
AcDb3dPolylineVertex
 10
69742.08174596
 20
-59198.87409164
 30
-3512.86048889
 70
    32
  0
VERTEX
  5
519
100
AcDbEntity
  8
Ech.1_10
100
AcDbVertex
100
AcDb3dPolylineVertex
 10
69742.08174596
 20
-59198.87409164
 30
-5208.86048889
 70
    32
  0
VERTEX
  5
51A
100
AcDbEntity
  8
Ech.1_10
100
AcDbVertex
100
AcDb3dPolylineVertex
 10
69742.08174596
 20
-59198.87409164
 30
-5208.86048889
 70
    32
  0
SEQEND
  5
51B
100
AcDbEntity
  8
Ech.1_10
  0
POLYLINE
  5
51C
100
AcDbEntity
  8
Ech.1_10
 62
     9
  6
CONTINUOUS
370
    -3
100
AcDb3dPolyline
 66
     1
 70
     8
  0
VERTEX
  5
51D
100
AcDbEntity
  8
Ech.1_10
100
AcDbVertex
100
AcDb3dPolylineVertex
 10
69742.08174596
 20
-60057.67035559
 30
-5208.86048889
 70
    32
  0
VERTEX
  5
51E
100
AcDbEntity
  8
Ech.1_10
100
AcDbVertex
100
AcDb3dPolylineVertex
 10
69742.08174596
 20
-60057.67035559
 30
-5208.86048889
 70
    32
  0
VERTEX
  5
51F
100
AcDbEntity
  8
Ech.1_10
100
AcDbVertex
100
AcDb3dPolylineVertex
 10
69742.08174596
 20
-60991.64469756
 30
-5208.86048889
 70
    32
  0
VERTEX
  5
520
100
AcDbEntity
  8
Ech.1_10
100
AcDbVertex
100
AcDb3dPolylineVertex
 10
69742.08174596
 20
-60991.64469756
 30
-6608.86048889
 70
    32
  0
VERTEX
  5
521
100
AcDbEntity
  8
Ech.1_10
100
AcDbVertex
100
AcDb3dPolylineVertex
 10
69742.08174596
 20
-60057.67035559
 30
-6608.86048889
 70
    32
  0
VERTEX
  5
522
100
AcDbEntity
  8
Ech.1_10
100
AcDbVertex
100
AcDb3dPolylineVertex
 10
69742.08174596
 20
-60057.67035559
 30
-5208.86048889
 70
    32
  0
SEQEND
  5
523
100
AcDbEntity
  8
Ech.1_10
  0
POLYLINE
  5
524
100
AcDbEntity
  8
Ech.1_10
 62
     9
  6
CONTINUOUS
370
    -3
100
AcDb3dPolyline
 66
     1
 70
     8
  0
VERTEX
  5
525
100
AcDbEntity
  8
Ech.1_10
100
AcDbVertex
100
AcDb3dPolylineVertex
 10
69742.08174596
 20
-59198.87409164
 30
-5208.86048889
 70
    32
  0
VERTEX
  5
526
100
AcDbEntity
  8
Ech.1_10
100
AcDbVertex
100
AcDb3dPolylineVertex
 10
69742.08174596
 20
-59198.87409164
 30
-14667.11048889
 70
    32
  0
VERTEX
  5
527
100
AcDbEntity
  8
Ech.1_10
100
AcDbVertex
100
AcDb3dPolylineVertex
 10
69742.08174596
 20
-59198.87409164
 30
-5208.86048889
 70
    32
  0
VERTEX
  5
528
100
AcDbEntity
  8
Ech.1_10
100
AcDbVertex
100
AcDb3dPolylineVertex
 10
69742.08174596
 20
-59198.87409164
 30
-14667.11048889
 70
    32
  0
VERTEX
  5
529
100
AcDbEntity
  8
Ech.1_10
100
AcDbVertex
100
AcDb3dPolylineVertex
 10
69742.08174596
 20
-59198.87409164
 30
-14667.11048889
 70
    32
  0
SEQEND
  5
52A
100
AcDbEntity
  8
Ech.1_10
  0
POLYLINE
  5
52B
100
AcDbEntity
  8
Ech.1_10
 62
     9
  6
CONTINUOUS
370
    -3
100
AcDb3dPolyline
 66
     1
 70
     8
  0
VERTEX
  5
52C
100
AcDbEntity
  8
Ech.1_10
100
AcDbVertex
100
AcDb3dPolylineVertex
 10
69742.08174596
 20
-60057.67035559
 30
-14667.11048889
 70
    32
  0
VERTEX
  5
52D
100
AcDbEntity
  8
Ech.1_10
100
AcDbVertex
100
AcDb3dPolylineVertex
 10
69742.08174596
 20
-60057.67035559
 30
-14667.11048889
 70
    32
  0
VERTEX
  5
52E
100
AcDbEntity
  8
Ech.1_10
100
AcDbVertex
100
AcDb3dPolylineVertex
 10
69742.08174596
 20
-60991.64469756
 30
-14667.11048889
 70
    32
  0
VERTEX
  5
52F
100
AcDbEntity
  8
Ech.1_10
100
AcDbVertex
100
AcDb3dPolylineVertex
 10
69742.08174596
 20
-60991.64469756
 30
-16067.11048889
 70
    32
  0
VERTEX
  5
530
100
AcDbEntity
  8
Ech.1_10
100
AcDbVertex
100
AcDb3dPolylineVertex
 10
69742.08174596
 20
-60057.67035559
 30
-16067.11048889
 70
    32
  0
VERTEX
  5
531
100
AcDbEntity
  8
Ech.1_10
100
AcDbVertex
100
AcDb3dPolylineVertex
 10
69742.08174596
 20
-60057.67035559
 30
-14667.11048889
 70
    32
  0
SEQEND
  5
532
100
AcDbEntity
  8
Ech.1_10
  0
POLYLINE
  5
533
100
AcDbEntity
  8
Ech.1_10
 62
     9
  6
CONTINUOUS
370
    -3
100
AcDb3dPolyline
 66
     1
 70
     8
  0
VERTEX
  5
534
100
AcDbEntity
  8
Ech.1_10
100
AcDbVertex
100
AcDb3dPolylineVertex
 10
69742.08174596
 20
-59198.87409164
 30
-14667.11048889
 70
    32
  0
VERTEX
  5
535
100
AcDbEntity
  8
Ech.1_10
100
AcDbVertex
100
AcDb3dPolylineVertex
 10
69742.08174596
 20
-59198.87409164
 30
-17081.86048889
 70
    32
  0
VERTEX
  5
536
100
AcDbEntity
  8
Ech.1_10
100
AcDbVertex
100
AcDb3dPolylineVertex
 10
69742.08174596
 20
-60139.48833111
 30
-17081.86048889
 70
    32
  0
VERTEX
  5
537
100
AcDbEntity
  8
Ech.1_10
100
AcDbVertex
100
AcDb3dPolylineVertex
 10
69742.08174596
 20
-60139.48833111
 30
-11978.61048889
 70
    32
  0
SEQEND
  5
538
100
AcDbEntity
  8
Ech.1_10
  0
3DFACE
  5
539
100
AcDbEntity
  8
Ech.1_10
 62
     9
  6
CONTINUOUS
370
    -3
100
AcDbFace
 70
     0
 10
69742.08174596
 20
-60139.48833111
 30
-3512.86048889
 11
69542.08174596
 21
-60139.48833111
 31
-3512.86048889
 12
69542.08174596
 22
-60139.48833111
 32
-9978.61048889
 13
69742.08174596
 23
-60139.48833111
 33
-9978.61048889
  0
3DFACE
  5
53A
100
AcDbEntity
  8
Ech.1_10
 62
     9
  6
CONTINUOUS
370
    -3
100
AcDbFace
 70
     0
 10
69542.08174596
 20
-59198.87409164
 30
-17281.86048889
 11
70954.1530979
 21
-59198.87409164
 31
-17281.86048889
 12
70954.1530979
 22
-59198.87409164
 32
-3312.86048889
 13
69542.08174596
 23
-59198.87409164
 33
-3312.86048889
  0
3DFACE
  5
53B
100
AcDbEntity
  8
Ech.1_10
 62
     9
  6
CONTINUOUS
370
    -3
100
AcDbFace
 70
     0
 10
69542.08174596
 20
-58998.87409164
 30
-17281.86048889
 11
70954.1530979
 21
-58998.87409164
 31
-17281.86048889
 12
70954.1530979
 22
-59198.87409164
 32
-17281.86048889
 13
69542.08174596
 23
-59198.87409164
 33
-17281.86048889
  0
3DFACE
  5
53C
100
AcDbEntity
  8
Ech.1_10
 62
     9
  6
CONTINUOUS
370
    -3
100
AcDbFace
 70
     0
 10
69542.08174596
 20
-58998.87409164
 30
-3312.86048889
 11
70954.1530979
 21
-58998.87409164
 31
-3312.86048889
 12
70954.1530979
 22
-58998.87409164
 32
-17281.86048889
 13
69542.08174596
 23
-58998.87409164
 33
-17281.86048889
  0
3DFACE
  5
53D
100
AcDbEntity
  8
Ech.1_10
 62
     9
  6
CONTINUOUS
370
    -3
100
AcDbFace
 70
     0
 10
69542.08174596
 20
-59198.87409164
 30
-3312.86048889
 11
70954.1530979
 21
-59198.87409164
 31
-3312.86048889
 12
70954.1530979
 22
-58998.87409164
 32
-3312.86048889
 13
69542.08174596
 23
-58998.87409164
 33
-3312.86048889
  0
3DFACE
  5
53E
100
AcDbEntity
  8
Ech.1_10
 62
     9
  6
CONTINUOUS
370
    -3
100
AcDbFace
 70
     0
 10
69542.08174596
 20
-60339.48833111
 30
-17281.86048889
 11
70954.1530979
 21
-60339.48833111
 31
-17281.86048889
 12
70954.1530979
 22
-60339.48833111
 32
-3312.86048889
 13
69542.08174596
 23
-60339.48833111
 33
-3312.86048889
  0
3DFACE
  5
53F
100
AcDbEntity
  8
Ech.1_10
 62
     9
  6
CONTINUOUS
370
    -3
100
AcDbFace
 70
     0
 10
69542.08174596
 20
-60139.48833111
 30
-17281.86048889
 11
69542.08174596
 21
-60339.48833111
 31
-17281.86048889
 12
69542.08174596
 22
-60339.48833111
 32
-3312.86048889
 13
69542.08174596
 23
-60139.48833111
 33
-3312.86048889
  0
3DFACE
  5
540
100
AcDbEntity
  8
Ech.1_10
 62
     9
  6
CONTINUOUS
370
    -3
100
AcDbFace
 70
     0
 10
69542.08174596
 20
-60139.48833111
 30
-17281.86048889
 11
70954.1530979
 21
-60139.48833111
 31
-17281.86048889
 12
70954.1530979
 22
-60339.48833111
 32
-17281.86048889
 13
69542.08174596
 23
-60339.48833111
 33
-17281.86048889
  0
3DFACE
  5
541
100
AcDbEntity
  8
Ech.1_10
 62
     9
  6
CONTINUOUS
370
    -3
100
AcDbFace
 70
     0
 10
69542.08174596
 20
-60139.48833111
 30
-3312.86048889
 11
70954.1530979
 21
-60139.48833111
 31
-3312.86048889
 12
70954.1530979
 22
-60139.48833111
 32
-17281.86048889
 13
69542.08174596
 23
-60139.48833111
 33
-17281.86048889
  0
3DFACE
  5
542
100
AcDbEntity
  8
Ech.1_10
 62
     9
  6
CONTINUOUS
370
    -3
100
AcDbFace
 70
     0
 10
69542.08174596
 20
-60339.48833111
 30
-3312.86048889
 11
70954.1530979
 21
-60339.48833111
 31
-3312.86048889
 12
70954.1530979
 22
-60139.48833111
 32
-3312.86048889
 13
69542.08174596
 23
-60139.48833111
 33
-3312.86048889
  0
LWPOLYLINE
  5
543
102
{ACAD_REACTORS
330
544
102
}
100
AcDbEntity
  8
Ech.1_10
 62
     9
  6
CONTINUOUS
370
    -3
100
AcDbPolyline
 90
        8
 70
     1
 43
0.0
 38
2500.0
 39
-2500.0
 10
69049.44287957
 20
-60139.48833111
 10
70954.1530979
 20
-60139.48833111
 10
70954.1530979
 20
-60339.48833111
 10
69049.44223977
 20
-60339.48833111
 10
69049.44234004
 20
-60278.30190708
 10
69031.46499172
 20
-60261.81640393
 10
69067.42069164
 20
-60275.92634395
 10
69049.44234004
 20
-60259.43998986
  0
HATCH
  5
544
100
AcDbEntity
  8
Ech.1_10
 62
     9
  6
CONTINUOUS
100
AcDbHatch
 10
0.0
 20
0.0
 30
0.0
210
0.0
220
0.0
230
1.0
  2
AR-CONC
 70
     0
 71
     1
 91
        1
 92
        7
 72
     0
 73
     1
 93
        8
 10
69049.44287957
 20
-60139.48833111
 10
70954.1530979
 20
-60139.48833111
 10
70954.1530979
 20
-60339.48833111
 10
69049.44223977
 20
-60339.48833111
 10
69049.44234004
 20
-60278.30190708
 10
69031.46499172
 20
-60261.81640393
 10
69067.42069164
 20
-60275.92634395
 10
69049.44234004
 20
-60259.43998986
 97
        1
330
543
 75
     0
 76
     2
 52
0.0
 41
0.11811097
 77
     0
 78
    13
 53
50.0
 43
0.0
 44
0.0
 45
-18.84283637
 46
1.64853443
 79
     2
 49
1.97029307
 49
-21.67322338
 53
355.0
 43
0.0
 44
0.0
 45
-3.64507756
 46
19.76051824
 79
     2
 49
1.57623377
 49
-17.3385787
 53
100.45140076
 43
1.57023568
 44
-0.13737749
 45
-15.19777228
 46
-18.11197244
 79
     2
 49
1.67449124
 49
-18.41940522
 53
46.18420029
 43
0.0
 44
5.25411576
 45
-28.03703353
 46
4.34827878
 79
     2
 49
2.95543872
 49
-32.50983238
 53
96.63559723
 43
2.33641885
 44
4.89175692
 45
-24.55412615
 46
-25.59063404
 79
     2
 49
2.51173697
 49
-27.62910426
 53
351.1842041
 43
0.0
 44
5.25411576
 45
24.55410288
 46
25.59065715
 79
     2
 49
2.36435249
 49
-26.00786805
 53
21.0
 43
2.62705699
 44
3.94058615
 45
-15.68109068
 46
10.57702905
 79
     2
 49
1.97029307
 49
-21.67322338
 53
326.0
 43
2.62705699
 44
3.94058615
 45
6.39203268
 46
19.05010734
 79
     2
 49
1.57623377
 49
-17.3385787
 53
71.45140076
 43
3.93381357
 44
3.05916555
 45
-22.07312962
 46
-8.47306182
 79
     2
 49
1.67449124
 49
-18.41940522
 53
37.5
 43
0.0
 44
0.0
 45
0.31944534
 46
8.74531245
 79
     6
 49
0.01875
 49
-17.12841332
 49
0.01875
 49
-17.60128498
 49
0.01875
 49
-17.40425348
 53
7.5
 43
0.0
 44
0.0
 45
6.91098818
 46
10.3614222
 79
     6
 49
0.01875
 49
-10.03535807
 49
0.01875
 49
-16.7343539
 49
0.01875
 49
-6.6333206
 53
-32.5
 43
-5.85833833
 44
0.0
 45
14.02382061
 46
-0.59253003
 79
     6
 49
0.01875
 49
-6.56764314
 49
0.01875
 49
-20.49104869
 49
0.01875
 49
-27.19004452
 53
-42.5
 43
-8.48539531
 44
0.0
 45
15.32063571
 46
2.62981542
 79
     6
 49
0.01875
 49
-8.53793621
 49
0.01875
 49
-13.60815793
 49
0.01875
 49
-19.30887222
 47
0.775229
 98
        1
 10
0.0
 20
0.0
  0
LWPOLYLINE
  5
545
100
AcDbEntity
  8
Ech.1_10
 62
   190
  6
CONTINUOUS
370
    -3
100
AcDbPolyline
 90
        9
 70
     1
 43
0.0
 10
68435.64252791
 20
-60645.2902964
 10
68452.12888199
 20
-60627.31194481
 10
68438.01894198
 20
-60663.26764473
 10
68454.50444513
 20
-60645.2902964
 10
68501.57005394
 20
-60645.28866657
 10
68501.57005394
 20
-60542.48682239
 10
68501.57005394
 20
-60243.48682716
 10
68356.57005394
 20
-60243.48682716
 10
68356.57005394
 20
-60645.29000458
  0
LWPOLYLINE
  5
546
100
AcDbEntity
  8
Ech.1_10
 62
   190
  6
CONTINUOUS
370
    -3
100
AcDbPolyline
 90
       26
 70
     0
 43
0.0
 10
68380.7367206
 20
-60313.48682716
 42
1.14028181
 10
68386.99152828
 20
-60360.99669752
 10
68471.1485796
 20
-60338.4769568
 42
-1.30322619
 10
68471.1485796
 20
-60385.16336419
 10
68386.99152828
 20
-60362.64362347
 42
1.30322619
 10
68386.99152828
 20
-60409.33003086
 10
68471.1485796
 20
-60386.81029013
 42
-1.30322619
 10
68471.1485796
 20
-60433.49669752
 10
68386.99152828
 20
-60410.9769568
 42
1.30322619
 10
68386.99152828
 20
-60457.66336419
 10
68471.1485796
 20
-60435.14362347
 42
-1.30322619
 10
68471.1485796
 20
-60481.83003086
 10
68386.99152828
 20
-60459.31029013
 42
1.30322619
 10
68386.99152828
 20
-60505.99669752
 10
68471.1485796
 20
-60483.4769568
 42
-1.30322619
 10
68471.1485796
 20
-60530.16336419
 10
68386.99152828
 20
-60507.64362347
 42
1.30322619
 10
68386.99152828
 20
-60554.33003086
 10
68471.1485796
 20
-60531.81029013
 42
-1.30322619
 10
68471.1485796
 20
-60578.49669752
 10
68386.99152828
 20
-60555.9769568
 42
1.30322619
 10
68386.99152828
 20
-60602.66336419
 10
68471.1485796
 20
-60580.14362347
 42
-1.30322619
 10
68471.1485796
 20
-60626.83003086
 10
68386.99152828
 20
-60604.31029013
 42
0.78036235
 10
68364.21457587
 20
-60645.29000458
  0
LWPOLYLINE
  5
547
100
AcDbEntity
  8
Ech.1_10
 62
   190
  6
CONTINUOUS
370
    -3
100
AcDbPolyline
 90
        4
 70
     1
 43
0.0
 10
68456.57005394
 20
-60493.48682716
 10
68501.57005394
 20
-60493.48682716
 10
68501.57005394
 20
-60313.48682716
 10
68456.57005394
 20
-60313.48682716
  0
LWPOLYLINE
  5
548
100
AcDbEntity
  8
Ech.1_10
 62
    31
  6
CONTINUOUS
370
    -3
100
AcDbPolyline
 90
        6
 70
     1
 43
0.0
 10
69428.08368969
 20
-59148.87409164
 10
69049.44247203
 20
-59148.87409164
 10
69049.44247203
 20
-59298.87409164
 10
69428.08234746
 20
-59298.87409164
 10
69428.08397701
 20
-59265.73600886
 10
69428.08397701
 20
-59246.87409164
  0
LWPOLYLINE
  5
549
100
AcDbEntity
  8
Ech.1_10
 62
    31
  6
CONTINUOUS
370
    -3
100
AcDbPolyline
 90
        4
 70
     1
 43
0.0
 10
68520.57005394
 20
-59148.87409164
 10
68520.57005394
 20
-59298.87409164
 10
69013.05305756
 20
-59298.87409164
 10
69013.05305756
 20
-59148.87409164
  0
LWPOLYLINE
  5
54A
100
AcDbEntity
  8
Ech.1_10
 62
    31
  6
CONTINUOUS
370
    -3
100
AcDbPolyline
 90
        4
 70
     1
 43
0.0
 10
69049.44247203
 20
-58998.87409164
 10
69049.44247203
 20
-59148.87409164
 10
69428.08368969
 20
-59148.87409164
 10
69428.08324991
 20
-58998.87409164
  0
LWPOLYLINE
  5
54B
100
AcDbEntity
  8
Ech.1_10
 62
    31
  6
CONTINUOUS
370
    -3
100
AcDbPolyline
 90
        4
 70
     1
 43
0.0
 10
68520.57005394
 20
-58998.87409164
 10
68520.57005394
 20
-59148.87409164
 10
69013.05305756
 20
-59148.87409164
 10
69013.05305756
 20
-58998.87409164
  0
LWPOLYLINE
  5
54C
100
AcDbEntity
  8
Ech.1_10
 62
   190
  6
CONTINUOUS
370
    -3
100
AcDbPolyline
 90
       38
 70
     0
 43
0.0
 10
69013.05305756
 20
-59023.87409164
 42
1.14028181
 10
68963.90491581
 20
-59030.34458234
 10
68987.20119932
 20
-59117.40360095
 42
-1.30322619
 10
68938.90491581
 20
-59117.40360095
 10
68962.20119932
 20
-59030.34458234
 42
1.30322619
 10
68913.90491581
 20
-59030.34458234
 10
68937.20119932
 20
-59117.40360095
 42
-1.30322619
 10
68888.90491581
 20
-59117.40360095
 10
68912.20119932
 20
-59030.34458234
 42
1.30322619
 10
68863.90491581
 20
-59030.34458234
 10
68887.20119932
 20
-59117.40360095
 42
-1.30322619
 10
68838.90491581
 20
-59117.40360095
 10
68862.20119932
 20
-59030.34458234
 42
1.30322619
 10
68813.90491581
 20
-59030.34458234
 10
68837.20119932
 20
-59117.40360095
 42
-1.30322619
 10
68788.90491581
 20
-59117.40360095
 10
68812.20119932
 20
-59030.34458234
 42
1.30322619
 10
68763.90491581
 20
-59030.34458234
 10
68787.20119932
 20
-59117.40360095
 42
-1.30322619
 10
68738.90491581
 20
-59117.40360095
 10
68762.20119932
 20
-59030.34458234
 42
1.30322619
 10
68713.90491581
 20
-59030.34458234
 10
68737.20119932
 20
-59117.40360095
 42
-1.30322619
 10
68688.90491581
 20
-59117.40360095
 10
68712.20119932
 20
-59030.34458234
 42
1.30322619
 10
68663.90491581
 20
-59030.34458234
 10
68687.20119932
 20
-59117.40360095
 42
-1.30322619
 10
68638.90491581
 20
-59117.40360095
 10
68662.20119932
 20
-59030.34458234
 42
1.30322619
 10
68613.90491581
 20
-59030.34458234
 10
68637.20119932
 20
-59117.40360095
 42
-1.30322619
 10
68588.90491581
 20
-59117.40360095
 10
68612.20119932
 20
-59030.34458234
 42
1.30322619
 10
68563.90491581
 20
-59030.34458234
 10
68587.20119932
 20
-59117.40360095
 42
-1.30322619
 10
68538.90491581
 20
-59117.40360095
 10
68562.20119932
 20
-59030.34458234
 42
0.76298614
 10
68520.57005394
 20
-59006.00387664
  0
LWPOLYLINE
  5
54D
100
AcDbEntity
  8
Ech.1_10
 62
   190
  6
CONTINUOUS
370
    -3
100
AcDbPolyline
 90
       38
 70
     0
 43
0.0
 10
69013.05343124
 20
-59173.87409164
 42
1.14028181
 10
68963.90528948
 20
-59180.34458234
 10
68987.20157299
 20
-59267.40360095
 42
-1.30322619
 10
68938.90528948
 20
-59267.40360095
 10
68962.20157299
 20
-59180.34458234
 42
1.30322619
 10
68913.90528948
 20
-59180.34458234
 10
68937.20157299
 20
-59267.40360095
 42
-1.30322619
 10
68888.90528948
 20
-59267.40360095
 10
68912.20157299
 20
-59180.34458234
 42
1.30322619
 10
68863.90528948
 20
-59180.34458234
 10
68887.20157299
 20
-59267.40360095
 42
-1.30322619
 10
68838.90528948
 20
-59267.40360095
 10
68862.20157299
 20
-59180.34458234
 42
1.30322619
 10
68813.90528948
 20
-59180.34458234
 10
68837.20157299
 20
-59267.40360095
 42
-1.30322619
 10
68788.90528948
 20
-59267.40360095
 10
68812.20157299
 20
-59180.34458234
 42
1.30322619
 10
68763.90528948
 20
-59180.34458234
 10
68787.20157299
 20
-59267.40360095
 42
-1.30322619
 10
68738.90528948
 20
-59267.40360095
 10
68762.20157299
 20
-59180.34458234
 42
1.30322619
 10
68713.90528948
 20
-59180.34458234
 10
68737.20157299
 20
-59267.40360095
 42
-1.30322619
 10
68688.90528948
 20
-59267.40360095
 10
68712.20157299
 20
-59180.34458234
 42
1.30322619
 10
68663.90528948
 20
-59180.34458234
 10
68687.20157299
 20
-59267.40360095
 42
-1.30322619
 10
68638.90528948
 20
-59267.40360095
 10
68662.20157299
 20
-59180.34458234
 42
1.30322619
 10
68613.90528948
 20
-59180.34458234
 10
68637.20157299
 20
-59267.40360095
 42
-1.30322619
 10
68588.90528948
 20
-59267.40360095
 10
68612.20157299
 20
-59180.34458234
 42
1.30322619
 10
68563.90528948
 20
-59180.34458234
 10
68587.20157299
 20
-59267.40360095
 42
-1.30322619
 10
68538.90528948
 20
-59267.40360095
 10
68562.20157299
 20
-59180.34458234
 42
0.76299441
 10
68520.57005394
 20
-59156.00424222
  0
LWPOLYLINE
  5
54E
100
AcDbEntity
  8
Ech.1_10
 62
   190
  6
CONTINUOUS
370
    -3
100
AcDbPolyline
 90
       28
 70
     0
 43
0.0
 10
69419.19296636
 20
-59022.22910729
 42
1.14028181
 10
69370.07458338
 20
-59028.91812094
 10
69393.75771533
 20
-59115.87177558
 42
-1.30322619
 10
69345.46238772
 20
-59116.08663684
 10
69368.37090061
 20
-59028.92570046
 42
1.30322619
 10
69320.075573
 20
-59029.14056173
 10
69343.75870494
 20
-59116.09421636
 42
-1.30322619
 10
69295.46337733
 20
-59116.30907762
 10
69318.37189022
 20
-59029.14814125
 42
1.30322619
 10
69270.07656261
 20
-59029.36300251
 10
69293.75969456
 20
-59116.31665714
 42
-1.30322619
 10
69245.46436695
 20
-59116.53151841
 10
69268.37287984
 20
-59029.37058203
 42
1.30322619
 10
69220.07755223
 20
-59029.58544329
 10
69243.76068418
 20
-59116.53909793
 42
-1.30322619
 10
69195.46535657
 20
-59116.75395919
 10
69218.37386946
 20
-59029.59302282
 42
1.30322619
 10
69170.07854185
 20
-59029.80788408
 10
69193.7616738
 20
-59116.76153871
 42
-1.30322619
 10
69145.46634619
 20
-59116.97639997
 10
69168.37485908
 20
-59029.8154636
 42
1.30322619
 10
69120.07953147
 20
-59030.03032486
 10
69143.76266341
 20
-59116.98397949
 42
-1.30322619
 10
69095.4673358
 20
-59117.19884076
 10
69118.3758487
 20
-59030.03790438
 42
1.30322619
 10
69070.08052109
 20
-59030.25276565
 10
69093.76365303
 20
-59117.20642028
 42
-0.81558487
 10
69050.06735267
 20
-59139.33130828
  0
LWPOLYLINE
  5
54F
100
AcDbEntity
  8
Ech.1_10
 62
   190
  6
CONTINUOUS
370
    -3
100
AcDbPolyline
 90
       28
 70
     0
 43
0.0
 10
69419.08218574
 20
-59173.87409164
 42
1.14028181
 10
69369.93404399
 20
-59180.34458234
 10
69393.2303275
 20
-59267.40360095
 42
-1.30322619
 10
69344.93404399
 20
-59267.40360095
 10
69368.2303275
 20
-59180.34458234
 42
1.30322619
 10
69319.93404399
 20
-59180.34458234
 10
69343.2303275
 20
-59267.40360095
 42
-1.30322619
 10
69294.93404399
 20
-59267.40360095
 10
69318.2303275
 20
-59180.34458234
 42
1.30322619
 10
69269.93404399
 20
-59180.34458234
 10
69293.2303275
 20
-59267.40360095
 42
-1.30322619
 10
69244.93404399
 20
-59267.40360095
 10
69268.2303275
 20
-59180.34458234
 42
1.30322619
 10
69219.93404399
 20
-59180.34458234
 10
69243.2303275
 20
-59267.40360095
 42
-1.30322619
 10
69194.93404399
 20
-59267.40360095
 10
69218.2303275
 20
-59180.34458234
 42
1.30322619
 10
69169.93404399
 20
-59180.34458234
 10
69193.2303275
 20
-59267.40360095
 42
-1.30322619
 10
69144.93404399
 20
-59267.40360095
 10
69168.2303275
 20
-59180.34458234
 42
1.30322619
 10
69119.93404399
 20
-59180.34458234
 10
69143.2303275
 20
-59267.40360095
 42
-1.30322619
 10
69094.93404399
 20
-59267.40360095
 10
69118.2303275
 20
-59180.34458234
 42
1.30322619
 10
69069.93404399
 20
-59180.34458234
 10
69093.2303275
 20
-59267.40360095
 42
-0.81539977
 10
69049.44247203
 20
-59289.34282286
  0
LWPOLYLINE
  5
550
100
AcDbEntity
  8
Ech.1_10
 62
   190
  6
CONTINUOUS
370
    -3
100
AcDbPolyline
 90
        4
 70
     1
 43
0.0
 10
69049.44247203
 20
-59298.87409164
 10
69049.44247203
 20
-59317.87409164
 10
69542.08174596
 20
-59317.87409164
 10
69542.08174596
 20
-59298.87409164
  0
LWPOLYLINE
  5
551
100
AcDbEntity
  8
Ech.1_10
 62
   190
  6
CONTINUOUS
370
    -3
100
AcDbPolyline
 90
        4
 70
     1
 43
0.0
 10
68511.57005394
 20
-59298.87409164
 10
68511.57005394
 20
-59317.87409164
 10
69013.05305756
 20
-59317.87409164
 10
69013.05305756
 20
-59298.87409164
  0
LWPOLYLINE
  5
552
100
AcDbEntity
  8
Ech.1_10
 62
   190
  6
CONTINUOUS
370
    -3
100
AcDbPolyline
 90
        4
 70
     1
 43
0.0
 10
69049.44247203
 20
-59637.87392914
 10
69049.44247203
 20
-59650.87392914
 10
69542.08174596
 20
-59650.87392914
 10
69542.08174596
 20
-59637.87392914
  0
LWPOLYLINE
  5
553
100
AcDbEntity
  8
Ech.1_10
 62
   190
  6
CONTINUOUS
370
    -3
100
AcDbPolyline
 90
        4
 70
     1
 43
0.0
 10
68501.57005394
 20
-59637.87392914
 10
68501.57005394
 20
-59650.87392914
 10
69013.05305756
 20
-59650.87392914
 10
69013.05305756
 20
-59637.87392914
  0
LWPOLYLINE
  5
554
100
AcDbEntity
  8
Ech.1_10
 62
   190
  6
CONTINUOUS
370
    -3
100
AcDbPolyline
 90
        4
 70
     1
 43
0.0
 10
68501.57005394
 20
-60439.4881686
 10
69013.05425778
 20
-60439.4881686
 10
69013.05425778
 20
-60452.4881686
 10
68501.57005394
 20
-60452.4881686
  0
LWPOLYLINE
  5
555
100
AcDbEntity
  8
Ech.1_10
 62
   190
  6
CONTINUOUS
370
    -3
100
AcDbPolyline
 90
        4
 70
     1
 43
0.0
 10
68501.57005394
 20
-60339.48833111
 10
69013.05425778
 20
-60339.48833111
 10
69013.05425778
 20
-60439.48833111
 10
68501.57005394
 20
-60439.48833111
  0
LWPOLYLINE
  5
556
100
AcDbEntity
  8
Ech.1_10
 62
   253
  6
CONTINUOUS
370
    15
100
AcDbPolyline
 90
        4
 70
     1
 43
0.0
 10
68541.57005394
 20
-60645.28866657
 10
68554.57005394
 20
-60645.28866657
 10
68554.57005394
 20
-60452.48833111
 10
68541.57005394
 20
-60452.48833111
  0
LWPOLYLINE
  5
557
102
{ACAD_REACTORS
330
558
102
}
100
AcDbEntity
  8
Ech.1_10
 62
     7
  6
CONTINUOUS
370
    -3
100
AcDbPolyline
 90
        4
 70
     1
 43
0.0
 10
68541.57005394
 20
-60645.28866657
 10
68554.57005394
 20
-60645.28866657
 10
68554.57005394
 20
-60452.48833111
 10
68541.57005394
 20
-60452.48833111
  0
HATCH
  5
558
100
AcDbEntity
  8
Ech.1_10
 62
   190
  6
CONTINUOUS
100
AcDbHatch
 10
0.0
 20
0.0
 30
0.0
210
0.0
220
0.0
230
1.0
  2
DOTS2
 70
     0
 71
     1
 91
        1
 92
        7
 72
     0
 73
     1
 93
        4
 10
68541.57005394
 20
-60645.28866657
 10
68554.57005394
 20
-60645.28866657
 10
68554.57005394
 20
-60452.48833111
 10
68541.57005394
 20
-60452.48833111
 97
        1
330
557
 75
     0
 76
     2
 52
0.0
 41
4.72440952
 77
     0
 78
     1
 53
0.0
 43
0.0
 44
0.0
 45
3.75
 46
3.535
 79
     2
 49
0.0
 49
-3.535
 47
0.775229
 98
        1
 10
0.0
 20
0.0
  0
LWPOLYLINE
  5
559
100
AcDbEntity
  8
Ech.1_10
 62
   190
  6
CONTINUOUS
370
    -3
100
AcDbPolyline
 90
        4
 70
     1
 43
0.0
 10
68501.57005394
 20
-60645.28866657
 10
68541.57005394
 20
-60645.28866657
 10
68541.57005394
 20
-60512.48833111
 10
68501.57005394
 20
-60512.48833111
  0
LWPOLYLINE
  5
55A
100
AcDbEntity
  8
Ech.1_10
 62
   190
  6
CONTINUOUS
370
    -3
100
AcDbPolyline
 90
        4
 70
     1
 43
0.0
 10
68521.57005394
 20
-60243.48682716
 10
68501.57005394
 20
-60243.48682716
 10
68501.57005394
 20
-60339.48682716
 10
68521.57005394
 20
-60339.48682716
  0
LWPOLYLINE
  5
55B
100
AcDbEntity
  8
Ech.1_10
 62
   253
  6
CONTINUOUS
370
    15
100
AcDbPolyline
 90
        4
 70
     1
 43
0.0
 10
68541.57005394
 20
-60129.48682716
 10
68554.57005394
 20
-60129.48682716
 10
68554.57005394
 20
-59861.08396999
 10
68541.57005394
 20
-59861.08396999
  0
LWPOLYLINE
  5
55C
102
{ACAD_REACTORS
330
55D
102
}
100
AcDbEntity
  8
Ech.1_10
 62
     7
  6
CONTINUOUS
370
    -3
100
AcDbPolyline
 90
        4
 70
     1
 43
0.0
 10
68541.57005394
 20
-60129.48682716
 10
68554.57005394
 20
-60129.48682716
 10
68554.57005394
 20
-59861.08396999
 10
68541.57005394
 20
-59861.08396999
  0
HATCH
  5
55D
100
AcDbEntity
  8
Ech.1_10
 62
   190
  6
CONTINUOUS
100
AcDbHatch
 10
0.0
 20
0.0
 30
0.0
210
0.0
220
0.0
230
1.0
  2
DOTS2
 70
     0
 71
     1
 91
        1
 92
        7
 72
     0
 73
     1
 93
        4
 10
68541.57005394
 20
-60129.48682716
 10
68554.57005394
 20
-60129.48682716
 10
68554.57005394
 20
-59861.08396999
 10
68541.57005394
 20
-59861.08396999
 97
        1
330
55C
 75
     0
 76
     2
 52
0.0
 41
4.72440952
 77
     0
 78
     1
 53
0.0
 43
0.0
 44
0.0
 45
3.75
 46
3.535
 79
     2
 49
0.0
 49
-3.535
 47
0.775229
 98
        1
 10
0.0
 20
0.0
  0
LWPOLYLINE
  5
55E
100
AcDbEntity
  8
Ech.1_10
 62
   190
  6
CONTINUOUS
370
    -3
100
AcDbPolyline
 90
        4
 70
     1
 43
0.0
 10
68501.57005394
 20
-60129.48682716
 10
68541.57005394
 20
-60129.48682716
 10
68541.57005394
 20
-60084.48682716
 10
68501.57005394
 20
-60084.48682716
  0
LWPOLYLINE
  5
55F
100
AcDbEntity
  8
Ech.1_10
 62
   190
370
    18
100
AcDbPolyline
 90
        4
 70
     0
 43
0.0
 10
68501.57005394
 20
-60084.48682716
 10
68541.57005394
 20
-60129.48682716
 10
68541.57005394
 20
-60084.48682716
 10
68501.57005394
 20
-60129.48682716
  0
LWPOLYLINE
  5
560
100
AcDbEntity
  8
Ech.1_10
 62
   190
  6
CONTINUOUS
370
    -3
100
AcDbPolyline
 90
        4
 70
     1
 43
0.0
 10
68287.57005394
 20
-60139.48682716
 10
68347.57005394
 20
-60139.48682716
 10
68347.57005394
 20
-59861.0845063
 10
68287.57005394
 20
-59861.0845063
  0
LWPOLYLINE
  5
561
100
AcDbEntity
  8
Ech.1_10
 62
     7
  6
CONTINUOUS
370
    -3
100
AcDbPolyline
 90
        4
 70
     1
 43
0.0
 10
68287.57005394
 20
-60139.48682716
 10
68347.57005394
 20
-60139.48682716
 10
68347.57005394
 20
-60094.48682716
 10
68287.57005394
 20
-60094.48682716
  0
LWPOLYLINE
  5
562
100
AcDbEntity
  8
Ech.1_10
 62
   190
  6
CONTINUOUS
370
    -3
100
AcDbPolyline
 90
        4
 70
     1
 43
0.0
 10
68287.57005394
 20
-60645.29017146
 10
68347.57005394
 20
-60645.29017146
 10
68347.57005394
 20
-60288.48682716
 10
68287.57005394
 20
-60288.48682716
  0
LWPOLYLINE
  5
563
100
AcDbEntity
  8
Ech.1_10
 62
   190
370
    18
100
AcDbPolyline
 90
        4
 70
     0
 43
0.0
 10
68287.57005394
 20
-60094.48682716
 10
68347.57005394
 20
-60139.48682716
 10
68347.57005394
 20
-60094.48682716
 10
68287.57005394
 20
-60139.48682716
  0
LWPOLYLINE
  5
564
100
AcDbEntity
  8
Ech.1_10
 62
     7
  6
CONTINUOUS
370
    -3
100
AcDbPolyline
 90
        4
 70
     1
 43
0.0
 10
69049.44247203
 20
-59317.87409164
 10
69049.44247203
 20
-59537.87409164
 10
69453.08174596
 20
-59537.87409164
 10
69453.08174596
 20
-59317.87409164
  0
LWPOLYLINE
  5
565
100
AcDbEntity
  8
Ech.1_10
 62
     7
  6
CONTINUOUS
370
    -3
100
AcDbPolyline
 90
        4
 70
     1
 43
0.0
 10
68546.57005394
 20
-59317.87409164
 10
68546.57005394
 20
-59537.87409164
 10
69013.05305756
 20
-59537.87409164
 10
69013.05305756
 20
-59317.87409164
  0
LWPOLYLINE
  5
566
100
AcDbEntity
  8
Ech.1_10
 62
   190
  6
CONTINUOUS
370
    -3
100
AcDbPolyline
 90
        4
 70
     1
 43
0.0
 10
69049.44247203
 20
-59537.87409164
 10
69049.44247203
 20
-59637.87409164
 10
69542.08174596
 20
-59637.87409164
 10
69542.08174596
 20
-59537.87409164
  0
LWPOLYLINE
  5
567
100
AcDbEntity
  8
Ech.1_10
 62
   190
  6
CONTINUOUS
370
    -3
100
AcDbPolyline
 90
        4
 70
     1
 43
0.0
 10
68501.57005394
 20
-59537.87409164
 10
68501.57005394
 20
-59637.87409164
 10
69013.05305756
 20
-59637.87409164
 10
69013.05305756
 20
-59537.87409164
  0
LWPOLYLINE
  5
568
100
AcDbEntity
  8
Ech.1_10
 62
     7
  6
CONTINUOUS
370
    -3
100
AcDbPolyline
 90
        4
 70
     1
 43
0.0
 10
68287.57005394
 20
-58998.87409164
 10
68347.57005394
 20
-58998.87409164
 10
68347.57005394
 20
-58953.87409164
 10
68287.57005394
 20
-58953.87409164
  0
LWPOLYLINE
  5
569
100
AcDbEntity
  8
Ech.1_10
 62
   190
  6
CONTINUOUS
370
    -3
100
AcDbPolyline
 90
        4
 70
     1
 43
0.0
 10
68287.57005394
 20
-58998.87409164
 10
68287.57005394
 20
-59824.69573838
 10
68347.57005394
 20
-59824.69573838
 10
68347.57005394
 20
-58998.87409164
  0
LWPOLYLINE
  5
56A
100
AcDbEntity
  8
Ech.1_10
 62
   190
  6
CONTINUOUS
370
    -3
100
AcDbPolyline
 90
      164
 70
     0
 43
0.0
 10
68337.57005394
 20
-59824.69576928
 42
1.14028181
 10
68334.98185766
 20
-59805.03651258
 10
68300.15825022
 20
-59814.35502598
 42
-1.30322619
 10
68300.15825022
 20
-59795.03651258
 10
68334.98185766
 20
-59804.35502598
 42
1.30322619
 10
68334.98185766
 20
-59785.03651258
 10
68300.15825022
 20
-59794.35502598
 42
-1.30322619
 10
68300.15825022
 20
-59775.03651258
 10
68334.98185766
 20
-59784.35502598
 42
1.30322619
 10
68334.98185766
 20
-59765.03651258
 10
68300.15825022
 20
-59774.35502598
 42
-1.30322619
 10
68300.15825022
 20
-59755.03651258
 10
68334.98185766
 20
-59764.35502598
 42
1.30322619
 10
68334.98185766
 20
-59745.03651258
 10
68300.15825022
 20
-59754.35502598
 42
-1.30322619
 10
68300.15825022
 20
-59735.03651258
 10
68334.98185766
 20
-59744.35502598
 42
1.30322619
 10
68334.98185766
 20
-59725.03651258
 10
68300.15825022
 20
-59734.35502598
 42
-1.30322619
 10
68300.15825022
 20
-59715.03651258
 10
68334.98185766
 20
-59724.35502598
 42
1.30322619
 10
68334.98185766
 20
-59705.03651258
 10
68300.15825022
 20
-59714.35502598
 42
-1.30322619
 10
68300.15825022
 20
-59695.03651258
 10
68334.98185766
 20
-59704.35502598
 42
1.30322619
 10
68334.98185766
 20
-59685.03651258
 10
68300.15825022
 20
-59694.35502598
 42
-1.30322619
 10
68300.15825022
 20
-59675.03651258
 10
68334.98185766
 20
-59684.35502598
 42
1.30322619
 10
68334.98185766
 20
-59665.03651258
 10
68300.15825022
 20
-59674.35502598
 42
-1.30322619
 10
68300.15825022
 20
-59655.03651258
 10
68334.98185766
 20
-59664.35502598
 42
1.30322619
 10
68334.98185766
 20
-59645.03651258
 10
68300.15825022
 20
-59654.35502598
 42
-1.30322619
 10
68300.15825022
 20
-59635.03651258
 10
68334.98185766
 20
-59644.35502598
 42
1.30322619
 10
68334.98185766
 20
-59625.03651258
 10
68300.15825022
 20
-59634.35502598
 42
-1.30322619
 10
68300.15825022
 20
-59615.03651258
 10
68334.98185766
 20
-59624.35502598
 42
1.30322619
 10
68334.98185766
 20
-59605.03651258
 10
68300.15825022
 20
-59614.35502598
 42
-1.30322619
 10
68300.15825022
 20
-59595.03651258
 10
68334.98185766
 20
-59604.35502598
 42
1.30322619
 10
68334.98185766
 20
-59585.03651258
 10
68300.15825022
 20
-59594.35502598
 42
-1.30322619
 10
68300.15825022
 20
-59575.03651258
 10
68334.98185766
 20
-59584.35502598
 42
1.30322619
 10
68334.98185766
 20
-59565.03651258
 10
68300.15825022
 20
-59574.35502598
 42
-1.30322619
 10
68300.15825022
 20
-59555.03651258
 10
68334.98185766
 20
-59564.35502598
 42
1.30322619
 10
68334.98185766
 20
-59545.03651258
 10
68300.15825022
 20
-59554.35502598
 42
-1.30322619
 10
68300.15825022
 20
-59535.03651258
 10
68334.98185766
 20
-59544.35502598
 42
1.30322619
 10
68334.98185766
 20
-59525.03651258
 10
68300.15825022
 20
-59534.35502598
 42
-1.30322619
 10
68300.15825022
 20
-59515.03651258
 10
68334.98185766
 20
-59524.35502598
 42
1.30322619
 10
68334.98185766
 20
-59505.03651258
 10
68300.15825022
 20
-59514.35502598
 42
-1.30322619
 10
68300.15825022
 20
-59495.03651258
 10
68334.98185766
 20
-59504.35502598
 42
1.30322619
 10
68334.98185766
 20
-59485.03651258
 10
68300.15825022
 20
-59494.35502598
 42
-1.30322619
 10
68300.15825022
 20
-59475.03651258
 10
68334.98185766
 20
-59484.35502598
 42
1.30322619
 10
68334.98185766
 20
-59465.03651258
 10
68300.15825022
 20
-59474.35502598
 42
-1.30322619
 10
68300.15825022
 20
-59455.03651258
 10
68334.98185766
 20
-59464.35502598
 42
1.30322619
 10
68334.98185766
 20
-59445.03651258
 10
68300.15825022
 20
-59454.35502598
 42
-1.30322619
 10
68300.15825022
 20
-59435.03651258
 10
68334.98185766
 20
-59444.35502598
 42
1.30322619
 10
68334.98185766
 20
-59425.03651258
 10
68300.15825022
 20
-59434.35502598
 42
-1.30322619
 10
68300.15825022
 20
-59415.03651258
 10
68334.98185766
 20
-59424.35502598
 42
1.30322619
 10
68334.98185766
 20
-59405.03651258
 10
68300.15825022
 20
-59414.35502598
 42
-1.30322619
 10
68300.15825022
 20
-59395.03651258
 10
68334.98185766
 20
-59404.35502598
 42
1.30322619
 10
68334.98185766
 20
-59385.03651258
 10
68300.15825022
 20
-59394.35502598
 42
-1.30322619
 10
68300.15825022
 20
-59375.03651258
 10
68334.98185766
 20
-59384.35502598
 42
1.30322619
 10
68334.98185766
 20
-59365.03651258
 10
68300.15825022
 20
-59374.35502598
 42
-1.30322619
 10
68300.15825022
 20
-59355.03651258
 10
68334.98185766
 20
-59364.35502598
 42
1.30322619
 10
68334.98185766
 20
-59345.03651258
 10
68300.15825022
 20
-59354.35502598
 42
-1.30322619
 10
68300.15825022
 20
-59335.03651258
 10
68334.98185766
 20
-59344.35502598
 42
1.30322619
 10
68334.98185766
 20
-59325.03651258
 10
68300.15825022
 20
-59334.35502598
 42
-1.30322619
 10
68300.15825022
 20
-59315.03651258
 10
68334.98185766
 20
-59324.35502598
 42
1.30322619
 10
68334.98185766
 20
-59305.03651258
 10
68300.15825022
 20
-59314.35502598
 42
-1.30322619
 10
68300.15825022
 20
-59295.03651258
 10
68334.98185766
 20
-59304.35502598
 42
1.30322619
 10
68334.98185766
 20
-59285.03651258
 10
68300.15825022
 20
-59294.35502598
 42
-1.30322619
 10
68300.15825022
 20
-59275.03651258
 10
68334.98185766
 20
-59284.35502598
 42
1.30322619
 10
68334.98185766
 20
-59265.03651258
 10
68300.15825022
 20
-59274.35502598
 42
-1.30322619
 10
68300.15825022
 20
-59255.03651258
 10
68334.98185766
 20
-59264.35502598
 42
1.30322619
 10
68334.98185766
 20
-59245.03651258
 10
68300.15825022
 20
-59254.35502598
 42
-1.30322619
 10
68300.15825022
 20
-59235.03651258
 10
68334.98185766
 20
-59244.35502598
 42
1.30322619
 10
68334.98185766
 20
-59225.03651258
 10
68300.15825022
 20
-59234.35502598
 42
-1.30322619
 10
68300.15825022
 20
-59215.03651258
 10
68334.98185766
 20
-59224.35502598
 42
1.30322619
 10
68334.98185766
 20
-59205.03651258
 10
68300.15825022
 20
-59214.35502598
 42
-1.30322619
 10
68300.15825022
 20
-59195.03651258
 10
68334.98185766
 20
-59204.35502598
 42
1.30322619
 10
68334.98185766
 20
-59185.03651258
 10
68300.15825022
 20
-59194.35502598
 42
-1.30322619
 10
68300.15825022
 20
-59175.03651258
 10
68334.98185766
 20
-59184.35502598
 42
1.30322619
 10
68334.98185766
 20
-59165.03651258
 10
68300.15825022
 20
-59174.35502598
 42
-1.30322619
 10
68300.15825022
 20
-59155.03651258
 10
68334.98185766
 20
-59164.35502598
 42
1.30322619
 10
68334.98185766
 20
-59145.03651258
 10
68300.15825022
 20
-59154.35502598
 42
-1.30322619
 10
68300.15825022
 20
-59135.03651258
 10
68334.98185766
 20
-59144.35502598
 42
1.30322619
 10
68334.98185766
 20
-59125.03651258
 10
68300.15825022
 20
-59134.35502598
 42
-1.30322619
 10
68300.15825022
 20
-59115.03651258
 10
68334.98185766
 20
-59124.35502598
 42
1.30322619
 10
68334.98185766
 20
-59105.03651258
 10
68300.15825022
 20
-59114.35502598
 42
-1.30322619
 10
68300.15825022
 20
-59095.03651258
 10
68334.98185766
 20
-59104.35502598
 42
1.30322619
 10
68334.98185766
 20
-59085.03651258
 10
68300.15825022
 20
-59094.35502598
 42
-1.30322619
 10
68300.15825022
 20
-59075.03651258
 10
68334.98185766
 20
-59084.35502598
 42
1.30322619
 10
68334.98185766
 20
-59065.03651258
 10
68300.15825022
 20
-59074.35502598
 42
-1.30322619
 10
68300.15825022
 20
-59055.03651258
 10
68334.98185766
 20
-59064.35502598
 42
1.30322619
 10
68334.98185766
 20
-59045.03651258
 10
68300.15825022
 20
-59054.35502598
 42
-1.30322619
 10
68300.15825022
 20
-59035.03651258
 10
68334.98185766
 20
-59044.35502598
 42
1.30322619
 10
68334.98185766
 20
-59025.03651258
 10
68300.15825022
 20
-59034.35502598
 42
-1.30322619
 10
68300.15825022
 20
-59015.03651258
 10
68334.98185766
 20
-59024.35502598
 42
1.30322619
 10
68334.98185766
 20
-59005.03651258
 10
68300.15825022
 20
-59014.35502598
 42
-0.70413711
 10
68289.43936704
 20
-58998.87409164
  0
LWPOLYLINE
  5
56B
100
AcDbEntity
  8
Ech.1_10
 62
     7
  6
CONTINUOUS
370
    -3
100
AcDbPolyline
 90
        4
 70
     1
 43
0.0
 10
68287.57005394
 20
-58873.87409164
 10
68347.57005394
 20
-58873.87409164
 10
68347.57005394
 20
-58828.87409164
 10
68287.57005394
 20
-58828.87409164
  0
LWPOLYLINE
  5
56C
100
AcDbEntity
  8
Ech.1_10
 62
   190
  6
CONTINUOUS
370
    -3
100
AcDbPolyline
 90
        9
 70
     1
 43
0.0
 10
68501.57005394
 20
-59701.87408969
 10
68501.57005394
 20
-58998.87409164
 10
68356.57005394
 20
-58998.87409164
 10
68356.57005394
 20
-59824.69576928
 10
68435.64252791
 20
-59824.69606087
 10
68452.12888199
 20
-59806.71770927
 10
68438.01894198
 20
-59842.67340928
 10
68454.50444513
 20
-59824.69606087
 10
68501.57005394
 20
-59824.69443132
  0
LWPOLYLINE
  5
56D
100
AcDbEntity
  8
Ech.1_10
 62
   253
  6
CONTINUOUS
370
    15
100
AcDbPolyline
 90
        4
 70
     1
 43
0.0
 10
68541.57005394
 20
-59824.69443132
 10
68554.57005394
 20
-59824.69443132
 10
68554.57005394
 20
-59650.87408399
 10
68541.57005394
 20
-59650.87408399
  0
LWPOLYLINE
  5
56E
102
{ACAD_REACTORS
330
56F
102
}
100
AcDbEntity
  8
Ech.1_10
 62
     7
  6
CONTINUOUS
370
    -3
100
AcDbPolyline
 90
        4
 70
     1
 43
0.0
 10
68541.57005394
 20
-59824.69443132
 10
68554.57005394
 20
-59824.69443132
 10
68554.57005394
 20
-59650.87408399
 10
68541.57005394
 20
-59650.87408399
  0
HATCH
  5
56F
100
AcDbEntity
  8
Ech.1_10
 62
   190
  6
CONTINUOUS
100
AcDbHatch
 10
0.0
 20
0.0
 30
0.0
210
0.0
220
0.0
230
1.0
  2
DOTS2
 70
     0
 71
     1
 91
        1
 92
        7
 72
     0
 73
     1
 93
        4
 10
68541.57005394
 20
-59824.69443132
 10
68554.57005394
 20
-59824.69443132
 10
68554.57005394
 20
-59650.87408399
 10
68541.57005394
 20
-59650.87408399
 97
        1
330
56E
 75
     0
 76
     2
 52
0.0
 41
4.72440952
 77
     0
 78
     1
 53
0.0
 43
0.0
 44
0.0
 45
3.75
 46
3.535
 79
     2
 49
0.0
 49
-3.535
 47
0.775229
 98
        1
 10
0.0
 20
0.0
  0
LWPOLYLINE
  5
570
100
AcDbEntity
  8
Ech.1_10
 62
   190
  6
CONTINUOUS
370
    -3
100
AcDbPolyline
 90
        4
 70
     1
 43
0.0
 10
68501.57005394
 20
-59824.69443132
 10
68541.57005394
 20
-59824.69443132
 10
68541.57005394
 20
-59701.87408969
 10
68501.57005394
 20
-59701.87408969
  0
LWPOLYLINE
  5
571
100
AcDbEntity
  8
Ech.1_10
 62
   190
  6
CONTINUOUS
370
    -3
100
AcDbPolyline
 90
        4
 70
     1
 43
0.0
 10
68356.57005394
 20
-58828.87409164
 10
68347.57005394
 20
-58828.87409164
 10
68347.57005394
 20
-59824.69576928
 10
68356.57005394
 20
-59824.69576928
  0
LWPOLYLINE
  5
572
100
AcDbEntity
  8
Ech.1_10
 62
   190
  6
CONTINUOUS
370
    -3
100
AcDbPolyline
 90
        6
 70
     0
 43
0.0
 10
68607.36715641
 20
-59824.69443132
 10
68454.50444513
 20
-59824.69606087
 10
68438.01894198
 20
-59842.67340928
 10
68452.12888199
 20
-59806.71770927
 10
68435.64252791
 20
-59824.69606087
 10
68222.57005394
 20
-59824.69527513
  0
LINE
  5
573
100
AcDbEntity
  8
Ech.1_10
 62
   190
  6
CONTINUOUS
370
    -3
100
AcDbLine
 10
68347.57005394
 20
-59020.47195011
 30
0.0
 11
68347.57005394
 21
-59824.69573838
 31
0.0
  0
LWPOLYLINE
  5
574
100
AcDbEntity
  8
Ech.1_10
 62
   190
  6
CONTINUOUS
370
    -3
100
AcDbPolyline
 90
        4
 70
     1
 43
0.0
 10
68546.57005394
 20
-59317.87409164
 10
68501.57005394
 20
-59317.87409164
 10
68501.57005394
 20
-59537.87409164
 10
68546.57005394
 20
-59537.87409164
  0
LWPOLYLINE
  5
575
100
AcDbEntity
  8
Ech.1_10
 62
   190
  6
CONTINUOUS
370
    -3
100
AcDbPolyline
 90
        4
 70
     1
 43
0.0
 10
68501.57005394
 20
-59537.87409164
 10
68546.57005394
 20
-59537.87409164
 10
68546.57005394
 20
-59317.87409164
 10
68501.57005394
 20
-59317.87409164
  0
LINE
  5
576
100
AcDbEntity
  8
Ech.1_10
370
    18
100
AcDbLine
 10
68262.57005394
 20
-59672.98420558
 30
0.0
 11
68262.57005394
 21
-59072.98417797
 31
0.0
  0
LWPOLYLINE
  5
577
100
AcDbEntity
  8
Ech.1_10
 62
     9
100
AcDbPolyline
 90
       27
 70
     0
 43
0.0
 10
68249.44343682
 20
-59523.10437255
 10
68249.57005394
 20
-59522.76989876
 10
68249.57005394
 20
-59495.38643467
 10
68256.57005394
 20
-59495.38643467
 10
68256.57005394
 20
-59504.38643467
 10
68262.57005394
 20
-59504.38643467
 10
68262.57005394
 20
-59477.38643467
 10
68258.57005394
 20
-59473.38643467
 10
68262.57005394
 20
-59469.38643467
 10
68262.57005394
 20
-59405.38643467
 10
68258.57005394
 20
-59401.38643467
 10
68262.57005394
 20
-59397.38643467
 10
68262.57005394
 20
-59362.38643467
 10
68255.57005394
 20
-59362.38643467
 10
68255.57005394
 20
-59356.38643467
 10
68253.07005394
 20
-59351.38643467
 10
68250.57005394
 20
-59356.38643467
 10
68250.57005394
 20
-59387.31536685
 10
68250.1894516
 20
-59389.22878402
 10
68244.03452003
 20
-59395.92196857
 10
68242.57005394
 20
-59399.45750248
 10
68242.57005394
 20
-59518.54424689
 10
68243.53037633
 20
-59520.17411553
 10
68248.26649719
 20
-59523.14546547
 10
68248.67849856
 20
-59523.38643467
 10
68248.99231605
 20
-59523.38643467
 10
68249.44343682
 20
-59523.10437255
  0
LWPOLYLINE
  5
578
100
AcDbEntity
  8
Ech.1_10
 62
     9
100
AcDbPolyline
 90
       27
 70
     0
 43
0.0
 10
68249.44343682
 20
-59668.10437255
 10
68249.57005394
 20
-59667.76989876
 10
68249.57005394
 20
-59640.38643467
 10
68256.57005394
 20
-59640.38643467
 10
68256.57005394
 20
-59649.38643467
 10
68262.57005394
 20
-59649.38643467
 10
68262.57005394
 20
-59622.38643467
 10
68258.57005394
 20
-59618.38643467
 10
68262.57005394
 20
-59614.38643467
 10
68262.57005394
 20
-59550.38643467
 10
68258.57005394
 20
-59546.38643467
 10
68262.57005394
 20
-59542.38643467
 10
68262.57005394
 20
-59507.38643467
 10
68255.57005394
 20
-59507.38643467
 10
68255.57005394
 20
-59501.38643467
 10
68253.07005394
 20
-59496.38643467
 10
68250.57005394
 20
-59501.38643467
 10
68250.57005394
 20
-59532.31536685
 10
68250.1894516
 20
-59534.22878402
 10
68244.03452003
 20
-59540.92196857
 10
68242.57005394
 20
-59544.45750248
 10
68242.57005394
 20
-59663.54424689
 10
68243.53037633
 20
-59665.17411553
 10
68248.26649719
 20
-59668.14546547
 10
68248.67849856
 20
-59668.38643467
 10
68248.99231605
 20
-59668.38643467
 10
68249.44343682
 20
-59668.10437255
  0
LWPOLYLINE
  5
579
100
AcDbEntity
  8
Ech.1_10
 62
     9
100
AcDbPolyline
 90
       27
 70
     0
 43
0.0
 10
68249.44343682
 20
-59378.10437255
 10
68249.57005394
 20
-59377.76989876
 10
68249.57005394
 20
-59350.38643467
 10
68256.57005394
 20
-59350.38643467
 10
68256.57005394
 20
-59359.38643467
 10
68262.57005394
 20
-59359.38643467
 10
68262.57005394
 20
-59332.38643467
 10
68258.57005394
 20
-59328.38643467
 10
68262.57005394
 20
-59324.38643467
 10
68262.57005394
 20
-59260.38643467
 10
68258.57005394
 20
-59256.38643467
 10
68262.57005394
 20
-59252.38643467
 10
68262.57005394
 20
-59217.38643467
 10
68255.57005394
 20
-59217.38643467
 10
68255.57005394
 20
-59211.38643467
 10
68253.07005394
 20
-59206.38643467
 10
68250.57005394
 20
-59211.38643467
 10
68250.57005394
 20
-59242.31536685
 10
68250.1894516
 20
-59244.22878402
 10
68244.03452003
 20
-59250.92196857
 10
68242.57005394
 20
-59254.45750248
 10
68242.57005394
 20
-59373.54424689
 10
68243.53037633
 20
-59375.17411553
 10
68248.26649719
 20
-59378.14546547
 10
68248.67849856
 20
-59378.38643467
 10
68248.99231605
 20
-59378.38643467
 10
68249.44343682
 20
-59378.10437255
  0
LWPOLYLINE
  5
57A
100
AcDbEntity
  8
Ech.1_10
 62
     9
  6
CONTINUOUS
370
    -3
100
AcDbPolyline
 90
        4
 70
     1
 43
0.0
 10
68262.57005394
 20
-59824.76613481
 10
68287.57005394
 20
-59824.76605337
 10
68287.57005394
 20
-58828.87382428
 10
68262.57005394
 20
-58828.87409164
  0
LWPOLYLINE
  5
57B
100
AcDbEntity
  8
Ech.1_10
 62
   190
  6
CONTINUOUS
370
    -3
100
AcDbPolyline
 90
        4
 70
     0
 43
0.0
 10
69013.05272506
 20
-59637.87409164
 10
68599.77833617
 20
-59637.87409164
 10
68599.77833617
 20
-59537.87409164
 10
69013.05272506
 20
-59537.87409164
  0
LINE
  5
57C
100
AcDbEntity
  8
Ech.1_10
 62
   190
  6
CONTINUOUS
370
    -3
100
AcDbLine
 10
68501.57005394
 20
-59627.87409164
 30
0.0
 11
68501.57005394
 21
-59824.69443132
 31
0.0
  0
LWPOLYLINE
  5
57D
100
AcDbEntity
  8
Ech.1_10
 62
     7
  6
CONTINUOUS
370
    -3
100
AcDbPolyline
 90
        4
 70
     1
 43
0.0
 10
68287.57005394
 20
-59539.61105447
 10
68347.57005394
 20
-59539.61105447
 10
68347.57005394
 20
-59494.61105447
 10
68287.57005394
 20
-59494.61105447
  0
LWPOLYLINE
  5
57E
100
AcDbEntity
  8
Ech.1_10
 62
   190
370
    18
100
AcDbPolyline
 90
        4
 70
     0
 43
0.0
 10
68287.57005394
 20
-59494.61105447
 10
68347.57005394
 20
-59539.61105447
 10
68347.57005394
 20
-59494.61105447
 10
68287.57005394
 20
-59539.61105447
  0
LWPOLYLINE
  5
57F
100
AcDbEntity
  8
Ech.1_10
 62
     9
100
AcDbPolyline
 90
       27
 70
     0
 43
0.0
 10
68249.44343682
 20
-59813.10437255
 10
68249.57005394
 20
-59812.76989876
 10
68249.57005394
 20
-59785.38643467
 10
68256.57005394
 20
-59785.38643467
 10
68256.57005394
 20
-59794.38643467
 10
68262.57005394
 20
-59794.38643467
 10
68262.57005394
 20
-59767.38643467
 10
68258.57005394
 20
-59763.38643467
 10
68262.57005394
 20
-59759.38643467
 10
68262.57005394
 20
-59695.38643467
 10
68258.57005394
 20
-59691.38643467
 10
68262.57005394
 20
-59687.38643467
 10
68262.57005394
 20
-59652.38643467
 10
68255.57005394
 20
-59652.38643467
 10
68255.57005394
 20
-59646.38643467
 10
68253.07005394
 20
-59641.38643467
 10
68250.57005394
 20
-59646.38643467
 10
68250.57005394
 20
-59677.31536685
 10
68250.1894516
 20
-59679.22878402
 10
68244.03452003
 20
-59685.92196857
 10
68242.57005394
 20
-59689.45750248
 10
68242.57005394
 20
-59808.54424689
 10
68243.53037633
 20
-59810.17411553
 10
68248.26649719
 20
-59813.14546547
 10
68248.67849856
 20
-59813.38643467
 10
68248.99231605
 20
-59813.38643467
 10
68249.44343682
 20
-59813.10437255
  0
LWPOLYLINE
  5
580
100
AcDbEntity
  8
Ech.1_10
 62
   190
  6
CONTINUOUS
370
    -3
100
AcDbPolyline
 90
       36
 70
     0
 43
0.0
 10
68534.90338727
 20
-59824.69443132
 42
1.14028181
 10
68533.17792308
 20
-59811.58826019
 10
68509.96218479
 20
-59817.80060246
 42
-1.30322619
 10
68509.96218479
 20
-59804.92159352
 10
68533.17792308
 20
-59811.13393579
 42
1.30322619
 10
68533.17792308
 20
-59798.25492686
 10
68509.96218479
 20
-59804.46726912
 42
-1.30322619
 10
68509.96218479
 20
-59791.58826019
 10
68533.17792308
 20
-59797.80060246
 42
1.30322619
 10
68533.17792308
 20
-59784.92159352
 10
68509.96218479
 20
-59791.13393579
 42
-1.30322619
 10
68509.96218479
 20
-59778.25492686
 10
68533.17792308
 20
-59784.46726912
 42
1.30322619
 10
68533.17792308
 20
-59771.58826019
 10
68509.96218479
 20
-59777.80060246
 42
-1.30322619
 10
68509.96218479
 20
-59764.92159352
 10
68533.17792308
 20
-59771.13393579
 42
1.30322619
 10
68533.17792308
 20
-59758.25492686
 10
68509.96218479
 20
-59764.46726912
 42
-1.30322619
 10
68509.96218479
 20
-59751.58826019
 10
68533.17792308
 20
-59757.80060246
 42
1.30322619
 10
68533.17792308
 20
-59744.92159352
 10
68509.96218479
 20
-59751.13393579
 42
-1.30322619
 10
68509.96218479
 20
-59738.25492686
 10
68533.17792308
 20
-59744.46726912
 42
1.30322619
 10
68533.17792308
 20
-59731.58826019
 10
68509.96218479
 20
-59737.80060246
 42
-1.30322619
 10
68509.96218479
 20
-59724.92159352
 10
68533.17792308
 20
-59731.13393579
 42
1.30322619
 10
68533.17792308
 20
-59718.25492686
 10
68509.96218479
 20
-59724.46726912
 42
-1.30322619
 10
68509.96218479
 20
-59711.58826019
 10
68533.17792308
 20
-59717.80060246
 42
1.30322619
 10
68533.17792308
 20
-59704.92159352
 10
68509.96218479
 20
-59711.13393579
 42
-0.63723841
 10
68502.19601555
 20
-59701.87408969
  0
LWPOLYLINE
  5
581
102
{ACAD_REACTORS
330
582
102
}
100
AcDbEntity
  8
Ech.1_10
 62
     7
  6
CONTINUOUS
370
    -3
100
AcDbPolyline
 90
        4
 70
     1
 43
0.0
 10
68356.57005394
 20
-58828.87409164
 10
68347.57005394
 20
-58828.87409164
 10
68347.57005394
 20
-59824.69576928
 10
68356.57005394
 20
-59824.69576928
  0
HATCH
  5
582
100
AcDbEntity
  8
Ech.1_10
 62
   190
  6
CONTINUOUS
100
AcDbHatch
 10
0.0
 20
0.0
 30
0.0
210
0.0
220
0.0
230
1.0
  2
CDWK10A
 70
     0
 71
     1
 91
        1
 92
        7
 72
     0
 73
     1
 93
        4
 10
68356.57005394
 20
-58828.87409164
 10
68347.57005394
 20
-58828.87409164
 10
68347.57005394
 20
-59824.69576928
 10
68356.57005394
 20
-59824.69576928
 97
        1
330
581
 75
     0
 76
     2
 52
0.0
 41
1.0
 77
     0
 78
     3
 53
45.0
 43
0.0
 44
0.0
 45
0.0
 46
42.00000167
 79
     0
 53
45.0
 43
0.0
 44
10.80000043
 45
0.0
 46
42.00000167
 79
     0
 53
45.0
 43
0.0
 44
21.60000086
 45
0.0
 46
42.00000167
 79
     0
 47
0.775229
 98
        1
 10
0.0
 20
0.0
  0
LWPOLYLINE
  5
583
100
AcDbEntity
  8
Ech.1_10
 62
     9
100
AcDbPolyline
 90
        9
 70
     0
 43
0.0
 10
68262.57005394
 20
-59824.6953754
 10
68262.57005394
 20
-59797.38643467
 10
68255.57005394
 20
-59797.38643467
 10
68255.57005394
 20
-59791.38643467
 10
68253.07005394
 20
-59786.38643467
 10
68250.57005394
 20
-59791.38643467
 10
68250.57005394
 20
-59822.31536685
 10
68250.1894516
 20
-59824.22878402
 10
68249.76038259
 20
-59824.6953754
  0
LWPOLYLINE
  5
584
100
AcDbEntity
  8
Ech.1_10
 62
     9
100
AcDbPolyline
 90
       27
 70
     0
 43
0.0
 10
68249.44343682
 20
-59233.10437255
 10
68249.57005394
 20
-59232.76989876
 10
68249.57005394
 20
-59205.38643467
 10
68256.57005394
 20
-59205.38643467
 10
68256.57005394
 20
-59214.38643467
 10
68262.57005394
 20
-59214.38643467
 10
68262.57005394
 20
-59187.38643467
 10
68258.57005394
 20
-59183.38643467
 10
68262.57005394
 20
-59179.38643467
 10
68262.57005394
 20
-59115.38643467
 10
68258.57005394
 20
-59111.38643467
 10
68262.57005394
 20
-59107.38643467
 10
68262.57005394
 20
-59072.38643467
 10
68255.57005394
 20
-59072.38643467
 10
68255.57005394
 20
-59066.38643467
 10
68253.07005394
 20
-59061.38643467
 10
68250.57005394
 20
-59066.38643467
 10
68250.57005394
 20
-59097.31536685
 10
68250.1894516
 20
-59099.22878402
 10
68244.03452003
 20
-59105.92196857
 10
68242.57005394
 20
-59109.45750248
 10
68242.57005394
 20
-59228.54424689
 10
68243.53037633
 20
-59230.17411553
 10
68248.26649719
 20
-59233.14546547
 10
68248.67849856
 20
-59233.38643467
 10
68248.99231605
 20
-59233.38643467
 10
68249.44343682
 20
-59233.10437255
  0
LWPOLYLINE
  5
585
100
AcDbEntity
  8
Ech.1_10
100
AcDbPolyline
 90
        4
 70
     0
 43
0.0
 10
69013.05272506
 20
-59637.87409164
 10
68501.57005394
 20
-59637.87409164
 10
68501.57005394
 20
-59613.19192155
 10
69013.05272506
 20
-59613.19192155
  0
LWPOLYLINE
  5
586
100
AcDbEntity
  8
Ech.1_10
370
    50
100
AcDbPolyline
 90
        3
 70
     0
 43
0.0
 10
68501.75669424
 20
-59614.55798335
 10
68501.75669424
 20
-59637.63650026
 10
68528.98253904
 20
-59637.63650026
  0
LWPOLYLINE
  5
587
100
AcDbEntity
  8
Ech.1_10
 62
   190
370
    18
100
AcDbPolyline
 90
        4
 70
     0
 43
0.0
 10
68287.57005394
 20
-58953.87409164
 10
68347.57005394
 20
-58998.87409164
 10
68347.57005394
 20
-58953.87409164
 10
68287.57005394
 20
-58998.87409164
  0
LWPOLYLINE
  5
588
100
AcDbEntity
  8
Ech.1_10
 62
   190
  6
CONTINUOUS
370
    -3
100
AcDbPolyline
 90
        4
 70
     1
 43
0.0
 10
68356.57005394
 20
-58828.87409164
 10
68356.57005394
 20
-58873.87409164
 10
68501.57005394
 20
-58873.87409164
 10
68501.57005394
 20
-58828.87409164
  0
LWPOLYLINE
  5
589
100
AcDbEntity
  8
Ech.1_10
 62
   190
  6
CONTINUOUS
370
    -3
100
AcDbPolyline
 90
        4
 70
     1
 43
0.0
 10
68501.57005394
 20
-58873.87409164
 10
68501.57005394
 20
-58828.87409164
 10
68356.57005394
 20
-58828.87409164
 10
68356.57005394
 20
-58873.87409164
  0
LWPOLYLINE
  5
58A
100
AcDbEntity
  8
Ech.1_10
 62
   190
370
    18
100
AcDbPolyline
 90
        4
 70
     0
 43
0.0
 10
68287.57005394
 20
-58828.87409164
 10
68347.57005394
 20
-58873.87409164
 10
68347.57005394
 20
-58828.87409164
 10
68287.57005394
 20
-58873.87409164
  0
LWPOLYLINE
  5
58B
100
AcDbEntity
  8
Ech.1_10
 62
   190
  6
CONTINUOUS
370
    -3
100
AcDbPolyline
 90
        4
 70
     1
 43
0.0
 10
68356.57005394
 20
-58953.87409164
 10
68356.57005394
 20
-58998.87409164
 10
68501.57005394
 20
-58998.87409164
 10
68501.57005394
 20
-58953.87409164
  0
LWPOLYLINE
  5
58C
100
AcDbEntity
  8
Ech.1_10
 62
   190
  6
CONTINUOUS
370
    -3
100
AcDbPolyline
 90
        4
 70
     1
 43
0.0
 10
68501.57005394
 20
-58998.87409164
 10
68501.57005394
 20
-58953.87409164
 10
68356.57005394
 20
-58953.87409164
 10
68356.57005394
 20
-58998.87409164
  0
LWPOLYLINE
  5
58D
100
AcDbEntity
  8
Ech.1_10
 62
     9
100
AcDbPolyline
 90
       27
 70
     0
 43
0.0
 10
68249.44343682
 20
-59088.10437255
 10
68249.57005394
 20
-59087.76989876
 10
68249.57005394
 20
-59060.38643467
 10
68256.57005394
 20
-59060.38643467
 10
68256.57005394
 20
-59069.38643467
 10
68262.57005394
 20
-59069.38643467
 10
68262.57005394
 20
-59042.38643467
 10
68258.57005394
 20
-59038.38643467
 10
68262.57005394
 20
-59034.38643467
 10
68262.57005394
 20
-58970.38643467
 10
68258.57005394
 20
-58966.38643467
 10
68262.57005394
 20
-58962.38643467
 10
68262.57005394
 20
-58927.38643467
 10
68255.57005394
 20
-58927.38643467
 10
68255.57005394
 20
-58921.38643467
 10
68253.07005394
 20
-58916.38643467
 10
68250.57005394
 20
-58921.38643467
 10
68250.57005394
 20
-58952.31536685
 10
68250.1894516
 20
-58954.22878402
 10
68244.03452003
 20
-58960.92196857
 10
68242.57005394
 20
-58964.45750248
 10
68242.57005394
 20
-59083.54424689
 10
68243.53037633
 20
-59085.17411553
 10
68248.26649719
 20
-59088.14546547
 10
68248.67849856
 20
-59088.38643467
 10
68248.99231605
 20
-59088.38643467
 10
68249.44343682
 20
-59088.10437255
  0
LWPOLYLINE
  5
58E
100
AcDbEntity
  8
Ech.1_10
 62
     9
100
AcDbPolyline
 90
       16
 70
     0
 43
0.0
 10
68242.57005394
 20
-58848.87409164
 10
68242.57005394
 20
-58938.54424689
 10
68243.53037633
 20
-58940.17411553
 10
68248.26649719
 20
-58943.14546547
 10
68248.67849856
 20
-58943.38643467
 10
68248.99231605
 20
-58943.38643467
 10
68249.44343682
 20
-58943.10437255
 10
68249.57005394
 20
-58942.76989876
 10
68249.57005394
 20
-58915.38643467
 10
68256.57005394
 20
-58915.38643467
 10
68256.57005394
 20
-58924.38643467
 10
68262.57005394
 20
-58924.38643467
 10
68262.57005394
 20
-58897.38643467
 10
68258.57005394
 20
-58893.38643467
 10
68262.57005394
 20
-58889.38643467
 10
68262.57005394
 20
-58848.87409164
  0
LWPOLYLINE
  5
58F
100
AcDbEntity
  8
Ech.1_10
 62
   190
  6
CONTINUOUS
370
    -3
100
AcDbPolyline
 90
        4
 70
     1
 43
0.0
 10
68501.57005394
 20
-59298.87409164
 10
68520.57005394
 20
-59298.87409164
 10
68520.57005394
 20
-58828.87409164
 10
68501.57005394
 20
-58828.87409164
  0
LWPOLYLINE
  5
590
102
{ACAD_REACTORS
330
591
102
}
100
AcDbEntity
  8
Ech.1_10
 62
     7
  6
CONTINUOUS
370
    -3
100
AcDbPolyline
 90
        4
 70
     1
 43
0.0
 10
68501.57005394
 20
-59298.87409164
 10
68520.57005394
 20
-59298.87409164
 10
68520.57005394
 20
-58828.87409164
 10
68501.57005394
 20
-58828.87409164
  0
HATCH
  5
591
100
AcDbEntity
  8
Ech.1_10
 62
   190
  6
CONTINUOUS
100
AcDbHatch
 10
0.0
 20
0.0
 30
0.0
210
0.0
220
0.0
230
1.0
  2
ANSI38
 70
     0
 71
     1
 91
        1
 92
        7
 72
     0
 73
     1
 93
        4
 10
68501.57005394
 20
-59298.87409164
 10
68520.57005394
 20
-59298.87409164
 10
68520.57005394
 20
-58828.87409164
 10
68501.57005394
 20
-58828.87409164
 97
        1
330
590
 75
     0
 76
     2
 52
0.0
 41
1.0
 77
     0
 78
     2
 53
45.0
 43
0.0
 44
0.0
 45
-8.48528171
 46
8.48528171
 79
     2
 49
960.00003815
 49
0.0
 53
135.0
 43
0.0
 44
0.0
 45
-25.45584513
 46
8.48528171
 79
     2
 49
30.00000119
 49
-18.00000072
 47
0.775229
 98
        1
 10
0.0
 20
0.0
  0
LWPOLYLINE
  5
592
100
AcDbEntity
  8
Ech.1_10
 62
     5
  6
CONTINUOUS
370
    -3
100
AcDbPolyline
 90
        5
 70
     0
 43
0.0
 10
68501.57005394
 20
-59317.87409164
 10
68546.57005394
 20
-59317.87409164
 10
68546.57005394
 20
-59537.87409164
 10
68501.57005394
 20
-59537.87409164
 10
68501.57005394
 20
-59317.87409164
  0
LWPOLYLINE
  5
593
100
AcDbEntity
  8
Ech.1_10
 62
     5
100
AcDbPolyline
 90
        5
 70
     0
 43
0.0
 10
68287.57005394
 20
-59539.61105447
 10
68347.57005394
 20
-59539.61105447
 10
68347.57005394
 20
-59494.61105447
 10
68287.57005394
 20
-59494.61105447
 10
68287.57005394
 20
-59539.61105447
  0
LWPOLYLINE
  5
594
100
AcDbEntity
  8
Ech.1_10
 62
     5
100
AcDbPolyline
 90
        5
 70
     0
 43
0.0
 10
68287.57005394
 20
-58998.87409164
 10
68347.57005394
 20
-58998.87409164
 10
68347.57005394
 20
-58953.87409164
 10
68287.57005394
 20
-58953.87409164
 10
68287.57005394
 20
-58998.87409164
  0
LWPOLYLINE
  5
595
100
AcDbEntity
  8
Ech.1_10
 62
     5
100
AcDbPolyline
 90
        5
 70
     0
 43
0.0
 10
68287.57005394
 20
-58873.87409164
 10
68347.57005394
 20
-58873.87409164
 10
68347.57005394
 20
-58828.87409164
 10
68287.57005394
 20
-58828.87409164
 10
68287.57005394
 20
-58873.87409164
  0
LWPOLYLINE
  5
596
100
AcDbEntity
  8
Ech.1_10
 62
     5
  6
CONTINUOUS
370
    -3
100
AcDbPolyline
 90
        5
 70
     0
 43
0.0
 10
68356.57005394
 20
-58998.87409164
 10
68356.57005394
 20
-58953.87409164
 10
68501.57005394
 20
-58953.87409164
 10
68501.57005394
 20
-58998.87409164
 10
68356.57005394
 20
-58998.87409164
  0
LWPOLYLINE
  5
597
100
AcDbEntity
  8
Ech.1_10
 62
     5
  6
CONTINUOUS
370
    -3
100
AcDbPolyline
 90
        5
 70
     0
 43
0.0
 10
68356.57005394
 20
-58873.87409164
 10
68356.57005394
 20
-58828.87409164
 10
68501.57005394
 20
-58828.87409164
 10
68501.57005394
 20
-58873.87409164
 10
68356.57005394
 20
-58873.87409164
  0
LINE
  5
598
100
AcDbEntity
  8
Ech.1_10
 62
   150
  6
CADWORK_22
370
    35
100
AcDbLine
 10
68286.07005394
 20
-58828.87409164
 30
0.0
 11
68286.09647877
 21
-59824.765321
 31
0.0
  0
LWPOLYLINE
  5
599
102
{ACAD_REACTORS
330
59A
102
}
100
AcDbEntity
  8
Ech.1_10
 62
   190
  6
CONTINUOUS
370
    -3
100
AcDbPolyline
 90
       13
 70
     1
 43
0.0
 10
68357.11554498
 20
-58818.05645716
 10
68220.77217742
 20
-58812.79611275
 10
68220.77217742
 20
-58878.87765832
 10
68228.30143953
 20
-58873.98270278
 10
68229.40625448
 20
-58875.64985122
 10
68219.25785271
 20
-58882.28050383
 10
68219.25785271
 20
-58810.74186411
 10
68537.10216886
 20
-58820.6272337
 10
68537.10216886
 20
-58888.30446086
 10
68524.35960937
 20
-58878.51153508
 10
68525.57832374
 20
-58876.92574339
 10
68535.44787273
 20
-58884.5107
 10
68535.44787273
 20
-58822.5705353
  0
HATCH
  5
59A
100
AcDbEntity
  8
Ech.1_10
 62
   177
  6
CONTINUOUS
100
AcDbHatch
 10
0.0
 20
0.0
 30
0.0
210
0.0
220
0.0
230
1.0
  2
SOLID
 70
     1
 71
     1
 91
        1
 92
        7
 72
     0
 73
     1
 93
       13
 10
68357.11554498
 20
-58818.05645716
 10
68220.77217742
 20
-58812.79611275
 10
68220.77217742
 20
-58878.87765832
 10
68228.30143953
 20
-58873.98270278
 10
68229.40625448
 20
-58875.64985122
 10
68219.25785271
 20
-58882.28050383
 10
68219.25785271
 20
-58810.74186411
 10
68537.10216886
 20
-58820.6272337
 10
68537.10216886
 20
-58888.30446086
 10
68524.35960937
 20
-58878.51153508
 10
68525.57832374
 20
-58876.92574339
 10
68535.44787273
 20
-58884.5107
 10
68535.44787273
 20
-58822.5705353
 97
        1
330
599
 75
     0
 76
     2
 47
0.775229
 98
        1
 10
0.0
 20
0.0
  0
LWPOLYLINE
  5
59B
100
AcDbEntity
  8
Ech.1_10
 62
   190
  6
CONTINUOUS
370
    -3
100
AcDbPolyline
 90
       68
 70
     0
 43
0.0
 10
68380.7367206
 20
-58998.87409164
 42
1.14028181
 10
68386.99152828
 20
-59046.383962
 10
68471.1485796
 20
-59023.86422128
 42
-1.30322619
 10
68471.1485796
 20
-59070.55062867
 10
68386.99152828
 20
-59048.03088795
 42
1.30322619
 10
68386.99152828
 20
-59094.71729534
 10
68471.1485796
 20
-59072.19755461
 42
-1.30322619
 10
68471.1485796
 20
-59118.883962
 10
68386.99152828
 20
-59096.36422128
 42
1.30322619
 10
68386.99152828
 20
-59143.05062867
 10
68471.1485796
 20
-59120.53088795
 42
-1.30322619
 10
68471.1485796
 20
-59167.21729534
 10
68386.99152828
 20
-59144.69755461
 42
1.30322619
 10
68386.99152828
 20
-59191.383962
 10
68471.1485796
 20
-59168.86422128
 42
-1.30322619
 10
68471.1485796
 20
-59215.55062867
 10
68386.99152828
 20
-59193.03088795
 42
1.30322619
 10
68386.99152828
 20
-59239.71729534
 10
68471.1485796
 20
-59217.19755461
 42
-1.30322619
 10
68471.1485796
 20
-59263.883962
 10
68386.99152828
 20
-59241.36422128
 42
1.30322619
 10
68386.99152828
 20
-59288.05062867
 10
68471.1485796
 20
-59265.53088795
 42
-1.30322619
 10
68471.1485796
 20
-59312.21729534
 10
68386.99152828
 20
-59289.69755461
 42
1.30322619
 10
68386.99152828
 20
-59336.383962
 10
68471.1485796
 20
-59313.86422128
 42
-1.30322619
 10
68471.1485796
 20
-59360.55062867
 10
68386.99152828
 20
-59338.03088795
 42
1.30322619
 10
68386.99152828
 20
-59384.71729534
 10
68471.1485796
 20
-59362.19755461
 42
-1.30322619
 10
68471.1485796
 20
-59408.883962
 10
68386.99152828
 20
-59386.36422128
 42
1.30322619
 10
68386.99152828
 20
-59433.05062867
 10
68471.1485796
 20
-59410.53088795
 42
-1.30322619
 10
68471.1485796
 20
-59457.21729534
 10
68386.99152828
 20
-59434.69755461
 42
1.30322619
 10
68386.99152828
 20
-59481.383962
 10
68471.1485796
 20
-59458.86422128
 42
-1.30322619
 10
68471.1485796
 20
-59505.55062867
 10
68386.99152828
 20
-59483.03088795
 42
1.30322619
 10
68386.99152828
 20
-59529.71729534
 10
68471.1485796
 20
-59507.19755461
 42
-1.30322619
 10
68471.1485796
 20
-59553.883962
 10
68386.99152828
 20
-59531.36422128
 42
1.30322619
 10
68386.99152828
 20
-59578.05062867
 10
68471.1485796
 20
-59555.53088795
 42
-1.30322619
 10
68471.1485796
 20
-59602.21729534
 10
68386.99152828
 20
-59579.69755461
 42
1.30322619
 10
68386.99152828
 20
-59626.383962
 10
68471.1485796
 20
-59603.86422128
 42
-1.30322619
 10
68471.1485796
 20
-59650.55062867
 10
68386.99152828
 20
-59628.03088795
 42
1.30322619
 10
68386.99152828
 20
-59674.71729534
 10
68471.1485796
 20
-59652.19755461
 42
-1.30322619
 10
68471.1485796
 20
-59698.883962
 10
68386.99152828
 20
-59676.36422128
 42
1.30322619
 10
68386.99152828
 20
-59723.05062867
 10
68471.1485796
 20
-59700.53088795
 42
-1.30322619
 10
68471.1485796
 20
-59747.21729534
 10
68386.99152828
 20
-59724.69755461
 42
1.30322619
 10
68386.99152828
 20
-59771.383962
 10
68471.1485796
 20
-59748.86422128
 42
-1.30322619
 10
68471.1485796
 20
-59795.55062867
 10
68386.99152828
 20
-59773.03088795
 42
1.30322619
 10
68386.99152828
 20
-59819.71729534
 10
68471.1485796
 20
-59797.19755461
 42
-0.54805225
 10
68501.21018591
 20
-59824.69576928
  0
LWPOLYLINE
  5
59C
100
AcDbEntity
  8
Ech.1_10
 62
     7
  6
CONTINUOUS
370
    -3
100
AcDbPolyline
 90
       66
 70
     0
 43
0.0
 10
68276.04501225
 20
-58862.32871654
 10
68276.31826791
 20
-58860.04845161
 10
68276.57379509
 20
-58857.77787283
 10
68276.7938653
 20
-58855.5266663
 10
68276.96075007
 20
-58853.30451818
 10
68277.05672091
 20
-58851.12111459
 10
68277.06404934
 20
-58848.98614166
 10
68276.96500687
 20
-58846.90928553
 10
68276.74186504
 20
-58844.90023234
 10
68276.37689534
 20
-58842.96866821
 10
68275.85236931
 20
-58841.12427928
 10
68275.15055846
 20
-58839.37675168
 10
68274.2537343
 20
-58837.73577154
 10
68273.14416836
 20
-58836.211025
 10
68271.80445673
 20
-58834.81213507
 10
68270.23449267
 20
-58833.54536069
 10
68268.45979752
 20
-58832.41197653
 10
68266.50796459
 20
-58831.41285426
 10
68264.40658715
 20
-58830.54886557
 10
68262.18325851
 20
-58829.82088216
 10
68259.86557194
 20
-58829.2297757
 10
68257.48112075
 20
-58828.7764179
 10
68255.05749821
 20
-58828.46168042
 10
68252.62229762
 20
-58828.28643497
 10
68250.20311228
 20
-58828.25155323
 10
68247.82753546
 20
-58828.35790689
 10
68245.52316047
 20
-58828.60636763
 10
68243.31758058
 20
-58828.99780715
 10
68241.23838909
 20
-58829.53309713
 10
68239.3131793
 20
-58830.21310926
 10
68237.56954448
 20
-58831.03871522
 10
68236.03507794
 20
-58832.0107867
 10
68234.73737295
 20
-58833.1301954
 10
68233.70401769
 20
-58834.39781176
 10
68232.95115653
 20
-58835.81173631
 10
68232.45916782
 20
-58837.36141262
 10
68232.20146178
 20
-58839.03459766
 10
68232.15144865
 20
-58840.81904838
 10
68232.28253863
 20
-58842.70252175
 10
68232.56814197
 20
-58844.67277473
 10
68232.98166889
 20
-58846.71756429
 10
68233.49652961
 20
-58848.82464739
 10
68234.08613436
 20
-58850.981781
 10
68234.72389336
 20
-58853.17672208
 10
68235.38321684
 20
-58855.39722758
 10
68236.03751503
 20
-58857.63105449
 10
68236.66019815
 20
-58859.86595975
 10
68237.22467642
 20
-58862.08970034
 10
68237.70464013
 20
-58864.29016099
 10
68238.08452548
 20
-58866.46012932
 10
68238.36264697
 20
-58868.59872496
 10
68238.5382385
 20
-58870.70548703
 10
68238.61053395
 20
-58872.77995465
 10
68238.57876724
 20
-58874.82166694
 10
68238.44217226
 20
-58876.83016302
 10
68238.1999829
 20
-58878.80498201
 10
68237.85143306
 20
-58880.74566301
 10
68237.39575664
 20
-58882.65174517
 10
68236.83218754
 20
-58884.52276758
 10
68236.15995965
 20
-58886.35826937
 10
68235.37830687
 20
-58888.15778966
 10
68234.48840364
 20
-58889.92152517
 10
68233.50795965
 20
-58891.65527605
 10
68232.46305057
 20
-58893.3676775
 10
68231.37981692
 20
-58895.06738669
 10
68230.86917008
 20
-58895.8577147
  0
LINE
  5
59D
100
AcDbEntity
  8
Ech.1_10
 62
     7
  6
CONTINUOUS
370
    -3
100
AcDbLine
 10
68230.86917008
 20
-58895.8577147
 30
0.0
 11
68243.03554942
 21
-58885.84967597
 31
0.0
  0
LINE
  5
59E
100
AcDbEntity
  8
Ech.1_10
 62
     7
  6
CONTINUOUS
370
    -3
100
AcDbLine
 10
68230.86917008
 20
-58895.8577147
 30
0.0
 11
68231.04337647
 21
-58880.80448381
 31
0.0
  0
LWPOLYLINE
  5
59F
100
AcDbEntity
  8
Ech.1_10
 62
   190
  6
CONTINUOUS
370
    -3
100
AcDbPolyline
 90
        4
 70
     1
 43
0.0
 10
68501.57005394
 20
-59710.87408399
 10
68541.57005394
 20
-59710.87408399
 10
68541.57005394
 20
-59665.87408399
 10
68501.57005394
 20
-59665.87408399
  0
LWPOLYLINE
  5
5A0
100
AcDbEntity
  8
Ech.1_10
 62
   190
370
    18
100
AcDbPolyline
 90
        4
 70
     0
 43
0.0
 10
68501.57005394
 20
-59665.87408399
 10
68541.57005394
 20
-59710.87408399
 10
68541.57005394
 20
-59665.87408399
 10
68501.57005394
 20
-59710.87408399
  0
LWPOLYLINE
  5
5A1
100
AcDbEntity
  8
Ech.1_10
 62
     5
100
AcDbPolyline
 90
        5
 70
     0
 43
0.0
 10
68501.57005394
 20
-59710.87408399
 10
68541.57005394
 20
-59710.87408399
 10
68541.57005394
 20
-59665.87408399
 10
68501.57005394
 20
-59665.87408399
 10
68501.57005394
 20
-59710.87408399
  0
LINE
  5
5A2
100
AcDbEntity
  8
Ech.1_10
 62
   190
  6
CONTINUOUS
370
    -3
100
AcDbLine
 10
68520.57005394
 20
-59148.87409164
 30
0.0
 11
69013.05343124
 21
-59148.87409164
 31
0.0
  0
LWPOLYLINE
  5
5A3
100
AcDbEntity
  8
Ech.1_10
 62
     1
  6
CADWORK_22
 48
-5.0
370
    35
100
AcDbPolyline
 90
        3
 70
     0
 43
0.0
 10
68501.57005394
 20
-59824.69443132
 10
68501.57005394
 20
-59298.87409164
 10
68597.45560861
 20
-59298.87409164
  0
LWPOLYLINE
  5
5A4
100
AcDbEntity
  8
Ech.1_10
 62
     3
370
    70
100
AcDbPolyline
 90
        4
 70
     0
 43
0.0
 10
68615.85670676
 20
-59301.7127106
 10
68602.86757334
 20
-59301.7127106
 10
68598.9328412
 20
-59296.03209764
 10
68585.4544112
 20
-59296.03209764
  0
LWPOLYLINE
  5
5A5
100
AcDbEntity
  8
Ech.1_10
 62
    36
  6
CONTINUOUS
370
    70
100
AcDbPolyline
 90
        3
 70
     0
 43
0.0
 38
2500.0
 10
68522.57005394
 20
-58998.87409164
 10
68522.57005394
 20
-59291.89731402
 10
68602.3825494
 20
-59291.89731402
  0
LINE
  5
5A6
100
AcDbEntity
  8
Ech.1_10
 62
     9
  6
CONTINUOUS
370
    -3
100
AcDbLine
 10
68262.57005394
 20
-58828.87409164
 30
0.0
 11
68287.57005394
 21
-58828.87382428
 31
0.0
  0
LINE
  5
5A7
100
AcDbEntity
  8
Ech.1_10
 62
     9
  6
CONTINUOUS
370
    -3
100
AcDbLine
 10
68242.57005394
 20
-58848.87409164
 30
0.0
 11
68262.57005394
 21
-58848.87409164
 31
0.0
  0
LINE
  5
5A8
100
AcDbEntity
  8
Ech.1_10
 62
     9
  6
CONTINUOUS
370
    -3
100
AcDbLine
 10
68262.57005394
 20
-58828.87409164
 30
0.0
 11
68262.57005394
 21
-58848.87409164
 31
0.0
  0
LINE
  5
5A9
100
AcDbEntity
  8
Ech.1_10
 62
   190
  6
CONTINUOUS
370
    -3
100
AcDbLine
 10
69419.08218574
 20
-59148.87409164
 30
0.0
 11
69049.44247203
 21
-59148.87409164
 31
0.0
  0
LINE
  5
5AA
100
AcDbEntity
  8
Ech.1_10
 62
   190
  6
CONTINUOUS
370
    -3
100
AcDbLine
 10
69013.05305756
 20
-59148.87409164
 30
0.0
 11
68948.19123911
 21
-59148.87409164
 31
0.0
  0
LWPOLYLINE
  5
5AB
100
AcDbEntity
  8
Ech.1_10
 62
   190
  6
CONTINUOUS
370
    -3
100
AcDbPolyline
 90
        4
 70
     1
 43
0.0
 10
69498.08174596
 20
-59317.87409164
 10
69543.08174596
 20
-59317.87409164
 10
69543.08174596
 20
-59537.87409164
 10
69498.08174596
 20
-59537.87409164
  0
LWPOLYLINE
  5
5AC
100
AcDbEntity
  8
Ech.1_10
 62
   190
  6
CONTINUOUS
370
    -3
100
AcDbPolyline
 90
        4
 70
     1
 43
0.0
 10
69543.08174596
 20
-59537.87409164
 10
69498.08174596
 20
-59537.87409164
 10
69498.08174596
 20
-59317.87409164
 10
69543.08174596
 20
-59317.87409164
  0
LWPOLYLINE
  5
5AD
100
AcDbEntity
  8
Ech.1_10
100
AcDbPolyline
 90
        4
 70
     0
 43
0.0
 10
69049.44148599
 20
-59637.87409164
 10
69542.08174596
 20
-59637.87409164
 10
69542.08174596
 20
-59613.19192155
 10
69049.44148599
 20
-59613.19192155
  0
LWPOLYLINE
  5
5AE
100
AcDbEntity
  8
Ech.1_10
370
    50
100
AcDbPolyline
 90
        3
 70
     0
 43
0.0
 10
69387.89510566
 20
-59614.55798335
 10
69387.89510566
 20
-59637.63650026
 10
69360.66926086
 20
-59637.63650026
  0
LWPOLYLINE
  5
5AF
100
AcDbEntity
  8
Ech.1_10
 62
     5
  6
CONTINUOUS
370
    -3
100
AcDbPolyline
 90
        5
 70
     0
 43
0.0
 10
69543.08174596
 20
-59317.87409164
 10
69498.08174596
 20
-59317.87409164
 10
69498.08174596
 20
-59537.87409164
 10
69543.08174596
 20
-59537.87409164
 10
69543.08174596
 20
-59317.87409164
  0
LWPOLYLINE
  5
5B0
100
AcDbEntity
  8
Ech.1_10
 62
   190
  6
CONTINUOUS
370
    -3
100
AcDbPolyline
 90
        4
 70
     1
 43
0.0
 10
69542.08324991
 20
-58828.87409164
 10
69542.08324991
 20
-58873.87409164
 10
69447.08324991
 20
-58873.87409164
 10
69447.08324991
 20
-58828.87409164
  0
LWPOLYLINE
  5
5B1
100
AcDbEntity
  8
Ech.1_10
 62
   190
  6
CONTINUOUS
370
    -3
100
AcDbPolyline
 90
        4
 70
     1
 43
0.0
 10
69447.08324991
 20
-58873.87409164
 10
69447.08324991
 20
-58828.87409164
 10
69542.08324991
 20
-58828.87409164
 10
69542.08324991
 20
-58873.87409164
  0
LWPOLYLINE
  5
5B2
100
AcDbEntity
  8
Ech.1_10
 62
   190
  6
CONTINUOUS
370
    -3
100
AcDbPolyline
 90
        4
 70
     1
 43
0.0
 10
69542.08324991
 20
-58998.87409164
 10
69447.08324991
 20
-58998.87409164
 10
69447.08324991
 20
-59298.87409164
 10
69542.08324991
 20
-59298.87409164
  0
LWPOLYLINE
  5
5B3
100
AcDbEntity
  8
Ech.1_10
 62
   190
  6
CONTINUOUS
370
    -3
100
AcDbPolyline
 90
        4
 70
     1
 43
0.0
 10
69542.08324991
 20
-58953.87409164
 10
69542.08324991
 20
-58998.87409164
 10
69447.08324991
 20
-58998.87409164
 10
69447.08324991
 20
-58953.87409164
  0
LWPOLYLINE
  5
5B4
100
AcDbEntity
  8
Ech.1_10
 62
   190
  6
CONTINUOUS
370
    -3
100
AcDbPolyline
 90
        4
 70
     1
 43
0.0
 10
69447.08324991
 20
-58998.87409164
 10
69447.08324991
 20
-58953.87409164
 10
69542.08324991
 20
-58953.87409164
 10
69542.08324991
 20
-58998.87409164
  0
LWPOLYLINE
  5
5B5
100
AcDbEntity
  8
Ech.1_10
 62
   190
  6
CONTINUOUS
370
    -3
100
AcDbPolyline
 90
        4
 70
     1
 43
0.0
 10
69447.08324991
 20
-59298.87409164
 10
69428.08324991
 20
-59298.87409164
 10
69428.08324991
 20
-58828.87409164
 10
69447.08324991
 20
-58828.87409164
  0
LWPOLYLINE
  5
5B6
102
{ACAD_REACTORS
330
5B7
102
}
100
AcDbEntity
  8
Ech.1_10
 62
     7
  6
CONTINUOUS
370
    -3
100
AcDbPolyline
 90
        4
 70
     1
 43
0.0
 10
69447.08324991
 20
-59298.87409164
 10
69428.08324991
 20
-59298.87409164
 10
69428.08324991
 20
-58828.87409164
 10
69447.08324991
 20
-58828.87409164
  0
HATCH
  5
5B7
100
AcDbEntity
  8
Ech.1_10
 62
   190
  6
CONTINUOUS
100
AcDbHatch
 10
0.0
 20
0.0
 30
0.0
210
0.0
220
0.0
230
1.0
  2
ANSI38
 70
     0
 71
     1
 91
        1
 92
        7
 72
     0
 73
     1
 93
        4
 10
69447.08324991
 20
-59298.87409164
 10
69428.08324991
 20
-59298.87409164
 10
69428.08324991
 20
-58828.87409164
 10
69447.08324991
 20
-58828.87409164
 97
        1
330
5B6
 75
     0
 76
     2
 52
0.0
 41
1.0
 77
     0
 78
     2
 53
45.0
 43
0.0
 44
0.0
 45
-8.48528171
 46
8.48528171
 79
     2
 49
960.00003815
 49
0.0
 53
135.0
 43
0.0
 44
0.0
 45
-25.45584513
 46
8.48528171
 79
     2
 49
30.00000119
 49
-18.00000072
 47
0.775229
 98
        1
 10
0.0
 20
0.0
  0
LWPOLYLINE
  5
5B8
100
AcDbEntity
  8
Ech.1_10
 62
     5
  6
CONTINUOUS
370
    -3
100
AcDbPolyline
 90
        5
 70
     0
 43
0.0
 10
69542.08324991
 20
-58998.87409164
 10
69542.08324991
 20
-58953.87409164
 10
69447.08324991
 20
-58953.87409164
 10
69447.08324991
 20
-58998.87409164
 10
69542.08324991
 20
-58998.87409164
  0
LWPOLYLINE
  5
5B9
100
AcDbEntity
  8
Ech.1_10
 62
     5
  6
CONTINUOUS
370
    -3
100
AcDbPolyline
 90
        5
 70
     0
 43
0.0
 10
69542.08324991
 20
-58873.87409164
 10
69542.08324991
 20
-58828.87409164
 10
69447.08324991
 20
-58828.87409164
 10
69447.08324991
 20
-58873.87409164
 10
69542.08324991
 20
-58873.87409164
  0
LWPOLYLINE
  5
5BA
100
AcDbEntity
  8
Ech.1_10
 62
   190
  6
CONTINUOUS
370
    -3
100
AcDbPolyline
 90
        4
 70
     1
 43
0.0
 10
69453.08174596
 20
-59317.87409164
 10
69498.08174596
 20
-59317.87409164
 10
69498.08174596
 20
-59537.87409164
 10
69453.08174596
 20
-59537.87409164
  0
LWPOLYLINE
  5
5BB
100
AcDbEntity
  8
Ech.1_10
 62
   190
  6
CONTINUOUS
370
    -3
100
AcDbPolyline
 90
        4
 70
     1
 43
0.0
 10
69498.08174596
 20
-59537.87409164
 10
69453.08174596
 20
-59537.87409164
 10
69453.08174596
 20
-59317.87409164
 10
69498.08174596
 20
-59317.87409164
  0
LWPOLYLINE
  5
5BC
100
AcDbEntity
  8
Ech.1_10
 62
     5
  6
CONTINUOUS
370
    -3
100
AcDbPolyline
 90
        5
 70
     0
 43
0.0
 10
69498.08174596
 20
-59317.87409164
 10
69453.08174596
 20
-59317.87409164
 10
69453.08174596
 20
-59537.87409164
 10
69498.08174596
 20
-59537.87409164
 10
69498.08174596
 20
-59317.87409164
  0
LWPOLYLINE
  5
5BD
100
AcDbEntity
  8
Ech.1_10
 62
   190
  6
CONTINUOUS
370
    -3
100
AcDbPolyline
 90
       36
 70
     0
 43
0.0
 10
69526.24991657
 20
-58998.87409164
 42
-1.14028181
 10
69522.15193913
 20
-59030.00124809
 10
69467.01456068
 20
-59015.2469352
 42
1.30322619
 10
69467.01456068
 20
-59045.83458142
 10
69522.15193913
 20
-59031.08026853
 42
-1.30322619
 10
69522.15193913
 20
-59061.66791475
 10
69467.01456068
 20
-59046.91360187
 42
1.30322619
 10
69467.01456068
 20
-59077.50124809
 10
69522.15193913
 20
-59062.7469352
 42
-1.30322619
 10
69522.15193913
 20
-59093.33458142
 10
69467.01456068
 20
-59078.58026853
 42
1.30322619
 10
69467.01456068
 20
-59109.16791475
 10
69522.15193913
 20
-59094.41360187
 42
-1.30322619
 10
69522.15193913
 20
-59125.00124809
 10
69467.01456068
 20
-59110.2469352
 42
1.30322619
 10
69467.01456068
 20
-59140.83458142
 10
69522.15193913
 20
-59126.08026853
 42
-1.30322619
 10
69522.15193913
 20
-59156.66791475
 10
69467.01456068
 20
-59141.91360187
 42
1.30322619
 10
69467.01456068
 20
-59172.50124809
 10
69522.15193913
 20
-59157.7469352
 42
-1.30322619
 10
69522.15193913
 20
-59188.33458142
 10
69467.01456068
 20
-59173.58026853
 42
1.30322619
 10
69467.01456068
 20
-59204.16791475
 10
69522.15193913
 20
-59189.41360187
 42
-1.30322619
 10
69522.15193913
 20
-59220.00124809
 10
69467.01456068
 20
-59205.2469352
 42
1.30322619
 10
69467.01456068
 20
-59235.83458142
 10
69522.15193913
 20
-59221.08026853
 42
-1.30322619
 10
69522.15193913
 20
-59251.66791475
 10
69467.01456068
 20
-59236.91360187
 42
1.30322619
 10
69467.01456068
 20
-59267.50124809
 10
69522.15193913
 20
-59252.7469352
 42
-1.30322619
 10
69522.15193913
 20
-59283.33458142
 10
69467.01456068
 20
-59268.58026853
 42
0.9684611
 10
69457.84761447
 20
-59298.87409164
  0
LWPOLYLINE
  5
5BE
100
AcDbEntity
  8
Ech.1_10
 62
   190
  6
CONTINUOUS
370
    -3
100
AcDbPolyline
 90
        4
 70
     1
 43
0.0
 10
69542.08324991
 20
-59253.87409164
 10
69542.08324991
 20
-59298.87409164
 10
69447.08324991
 20
-59298.87409164
 10
69447.08324991
 20
-59253.87409164
  0
LWPOLYLINE
  5
5BF
100
AcDbEntity
  8
Ech.1_10
 62
   190
  6
CONTINUOUS
370
    -3
100
AcDbPolyline
 90
        4
 70
     1
 43
0.0
 10
69447.08324991
 20
-59298.87409164
 10
69447.08324991
 20
-59253.87409164
 10
69542.08324991
 20
-59253.87409164
 10
69542.08324991
 20
-59298.87409164
  0
LWPOLYLINE
  5
5C0
100
AcDbEntity
  8
Ech.1_10
 62
     5
  6
CONTINUOUS
370
    -3
100
AcDbPolyline
 90
        5
 70
     0
 43
0.0
 10
69542.08324991
 20
-59298.87409164
 10
69542.08324991
 20
-59253.87409164
 10
69447.08324991
 20
-59253.87409164
 10
69447.08324991
 20
-59298.87409164
 10
69542.08324991
 20
-59298.87409164
  0
LWPOLYLINE
  5
5C1
102
{ACAD_REACTORS
330
5C2
102
}
100
AcDbEntity
  8
Ech.1_10
 62
   190
  6
CONTINUOUS
370
    -3
100
AcDbPolyline
 90
       13
 70
     1
 43
0.0
 10
69532.53625492
 20
-58818.05645716
 10
69763.15012508
 20
-58811.70989524
 10
69763.15012508
 20
-58877.79144081
 10
69755.62086298
 20
-58872.89648527
 10
69754.51604802
 20
-58874.56363371
 10
69764.66444979
 20
-58881.19428632
 10
69764.66444979
 20
-58809.6556466
 10
69403.0017865
 20
-58820.6272337
 10
69403.0017865
 20
-58888.30446086
 10
69415.74434599
 20
-58878.51153508
 10
69414.52563162
 20
-58876.92574339
 10
69404.65608263
 20
-58884.5107
 10
69404.65608263
 20
-58822.5705353
  0
HATCH
  5
5C2
100
AcDbEntity
  8
Ech.1_10
 62
   177
  6
CONTINUOUS
100
AcDbHatch
 10
0.0
 20
0.0
 30
0.0
210
0.0
220
0.0
230
1.0
  2
SOLID
 70
     1
 71
     1
 91
        1
 92
        7
 72
     0
 73
     1
 93
       13
 10
69532.53625492
 20
-58818.05645716
 10
69763.15012508
 20
-58811.70989524
 10
69763.15012508
 20
-58877.79144081
 10
69755.62086298
 20
-58872.89648527
 10
69754.51604802
 20
-58874.56363371
 10
69764.66444979
 20
-58881.19428632
 10
69764.66444979
 20
-58809.6556466
 10
69403.0017865
 20
-58820.6272337
 10
69403.0017865
 20
-58888.30446086
 10
69415.74434599
 20
-58878.51153508
 10
69414.52563162
 20
-58876.92574339
 10
69404.65608263
 20
-58884.5107
 10
69404.65608263
 20
-58822.5705353
 97
        1
330
5C1
 75
     0
 76
     2
 47
0.775229
 98
        1
 10
0.0
 20
0.0
  0
LWPOLYLINE
  5
5C3
100
AcDbEntity
  8
Ech.1_10
 62
    36
  6
CONTINUOUS
370
    70
100
AcDbPolyline
 90
        3
 70
     0
 43
0.0
 38
2500.0
 10
69426.08234746
 20
-58998.87409164
 10
69426.08234746
 20
-59292.69629063
 10
69337.26834805
 20
-59292.69629063
  0
3DFACE
  5
5C4
100
AcDbEntity
  8
Ech.1_10
 62
     9
  6
CONTINUOUS
370
    -3
100
AcDbFace
 70
     0
 10
69742.08174596
 20
-58998.87409164
 30
-17081.86048889
 11
69542.08174596
 21
-58998.87409164
 31
-17081.86048889
 12
69542.08174596
 22
-58828.87409164
 32
-17081.86048889
 13
69742.08174596
 23
-58828.87409164
 33
-17081.86048889
  0
CIRCLE
  5
5C5
100
AcDbEntity
  8
Ech.1_10
 62
     7
  6
CONTINUOUS
370
    -3
100
AcDbCircle
 10
68953.79160442
 20
-59591.69735877
 30
0.0
 40
2.51802373
  0
LINE
  5
5C6
100
AcDbEntity
  8
Ech.1_10
 62
     7
  6
CONTINUOUS
370
    -3
100
AcDbLine
 10
68967.29170628
 20
-59484.95027828
 30
0.0
 11
68967.29158237
 21
-59610.63654493
 31
0.0
  0
CIRCLE
  5
5C7
100
AcDbEntity
  8
Ech.1_10
 62
     7
  6
CONTINUOUS
370
    -3
100
AcDbCircle
 10
68953.79165682
 20
-59546.69735877
 30
0.0
 40
2.51802373
  0
ARC
  5
5C8
100
AcDbEntity
  8
Ech.1_10
 62
     7
  6
CONTINUOUS
370
    -3
100
AcDbCircle
 10
68935.29158237
 20
-59610.63650767
 30
0.0
 40
5.0
100
AcDbArc
 50
269.99993329
 51
359.99993329
  0
LINE
  5
5C9
100
AcDbEntity
  8
Ech.1_10
 62
     7
  6
CONTINUOUS
370
    -3
100
AcDbLine
 10
68935.06146367
 20
-59624.71680377
 30
0.0
 11
68935.061466
 21
-59622.71680377
 31
0.0
  0
LINE
  5
5CA
100
AcDbEntity
  8
Ech.1_10
 62
     7
  6
CONTINUOUS
370
    -3
100
AcDbLine
 10
68931.29157655
 20
-59615.63650301
 30
0.0
 11
68935.29157655
 21
-59615.63650767
 31
0.0
  0
ARC
  5
5CB
100
AcDbEntity
  8
Ech.1_10
 62
     7
  6
CONTINUOUS
370
    -3
100
AcDbCircle
 10
68945.05786226
 20
-59610.13202463
 30
0.0
 40
14.82598747
100
AcDbArc
 50
201.79410437
 51
238.13509164
  0
ARC
  5
5CC
100
AcDbEntity
  8
Ech.1_10
 62
     7
  6
CONTINUOUS
370
    -3
100
AcDbCircle
 10
68943.60234807
 20
-59623.60681462
 30
0.0
 40
12.47697948
100
AcDbArc
 50
189.36217724
 51
254.61211432
  0
LINE
  5
5CD
100
AcDbEntity
  8
Ech.1_10
 62
     7
  6
CONTINUOUS
370
    -3
100
AcDbLine
 10
68935.06146367
 20
-59624.71680377
 30
0.0
 11
68930.93104973
 21
-59624.71679896
 31
0.0
  0
LINE
  5
5CE
100
AcDbEntity
  8
Ech.1_10
 62
     7
  6
CONTINUOUS
370
    -3
100
AcDbLine
 10
68930.93104973
 20
-59624.71679896
 30
0.0
 11
68930.93103702
 21
-59635.63650259
 31
0.0
  0
LINE
  5
5CF
100
AcDbEntity
  8
Ech.1_10
 62
     7
  6
CONTINUOUS
370
    -3
100
AcDbLine
 10
68935.061466
 20
-59622.71680377
 30
0.0
 11
68928.93105206
 21
-59622.71679663
 31
0.0
  0
LINE
  5
5D0
100
AcDbEntity
  8
Ech.1_10
 62
     7
  6
CONTINUOUS
370
    -3
100
AcDbLine
 10
68928.93105206
 20
-59622.71679663
 30
0.0
 11
68928.93103469
 21
-59637.63650026
 31
0.0
  0
CIRCLE
  5
5D1
100
AcDbEntity
  8
Ech.1_10
 62
     7
  6
CONTINUOUS
370
    -3
100
AcDbCircle
 10
68953.79162189
 20
-59576.69735877
 30
0.0
 40
2.51802373
  0
CIRCLE
  5
5D2
100
AcDbEntity
  8
Ech.1_10
 62
     7
  6
CONTINUOUS
370
    -3
100
AcDbCircle
 10
68953.79158696
 20
-59606.69735877
 30
0.0
 40
2.51802373
  0
CIRCLE
  5
5D3
100
AcDbEntity
  8
Ech.1_10
 62
     7
  6
CONTINUOUS
370
    -3
100
AcDbCircle
 10
68953.79163935
 20
-59561.69735877
 30
0.0
 40
2.51802373
  0
ARC
  5
5D4
100
AcDbEntity
  8
Ech.1_10
 62
     7
  6
CONTINUOUS
370
    -3
100
AcDbCircle
 10
68962.52530366
 20
-59610.13204497
 30
0.0
 40
14.82598747
100
AcDbArc
 50
301.86477493
 51
338.20576221
  0
ARC
  5
5D5
100
AcDbEntity
  8
Ech.1_10
 62
     7
  6
CONTINUOUS
370
    -3
100
AcDbCircle
 10
68974.14996051
 20
-59622.49164046
 30
0.0
 40
3.80485997
100
AcDbArc
 50
183.49669989
 51
304.25383409
  0
ARC
  5
5D6
100
AcDbEntity
  8
Ech.1_10
 62
     7
  6
CONTINUOUS
370
    -3
100
AcDbCircle
 10
68963.98078647
 20
-59623.60683835
 30
0.0
 40
12.47697948
100
AcDbArc
 50
285.38775225
 51
350.63768933
  0
LINE
  5
5D7
100
AcDbEntity
  8
Ech.1_10
 62
     7
  6
CONTINUOUS
370
    -3
100
AcDbLine
 10
68976.29157655
 20
-59615.63655541
 30
0.0
 11
68972.29157655
 21
-59615.63655075
 31
0.0
  0
ARC
  5
5D8
100
AcDbEntity
  8
Ech.1_10
 62
     7
  6
CONTINUOUS
370
    -3
100
AcDbCircle
 10
68972.29158237
 20
-59610.63655075
 30
0.0
 40
5.0
100
AcDbArc
 50
179.99993329
 51
269.99993328
  0
LINE
  5
5D9
100
AcDbEntity
  8
Ech.1_10
 62
     7
  6
CONTINUOUS
370
    -3
100
AcDbLine
 10
68972.52166828
 20
-59624.71684739
 30
0.0
 11
68972.52167061
 21
-59622.71684739
 31
0.0
  0
LINE
  5
5DA
100
AcDbEntity
  8
Ech.1_10
 62
     7
  6
CONTINUOUS
370
    -3
100
AcDbLine
 10
68972.52166828
 20
-59624.71684739
 30
0.0
 11
68976.65208222
 21
-59624.71685219
 31
0.0
  0
LINE
  5
5DB
100
AcDbEntity
  8
Ech.1_10
 62
     7
  6
CONTINUOUS
370
    -3
100
AcDbLine
 10
68976.65208222
 20
-59624.71685219
 30
0.0
 11
68976.65206951
 21
-59635.63655583
 31
0.0
  0
LINE
  5
5DC
100
AcDbEntity
  8
Ech.1_10
 62
     7
  6
CONTINUOUS
370
    -3
100
AcDbLine
 10
68972.52167061
 20
-59622.71684739
 30
0.0
 11
68978.65208455
 21
-59622.71685452
 31
0.0
  0
LINE
  5
5DD
100
AcDbEntity
  8
Ech.1_10
 62
     7
  6
CONTINUOUS
370
    -3
100
AcDbLine
 10
68978.65208455
 20
-59622.71685452
 30
0.0
 11
68978.65206718
 21
-59637.63655815
 31
0.0
  0
CIRCLE
  5
5DE
100
AcDbEntity
  8
Ech.1_10
 62
     7
  6
CONTINUOUS
370
    -3
100
AcDbCircle
 10
68953.79167429
 20
-59531.69735877
 30
0.0
 40
2.51802373
  0
LINE
  5
5DF
100
AcDbEntity
  8
Ech.1_10
 62
     7
  6
CONTINUOUS
370
    -3
100
AcDbLine
 10
68940.29170628
 20
-59484.95024684
 30
0.0
 11
68940.29158237
 21
-59610.63651349
 31
0.0
  0
CIRCLE
  5
5E0
100
AcDbEntity
  8
Ech.1_10
 62
     7
  6
CONTINUOUS
370
    -3
100
AcDbCircle
 10
68953.79169175
 20
-59516.69735877
 30
0.0
 40
2.51802373
  0
LINE
  5
5E1
100
AcDbEntity
  8
Ech.1_10
 62
     7
  6
CONTINUOUS
370
    -3
100
AcDbLine
 10
68940.29170628
 20
-59484.95024684
 30
0.0
 11
68967.29170628
 21
-59484.95027828
 31
0.0
  0
LINE
  5
5E2
100
AcDbEntity
  8
Ech.1_10
 62
     7
  6
CONTINUOUS
370
    -3
100
AcDbLine
 10
68976.65206951
 20
-59635.63655583
 30
0.0
 11
68930.93103702
 21
-59635.63650259
 31
0.0
  0
LINE
  5
5E3
100
AcDbEntity
  8
Ech.1_10
 62
     7
  6
CONTINUOUS
370
    -3
100
AcDbLine
 10
68928.93103469
 20
-59637.63650026
 30
0.0
 11
68978.65206718
 21
-59637.63655815
 31
0.0
  0
ARC
  5
5E4
100
AcDbEntity
  8
Ech.1_10
 62
     7
  6
CONTINUOUS
370
    -3
100
AcDbCircle
 10
68933.43317662
 20
-59622.49159305
 30
0.0
 40
3.80485997
100
AcDbArc
 50
235.74603248
 51
356.50316668
  0
LINE
  5
5E5
100
AcDbEntity
  8
Ech.1_10
 62
     7
  6
CONTINUOUS
370
    -3
100
AcDbLine
 10
68951.89929253
 20
-59496.48761486
 30
0.0
 11
68951.89929253
 21
-59496.48761486
 31
0.0
  0
CIRCLE
  5
5E6
100
AcDbEntity
  8
Ech.1_10
 62
     7
  6
CONTINUOUS
370
    -3
100
AcDbCircle
 10
68953.79169175
 20
-59501.78894734
 30
0.0
 40
2.51802373
  0
CIRCLE
  5
5E7
100
AcDbEntity
  8
Ech.1_10
 62
     7
  6
CONTINUOUS
370
    -3
100
AcDbCircle
 10
68604.81669158
 20
-59591.69735877
 30
0.0
 40
2.51802373
  0
LINE
  5
5E8
100
AcDbEntity
  8
Ech.1_10
 62
     7
  6
CONTINUOUS
370
    -3
100
AcDbLine
 10
68618.31679345
 20
-59484.95027828
 30
0.0
 11
68618.31666953
 21
-59610.63654493
 31
0.0
  0
CIRCLE
  5
5E9
100
AcDbEntity
  8
Ech.1_10
 62
     7
  6
CONTINUOUS
370
    -3
100
AcDbCircle
 10
68604.81674398
 20
-59546.69735877
 30
0.0
 40
2.51802373
  0
ARC
  5
5EA
100
AcDbEntity
  8
Ech.1_10
 62
     7
  6
CONTINUOUS
370
    -3
100
AcDbCircle
 10
68586.31666953
 20
-59610.63650767
 30
0.0
 40
5.0
100
AcDbArc
 50
269.99993329
 51
359.99993329
  0
LINE
  5
5EB
100
AcDbEntity
  8
Ech.1_10
 62
     7
  6
CONTINUOUS
370
    -3
100
AcDbLine
 10
68586.08655083
 20
-59624.71680377
 30
0.0
 11
68586.08655316
 21
-59622.71680377
 31
0.0
  0
LINE
  5
5EC
100
AcDbEntity
  8
Ech.1_10
 62
     7
  6
CONTINUOUS
370
    -3
100
AcDbLine
 10
68582.31666371
 20
-59615.63650301
 30
0.0
 11
68586.31666371
 21
-59615.63650767
 31
0.0
  0
ARC
  5
5ED
100
AcDbEntity
  8
Ech.1_10
 62
     7
  6
CONTINUOUS
370
    -3
100
AcDbCircle
 10
68596.08294942
 20
-59610.13202463
 30
0.0
 40
14.82598747
100
AcDbArc
 50
201.79410437
 51
238.13509164
  0
ARC
  5
5EE
100
AcDbEntity
  8
Ech.1_10
 62
     7
  6
CONTINUOUS
370
    -3
100
AcDbCircle
 10
68594.62743523
 20
-59623.60681462
 30
0.0
 40
12.47697948
100
AcDbArc
 50
189.36217724
 51
254.61211432
  0
LINE
  5
5EF
100
AcDbEntity
  8
Ech.1_10
 62
     7
  6
CONTINUOUS
370
    -3
100
AcDbLine
 10
68586.08655083
 20
-59624.71680377
 30
0.0
 11
68581.95613689
 21
-59624.71679896
 31
0.0
  0
LINE
  5
5F0
100
AcDbEntity
  8
Ech.1_10
 62
     7
  6
CONTINUOUS
370
    -3
100
AcDbLine
 10
68581.95613689
 20
-59624.71679896
 30
0.0
 11
68581.95612418
 21
-59635.63650259
 31
0.0
  0
LINE
  5
5F1
100
AcDbEntity
  8
Ech.1_10
 62
     7
  6
CONTINUOUS
370
    -3
100
AcDbLine
 10
68586.08655316
 20
-59622.71680377
 30
0.0
 11
68579.95613922
 21
-59622.71679663
 31
0.0
  0
LINE
  5
5F2
100
AcDbEntity
  8
Ech.1_10
 62
     7
  6
CONTINUOUS
370
    -3
100
AcDbLine
 10
68579.95613922
 20
-59622.71679663
 30
0.0
 11
68579.95612185
 21
-59637.63650026
 31
0.0
  0
CIRCLE
  5
5F3
100
AcDbEntity
  8
Ech.1_10
 62
     7
  6
CONTINUOUS
370
    -3
100
AcDbCircle
 10
68604.81670905
 20
-59576.69735877
 30
0.0
 40
2.51802373
  0
CIRCLE
  5
5F4
100
AcDbEntity
  8
Ech.1_10
 62
     7
  6
CONTINUOUS
370
    -3
100
AcDbCircle
 10
68604.81667412
 20
-59606.69735877
 30
0.0
 40
2.51802373
  0
CIRCLE
  5
5F5
100
AcDbEntity
  8
Ech.1_10
 62
     7
  6
CONTINUOUS
370
    -3
100
AcDbCircle
 10
68604.81672652
 20
-59561.69735877
 30
0.0
 40
2.51802373
  0
ARC
  5
5F6
100
AcDbEntity
  8
Ech.1_10
 62
     7
  6
CONTINUOUS
370
    -3
100
AcDbCircle
 10
68613.55039082
 20
-59610.13204497
 30
0.0
 40
14.82598747
100
AcDbArc
 50
301.86477493
 51
338.20576221
  0
ARC
  5
5F7
100
AcDbEntity
  8
Ech.1_10
 62
     7
  6
CONTINUOUS
370
    -3
100
AcDbCircle
 10
68625.17504767
 20
-59622.49164046
 30
0.0
 40
3.80485997
100
AcDbArc
 50
183.49669989
 51
304.25383409
  0
ARC
  5
5F8
100
AcDbEntity
  8
Ech.1_10
 62
     7
  6
CONTINUOUS
370
    -3
100
AcDbCircle
 10
68615.00587363
 20
-59623.60683835
 30
0.0
 40
12.47697948
100
AcDbArc
 50
285.38775225
 51
350.63768933
  0
LINE
  5
5F9
100
AcDbEntity
  8
Ech.1_10
 62
     7
  6
CONTINUOUS
370
    -3
100
AcDbLine
 10
68627.31666371
 20
-59615.63655541
 30
0.0
 11
68623.31666371
 21
-59615.63655075
 31
0.0
  0
ARC
  5
5FA
100
AcDbEntity
  8
Ech.1_10
 62
     7
  6
CONTINUOUS
370
    -3
100
AcDbCircle
 10
68623.31666953
 20
-59610.63655075
 30
0.0
 40
5.0
100
AcDbArc
 50
179.99993329
 51
269.99993329
  0
LINE
  5
5FB
100
AcDbEntity
  8
Ech.1_10
 62
     7
  6
CONTINUOUS
370
    -3
100
AcDbLine
 10
68623.54675544
 20
-59624.71684739
 30
0.0
 11
68623.54675777
 21
-59622.71684739
 31
0.0
  0
LINE
  5
5FC
100
AcDbEntity
  8
Ech.1_10
 62
     7
  6
CONTINUOUS
370
    -3
100
AcDbLine
 10
68623.54675544
 20
-59624.71684739
 30
0.0
 11
68627.67716938
 21
-59624.71685219
 31
0.0
  0
LINE
  5
5FD
100
AcDbEntity
  8
Ech.1_10
 62
     7
  6
CONTINUOUS
370
    -3
100
AcDbLine
 10
68627.67716938
 20
-59624.71685219
 30
0.0
 11
68627.67715667
 21
-59635.63655583
 31
0.0
  0
LINE
  5
5FE
100
AcDbEntity
  8
Ech.1_10
 62
     7
  6
CONTINUOUS
370
    -3
100
AcDbLine
 10
68623.54675777
 20
-59622.71684739
 30
0.0
 11
68629.67717171
 21
-59622.71685452
 31
0.0
  0
LINE
  5
5FF
100
AcDbEntity
  8
Ech.1_10
 62
     7
  6
CONTINUOUS
370
    -3
100
AcDbLine
 10
68629.67717171
 20
-59622.71685452
 30
0.0
 11
68629.67715434
 21
-59637.63655815
 31
0.0
  0
CIRCLE
  5
600
100
AcDbEntity
  8
Ech.1_10
 62
     7
  6
CONTINUOUS
370
    -3
100
AcDbCircle
 10
68604.81676145
 20
-59531.69735877
 30
0.0
 40
2.51802373
  0
LINE
  5
601
100
AcDbEntity
  8
Ech.1_10
 62
     7
  6
CONTINUOUS
370
    -3
100
AcDbLine
 10
68591.31679345
 20
-59484.95024684
 30
0.0
 11
68591.31666953
 21
-59610.63651349
 31
0.0
  0
CIRCLE
  5
602
100
AcDbEntity
  8
Ech.1_10
 62
     7
  6
CONTINUOUS
370
    -3
100
AcDbCircle
 10
68604.81677891
 20
-59516.69735877
 30
0.0
 40
2.51802373
  0
LINE
  5
603
100
AcDbEntity
  8
Ech.1_10
 62
     7
  6
CONTINUOUS
370
    -3
100
AcDbLine
 10
68591.31679345
 20
-59484.95024684
 30
0.0
 11
68618.31679345
 21
-59484.95027828
 31
0.0
  0
LINE
  5
604
100
AcDbEntity
  8
Ech.1_10
 62
     7
  6
CONTINUOUS
370
    -3
100
AcDbLine
 10
68627.67715667
 20
-59635.63655583
 30
0.0
 11
68581.95612418
 21
-59635.63650259
 31
0.0
  0
LINE
  5
605
100
AcDbEntity
  8
Ech.1_10
 62
     7
  6
CONTINUOUS
370
    -3
100
AcDbLine
 10
68579.95612185
 20
-59637.63650026
 30
0.0
 11
68629.67715434
 21
-59637.63655815
 31
0.0
  0
ARC
  5
606
100
AcDbEntity
  8
Ech.1_10
 62
     7
  6
CONTINUOUS
370
    -3
100
AcDbCircle
 10
68584.45826378
 20
-59622.49159305
 30
0.0
 40
3.80485997
100
AcDbArc
 50
235.74603248
 51
356.50316668
  0
LINE
  5
607
100
AcDbEntity
  8
Ech.1_10
 62
     7
  6
CONTINUOUS
370
    -3
100
AcDbLine
 10
68602.92437969
 20
-59496.48761486
 30
0.0
 11
68602.92437969
 21
-59496.48761486
 31
0.0
  0
CIRCLE
  5
608
100
AcDbEntity
  8
Ech.1_10
 62
     7
  6
CONTINUOUS
370
    -3
100
AcDbCircle
 10
68604.81677891
 20
-59501.78894734
 30
0.0
 40
2.51802373
  0
CIRCLE
  5
609
100
AcDbEntity
  8
Ech.1_10
 62
     7
  6
CONTINUOUS
370
    -3
100
AcDbCircle
 10
69394.83510832
 20
-59591.69735877
 30
0.0
 40
2.51802373
  0
LINE
  5
60A
100
AcDbEntity
  8
Ech.1_10
 62
     7
  6
CONTINUOUS
370
    -3
100
AcDbLine
 10
69381.33500645
 20
-59484.95027828
 30
0.0
 11
69381.33513037
 21
-59610.63654493
 31
0.0
  0
CIRCLE
  5
60B
100
AcDbEntity
  8
Ech.1_10
 62
     7
  6
CONTINUOUS
370
    -3
100
AcDbCircle
 10
69394.83505592
 20
-59546.69735877
 30
0.0
 40
2.51802373
  0
ARC
  5
60C
100
AcDbEntity
  8
Ech.1_10
 62
     7
  6
CONTINUOUS
370
    -3
100
AcDbCircle
 10
69413.33513037
 20
-59610.63650767
 30
0.0
 40
5.0
100
AcDbArc
 50
180.00006671
 51
270.00006671
  0
LINE
  5
60D
100
AcDbEntity
  8
Ech.1_10
 62
     7
  6
CONTINUOUS
370
    -3
100
AcDbLine
 10
69413.56524907
 20
-59624.71680377
 30
0.0
 11
69413.56524674
 21
-59622.71680377
 31
0.0
  0
LINE
  5
60E
100
AcDbEntity
  8
Ech.1_10
 62
     7
  6
CONTINUOUS
370
    -3
100
AcDbLine
 10
69417.33513619
 20
-59615.63650301
 30
0.0
 11
69413.33513619
 21
-59615.63650767
 31
0.0
  0
ARC
  5
60F
100
AcDbEntity
  8
Ech.1_10
 62
     7
  6
CONTINUOUS
370
    -3
100
AcDbCircle
 10
69403.56885048
 20
-59610.13202463
 30
0.0
 40
14.82598747
100
AcDbArc
 50
301.86490836
 51
338.20589563
  0
ARC
  5
610
100
AcDbEntity
  8
Ech.1_10
 62
     7
  6
CONTINUOUS
370
    -3
100
AcDbCircle
 10
69405.02436467
 20
-59623.60681462
 30
0.0
 40
12.47697948
100
AcDbArc
 50
285.38788568
 51
350.63782276
  0
LINE
  5
611
100
AcDbEntity
  8
Ech.1_10
 62
     7
  6
CONTINUOUS
370
    -3
100
AcDbLine
 10
69413.56524907
 20
-59624.71680377
 30
0.0
 11
69417.69566301
 21
-59624.71679896
 31
0.0
  0
LINE
  5
612
100
AcDbEntity
  8
Ech.1_10
 62
     7
  6
CONTINUOUS
370
    -3
100
AcDbLine
 10
69417.69566301
 20
-59624.71679896
 30
0.0
 11
69417.69567572
 21
-59635.63650259
 31
0.0
  0
LINE
  5
613
100
AcDbEntity
  8
Ech.1_10
 62
     7
  6
CONTINUOUS
370
    -3
100
AcDbLine
 10
69413.56524674
 20
-59622.71680377
 30
0.0
 11
69419.69566068
 21
-59622.71679663
 31
0.0
  0
LINE
  5
614
100
AcDbEntity
  8
Ech.1_10
 62
     7
  6
CONTINUOUS
370
    -3
100
AcDbLine
 10
69419.69566068
 20
-59622.71679663
 30
0.0
 11
69419.69567805
 21
-59637.63650026
 31
0.0
  0
CIRCLE
  5
615
100
AcDbEntity
  8
Ech.1_10
 62
     7
  6
CONTINUOUS
370
    -3
100
AcDbCircle
 10
69394.83509085
 20
-59576.69735877
 30
0.0
 40
2.51802373
  0
CIRCLE
  5
616
100
AcDbEntity
  8
Ech.1_10
 62
     7
  6
CONTINUOUS
370
    -3
100
AcDbCircle
 10
69394.83512578
 20
-59606.69735877
 30
0.0
 40
2.51802373
  0
CIRCLE
  5
617
100
AcDbEntity
  8
Ech.1_10
 62
     7
  6
CONTINUOUS
370
    -3
100
AcDbCircle
 10
69394.83507338
 20
-59561.69735877
 30
0.0
 40
2.51802373
  0
ARC
  5
618
100
AcDbEntity
  8
Ech.1_10
 62
     7
  6
CONTINUOUS
370
    -3
100
AcDbCircle
 10
69386.10140908
 20
-59610.13204497
 30
0.0
 40
14.82598747
100
AcDbArc
 50
201.79423779
 51
238.13522507
  0
ARC
  5
619
100
AcDbEntity
  8
Ech.1_10
 62
     7
  6
CONTINUOUS
370
    -3
100
AcDbCircle
 10
69374.47675223
 20
-59622.49164046
 30
0.0
 40
3.80485997
100
AcDbArc
 50
235.74616591
 51
356.50330011
  0
ARC
  5
61A
100
AcDbEntity
  8
Ech.1_10
 62
     7
  6
CONTINUOUS
370
    -3
100
AcDbCircle
 10
69528.64592627
 20
-59623.60683835
 30
0.0
 40
12.47697948
100
AcDbArc
 50
189.36231067
 51
254.61224775
  0
LINE
  5
61B
100
AcDbEntity
  8
Ech.1_10
 62
     7
  6
CONTINUOUS
370
    -3
100
AcDbLine
 10
69372.33513619
 20
-59615.63655541
 30
0.0
 11
69376.33513619
 21
-59615.63655075
 31
0.0
  0
ARC
  5
61C
100
AcDbEntity
  8
Ech.1_10
 62
     7
  6
CONTINUOUS
370
    -3
100
AcDbCircle
 10
69376.33513037
 20
-59610.63655075
 30
0.0
 40
5.0
100
AcDbArc
 50
270.00006672
 51
6.6713072303917E-05
  0
LINE
  5
61D
100
AcDbEntity
  8
Ech.1_10
 62
     7
  6
CONTINUOUS
370
    -3
100
AcDbLine
 10
69376.10504446
 20
-59624.71684739
 30
0.0
 11
69376.10504213
 21
-59622.71684739
 31
0.0
  0
LINE
  5
61E
100
AcDbEntity
  8
Ech.1_10
 62
     7
  6
CONTINUOUS
370
    -3
100
AcDbLine
 10
69376.10504446
 20
-59624.71684739
 30
0.0
 11
69371.97463052
 21
-59624.71685219
 31
0.0
  0
LINE
  5
61F
100
AcDbEntity
  8
Ech.1_10
 62
     7
  6
CONTINUOUS
370
    -3
100
AcDbLine
 10
69371.97463052
 20
-59624.71685219
 30
0.0
 11
69371.97464323
 21
-59635.63655583
 31
0.0
  0
LINE
  5
620
100
AcDbEntity
  8
Ech.1_10
 62
     7
  6
CONTINUOUS
370
    -3
100
AcDbLine
 10
69376.10504213
 20
-59622.71684739
 30
0.0
 11
69369.97462819
 21
-59622.71685452
 31
0.0
  0
LINE
  5
621
100
AcDbEntity
  8
Ech.1_10
 62
     7
  6
CONTINUOUS
370
    -3
100
AcDbLine
 10
69369.97462819
 20
-59622.71685452
 30
0.0
 11
69369.97464556
 21
-59637.63655815
 31
0.0
  0
CIRCLE
  5
622
100
AcDbEntity
  8
Ech.1_10
 62
     7
  6
CONTINUOUS
370
    -3
100
AcDbCircle
 10
69394.83503845
 20
-59531.69735877
 30
0.0
 40
2.51802373
  0
LINE
  5
623
100
AcDbEntity
  8
Ech.1_10
 62
     7
  6
CONTINUOUS
370
    -3
100
AcDbLine
 10
69408.33500645
 20
-59484.95024684
 30
0.0
 11
69408.33513037
 21
-59610.63651349
 31
0.0
  0
CIRCLE
  5
624
100
AcDbEntity
  8
Ech.1_10
 62
     7
  6
CONTINUOUS
370
    -3
100
AcDbCircle
 10
69394.83502099
 20
-59516.69735877
 30
0.0
 40
2.51802373
  0
LINE
  5
625
100
AcDbEntity
  8
Ech.1_10
 62
     7
  6
CONTINUOUS
370
    -3
100
AcDbLine
 10
69408.33500645
 20
-59484.95024684
 30
0.0
 11
69381.33500645
 21
-59484.95027828
 31
0.0
  0
LINE
  5
626
100
AcDbEntity
  8
Ech.1_10
 62
     7
  6
CONTINUOUS
370
    -3
100
AcDbLine
 10
69371.97464323
 20
-59635.63655583
 30
0.0
 11
69417.69567572
 21
-59635.63650259
 31
0.0
  0
LINE
  5
627
100
AcDbEntity
  8
Ech.1_10
 62
     7
  6
CONTINUOUS
370
    -3
100
AcDbLine
 10
69419.69567805
 20
-59637.63650026
 30
0.0
 11
69369.97464556
 21
-59637.63655815
 31
0.0
  0
ARC
  5
628
100
AcDbEntity
  8
Ech.1_10
 62
     7
  6
CONTINUOUS
370
    -3
100
AcDbCircle
 10
69415.19353612
 20
-59622.49159305
 30
0.0
 40
3.80485997
100
AcDbArc
 50
183.49683332
 51
304.25396752
  0
LINE
  5
629
100
AcDbEntity
  8
Ech.1_10
 62
     7
  6
CONTINUOUS
370
    -3
100
AcDbLine
 10
69396.72742021
 20
-59496.48761486
 30
0.0
 11
69396.72742021
 21
-59496.48761486
 31
0.0
  0
CIRCLE
  5
62A
100
AcDbEntity
  8
Ech.1_10
 62
     7
  6
CONTINUOUS
370
    -3
100
AcDbCircle
 10
69394.83502099
 20
-59501.78894734
 30
0.0
 40
2.51802373
  0
LWPOLYLINE
  5
62B
100
AcDbEntity
  8
Ech.1_10
 62
   190
  6
CONTINUOUS
370
    -3
100
AcDbPolyline
 90
        8
 70
     1
 43
0.0
 10
68356.57005394
 20
-59861.08392933
 10
68356.57005394
 20
-60139.48682716
 10
68501.57005394
 20
-60139.48682716
 10
68501.57005394
 20
-59861.08407905
 10
68402.86547465
 20
-59861.08367851
 10
68386.37912057
 20
-59879.0620301
 10
68400.48906059
 20
-59843.10633018
 10
68384.00355743
 20
-59861.08367851
  0
LWPOLYLINE
  5
62C
100
AcDbEntity
  8
Ech.1_10
 62
   190
  6
CONTINUOUS
370
    -3
100
AcDbPolyline
 90
        4
 70
     1
 43
0.0
 10
68347.57005394
 20
-59861.0845063
 10
68347.57005394
 20
-60139.48682716
 10
68356.57005394
 20
-60139.48682716
 10
68356.57005394
 20
-59861.0851548
  0
LWPOLYLINE
  5
62D
100
AcDbEntity
  8
Ech.1_10
 62
   190
  6
CONTINUOUS
370
    -3
100
AcDbPolyline
 90
        4
 70
     1
 43
0.0
 10
68356.57005394
 20
-60243.48682716
 10
68347.57005394
 20
-60243.48682716
 10
68347.57005394
 20
-60645.28977855
 10
68356.57005394
 20
-60645.29000458
  0
LWPOLYLINE
  5
62E
100
AcDbEntity
  8
Ech.1_10
 62
   190
  6
CONTINUOUS
370
    -3
100
AcDbPolyline
 90
        4
 70
     1
 43
0.0
 10
68287.57005394
 20
-60139.48682716
 10
68287.57005394
 20
-60243.48682716
 10
68521.56904275
 20
-60243.48682716
 10
68521.56904275
 20
-60139.48682716
  0
LINE
  5
62F
100
AcDbEntity
  8
Ech.1_10
 62
   190
  6
CONTINUOUS
370
    -3
100
AcDbLine
 10
68501.57005394
 20
-60094.4868243
 30
0.0
 11
68501.57005394
 21
-59861.08492306
 31
0.0
  0
LWPOLYLINE
  5
630
100
AcDbEntity
  8
Ech.1_10
 62
   190
  6
CONTINUOUS
370
    -3
100
AcDbPolyline
 90
        3
 70
     0
 43
0.0
 10
68436.22544389
 20
-60139.48682716
 10
68463.8054651
 20
-60132.10663822
 42
-0.26305507
 10
68492.39178493
 20
-60139.48682716
  0
LWPOLYLINE
  5
631
102
{ACAD_REACTORS
330
632
102
}
100
AcDbEntity
  8
Ech.1_10
 62
     9
  6
CONTINUOUS
370
    -3
100
AcDbPolyline
 90
        8
 70
     1
 43
0.0
 38
2500.0
 39
-2500.0
 10
69013.05361798
 20
-60139.48682716
 10
68521.57005394
 20
-60139.48682716
 10
68521.57005394
 20
-60339.48682716
 10
69013.05425778
 20
-60339.48682716
 10
69013.05472241
 20
-60226.66293684
 10
68995.0763708
 20
-60210.17658201
 10
69031.03207081
 20
-60224.28652254
 10
69013.05472241
 20
-60207.80101934
  0
HATCH
  5
632
100
AcDbEntity
  8
Ech.1_10
 62
     9
  6
CONTINUOUS
100
AcDbHatch
 10
0.0
 20
0.0
 30
0.0
210
0.0
220
0.0
230
1.0
  2
AR-CONC
 70
     0
 71
     1
 91
        1
 92
        7
 72
     0
 73
     1
 93
        8
 10
69013.05361798
 20
-60139.48682716
 10
68521.57005394
 20
-60139.48682716
 10
68521.57005394
 20
-60339.48682716
 10
69013.05425778
 20
-60339.48682716
 10
69013.05472241
 20
-60226.66293684
 10
68995.0763708
 20
-60210.17658201
 10
69031.03207081
 20
-60224.28652254
 10
69013.05472241
 20
-60207.80101934
 97
        1
330
631
 75
     0
 76
     2
 52
0.0
 41
0.11811097
 77
     0
 78
    13
 53
50.0
 43
0.0
 44
0.0
 45
-18.84283637
 46
1.64853443
 79
     2
 49
1.97029307
 49
-21.67322338
 53
355.0
 43
0.0
 44
0.0
 45
-3.64507756
 46
19.76051824
 79
     2
 49
1.57623377
 49
-17.3385787
 53
100.45140076
 43
1.57023568
 44
-0.13737749
 45
-15.19777228
 46
-18.11197244
 79
     2
 49
1.67449124
 49
-18.41940522
 53
46.18420029
 43
0.0
 44
5.25411576
 45
-28.03703353
 46
4.34827878
 79
     2
 49
2.95543872
 49
-32.50983238
 53
96.63559723
 43
2.33641885
 44
4.89175692
 45
-24.55412615
 46
-25.59063404
 79
     2
 49
2.51173697
 49
-27.62910426
 53
351.1842041
 43
0.0
 44
5.25411576
 45
24.55410288
 46
25.59065715
 79
     2
 49
2.36435249
 49
-26.00786805
 53
21.0
 43
2.62705699
 44
3.94058615
 45
-15.68109068
 46
10.57702905
 79
     2
 49
1.97029307
 49
-21.67322338
 53
326.0
 43
2.62705699
 44
3.94058615
 45
6.39203268
 46
19.05010734
 79
     2
 49
1.57623377
 49
-17.3385787
 53
71.45140076
 43
3.93381357
 44
3.05916555
 45
-22.07312962
 46
-8.47306182
 79
     2
 49
1.67449124
 49
-18.41940522
 53
37.5
 43
0.0
 44
0.0
 45
0.31944534
 46
8.74531245
 79
     6
 49
0.01875
 49
-17.12841332
 49
0.01875
 49
-17.60128498
 49
0.01875
 49
-17.40425348
 53
7.5
 43
0.0
 44
0.0
 45
6.91098818
 46
10.3614222
 79
     6
 49
0.01875
 49
-10.03535807
 49
0.01875
 49
-16.7343539
 49
0.01875
 49
-6.6333206
 53
-32.5
 43
-5.85833833
 44
0.0
 45
14.02382061
 46
-0.59253003
 79
     6
 49
0.01875
 49
-6.56764314
 49
0.01875
 49
-20.49104869
 49
0.01875
 49
-27.19004452
 53
-42.5
 43
-8.48539531
 44
0.0
 45
15.32063571
 46
2.62981542
 79
     6
 49
0.01875
 49
-8.53793621
 49
0.01875
 49
-13.60815793
 49
0.01875
 49
-19.30887222
 47
0.775229
 98
        1
 10
0.0
 20
0.0
  0
LWPOLYLINE
  5
633
100
AcDbEntity
  8
Ech.1_10
 62
   190
  6
CONTINUOUS
370
    -3
100
AcDbPolyline
 90
        4
 70
     1
 43
0.0
 10
68356.57005394
 20
-60094.48682716
 10
68356.57005394
 20
-60139.48682716
 10
68501.57005394
 20
-60139.48682716
 10
68501.57005394
 20
-60094.48682716
  0
LWPOLYLINE
  5
634
100
AcDbEntity
  8
Ech.1_10
 62
   190
  6
CONTINUOUS
370
    -3
100
AcDbPolyline
 90
        4
 70
     1
 43
0.0
 10
68501.57005394
 20
-60139.48682716
 10
68501.57005394
 20
-60094.48682716
 10
68356.57005394
 20
-60094.48682716
 10
68356.57005394
 20
-60139.48682716
  0
LINE
  5
635
100
AcDbEntity
  8
Ech.1_10
 62
     7
  6
CONTINUOUS
370
    -3
100
AcDbLine
 10
68519.82189246
 20
-60139.48682716
 30
0.0
 11
68359.82188812
 21
-60139.48682716
 31
0.0
  0
LWPOLYLINE
  5
636
102
{ACAD_REACTORS
330
637
102
}
100
AcDbEntity
  8
Ech.1_10
 62
     9
  6
CONTINUOUS
370
    -3
100
AcDbPolyline
 90
        4
 70
     1
 43
0.0
 10
69013.05324659
 20
-60139.48833111
 10
69013.05324659
 20
-60125.48833076
 10
68561.42283622
 20
-60125.48833111
 10
68561.42283622
 20
-60139.48833111
  0
HATCH
  5
637
100
AcDbEntity
  8
Ech.1_10
 62
     9
  6
CONTINUOUS
100
AcDbHatch
 10
0.0
 20
0.0
 30
0.0
210
0.0
220
0.0
230
1.0
  2
ANSI31
 70
     0
 71
     1
 91
        1
 92
        7
 72
     0
 73
     1
 93
        4
 10
69013.05324659
 20
-60139.48833111
 10
69013.05324659
 20
-60125.48833076
 10
68561.42283622
 20
-60125.48833111
 10
68561.42283622
 20
-60139.48833111
 97
        1
330
636
 75
     0
 76
     2
 52
90.0
 41
3.14962605
 77
     0
 78
     1
 53
-45.0
 43
0.0
 44
0.0
 45
7.07106781
 46
7.07106781
 79
     0
 47
0.775229
 98
        1
 10
0.0
 20
0.0
  0
LWPOLYLINE
  5
638
100
AcDbEntity
  8
Ech.1_10
 62
     9
  6
CONTINUOUS
100
AcDbPolyline
 90
        6
 70
     0
 43
0.0
 10
68554.57146912
 20
-60059.82155826
 10
68557.57005392
 20
-60059.82162693
 42
-0.41421356
 10
68567.57005392
 20
-60069.82162693
 10
68567.57005392
 20
-60125.48640087
 10
68554.57005394
 20
-60125.48640278
 10
68554.57005394
 20
-60059.82162979
  0
LWPOLYLINE
  5
639
100
AcDbEntity
  8
Ech.1_10
 62
     9
100
AcDbPolyline
 90
       27
 70
     0
 43
0.0
 10
68249.44343682
 20
-60491.17715222
 10
68249.57005394
 20
-60490.84267861
 10
68249.57005394
 20
-60463.45921379
 10
68256.57005394
 20
-60463.45921379
 10
68256.57005394
 20
-60472.45921379
 10
68262.57005394
 20
-60472.45921379
 10
68262.57005394
 20
-60445.45921379
 10
68258.57005394
 20
-60441.45921379
 10
68262.57005394
 20
-60437.45921379
 10
68262.57005394
 20
-60373.45921379
 10
68258.57005394
 20
-60369.45921379
 10
68262.57005394
 20
-60365.45921379
 10
68262.57005394
 20
-60330.45921379
 10
68255.57005394
 20
-60330.45921379
 10
68255.57005394
 20
-60324.45921379
 10
68253.07005394
 20
-60319.45921379
 10
68250.57005394
 20
-60324.45921379
 10
68250.57005394
 20
-60355.38814598
 10
68250.1894516
 20
-60357.3015638
 10
68244.03452003
 20
-60363.9947477
 10
68242.57005394
 20
-60367.5302816
 10
68242.57005394
 20
-60486.61702591
 10
68243.53037633
 20
-60488.24689537
 10
68248.26649719
 20
-60491.21824509
 10
68248.67849856
 20
-60491.45921379
 10
68248.99231605
 20
-60491.45921379
 10
68249.44343682
 20
-60491.17715222
  0
LWPOLYLINE
  5
63A
102
{ACAD_REACTORS
330
63B
102
}
100
AcDbEntity
  8
Ech.1_10
 62
     7
  6
CONTINUOUS
370
    -3
100
AcDbPolyline
 90
        4
 70
     1
 43
0.0
 10
68356.57005394
 20
-60243.48682716
 10
68347.57005394
 20
-60243.48682716
 10
68347.57005394
 20
-60645.35955604
 10
68356.57005394
 20
-60645.29000458
  0
HATCH
  5
63B
100
AcDbEntity
  8
Ech.1_10
 62
   190
  6
CONTINUOUS
100
AcDbHatch
 10
0.0
 20
0.0
 30
0.0
210
0.0
220
0.0
230
1.0
  2
CDWK10A
 70
     0
 71
     1
 91
        1
 92
        7
 72
     0
 73
     1
 93
        4
 10
68356.57005394
 20
-60243.48682716
 10
68347.57005394
 20
-60243.48682716
 10
68347.57005394
 20
-60645.35955604
 10
68356.57005394
 20
-60645.29000458
 97
        1
330
63A
 75
     0
 76
     2
 52
0.0
 41
1.0
 77
     0
 78
     3
 53
45.0
 43
0.0
 44
0.0
 45
0.0
 46
42.00000167
 79
     0
 53
45.0
 43
0.0
 44
10.80000043
 45
0.0
 46
42.00000167
 79
     0
 53
45.0
 43
0.0
 44
21.60000086
 45
0.0
 46
42.00000167
 79
     0
 47
0.775229
 98
        1
 10
0.0
 20
0.0
  0
LWPOLYLINE
  5
63C
100
AcDbEntity
  8
Ech.1_10
 62
     7
  6
CONTINUOUS
370
    50
100
AcDbPolyline
 90
        5
 70
     0
 43
0.0
 10
68285.57005394
 20
-60259.69184643
 10
68285.57005394
 20
-60294.69184643
 10
68234.0436291
 20
-60314.69184643
 10
68234.0436291
 20
-60344.69184643
 10
68236.24664244
 20
-60339.43281513
  0
LWPOLYLINE
  5
63D
102
{ACAD_REACTORS
330
63E
102
}
100
AcDbEntity
  8
Ech.1_10
 62
     7
  6
CONTINUOUS
370
    -3
100
AcDbPolyline
 90
        4
 70
     1
 43
0.0
 10
68347.57005394
 20
-59861.0845063
 10
68347.57005394
 20
-60139.48682716
 10
68356.57005394
 20
-60139.48682716
 10
68356.57005394
 20
-59861.0851548
  0
HATCH
  5
63E
100
AcDbEntity
  8
Ech.1_10
 62
   190
  6
CONTINUOUS
100
AcDbHatch
 10
0.0
 20
0.0
 30
0.0
210
0.0
220
0.0
230
1.0
  2
CDWK10A
 70
     0
 71
     1
 91
        1
 92
        7
 72
     0
 73
     1
 93
        4
 10
68347.57005394
 20
-59861.0845063
 10
68347.57005394
 20
-60139.48682716
 10
68356.57005394
 20
-60139.48682716
 10
68356.57005394
 20
-59861.0851548
 97
        1
330
63D
 75
     0
 76
     2
 52
0.0
 41
1.0
 77
     0
 78
     3
 53
45.0
 43
0.0
 44
0.0
 45
0.0
 46
42.00000167
 79
     0
 53
45.0
 43
0.0
 44
10.80000043
 45
0.0
 46
42.00000167
 79
     0
 53
45.0
 43
0.0
 44
21.60000086
 45
0.0
 46
42.00000167
 79
     0
 47
0.775229
 98
        1
 10
0.0
 20
0.0
  0
LWPOLYLINE
  5
63F
100
AcDbEntity
  8
Ech.1_10
 62
     5
  6
CONTINUOUS
370
    -3
100
AcDbPolyline
 90
        5
 70
     0
 43
0.0
 10
68356.57005394
 20
-60139.48682716
 10
68356.57005394
 20
-60094.48682716
 10
68501.57005394
 20
-60094.48682716
 10
68501.57005394
 20
-60139.48682716
 10
68356.57005394
 20
-60139.48682716
  0
LINE
  5
640
100
AcDbEntity
  8
Ech.1_10
 62
   150
  6
CADWORK_22
370
    35
100
AcDbLine
 10
68287.57005394
 20
-60243.48682716
 30
0.0
 11
68287.57005394
 21
-60645.35955604
 31
0.0
  0
LWPOLYLINE
  5
641
100
AcDbEntity
  8
Ech.1_10
 62
   150
  6
CADWORK_22
370
    35
100
AcDbPolyline
 90
        4
 70
     0
 43
0.0
 10
68287.543834
 20
-59861.0851548
 10
68287.55320722
 20
-60236.4211937
 10
68282.55349933
 20
-60245.31214105
 10
68282.55528931
 20
-60273.3775274
  0
LINE
  5
642
100
AcDbEntity
  8
Ech.1_10
 62
     7
  6
CONTINUOUS
370
    -3
100
AcDbLine
 10
68522.82494156
 20
-60322.11195406
 30
0.0
 11
68518.82494137
 21
-60322.11195406
 31
0.0
  0
LINE
  5
643
100
AcDbEntity
  8
Ech.1_10
 62
     7
  6
CONTINUOUS
370
    -3
100
AcDbLine
 10
68522.82494156
 20
-60140.09101761
 30
0.0
 11
68522.82494156
 21
-60322.11195406
 31
0.0
  0
LINE
  5
644
100
AcDbEntity
  8
Ech.1_10
 62
     7
  6
CONTINUOUS
370
    -3
100
AcDbLine
 10
68522.82494156
 20
-60140.09101761
 30
0.0
 11
68362.82493722
 21
-60140.09101761
 31
0.0
  0
LINE
  5
645
100
AcDbEntity
  8
Ech.1_10
 62
     7
  6
CONTINUOUS
370
    -3
100
AcDbLine
 10
68362.82493722
 20
-60144.09101761
 30
0.0
 11
68362.82493722
 21
-60140.09101761
 31
0.0
  0
LINE
  5
646
100
AcDbEntity
  8
Ech.1_10
 62
     7
  6
CONTINUOUS
370
    -3
100
AcDbLine
 10
68518.82494137
 20
-60144.09101761
 30
0.0
 11
68362.82493722
 21
-60144.09101761
 31
0.0
  0
LINE
  5
647
100
AcDbEntity
  8
Ech.1_10
 62
     7
  6
CONTINUOUS
370
    -3
100
AcDbLine
 10
68518.82494137
 20
-60144.09101761
 30
0.0
 11
68518.82494137
 21
-60322.11195406
 31
0.0
  0
LINE
  5
648
100
AcDbEntity
  8
Ech.1_10
 62
     7
  6
CONTINUOUS
370
    -3
100
AcDbLine
 10
68517.95473286
 20
-60234.1370181
 30
0.0
 11
68362.82493722
 21
-60144.09101761
 31
0.0
  0
LWPOLYLINE
  5
649
102
{ACAD_REACTORS
330
64A
102
}
100
AcDbEntity
  8
Ech.1_10
 62
     7
  6
CONTINUOUS
370
    -3
100
AcDbPolyline
 90
        6
 70
     1
 43
0.0
 10
68362.82493722
 20
-60144.09101761
 10
68518.82494137
 20
-60144.09101761
 10
68518.82494137
 20
-60322.11195406
 10
68522.82494156
 20
-60322.11195406
 10
68522.82494156
 20
-60140.09101761
 10
68362.82493722
 20
-60140.09101761
  0
HATCH
  5
64A
100
AcDbEntity
  8
Ech.1_10
 62
     7
  6
CONTINUOUS
100
AcDbHatch
 10
0.0
 20
0.0
 30
0.0
210
0.0
220
0.0
230
1.0
  2
SOLID
 70
     1
 71
     1
 91
        1
 92
        7
 72
     0
 73
     1
 93
        6
 10
68362.82493722
 20
-60144.09101761
 10
68518.82494137
 20
-60144.09101761
 10
68518.82494137
 20
-60322.11195406
 10
68522.82494156
 20
-60322.11195406
 10
68522.82494156
 20
-60140.09101761
 10
68362.82493722
 20
-60140.09101761
 97
        1
330
649
 75
     0
 76
     2
 47
0.775229
 98
        1
 10
0.0
 20
0.0
  0
LWPOLYLINE
  5
64B
100
AcDbEntity
  8
Ech.1_10
 62
     9
  6
CONTINUOUS
370
    -3
100
AcDbPolyline
 90
        4
 70
     1
 43
0.0
 10
68262.57005394
 20
-60326.2525469
 10
68262.57005394
 20
-60645.2899469
 10
68287.57005394
 20
-60645.2899469
 10
68287.57005394
 20
-60326.2525469
  0
LWPOLYLINE
  5
64C
100
AcDbEntity
  8
Ech.1_10
 62
     9
  6
CONTINUOUS
370
    -3
100
AcDbPolyline
 90
        4
 70
     1
 43
0.0
 10
68262.57005394
 20
-60235.28180789
 10
68287.57005394
 20
-60235.28180789
 10
68287.57005394
 20
-59861.0851548
 10
68262.57005394
 20
-59861.0851548
  0
LWPOLYLINE
  5
64D
100
AcDbEntity
  8
Ech.1_10
 62
     9
  6
CONTINUOUS
100
AcDbPolyline
 90
       23
 70
     0
 43
0.0
 10
68250.57005394
 20
-59861.0851548
 10
68250.57005394
 20
-59880.10731124
 10
68250.1894516
 20
-59882.0207281
 10
68244.03452003
 20
-59888.71391296
 10
68242.57005394
 20
-59892.24944686
 10
68242.57005394
 20
-60011.33619117
 10
68243.53037633
 20
-60012.96605968
 10
68248.26649719
 20
-60015.93740939
 10
68248.67849856
 20
-60016.17837905
 10
68248.99231605
 20
-60016.17837905
 10
68249.44343682
 20
-60015.89631652
 10
68249.57005394
 20
-60015.56184291
 10
68249.57005394
 20
-59988.17837905
 10
68256.57005394
 20
-59988.17837905
 10
68256.57005394
 20
-59998.17837905
 10
68262.57005394
 20
-59998.17837905
 10
68262.57005394
 20
-59970.17837905
 10
68258.57005394
 20
-59966.17837905
 10
68262.57005394
 20
-59962.17837905
 10
68262.57005394
 20
-59898.17837905
 10
68258.57005394
 20
-59894.17837905
 10
68262.57005394
 20
-59890.17837905
 10
68262.57005394
 20
-59861.0851548
  0
LWPOLYLINE
  5
64E
100
AcDbEntity
  8
Ech.1_10
 62
     9
  6
CONTINUOUS
100
AcDbPolyline
 90
       27
 70
     0
 43
0.0
 10
68249.44343682
 20
-60160.89631652
 10
68249.57005394
 20
-60160.56184291
 10
68249.57005394
 20
-60133.17837905
 10
68256.57005394
 20
-60133.17837905
 10
68256.57005394
 20
-60143.17837905
 10
68262.57005394
 20
-60143.17837905
 10
68262.57005394
 20
-60115.17837905
 10
68258.57005394
 20
-60111.17837905
 10
68262.57005394
 20
-60107.17837905
 10
68262.57005394
 20
-60043.17837905
 10
68258.57005394
 20
-60039.17837905
 10
68262.57005394
 20
-60035.17837905
 10
68262.57005394
 20
-59999.17837905
 10
68255.57005394
 20
-59999.17837905
 10
68255.57005394
 20
-59994.17837905
 10
68253.07005394
 20
-59989.17837905
 10
68250.57005394
 20
-59994.17837905
 10
68250.57005394
 20
-60025.10731124
 10
68250.1894516
 20
-60027.0207281
 10
68244.03452003
 20
-60033.71391296
 10
68242.57005394
 20
-60037.24944686
 10
68242.57005394
 20
-60156.33619117
 10
68243.53037633
 20
-60157.96605968
 10
68248.26649719
 20
-60160.93740939
 10
68248.67849856
 20
-60161.17837905
 10
68248.99231605
 20
-60161.17837905
 10
68249.44343682
 20
-60160.89631652
  0
LWPOLYLINE
  5
64F
100
AcDbEntity
  8
Ech.1_10
 62
     9
  6
BYBLOCK
100
AcDbPolyline
 90
       23
 70
     0
 43
0.0
 10
68242.57005394
 20
-60278.65996265
 10
68242.57005394
 20
-60182.24944686
 10
68244.03452003
 20
-60178.71391296
 10
68250.1894516
 20
-60172.0207281
 10
68250.57005394
 20
-60170.10731124
 10
68250.57005394
 20
-60139.17837905
 10
68253.07005394
 20
-60134.17837905
 10
68255.57005394
 20
-60139.17837905
 10
68255.57005394
 20
-60144.17837905
 10
68262.57005394
 20
-60144.17837905
 10
68262.57005394
 20
-60180.17837905
 10
68258.57005394
 20
-60184.17837905
 10
68262.57005394
 20
-60188.17837905
 10
68262.57005394
 20
-60252.17837905
 10
68258.57005394
 20
-60256.17837905
 10
68262.57005394
 20
-60260.17837905
 10
68262.57005394
 20
-60260.17837905
 10
68250.32614033
 20
-60276.07565307
 10
68247.5093435
 20
-60279.73293113
 10
68246.41988346
 20
-60280.28180789
 10
68243.66450294
 20
-60280.28180789
 10
68242.57005394
 20
-60278.65996265
 10
68242.57005394
 20
-60273.35133456
  0
LWPOLYLINE
  5
650
100
AcDbEntity
  8
Ech.1_10
 62
     9
  6
CONTINUOUS
100
AcDbPolyline
 90
        9
 70
     0
 43
0.0
 10
68242.57005394
 20
-59861.0851548
 10
68242.57005394
 20
-59866.33619117
 10
68243.53037633
 20
-59867.96605968
 10
68248.26649719
 20
-59870.93740939
 10
68248.67849856
 20
-59871.17837905
 10
68248.99231605
 20
-59871.17837905
 10
68249.44343682
 20
-59870.89631652
 10
68249.57005394
 20
-59870.56184291
 10
68249.57005394
 20
-59861.0851548
  0
LWPOLYLINE
  5
651
100
AcDbEntity
  8
Ech.1_10
 62
     9
  6
CONTINUOUS
100
AcDbPolyline
 90
        4
 70
     0
 43
0.0
 10
68256.57005394
 20
-59861.0851548
 10
68256.57005394
 20
-59861.38339832
 10
68262.57005394
 20
-59861.38339832
 10
68262.57005394
 20
-59861.0851548
  0
LWPOLYLINE
  5
652
100
AcDbEntity
  8
Ech.1_10
 62
     9
100
AcDbPolyline
 90
       27
 70
     0
 43
0.0
 10
68249.44343682
 20
-60636.17715222
 10
68249.57005394
 20
-60635.84267861
 10
68249.57005394
 20
-60608.45921379
 10
68256.57005394
 20
-60608.45921379
 10
68256.57005394
 20
-60617.45921379
 10
68262.57005394
 20
-60617.45921379
 10
68262.57005394
 20
-60590.45921379
 10
68258.57005394
 20
-60586.45921379
 10
68262.57005394
 20
-60582.45921379
 10
68262.57005394
 20
-60518.45921379
 10
68258.57005394
 20
-60514.45921379
 10
68262.57005394
 20
-60510.45921379
 10
68262.57005394
 20
-60475.45921379
 10
68255.57005394
 20
-60475.45921379
 10
68255.57005394
 20
-60469.45921379
 10
68253.07005394
 20
-60464.45921379
 10
68250.57005394
 20
-60469.45921379
 10
68250.57005394
 20
-60500.38814598
 10
68250.1894516
 20
-60502.3015638
 10
68244.03452003
 20
-60508.9947477
 10
68242.57005394
 20
-60512.5302816
 10
68242.57005394
 20
-60631.61702591
 10
68243.53037633
 20
-60633.24689537
 10
68248.26649719
 20
-60636.21824509
 10
68248.67849856
 20
-60636.45921379
 10
68248.99231605
 20
-60636.45921379
 10
68249.44343682
 20
-60636.17715222
  0
LWPOLYLINE
  5
653
100
AcDbEntity
  8
Ech.1_10
 62
   190
  6
CONTINUOUS
370
    -3
100
AcDbPolyline
 90
        6
 70
     0
 43
0.0
 10
68607.36715641
 20
-60645.28883537
 10
68454.50444513
 20
-60645.2904652
 10
68438.01894198
 20
-60663.26781353
 10
68452.12888199
 20
-60627.31211361
 10
68435.64252791
 20
-60645.2904652
 10
68224.0436291
 20
-60645.28967937
  0
LWPOLYLINE
  5
654
100
AcDbEntity
  8
Ech.1_10
 62
   190
  6
CONTINUOUS
370
    -3
100
AcDbPolyline
 90
        6
 70
     0
 43
0.0
 10
68222.57005394
 20
-59861.0851548
 10
68384.00355743
 20
-59861.08367851
 10
68400.48906059
 20
-59843.10633018
 10
68386.37912057
 20
-59879.0620301
 10
68402.86547465
 20
-59861.08367851
 10
68607.36715641
 20
-59861.08450058
  0
LWPOLYLINE
  5
655
100
AcDbEntity
  8
Ech.1_10
 62
     9
100
AcDbPolyline
 90
        7
 70
     0
 43
0.0
 10
68262.57005394
 20
-60645.28967937
 10
68262.57005394
 20
-60620.45921379
 10
68255.57005394
 20
-60620.45921379
 10
68255.57005394
 20
-60614.45921379
 10
68253.07005394
 20
-60609.45921379
 10
68250.57005394
 20
-60614.45921379
 10
68250.57005394
 20
-60645.28967937
  0
LWPOLYLINE
  5
656
100
AcDbEntity
  8
Ech.1_10
 62
   190
  6
CONTINUOUS
370
    -3
100
AcDbPolyline
 90
        4
 70
     1
 43
0.0
 10
68501.57005394
 20
-60313.48682716
 10
68456.57005394
 20
-60313.48682716
 10
68456.57005394
 20
-60493.48682716
 10
68501.57005394
 20
-60493.48682716
  0
LWPOLYLINE
  5
657
100
AcDbEntity
  8
Ech.1_10
 62
     7
  6
CONTINUOUS
370
   120
100
AcDbPolyline
 90
        3
 70
     0
 43
10.0
 10
68370.69007928
 20
-60239.97307964
 10
68515.69007928
 20
-60239.97307964
 10
68515.69007928
 20
-60149.97307964
  0
LWPOLYLINE
  5
658
100
AcDbEntity
  8
Ech.1_10
 62
   190
  6
CONTINUOUS
370
    -3
100
AcDbPolyline
 90
        4
 70
     1
 43
0.0
 10
68356.57005394
 20
-60243.48682716
 10
68356.57005394
 20
-60313.48682716
 10
68501.57005394
 20
-60313.48682716
 10
68501.57005394
 20
-60243.48682716
  0
LWPOLYLINE
  5
659
100
AcDbEntity
  8
Ech.1_10
 62
   190
  6
CONTINUOUS
370
    -3
100
AcDbPolyline
 90
        4
 70
     1
 43
0.0
 10
68501.57005394
 20
-60313.48682716
 10
68501.57005394
 20
-60243.48682716
 10
68356.57005394
 20
-60243.48682716
 10
68356.57005394
 20
-60313.48682716
  0
LWPOLYLINE
  5
65A
100
AcDbEntity
  8
Ech.1_10
 62
     5
  6
CONTINUOUS
370
    -3
100
AcDbPolyline
 90
        5
 70
     0
 43
0.0
 10
68356.57005394
 20
-60313.48682716
 10
68356.57005394
 20
-60243.48682716
 10
68501.57005394
 20
-60243.48682716
 10
68501.57005394
 20
-60313.48682716
 10
68356.57005394
 20
-60313.48682716
  0
LWPOLYLINE
  5
65B
100
AcDbEntity
  8
Ech.1_10
 62
   190
  6
CONTINUOUS
 48
0.2
370
    70
100
AcDbPolyline
 90
        4
 70
     0
 43
0.0
 10
69013.05240278
 20
-58997.2296021
 10
68537.69874246
 20
-58997.2296021
 10
68521.0222094
 20
-58997.2296021
 10
68521.0222094
 20
-58847.2296021
  0
LWPOLYLINE
  5
65C
100
AcDbEntity
  8
Ech.1_10
 62
   190
  6
CONTINUOUS
 48
0.2
370
    70
100
AcDbPolyline
 90
        4
 70
     0
 43
0.0
 10
69049.44148599
 20
-58997.2296021
 10
69402.4052129
 20
-58997.2296021
 10
69428.08324991
 20
-58997.2296021
 10
69428.08324991
 20
-58847.2296021
  0
LWPOLYLINE
  5
65D
100
AcDbEntity
  8
Ech.1_10
 62
     7
  6
CONTINUOUS
370
    -3
100
AcDbPolyline
 90
        4
 70
     1
 43
0.0
 10
68287.57005394
 20
-60288.48682716
 10
68347.57005394
 20
-60288.48682716
 10
68347.57005394
 20
-60243.48682716
 10
68287.57005394
 20
-60243.48682716
  0
LWPOLYLINE
  5
65E
100
AcDbEntity
  8
Ech.1_10
 62
   190
370
    18
100
AcDbPolyline
 90
        4
 70
     0
 43
0.0
 10
68287.57005394
 20
-60243.48682716
 10
68347.57005394
 20
-60288.48682716
 10
68347.57005394
 20
-60243.48682716
 10
68287.57005394
 20
-60288.48682716
  0
LWPOLYLINE
  5
65F
100
AcDbEntity
  8
Ech.1_10
 62
     5
100
AcDbPolyline
 90
        5
 70
     0
 43
0.0
 10
68287.57005394
 20
-60288.48682716
 10
68347.57005394
 20
-60288.48682716
 10
68347.57005394
 20
-60243.48682716
 10
68287.57005394
 20
-60243.48682716
 10
68287.57005394
 20
-60288.48682716
  0
LWPOLYLINE
  5
660
100
AcDbEntity
  8
Ech.1_10
 62
   190
  6
CONTINUOUS
370
    -3
100
AcDbPolyline
 90
       18
 70
     0
 43
0.0
 10
68380.7367206
 20
-59861.0851548
 42
1.14028181
 10
68386.99152828
 20
-59908.59502516
 10
68471.1485796
 20
-59886.07528444
 42
-1.30322619
 10
68471.1485796
 20
-59932.76169183
 10
68386.99152828
 20
-59910.2419511
 42
1.30322619
 10
68386.99152828
 20
-59956.92835849
 10
68471.1485796
 20
-59934.40861777
 42
-1.30322619
 10
68471.1485796
 20
-59981.09502516
 10
68386.99152828
 20
-59958.57528444
 42
1.30322619
 10
68386.99152828
 20
-60005.26169183
 10
68471.1485796
 20
-59982.7419511
 42
-1.30322619
 10
68471.1485796
 20
-60029.42835849
 10
68386.99152828
 20
-60006.90861777
 42
1.30322619
 10
68386.99152828
 20
-60053.59502516
 10
68471.1485796
 20
-60031.07528444
 42
-1.30322619
 10
68471.1485796
 20
-60077.76169183
 10
68386.99152828
 20
-60055.2419511
 42
0.74095802
 10
68362.53879232
 20
-60094.48682716
  0
LWPOLYLINE
  5
661
100
AcDbEntity
  8
Ech.1_10
 62
   190
  6
CONTINUOUS
370
    -3
100
AcDbPolyline
 90
       46
 70
     0
 43
0.0
 10
68337.56568395
 20
-60094.48682716
 42
1.14028181
 10
68334.97635663
 20
-60074.81897939
 10
68300.13753131
 20
-60084.14156497
 42
-1.30322619
 10
68300.13753131
 20
-60064.8146094
 10
68334.97635663
 20
-60074.13719498
 42
1.30322619
 10
68334.97635663
 20
-60054.81023941
 10
68300.13753131
 20
-60064.13282499
 42
-1.30322619
 10
68300.13753131
 20
-60044.80586942
 10
68334.97635663
 20
-60054.128455
 42
1.30322619
 10
68334.97635663
 20
-60034.80149943
 10
68300.13753131
 20
-60044.12408501
 42
-1.30322619
 10
68300.13753131
 20
-60024.79712944
 10
68334.97635663
 20
-60034.11971502
 42
1.30322619
 10
68334.97635663
 20
-60014.79275945
 10
68300.13753131
 20
-60024.11534503
 42
-1.30322619
 10
68300.13753131
 20
-60004.78838946
 10
68334.97635663
 20
-60014.11097504
 42
1.30322619
 10
68334.97635663
 20
-59994.78401947
 10
68300.13753131
 20
-60004.10660506
 42
-1.30322619
 10
68300.13753131
 20
-59984.77964948
 10
68334.97635663
 20
-59994.10223507
 42
1.30322619
 10
68334.97635663
 20
-59974.77527949
 10
68300.13753131
 20
-59984.09786508
 42
-1.30322619
 10
68300.13753131
 20
-59964.77090951
 10
68334.97635663
 20
-59974.09349509
 42
1.30322619
 10
68334.97635663
 20
-59954.76653952
 10
68300.13753131
 20
-59964.0891251
 42
-1.30322619
 10
68300.13753131
 20
-59944.76216953
 10
68334.97635663
 20
-59954.08475511
 42
1.30322619
 10
68334.97635663
 20
-59934.75779954
 10
68300.13753131
 20
-59944.08038512
 42
-1.30322619
 10
68300.13753131
 20
-59924.75342955
 10
68334.97635663
 20
-59934.07601513
 42
1.30322619
 10
68334.97635663
 20
-59914.74905956
 10
68300.13753131
 20
-59924.07164514
 42
-1.30322619
 10
68300.13753131
 20
-59904.74468957
 10
68334.97635663
 20
-59914.06727515
 42
1.30322619
 10
68334.97635663
 20
-59894.74031958
 10
68300.13753131
 20
-59904.06290516
 42
-1.30322619
 10
68300.13753131
 20
-59884.73594959
 10
68334.97635663
 20
-59894.05853518
 42
1.30322619
 10
68334.97635663
 20
-59874.7315796
 10
68300.13753131
 20
-59884.05416519
 42
-1.30322619
 10
68300.13753131
 20
-59864.72720961
 10
68334.97635663
 20
-59874.0497952
 42
0.60247142
 10
68347.00948944
 20
-59861.0845063
  0
LWPOLYLINE
  5
662
100
AcDbEntity
  8
Ech.1_10
 62
   190
  6
CONTINUOUS
370
    -3
100
AcDbPolyline
 90
       26
 70
     0
 43
0.0
 10
68521.56893134
 20
-60156.82160017
 42
1.14028181
 10
68487.49298392
 20
-60161.3075714
 10
68503.64462598
 20
-60221.66837096
 42
-1.30322619
 10
68470.15932691
 20
-60221.66815575
 10
68486.31174486
 20
-60161.30756381
 42
1.30322619
 10
68452.82644579
 20
-60161.3073486
 10
68468.97808785
 20
-60221.66814816
 42
-1.30322619
 10
68435.49278879
 20
-60221.66793294
 10
68451.64520674
 20
-60161.30734101
 42
1.30322619
 10
68418.15990767
 20
-60161.30712579
 10
68434.31154973
 20
-60221.66792535
 42
-1.30322619
 10
68400.82625066
 20
-60221.66771014
 10
68416.97866862
 20
-60161.3071182
 42
1.30322619
 10
68383.49336955
 20
-60161.30690298
 10
68399.64501161
 20
-60221.66770254
 42
-1.30322619
 10
68366.15971254
 20
-60221.66748733
 10
68382.31213049
 20
-60161.30689539
 42
1.30322619
 10
68348.82683143
 20
-60161.30668018
 10
68364.97847349
 20
-60221.66747974
 42
-1.30322619
 10
68331.49317442
 20
-60221.66726452
 10
68347.64559237
 20
-60161.30667259
 42
1.30322619
 10
68314.1602933
 20
-60161.30645737
 10
68330.31193536
 20
-60221.66725693
 42
-1.30322619
 10
68296.8266363
 20
-60221.66704172
 10
68312.97905425
 20
-60161.30644978
 42
0.6681754
 10
68287.57003901
 20
-60141.80896203
  0
LWPOLYLINE
  5
663
100
AcDbEntity
  8
Ech.1_10
 62
   190
  6
CONTINUOUS
370
    -3
100
AcDbPolyline
 90
       70
 70
     0
 43
0.0
 10
68337.57005394
 20
-60645.28977855
 42
1.14028181
 10
68334.98185766
 20
-60625.63052185
 10
68300.15825021
 20
-60634.94903526
 42
-1.30322619
 10
68300.15825021
 20
-60615.63052185
 10
68334.98185766
 20
-60624.94903526
 42
1.30322619
 10
68334.98185766
 20
-60605.63052185
 10
68300.15825021
 20
-60614.94903526
 42
-1.30322619
 10
68300.15825021
 20
-60595.63052185
 10
68334.98185766
 20
-60604.94903526
 42
1.30322619
 10
68334.98185766
 20
-60585.63052185
 10
68300.15825021
 20
-60594.94903526
 42
-1.30322619
 10
68300.15825021
 20
-60575.63052185
 10
68334.98185766
 20
-60584.94903526
 42
1.30322619
 10
68334.98185766
 20
-60565.63052185
 10
68300.15825021
 20
-60574.94903526
 42
-1.30322619
 10
68300.15825021
 20
-60555.63052185
 10
68334.98185766
 20
-60564.94903526
 42
1.30322619
 10
68334.98185766
 20
-60545.63052185
 10
68300.15825021
 20
-60554.94903526
 42
-1.30322619
 10
68300.15825021
 20
-60535.63052185
 10
68334.98185766
 20
-60544.94903526
 42
1.30322619
 10
68334.98185766
 20
-60525.63052185
 10
68300.15825021
 20
-60534.94903526
 42
-1.30322619
 10
68300.15825021
 20
-60515.63052185
 10
68334.98185766
 20
-60524.94903526
 42
1.30322619
 10
68334.98185766
 20
-60505.63052185
 10
68300.15825021
 20
-60514.94903526
 42
-1.30322619
 10
68300.15825021
 20
-60495.63052185
 10
68334.98185766
 20
-60504.94903526
 42
1.30322619
 10
68334.98185766
 20
-60485.63052185
 10
68300.15825021
 20
-60494.94903526
 42
-1.30322619
 10
68300.15825021
 20
-60475.63052185
 10
68334.98185766
 20
-60484.94903526
 42
1.30322619
 10
68334.98185766
 20
-60465.63052185
 10
68300.15825021
 20
-60474.94903526
 42
-1.30322619
 10
68300.15825021
 20
-60455.63052185
 10
68334.98185766
 20
-60464.94903526
 42
1.30322619
 10
68334.98185766
 20
-60445.63052185
 10
68300.15825021
 20
-60454.94903525
 42
-1.30322619
 10
68300.15825021
 20
-60435.63052185
 10
68334.98185766
 20
-60444.94903525
 42
1.30322619
 10
68334.98185766
 20
-60425.63052185
 10
68300.15825021
 20
-60434.94903525
 42
-1.30322619
 10
68300.15825021
 20
-60415.63052185
 10
68334.98185766
 20
-60424.94903525
 42
1.30322619
 10
68334.98185766
 20
-60405.63052185
 10
68300.15825021
 20
-60414.94903525
 42
-1.30322619
 10
68300.15825021
 20
-60395.63052185
 10
68334.98185766
 20
-60404.94903525
 42
1.30322619
 10
68334.98185766
 20
-60385.63052185
 10
68300.15825021
 20
-60394.94903525
 42
-1.30322619
 10
68300.15825021
 20
-60375.63052185
 10
68334.98185766
 20
-60384.94903525
 42
1.30322619
 10
68334.98185766
 20
-60365.63052185
 10
68300.15825021
 20
-60374.94903525
 42
-1.30322619
 10
68300.15825021
 20
-60355.63052185
 10
68334.98185766
 20
-60364.94903525
 42
1.30322619
 10
68334.98185766
 20
-60345.63052185
 10
68300.15825021
 20
-60354.94903525
 42
-1.30322619
 10
68300.15825021
 20
-60335.63052185
 10
68334.98185766
 20
-60344.94903525
 42
1.30322619
 10
68334.98185766
 20
-60325.63052185
 10
68300.15825021
 20
-60334.94903525
 42
-1.30322619
 10
68300.15825021
 20
-60315.63052185
 10
68334.98185766
 20
-60324.94903525
 42
1.30322619
 10
68334.98185766
 20
-60305.63052185
 10
68300.15825021
 20
-60314.94903525
 42
-1.30322619
 10
68300.15825021
 20
-60295.63052185
 10
68334.98185766
 20
-60304.94903525
 42
0.75264285
 10
68344.89943675
 20
-60288.48682716
  0
LWPOLYLINE
  5
664
102
{ACAD_REACTORS
330
665
102
}
100
AcDbEntity
  8
Ech.1_10
 62
     7
  6
CONTINUOUS
370
    -3
100
AcDbPolyline
 90
        4
 70
     1
 43
0.0
 10
69049.44247203
 20
-59298.87409164
 10
69049.44247203
 20
-59317.87409164
 10
69542.08174596
 20
-59317.87409164
 10
69542.08174596
 20
-59298.87409164
  0
HATCH
  5
665
100
AcDbEntity
  8
Ech.1_10
 62
   190
  6
CONTINUOUS
100
AcDbHatch
 10
0.0
 20
0.0
 30
0.0
210
0.0
220
0.0
230
1.0
  2
ANSI38
 70
     0
 71
     1
 91
        1
 92
        7
 72
     0
 73
     1
 93
        4
 10
69049.44247203
 20
-59298.87409164
 10
69049.44247203
 20
-59317.87409164
 10
69542.08174596
 20
-59317.87409164
 10
69542.08174596
 20
-59298.87409164
 97
        1
330
664
 75
     0
 76
     2
 52
0.0
 41
1.0
 77
     0
 78
     2
 53
45.0
 43
0.0
 44
0.0
 45
-8.48528171
 46
8.48528171
 79
     2
 49
960.00003815
 49
0.0
 53
135.0
 43
0.0
 44
0.0
 45
-25.45584513
 46
8.48528171
 79
     2
 49
30.00000119
 49
-18.00000072
 47
0.775229
 98
        1
 10
0.0
 20
0.0
  0
LWPOLYLINE
  5
666
102
{ACAD_REACTORS
330
667
102
}
100
AcDbEntity
  8
Ech.1_10
 62
     7
  6
CONTINUOUS
370
    -3
100
AcDbPolyline
 90
        4
 70
     1
 43
0.0
 10
68511.57005394
 20
-59298.87409164
 10
68511.57005394
 20
-59317.87409164
 10
69013.05305756
 20
-59317.87409164
 10
69013.05305756
 20
-59298.87409164
  0
HATCH
  5
667
100
AcDbEntity
  8
Ech.1_10
 62
   190
  6
CONTINUOUS
100
AcDbHatch
 10
0.0
 20
0.0
 30
0.0
210
0.0
220
0.0
230
1.0
  2
ANSI38
 70
     0
 71
     1
 91
        1
 92
        7
 72
     0
 73
     1
 93
        4
 10
68511.57005394
 20
-59298.87409164
 10
68511.57005394
 20
-59317.87409164
 10
69013.05305756
 20
-59317.87409164
 10
69013.05305756
 20
-59298.87409164
 97
        1
330
666
 75
     0
 76
     2
 52
0.0
 41
1.0
 77
     0
 78
     2
 53
45.0
 43
0.0
 44
0.0
 45
-8.48528171
 46
8.48528171
 79
     2
 49
960.00003815
 49
0.0
 53
135.0
 43
0.0
 44
0.0
 45
-25.45584513
 46
8.48528171
 79
     2
 49
30.00000119
 49
-18.00000072
 47
0.775229
 98
        1
 10
0.0
 20
0.0
  0
LWPOLYLINE
  5
668
100
AcDbEntity
  8
Ech.1_10
 62
    36
  6
CADWORK_22
 48
-5.0
370
    35
100
AcDbPolyline
 90
        4
 70
     0
 43
0.0
 10
69362.75109083
 20
-59291.0336641
 10
69328.54500691
 20
-59291.0336641
 10
69321.66759648
 20
-59296.69629063
 10
69049.44245013
 20
-59298.87409164
  0
LWPOLYLINE
  5
669
100
AcDbEntity
  8
Ech.1_10
 62
    36
  6
CADWORK_22
 48
-5.0
370
    35
100
AcDbPolyline
 90
        4
 70
     0
 43
0.0
 10
69013.05303567
 20
-59298.87409164
 10
68617.98330098
 20
-59295.89731402
 10
68611.10589054
 20
-59290.23468749
 10
68576.89980662
 20
-59290.23468749
  0
LWPOLYLINE
  5
66A
102
{ACAD_REACTORS
330
66B
102
}
100
AcDbEntity
  8
Ech.1_10
 62
     7
  6
CONTINUOUS
370
    -3
100
AcDbPolyline
 90
        4
 70
     1
 43
0.0
 10
69049.44213952
 20
-59637.87400498
 10
69049.44247203
 20
-59650.874016
 10
69542.08174596
 20
-59650.87409164
 10
69542.08174596
 20
-59637.87409164
  0
HATCH
  5
66B
100
AcDbEntity
  8
Ech.1_10
 62
   190
  6
CONTINUOUS
100
AcDbHatch
 10
0.0
 20
0.0
 30
0.0
210
0.0
220
0.0
230
1.0
  2
DOTS2
 70
     0
 71
     1
 91
        1
 92
        7
 72
     0
 73
     1
 93
        4
 10
69049.44213952
 20
-59637.87400498
 10
69049.44247203
 20
-59650.874016
 10
69542.08174596
 20
-59650.87409164
 10
69542.08174596
 20
-59637.87409164
 97
        1
330
66A
 75
     0
 76
     2
 52
0.0
 41
4.72440952
 77
     0
 78
     1
 53
0.0
 43
0.0
 44
0.0
 45
3.75
 46
3.535
 79
     2
 49
0.0
 49
-3.535
 47
0.775229
 98
        1
 10
0.0
 20
0.0
  0
LWPOLYLINE
  5
66C
102
{ACAD_REACTORS
330
66D
102
}
100
AcDbEntity
  8
Ech.1_10
 62
     7
  6
CONTINUOUS
370
    -3
100
AcDbPolyline
 90
        4
 70
     1
 43
0.0
 10
68501.57005394
 20
-59637.87409164
 10
68501.57005394
 20
-59650.87409164
 10
69013.05207152
 20
-59650.874016
 10
69013.05305756
 20
-59637.87400498
  0
HATCH
  5
66D
100
AcDbEntity
  8
Ech.1_10
 62
   190
  6
CONTINUOUS
100
AcDbHatch
 10
0.0
 20
0.0
 30
0.0
210
0.0
220
0.0
230
1.0
  2
DOTS2
 70
     0
 71
     1
 91
        1
 92
        7
 72
     0
 73
     1
 93
        4
 10
68501.57005394
 20
-59637.87409164
 10
68501.57005394
 20
-59650.87409164
 10
69013.05207152
 20
-59650.874016
 10
69013.05305756
 20
-59637.87400498
 97
        1
330
66C
 75
     0
 76
     2
 52
0.0
 41
4.72440952
 77
     0
 78
     1
 53
0.0
 43
0.0
 44
0.0
 45
3.75
 46
3.535
 79
     2
 49
0.0
 49
-3.535
 47
0.775229
 98
        1
 10
0.0
 20
0.0
  0
LWPOLYLINE
  5
66E
100
AcDbEntity
  8
Ech.1_10
 62
     5
100
AcDbPolyline
 90
        5
 70
     0
 43
0.0
 10
68287.57005394
 20
-60139.48682716
 10
68347.57005394
 20
-60139.48682716
 10
68347.57005394
 20
-60094.48682716
 10
68287.57005394
 20
-60094.48682716
 10
68287.57005394
 20
-60139.48682716
  0
LWPOLYLINE
  5
66F
100
AcDbEntity
  8
Ech.1_10
 62
   190
  6
CONTINUOUS
370
    -3
100
AcDbPolyline
 90
        4
 70
     1
 43
0.0
 10
68501.57005394
 20
-60512.48833111
 10
68541.57005394
 20
-60512.48833111
 10
68541.57005394
 20
-60467.48833111
 10
68501.57005394
 20
-60467.48833111
  0
LWPOLYLINE
  5
670
100
AcDbEntity
  8
Ech.1_10
 62
   190
370
    18
100
AcDbPolyline
 90
        4
 70
     0
 43
0.0
 10
68501.57005394
 20
-60467.48833111
 10
68541.57005394
 20
-60512.48833111
 10
68541.57005394
 20
-60467.48833111
 10
68501.57005394
 20
-60512.48833111
  0
LWPOLYLINE
  5
671
102
{ACAD_REACTORS
330
672
102
}
100
AcDbEntity
  8
Ech.1_10
 62
     7
  6
CONTINUOUS
370
    -3
100
AcDbPolyline
 90
        6
 70
     1
 43
0.0
 10
68501.57005394
 20
-60439.48833111
 10
69013.05390012
 20
-60439.48824444
 10
69013.05425778
 20
-60439.48833111
 10
69013.05425778
 20
-60452.48833111
 10
69013.05324659
 20
-60452.48825546
 10
68501.57005394
 20
-60452.48833111
  0
HATCH
  5
672
100
AcDbEntity
  8
Ech.1_10
 62
   190
  6
CONTINUOUS
100
AcDbHatch
 10
0.0
 20
0.0
 30
0.0
210
0.0
220
0.0
230
1.0
  2
DOTS2
 70
     0
 71
     1
 91
        1
 92
        7
 72
     0
 73
     1
 93
        6
 10
68501.57005394
 20
-60439.48833111
 10
69013.05390012
 20
-60439.48824444
 10
69013.05425778
 20
-60439.48833111
 10
69013.05425778
 20
-60452.48833111
 10
69013.05324659
 20
-60452.48825546
 10
68501.57005394
 20
-60452.48833111
 97
        1
330
671
 75
     0
 76
     2
 52
0.0
 41
4.72440952
 77
     0
 78
     1
 53
0.0
 43
0.0
 44
0.0
 45
3.75
 46
3.535
 79
     2
 49
0.0
 49
-3.535
 47
0.775229
 98
        1
 10
0.0
 20
0.0
  0
LWPOLYLINE
  5
673
100
AcDbEntity
  8
Ech.1_10
 62
     5
100
AcDbPolyline
 90
        5
 70
     0
 43
0.0
 10
68501.57005394
 20
-60512.48833111
 10
68541.57005394
 20
-60512.48833111
 10
68541.57005394
 20
-60467.48833111
 10
68501.57005394
 20
-60467.48833111
 10
68501.57005394
 20
-60512.48833111
  0
LWPOLYLINE
  5
674
100
AcDbEntity
  8
Ech.1_10
 62
     1
  6
CADWORK_22
 48
-5.0
370
    35
100
AcDbPolyline
 90
        4
 70
     0
 43
0.0
 10
68418.72298431
 20
-60243.4772165
 10
68503.60436221
 20
-60243.48682716
 10
68503.60436221
 20
-60243.48682716
 10
68503.60436221
 20
-60645.28866657
  0
LWPOLYLINE
  5
675
100
AcDbEntity
  8
Ech.1_10
 62
     5
100
AcDbPolyline
 90
        5
 70
     0
 43
0.0
 10
68501.57005394
 20
-60129.48682716
 10
68541.57005394
 20
-60129.48682716
 10
68541.57005394
 20
-60084.48682716
 10
68501.57005394
 20
-60084.48682716
 10
68501.57005394
 20
-60129.48682716
  0
LWPOLYLINE
  5
676
100
AcDbEntity
  8
Ech.1_10
 62
   190
  6
CONTINUOUS
370
    -3
100
AcDbPolyline
 90
        6
 70
     0
 43
0.0
 10
69013.05324659
 20
-60076.6700444
 10
69013.05472241
 20
-60207.80101934
 10
69031.03207081
 20
-60224.28652254
 10
68995.0763708
 20
-60210.17658201
 10
69013.05472241
 20
-60226.66293684
 10
69013.05390012
 20
-60535.72443451
  0
LWPOLYLINE
  5
677
100
AcDbEntity
  8
Ech.1_10
 62
   190
  6
CONTINUOUS
370
    -3
100
AcDbPolyline
 90
        5
 70
     0
 43
0.0
 10
67976.22771314
 20
-61480.70992888
 10
69946.22771314
 20
-61480.70992888
 10
69946.22771314
 20
-58770.70992888
 10
67976.22771314
 20
-58770.70992888
 10
67976.22771314
 20
-61480.70992888
  0
LWPOLYLINE
  5
678
100
AcDbEntity
  8
Ech.1_10
 62
   190
  6
CONTINUOUS
370
    -3
100
AcDbPolyline
 90
        6
 70
     0
 43
0.0
 10
69013.05240278
 20
-58888.43693325
 10
69013.05403233
 20
-59174.52945652
 10
69031.03138073
 20
-59191.01495968
 10
68995.07568072
 20
-59176.90501966
 10
69013.05403233
 20
-59193.39137374
 10
69013.05324659
 20
-59779.59617631
  0
LWPOLYLINE
  5
679
100
AcDbEntity
  8
Ech.1_10
 62
   190
  6
CONTINUOUS
370
    -3
100
AcDbPolyline
 90
        6
 70
     0
 43
0.0
 10
69049.44312625
 20
-59779.59617631
 10
69049.44164996
 20
-59245.03034423
 10
69031.46430164
 20
-59228.54484107
 10
69067.42000156
 20
-59242.65478109
 10
69049.44164996
 20
-59226.16842701
 10
69049.44247203
 20
-58888.43693325
  0
LWPOLYLINE
  5
67A
100
AcDbEntity
  8
Ech.1_10
 62
   190
  6
CONTINUOUS
370
    -3
100
AcDbPolyline
 90
        6
 70
     0
 43
0.0
 10
69049.44381633
 20
-60535.72443451
 10
69049.44234004
 20
-60278.30190708
 10
69031.46499172
 20
-60261.81640393
 10
69067.42069164
 20
-60275.92634395
 10
69049.44234004
 20
-60259.43998986
 10
69049.44316211
 20
-60076.6700444
  0
POLYLINE
  5
67B
100
AcDbEntity
  8
Ech.1_10
 62
     9
  6
CONTINUOUS
370
    -3
100
AcDb3dPolyline
 66
     1
 70
     8
  0
VERTEX
  5
67C
100
AcDbEntity
  8
Ech.1_10
100
AcDbVertex
100
AcDb3dPolylineVertex
 10
69542.08174596
 20
-60139.48833111
 30
-11978.61048889
 70
    32
  0
VERTEX
  5
67D
100
AcDbEntity
  8
Ech.1_10
100
AcDbVertex
100
AcDb3dPolylineVertex
 10
69542.08174596
 20
-60057.67035559
 30
-11978.61048889
 70
    32
  0
VERTEX
  5
67E
100
AcDbEntity
  8
Ech.1_10
100
AcDbVertex
100
AcDb3dPolylineVertex
 10
69542.08174596
 20
-60057.67035559
 30
-9978.61048889
 70
    32
  0
VERTEX
  5
67F
100
AcDbEntity
  8
Ech.1_10
100
AcDbVertex
100
AcDb3dPolylineVertex
 10
69542.08174596
 20
-60139.48833111
 30
-9978.61048889
 70
    32
  0
VERTEX
  5
680
100
AcDbEntity
  8
Ech.1_10
100
AcDbVertex
100
AcDb3dPolylineVertex
 10
69542.08174596
 20
-60139.48833111
 30
-3512.86048889
 70
    32
  0
VERTEX
  5
681
100
AcDbEntity
  8
Ech.1_10
100
AcDbVertex
100
AcDb3dPolylineVertex
 10
69542.08174596
 20
-59198.87409164
 30
-3512.86048889
 70
    32
  0
VERTEX
  5
682
100
AcDbEntity
  8
Ech.1_10
100
AcDbVertex
100
AcDb3dPolylineVertex
 10
69542.08174596
 20
-59198.87409164
 30
-5208.86048889
 70
    32
  0
VERTEX
  5
683
100
AcDbEntity
  8
Ech.1_10
100
AcDbVertex
100
AcDb3dPolylineVertex
 10
69542.08174596
 20
-59198.87409164
 30
-5208.86048889
 70
    32
  0
SEQEND
  5
684
100
AcDbEntity
  8
Ech.1_10
  0
POLYLINE
  5
685
100
AcDbEntity
  8
Ech.1_10
 62
     9
  6
CONTINUOUS
370
    -3
100
AcDb3dPolyline
 66
     1
 70
     8
  0
VERTEX
  5
686
100
AcDbEntity
  8
Ech.1_10
100
AcDbVertex
100
AcDb3dPolylineVertex
 10
69542.08174596
 20
-60057.67035559
 30
-5208.86048889
 70
    32
  0
VERTEX
  5
687
100
AcDbEntity
  8
Ech.1_10
100
AcDbVertex
100
AcDb3dPolylineVertex
 10
69542.08174596
 20
-60057.67035559
 30
-5208.86048889
 70
    32
  0
VERTEX
  5
688
100
AcDbEntity
  8
Ech.1_10
100
AcDbVertex
100
AcDb3dPolylineVertex
 10
69542.08174596
 20
-60991.64469756
 30
-5208.86048889
 70
    32
  0
VERTEX
  5
689
100
AcDbEntity
  8
Ech.1_10
100
AcDbVertex
100
AcDb3dPolylineVertex
 10
69542.08174596
 20
-60991.64469756
 30
-6608.86048889
 70
    32
  0
VERTEX
  5
68A
100
AcDbEntity
  8
Ech.1_10
100
AcDbVertex
100
AcDb3dPolylineVertex
 10
69542.08174596
 20
-60057.67035559
 30
-6608.86048889
 70
    32
  0
VERTEX
  5
68B
100
AcDbEntity
  8
Ech.1_10
100
AcDbVertex
100
AcDb3dPolylineVertex
 10
69542.08174596
 20
-60057.67035559
 30
-5208.86048889
 70
    32
  0
SEQEND
  5
68C
100
AcDbEntity
  8
Ech.1_10
  0
POLYLINE
  5
68D
100
AcDbEntity
  8
Ech.1_10
 62
     9
  6
CONTINUOUS
370
    -3
100
AcDb3dPolyline
 66
     1
 70
     8
  0
VERTEX
  5
68E
100
AcDbEntity
  8
Ech.1_10
100
AcDbVertex
100
AcDb3dPolylineVertex
 10
69542.08174596
 20
-59198.87409164
 30
-5208.86048889
 70
    32
  0
VERTEX
  5
68F
100
AcDbEntity
  8
Ech.1_10
100
AcDbVertex
100
AcDb3dPolylineVertex
 10
69542.08174596
 20
-59198.87409164
 30
-14667.11048889
 70
    32
  0
VERTEX
  5
690
100
AcDbEntity
  8
Ech.1_10
100
AcDbVertex
100
AcDb3dPolylineVertex
 10
69542.08174596
 20
-59198.87409164
 30
-5208.86048889
 70
    32
  0
VERTEX
  5
691
100
AcDbEntity
  8
Ech.1_10
100
AcDbVertex
100
AcDb3dPolylineVertex
 10
69542.08174596
 20
-59198.87409164
 30
-14667.11048889
 70
    32
  0
VERTEX
  5
692
100
AcDbEntity
  8
Ech.1_10
100
AcDbVertex
100
AcDb3dPolylineVertex
 10
69542.08174596
 20
-59198.87409164
 30
-14667.11048889
 70
    32
  0
SEQEND
  5
693
100
AcDbEntity
  8
Ech.1_10
  0
POLYLINE
  5
694
100
AcDbEntity
  8
Ech.1_10
 62
     9
  6
CONTINUOUS
370
    -3
100
AcDb3dPolyline
 66
     1
 70
     8
  0
VERTEX
  5
695
100
AcDbEntity
  8
Ech.1_10
100
AcDbVertex
100
AcDb3dPolylineVertex
 10
69542.08174596
 20
-60057.67035559
 30
-14667.11048889
 70
    32
  0
VERTEX
  5
696
100
AcDbEntity
  8
Ech.1_10
100
AcDbVertex
100
AcDb3dPolylineVertex
 10
69542.08174596
 20
-60057.67035559
 30
-14667.11048889
 70
    32
  0
VERTEX
  5
697
100
AcDbEntity
  8
Ech.1_10
100
AcDbVertex
100
AcDb3dPolylineVertex
 10
69542.08174596
 20
-60991.64469756
 30
-14667.11048889
 70
    32
  0
VERTEX
  5
698
100
AcDbEntity
  8
Ech.1_10
100
AcDbVertex
100
AcDb3dPolylineVertex
 10
69542.08174596
 20
-60991.64469756
 30
-16067.11048889
 70
    32
  0
VERTEX
  5
699
100
AcDbEntity
  8
Ech.1_10
100
AcDbVertex
100
AcDb3dPolylineVertex
 10
69542.08174596
 20
-60057.67035559
 30
-16067.11048889
 70
    32
  0
VERTEX
  5
69A
100
AcDbEntity
  8
Ech.1_10
100
AcDbVertex
100
AcDb3dPolylineVertex
 10
69542.08174596
 20
-60057.67035559
 30
-14667.11048889
 70
    32
  0
SEQEND
  5
69B
100
AcDbEntity
  8
Ech.1_10
  0
POLYLINE
  5
69C
100
AcDbEntity
  8
Ech.1_10
 62
     9
  6
CONTINUOUS
370
    -3
100
AcDb3dPolyline
 66
     1
 70
     8
  0
VERTEX
  5
69D
100
AcDbEntity
  8
Ech.1_10
100
AcDbVertex
100
AcDb3dPolylineVertex
 10
69542.08174596
 20
-59198.87409164
 30
-14667.11048889
 70
    32
  0
VERTEX
  5
69E
100
AcDbEntity
  8
Ech.1_10
100
AcDbVertex
100
AcDb3dPolylineVertex
 10
69542.08174596
 20
-59198.87409164
 30
-17081.86048889
 70
    32
  0
VERTEX
  5
69F
100
AcDbEntity
  8
Ech.1_10
100
AcDbVertex
100
AcDb3dPolylineVertex
 10
69542.08174596
 20
-60139.48833111
 30
-17081.86048889
 70
    32
  0
VERTEX
  5
6A0
100
AcDbEntity
  8
Ech.1_10
100
AcDbVertex
100
AcDb3dPolylineVertex
 10
69542.08174596
 20
-60139.48833111
 30
-11978.61048889
 70
    32
  0
SEQEND
  5
6A1
100
AcDbEntity
  8
Ech.1_10
  0
LWPOLYLINE
  5
6A2
100
AcDbEntity
  8
Ech.1_10
 62
   190
  6
CONTINUOUS
370
    -3
100
AcDbPolyline
 90
       60
 70
     0
 43
0.0
 10
69013.05305756
 20
-59554.54075831
 42
1.14028181
 10
68980.28762973
 20
-59558.85441877
 10
68995.8184854
 20
-59616.89376451
 42
-1.30322619
 10
68963.62096306
 20
-59616.89376451
 10
68979.15181873
 20
-59558.85441877
 42
1.30322619
 10
68946.95429639
 20
-59558.85441877
 10
68962.48515207
 20
-59616.89376451
 42
-1.30322619
 10
68930.28762973
 20
-59616.89376451
 10
68945.8184854
 20
-59558.85441877
 42
1.30322619
 10
68913.62096306
 20
-59558.85441877
 10
68929.15181873
 20
-59616.89376451
 42
-1.30322619
 10
68896.95429639
 20
-59616.89376451
 10
68912.48515207
 20
-59558.85441877
 42
1.30322619
 10
68880.28762973
 20
-59558.85441877
 10
68895.8184854
 20
-59616.89376451
 42
-1.30322619
 10
68863.62096306
 20
-59616.89376451
 10
68879.15181873
 20
-59558.85441877
 42
1.30322619
 10
68846.95429639
 20
-59558.85441877
 10
68862.48515207
 20
-59616.89376451
 42
-1.30322619
 10
68830.28762973
 20
-59616.89376451
 10
68845.8184854
 20
-59558.85441877
 42
1.30322619
 10
68813.62096306
 20
-59558.85441877
 10
68829.15181873
 20
-59616.89376451
 42
-1.30322619
 10
68796.95429639
 20
-59616.89376451
 10
68812.48515207
 20
-59558.85441877
 42
1.30322619
 10
68780.28762973
 20
-59558.85441877
 10
68795.8184854
 20
-59616.89376451
 42
-1.30322619
 10
68763.62096306
 20
-59616.89376451
 10
68779.15181873
 20
-59558.85441877
 42
1.30322619
 10
68746.95429639
 20
-59558.85441877
 10
68762.48515207
 20
-59616.89376451
 42
-1.30322619
 10
68730.28762973
 20
-59616.89376451
 10
68745.8184854
 20
-59558.85441877
 42
1.30322619
 10
68713.62096306
 20
-59558.85441877
 10
68729.15181873
 20
-59616.89376451
 42
-1.30322619
 10
68696.95429639
 20
-59616.89376451
 10
68712.48515207
 20
-59558.85441877
 42
1.30322619
 10
68680.28762973
 20
-59558.85441877
 10
68695.8184854
 20
-59616.89376451
 42
-1.30322619
 10
68663.62096306
 20
-59616.89376451
 10
68679.15181873
 20
-59558.85441877
 42
1.30322619
 10
68646.95429639
 20
-59558.85441877
 10
68662.48515207
 20
-59616.89376451
 42
-1.30322619
 10
68630.28762973
 20
-59616.89376451
 10
68645.8184854
 20
-59558.85441877
 42
1.30322619
 10
68613.62096306
 20
-59558.85441877
 10
68629.15181873
 20
-59616.89376451
 42
-1.30322619
 10
68596.95429639
 20
-59616.89376451
 10
68612.48515207
 20
-59558.85441877
 42
1.30322619
 10
68580.28762973
 20
-59558.85441877
 10
68595.8184854
 20
-59616.89376451
 42
-1.30322619
 10
68563.62096306
 20
-59616.89376451
 10
68579.15181873
 20
-59558.85441877
 42
1.30322619
 10
68546.95429639
 20
-59558.85441877
 10
68562.48515207
 20
-59616.89376451
 42
-1.30322619
 10
68530.28762973
 20
-59616.89376451
 10
68545.8184854
 20
-59558.85441877
 42
1.30322619
 10
68513.62096306
 20
-59558.85441877
 10
68529.15181873
 20
-59616.89376451
 42
-0.75731981
 10
68501.57005394
 20
-59633.28709407
  0
LWPOLYLINE
  5
6A3
100
AcDbEntity
  8
Ech.1_10
 62
   190
  6
CONTINUOUS
370
    -3
100
AcDbPolyline
 90
       58
 70
     0
 43
0.0
 10
69543.08174596
 20
-59554.54075831
 42
1.14028181
 10
69510.31631813
 20
-59558.85441877
 10
69525.8471738
 20
-59616.89376451
 42
-1.30322619
 10
69493.64965146
 20
-59616.89376451
 10
69509.18050713
 20
-59558.85441877
 42
1.30322619
 10
69476.98298479
 20
-59558.85441877
 10
69492.51384047
 20
-59616.89376451
 42
-1.30322619
 10
69460.31631813
 20
-59616.89376451
 10
69475.8471738
 20
-59558.85441877
 42
1.30322619
 10
69443.64965146
 20
-59558.85441877
 10
69459.18050713
 20
-59616.89376451
 42
-1.30322619
 10
69426.98298479
 20
-59616.89376451
 10
69442.51384047
 20
-59558.85441877
 42
1.30322619
 10
69410.31631813
 20
-59558.85441877
 10
69425.8471738
 20
-59616.89376451
 42
-1.30322619
 10
69393.64965146
 20
-59616.89376451
 10
69409.18050713
 20
-59558.85441877
 42
1.30322619
 10
69376.98298479
 20
-59558.85441877
 10
69392.51384047
 20
-59616.89376451
 42
-1.30322619
 10
69360.31631813
 20
-59616.89376451
 10
69375.8471738
 20
-59558.85441877
 42
1.30322619
 10
69343.64965146
 20
-59558.85441877
 10
69359.18050713
 20
-59616.89376451
 42
-1.30322619
 10
69326.98298479
 20
-59616.89376451
 10
69342.51384047
 20
-59558.85441877
 42
1.30322619
 10
69310.31631813
 20
-59558.85441877
 10
69325.8471738
 20
-59616.89376451
 42
-1.30322619
 10
69293.64965146
 20
-59616.89376451
 10
69309.18050713
 20
-59558.85441877
 42
1.30322619
 10
69276.98298479
 20
-59558.85441877
 10
69292.51384047
 20
-59616.89376451
 42
-1.30322619
 10
69260.31631813
 20
-59616.89376451
 10
69275.8471738
 20
-59558.85441877
 42
1.30322619
 10
69243.64965146
 20
-59558.85441877
 10
69259.18050713
 20
-59616.89376451
 42
-1.30322619
 10
69226.98298479
 20
-59616.89376451
 10
69242.51384047
 20
-59558.85441877
 42
1.30322619
 10
69210.31631813
 20
-59558.85441877
 10
69225.8471738
 20
-59616.89376451
 42
-1.30322619
 10
69193.64965146
 20
-59616.89376451
 10
69209.18050713
 20
-59558.85441877
 42
1.30322619
 10
69176.98298479
 20
-59558.85441877
 10
69192.51384047
 20
-59616.89376451
 42
-1.30322619
 10
69160.31631813
 20
-59616.89376451
 10
69175.8471738
 20
-59558.85441877
 42
1.30322619
 10
69143.64965146
 20
-59558.85441877
 10
69159.18050713
 20
-59616.89376451
 42
-1.30322619
 10
69126.98298479
 20
-59616.89376451
 10
69142.51384047
 20
-59558.85441877
 42
1.30322619
 10
69110.31631813
 20
-59558.85441877
 10
69125.8471738
 20
-59616.89376451
 42
-1.30322619
 10
69093.64965146
 20
-59616.89376451
 10
69109.18050713
 20
-59558.85441877
 42
1.30322619
 10
69076.98298479
 20
-59558.85441877
 10
69092.51384047
 20
-59616.89376451
 42
-1.30322619
 10
69060.31631813
 20
-59616.89376451
 10
69075.8471738
 20
-59558.85441877
 42
0.72119785
 10
69049.44247203
 20
-59541.442462
  0
LWPOLYLINE
  5
6A4
100
AcDbEntity
  8
Ech.1_10
 62
     5
  6
CONTINUOUS
370
    -3
100
AcDbPolyline
 90
        5
 70
     0
 43
0.0
 10
68501.57005394
 20
-60493.48682716
 10
68456.57005394
 20
-60493.48682716
 10
68456.57005394
 20
-60313.48682716
 10
68501.57005394
 20
-60313.48682716
 10
68501.57005394
 20
-60493.48682716
  0
3DFACE
  5
6A5
102
{ACAD_REACTORS
330
6A6
102
}
100
AcDbEntity
  8
Ech.1_10
 62
     9
  6
CONTINUOUS
370
    -3
100
AcDbFace
 70
     0
 10
69542.08174596
 20
-58998.87409164
 30
2500.0
 11
69542.08174596
 21
-59198.87409164
 31
2500.0
 12
70954.1530979
 22
-59198.87409164
 32
2500.0
 13
70954.1530979
 23
-58998.87409164
 33
2500.0
  0
HATCH
  5
6A6
100
AcDbEntity
  8
Ech.1_10
 62
     9
  6
CONTINUOUS
100
AcDbHatch
 10
0.0
 20
0.0
 30
0.0
210
0.0
220
0.0
230
1.0
  2
AR-CONC
 70
     0
 71
     1
 91
        1
 92
        7
 72
     0
 73
     1
 93
        4
 10
69542.08174596
 20
-58998.87409164
 10
69542.08174596
 20
-59198.87409164
 10
70954.1530979
 20
-59198.87409164
 10
70954.1530979
 20
-58998.87409164
 97
        1
330
6A5
 75
     0
 76
     2
 52
0.0
 41
0.11811097
 77
     0
 78
    13
 53
50.0
 43
0.0
 44
0.0
 45
-18.84283637
 46
1.64853443
 79
     2
 49
1.97029307
 49
-21.67322338
 53
355.0
 43
0.0
 44
0.0
 45
-3.64507756
 46
19.76051824
 79
     2
 49
1.57623377
 49
-17.3385787
 53
100.45140076
 43
1.57023568
 44
-0.13737749
 45
-15.19777228
 46
-18.11197244
 79
     2
 49
1.67449124
 49
-18.41940522
 53
46.18420029
 43
0.0
 44
5.25411576
 45
-28.03703353
 46
4.34827878
 79
     2
 49
2.95543872
 49
-32.50983238
 53
96.63559723
 43
2.33641885
 44
4.89175692
 45
-24.55412615
 46
-25.59063404
 79
     2
 49
2.51173697
 49
-27.62910426
 53
351.1842041
 43
0.0
 44
5.25411576
 45
24.55410288
 46
25.59065715
 79
     2
 49
2.36435249
 49
-26.00786805
 53
21.0
 43
2.62705699
 44
3.94058615
 45
-15.68109068
 46
10.57702905
 79
     2
 49
1.97029307
 49
-21.67322338
 53
326.0
 43
2.62705699
 44
3.94058615
 45
6.39203268
 46
19.05010734
 79
     2
 49
1.57623377
 49
-17.3385787
 53
71.45140076
 43
3.93381357
 44
3.05916555
 45
-22.07312962
 46
-8.47306182
 79
     2
 49
1.67449124
 49
-18.41940522
 53
37.5
 43
0.0
 44
0.0
 45
0.31944534
 46
8.74531245
 79
     6
 49
0.01875
 49
-17.12841332
 49
0.01875
 49
-17.60128498
 49
0.01875
 49
-17.40425348
 53
7.5
 43
0.0
 44
0.0
 45
6.91098818
 46
10.3614222
 79
     6
 49
0.01875
 49
-10.03535807
 49
0.01875
 49
-16.7343539
 49
0.01875
 49
-6.6333206
 53
-32.5
 43
-5.85833833
 44
0.0
 45
14.02382061
 46
-0.59253003
 79
     6
 49
0.01875
 49
-6.56764314
 49
0.01875
 49
-20.49104869
 49
0.01875
 49
-27.19004452
 53
-42.5
 43
-8.48539531
 44
0.0
 45
15.32063571
 46
2.62981542
 79
     6
 49
0.01875
 49
-8.53793621
 49
0.01875
 49
-13.60815793
 49
0.01875
 49
-19.30887222
 47
0.775229
 98
        1
 10
0.0
 20
0.0
  0
LWPOLYLINE
  5
6A7
102
{ACAD_REACTORS
330
6A8
102
}
100
AcDbEntity
  8
Ech.1_10
 62
     9
  6
CONTINUOUS
370
    -3
100
AcDbPolyline
 90
        8
 70
     1
 43
0.0
 38
2500.0
 39
-2500.0
 10
69542.08324991
 20
-59824.69522442
 10
69542.08324991
 20
-58828.87409164
 10
69742.08324991
 20
-58828.87409164
 10
69742.08324991
 20
-59824.69586421
 10
69680.89682589
 20
-59824.69576394
 10
69664.41132273
 20
-59842.67311227
 10
69678.52126275
 20
-59806.71741235
 10
69662.03490867
 20
-59824.69576394
  0
HATCH
  5
6A8
100
AcDbEntity
  8
Ech.1_10
 62
     9
  6
CONTINUOUS
100
AcDbHatch
 10
0.0
 20
0.0
 30
0.0
210
0.0
220
0.0
230
1.0
  2
AR-CONC
 70
     0
 71
     1
 91
        1
 92
        7
 72
     0
 73
     1
 93
        8
 10
69542.08324991
 20
-59824.69522442
 10
69542.08324991
 20
-58828.87409164
 10
69742.08324991
 20
-58828.87409164
 10
69742.08324991
 20
-59824.69586421
 10
69680.89682589
 20
-59824.69576394
 10
69664.41132273
 20
-59842.67311227
 10
69678.52126275
 20
-59806.71741235
 10
69662.03490867
 20
-59824.69576394
 97
        1
330
6A7
 75
     0
 76
     2
 52
0.0
 41
0.11811097
 77
     0
 78
    13
 53
50.0
 43
0.0
 44
0.0
 45
-18.84283637
 46
1.64853443
 79
     2
 49
1.97029307
 49
-21.67322338
 53
355.0
 43
0.0
 44
0.0
 45
-3.64507756
 46
19.76051824
 79
     2
 49
1.57623377
 49
-17.3385787
 53
100.45140076
 43
1.57023568
 44
-0.13737749
 45
-15.19777228
 46
-18.11197244
 79
     2
 49
1.67449124
 49
-18.41940522
 53
46.18420029
 43
0.0
 44
5.25411576
 45
-28.03703353
 46
4.34827878
 79
     2
 49
2.95543872
 49
-32.50983238
 53
96.63559723
 43
2.33641885
 44
4.89175692
 45
-24.55412615
 46
-25.59063404
 79
     2
 49
2.51173697
 49
-27.62910426
 53
351.1842041
 43
0.0
 44
5.25411576
 45
24.55410288
 46
25.59065715
 79
     2
 49
2.36435249
 49
-26.00786805
 53
21.0
 43
2.62705699
 44
3.94058615
 45
-15.68109068
 46
10.57702905
 79
     2
 49
1.97029307
 49
-21.67322338
 53
326.0
 43
2.62705699
 44
3.94058615
 45
6.39203268
 46
19.05010734
 79
     2
 49
1.57623377
 49
-17.3385787
 53
71.45140076
 43
3.93381357
 44
3.05916555
 45
-22.07312962
 46
-8.47306182
 79
     2
 49
1.67449124
 49
-18.41940522
 53
37.5
 43
0.0
 44
0.0
 45
0.31944534
 46
8.74531245
 79
     6
 49
0.01875
 49
-17.12841332
 49
0.01875
 49
-17.60128498
 49
0.01875
 49
-17.40425348
 53
7.5
 43
0.0
 44
0.0
 45
6.91098818
 46
10.3614222
 79
     6
 49
0.01875
 49
-10.03535807
 49
0.01875
 49
-16.7343539
 49
0.01875
 49
-6.6333206
 53
-32.5
 43
-5.85833833
 44
0.0
 45
14.02382061
 46
-0.59253003
 79
     6
 49
0.01875
 49
-6.56764314
 49
0.01875
 49
-20.49104869
 49
0.01875
 49
-27.19004452
 53
-42.5
 43
-8.48539531
 44
0.0
 45
15.32063571
 46
2.62981542
 79
     6
 49
0.01875
 49
-8.53793621
 49
0.01875
 49
-13.60815793
 49
0.01875
 49
-19.30887222
 47
0.775229
 98
        1
 10
0.0
 20
0.0
  0
CIRCLE
  5
6A9
100
AcDbEntity
  8
Ech.1_10
 62
     7
  6
CONTINUOUS
100
AcDbCircle
 10
68540.98443081
 20
-60136.33656543
 30
0.0
 40
6.16444121
  0
LWPOLYLINE
  5
6AA
100
AcDbEntity
  8
Ech.1_10
 62
   106
  6
CADWORK_22
370
    35
100
AcDbPolyline
 90
        6
 70
     0
 43
0.0
 38
2500.0
 10
68510.82227359
 20
-60055.07126133
 10
68510.82227359
 20
-60138.97735994
 10
68533.5498423
 20
-60138.97735994
 10
68541.75760462
 20
-60130.87716675
 10
68548.33696204
 20
-60138.97718086
 10
68574.99611391
 20
-60138.97718086
  0
LWPOLYLINE
  5
6AB
100
AcDbEntity
  8
Ech.1_10
 62
     1
  6
CADWORK_22
 48
-5.0
370
    35
100
AcDbPolyline
 90
        3
 70
     0
 43
0.0
 10
68418.72298431
 20
-60139.48682716
 10
68503.60436221
 20
-60139.48682716
 10
68503.60436221
 20
-59861.0851548
  0
CIRCLE
  5
6AC
100
AcDbEntity
  8
Ech.1_10
 62
     7
  6
CONTINUOUS
100
AcDbCircle
 10
68540.98443081
 20
-60342.12894653
 30
0.0
 40
6.16444121
  0
LWPOLYLINE
  5
6AD
100
AcDbEntity
  8
Ech.1_10
 62
   106
  6
CADWORK_22
370
    35
100
AcDbPolyline
 90
        6
 70
     0
 43
0.0
 38
2500.0
 10
68510.82227359
 20
-60423.39425064
 10
68510.82227359
 20
-60339.48815203
 10
68533.5498423
 20
-60339.48815203
 10
68541.75760462
 20
-60347.58834522
 10
68548.33696204
 20
-60339.48833111
 10
68574.99611391
 20
-60339.48833111
  0
LWPOLYLINE
  5
6AE
100
AcDbEntity
  8
Ech.1_10
 62
     3
370
    70
100
AcDbPolyline
 90
        4
 70
     0
 43
0.0
 10
68523.24111529
 20
-60078.72670476
 10
68523.24111529
 20
-60052.74843792
 10
68511.87988936
 20
-60044.87897364
 10
68511.87988936
 20
-60017.92211364
  0
LWPOLYLINE
  5
6AF
100
AcDbEntity
  8
Ech.1_10
 62
     3
370
    70
100
AcDbPolyline
 90
        4
 70
     0
 43
0.0
 10
68523.24111529
 20
-60401.02700101
 10
68523.24111529
 20
-60427.00526785
 10
68511.87988936
 20
-60434.87473213
 10
68511.87988936
 20
-60461.83159213
  0
LWPOLYLINE
  5
6B0
100
AcDbEntity
  8
Ech.1_10
 62
   190
  6
CONTINUOUS
370
    -3
100
AcDbPolyline
 90
       60
 70
     0
 43
0.0
 10
68501.57005394
 20
-60422.82166444
 42
1.14028181
 10
68534.33548177
 20
-60418.50800397
 10
68518.8046261
 20
-60360.46865824
 42
-1.30322619
 10
68551.00214844
 20
-60360.46865824
 10
68535.47129277
 20
-60418.50800397
 42
1.30322619
 10
68567.66881511
 20
-60418.50800397
 10
68552.13795943
 20
-60360.46865824
 42
-1.30322619
 10
68584.33548177
 20
-60360.46865824
 10
68568.8046261
 20
-60418.50800397
 42
1.30322619
 10
68601.00214844
 20
-60418.50800397
 10
68585.47129277
 20
-60360.46865824
 42
-1.30322619
 10
68617.66881511
 20
-60360.46865824
 10
68602.13795943
 20
-60418.50800397
 42
1.30322619
 10
68634.33548177
 20
-60418.50800397
 10
68618.8046261
 20
-60360.46865824
 42
-1.30322619
 10
68651.00214844
 20
-60360.46865824
 10
68635.47129277
 20
-60418.50800397
 42
1.30322619
 10
68667.66881511
 20
-60418.50800397
 10
68652.13795943
 20
-60360.46865824
 42
-1.30322619
 10
68684.33548177
 20
-60360.46865824
 10
68668.8046261
 20
-60418.50800397
 42
1.30322619
 10
68701.00214844
 20
-60418.50800397
 10
68685.47129277
 20
-60360.46865824
 42
-1.30322619
 10
68717.66881511
 20
-60360.46865824
 10
68702.13795943
 20
-60418.50800397
 42
1.30322619
 10
68734.33548177
 20
-60418.50800397
 10
68718.8046261
 20
-60360.46865824
 42
-1.30322619
 10
68751.00214844
 20
-60360.46865824
 10
68735.47129277
 20
-60418.50800397
 42
1.30322619
 10
68767.66881511
 20
-60418.50800397
 10
68752.13795943
 20
-60360.46865824
 42
-1.30322619
 10
68784.33548177
 20
-60360.46865824
 10
68768.8046261
 20
-60418.50800397
 42
1.30322619
 10
68801.00214844
 20
-60418.50800397
 10
68785.47129277
 20
-60360.46865824
 42
-1.30322619
 10
68817.66881511
 20
-60360.46865824
 10
68802.13795943
 20
-60418.50800397
 42
1.30322619
 10
68834.33548177
 20
-60418.50800397
 10
68818.8046261
 20
-60360.46865824
 42
-1.30322619
 10
68851.00214844
 20
-60360.46865824
 10
68835.47129277
 20
-60418.50800397
 42
1.30322619
 10
68867.66881511
 20
-60418.50800397
 10
68852.13795943
 20
-60360.46865824
 42
-1.30322619
 10
68884.33548177
 20
-60360.46865824
 10
68868.8046261
 20
-60418.50800397
 42
1.30322619
 10
68901.00214844
 20
-60418.50800397
 10
68885.47129277
 20
-60360.46865824
 42
-1.30322619
 10
68917.66881511
 20
-60360.46865824
 10
68902.13795943
 20
-60418.50800397
 42
1.30322619
 10
68934.33548177
 20
-60418.50800397
 10
68918.8046261
 20
-60360.46865824
 42
-1.30322619
 10
68951.00214844
 20
-60360.46865824
 10
68935.47129277
 20
-60418.50800397
 42
1.30322619
 10
68967.66881511
 20
-60418.50800397
 10
68952.13795943
 20
-60360.46865824
 42
-1.30322619
 10
68984.33548177
 20
-60360.46865824
 10
68968.8046261
 20
-60418.50800397
 42
1.30322619
 10
69001.00214844
 20
-60418.50800397
 10
68985.47129277
 20
-60360.46865824
 42
-0.7573589
 10
69013.05425778
 20
-60344.07646972
  0
LWPOLYLINE
  5
6B1
100
AcDbEntity
  8
Ech.1_10
 62
     9
  6
CONTINUOUS
370
    -3
100
AcDbPolyline
 90
        6
 70
     0
 43
0.0
 10
69833.75953666
 20
-59824.69443132
 10
69680.89682538
 20
-59824.69606087
 10
69664.41132222
 20
-59842.67340928
 10
69678.52126224
 20
-59806.71770927
 10
69662.03490816
 20
-59824.69606087
 10
69448.96243418
 20
-59824.69527513
  0
LWPOLYLINE
  5
6B2
100
AcDbEntity
  8
Ech.1_10
 62
     9
  6
CONTINUOUS
370
    -3
100
AcDbPolyline
 90
        6
 70
     0
 43
0.0
 10
69448.96243418
 20
-59861.0851548
 10
69610.39593767
 20
-59861.08367851
 10
69626.88144083
 20
-59843.10633018
 10
69612.77150081
 20
-59879.0620301
 10
69629.25785489
 20
-59861.08367851
 10
69833.75953666
 20
-59861.08450058
  0
LWPOLYLINE
  5
6B3
100
AcDbEntity
  8
Ech.1_10
 62
     7
  6
CONTINUOUS
370
    -3
100
AcDbPolyline
 90
       21
 70
     0
 43
0.0
 10
68692.89487977
 20
-59331.17818171
 10
68700.44347155
 20
-59328.93893056
 10
68707.80619195
 20
-59322.27631492
 10
68714.80174635
 20
-59311.35439048
 10
68721.257881
 20
-59296.44209129
 10
68727.01562442
 20
-59277.90660763
 10
68731.93320187
 20
-59256.20434464
 10
68735.88952627
 20
-59231.86968404
 10
68738.78717978
 20
-59205.50182595
 10
68740.55481256
 20
-59177.75003454
 10
68741.14889962
 20
-59149.29765102
 10
68740.55481256
 20
-59120.8452675
 10
68738.78717978
 20
-59093.09347609
 10
68735.88952627
 20
-59066.725618
 10
68731.93320187
 20
-59042.3909574
 10
68727.01562442
 20
-59020.6886944
 10
68721.257881
 20
-59002.15321074
 10
68714.80174635
 20
-58987.24091155
 10
68707.80619195
 20
-58976.31898712
 10
68700.44347155
 20
-58969.65637147
 10
68692.89487977
 20
-58967.41712033
  0
LWPOLYLINE
  5
6B4
100
AcDbEntity
  8
Ech.1_10
 62
     7
  6
CONTINUOUS
370
    -3
100
AcDbPolyline
 90
       21
 70
     0
 43
0.0
 10
68692.89487977
 20
-58967.41712033
 10
68685.34628799
 20
-58969.65637147
 10
68677.98356759
 20
-58976.31898712
 10
68670.98801318
 20
-58987.24091155
 10
68664.53187854
 20
-59002.15321074
 10
68658.77413511
 20
-59020.6886944
 10
68653.85655766
 20
-59042.3909574
 10
68649.90023326
 20
-59066.725618
 10
68647.00257975
 20
-59093.09347609
 10
68645.23494698
 20
-59120.8452675
 10
68644.64085992
 20
-59149.29765102
 10
68645.23494698
 20
-59177.75003454
 10
68647.00257975
 20
-59205.50182595
 10
68649.90023326
 20
-59231.86968404
 10
68653.85655766
 20
-59256.20434464
 10
68658.77413511
 20
-59277.90660763
 10
68664.53187854
 20
-59296.44209129
 10
68670.98801318
 20
-59311.35439048
 10
68677.98356759
 20
-59322.27631492
 10
68685.34628799
 20
-59328.93893056
 10
68692.89487977
 20
-59331.17818171
  0
INSERT
  5
6B5
100
AcDbEntity
  8
Ech.1_10
 62
     0
370
    -3
100
AcDbBlockReference
  2
*D21
 10
0.0
 20
0.0
 30
0.0
  0
ENDSEC
  0
SECTION
  2
OBJECTS
  0
DICTIONARY
  5
1
100
AcDbDictionary
  3
ACAD_GROUP
350
2
  3
ACAD_MLINESTYLE
350
3
  0
DICTIONARY
  5
2
102
{CDWK_REACTORS
330
1
102
}
100
AcDbDictionary
  0
DICTIONARY
  5
3
102
{CDWK_REACTORS
330
1
102
}
100
AcDbDictionary
  3
STANDARD
350
4
  0
MLINESTYLE
  5
4
102
{CDWK_REACTORS
330
3
102
}
100
AcDbMlineStyle
  2
STANDARD
 70
     0
  3

 62
     0
 51
90.0
 52
90.0
 71
     2
 49
0.5
 62
   256
  6
BYLAYER
 49
-0.5
 62
   256
  6
BYLAYER
  0
ENDSEC
  0
EOF
