  0
SECTION
  2
HEADER
  9
$ACADVER
  1
AC1015
  9
$ACADMAINTVER
 70
    20
  9
$DWGCODEPAGE
  3
ANSI_1252
  9
$INSBASE
 10
0.0
 20
0.0
 30
0.0
  9
$EXTMIN
 10
44201.7808059627
 20
7033.685472418229
 30
-0.0015258207003583
  9
$EXTMAX
 10
45558.34145951456
 20
8535.942747521286
 30
0.0000000349246037
  9
$LIMMIN
 10
434.9844171099999
 20
5051.80477042
  9
$LIMMAX
 10
57061.45779796
 20
10270.56613086
  9
$ORTHOMODE
 70
     0
  9
$REGENMODE
 70
     1
  9
$FILLMODE
 70
     1
  9
$QTEXTMODE
 70
     0
  9
$MIRRTEXT
 70
     1
  9
$LTSCALE
 40
5.0
  9
$ATTMODE
 70
     1
  9
$TEXTSIZE
 40
3.5
  9
$TRACEWID
 40
1.0
  9
$TEXTSTYLE
  7
STANDARD
  9
$CLAYER
  8
0
  9
$CELTYPE
  6
BYLAYER
  9
$CECOLOR
 62
   256
  9
$CELTSCALE
 40
1.0
  9
$DISPSILH
 70
     0
  9
$DIMSCALE
 40
1.0
  9
$DIMASZ
 40
2.0
  9
$DIMEXO
 40
5.0
  9
$DIMDLI
 40
10.0
  9
$DIMRND
 40
0.0
  9
$DIMDLE
 40
2.0
  9
$DIMEXE
 40
2.0
  9
$DIMTP
 40
0.0
  9
$DIMTM
 40
0.0
  9
$DIMTXT
 40
2.5
  9
$DIMCEN
 40
1.5
  9
$DIMTSZ
 40
0.0
  9
$DIMTOL
 70
     0
  9
$DIMLIM
 70
     0
  9
$DIMTIH
 70
     1
  9
$DIMTOH
 70
     0
  9
$DIMSE1
 70
     0
  9
$DIMSE2
 70
     0
  9
$DIMTAD
 70
     1
  9
$DIMZIN
 70
     8
  9
$DIMBLK
  1

  9
$DIMASO
 70
     1
  9
$DIMSHO
 70
     1
  9
$DIMPOST
  1

  9
$DIMAPOST
  1

  9
$DIMALT
 70
     0
  9
$DIMALTD
 70
     2
  9
$DIMALTF
 40
25.4
  9
$DIMLFAC
 40
1.0
  9
$DIMTOFL
 70
     0
  9
$DIMTVP
 40
0.0
  9
$DIMTIX
 70
     0
  9
$DIMSOXD
 70
     0
  9
$DIMSAH
 70
     0
  9
$DIMBLK1
  1

  9
$DIMBLK2
  1

  9
$DIMSTYLE
  2
Standard
  9
$DIMCLRD
 70
   190
  9
$DIMCLRE
 70
   190
  9
$DIMCLRT
 70
   190
  9
$DIMTFAC
 40
1.0
  9
$DIMGAP
 40
0.09
  9
$DIMJUST
 70
     0
  9
$DIMSD1
 70
     0
  9
$DIMSD2
 70
     0
  9
$DIMTOLJ
 70
     1
  9
$DIMTZIN
 70
     0
  9
$DIMALTZ
 70
     0
  9
$DIMALTTZ
 70
     0
  9
$DIMUPT
 70
     0
  9
$DIMDEC
 70
     4
  9
$DIMTDEC
 70
     4
  9
$DIMALTU
 70
     2
  9
$DIMALTTD
 70
     2
  9
$DIMTXSTY
  7
STANDARD
  9
$DIMAUNIT
 70
     0
  9
$DIMADEC
 70
     0
  9
$DIMALTRND
 40
0.0
  9
$DIMAZIN
 70
     0
  9
$DIMDSEP
 70
    46
  9
$DIMATFIT
 70
     3
  9
$DIMFRAC
 70
     0
  9
$DIMLDRBLK
  1

  9
$DIMLUNIT
 70
     2
  9
$DIMLWD
 70
    -2
  9
$DIMLWE
 70
    -2
  9
$DIMTMOVE
 70
     0
  9
$LUNITS
 70
     2
  9
$LUPREC
 70
     6
  9
$SKETCHINC
 40
0.1
  9
$FILLETRAD
 40
0.0
  9
$AUNITS
 70
     0
  9
$AUPREC
 70
     0
  9
$MENU
  1
ACAD
  9
$ELEVATION
 40
0.0
  9
$PELEVATION
 40
0.0
  9
$THICKNESS
 40
0.0
  9
$LIMCHECK
 70
     0
  9
$CHAMFERA
 40
0.0
  9
$CHAMFERB
 40
0.0
  9
$CHAMFERC
 40
0.0
  9
$CHAMFERD
 40
0.0
  9
$SKPOLY
 70
     1
  9
$TDCREATE
 40
2456443.000000000
  9
$TDUCREATE
 40
2456442.916666667
  9
$TDUPDATE
 40
2456458.482658415
  9
$TDUUPDATE
 40
2456458.399325081
  9
$TDINDWG
 40
0.0047790394
  9
$TDUSRTIMER
 40
0.0047790394
  9
$USRTIMER
 70
     1
  9
$ANGBASE
 50
0.0
  9
$ANGDIR
 70
     0
  9
$PDMODE
 70
     0
  9
$PDSIZE
 40
0.0
  9
$PLINEWID
 40
0.0
  9
$SPLFRAME
 70
     0
  9
$SPLINETYPE
 70
     6
  9
$SPLINESEGS
 70
     8
  9
$HANDSEED
  5
20D
  9
$SURFTAB1
 70
     6
  9
$SURFTAB2
 70
     6
  9
$SURFTYPE
 70
     6
  9
$SURFU
 70
     6
  9
$SURFV
 70
     6
  9
$UCSBASE
  2

  9
$UCSNAME
  2

  9
$UCSORG
 10
0.0
 20
0.0
 30
0.0
  9
$UCSXDIR
 10
1.0
 20
0.0
 30
0.0
  9
$UCSYDIR
 10
0.0
 20
1.0
 30
0.0
  9
$UCSORTHOREF
  2

  9
$UCSORTHOVIEW
 70
     0
  9
$UCSORGTOP
 10
0.0
 20
0.0
 30
0.0
  9
$UCSORGBOTTOM
 10
0.0
 20
0.0
 30
0.0
  9
$UCSORGLEFT
 10
0.0
 20
0.0
 30
0.0
  9
$UCSORGRIGHT
 10
0.0
 20
0.0
 30
0.0
  9
$UCSORGFRONT
 10
0.0
 20
0.0
 30
0.0
  9
$UCSORGBACK
 10
0.0
 20
0.0
 30
0.0
  9
$PUCSBASE
  2

  9
$PUCSNAME
  2

  9
$PUCSORG
 10
0.0
 20
0.0
 30
0.0
  9
$PUCSXDIR
 10
1.0
 20
0.0
 30
0.0
  9
$PUCSYDIR
 10
0.0
 20
1.0
 30
0.0
  9
$PUCSORTHOREF
  2

  9
$PUCSORTHOVIEW
 70
     0
  9
$PUCSORGTOP
 10
0.0
 20
0.0
 30
0.0
  9
$PUCSORGBOTTOM
 10
0.0
 20
0.0
 30
0.0
  9
$PUCSORGLEFT
 10
0.0
 20
0.0
 30
0.0
  9
$PUCSORGRIGHT
 10
0.0
 20
0.0
 30
0.0
  9
$PUCSORGFRONT
 10
0.0
 20
0.0
 30
0.0
  9
$PUCSORGBACK
 10
0.0
 20
0.0
 30
0.0
  9
$USERI1
 70
     0
  9
$USERI2
 70
     0
  9
$USERI3
 70
     0
  9
$USERI4
 70
     0
  9
$USERI5
 70
     0
  9
$USERR1
 40
0.0
  9
$USERR2
 40
0.0
  9
$USERR3
 40
0.0
  9
$USERR4
 40
0.0
  9
$USERR5
 40
0.0
  9
$WORLDVIEW
 70
     1
  9
$SHADEDGE
 70
     3
  9
$SHADEDIF
 70
    70
  9
$TILEMODE
 70
     1
  9
$MAXACTVP
 70
    16
  9
$PINSBASE
 10
0.0
 20
0.0
 30
0.0
  9
$PLIMCHECK
 70
     0
  9
$PEXTMIN
 10
1.000000000000000E+20
 20
1.000000000000000E+20
 30
1.000000000000000E+20
  9
$PEXTMAX
 10
-1.000000000000000E+20
 20
-1.000000000000000E+20
 30
-1.000000000000000E+20
  9
$PLIMMIN
 10
0.0
 20
0.0
  9
$PLIMMAX
 10
12.0
 20
9.0
  9
$UNITMODE
 70
     0
  9
$VISRETAIN
 70
     0
  9
$PLINEGEN
 70
     0
  9
$PSLTSCALE
 70
     1
  9
$TREEDEPTH
 70
  3020
  9
$CMLSTYLE
  2
STANDARD
  9
$CMLJUST
 70
     0
  9
$CMLSCALE
 40
1.0
  9
$PROXYGRAPHICS
 70
     1
  9
$MEASUREMENT
 70
     1
  9
$CELWEIGHT
370
    -1
  9
$ENDCAPS
280
     0
  9
$JOINSTYLE
280
     0
  9
$LWDISPLAY
290
     0
  9
$INSUNITS
 70
     0
  9
$HYPERLINKBASE
  1

  9
$STYLESHEET
  1

  9
$XEDIT
290
     1
  9
$CEPSNTYPE
380
     0
  9
$PSTYLEMODE
290
     1
  9
$FINGERPRINTGUID
  2
{1F32F9D0-6146-4241-86CE-B1B4FE251205}
  9
$VERSIONGUID
  2
{B4645C7C-BD27-427F-8F7A-755C03B242A8}
  9
$EXTNAMES
290
     1
  9
$PSVPSCALE
 40
0.0
  9
$OLESTARTUP
290
     0
  0
ENDSEC
  0
SECTION
  2
CLASSES
  0
CLASS
  1
ACDBDICTIONARYWDFLT
  2
AcDbDictionaryWithDefault
  3
ObjectDBX Classes
 90
        0
280
     0
281
     0
  0
CLASS
  1
MATERIAL
  2
AcDbMaterial
  3
ObjectDBX Classes
 90
     1153
280
     0
281
     0
  0
CLASS
  1
VISUALSTYLE
  2
AcDbVisualStyle
  3
ObjectDBX Classes
 90
     4095
280
     0
281
     0
  0
CLASS
  1
TABLESTYLE
  2
AcDbTableStyle
  3
ObjectDBX Classes
 90
     4095
280
     0
281
     0
  0
CLASS
  1
SCALE
  2
AcDbScale
  3
ObjectDBX Classes
 90
     1153
280
     0
281
     0
  0
CLASS
  1
MLEADERSTYLE
  2
AcDbMLeaderStyle
  3
ACDB_MLEADERSTYLE_CLASS
 90
     4095
280
     0
281
     0
  0
CLASS
  1
DICTIONARYVAR
  2
AcDbDictionaryVar
  3
ObjectDBX Classes
 90
        0
280
     0
281
     0
  0
CLASS
  1
CELLSTYLEMAP
  2
AcDbCellStyleMap
  3
ObjectDBX Classes
 90
     1152
280
     0
281
     0
  0
CLASS
  1
ACDBPLACEHOLDER
  2
AcDbPlaceHolder
  3
ObjectDBX Classes
 90
        0
280
     0
281
     0
  0
CLASS
  1
LAYOUT
  2
AcDbLayout
  3
ObjectDBX Classes
 90
        0
280
     0
281
     0
  0
ENDSEC
  0
SECTION
  2
TABLES
  0
TABLE
  2
VPORT
  5
2B
330
0
100
AcDbSymbolTable
 70
     1
  0
VPORT
  5
188
330
2B
100
AcDbSymbolTableRecord
100
AcDbViewportTableRecord
  2
*Active
 70
     0
 10
0.0
 20
0.0
 11
1.0
 21
1.0
 12
44880.06113273862
 22
7784.814109969757
 13
0.0
 23
0.0
 14
1.0
 24
1.0
 15
0.0
 25
0.0
 16
0.0
 26
0.0
 36
1.0
 17
0.0
 27
0.0
 37
0.0
 40
1513.768825103846
 41
2.015345268542199
 42
50.0
 43
0.0
 44
0.0
 50
0.0
 51
0.0
 71
     0
 72
  1000
 73
     1
 74
     3
 75
     0
 76
     0
 77
     0
 78
     0
281
     0
 65
     1
110
0.0
120
0.0
130
0.0
111
1.0
121
0.0
131
0.0
112
0.0
122
1.0
132
0.0
 79
     0
146
0.0
  0
ENDTAB
  0
TABLE
  2
LTYPE
  5
31
330
0
100
AcDbSymbolTable
 70
    10
  0
LTYPE
  5
32
330
31
100
AcDbSymbolTableRecord
100
AcDbLinetypeTableRecord
  2
BYBLOCK
 70
     0
  3

 72
    65
 73
     0
 40
0.0
  0
LTYPE
  5
33
330
31
100
AcDbSymbolTableRecord
100
AcDbLinetypeTableRecord
  2
BYLAYER
 70
     0
  3

 72
    65
 73
     0
 40
0.0
  0
LTYPE
  5
34
330
31
100
AcDbSymbolTableRecord
100
AcDbLinetypeTableRecord
  2
CONTINUOUS
 70
     0
  3
Solid line
 72
    65
 73
     0
 40
0.0
  0
LTYPE
  5
35
330
31
100
AcDbSymbolTableRecord
100
AcDbLinetypeTableRecord
  2
DOT
 70
     0
  3
. . . . . . . . . . . . . . . . . . . . . . . .
 72
    65
 73
     2
 40
2.5
 49
0.0
 74
     0
 49
-2.5
 74
     0
  0
LTYPE
  5
36
330
31
100
AcDbSymbolTableRecord
100
AcDbLinetypeTableRecord
  2
HIDDEN
 70
     0
  3
__ __ __ __ __ __ __ __ __ __ __ __ __ __ __ __
 72
    65
 73
     2
 40
1.875
 49
1.25
 74
     0
 49
-0.625
 74
     0
  0
LTYPE
  5
37
330
31
100
AcDbSymbolTableRecord
100
AcDbLinetypeTableRecord
  2
CADWORK_22
 70
     0
  3
22 =======================================
 72
    65
 73
     0
 40
0.0
  0
LTYPE
  5
38
330
31
100
AcDbSymbolTableRecord
100
AcDbLinetypeTableRecord
  2
DAL
 70
     0
  3
Solid line (for MAPS)
 72
    65
 73
     0
 40
0.0
  0
LTYPE
  5
39
330
31
100
AcDbSymbolTableRecord
100
AcDbLinetypeTableRecord
  2
MUR
 70
     0
  3
Solid line (for MAPS)
 72
    65
 73
     0
 40
0.0
  0
LTYPE
  5
3A
330
31
100
AcDbSymbolTableRecord
100
AcDbLinetypeTableRecord
  2
SOM
 70
     0
  3
Solid line (for MAPS)
 72
    65
 73
     0
 40
0.0
  0
LTYPE
  5
3B
330
31
100
AcDbSymbolTableRecord
100
AcDbLinetypeTableRecord
  2
COL
 70
     0
  3
Solid line (for MAPS)
 72
    65
 73
     0
 40
0.0
  0
LTYPE
  5
3C
330
31
100
AcDbSymbolTableRecord
100
AcDbLinetypeTableRecord
  2
LGN
 70
     0
  3
Solid line (for MAPS)
 72
    65
 73
     0
 40
0.0
  0
LTYPE
  5
3D
330
31
100
AcDbSymbolTableRecord
100
AcDbLinetypeTableRecord
  2
PNT
 70
     0
  3
Solid line (for MAPS)
 72
    65
 73
     0
 40
0.0
  0
ENDTAB
  0
TABLE
  2
LAYER
  5
3E
330
0
100
AcDbSymbolTable
 70
    32
  0
LAYER
  5
3F
102
{ACAD_XDICTIONARY
360
18C
102
}
330
3E
100
AcDbSymbolTableRecord
100
AcDbLayerTableRecord
  2
STANDARD
 70
     0
 62
     7
  6
CONTINUOUS
370
    -3
390
137
  0
LAYER
  5
40
102
{ACAD_XDICTIONARY
360
18E
102
}
330
3E
100
AcDbSymbolTableRecord
100
AcDbLayerTableRecord
  2
Ech.1_1
 70
     0
 62
     7
  6
CONTINUOUS
370
    -3
390
137
  0
LAYER
  5
41
102
{ACAD_XDICTIONARY
360
190
102
}
330
3E
100
AcDbSymbolTableRecord
100
AcDbLayerTableRecord
  2
Ech.1_2
 70
     0
 62
     7
  6
CONTINUOUS
370
    -3
390
137
  0
LAYER
  5
42
102
{ACAD_XDICTIONARY
360
192
102
}
330
3E
100
AcDbSymbolTableRecord
100
AcDbLayerTableRecord
  2
Ech.1_5
 70
     0
 62
     7
  6
CONTINUOUS
370
    -3
390
137
  0
LAYER
  5
43
102
{ACAD_XDICTIONARY
360
194
102
}
330
3E
100
AcDbSymbolTableRecord
100
AcDbLayerTableRecord
  2
Ech.1_10
 70
     0
 62
     7
  6
CONTINUOUS
370
    -3
390
137
  0
LAYER
  5
44
102
{ACAD_XDICTIONARY
360
196
102
}
330
3E
100
AcDbSymbolTableRecord
100
AcDbLayerTableRecord
  2
Ech.1_20
 70
     0
 62
     7
  6
CONTINUOUS
370
    -3
390
137
  0
LAYER
  5
45
102
{ACAD_XDICTIONARY
360
198
102
}
330
3E
100
AcDbSymbolTableRecord
100
AcDbLayerTableRecord
  2
Ech.1_25
 70
     0
 62
     7
  6
CONTINUOUS
370
    -3
390
137
  0
LAYER
  5
46
102
{ACAD_XDICTIONARY
360
19A
102
}
330
3E
100
AcDbSymbolTableRecord
100
AcDbLayerTableRecord
  2
Ech.1_33
 70
     0
 62
     7
  6
CONTINUOUS
370
    -3
390
137
  0
LAYER
  5
47
102
{ACAD_XDICTIONARY
360
19C
102
}
330
3E
100
AcDbSymbolTableRecord
100
AcDbLayerTableRecord
  2
Ech.1_50
 70
     0
 62
     7
  6
CONTINUOUS
370
    -3
390
137
  0
LAYER
  5
48
102
{ACAD_XDICTIONARY
360
19E
102
}
330
3E
100
AcDbSymbolTableRecord
100
AcDbLayerTableRecord
  2
Ech.1_75
 70
     0
 62
     7
  6
CONTINUOUS
370
    -3
390
137
  0
LAYER
  5
49
102
{ACAD_XDICTIONARY
360
1A0
102
}
330
3E
100
AcDbSymbolTableRecord
100
AcDbLayerTableRecord
  2
Ech.1_100
 70
     0
 62
     7
  6
CONTINUOUS
370
    -3
390
137
  0
LAYER
  5
4A
102
{ACAD_XDICTIONARY
360
1A2
102
}
330
3E
100
AcDbSymbolTableRecord
100
AcDbLayerTableRecord
  2
Ech.1_200
 70
     0
 62
     7
  6
CONTINUOUS
370
    -3
390
137
  0
LAYER
  5
4B
102
{ACAD_XDICTIONARY
360
1A4
102
}
330
3E
100
AcDbSymbolTableRecord
100
AcDbLayerTableRecord
  2
Ech.1_500
 70
     0
 62
     7
  6
CONTINUOUS
370
    -3
390
137
  0
LAYER
  5
4C
102
{ACAD_XDICTIONARY
360
1A6
102
}
330
3E
100
AcDbSymbolTableRecord
100
AcDbLayerTableRecord
  2
Ech.1_1000
 70
     0
 62
     7
  6
CONTINUOUS
370
    -3
390
137
  0
LAYER
  5
4D
102
{ACAD_XDICTIONARY
360
1A8
102
}
330
3E
100
AcDbSymbolTableRecord
100
AcDbLayerTableRecord
  2
Cadres traceur
 70
     0
 62
     7
  6
CONTINUOUS
370
    -3
390
137
  0
LAYER
  5
4E
102
{ACAD_XDICTIONARY
360
1AA
102
}
330
3E
100
AcDbSymbolTableRecord
100
AcDbLayerTableRecord
  2
Cadres laser
 70
     0
 62
     7
  6
CONTINUOUS
370
    -3
390
137
  0
LAYER
  5
4F
102
{ACAD_XDICTIONARY
360
1AC
102
}
330
3E
100
AcDbSymbolTableRecord
100
AcDbLayerTableRecord
  2
Légende d_aide
 70
     0
 62
     7
  6
CONTINUOUS
370
    -3
390
137
  0
LAYER
  5
50
102
{ACAD_XDICTIONARY
360
1AE
102
}
330
3E
100
AcDbSymbolTableRecord
100
AcDbLayerTableRecord
  2
hachures ok
 70
     0
 62
     7
  6
CONTINUOUS
370
    -3
390
137
  0
LAYER
  5
51
102
{ACAD_XDICTIONARY
360
1B0
102
}
330
3E
100
AcDbSymbolTableRecord
100
AcDbLayerTableRecord
  2
ossature bois
 70
     0
 62
     7
  6
CONTINUOUS
370
    -3
390
137
  0
LAYER
  5
52
102
{ACAD_XDICTIONARY
360
1B2
102
}
330
3E
100
AcDbSymbolTableRecord
100
AcDbLayerTableRecord
  2
VR
 70
     0
 62
     7
  6
CONTINUOUS
370
    -3
390
137
  0
LAYER
  5
53
102
{ACAD_XDICTIONARY
360
1B4
102
}
330
3E
100
AcDbSymbolTableRecord
100
AcDbLayerTableRecord
  2
CALQUE1
 70
     0
 62
     7
  6
CONTINUOUS
370
    -3
390
137
  0
LAYER
  5
54
330
3E
100
AcDbSymbolTableRecord
100
AcDbLayerTableRecord
  2
0
 70
     0
 62
     7
  6
CONTINUOUS
370
    -3
390
137
  0
LAYER
  5
55
102
{ACAD_XDICTIONARY
360
1B6
102
}
330
3E
100
AcDbSymbolTableRecord
100
AcDbLayerTableRecord
  2
MENUISERIE
 70
     0
 62
     7
  6
CONTINUOUS
370
    -3
390
137
  0
LAYER
  5
56
102
{ACAD_XDICTIONARY
360
1B8
102
}
330
3E
100
AcDbSymbolTableRecord
100
AcDbLayerTableRecord
  2
COTATION
 70
     0
 62
   250
  6
CONTINUOUS
370
    -3
390
137
  0
LAYER
  5
57
330
3E
100
AcDbSymbolTableRecord
100
AcDbLayerTableRecord
  2
DEFPOINTS
 70
     0
 62
    10
  6
CONTINUOUS
290
     0
370
    -3
390
137
  0
LAYER
  5
58
102
{ACAD_XDICTIONARY
360
1BA
102
}
330
3E
100
AcDbSymbolTableRecord
100
AcDbLayerTableRecord
  2
HACHURE
 70
     0
 62
   254
  6
CONTINUOUS
370
    -3
390
137
  0
LAYER
  5
59
102
{ACAD_XDICTIONARY
360
1BC
102
}
330
3E
100
AcDbSymbolTableRecord
100
AcDbLayerTableRecord
  2
MAT1
 70
     0
 62
     7
  6
CONTINUOUS
370
    -3
390
137
  0
LAYER
  5
5A
102
{ACAD_XDICTIONARY
360
1BE
102
}
330
3E
100
AcDbSymbolTableRecord
100
AcDbLayerTableRecord
  2
MAT2
 70
     0
 62
     7
  6
CONTINUOUS
370
    -3
390
137
  0
LAYER
  5
5B
102
{ACAD_XDICTIONARY
360
1C0
102
}
330
3E
100
AcDbSymbolTableRecord
100
AcDbLayerTableRecord
  2
HACH
 70
     0
 62
     8
  6
CONTINUOUS
370
    -3
390
137
  0
LAYER
  5
5C
102
{ACAD_XDICTIONARY
360
1C2
102
}
330
3E
100
AcDbSymbolTableRecord
100
AcDbLayerTableRecord
  2
MENUISERIES
 70
     0
 62
     7
  6
CONTINUOUS
370
    -3
390
137
  0
LAYER
  5
5D
102
{ACAD_XDICTIONARY
360
1C4
102
}
330
3E
100
AcDbSymbolTableRecord
100
AcDbLayerTableRecord
  2
BÉTONMÉTAL
 70
     0
 62
     7
  6
CONTINUOUS
370
    -3
390
137
  0
LAYER
  5
5E
102
{ACAD_XDICTIONARY
360
1C6
102
}
330
3E
100
AcDbSymbolTableRecord
100
AcDbLayerTableRecord
  2
BOIS
 70
     0
 62
     7
  6
CONTINUOUS
370
    -3
390
137
  0
ENDTAB
  0
TABLE
  2
STYLE
  5
2C
330
0
100
AcDbSymbolTable
 70
     4
  0
STYLE
  5
2D
330
2C
100
AcDbSymbolTableRecord
100
AcDbTextStyleTableRecord
  2
STANDARD
 70
     0
 40
0.0
 41
1.0
 50
0.0
 71
     0
 42
3.5
  3
MONOTXT
  4

  0
STYLE
  5
2E
330
2C
100
AcDbSymbolTableRecord
100
AcDbTextStyleTableRecord
  2
CADWORK1
 70
     0
 40
0.0
 41
1.0
 50
0.0
 71
     0
 42
3.5
  3
MONOTXT
  4

  0
STYLE
  5
2F
330
2C
100
AcDbSymbolTableRecord
100
AcDbTextStyleTableRecord
  2
MONOTXT
 70
     0
 40
0.0
 41
1.0
 50
0.0
 71
     0
 42
3.5
  3
MONOTXT
  4

  0
STYLE
  5
30
330
2C
100
AcDbSymbolTableRecord
100
AcDbTextStyleTableRecord
  2
ARIAL
 70
     0
 40
0.0
 41
1.0
 50
0.0
 71
     0
 42
3.5
  3

  4

1001
ACAD
1000
Arial
1071
        0
  0
ENDTAB
  0
TABLE
  2
VIEW
  5
5F
330
0
100
AcDbSymbolTable
 70
     1
  0
ENDTAB
  0
TABLE
  2
UCS
  5
60
330
0
100
AcDbSymbolTable
 70
     0
  0
ENDTAB
  0
TABLE
  2
APPID
  5
61
330
0
100
AcDbSymbolTable
 70
     2
  0
APPID
  5
62
330
61
100
AcDbSymbolTableRecord
100
AcDbRegAppTableRecord
  2
ACAD
 70
     0
  0
APPID
  5
208
330
61
100
AcDbSymbolTableRecord
100
AcDbRegAppTableRecord
  2
ACAD_MLEADERVER
 70
     0
  0
ENDTAB
  0
TABLE
  2
DIMSTYLE
  5
63
330
0
100
AcDbSymbolTable
 70
     1
100
AcDbDimStyleTable
 71
     0
  0
DIMSTYLE
105
181
330
63
100
AcDbSymbolTableRecord
100
AcDbDimStyleTableRecord
  2
Standard
 70
     0
340
2D
  0
ENDTAB
  0
TABLE
  2
BLOCK_RECORD
  5
64
330
0
100
AcDbSymbolTable
 70
     7
  0
BLOCK_RECORD
  5
65
330
64
100
AcDbSymbolTableRecord
100
AcDbBlockTableRecord
  2
*MODEL_SPACE
340
184
  0
BLOCK_RECORD
  5
66
330
64
100
AcDbSymbolTableRecord
100
AcDbBlockTableRecord
  2
*PAPER_SPACE
340
185
  0
BLOCK_RECORD
  5
67
330
64
100
AcDbSymbolTableRecord
100
AcDbBlockTableRecord
  2
CDWK_EXTR_0
340
0
  0
BLOCK_RECORD
  5
68
330
64
100
AcDbSymbolTableRecord
100
AcDbBlockTableRecord
  2
CDWK_EXTR_1D
340
0
  0
BLOCK_RECORD
  5
69
330
64
100
AcDbSymbolTableRecord
100
AcDbBlockTableRecord
  2
CDWK_EXTR_1G
340
0
  0
BLOCK_RECORD
  5
6A
330
64
100
AcDbSymbolTableRecord
100
AcDbBlockTableRecord
  2
CDWK_EXTR_2
340
0
  0
BLOCK_RECORD
  5
6B
330
64
100
AcDbSymbolTableRecord
100
AcDbBlockTableRecord
  2
CDWK_EXTR_3
340
0
  0
BLOCK_RECORD
  5
6C
330
64
100
AcDbSymbolTableRecord
100
AcDbBlockTableRecord
  2
CDWK_EXTR_4
340
0
  0
BLOCK_RECORD
  5
6D
330
64
100
AcDbSymbolTableRecord
100
AcDbBlockTableRecord
  2
CDWK_PTTYP0
340
0
  0
ENDTAB
  0
ENDSEC
  0
SECTION
  2
BLOCKS
  0
BLOCK
  5
6E
330
65
100
AcDbEntity
  8
0
100
AcDbBlockBegin
  2
*MODEL_SPACE
 70
     0
 10
0.0
 20
0.0
 30
0.0
  3
*MODEL_SPACE
  1

  0
ENDBLK
  5
6F
330
65
100
AcDbEntity
  8
0
100
AcDbBlockEnd
  0
BLOCK
  5
70
330
66
100
AcDbEntity
 67
     1
  8
0
100
AcDbBlockBegin
  2
*PAPER_SPACE
 70
     0
 10
0.0
 20
0.0
 30
0.0
  3
*PAPER_SPACE
  1

  0
ENDBLK
  5
71
330
66
100
AcDbEntity
 67
     1
  8
0
100
AcDbBlockEnd
  0
BLOCK
  5
72
330
67
100
AcDbEntity
  8
0
100
AcDbBlockBegin
  2
CDWK_EXTR_0
 70
     0
 10
0.0
 20
0.0
 30
0.0
  3
CDWK_EXTR_0
  1

  0
LINE
  5
73
330
67
100
AcDbEntity
  8
0
 62
     0
370
    -2
100
AcDbLine
 10
0.0
 20
0.0
 30
0.0
 11
2.0
 21
0.5
 31
0.0
  0
LINE
  5
74
330
67
100
AcDbEntity
  8
0
 62
     0
370
    -2
100
AcDbLine
 10
0.0
 20
0.0
 30
0.0
 11
2.0
 21
-0.5
 31
0.0
  0
LINE
  5
75
330
67
100
AcDbEntity
  8
0
 62
     0
370
    -2
100
AcDbLine
 10
2.0
 20
0.5
 30
0.0
 11
2.0
 21
-0.5
 31
0.0
  0
ENDBLK
  5
76
330
67
100
AcDbEntity
  8
0
100
AcDbBlockEnd
  0
BLOCK
  5
77
330
68
100
AcDbEntity
  8
0
100
AcDbBlockBegin
  2
CDWK_EXTR_1D
 70
     0
 10
0.0
 20
0.0
 30
0.0
  3
CDWK_EXTR_1D
  1

  0
LINE
  5
78
330
68
100
AcDbEntity
  8
0
 62
     0
370
    -2
100
AcDbLine
 10
0.0
 20
0.0
 30
0.0
 11
0.0
 21
1.0
 31
0.0
  0
LINE
  5
79
330
68
100
AcDbEntity
  8
0
 62
     0
370
    -2
100
AcDbLine
 10
0.0
 20
1.0
 30
0.0
 11
0.5
 21
1.5
 31
0.0
  0
LINE
  5
7A
330
68
100
AcDbEntity
  8
0
 62
     0
370
    -2
100
AcDbLine
 10
0.5
 20
1.5
 30
0.0
 11
1.5
 21
1.5
 31
0.0
  0
ENDBLK
  5
7B
330
68
100
AcDbEntity
  8
0
100
AcDbBlockEnd
  0
BLOCK
  5
7C
330
69
100
AcDbEntity
  8
0
100
AcDbBlockBegin
  2
CDWK_EXTR_1G
 70
     0
 10
0.0
 20
0.0
 30
0.0
  3
CDWK_EXTR_1G
  1

  0
LINE
  5
7D
330
69
100
AcDbEntity
  8
0
 62
     0
370
    -2
100
AcDbLine
 10
0.0
 20
0.0
 30
0.0
 11
0.0
 21
-1.0
 31
0.0
  0
LINE
  5
7E
330
69
100
AcDbEntity
  8
0
 62
     0
370
    -2
100
AcDbLine
 10
0.0
 20
-1.0
 30
0.0
 11
0.5
 21
-1.5
 31
0.0
  0
LINE
  5
7F
330
69
100
AcDbEntity
  8
0
 62
     0
370
    -2
100
AcDbLine
 10
0.5
 20
-1.5
 30
0.0
 11
1.5
 21
-1.5
 31
0.0
  0
ENDBLK
  5
80
330
69
100
AcDbEntity
  8
0
100
AcDbBlockEnd
  0
BLOCK
  5
81
330
6A
100
AcDbEntity
  8
0
100
AcDbBlockBegin
  2
CDWK_EXTR_2
 70
     0
 10
0.0
 20
0.0
 30
0.0
  3
CDWK_EXTR_2
  1

  0
SOLID
  5
82
330
6A
100
AcDbEntity
  8
0
 62
     0
100
AcDbTrace
 10
0.0
 20
0.0
 30
0.0
 11
2.0
 21
0.5
 31
0.0
 12
2.0
 22
-0.5
 32
0.0
 13
2.0
 23
-0.5
 33
0.0
  0
ENDBLK
  5
83
330
6A
100
AcDbEntity
  8
0
100
AcDbBlockEnd
  0
BLOCK
  5
84
330
6B
100
AcDbEntity
  8
0
100
AcDbBlockBegin
  2
CDWK_EXTR_3
 70
     0
 10
0.0
 20
0.0
 30
0.0
  3
CDWK_EXTR_3
  1

  0
SOLID
  5
85
330
6B
100
AcDbEntity
  8
0
 62
     0
100
AcDbTrace
 10
0.0
 20
0.0
 30
0.0
 11
2.0
 21
0.5
 31
0.0
 12
2.0
 22
-0.5
 32
0.0
 13
2.0
 23
-0.5
 33
0.0
  0
LINE
  5
86
330
6B
100
AcDbEntity
  8
0
 62
     0
370
    -2
100
AcDbLine
 10
0.0
 20
1.0
 30
0.0
 11
0.0
 21
-1.0
 31
0.0
  0
ENDBLK
  5
87
330
6B
100
AcDbEntity
  8
0
100
AcDbBlockEnd
  0
BLOCK
  5
88
330
6C
100
AcDbEntity
  8
0
100
AcDbBlockBegin
  2
CDWK_EXTR_4
 70
     0
 10
0.0
 20
0.0
 30
0.0
  3
CDWK_EXTR_4
  1

  0
HATCH
  5
89
330
6C
100
AcDbEntity
  8
0
 62
     0
370
    20
100
AcDbHatch
 10
0.0
 20
0.0
 30
0.0
210
0.0
220
0.0
230
1.0
  2
SOLID
 70
     1
 71
     0
 91
        1
 92
        1
 93
        1
 72
     2
 10
0.0
 20
0.0
 40
0.5
 50
0.0
 51
360.0
 73
     1
 97
        0
 75
     0
 76
     1
 98
        1
 10
0.0
 20
0.0
  0
ENDBLK
  5
8A
330
6C
100
AcDbEntity
  8
0
100
AcDbBlockEnd
  0
BLOCK
  5
8B
330
6D
100
AcDbEntity
  8
0
100
AcDbBlockBegin
  2
CDWK_PTTYP0
 70
     0
 10
0.0
 20
0.0
 30
0.0
  3
CDWK_PTTYP0
  1

  0
POINT
  5
8C
330
6D
100
AcDbEntity
  8
0
 62
     0
100
AcDbPoint
 10
0.0
 20
0.0
 30
0.0
  0
ENDBLK
  5
8D
330
6D
100
AcDbEntity
  8
0
100
AcDbBlockEnd
  0
ENDSEC
  0
SECTION
  2
ENTITIES
  0
LWPOLYLINE
  5
8E
330
65
100
AcDbEntity
  8
Ech.1_5
  6
Continuous
 62
     7
370
    -3
100
AcDbPolyline
 90
       76
 70
     0
 43
0.0
 10
44925.41066016999
 20
7490.96602525
 42
-0.43868975
 10
44941.33888634999
 20
7478.68772232
 10
44945.64912932
 20
7429.6098758
 42
1.303226189999999
 10
44970.45887355
 20
7438.639882860001
 10
44942.21408351
 20
7479.00626799
 42
-1.303226189999999
 10
44967.02382775
 20
7488.036275039999
 10
44971.33407071999
 20
7438.95842853
 42
1.303226189999999
 10
44996.14381496
 20
7447.988435580001
 10
44967.89902491
 20
7488.35482071
 42
-1.303226189999999
 10
44992.70876915
 20
7497.38482777
 10
44997.01901212
 20
7448.30698125
 42
1.303226189999999
 10
45021.82875636
 20
7457.336988300001
 10
44993.58396631
 20
7497.703373440001
 42
-1.303226189999999
 10
45018.39371055
 20
7506.73338049
 10
45022.70395352
 20
7457.655533969999
 42
1.303226189999999
 10
45047.51369775999
 20
7466.68554103
 10
45019.26890771
 20
7507.051926159999
 42
-1.303226189999999
 10
45044.07865195
 20
7516.08193321
 10
45048.38889491999
 20
7467.0040867
 42
1.303226189999999
 10
45073.19863915999
 20
7476.03409375
 10
45044.95384911
 20
7516.40047888
 42
-1.303226189999999
 10
45069.76359334999
 20
7525.430485939999
 10
45074.07383632
 20
7476.352639419999
 42
1.303226189999999
 10
45098.88358056
 20
7485.382646469999
 10
45070.63879051
 20
7525.749031610001
 42
-1.303226189999999
 10
45095.44853475
 20
7534.779038659999
 10
45099.75877772
 20
7485.70119214
 42
1.303226189999999
 10
45124.56852196
 20
7494.7311992
 10
45096.32373191
 20
7535.09758433
 42
-1.303226189999999
 10
45121.13347615
 20
7544.12759138
 10
45125.44371911999
 20
7495.049744870001
 42
1.303226189999999
 10
45150.25346336
 20
7504.079751919999
 10
45122.00867331
 20
7544.446137050001
 42
-1.303226189999999
 10
45146.81841755
 20
7553.47614411
 10
45151.12866052
 20
7504.398297589999
 42
1.303226189999999
 10
45175.93840476
 20
7513.42830464
 10
45147.69361471
 20
7553.79468978
 42
-1.303226189999999
 10
45172.50335895
 20
7562.82469683
 10
45176.81360192
 20
7513.746850309999
 42
1.303226189999999
 10
45201.62334615999
 20
7522.776857370001
 10
45173.37855611
 20
7563.1432425
 42
-1.303226189999999
 10
45198.18830034999
 20
7572.173249550001
 10
45202.49854332
 20
7523.09540304
 42
1.303226189999999
 10
45227.30828755999
 20
7532.125410089999
 10
45199.06349750999
 20
7572.49179522
 42
-1.303226189999999
 10
45223.87324174999
 20
7581.52180228
 10
45228.18348472
 20
7532.44395576
 42
1.303226189999999
 10
45252.99322896
 20
7541.473962809999
 10
45224.74843891
 20
7581.84034795
 42
-1.303226189999999
 10
45249.55818315
 20
7590.870354999999
 10
45253.86842612
 20
7541.79250848
 42
1.303226189999999
 10
45278.67817036
 20
7550.82251554
 10
45250.43338031
 20
7591.188900670001
 42
-1.303226189999999
 10
45275.24312455
 20
7600.21890772
 10
45279.55336752
 20
7551.14106121
 42
1.303226189999999
 10
45304.36311176
 20
7560.17106826
 10
45276.11832170999
 20
7600.537453390001
 42
-1.303226189999999
 10
45300.92806595
 20
7609.56746045
 10
45305.23830892
 20
7560.489613929999
 42
1.303226189999999
 10
45330.04805315999
 20
7569.51962098
 10
45301.80326311
 20
7609.886006119999
 42
-1.303226189999999
 10
45326.61300735
 20
7618.91601317
 10
45330.92325031999
 20
7569.83816665
 42
1.303226189999999
 10
45355.73299455999
 20
7578.868173709999
 10
45327.48820451
 20
7619.23455884
 42
-1.303226189999999
 10
45352.29794874999
 20
7628.264565890001
 10
45356.60819172
 20
7579.18671938
 42
1.303226189999999
 10
45381.41793596
 20
7588.216726429999
 10
45353.17314590999
 20
7628.583111560001
 42
-1.303226189999999
 10
45377.98289014999
 20
7637.61311862
 10
45382.29313312
 20
7588.5352721
 42
1.303226189999999
 10
45407.10287736
 20
7597.56527915
 10
45378.85808731
 20
7637.93166429
 42
-1.303226189999999
 10
45403.66783155
 20
7646.96167134
 10
45407.97807451999
 20
7597.883824820001
 42
0.56134568
 10
45428.88142301
 20
7587.51410452
  0
LWPOLYLINE
  5
8F
330
65
100
AcDbEntity
  8
Ech.1_5
  6
Continuous
 62
     7
370
    -3
100
AcDbPolyline
 90
       74
 70
     0
 43
0.0
 10
44314.45612033
 20
7268.59660186
 42
-0.43867332
 10
44330.38363048
 20
7256.31815328
 10
44334.69388389
 20
7207.240229609999
 42
1.303226189999999
 10
44359.50366662
 20
7216.27025275
 10
44331.25882901
 20
7256.63669952
 42
-1.303226189999999
 10
44356.06861173999
 20
7265.66672266
 10
44360.37886514999
 20
7216.58879899
 42
1.303226189999999
 10
44385.18864788
 20
7225.618822130001
 10
44356.94381026
 20
7265.9852689
 42
-1.303226189999999
 10
44381.75359298999
 20
7275.015292039999
 10
44386.06384639999
 20
7225.937368369999
 42
1.303226189999999
 10
44410.87362913
 20
7234.96739152
 10
44382.62879152
 20
7275.333838280001
 42
-1.303226189999999
 10
44407.43857425
 20
7284.363861430001
 10
44411.74882766
 20
7235.285937749999
 42
1.303226189999999
 10
44436.55861038999
 20
7244.315960899999
 10
44408.31377277
 20
7284.68240766
 42
-1.303226189999999
 10
44433.1235555
 20
7293.71243081
 10
44437.43380891
 20
7244.63450713
 42
1.303226189999999
 10
44462.24359163999
 20
7253.66453028
 10
44433.99875402
 20
7294.030977040001
 42
-1.303226189999999
 10
44458.80853675
 20
7303.06100019
 10
44463.11879017
 20
7253.98307652
 42
1.303226189999999
 10
44487.9285729
 20
7263.01309966
 10
44459.68373528
 20
7303.37954642
 42
-1.303226189999999
 10
44484.49351800999
 20
7312.40956957
 10
44488.80377142
 20
7263.331645899999
 42
1.303226189999999
 10
44513.61355414999
 20
7272.361669040001
 10
44485.36871653
 20
7312.72811581
 42
-1.303226189999999
 10
44510.17849926
 20
7321.758138949999
 10
44514.48875267
 20
7272.680215280001
 42
1.303226189999999
 10
44539.29853541
 20
7281.71023842
 10
44511.05369778999
 20
7322.076685189999
 42
-1.303226189999999
 10
44535.86348052
 20
7331.10670833
 10
44540.17373393
 20
7282.028784660001
 42
1.303226189999999
 10
44564.98351666
 20
7291.058807800002
 10
44536.73867903999
 20
7331.42525457
 42
-1.303226189999999
 10
44561.54846177
 20
7340.455277709999
 10
44565.85871518
 20
7291.37735404
 42
1.303226189999999
 10
44590.66849791
 20
7300.407377190001
 10
44562.4236603
 20
7340.773823950001
 42
-1.303226189999999
 10
44587.23344303
 20
7349.80384709
 10
44591.54369644
 20
7300.72592342
 42
1.303226189999999
 10
44616.35347917
 20
7309.75594657
 10
44588.10864155
 20
7350.12239333
 42
-1.303226189999999
 10
44612.91842427999
 20
7359.15241648
 10
44617.22867769
 20
7310.074492800001
 42
1.303226189999999
 10
44642.03846042
 20
7319.104515950001
 10
44613.79362280999
 20
7359.47096271
 42
-1.303226189999999
 10
44638.60340554
 20
7368.500985859999
 10
44642.91365894999
 20
7319.42306218
 42
1.303226189999999
 10
44667.72344167999
 20
7328.45308533
 10
44639.47860405999
 20
7368.81953209
 42
-1.303226189999999
 10
44664.28838679
 20
7377.84955524
 10
44668.59864019999
 20
7328.771631569999
 42
1.303226189999999
 10
44693.40842292999
 20
7337.80165471
 10
44665.16358530999
 20
7378.16810148
 42
-1.303226189999999
 10
44689.97336804
 20
7387.198124620001
 10
44694.28362146
 20
7338.12020095
 42
1.303226189999999
 10
44719.09340418999
 20
7347.150224089999
 10
44690.84856657
 20
7387.516670860001
 42
-1.303226189999999
 10
44715.65834929999
 20
7396.546694
 10
44719.96860271
 20
7347.468770329999
 42
1.303226189999999
 10
44744.77838543999
 20
7356.49879347
 10
44716.53354782
 20
7396.865240240001
 42
-1.303226189999999
 10
44741.34333054999
 20
7405.89526338
 10
44745.65358396
 20
7356.81733971
 42
1.303226189999999
 10
44770.46336668999
 20
7365.847362850001
 10
44742.21852908
 20
7406.21380962
 42
-1.303226189999999
 10
44767.02831180999
 20
7415.243832760001
 10
44771.33856522
 20
7366.16590909
 42
1.303226189999999
 10
44796.14834795
 20
7375.19593224
 10
44767.90351033
 20
7415.562379
 42
-0.5671379500000001
 10
44777.48913891
 20
7436.97287167
  0
LWPOLYLINE
  5
90
330
65
100
AcDbEntity
  8
Ech.1_5
  6
Continuous
 62
     7
370
    -3
100
AcDbPolyline
 90
       60
 70
     0
 43
0.0
 10
44805.41066016999
 20
7618.073495219999
 42
-0.4386897600000001
 10
44785.98600021
 20
7633.047030340001
 10
44780.72960839999
 20
7692.898042509999
 42
1.303226189999999
 10
44750.4738329
 20
7681.88584265
 10
44784.91868695
 20
7632.65856015
 42
-1.303226189999999
 10
44754.66291146
 20
7621.64636028
 10
44749.40651964
 20
7681.497372449999
 42
1.303226189999999
 10
44719.15074415
 20
7670.48517259
 10
44753.5955982
 20
7621.257890089999
 42
-1.303226189999999
 10
44723.3398227
 20
7610.245690230001
 10
44718.08343089
 20
7670.096702399999
 42
1.303226189999999
 10
44687.82765539
 20
7659.08450254
 10
44722.27250943999
 20
7609.85722003
 42
-1.303226189999999
 10
44692.01673394
 20
7598.84502017
 10
44686.76034213
 20
7658.69603234
 42
1.303226189999999
 10
44656.50456664
 20
7647.68383248
 10
44690.94942068999
 20
7598.456549979999
 42
-1.303226189999999
 10
44660.69364518999
 20
7587.444350110001
 10
44655.43725337999
 20
7647.295362290001
 42
1.303226189999999
 10
44625.18147788
 20
7636.283162419999
 10
44659.62633192999
 20
7587.05587992
 42
-1.303226189999999
 10
44629.37055643
 20
7576.04368006
 10
44624.11416462
 20
7635.89469223
 42
1.303226189999999
 10
44593.85838912
 20
7624.88249237
 10
44628.30324317
 20
7575.655209869999
 42
-1.303226189999999
 10
44598.04746768
 20
7564.643010000001
 10
44592.79107586
 20
7624.494022170001
 42
1.303226189999999
 10
44562.53530037
 20
7613.481822309999
 10
44596.98015442
 20
7564.25453981
 42
-1.303226189999999
 10
44566.72437892
 20
7553.24233995
 10
44561.46798710999
 20
7613.09335212
 42
1.303226189999999
 10
44531.21221161
 20
7602.08115225
 10
44565.65706566
 20
7552.853869749999
 42
-1.303226189999999
 10
44535.40129015999
 20
7541.841669890001
 10
44530.14489835
 20
7601.692682060001
 42
1.303226189999999
 10
44499.88912285999
 20
7590.680482199999
 10
44534.33397690999
 20
7541.4531997
 42
-1.303226189999999
 10
44504.07820140999
 20
7530.44099983
 10
44498.8218096
 20
7590.29201201
 42
1.303226189999999
 10
44468.56603409999
 20
7579.27981214
 10
44503.01088815
 20
7530.052529639999
 42
-1.303226189999999
 10
44472.75511264999
 20
7519.040329780001
 10
44467.49872084
 20
7578.891341950001
 42
1.303226189999999
 10
44437.24294533999
 20
7567.879142089999
 10
44471.68779939
 20
7518.65185959
 42
-1.303226189999999
 10
44441.4320239
 20
7507.63965972
 10
44436.17563207999
 20
7567.49067189
 42
1.303226189999999
 10
44405.91985659
 20
7556.478472030001
 10
44440.36471064
 20
7507.251189530001
 42
-1.303226189999999
 10
44410.10893514
 20
7496.238989670001
 10
44404.85254333
 20
7556.090001840001
 42
1.303226189999999
 10
44374.59676782999
 20
7545.077801969999
 10
44409.04162188
 20
7495.850519470001
 42
-1.303226189999999
 10
44378.78584638
 20
7484.83831961
 10
44373.52945457
 20
7544.68933178
 42
1.303226189999999
 10
44343.27367907
 20
7533.67713192
 10
44377.71853312
 20
7484.449849419999
 42
-1.303226189999999
 10
44347.46275762999
 20
7473.43764955
 10
44342.20636582
 20
7533.288661730001
 42
0.60893071
 10
44314.81130622
 20
7544.53704371
  0
LWPOLYLINE
  5
91
330
65
100
AcDbEntity
  8
Ech.1_5
  6
Continuous
 62
     7
370
    -3
100
AcDbPolyline
 90
       60
 70
     0
 43
0.0
 10
44805.41066016999
 20
7511.655720110001
 42
-0.4386897600000001
 10
44785.98600046
 20
7526.62925485
 10
44780.72960893999
 20
7586.480265520001
 42
1.303226189999999
 10
44750.47383417999
 20
7575.46806602
 10
44784.91868723
 20
7526.24078467
 42
-1.303226189999999
 10
44754.66291246999
 20
7515.22858517
 10
44749.40652094999
 20
7575.079595840001
 42
1.303226189999999
 10
44719.15074618999
 20
7564.06739633
 10
44753.59559923999
 20
7514.84011499
 42
-1.303226189999999
 10
44723.33982448
 20
7503.827915489999
 10
44718.08343295999
 20
7563.67892615
 42
1.303226189999999
 10
44687.82765819999
 20
7552.66672665
 10
44722.27251125
 20
7503.43944531
 42
-1.303226189999999
 10
44692.01673648999
 20
7492.4272458
 10
44686.76034497
 20
7552.278256470001
 42
1.303226189999999
 10
44656.50457021
 20
7541.266056970001
 10
44690.94942325
 20
7492.03877562
 42
-1.303226189999999
 10
44660.69364848999
 20
7481.02657612
 10
44655.43725698
 20
7540.87758679
 42
1.303226189999999
 10
44625.18148222
 20
7529.86538728
 10
44659.62633525999
 20
7480.638105939999
 42
-1.303226189999999
 10
44629.3705605
 20
7469.625906430001
 10
44624.11416898
 20
7529.476917100001
 42
1.303226189999999
 10
44593.85839423
 20
7518.4647176
 10
44628.30324727
 20
7469.237436260001
 42
-1.303226189999999
 10
44598.04747250999
 20
7458.22523675
 10
44592.79108099
 20
7518.076247420001
 42
1.303226189999999
 10
44562.53530623
 20
7507.064047920001
 10
44596.98015927999
 20
7457.83676657
 42
-1.303226189999999
 10
44566.72438452
 20
7446.82456707
 10
44561.46799299999
 20
7506.675577740001
 42
1.303226189999999
 10
44531.21221824
 20
7495.66337823
 10
44565.65707129
 20
7446.43609689
 42
-1.303226189999999
 10
44535.40129652999
 20
7435.423897380001
 10
44530.14490501
 20
7495.274908049999
 42
1.303226189999999
 10
44499.88913024999
 20
7484.26270855
 10
44534.33398329
 20
7435.0354272
 42
-1.303226189999999
 10
44504.07820854
 20
7424.023227700001
 10
44498.82181701999
 20
7483.874238370001
 42
1.303226189999999
 10
44468.56604226
 20
7472.86203886
 10
44503.0108953
 20
7423.63475752
 42
-1.303226189999999
 10
44472.75512054
 20
7412.62255802
 10
44467.49872903
 20
7472.47356869
 42
1.303226189999999
 10
44437.24295426999
 20
7461.46136918
 10
44471.68780731
 20
7412.234087839999
 42
-1.303226189999999
 10
44441.43203254999
 20
7401.221888330001
 10
44436.17564103
 20
7461.072899
 42
1.303226189999999
 10
44405.91986627
 20
7450.060699500001
 10
44440.36471932
 20
7400.83341815
 42
-1.303226189999999
 10
44410.10894456
 20
7389.82121865
 10
44404.85255303999
 20
7449.67222932
 42
1.303226189999999
 10
44374.59677828
 20
7438.660029810001
 10
44409.04163133
 20
7389.432748469999
 42
-1.303226189999999
 10
44378.78585657
 20
7378.42054897
 10
44373.52946505
 20
7438.27155963
 42
1.303226189999999
 10
44343.27369028999
 20
7427.25936013
 10
44377.71854334
 20
7378.032078789999
 42
-1.303226189999999
 10
44347.46276858
 20
7367.01987928
 10
44342.20637705999
 20
7426.870889949999
 42
0.60893099
 10
44314.81130782
 20
7438.11926292
  0
LWPOLYLINE
  5
92
330
65
100
AcDbEntity
  8
Ech.1_5
  6
Continuous
 62
     7
370
    -3
100
AcDbPolyline
 90
       64
 70
     0
 43
0.0
 10
44925.41066016999
 20
7767.60167167
 42
-0.4386896
 10
44944.83539563
 20
7752.628072829999
 10
44950.09181463
 20
7692.776806000001
 42
1.303226189999999
 10
44980.34771819
 20
7703.789055209999
 10
44945.90271341
 20
7753.01654477
 42
-1.303226189999999
 10
44976.15861697999
 20
7764.02879398
 10
44981.41503597
 20
7704.17752714
 42
1.303226189999999
 10
45011.67093954
 20
7715.18977636
 10
44977.22593475
 20
7764.417265910001
 42
-1.303226189999999
 10
45007.48183832
 20
7775.429515129999
 10
45012.73825731
 20
7715.57824829
 42
1.303226189999999
 10
45042.99416088
 20
7726.5904975
 10
45008.5491561
 20
7775.81798706
 42
-1.303226189999999
 10
45038.80505967
 20
7786.830236269999
 10
45044.06147865999
 20
7726.978969440001
 42
1.303226189999999
 10
45074.31738223
 20
7737.991218649999
 10
45039.87237744
 20
7787.2187082
 42
-1.303226189999999
 10
45070.12828101
 20
7798.23095742
 10
45075.3847
 20
7738.37969058
 42
1.303226189999999
 10
45105.64060356999
 20
7749.39193979
 10
45071.19559879
 20
7798.619429350001
 42
-1.303226189999999
 10
45101.45150236
 20
7809.631678560001
 10
45106.70792134999
 20
7749.78041173
 42
1.303226189999999
 10
45136.96382491
 20
7760.792660939999
 10
45102.51882012999
 20
7810.0201505
 42
-1.303226189999999
 10
45132.7747237
 20
7821.03239971
 10
45138.03114269
 20
7761.181132869999
 42
1.303226189999999
 10
45168.28704625999
 20
7772.193382090001
 10
45133.84204148
 20
7821.420871639999
 42
-1.303226189999999
 10
45164.09794503999
 20
7832.43312085
 10
45169.35436404
 20
7772.58185402
 42
1.303226189999999
 10
45199.61026759999
 20
7783.59410323
 10
45165.16526282
 20
7832.821592790001
 42
-1.303226189999999
 10
45195.42116639
 20
7843.833842000001
 10
45200.67758538
 20
7783.98257516
 42
1.303226189999999
 10
45230.93348895
 20
7794.994824379999
 10
45196.48848415999
 20
7844.222313930001
 42
-1.303226189999999
 10
45226.74438773
 20
7855.23456315
 10
45232.00080672
 20
7795.383296309999
 42
1.303226189999999
 10
45262.25671029
 20
7806.39554552
 10
45227.81170551
 20
7855.623035079999
 42
-1.303226189999999
 10
45258.06760907999
 20
7866.63528429
 10
45263.32402807
 20
7806.78401746
 42
1.303226189999999
 10
45293.57993164
 20
7817.79626667
 10
45259.13492685
 20
7867.02375623
 42
-1.303226189999999
 10
45289.39083042
 20
7878.036005440001
 10
45294.64724941
 20
7818.184738600002
 42
1.303226189999999
 10
45324.90315298
 20
7829.19698781
 10
45290.45814819999
 20
7878.424477370001
 42
-1.303226189999999
 10
45320.71405177
 20
7889.43672658
 10
45325.97047076
 20
7829.585459749999
 42
1.303226189999999
 10
45356.22637432
 20
7840.59770896
 10
45321.78136954
 20
7889.82519852
 42
-1.303226189999999
 10
45352.03727310999
 20
7900.837447730001
 10
45357.2936921
 20
7840.98618089
 42
1.303226189999999
 10
45387.54959567
 20
7851.99843011
 10
45353.10459088999
 20
7901.225919659999
 42
-1.303226189999999
 10
45383.36049445
 20
7912.23816888
 10
45388.61691345
 20
7852.38690204
 42
1.303226189999999
 10
45418.87281701
 20
7863.39915125
 10
45384.42781223
 20
7912.62664081
 42
-1.303226189999999
 10
45414.6837158
 20
7923.63889002
 10
45419.94013479
 20
7863.787623180001
 42
0.25880797
 10
45428.98750375
 20
7850.384650629999
  0
LWPOLYLINE
  5
93
330
65
100
AcDbEntity
  8
Ech.1_5
  6
Continuous
 62
     7
370
    -3
100
AcDbPolyline
 90
       64
 70
     0
 43
0.0
 10
44925.41066016999
 20
7661.183440950001
 42
-0.43868962
 10
44944.83531279
 20
7646.20990648
 10
44950.09170874
 20
7586.35889693
 42
1.303226189999999
 10
44980.34748230999
 20
7597.37109857
 10
44945.90262598
 20
7646.59837674
 42
-1.303226189999999
 10
44976.15839954999
 20
7657.61057838
 10
44981.4147955
 20
7597.759568829999
 42
1.303226189999999
 10
45011.67056906999
 20
7608.77177048
 10
44977.22571274
 20
7657.99904864
 42
-1.303226189999999
 10
45007.4814863
 20
7669.011250290001
 10
45012.73788226
 20
7609.16024073
 42
1.303226189999999
 10
45042.99365583
 20
7620.17244238
 10
45008.54879949
 20
7669.399720540001
 42
-1.303226189999999
 10
45038.80457305999
 20
7680.41192219
 10
45044.06096902
 20
7620.560912630001
 42
1.303226189999999
 10
45074.31674259
 20
7631.57311428
 10
45039.87188625
 20
7680.80039244
 42
-1.303226189999999
 10
45070.12765982
 20
7691.812594089999
 10
45075.38405577999
 20
7631.96158453
 42
1.303226189999999
 10
45105.63982935
 20
7642.97378618
 10
45071.19497301
 20
7692.20106434
 42
-1.303226189999999
 10
45101.45074658
 20
7703.21326599
 10
45106.70714254
 20
7643.362256440001
 42
1.303226189999999
 10
45136.96291611
 20
7654.374458080001
 10
45102.51805977
 20
7703.60173625
 42
-1.303226189999999
 10
45132.77383333999
 20
7714.61393789
 10
45138.03022930001
 20
7654.76292834
 42
1.303226189999999
 10
45168.28600285999
 20
7665.77512999
 10
45133.84114653
 20
7715.002408149999
 42
-1.303226189999999
 10
45164.09692009999
 20
7726.0146098
 10
45169.35331605999
 20
7666.16360024
 42
1.303226189999999
 10
45199.60908962
 20
7677.17580189
 10
45165.16423329
 20
7726.403080050001
 42
-1.303226189999999
 10
45195.42000686
 20
7737.415281700001
 10
45200.67640280999
 20
7677.56427214
 42
1.303226189999999
 10
45230.93217638
 20
7688.57647379
 10
45196.48732004999
 20
7737.803751950001
 42
-1.303226189999999
 10
45226.74309362
 20
7748.8159536
 10
45231.99948957
 20
7688.964944040001
 42
1.303226189999999
 10
45262.25526314
 20
7699.977145690001
 10
45227.81040681
 20
7749.20442385
 42
-1.303226189999999
 10
45258.06618038
 20
7760.2166255
 10
45263.32257633
 20
7700.36561595
 42
1.303226189999999
 10
45293.5783499
 20
7711.377817589999
 10
45259.13349357
 20
7760.60509576
 42
-1.303226189999999
 10
45289.38926714
 20
7771.617297399998
 10
45294.64566309
 20
7711.76628785
 42
1.303226189999999
 10
45324.90143666
 20
7722.77848949
 10
45290.45658033
 20
7772.005767660001
 42
-1.303226189999999
 10
45320.7123539
 20
7783.017969300001
 10
45325.96874984999
 20
7723.16695975
 42
1.303226189999999
 10
45356.22452342
 20
7734.1791614
 10
45321.77966708999
 20
7783.40643956
 42
-1.303226189999999
 10
45352.03544065
 20
7794.41864121
 10
45357.29183661
 20
7734.56763165
 42
1.303226189999999
 10
45387.54761018
 20
7745.5798333
 10
45353.10275385
 20
7794.807111459999
 42
-1.303226189999999
 10
45383.35852740999
 20
7805.819313109999
 10
45388.61492337
 20
7745.96830355
 42
1.303226189999999
 10
45418.87069693999
 20
7756.980505200001
 10
45384.42584059999
 20
7806.20778336
 42
-1.303226189999999
 10
45414.68161416999
 20
7817.21998501
 10
45419.93801012999
 20
7757.368975450001
 42
0.25884682
 10
45428.98750375
 20
7743.964960160001
  0
LWPOLYLINE
  5
94
330
65
100
AcDbEntity
  8
Ech.1_5
  6
Continuous
 62
     7
370
    -3
100
AcDbPolyline
 90
        5
 70
     0
 43
0.0
 10
44805.41066016999
 20
8535.745427269999
 10
44805.41066016999
 20
8455.745427270001
 10
44925.41066016999
 20
8455.745427270001
 10
44925.41066016999
 20
8535.745427269999
 10
44805.41066016999
 20
8535.745427269999
  0
LWPOLYLINE
  5
95
330
65
100
AcDbEntity
  8
Ech.1_5
  6
Continuous
 62
     7
370
    -3
100
AcDbPolyline
 90
        5
 70
     0
 43
0.0
 10
44965.41066016999
 20
8455.745427270001
 10
44765.41066016999
 20
8455.745427270001
 10
44765.41066016999
 20
8265.745427269999
 10
44965.41066016999
 20
8265.745427269999
 10
44965.41066016999
 20
8455.745427270001
  0
LWPOLYLINE
  5
96
330
65
100
AcDbEntity
  8
Ech.1_5
  6
Continuous
 62
     7
370
    -3
100
AcDbPolyline
 90
        4
 70
     0
 43
0.0
 10
44805.41066016999
 20
8265.745427269999
 10
44805.41066016999
 20
8065.74542727
 10
44925.41066016999
 20
8065.74542727
 10
44925.41066016999
 20
8265.745427269999
  0
LWPOLYLINE
  5
97
330
65
100
AcDbEntity
  8
Ech.1_5
  6
Continuous
 62
     7
370
    -3
100
AcDbPolyline
 90
        6
 70
     0
 43
0.0
 10
44805.41066016999
 20
8065.74542727
 10
44803.41066016999
 20
8065.74542727
 10
44803.41066016999
 20
8055.74542727
 10
44927.41066016999
 20
8055.74542727
 10
44927.41066016999
 20
8065.74542727
 10
44925.41066016999
 20
8065.74542727
  0
LWPOLYLINE
  5
98
330
65
100
AcDbEntity
  8
Ech.1_5
  6
Continuous
 62
     7
370
    -3
100
AcDbPolyline
 90
        6
 70
     0
 43
0.0
 10
44803.41066016999
 20
8055.74542727
 10
44765.41066016999
 20
8055.74542727
 10
44765.41066016999
 20
8005.745427269999
 10
44965.41066016999
 20
8005.745427269999
 10
44965.41066016999
 20
8055.74542727
 10
44927.41066016999
 20
8055.74542727
  0
LWPOLYLINE
  5
99
330
65
100
AcDbEntity
  8
Ech.1_5
  6
Continuous
 62
     7
370
    -3
100
AcDbPolyline
 90
        4
 70
     0
 43
0.0
 10
44805.41066016999
 20
8005.745427269999
 10
44805.41066016999
 20
7266.73920151
 10
44925.41066016999
 20
7266.73920151
 10
44925.41066016999
 20
8005.745427269999
  0
LWPOLYLINE
  5
9A
330
65
100
AcDbEntity
  8
Ech.1_5
 62
     7
100
AcDbPolyline
 90
        5
 70
     0
 43
0.0
 10
44291.44387868
 20
7893.20351849
 10
44425.87265767
 20
7893.20351849
 10
44425.87265767
 20
7836.48055968
 10
44291.44387868
 20
7836.48055968
 10
44291.44387868
 20
7893.20351849
  0
LWPOLYLINE
  5
9B
330
65
100
AcDbEntity
  8
Ech.1_5
 62
     7
100
AcDbPolyline
 90
        5
 70
     0
 43
0.0
 10
44309.72392447
 20
7859.54670736
 10
44359.72392447
 20
7859.54670736
 10
44359.72392447
 20
7866.9618449
 10
44309.72392447
 20
7866.9618449
 10
44309.72392447
 20
7859.54670736
  0
LWPOLYLINE
  5
9C
330
65
100
AcDbEntity
  8
Ech.1_5
 62
     7
100
AcDbPolyline
 90
        5
 70
     0
 43
0.0
 10
44359.72392447
 20
7859.54670736
 10
44409.72392447
 20
7859.54670736
 10
44409.72392447
 20
7866.9618449
 10
44359.72392447
 20
7866.9618449
 10
44359.72392447
 20
7859.54670736
  0
LWPOLYLINE
  5
9D
330
65
100
AcDbEntity
  8
Ech.1_5
  6
HIDDEN
 62
     7
370
    -3
100
AcDbPolyline
 90
       23
 70
     0
 43
0.0
 10
44771.83083377999
 20
7821.71431931
 10
44781.27525224
 20
7823.99496023
 10
44793.8795109
 20
7771.799153279999
 10
44770.14684659999
 20
7765.43341644
 10
44764.03793184
 20
7788.20859972
 10
44430.19342709
 20
7698.662553120001
 10
44432.37665961
 20
7689.62151501
 10
44421.91746178
 20
7686.816077740001
 10
44419.42204466
 20
7697.149911229999
 10
44403.63738759
 20
7692.979093159999
 10
44406.17064026
 20
7682.48857793
 10
44385.86808692
 20
7677.585911440001
 10
44376.82575420999
 20
7715.03133885
 10
44368.93153896
 20
7747.72226866
 42
-0.41421356
 10
44385.37936187
 20
7774.64266075
 10
44711.81474588999
 20
7853.47037232
 10
44724.94524573
 20
7799.09533502
 10
44748.01159451
 20
7804.66540364
 10
44745.43389498
 20
7815.339978849999
 10
44754.87831344
 20
7817.620619770001
 10
44757.45601296999
 20
7806.94604456
 10
44774.4085333
 20
7811.039744110001
 10
44771.83083377999
 20
7821.71431931
  0
LINE
  5
9E
330
65
100
AcDbEntity
  8
Ech.1_5
  6
HIDDEN
 62
     7
370
    -3
100
AcDbLine
 10
44376.82575420999
 20
7715.03133885
 30
0.0
 11
44724.89729613
 21
7799.083756139999
 31
0.0
  0
LWPOLYLINE
  5
9F
330
65
100
AcDbEntity
  8
Ech.1_5
  6
HIDDEN
 62
     7
370
    -3
100
AcDbPolyline
 90
        4
 70
     0
 43
0.0
 10
44760.28695124999
 20
7786.604626529999
 10
44731.93379028
 20
7747.55212003
 10
44769.52149512
 20
7761.232925770001
 10
44722.69924641
 20
7772.923820789999
  0
LINE
  5
A0
330
65
100
AcDbEntity
  8
Ech.1_5
  6
HIDDEN
 62
     7
370
    -3
100
AcDbLine
 10
44953.98360619
 20
7925.100444749999
 30
0.0
 11
45302.0551481
 21
8009.152862029999
 31
0.0
  0
LWPOLYLINE
  5
A1
102
{ACAD_REACTORS
330
A2
102
}
330
65
100
AcDbEntity
  8
Ech.1_5
  6
Continuous
 62
     7
370
    -3
100
AcDbPolyline
 90
        4
 70
     1
 43
0.0
 10
44314.45538469
 20
7181.56613423
 10
44314.45538469
 20
7167.731823230001
 10
44805.41066016999
 20
7346.42490252
 10
44805.41066016999
 20
7360.259213699999
  0
HATCH
  5
A2
330
65
100
AcDbEntity
  8
Ech.1_5
  6
Continuous
 62
     7
100
AcDbHatch
 10
0.0
 20
0.0
 30
0.0
210
0.0
220
0.0
230
1.0
  2
DOTS2
 70
     0
 71
     1
 91
        1
 92
        7
 72
     0
 73
     1
 93
        4
 10
44314.45538469
 20
7181.56613423
 10
44314.45538469
 20
7167.731823230001
 10
44805.41066016999
 20
7346.42490252
 10
44805.41066016999
 20
7360.259213699999
 97
        1
330
A1
 75
     0
 76
     2
 52
0.0
 41
4.72440952
 77
     0
 78
     1
 53
0.0
 43
0.0
 44
0.0
 45
3.75
 46
3.535
 79
     2
 49
0.0
 49
-3.535
 47
0.775229
 98
        1
 10
0.0
 20
0.0
  0
LWPOLYLINE
  5
A3
102
{ACAD_REACTORS
330
A4
102
}
330
65
100
AcDbEntity
  8
Ech.1_5
  6
Continuous
 62
     7
370
    -3
100
AcDbPolyline
 90
        4
 70
     1
 43
0.0
 10
45428.98750375
 20
7573.38838263
 10
45428.98750375
 20
7587.22269381
 10
44925.41066016999
 20
7403.93569606
 10
44925.41066016999
 20
7390.10138487
  0
HATCH
  5
A4
330
65
100
AcDbEntity
  8
Ech.1_5
  6
Continuous
 62
     7
100
AcDbHatch
 10
0.0
 20
0.0
 30
0.0
210
0.0
220
0.0
230
1.0
  2
DOTS2
 70
     0
 71
     1
 91
        1
 92
        7
 72
     0
 73
     1
 93
        4
 10
45428.98750375
 20
7573.38838263
 10
45428.98750375
 20
7587.22269381
 10
44925.41066016999
 20
7403.93569606
 10
44925.41066016999
 20
7390.10138487
 97
        1
330
A3
 75
     0
 76
     2
 52
0.0
 41
4.72440952
 77
     0
 78
     1
 53
0.0
 43
0.0
 44
0.0
 45
3.75
 46
3.535
 79
     2
 49
0.0
 49
-3.535
 47
0.775229
 98
        1
 10
0.0
 20
0.0
  0
LWPOLYLINE
  5
A5
330
65
100
AcDbEntity
  8
Ech.1_5
  6
HIDDEN
 62
     7
370
    -3
100
AcDbPolyline
 90
        5
 70
     0
 43
0.0
 10
44961.30998815
 20
7859.74024
 10
44998.89769297999
 20
7873.421045729999
 10
45008.13223685
 20
7848.04934497
 10
44970.54453202
 20
7834.36853923
 10
44961.30998815
 20
7859.74024
  0
LWPOLYLINE
  5
A6
330
65
100
AcDbEntity
  8
Ech.1_5
  6
HIDDEN
 62
     7
370
    -3
100
AcDbPolyline
 90
        4
 70
     0
 43
0.0
 10
45337.44480322
 20
7996.673732420001
 10
45309.09164226
 20
7957.621225930001
 10
45346.67934709
 20
7971.302031659999
 10
45299.85709838999
 20
7982.992926689999
  0
LINE
  5
A7
330
65
100
AcDbEntity
  8
Ech.1_5
 62
     7
100
AcDbLine
 10
45428.98750375
 20
7587.22269381
 30
0.0
 11
44925.41066016999
 21
7403.93569606
 31
0.0
  0
LINE
  5
A8
330
65
100
AcDbEntity
  8
Ech.1_5
 62
     7
100
AcDbLine
 10
44925.41066016999
 20
7390.10138487
 30
0.0
 11
45428.98750375
 21
7573.38838263
 31
0.0
  0
LINE
  5
A9
330
65
100
AcDbEntity
  8
Ech.1_5
  6
Continuous
 62
     7
370
    -3
100
AcDbLine
 10
44925.41066016999
 20
7767.88448412
 30
0.0
 11
45428.98750375
 21
7951.17147912
 31
0.0
  0
LINE
  5
AA
330
65
100
AcDbEntity
  8
Ech.1_5
  6
Continuous
 62
     7
370
    -3
100
AcDbLine
 10
45428.98750375
 20
7844.75370097
 30
0.0
 11
44925.41066016999
 21
7661.466705969999
 31
0.0
  0
LINE
  5
AB
330
65
100
AcDbEntity
  8
Ech.1_5
  6
HIDDEN
 62
     7
370
    -3
100
AcDbLine
 10
44925.41066016999
 20
7767.884946219999
 30
0.0
 11
45428.98750375
 21
7951.171937219999
 31
0.0
  0
LINE
  5
AC
330
65
100
AcDbEntity
  8
Ech.1_5
  6
Continuous
 62
     7
370
    -3
100
AcDbLine
 10
45428.98750375
 20
7738.335924260001
 30
0.0
 11
44925.41066016999
 21
7555.04893169
 31
0.0
  0
LINE
  5
AD
330
65
100
AcDbEntity
  8
Ech.1_5
  6
Continuous
 62
     7
370
    -3
100
AcDbLine
 10
44925.41066016999
 20
7789.168041629999
 30
0.0
 11
45428.98750375
 21
7972.4550342
 31
0.0
  0
LINE
  5
AE
330
65
100
AcDbEntity
  8
Ech.1_5
 62
     7
100
AcDbLine
 10
45428.98750375
 20
7587.222684460001
 30
0.0
 11
44925.41066016999
 21
7403.93569159
 31
0.0
  0
LINE
  5
AF
330
65
100
AcDbEntity
  8
Ech.1_5
  6
HIDDEN
 62
     7
370
    -3
100
AcDbLine
 10
44925.41066016999
 20
7817.90088314
 30
0.0
 11
45428.98750375
 21
8001.187882139999
 31
0.0
  0
LINE
  5
B0
330
65
100
AcDbEntity
  8
Ech.1_5
  6
Continuous
 62
     7
370
    -3
100
AcDbLine
 10
45428.98750375
 20
7972.45503605
 30
0.0
 11
44925.41066016999
 21
7789.16804661
 31
0.0
  0
LINE
  5
B1
330
65
100
AcDbEntity
  8
Ech.1_5
  6
Continuous
 62
     7
370
    -3
100
AcDbLine
 10
45428.98750375
 20
7738.335929199999
 30
0.0
 11
44925.41066016999
 21
7555.04893618
 31
0.0
  0
LWPOLYLINE
  5
B2
330
65
100
AcDbEntity
  8
Ech.1_5
  6
HIDDEN
 62
     7
370
    -3
100
AcDbPolyline
 90
        3
 70
     0
 43
0.0
 10
45351.56638527999
 20
7988.293088839999
 10
44958.81072669999
 20
7863.138399900001
 10
44953.98360619
 20
7894.41596103
  0
LWPOLYLINE
  5
B3
330
65
100
AcDbEntity
  8
Ech.1_5
  6
Continuous
 62
     2
370
    70
100
AcDbPolyline
 90
        4
 70
     0
 43
0.0
 10
44925.60502254
 20
7520.61495725
 10
44925.60502254
 20
7538.60578839
 42
-0.35164347
 10
44931.33905072999
 20
7551.84209727
 10
44967.98701786
 20
7565.180867150001
  0
LWPOLYLINE
  5
B4
330
65
100
AcDbEntity
  8
Ech.1_5
 62
     3
370
    70
100
AcDbPolyline
 90
        4
 70
     0
 43
0.0
 10
44964.88844392
 20
7565.27788994
 10
44952.68265116999
 20
7560.83534446
 10
44950.92809657999
 20
7554.1515567
 10
44938.26251545
 20
7549.54166192
  0
LWPOLYLINE
  5
B5
330
65
100
AcDbEntity
  8
Ech.1_5
  6
Continuous
 62
     2
370
    70
100
AcDbPolyline
 90
        4
 70
     0
 43
0.0
 10
44805.7986382
 20
7478.848747189999
 10
44805.7986382
 20
7496.520424119999
 42
0.35164347
 10
44792.89798221
 20
7502.97426228
 10
44756.25001507999
 20
7489.63549239
  0
LWPOLYLINE
  5
B6
330
65
100
AcDbEntity
  8
Ech.1_5
 62
     3
370
    70
100
AcDbPolyline
 90
        4
 70
     0
 43
0.0
 10
44738.56128966
 20
7484.42214283
 10
44750.76708240999
 20
7488.864688310001
 10
44756.4074053
 20
7484.872415969999
 10
44769.07298643
 20
7489.48231075
  0
LWPOLYLINE
  5
B7
330
65
100
AcDbEntity
  8
Ech.1_5
  6
HIDDEN
 62
     7
370
    -3
100
AcDbPolyline
 90
        5
 70
     0
 43
0.0
 10
44384.15213617
 20
7649.6711341
 10
44421.739841
 20
7663.351939840001
 10
44430.97438487
 20
7637.98023908
 10
44393.38668003999
 20
7624.29943334
 10
44384.15213617
 20
7649.6711341
  0
LWPOLYLINE
  5
B8
330
65
100
AcDbEntity
  8
Ech.1_5
  6
HIDDEN
 62
     7
370
    -3
100
AcDbPolyline
 90
       23
 70
     0
 43
0.0
 10
45348.98868575
 20
8031.7834252
 10
45358.43310421
 20
8034.06406612
 10
45371.03736287
 20
7981.868259169999
 10
45347.30469858
 20
7975.50252233
 10
45341.19578382
 20
7998.27770561
 10
45007.35127907
 20
7908.73165902
 10
45009.53451158
 20
7899.690620899999
 10
44999.07531375999
 20
7896.885183630001
 10
44996.57989664
 20
7907.21901713
 10
44980.79523957
 20
7903.048199050001
 10
44983.32849224
 20
7892.55768382
 10
44963.0259389
 20
7887.655017330001
 10
44953.98360619
 20
7925.100444749999
 10
44946.08939094
 20
7957.79137455
 42
-0.41421356
 10
44962.53721383999
 20
7984.71176664
 10
45288.97259786
 20
8063.53947822
 10
45302.1030977
 20
8009.16444091
 10
45325.16944649
 20
8014.734509529999
 10
45322.59174696
 20
8025.409084740001
 10
45332.03616542
 20
8027.68972566
 10
45334.61386495
 20
8017.015150449999
 10
45351.56638527999
 20
8021.10885
 10
45348.98868575
 20
8031.7834252
  0
LWPOLYLINE
  5
B9
330
65
100
AcDbEntity
  8
Ech.1_5
  6
HIDDEN
 62
     7
370
    -3
100
AcDbPolyline
 90
       12
 70
     0
 43
0.0
 10
45428.98750375
 20
8054.2452644
 10
45345.95903301
 20
8031.97480254
 10
45348.14226552
 20
8022.93376443
 10
45337.68306769999
 20
8020.12832716
 10
45335.18765058
 20
8030.462160650001
 10
45319.4029935
 20
8026.29134258
 10
45321.93624618
 20
8015.80082735
 10
45301.63369283999
 20
8010.89816086
 10
45292.59136012
 20
8048.343588269998
 10
45284.69714487
 20
8081.03451808
 42
-0.41421356
 10
45301.14496778
 20
8107.954910170001
 10
45428.98750375
 20
8138.82636297
  0
LINE
  5
BA
330
65
100
AcDbEntity
  8
Ech.1_5
  6
HIDDEN
 62
     7
370
    -3
100
AcDbLine
 10
45292.58418499
 20
8048.34185562
 30
0.0
 11
45428.98750375
 21
8081.280568750001
 31
0.0
  0
LWPOLYLINE
  5
BB
330
65
100
AcDbEntity
  8
Ech.1_5
  6
HIDDEN
 62
     7
370
    -3
100
AcDbPolyline
 90
        3
 70
     0
 43
0.0
 10
44376.82575420999
 20
7715.03133885
 10
44774.4085333
 20
7841.724227820001
 10
44805.41066016999
 20
7911.696591010001
  0
LWPOLYLINE
  5
BC
330
65
100
AcDbEntity
  8
Ech.1_5
  6
HIDDEN
 62
     7
370
    -3
100
AcDbPolyline
 90
        3
 70
     0
 43
0.0
 10
44376.82575420999
 20
7682.2155777
 10
44770.09012591
 20
7807.53237209
 10
44774.4085333
 20
7841.724227820001
  0
LWPOLYLINE
  5
BD
330
65
100
AcDbEntity
  8
Ech.1_5
  6
HIDDEN
 62
     7
370
    -3
100
AcDbPolyline
 90
        4
 70
     0
 43
0.0
 10
44421.72967807
 20
7663.37986225
 10
44393.37651711
 20
7624.327355759999
 10
44430.96422194
 20
7638.008161490001
 10
44384.14197324
 20
7649.699056520001
  0
LWPOLYLINE
  5
BE
330
65
100
AcDbEntity
  8
Ech.1_5
  6
HIDDEN
 62
     7
370
    -3
100
AcDbPolyline
 90
        4
 70
     0
 43
0.0
 10
44998.88753005
 20
7873.44896814
 10
44970.53436908999
 20
7834.39646165
 10
45008.12207392
 20
7848.07726738
 10
44961.29982521999
 20
7859.768162409999
  0
LWPOLYLINE
  5
BF
330
65
100
AcDbEntity
  8
Ech.1_5
  6
HIDDEN
 62
     7
370
    -3
100
AcDbPolyline
 90
        3
 70
     0
 43
0.0
 10
45371.56638527999
 20
8028.388263850001
 10
44973.98360619
 20
7901.695374879999
 10
44925.41066016999
 20
7927.719298719999
  0
LINE
  5
C0
330
65
100
AcDbEntity
  8
Ech.1_5
  6
Continuous
 62
     7
370
    -3
100
AcDbLine
 10
44662.80728786999
 20
7450.33971725
 30
0.0
 11
44699.20546372
 21
7350.33655099
 31
0.0
  0
CIRCLE
  5
C1
330
65
100
AcDbEntity
  8
Ech.1_5
  6
Continuous
 62
     7
370
    -3
100
AcDbCircle
 10
44664.65112911
 20
7405.8024457
 30
0.0
 40
2.518023729999999
  0
ARC
  5
C2
330
65
100
AcDbEntity
  8
Ech.1_5
  6
Continuous
 62
     7
370
    -3
100
AcDbCircle
 10
44669.13529985999
 20
7339.391906399999
 30
0.0
 40
5.0
100
AcDbArc
 50
290.00001002
 51
20.0
  0
LINE
  5
C3
330
65
100
AcDbEntity
  8
Ech.1_5
  6
Continuous
 62
     7
370
    -3
100
AcDbLine
 10
44667.08663009
 20
7333.32536273
 30
0.0
 11
44670.84540057999
 21
7334.6934433
 31
0.0
  0
ARC
  5
C4
330
65
100
AcDbEntity
  8
Ech.1_5
  6
Continuous
 62
     7
370
    -3
100
AcDbCircle
 10
44678.1400532
 20
7343.206240319999
 30
0.0
 40
14.82598747
100
AcDbArc
 50
221.7941811
 51
258.13516837
  0
ARC
  5
C5
330
65
100
AcDbEntity
  8
Ech.1_5
  6
Continuous
 62
     7
370
    -3
100
AcDbCircle
 10
44681.38098218
 20
7330.0462682
 30
0.0
 40
12.47697948
100
AcDbArc
 50
209.36225397
 51
274.61219105
  0
LINE
  5
C6
330
65
100
AcDbEntity
  8
Ech.1_5
  6
Continuous
 62
     7
370
    -3
100
AcDbLine
 10
44670.39585922
 20
7335.25577388
 30
0.0
 11
44666.51453972
 21
7333.843089110001
 31
0.0
  0
LINE
  5
C7
330
65
100
AcDbEntity
  8
Ech.1_5
  6
Continuous
 62
     7
370
    -3
100
AcDbLine
 10
44666.51453972
 20
7333.843089110001
 30
0.0
 11
44673.58825849999
 21
7314.40820649
 31
0.0
  0
LINE
  5
C8
330
65
100
AcDbEntity
  8
Ech.1_5
  6
Continuous
 62
     7
370
    -3
100
AcDbLine
 10
44669.71181893
 20
7337.135159119999
 30
0.0
 11
44663.95111419999
 21
7335.03843407
 31
0.0
  0
LINE
  5
C9
330
65
100
AcDbEntity
  8
Ech.1_5
  6
Continuous
 62
     7
370
    -3
100
AcDbLine
 10
44663.95111419999
 20
7335.03843407
 30
0.0
 11
44672.39291354999
 21
7311.84478097
 31
0.0
  0
CIRCLE
  5
CA
330
65
100
AcDbEntity
  8
Ech.1_5
  6
Continuous
 62
     7
370
    -3
100
AcDbCircle
 10
44674.91173341
 20
7377.61166707
 30
0.0
 40
2.518023729999999
  0
CIRCLE
  5
CB
330
65
100
AcDbEntity
  8
Ech.1_5
  6
Continuous
 62
     7
370
    -3
100
AcDbCircle
 10
44685.17233771
 20
7349.420888450001
 30
0.0
 40
2.518023729999999
  0
CIRCLE
  5
CC
330
65
100
AcDbEntity
  8
Ech.1_5
  6
Continuous
 62
     7
370
    -3
100
AcDbCircle
 10
44669.78143126
 20
7391.70705639
 30
0.0
 40
2.518023729999999
  0
ARC
  5
CD
330
65
100
AcDbEntity
  8
Ech.1_5
  6
Continuous
 62
     7
370
    -3
100
AcDbCircle
 10
44694.55407898999
 20
7349.18045713
 30
0.0
 40
14.82598747
100
AcDbArc
 50
321.86485166
 51
358.20583894
  0
ARC
  5
CE
330
65
100
AcDbEntity
  8
Ech.1_5
  6
Continuous
 62
     7
370
    -3
100
AcDbCircle
 10
44709.70492276999
 20
7341.542120899998
 30
0.0
 40
3.804859969999999
100
AcDbArc
 50
203.49677662
 51
324.25391082
  0
ARC
  5
CF
330
65
100
AcDbEntity
  8
Ech.1_5
  6
Continuous
 62
     7
370
    -3
100
AcDbCircle
 10
44700.53045037
 20
7337.016104619999
 30
0.0
 40
12.47697948
100
AcDbArc
 50
305.38782898
 51
10.63775604
  0
LINE
  5
D0
330
65
100
AcDbEntity
  8
Ech.1_5
  6
Continuous
 62
     7
370
    -3
100
AcDbLine
 10
44709.37279803
 20
7348.716269180001
 30
0.0
 11
44705.61402754
 21
7347.348188600001
 31
0.0
  0
ARC
  5
D1
330
65
100
AcDbEntity
  8
Ech.1_5
  6
Continuous
 62
     7
370
    -3
100
AcDbCircle
 10
44703.90392682999
 20
7352.046651710001
 30
0.0
 40
5.0
100
AcDbArc
 50
200.00001002
 51
290.00001002
  0
LINE
  5
D2
330
65
100
AcDbEntity
  8
Ech.1_5
  6
Continuous
 62
     7
370
    -3
100
AcDbLine
 10
44705.59693707
 20
7348.06791843
 30
0.0
 11
44704.91289677999
 21
7349.947303669999
 31
0.0
  0
LINE
  5
D3
330
65
100
AcDbEntity
  8
Ech.1_5
  6
Continuous
 62
     7
370
    -3
100
AcDbLine
 10
44705.59693707
 20
7348.06791843
 30
0.0
 11
44709.47825657
 21
7349.480603200001
 31
0.0
  0
LINE
  5
D4
330
65
100
AcDbEntity
  8
Ech.1_5
  6
Continuous
 62
     7
370
    -3
100
AcDbLine
 10
44709.47825657
 20
7349.480603200001
 30
0.0
 11
44716.55197535
 21
7330.04572058
 31
0.0
  0
LINE
  5
D5
330
65
100
AcDbEntity
  8
Ech.1_5
  6
Continuous
 62
     7
370
    -3
100
AcDbLine
 10
44704.91289677999
 20
7349.947303669999
 30
0.0
 11
44710.67360152
 21
7352.04402873
 31
0.0
  0
LINE
  5
D6
330
65
100
AcDbEntity
  8
Ech.1_5
  6
Continuous
 62
     7
370
    -3
100
AcDbLine
 10
44710.67360152
 20
7352.04402873
 30
0.0
 11
44719.11540088
 21
7328.85037562
 31
0.0
  0
CIRCLE
  5
D7
330
65
100
AcDbEntity
  8
Ech.1_5
  6
Continuous
 62
     7
370
    -3
100
AcDbCircle
 10
44659.52082695999
 20
7419.897835009999
 30
0.0
 40
2.518023729999999
  0
LINE
  5
D8
330
65
100
AcDbEntity
  8
Ech.1_5
  6
Continuous
 62
     7
370
    -3
100
AcDbLine
 10
44637.43558711
 20
7441.105173380001
 30
0.0
 11
44673.83376296
 21
7341.102007119999
 31
0.0
  0
CIRCLE
  5
D9
330
65
100
AcDbEntity
  8
Ech.1_5
  6
Continuous
 62
     7
370
    -3
100
AcDbCircle
 10
44654.39052480999
 20
7433.993224319999
 30
0.0
 40
2.518023729999999
  0
LINE
  5
DA
330
65
100
AcDbEntity
  8
Ech.1_5
  6
Continuous
 62
     7
370
    -3
100
AcDbLine
 10
44637.43558711
 20
7441.105173380001
 30
0.0
 11
44662.80728786999
 21
7450.33971725
 31
0.0
  0
LINE
  5
DB
330
65
100
AcDbEntity
  8
Ech.1_5
  6
Continuous
 62
     7
370
    -3
100
AcDbLine
 10
44716.55197535
 20
7330.04572058
 30
0.0
 11
44673.58825849999
 21
7314.40820649
 31
0.0
  0
LINE
  5
DC
330
65
100
AcDbEntity
  8
Ech.1_5
  6
Continuous
 62
     7
370
    -3
100
AcDbLine
 10
44672.39291354999
 20
7311.84478097
 30
0.0
 11
44719.11540088
 21
7328.85037562
 31
0.0
  0
ARC
  5
DD
330
65
100
AcDbEntity
  8
Ech.1_5
  6
Continuous
 62
     7
370
    -3
100
AcDbCircle
 10
44671.44366141
 20
7327.616160640001
 30
0.0
 40
3.804859969999999
100
AcDbArc
 50
255.74610922
 51
16.50323339
  0
LINE
  5
DE
330
65
100
AcDbEntity
  8
Ech.1_5
  6
Continuous
 62
     7
370
    -3
100
AcDbLine
 10
44645.70009035999
 20
7452.33692277
 30
0.0
 11
44645.70009035999
 21
7452.33692277
 31
0.0
  0
LINE
  5
DF
330
65
100
AcDbEntity
  8
Ech.1_5
  6
Continuous
 62
     7
370
    -3
100
AcDbLine
 10
45086.81398272
 20
7604.66548747
 30
0.0
 11
45123.21215856999
 21
7504.66232121
 31
0.0
  0
CIRCLE
  5
E0
330
65
100
AcDbEntity
  8
Ech.1_5
  6
Continuous
 62
     7
370
    -3
100
AcDbCircle
 10
45088.65782395
 20
7560.128215919999
 30
0.0
 40
2.518023729999999
  0
ARC
  5
E1
330
65
100
AcDbEntity
  8
Ech.1_5
  6
Continuous
 62
     7
370
    -3
100
AcDbCircle
 10
45093.14199469999
 20
7493.71767663
 30
0.0
 40
5.0
100
AcDbArc
 50
290.00001002
 51
20.0
  0
LINE
  5
E2
330
65
100
AcDbEntity
  8
Ech.1_5
  6
Continuous
 62
     7
370
    -3
100
AcDbLine
 10
45091.09332493999
 20
7487.65113295
 30
0.0
 11
45094.85209542
 21
7489.019213520001
 31
0.0
  0
ARC
  5
E3
330
65
100
AcDbEntity
  8
Ech.1_5
  6
Continuous
 62
     7
370
    -3
100
AcDbCircle
 10
45102.14674804
 20
7497.53201055
 30
0.0
 40
14.82598747
100
AcDbArc
 50
221.7941811
 51
258.13516837
  0
ARC
  5
E4
330
65
100
AcDbEntity
  8
Ech.1_5
  6
Continuous
 62
     7
370
    -3
100
AcDbCircle
 10
45105.38767703
 20
7484.37203842
 30
0.0
 40
12.47697948
100
AcDbArc
 50
209.36225397
 51
274.61219105
  0
LINE
  5
E5
330
65
100
AcDbEntity
  8
Ech.1_5
  6
Continuous
 62
     7
370
    -3
100
AcDbLine
 10
45094.40255407
 20
7489.581544099999
 30
0.0
 11
45090.52123456999
 21
7488.168859339999
 31
0.0
  0
LINE
  5
E6
330
65
100
AcDbEntity
  8
Ech.1_5
  6
Continuous
 62
     7
370
    -3
100
AcDbLine
 10
45090.52123456999
 20
7488.168859339999
 30
0.0
 11
45097.59495335
 21
7468.73397672
 31
0.0
  0
LINE
  5
E7
330
65
100
AcDbEntity
  8
Ech.1_5
  6
Continuous
 62
     7
370
    -3
100
AcDbLine
 10
45093.71851377999
 20
7491.460929349999
 30
0.0
 11
45087.95780904
 21
7489.36420429
 31
0.0
  0
LINE
  5
E8
330
65
100
AcDbEntity
  8
Ech.1_5
  6
Continuous
 62
     7
370
    -3
100
AcDbLine
 10
45087.95780904
 20
7489.36420429
 30
0.0
 11
45096.39960839
 21
7466.17055119
 31
0.0
  0
CIRCLE
  5
E9
330
65
100
AcDbEntity
  8
Ech.1_5
  6
Continuous
 62
     7
370
    -3
100
AcDbCircle
 10
45098.91842825
 20
7531.937437299998
 30
0.0
 40
2.518023729999999
  0
CIRCLE
  5
EA
330
65
100
AcDbEntity
  8
Ech.1_5
  6
Continuous
 62
     7
370
    -3
100
AcDbCircle
 10
45109.17903254999
 20
7503.74665867
 30
0.0
 40
2.518023729999999
  0
CIRCLE
  5
EB
330
65
100
AcDbEntity
  8
Ech.1_5
  6
Continuous
 62
     7
370
    -3
100
AcDbCircle
 10
45093.7881261
 20
7546.032826609999
 30
0.0
 40
2.518023729999999
  0
ARC
  5
EC
330
65
100
AcDbEntity
  8
Ech.1_5
  6
Continuous
 62
     7
370
    -3
100
AcDbCircle
 10
45118.56077384
 20
7503.50622736
 30
0.0
 40
14.82598747
100
AcDbArc
 50
321.86485166
 51
358.20583894
  0
ARC
  5
ED
330
65
100
AcDbEntity
  8
Ech.1_5
  6
Continuous
 62
     7
370
    -3
100
AcDbCircle
 10
45133.71161761
 20
7495.867891120001
 30
0.0
 40
3.804859969999999
100
AcDbArc
 50
203.49677662
 51
324.25391082
  0
ARC
  5
EE
330
65
100
AcDbEntity
  8
Ech.1_5
  6
Continuous
 62
     7
370
    -3
100
AcDbCircle
 10
45124.53714521999
 20
7491.34187485
 30
0.0
 40
12.47697948
100
AcDbArc
 50
305.38782898
 51
10.63775604
  0
LINE
  5
EF
330
65
100
AcDbEntity
  8
Ech.1_5
  6
Continuous
 62
     7
370
    -3
100
AcDbLine
 10
45133.37949287
 20
7503.042039399999
 30
0.0
 11
45129.62072239
 21
7501.67395883
 31
0.0
  0
ARC
  5
F0
330
65
100
AcDbEntity
  8
Ech.1_5
  6
Continuous
 62
     7
370
    -3
100
AcDbCircle
 10
45127.91062167
 20
7506.37242193
 30
0.0
 40
5.0
100
AcDbArc
 50
200.00001002
 51
290.00001002
  0
LINE
  5
F1
330
65
100
AcDbEntity
  8
Ech.1_5
  6
Continuous
 62
     7
370
    -3
100
AcDbLine
 10
45129.60363192
 20
7502.393688660001
 30
0.0
 11
45128.91959163
 21
7504.273073899999
 31
0.0
  0
LINE
  5
F2
330
65
100
AcDbEntity
  8
Ech.1_5
  6
Continuous
 62
     7
370
    -3
100
AcDbLine
 10
45129.60363192
 20
7502.393688660001
 30
0.0
 11
45133.48495140999
 21
7503.806373420001
 31
0.0
  0
LINE
  5
F3
330
65
100
AcDbEntity
  8
Ech.1_5
  6
Continuous
 62
     7
370
    -3
100
AcDbLine
 10
45133.48495140999
 20
7503.806373420001
 30
0.0
 11
45140.55867019
 21
7484.3714908
 31
0.0
  0
LINE
  5
F4
330
65
100
AcDbEntity
  8
Ech.1_5
  6
Continuous
 62
     7
370
    -3
100
AcDbLine
 10
45128.91959163
 20
7504.273073899999
 30
0.0
 11
45134.68029637
 21
7506.36979895
 31
0.0
  0
LINE
  5
F5
330
65
100
AcDbEntity
  8
Ech.1_5
  6
Continuous
 62
     7
370
    -3
100
AcDbLine
 10
45134.68029637
 20
7506.36979895
 30
0.0
 11
45143.12209572
 21
7483.176145849999
 31
0.0
  0
CIRCLE
  5
F6
330
65
100
AcDbEntity
  8
Ech.1_5
  6
Continuous
 62
     7
370
    -3
100
AcDbCircle
 10
45083.5275218
 20
7574.22360523
 30
0.0
 40
2.518023729999999
  0
LINE
  5
F7
330
65
100
AcDbEntity
  8
Ech.1_5
  6
Continuous
 62
     7
370
    -3
100
AcDbLine
 10
45061.44228196
 20
7595.4309436
 30
0.0
 11
45097.84045781
 21
7495.427777349999
 31
0.0
  0
CIRCLE
  5
F8
330
65
100
AcDbEntity
  8
Ech.1_5
  6
Continuous
 62
     7
370
    -3
100
AcDbCircle
 10
45078.39721965
 20
7588.31899455
 30
0.0
 40
2.518023729999999
  0
LINE
  5
F9
330
65
100
AcDbEntity
  8
Ech.1_5
  6
Continuous
 62
     7
370
    -3
100
AcDbLine
 10
45061.44228196
 20
7595.4309436
 30
0.0
 11
45086.81398272
 21
7604.66548747
 31
0.0
  0
LINE
  5
FA
330
65
100
AcDbEntity
  8
Ech.1_5
  6
Continuous
 62
     7
370
    -3
100
AcDbLine
 10
45140.55867019
 20
7484.3714908
 30
0.0
 11
45097.59495335
 21
7468.73397672
 31
0.0
  0
LINE
  5
FB
330
65
100
AcDbEntity
  8
Ech.1_5
  6
Continuous
 62
     7
370
    -3
100
AcDbLine
 10
45096.39960839
 20
7466.17055119
 30
0.0
 11
45143.12209572
 21
7483.176145849999
 31
0.0
  0
ARC
  5
FC
330
65
100
AcDbEntity
  8
Ech.1_5
  6
Continuous
 62
     7
370
    -3
100
AcDbCircle
 10
45095.45035625
 20
7481.94193086
 30
0.0
 40
3.804859969999999
100
AcDbArc
 50
255.74610922
 51
16.50323339
  0
LINE
  5
FD
330
65
100
AcDbEntity
  8
Ech.1_5
  6
Continuous
 62
     7
370
    -3
100
AcDbLine
 10
45069.7067852
 20
7606.662692990001
 30
0.0
 11
45069.7067852
 21
7606.662692990001
 31
0.0
  0
CIRCLE
  5
FE
330
65
100
AcDbEntity
  8
Ech.1_5
  6
Continuous
 62
     7
370
    -3
100
AcDbCircle
 10
45104.0487304
 20
7517.84204799
 30
0.0
 40
2.518023729999999
  0
LINE
  5
FF
330
65
100
AcDbEntity
  8
Ech.1_5
  6
Continuous
 62
     7
370
    -3
100
AcDbLine
 10
45094.40255407
 20
7489.581544099999
 30
0.0
 11
45093.71851377999
 21
7491.460929349999
 31
0.0
  0
LWPOLYLINE
  5
100
330
65
100
AcDbEntity
  8
Ech.1_5
  6
Continuous
 62
     7
370
    -3
100
AcDbPolyline
 90
        6
 70
     0
 43
0.0
 10
44314.45538469
 20
7736.046062709999
 10
44314.45686051
 20
7409.53539332
 10
44332.43420892
 20
7393.049890170001
 10
44296.47850890999
 20
7407.159830190001
 10
44314.45686051
 20
7390.673476100001
 10
44314.45538469
 20
7147.73182323
  0
LINE
  5
101
330
65
100
AcDbEntity
  8
Ech.1_5
  6
HIDDEN
 62
     7
100
AcDbLine
 10
44314.45538469
 20
7658.50026848
 30
0.0
 11
44386.34719809
 21
7675.860724510001
 31
0.0
  0
LWPOLYLINE
  5
102
330
65
100
AcDbEntity
  8
Ech.1_5
  6
HIDDEN
 62
     7
370
    -3
100
AcDbPolyline
 90
       14
 70
     0
 43
0.0
 10
44314.45538469
 20
7716.046062710001
 10
44373.26464785
 20
7730.2473407
 10
44386.39514769
 20
7675.8723034
 10
44409.46149646999
 20
7681.44237202
 10
44406.88379693999
 20
7692.11694722
 10
44416.3282154
 20
7694.397588140001
 10
44418.90591493
 20
7683.723012940001
 10
44435.85843526
 20
7687.81671248
 10
44433.28073574
 20
7698.49128769
 10
44442.7251542
 20
7700.77192861
 10
44455.32941286
 20
7648.576121649999
 10
44431.59674856
 20
7642.210384809999
 10
44425.4878338
 20
7664.9855681
 10
44314.45538469
 20
7635.203688450001
  0
LINE
  5
103
330
65
100
AcDbEntity
  8
Ech.1_5
  6
HIDDEN
 62
     7
370
    -3
100
AcDbLine
 10
44314.45538469
 20
7658.50026848
 30
0.0
 11
44386.34002295
 21
7675.858991860001
 31
0.0
  0
LINE
  5
104
330
65
100
AcDbEntity
  8
Ech.1_5
 62
     7
100
AcDbLine
 10
44805.41066016999
 20
7360.259213699999
 30
0.0
 11
44314.45538469
 21
7181.5661368
 31
0.0
  0
LINE
  5
105
330
65
100
AcDbEntity
  8
Ech.1_5
 62
     7
100
AcDbLine
 10
44314.45538469
 20
7332.679383849999
 30
0.0
 11
44805.41066016999
 21
7511.37245007
 31
0.0
  0
LINE
  5
106
330
65
100
AcDbEntity
  8
Ech.1_5
 62
     7
100
AcDbLine
 10
44805.41066016999
 20
7511.37245007
 30
0.0
 11
44805.41066016999
 21
7511.37245423
 31
0.0
  0
LINE
  5
107
330
65
100
AcDbEntity
  8
Ech.1_5
 62
     7
100
AcDbLine
 10
44805.41066016999
 20
7511.37245007
 30
0.0
 11
44314.45538469
 21
7332.679383849999
 31
0.0
  0
LINE
  5
108
330
65
100
AcDbEntity
  8
Ech.1_5
 62
     7
100
AcDbLine
 10
44314.45538469
 20
7566.798478149999
 30
0.0
 11
44805.41066016999
 21
7745.49156389
 31
0.0
  0
LINE
  5
109
330
65
100
AcDbEntity
  8
Ech.1_5
 62
     7
100
AcDbLine
 10
44805.41066016999
 20
7745.49156389
 30
0.0
 11
44314.45538469
 21
7566.798478149999
 31
0.0
  0
LINE
  5
10A
330
65
100
AcDbEntity
  8
Ech.1_5
  6
HIDDEN
 62
     7
100
AcDbLine
 10
44314.45538469
 20
7595.53130343
 30
0.0
 11
44805.41066016999
 21
7774.224400039999
 31
0.0
  0
LINE
  5
10B
330
65
100
AcDbEntity
  8
Ech.1_5
  6
Continuous
 62
     7
370
    -3
100
AcDbLine
 10
44805.41066016999
 20
7617.79022928
 30
0.0
 11
44314.45538469
 21
7439.097153849999
 31
0.0
  0
LINE
  5
10C
330
65
100
AcDbEntity
  8
Ech.1_5
  6
Continuous
 62
     7
370
    -3
100
AcDbLine
 10
44314.45538469
 20
7545.51493022
 30
0.0
 11
44805.41066016999
 21
7724.208007129999
 31
0.0
  0
CIRCLE
  5
10D
330
65
100
AcDbEntity
  8
Ech.1_5
  6
Continuous
 62
     7
370
    -3
100
AcDbCircle
 10
44680.04203556
 20
7363.51627776
 30
0.0
 40
2.518023729999999
  0
LINE
  5
10E
330
65
100
AcDbEntity
  8
Ech.1_5
  6
Continuous
 62
     7
370
    -3
100
AcDbLine
 10
44670.39585922
 20
7335.25577388
 30
0.0
 11
44669.71181893
 21
7337.135159119999
 31
0.0
  0
LWPOLYLINE
  5
10F
330
65
100
AcDbEntity
  8
Ech.1_5
  6
Continuous
 62
     7
370
    -3
100
AcDbPolyline
 90
        6
 70
     0
 43
0.0
 10
45428.98685022
 20
8158.826362970001
 10
45428.98832602999
 20
7799.280752439999
 10
45446.96567444
 20
7782.795249279999
 10
45411.00997443
 20
7796.905189300002
 10
45428.98832602999
 20
7780.41883522
 10
45428.98750375
 20
7553.38833854
  0
LWPOLYLINE
  5
110
330
65
100
AcDbEntity
  8
Ech.1_5
  6
HIDDEN
 62
     7
370
    -3
100
AcDbPolyline
 90
        5
 70
     0
 43
0.0
 10
44384.18005329
 20
7649.751506450001
 10
44421.76775812
 20
7663.432312179999
 10
44431.00230199
 20
7638.060611420001
 10
44393.41459716
 20
7624.379805689999
 10
44384.18005329
 20
7649.751506450001
  0
LWPOLYLINE
  5
111
330
65
100
AcDbEntity
  8
Ech.1_5
  6
HIDDEN
 62
     7
370
    -3
100
AcDbPolyline
 90
        5
 70
     0
 43
0.0
 10
44961.33790526999
 20
7859.82061234
 10
44998.9256101
 20
7873.50141807
 10
45008.16015397
 20
7848.12971731
 10
44970.57244914
 20
7834.44891158
 10
44961.33790526999
 20
7859.82061234
  0
LWPOLYLINE
  5
112
330
65
100
AcDbEntity
  8
Ech.1_5
  6
HIDDEN
 62
     7
370
    -3
100
AcDbPolyline
 90
        5
 70
     0
 43
0.0
 10
44722.73732646
 20
7772.97627073
 10
44760.32503128999
 20
7786.65707646
 10
44769.55957516
 20
7761.285375700001
 10
44731.97187033
 20
7747.60456996
 10
44722.73732646
 20
7772.97627073
  0
LWPOLYLINE
  5
113
330
65
100
AcDbEntity
  8
Ech.1_5
  6
HIDDEN
 62
     7
370
    -3
100
AcDbPolyline
 90
        5
 70
     0
 43
0.0
 10
45299.89517844
 20
7983.045376619999
 10
45337.48288327
 20
7996.726182350001
 10
45346.71742713999
 20
7971.354481590001
 10
45309.12972230999
 20
7957.67367586
 10
45299.89517844
 20
7983.045376619999
  0
LWPOLYLINE
  5
114
330
65
100
AcDbEntity
  8
Ech.1_5
  6
HIDDEN
 62
     7
370
    -3
100
AcDbPolyline
 90
        5
 70
     0
 43
0.0
 10
44961.2719081
 20
7859.687790070001
 10
44998.85961292999
 20
7873.368595800001
 10
45008.0941568
 20
7847.996895039999
 10
44970.50645197
 20
7834.3160893
 10
44961.2719081
 20
7859.687790070001
  0
LWPOLYLINE
  5
115
330
65
100
AcDbEntity
  8
Ech.1_5
  6
HIDDEN
 62
     7
370
    -3
100
AcDbPolyline
 90
        5
 70
     0
 43
0.0
 10
44384.11405612
 20
7649.61868417
 10
44421.70176095
 20
7663.299489910001
 10
44430.93630482
 20
7637.927789139999
 10
44393.34859999
 20
7624.24698341
 10
44384.11405612
 20
7649.61868417
  0
LINE
  5
116
330
65
100
AcDbEntity
  8
Ech.1_5
  6
CADWORK_22
 62
     1
370
    35
100
AcDbLine
 10
44925.41066016999
 20
7553.452666670001
 30
0.0
 11
45428.98750375
 21
7736.73965854
 31
0.0
  0
LINE
  5
117
330
65
100
AcDbEntity
  8
Ech.1_5
  6
CADWORK_22
 62
     1
370
    35
100
AcDbLine
 10
44314.45538469
 20
7331.08316345
 30
0.0
 11
44805.41066016999
 21
7509.776279959999
 31
0.0
  0
LWPOLYLINE
  5
118
330
65
100
AcDbEntity
  8
Ech.1_5
  6
Continuous
 62
     7
370
    -3
100
AcDbPolyline
 90
        3
 70
     0
 43
0.0
 10
44805.41066016999
 20
7716.20846659
 42
0.8518450999999998
 10
44781.79692166
 20
7693.2865127
 10
44805.41066016999
 20
7659.53865084
  0
LWPOLYLINE
  5
119
330
65
100
AcDbEntity
  8
Ech.1_5
  6
Continuous
 62
     7
370
    -3
100
AcDbPolyline
 90
        3
 70
     0
 43
0.0
 10
44805.41066016999
 20
7609.790688930001
 42
0.8518450999999998
 10
44781.79692218
 20
7586.868735699998
 10
44805.41066016999
 20
7553.120874379999
  0
LWPOLYLINE
  5
11A
330
65
100
AcDbEntity
  8
Ech.1_5
  6
Continuous
 62
     7
370
    -3
100
AcDbPolyline
 90
        3
 70
     0
 43
0.0
 10
45428.98750375
 20
7905.11030268
 10
45415.75103358
 20
7924.02736195
 42
-0.5983062700000001
 10
45428.98750375
 20
7950.248561550001
  0
ARC
  5
11B
330
65
100
AcDbEntity
  8
Ech.1_5
  6
Continuous
 62
     7
370
    -3
100
AcDbCircle
 10
45429.40362016
 20
7933.587018930001
 30
0.0
 40
16.666738
100
AcDbArc
 50
90.28139067999999
 51
91.43064536999998
  0
LWPOLYLINE
  5
11C
330
65
100
AcDbEntity
  8
Ech.1_5
  6
Continuous
 62
     7
370
    -3
100
AcDbPolyline
 90
        3
 70
     0
 43
0.0
 10
44925.41066016999
 20
7669.466280120001
 42
0.85184508
 10
44949.02449685
 20
7692.38833407
 10
44925.41066016999
 20
7726.136330500001
  0
LWPOLYLINE
  5
11D
330
65
100
AcDbEntity
  8
Ech.1_5
  6
Continuous
 62
     7
370
    -3
100
AcDbPolyline
 90
        3
 70
     0
 43
0.0
 10
45428.98750375
 20
7798.68838558
 10
45415.74892736
 20
7817.60845526
 42
-0.59835034
 10
45428.98750375
 20
7843.82959591
  0
ARC
  5
11E
330
65
100
AcDbEntity
  8
Ech.1_5
  6
Continuous
 62
     7
370
    -3
100
AcDbCircle
 10
45429.40145532
 20
7827.168070909999
 30
0.0
 40
16.66666647
100
AcDbArc
 50
90.27298399999999
 51
91.42320703999999
  0
LWPOLYLINE
  5
11F
330
65
100
AcDbEntity
  8
Ech.1_5
  6
Continuous
 62
     7
370
    -3
100
AcDbPolyline
 90
        3
 70
     0
 43
0.0
 10
44925.41066016999
 20
7563.048471500001
 42
0.8518450899999999
 10
44949.02439555
 20
7585.970426670001
 10
44925.41066016999
 20
7619.71827886
  0
LINE
  5
120
330
65
100
AcDbEntity
  8
Ech.1_5
  6
Continuous
 62
     7
370
    -3
100
AcDbLine
 10
44925.41066016999
 20
7510.070199250001
 30
0.0
 11
44925.45715362
 21
7510.07811738
 31
0.0
  0
LWPOLYLINE
  5
121
330
65
100
AcDbEntity
  8
Ech.1_5
  6
Continuous
 62
     7
370
    -3
100
AcDbPolyline
 90
        5
 70
     0
 43
0.0
 10
44202.71847431999
 20
7033.80916644
 10
44202.71847431999
 20
8018.80916644
 10
45557.71847432
 20
8018.80916644
 10
45557.71847432
 20
7033.80916644
 10
44202.71847431999
 20
7033.80916644
  0
LWPOLYLINE
  5
122
330
65
100
AcDbEntity
  8
Ech.1_5
  6
Continuous
 62
     7
370
     5
100
AcDbPolyline
 90
        5
 70
     0
 43
0.0
 10
44309.72392447
 20
7859.54670736
 10
44359.72392447
 20
7859.54670736
 10
44359.72392447
 20
7866.9618449
 10
44309.72392447
 20
7866.9618449
 10
44309.72392447
 20
7859.54670736
  0
LWPOLYLINE
  5
123
330
65
100
AcDbEntity
  8
Ech.1_5
  6
Continuous
 62
     7
370
    -3
100
AcDbPolyline
 90
        8
 70
     0
 43
0.0
 10
44332.43420892
 20
7393.049890170001
 10
44314.45538469
 20
7400.105242489999
 10
44314.45538469
 20
7332.67938022
 10
44805.41066016999
 20
7511.37244993
 10
44805.41066016999
 20
7745.491560020001
 10
44314.45538469
 20
7566.7984938
 10
44314.45538469
 20
7409.53539332
 10
44332.43420892
 20
7393.049890170001
  0
LWPOLYLINE
  5
124
330
65
100
AcDbEntity
  8
Ech.1_5
  6
Continuous
 62
     7
370
    -3
100
AcDbPolyline
 90
        8
 70
     0
 43
0.0
 10
45428.98832602999
 20
7780.41883522
 10
45411.00997443
 20
7796.905189300002
 10
45428.98819879
 20
7789.85007238
 10
45428.98750375
 20
7972.4550342
 10
44925.41066016999
 20
7789.168041629999
 10
44925.41066016999
 20
7555.04893169
 10
45428.98750375
 20
7738.335924260001
 10
45428.98832602999
 20
7780.41883522
  0
LWPOLYLINE
  5
125
330
65
100
AcDbEntity
  8
Ech.1_5
  6
Continuous
 62
     7
370
    -3
100
AcDbPolyline
 90
        5
 70
     0
 43
0.0
 10
44314.45538469
 20
7181.56600978
 10
44314.45538469
 20
7167.731698429999
 10
44805.41066016999
 20
7346.424819
 10
44805.41066016999
 20
7360.259130500001
 10
44314.45538469
 20
7181.56600978
  0
LWPOLYLINE
  5
126
330
65
100
AcDbEntity
  8
Ech.1_5
  6
Continuous
 62
     7
370
    -3
100
AcDbPolyline
 90
        5
 70
     0
 43
0.0
 10
45428.98750375
 20
7573.38833854
 10
45428.98750375
 20
7587.222650040001
 10
44925.41066016999
 20
7403.93561598
 10
44925.41066016999
 20
7390.10130447
 10
45428.98750375
 20
7573.38833854
  0
LWPOLYLINE
  5
127
330
65
100
AcDbEntity
  8
Ech.1_5
  6
Continuous
 62
     7
370
    -3
100
AcDbPolyline
 90
        5
 70
     0
 43
0.0
 10
44314.45538469
 20
7545.51493071
 10
44314.45538469
 20
7439.09715322
 10
44805.41066016999
 20
7617.79022946
 10
44805.41066016999
 20
7724.208007129999
 10
44314.45538469
 20
7545.51493071
  0
LWPOLYLINE
  5
128
330
65
100
AcDbEntity
  8
Ech.1_5
  6
Continuous
 62
     7
370
    -3
100
AcDbPolyline
 90
        5
 70
     0
 43
0.0
 10
45428.98750375
 20
7844.753702850001
 10
45428.98750375
 20
7951.17148068
 10
44925.41066016999
 20
7767.88448912
 10
44925.41066016999
 20
7661.466711440001
 10
45428.98750375
 20
7844.753702850001
  0
LWPOLYLINE
  5
129
330
65
100
AcDbEntity
  8
Ech.1_5
  6
Continuous
 62
     7
370
    -3
100
AcDbPolyline
 90
       10
 70
     0
 43
0.0
 10
45428.98819879
 20
7789.85007238
 10
45446.96567444
 20
7782.795249279999
 10
45428.98750375
 20
7799.280752439999
 10
45428.98750375
 20
7844.75370278
 10
44925.41066016999
 20
7661.466711220001
 10
44925.41066016999
 20
7555.04893304
 10
45428.98750375
 20
7738.33592476
 10
45428.98832602999
 20
7780.41883522
 10
45411.00997443
 20
7796.905189300002
 10
45428.98819879
 20
7789.85007238
  0
LWPOLYLINE
  5
12A
330
65
100
AcDbEntity
  8
Ech.1_5
  6
Continuous
 62
     7
370
    -3
100
AcDbPolyline
 90
       10
 70
     0
 43
0.0
 10
44314.45538469
 20
7400.105242489999
 10
44296.47850890999
 20
7407.159830190001
 10
44314.45686051
 20
7390.673476100001
 10
44314.45538469
 20
7332.679378269999
 10
44805.41066016999
 20
7511.37245119
 10
44805.41066016999
 20
7617.79022928
 10
44314.45538469
 20
7439.09715395
 10
44314.45538469
 20
7409.53539332
 10
44332.43420892
 20
7393.049890170001
 10
44314.45538469
 20
7400.105242489999
  0
LWPOLYLINE
  5
12B
330
65
100
AcDbEntity
  8
Ech.1_5
  6
Continuous
 62
     7
370
    -3
100
AcDbPolyline
 90
        5
 70
     0
 43
0.0
 10
44314.45538469
 20
7332.679378269999
 10
44314.45612033
 20
7268.82902649
 10
44805.41066016999
 20
7447.521875940001
 10
44805.41066016999
 20
7511.37245229
 10
44314.45538469
 20
7332.679378269999
  0
LWPOLYLINE
  5
12C
330
65
100
AcDbEntity
  8
Ech.1_5
  6
Continuous
 62
     7
370
    -3
100
AcDbPolyline
 90
        5
 70
     0
 43
0.0
 10
45428.98794235
 20
7674.485417079999
 10
45428.98750375
 20
7738.335929199999
 10
44925.41066016999
 20
7555.04893618
 10
44925.41066016999
 20
7491.198264899999
 10
45428.98794235
 20
7674.485417079999
  0
LWPOLYLINE
  5
12D
330
65
100
AcDbEntity
  8
Ech.1_5
  6
Continuous
 62
     7
370
    -3
100
AcDbPolyline
 90
        5
 70
     0
 43
0.0
 10
44314.45612033
 20
7268.829025789999
 10
44314.45538469
 20
7181.56613486
 10
44805.41066016999
 20
7360.259207750001
 10
44805.41066016999
 20
7447.52187608
 10
44314.45612033
 20
7268.829025789999
  0
LWPOLYLINE
  5
12E
330
65
100
AcDbEntity
  8
Ech.1_5
  6
Continuous
 62
     7
370
    -3
100
AcDbPolyline
 90
        5
 70
     0
 43
0.0
 10
45428.98750375
 20
7587.222684460001
 10
45428.98794235
 20
7674.48541711
 10
44925.41066016999
 20
7491.19826508
 10
44925.41066016999
 20
7403.93569159
 10
45428.98750375
 20
7587.222684460001
  0
TEXT
  5
12F
330
65
100
AcDbEntity
  8
Ech.1_5
 62
     7
100
AcDbText
 10
44321.01821709
 20
7876.547847980001
 30
0.0
 40
8.000000119999999
  1
Echelle en mm
  7
ARIAL
100
AcDbText
  0
TEXT
  5
130
330
65
100
AcDbEntity
  8
Ech.1_5
 62
     7
100
AcDbText
 10
44307.03763233999
 20
7848.33801245
 30
0.0
 40
8.000000119999999
  1
0
  7
ARIAL
100
AcDbText
  0
TEXT
  5
131
330
65
100
AcDbEntity
  8
Ech.1_5
 62
     7
100
AcDbText
 10
44393.63469024
 20
7848.33801245
 30
0.0
 40
8.000000119999999
  1
100
  7
ARIAL
100
AcDbText
  0
TEXT
  5
132
330
65
100
AcDbEntity
  8
Ech.1_5
 62
     7
100
AcDbText
 10
44354.89425866999
 20
7848.33801245
 30
0.0
 40
8.000000119999999
  1
50
  7
ARIAL
100
AcDbText
  0
ENDSEC
  0
SECTION
  2
OBJECTS
  0
DICTIONARY
  5
1
330
0
100
AcDbDictionary
281
     1
  3
ACAD_COLOR
350
16A
  3
ACAD_GROUP
350
2
  3
ACAD_LAYOUT
350
182
  3
ACAD_MATERIAL
350
138
  3
ACAD_MLEADERSTYLE
350
17F
  3
ACAD_MLINESTYLE
350
3
  3
ACAD_PLOTSETTINGS
350
183
  3
ACAD_PLOTSTYLENAME
350
136
  3
ACAD_SCALELIST
350
16D
  3
ACAD_TABLESTYLE
350
16B
  3
ACAD_VISUALSTYLE
350
151
  3
ACDB_RECOMPOSE_DATA
350
1D2
  3
AcDbVariableDictionary
350
1C8
  3
DWGPROPS
350
1D3
  0
DICTIONARY
  5
18C
330
3F
100
AcDbDictionary
280
     1
281
     1
  3
ADSK_XREC_LAYER_RECONCILED
360
18D
  0
DICTIONARY
  5
18E
330
40
100
AcDbDictionary
280
     1
281
     1
  3
ADSK_XREC_LAYER_RECONCILED
360
18F
  0
DICTIONARY
  5
190
330
41
100
AcDbDictionary
280
     1
281
     1
  3
ADSK_XREC_LAYER_RECONCILED
360
191
  0
DICTIONARY
  5
192
330
42
100
AcDbDictionary
280
     1
281
     1
  3
ADSK_XREC_LAYER_RECONCILED
360
193
  0
DICTIONARY
  5
194
330
43
100
AcDbDictionary
280
     1
281
     1
  3
ADSK_XREC_LAYER_RECONCILED
360
195
  0
DICTIONARY
  5
196
330
44
100
AcDbDictionary
280
     1
281
     1
  3
ADSK_XREC_LAYER_RECONCILED
360
197
  0
DICTIONARY
  5
198
330
45
100
AcDbDictionary
280
     1
281
     1
  3
ADSK_XREC_LAYER_RECONCILED
360
199
  0
DICTIONARY
  5
19A
330
46
100
AcDbDictionary
280
     1
281
     1
  3
ADSK_XREC_LAYER_RECONCILED
360
19B
  0
DICTIONARY
  5
19C
330
47
100
AcDbDictionary
280
     1
281
     1
  3
ADSK_XREC_LAYER_RECONCILED
360
19D
  0
DICTIONARY
  5
19E
330
48
100
AcDbDictionary
280
     1
281
     1
  3
ADSK_XREC_LAYER_RECONCILED
360
19F
  0
DICTIONARY
  5
1A0
330
49
100
AcDbDictionary
280
     1
281
     1
  3
ADSK_XREC_LAYER_RECONCILED
360
1A1
  0
DICTIONARY
  5
1A2
330
4A
100
AcDbDictionary
280
     1
281
     1
  3
ADSK_XREC_LAYER_RECONCILED
360
1A3
  0
DICTIONARY
  5
1A4
330
4B
100
AcDbDictionary
280
     1
281
     1
  3
ADSK_XREC_LAYER_RECONCILED
360
1A5
  0
DICTIONARY
  5
1A6
330
4C
100
AcDbDictionary
280
     1
281
     1
  3
ADSK_XREC_LAYER_RECONCILED
360
1A7
  0
DICTIONARY
  5
1A8
330
4D
100
AcDbDictionary
280
     1
281
     1
  3
ADSK_XREC_LAYER_RECONCILED
360
1A9
  0
DICTIONARY
  5
1AA
330
4E
100
AcDbDictionary
280
     1
281
     1
  3
ADSK_XREC_LAYER_RECONCILED
360
1AB
  0
DICTIONARY
  5
1AC
330
4F
100
AcDbDictionary
280
     1
281
     1
  3
ADSK_XREC_LAYER_RECONCILED
360
1AD
  0
DICTIONARY
  5
1AE
330
50
100
AcDbDictionary
280
     1
281
     1
  3
ADSK_XREC_LAYER_RECONCILED
360
1AF
  0
DICTIONARY
  5
1B0
330
51
100
AcDbDictionary
280
     1
281
     1
  3
ADSK_XREC_LAYER_RECONCILED
360
1B1
  0
DICTIONARY
  5
1B2
330
52
100
AcDbDictionary
280
     1
281
     1
  3
ADSK_XREC_LAYER_RECONCILED
360
1B3
  0
DICTIONARY
  5
1B4
330
53
100
AcDbDictionary
280
     1
281
     1
  3
ADSK_XREC_LAYER_RECONCILED
360
1B5
  0
DICTIONARY
  5
1B6
330
55
100
AcDbDictionary
280
     1
281
     1
  3
ADSK_XREC_LAYER_RECONCILED
360
1B7
  0
DICTIONARY
  5
1B8
330
56
100
AcDbDictionary
280
     1
281
     1
  3
ADSK_XREC_LAYER_RECONCILED
360
1B9
  0
DICTIONARY
  5
1BA
330
58
100
AcDbDictionary
280
     1
281
     1
  3
ADSK_XREC_LAYER_RECONCILED
360
1BB
  0
DICTIONARY
  5
1BC
330
59
100
AcDbDictionary
280
     1
281
     1
  3
ADSK_XREC_LAYER_RECONCILED
360
1BD
  0
DICTIONARY
  5
1BE
330
5A
100
AcDbDictionary
280
     1
281
     1
  3
ADSK_XREC_LAYER_RECONCILED
360
1BF
  0
DICTIONARY
  5
1C0
330
5B
100
AcDbDictionary
280
     1
281
     1
  3
ADSK_XREC_LAYER_RECONCILED
360
1C1
  0
DICTIONARY
  5
1C2
330
5C
100
AcDbDictionary
280
     1
281
     1
  3
ADSK_XREC_LAYER_RECONCILED
360
1C3
  0
DICTIONARY
  5
1C4
330
5D
100
AcDbDictionary
280
     1
281
     1
  3
ADSK_XREC_LAYER_RECONCILED
360
1C5
  0
DICTIONARY
  5
1C6
330
5E
100
AcDbDictionary
280
     1
281
     1
  3
ADSK_XREC_LAYER_RECONCILED
360
1C7
  0
DICTIONARY
  5
16A
102
{ACAD_REACTORS
330
1
102
}
330
1
100
AcDbDictionary
281
     1
  0
DICTIONARY
  5
2
330
1
100
AcDbDictionary
281
     1
  0
DICTIONARY
  5
182
102
{ACAD_REACTORS
330
1
102
}
330
1
100
AcDbDictionary
281
     1
  3
Model
350
184
  3
Présentation1
350
185
  0
DICTIONARY
  5
138
102
{ACAD_REACTORS
330
1
102
}
330
1
100
AcDbDictionary
281
     1
  3
ByBlock
350
141
  3
ByLayer
350
139
  3
Global
350
149
  0
DICTIONARY
  5
17F
102
{ACAD_REACTORS
330
1
102
}
330
1
100
AcDbDictionary
281
     1
  3
Standard
350
180
  0
DICTIONARY
  5
3
330
1
100
AcDbDictionary
281
     1
  3
STANDARD
350
4
  0
DICTIONARY
  5
183
102
{ACAD_REACTORS
330
1
102
}
330
1
100
AcDbDictionary
281
     1
  0
ACDBDICTIONARYWDFLT
  5
136
102
{ACAD_REACTORS
330
1
102
}
330
1
100
AcDbDictionary
281
     1
  3
Normal
350
137
100
AcDbDictionaryWithDefault
340
137
  0
DICTIONARY
  5
16D
102
{ACAD_REACTORS
330
1
102
}
330
1
100
AcDbDictionary
281
     1
  3
A0
350
16E
  3
A1
350
16F
  3
A2
350
170
  3
A3
350
171
  3
A4
350
172
  3
A5
350
173
  3
A6
350
174
  3
A7
350
175
  3
A8
350
176
  3
A9
350
177
  3
B0
350
178
  3
B1
350
179
  3
B2
350
17A
  3
B3
350
17B
  3
B4
350
17C
  3
B5
350
17D
  3
B6
350
17E
  0
DICTIONARY
  5
16B
102
{ACAD_REACTORS
330
1
102
}
330
1
100
AcDbDictionary
281
     1
  3
Standard
350
16C
  0
DICTIONARY
  5
151
102
{ACAD_REACTORS
330
1
102
}
330
1
100
AcDbDictionary
281
     1
  3
2dWireframe
350
157
  3
Basic
350
156
  3
Brighten
350
15D
  3
ColorChange
350
161
  3
Conceptual
350
15A
  3
Dim
350
15C
  3
EdgeColorOff
350
169
  3
Facepattern
350
160
  3
Flat
350
152
  3
FlatWithEdges
350
153
  3
Gouraud
350
154
  3
GouraudWithEdges
350
155
  3
Hidden
350
159
  3
JitterOff
350
167
  3
Linepattern
350
15F
  3
OverhangOff
350
168
  3
Realistic
350
15B
  3
Shaded
350
166
  3
Shaded with edges
350
165
  3
Shades of Gray
350
162
  3
Sketchy
350
163
  3
Thicken
350
15E
  3
Wireframe
350
158
  3
X-Ray
350
164
  0
XRECORD
  5
1D2
102
{ACAD_REACTORS
330
1
102
}
330
1
100
AcDbXrecord
280
     1
 90
        1
330
16C
  0
DICTIONARY
  5
1C8
102
{ACAD_REACTORS
330
1
102
}
330
1
100
AcDbDictionary
281
     1
  3
CANNOSCALE
350
1CB
  3
CMLEADERSTYLE
350
1CA
  3
CTABLESTYLE
350
1C9
  3
DIMASSOC
350
1CE
  3
INDEXCTL
350
1CD
  3
SORTENTS
350
1CC
  3
XCLIPFRAME
350
1CF
  0
XRECORD
  5
1D3
102
{ACAD_REACTORS
330
1
102
}
330
1
100
AcDbXrecord
280
     1
  1
DWGPROPS COOKIE
  2

  3

  4

  6

  7

  8
cazeaux
  9

300
=
301
=
302
=
303
=
304
=
305
=
306
=
307
=
308
=
309
=
 40
0.0047783217592593
 41
2456443.0
 42
2456458.482658415
  1

 90
        0
  0
XRECORD
  5
18D
102
{ACAD_REACTORS
330
18C
102
}
330
18C
100
AcDbXrecord
280
     1
290
     1
  0
XRECORD
  5
18F
102
{ACAD_REACTORS
330
18E
102
}
330
18E
100
AcDbXrecord
280
     1
290
     1
  0
XRECORD
  5
191
102
{ACAD_REACTORS
330
190
102
}
330
190
100
AcDbXrecord
280
     1
290
     1
  0
XRECORD
  5
193
102
{ACAD_REACTORS
330
192
102
}
330
192
100
AcDbXrecord
280
     1
290
     1
  0
XRECORD
  5
195
102
{ACAD_REACTORS
330
194
102
}
330
194
100
AcDbXrecord
280
     1
290
     1
  0
XRECORD
  5
197
102
{ACAD_REACTORS
330
196
102
}
330
196
100
AcDbXrecord
280
     1
290
     1
  0
XRECORD
  5
199
102
{ACAD_REACTORS
330
198
102
}
330
198
100
AcDbXrecord
280
     1
290
     1
  0
XRECORD
  5
19B
102
{ACAD_REACTORS
330
19A
102
}
330
19A
100
AcDbXrecord
280
     1
290
     1
  0
XRECORD
  5
19D
102
{ACAD_REACTORS
330
19C
102
}
330
19C
100
AcDbXrecord
280
     1
290
     1
  0
XRECORD
  5
19F
102
{ACAD_REACTORS
330
19E
102
}
330
19E
100
AcDbXrecord
280
     1
290
     1
  0
XRECORD
  5
1A1
102
{ACAD_REACTORS
330
1A0
102
}
330
1A0
100
AcDbXrecord
280
     1
290
     1
  0
XRECORD
  5
1A3
102
{ACAD_REACTORS
330
1A2
102
}
330
1A2
100
AcDbXrecord
280
     1
290
     1
  0
XRECORD
  5
1A5
102
{ACAD_REACTORS
330
1A4
102
}
330
1A4
100
AcDbXrecord
280
     1
290
     1
  0
XRECORD
  5
1A7
102
{ACAD_REACTORS
330
1A6
102
}
330
1A6
100
AcDbXrecord
280
     1
290
     1
  0
XRECORD
  5
1A9
102
{ACAD_REACTORS
330
1A8
102
}
330
1A8
100
AcDbXrecord
280
     1
290
     1
  0
XRECORD
  5
1AB
102
{ACAD_REACTORS
330
1AA
102
}
330
1AA
100
AcDbXrecord
280
     1
290
     1
  0
XRECORD
  5
1AD
102
{ACAD_REACTORS
330
1AC
102
}
330
1AC
100
AcDbXrecord
280
     1
290
     1
  0
XRECORD
  5
1AF
102
{ACAD_REACTORS
330
1AE
102
}
330
1AE
100
AcDbXrecord
280
     1
290
     1
  0
XRECORD
  5
1B1
102
{ACAD_REACTORS
330
1B0
102
}
330
1B0
100
AcDbXrecord
280
     1
290
     1
  0
XRECORD
  5
1B3
102
{ACAD_REACTORS
330
1B2
102
}
330
1B2
100
AcDbXrecord
280
     1
290
     1
  0
XRECORD
  5
1B5
102
{ACAD_REACTORS
330
1B4
102
}
330
1B4
100
AcDbXrecord
280
     1
290
     1
  0
XRECORD
  5
1B7
102
{ACAD_REACTORS
330
1B6
102
}
330
1B6
100
AcDbXrecord
280
     1
290
     1
  0
XRECORD
  5
1B9
102
{ACAD_REACTORS
330
1B8
102
}
330
1B8
100
AcDbXrecord
280
     1
290
     1
  0
XRECORD
  5
1BB
102
{ACAD_REACTORS
330
1BA
102
}
330
1BA
100
AcDbXrecord
280
     1
290
     1
  0
XRECORD
  5
1BD
102
{ACAD_REACTORS
330
1BC
102
}
330
1BC
100
AcDbXrecord
280
     1
290
     1
  0
XRECORD
  5
1BF
102
{ACAD_REACTORS
330
1BE
102
}
330
1BE
100
AcDbXrecord
280
     1
290
     1
  0
XRECORD
  5
1C1
102
{ACAD_REACTORS
330
1C0
102
}
330
1C0
100
AcDbXrecord
280
     1
290
     1
  0
XRECORD
  5
1C3
102
{ACAD_REACTORS
330
1C2
102
}
330
1C2
100
AcDbXrecord
280
     1
290
     1
  0
XRECORD
  5
1C5
102
{ACAD_REACTORS
330
1C4
102
}
330
1C4
100
AcDbXrecord
280
     1
290
     1
  0
XRECORD
  5
1C7
102
{ACAD_REACTORS
330
1C6
102
}
330
1C6
100
AcDbXrecord
280
     1
290
     1
  0
LAYOUT
  5
184
102
{ACAD_XDICTIONARY
360
209
102
}
102
{ACAD_REACTORS
330
182
102
}
330
182
100
AcDbPlotSettings
  1

  2
Aucun(e)
  4

  6

 40
0.0
 41
0.0
 42
0.0
 43
0.0
 44
0.0
 45
0.0
 46
0.0
 47
0.0
 48
0.0
 49
0.0
140
0.0
141
0.0
142
1.0
143
1.0
 70
  1712
 72
     0
 73
     0
 74
     0
  7
acad.ctb
 75
     0
147
1.0
148
0.0
149
0.0
100
AcDbLayout
  1
Model
 70
     1
 71
     0
 10
0.0
 20
0.0
 11
12.0
 21
9.0
 12
0.0
 22
0.0
 32
0.0
 14
0.0
 24
0.0
 34
0.0
 15
0.0
 25
0.0
 35
0.0
146
0.0
 13
0.0
 23
0.0
 33
0.0
 16
1.0
 26
0.0
 36
0.0
 17
0.0
 27
1.0
 37
0.0
 76
     0
330
65
331
188
  0
LAYOUT
  5
185
102
{ACAD_XDICTIONARY
360
20B
102
}
102
{ACAD_REACTORS
330
182
102
}
330
182
100
AcDbPlotSettings
  1

  2
Aucun(e)
  4

  6

 40
0.0
 41
0.0
 42
0.0
 43
0.0
 44
0.0
 45
0.0
 46
0.0
 47
0.0
 48
0.0
 49
0.0
140
0.0
141
0.0
142
1.0
143
1.0
 70
   688
 72
     0
 73
     0
 74
     5
  7
acad.ctb
 75
    16
147
1.0
148
0.0
149
0.0
100
AcDbLayout
  1
Présentation1
 70
     1
 71
     1
 10
0.0
 20
0.0
 11
12.0
 21
9.0
 12
0.0
 22
0.0
 32
0.0
 14
1.000000000000000E+20
 24
1.000000000000000E+20
 34
1.000000000000000E+20
 15
-1.000000000000000E+20
 25
-1.000000000000000E+20
 35
-1.000000000000000E+20
146
0.0
 13
0.0
 23
0.0
 33
0.0
 16
1.0
 26
0.0
 36
0.0
 17
0.0
 27
1.0
 37
0.0
 76
     0
330
66
  0
MATERIAL
  5
141
102
{ACAD_XDICTIONARY
360
142
102
}
102
{ACAD_REACTORS
330
138
102
}
330
138
100
AcDbMaterial
  1
ByBlock
 72
     0
 43
0.0208333333333333
 43
0.0
 43
0.0
 43
0.0
 43
0.0
 43
0.0208333333333333
 43
0.0
 43
0.0
 43
0.0
 43
0.0
 43
1.0
 43
0.0
 43
0.0
 43
0.0
 43
0.0
 43
1.0
 77
     0
 47
0.0208333333333333
 47
0.0
 47
0.0
 47
0.0
 47
0.0
 47
0.0208333333333333
 47
0.0
 47
0.0
 47
0.0
 47
0.0
 47
1.0
 47
0.0
 47
0.0
 47
0.0
 47
0.0
 47
1.0
171
     0
 49
0.0208333333333333
 49
0.0
 49
0.0
 49
0.0
 49
0.0
 49
0.0208333333333333
 49
0.0
 49
0.0
 49
0.0
 49
0.0
 49
1.0
 49
0.0
 49
0.0
 49
0.0
 49
0.0
 49
1.0
175
     0
142
0.0208333333333333
142
0.0
142
0.0
142
0.0
142
0.0
142
0.0208333333333333
142
0.0
142
0.0
142
0.0
142
0.0
142
1.0
142
0.0
142
0.0
142
0.0
142
0.0
142
1.0
179
     0
144
0.0208333333333333
144
0.0
144
0.0
144
0.0
144
0.0
144
0.0208333333333333
144
0.0
144
0.0
144
0.0
144
0.0
144
1.0
144
0.0
144
0.0
144
0.0
144
0.0
144
1.0
147
0.0208333333333333
147
0.0
147
0.0
147
0.0
147
0.0
147
0.0208333333333333
147
0.0
147
0.0
147
0.0
147
0.0
147
1.0
147
0.0
147
0.0
147
0.0
147
0.0
147
1.0
  0
MATERIAL
  5
139
102
{ACAD_XDICTIONARY
360
13A
102
}
102
{ACAD_REACTORS
330
138
102
}
330
138
100
AcDbMaterial
  1
ByLayer
 72
     0
 43
0.0208333333333333
 43
0.0
 43
0.0
 43
0.0
 43
0.0
 43
0.0208333333333333
 43
0.0
 43
0.0
 43
0.0
 43
0.0
 43
1.0
 43
0.0
 43
0.0
 43
0.0
 43
0.0
 43
1.0
 77
     0
 47
0.0208333333333333
 47
0.0
 47
0.0
 47
0.0
 47
0.0
 47
0.0208333333333333
 47
0.0
 47
0.0
 47
0.0
 47
0.0
 47
1.0
 47
0.0
 47
0.0
 47
0.0
 47
0.0
 47
1.0
171
     0
 49
0.0208333333333333
 49
0.0
 49
0.0
 49
0.0
 49
0.0
 49
0.0208333333333333
 49
0.0
 49
0.0
 49
0.0
 49
0.0
 49
1.0
 49
0.0
 49
0.0
 49
0.0
 49
0.0
 49
1.0
175
     0
142
0.0208333333333333
142
0.0
142
0.0
142
0.0
142
0.0
142
0.0208333333333333
142
0.0
142
0.0
142
0.0
142
0.0
142
1.0
142
0.0
142
0.0
142
0.0
142
0.0
142
1.0
179
     0
144
0.0208333333333333
144
0.0
144
0.0
144
0.0
144
0.0
144
0.0208333333333333
144
0.0
144
0.0
144
0.0
144
0.0
144
1.0
144
0.0
144
0.0
144
0.0
144
0.0
144
1.0
147
0.0208333333333333
147
0.0
147
0.0
147
0.0
147
0.0
147
0.0208333333333333
147
0.0
147
0.0
147
0.0
147
0.0
147
1.0
147
0.0
147
0.0
147
0.0
147
0.0
147
1.0
  0
MATERIAL
  5
149
102
{ACAD_XDICTIONARY
360
14A
102
}
102
{ACAD_REACTORS
330
138
102
}
330
138
100
AcDbMaterial
  1
Global
 72
     0
 43
0.0208333333333333
 43
0.0
 43
0.0
 43
0.0
 43
0.0
 43
0.0208333333333333
 43
0.0
 43
0.0
 43
0.0
 43
0.0
 43
1.0
 43
0.0
 43
0.0
 43
0.0
 43
0.0
 43
1.0
 77
     0
 47
0.0208333333333333
 47
0.0
 47
0.0
 47
0.0
 47
0.0
 47
0.0208333333333333
 47
0.0
 47
0.0
 47
0.0
 47
0.0
 47
1.0
 47
0.0
 47
0.0
 47
0.0
 47
0.0
 47
1.0
171
     0
 49
0.0208333333333333
 49
0.0
 49
0.0
 49
0.0
 49
0.0
 49
0.0208333333333333
 49
0.0
 49
0.0
 49
0.0
 49
0.0
 49
1.0
 49
0.0
 49
0.0
 49
0.0
 49
0.0
 49
1.0
175
     0
142
0.0208333333333333
142
0.0
142
0.0
142
0.0
142
0.0
142
0.0208333333333333
142
0.0
142
0.0
142
0.0
142
0.0
142
1.0
142
0.0
142
0.0
142
0.0
142
0.0
142
1.0
179
     0
144
0.0208333333333333
144
0.0
144
0.0
144
0.0
144
0.0
144
0.0208333333333333
144
0.0
144
0.0
144
0.0
144
0.0
144
1.0
144
0.0
144
0.0
144
0.0
144
0.0
144
1.0
147
0.0208333333333333
147
0.0
147
0.0
147
0.0
147
0.0
147
0.0208333333333333
147
0.0
147
0.0
147
0.0
147
0.0
147
1.0
147
0.0
147
0.0
147
0.0
147
0.0
147
1.0
  0
MLEADERSTYLE
  5
180
102
{ACAD_REACTORS
330
17F
102
}
330
17F
100
AcDbMLeaderStyle
170
     2
171
     1
172
     0
 90
        2
 40
0.0
 41
0.0
173
     1
 91
-1056964608
340
32
 92
       -2
290
     1
 42
2.0
291
     1
 43
0.36
  3
Standard
 44
4.0
300

342
2D
174
     1
178
     6
175
     1
176
     0
 93
-1056964608
 45
4.0
292
     0
297
     0
 46
4.0
 94
-1056964608
 47
1.0
 49
1.0
140
1.0
293
     1
141
0.0
294
     1
177
     0
142
1.0
295
     0
296
     0
143
0.125
1001
ACAD_MLEADERVER
1070
     2
  0
MLINESTYLE
  5
4
330
3
100
AcDbMlineStyle
  2
STANDARD
 70
     0
  3

 62
     0
 51
90.0
 52
90.0
 71
     2
 49
0.5
 62
   256
  6
BYLAYER
 49
-0.5
 62
   256
  6
BYLAYER
  0
ACDBPLACEHOLDER
  5
137
102
{ACAD_REACTORS
330
136
102
}
330
136
  0
SCALE
  5
16E
102
{ACAD_REACTORS
330
16D
102
}
330
16D
100
AcDbScale
 70
     0
300
1:1
140
1.0
141
1.0
290
     1
  0
SCALE
  5
16F
102
{ACAD_REACTORS
330
16D
102
}
330
16D
100
AcDbScale
 70
     0
300
1:2
140
1.0
141
2.0
290
     0
  0
SCALE
  5
170
102
{ACAD_REACTORS
330
16D
102
}
330
16D
100
AcDbScale
 70
     0
300
1:4
140
1.0
141
4.0
290
     0
  0
SCALE
  5
171
102
{ACAD_REACTORS
330
16D
102
}
330
16D
100
AcDbScale
 70
     0
300
1:5
140
1.0
141
5.0
290
     0
  0
SCALE
  5
172
102
{ACAD_REACTORS
330
16D
102
}
330
16D
100
AcDbScale
 70
     0
300
1:8
140
1.0
141
8.0
290
     0
  0
SCALE
  5
173
102
{ACAD_REACTORS
330
16D
102
}
330
16D
100
AcDbScale
 70
     0
300
1:10
140
1.0
141
10.0
290
     0
  0
SCALE
  5
174
102
{ACAD_REACTORS
330
16D
102
}
330
16D
100
AcDbScale
 70
     0
300
1:16
140
1.0
141
16.0
290
     0
  0
SCALE
  5
175
102
{ACAD_REACTORS
330
16D
102
}
330
16D
100
AcDbScale
 70
     0
300
1:20
140
1.0
141
20.0
290
     0
  0
SCALE
  5
176
102
{ACAD_REACTORS
330
16D
102
}
330
16D
100
AcDbScale
 70
     0
300
1:30
140
1.0
141
30.0
290
     0
  0
SCALE
  5
177
102
{ACAD_REACTORS
330
16D
102
}
330
16D
100
AcDbScale
 70
     0
300
1:40
140
1.0
141
40.0
290
     0
  0
SCALE
  5
178
102
{ACAD_REACTORS
330
16D
102
}
330
16D
100
AcDbScale
 70
     0
300
1:50
140
1.0
141
50.0
290
     0
  0
SCALE
  5
179
102
{ACAD_REACTORS
330
16D
102
}
330
16D
100
AcDbScale
 70
     0
300
1:100
140
1.0
141
100.0
290
     0
  0
SCALE
  5
17A
102
{ACAD_REACTORS
330
16D
102
}
330
16D
100
AcDbScale
 70
     0
300
2:1
140
2.0
141
1.0
290
     0
  0
SCALE
  5
17B
102
{ACAD_REACTORS
330
16D
102
}
330
16D
100
AcDbScale
 70
     0
300
4:1
140
4.0
141
1.0
290
     0
  0
SCALE
  5
17C
102
{ACAD_REACTORS
330
16D
102
}
330
16D
100
AcDbScale
 70
     0
300
8:1
140
8.0
141
1.0
290
     0
  0
SCALE
  5
17D
102
{ACAD_REACTORS
330
16D
102
}
330
16D
100
AcDbScale
 70
     0
300
10:1
140
10.0
141
1.0
290
     0
  0
SCALE
  5
17E
102
{ACAD_REACTORS
330
16D
102
}
330
16D
100
AcDbScale
 70
     0
300
100:1
140
100.0
141
1.0
290
     0
  0
TABLESTYLE
  5
16C
102
{ACAD_XDICTIONARY
360
1D0
102
}
102
{ACAD_REACTORS
330
16B
102
}
330
16B
100
AcDbTableStyle
  3
Standard
 70
     0
 71
     0
 40
1.5
 41
1.5
280
     0
281
     0
  7
STANDARD
140
4.5
170
     2
 62
     0
 63
     7
283
     0
274
    -2
284
     1
 64
     0
275
    -2
285
     1
 65
     0
276
    -2
286
     1
 66
     0
277
    -2
287
     1
 67
     0
278
    -2
288
     1
 68
     0
279
    -2
289
     1
 69
     0
  7
STANDARD
140
6.0
170
     5
 62
     0
 63
     7
283
     0
274
    -2
284
     1
 64
     0
275
    -2
285
     1
 65
     0
276
    -2
286
     1
 66
     0
277
    -2
287
     1
 67
     0
278
    -2
288
     1
 68
     0
279
    -2
289
     1
 69
     0
  7
STANDARD
140
4.5
170
     5
 62
     0
 63
     7
283
     0
274
    -2
284
     1
 64
     0
275
    -2
285
     1
 65
     0
276
    -2
286
     1
 66
     0
277
    -2
287
     1
 67
     0
278
    -2
288
     1
 68
     0
279
    -2
289
     1
 69
     0
  0
VISUALSTYLE
  5
157
102
{ACAD_XDICTIONARY
360
1E1
102
}
102
{ACAD_REACTORS
330
151
102
}
330
151
100
AcDbVisualStyle
  2
2dWireframe
 70
     4
 71
     0
 72
     2
 73
     0
 90
        0
 40
-0.6
 41
-30.0
 62
     5
 63
     7
 74
     1
 91
        4
 64
     7
 65
   257
 75
     1
175
     1
 42
1.0
 92
        0
 66
   257
 43
1.0
 76
     1
 77
     6
 78
     2
 67
     7
 79
     5
170
     0
171
     0
290
     0
174
     0
 93
        1
 44
0.0
173
     0
291
     0
 45
0.0
1001
ACAD
1000
AcDbSavedByObjectVersion
1070
     0
  0
VISUALSTYLE
  5
156
102
{ACAD_XDICTIONARY
360
1DF
102
}
102
{ACAD_REACTORS
330
151
102
}
330
151
100
AcDbVisualStyle
  2
Basic
 70
     7
 71
     1
 72
     0
 73
     1
 90
        0
 40
-0.6
 41
-30.0
 62
     5
 63
     7
 74
     0
 91
        4
 64
     7
 65
   257
 75
     1
175
     1
 42
1.0
 92
        8
 66
     7
 43
1.0
 76
     1
 77
     6
 78
     2
 67
     7
 79
     5
170
     0
171
     0
290
     0
174
     0
 93
        1
 44
0.0
173
     0
291
     1
 45
0.0
1001
ACAD
1000
AcDbSavedByObjectVersion
1070
     0
  0
VISUALSTYLE
  5
15D
102
{ACAD_XDICTIONARY
360
1ED
102
}
102
{ACAD_REACTORS
330
151
102
}
330
151
100
AcDbVisualStyle
  2
Brighten
 70
    12
 71
     2
 72
     2
 73
     0
 90
        0
 40
-0.6
 41
-30.0
 62
     5
 63
     7
 74
     1
 91
        4
 64
     7
 65
   257
 75
     1
175
     1
 42
1.0
 92
        8
 66
     7
 43
1.0
 76
     1
 77
     6
 78
     2
 67
     7
 79
     5
170
     0
171
     0
290
     0
174
     0
 93
        1
 44
50.0
173
     0
291
     1
 45
0.0
1001
ACAD
1000
AcDbSavedByObjectVersion
1070
     0
  0
VISUALSTYLE
  5
161
102
{ACAD_XDICTIONARY
360
1F5
102
}
102
{ACAD_REACTORS
330
151
102
}
330
151
100
AcDbVisualStyle
  2
ColorChange
 70
    16
 71
     2
 72
     2
 73
     3
 90
        0
 40
-0.6
 41
-30.0
 62
     5
 63
     8
 74
     1
 91
        4
 64
     7
 65
   257
 75
     1
175
     1
 42
1.0
 92
        8
 66
     8
 43
1.0
 76
     1
 77
     6
 78
     2
 67
     7
 79
     5
170
     0
171
     0
290
     0
174
     0
 93
        1
 44
0.0
173
     0
291
     1
 45
0.0
1001
ACAD
1000
AcDbSavedByObjectVersion
1070
     0
  0
VISUALSTYLE
  5
15A
102
{ACAD_XDICTIONARY
360
1E7
102
}
102
{ACAD_REACTORS
330
151
102
}
330
151
100
AcDbVisualStyle
  2
Conceptual
 70
     9
 71
     3
 72
     2
 73
     0
 90
        0
 40
-0.6
 41
-30.0
 62
     5
 63
     7
 74
     2
 91
        2
 64
     7
 65
   257
 75
     1
175
     1
 42
179.0
 92
        8
 66
     7
 43
1.0
 76
     1
 77
     6
 78
     2
 67
     7
 79
     3
170
     0
171
     0
290
     0
174
     0
 93
        1
 44
0.0
173
     0
291
     0
 45
0.0
1001
ACAD
1000
AcDbSavedByObjectVersion
1070
     0
  0
VISUALSTYLE
  5
15C
102
{ACAD_XDICTIONARY
360
1EB
102
}
102
{ACAD_REACTORS
330
151
102
}
330
151
100
AcDbVisualStyle
  2
Dim
 70
    11
 71
     2
 72
     2
 73
     0
 90
        0
 40
-0.6
 41
-30.0
 62
     5
 63
     7
 74
     1
 91
        4
 64
     7
 65
   257
 75
     1
175
     1
 42
1.0
 92
        8
 66
     7
 43
1.0
 76
     1
 77
     6
 78
     2
 67
     7
 79
     5
170
     0
171
     0
290
     0
174
     0
 93
        1
 44
-50.0
173
     0
291
     1
 45
0.0
1001
ACAD
1000
AcDbSavedByObjectVersion
1070
     0
  0
VISUALSTYLE
  5
169
102
{ACAD_XDICTIONARY
360
205
102
}
102
{ACAD_REACTORS
330
151
102
}
330
151
100
AcDbVisualStyle
  2
EdgeColorOff
 70
    22
 71
     2
 72
     2
 73
     0
 90
        0
 40
-0.6
 41
-30.0
 62
     5
 63
     7
 74
     1
 91
        4
 64
     7
 65
   257
 75
     1
175
     1
 42
1.0
 92
        8
 66
     7
 43
1.0
 76
     1
 77
     6
 78
     2
 67
     7
 79
     5
170
     0
171
     0
290
     0
174
     0
 93
        1
 44
0.0
173
     0
291
     1
 45
0.0
1001
ACAD
1000
AcDbSavedByObjectVersion
1070
     0
  0
VISUALSTYLE
  5
160
102
{ACAD_XDICTIONARY
360
1F3
102
}
102
{ACAD_REACTORS
330
151
102
}
330
151
100
AcDbVisualStyle
  2
Facepattern
 70
    15
 71
     2
 72
     2
 73
     0
 90
        0
 40
-0.6
 41
-30.0
 62
     5
 63
     7
 74
     1
 91
        4
 64
     7
 65
   257
 75
     1
175
     1
 42
1.0
 92
        8
 66
     7
 43
1.0
 76
     1
 77
     6
 78
     2
 67
     7
 79
     5
170
     0
171
     0
290
     0
174
     0
 93
        1
 44
0.0
173
     0
291
     1
 45
0.0
1001
ACAD
1000
AcDbSavedByObjectVersion
1070
     0
  0
VISUALSTYLE
  5
152
102
{ACAD_XDICTIONARY
360
1D7
102
}
102
{ACAD_REACTORS
330
151
102
}
330
151
100
AcDbVisualStyle
  2
Flat
 70
     0
 71
     2
 72
     1
 73
     1
 90
        2
 40
-0.6
 41
30.0
 62
     5
 63
     7
 74
     0
 91
        0
 64
     7
 65
   257
 75
     1
175
     1
 42
1.0
 92
        8
 66
     7
 43
1.0
 76
     1
 77
     6
 78
     2
 67
     7
 79
     5
170
     0
171
     0
290
     0
174
     0
 93
       13
 44
0.0
173
     0
291
     1
 45
0.0
1001
ACAD
1000
AcDbSavedByObjectVersion
1070
     0
  0
VISUALSTYLE
  5
153
102
{ACAD_XDICTIONARY
360
1D9
102
}
102
{ACAD_REACTORS
330
151
102
}
330
151
100
AcDbVisualStyle
  2
FlatWithEdges
 70
     1
 71
     2
 72
     1
 73
     1
 90
        2
 40
-0.6
 41
30.0
 62
     5
 63
     7
 74
     1
 91
        0
 64
     7
 65
   257
 75
     1
175
     1
 42
1.0
 92
        0
 66
   257
 43
1.0
 76
     1
 77
     6
 78
     2
 67
     7
 79
     5
170
     0
171
     0
290
     0
174
     0
 93
       13
 44
0.0
173
     0
291
     1
 45
0.0
1001
ACAD
1000
AcDbSavedByObjectVersion
1070
     0
  0
VISUALSTYLE
  5
154
102
{ACAD_XDICTIONARY
360
1DB
102
}
102
{ACAD_REACTORS
330
151
102
}
330
151
100
AcDbVisualStyle
  2
Gouraud
 70
     2
 71
     2
 72
     2
 73
     1
 90
        2
 40
-0.6
 41
30.0
 62
     5
 63
     7
 74
     0
 91
        0
 64
     7
 65
   257
 75
     1
175
     1
 42
1.0
 92
        0
 66
     7
 43
1.0
 76
     1
 77
     6
 78
     2
 67
     7
 79
     5
170
     0
171
     0
290
     0
174
     0
 93
       13
 44
0.0
173
     0
291
     1
 45
0.0
1001
ACAD
1000
AcDbSavedByObjectVersion
1070
     0
  0
VISUALSTYLE
  5
155
102
{ACAD_XDICTIONARY
360
1DD
102
}
102
{ACAD_REACTORS
330
151
102
}
330
151
100
AcDbVisualStyle
  2
GouraudWithEdges
 70
     3
 71
     2
 72
     2
 73
     1
 90
        2
 40
-0.6
 41
30.0
 62
     5
 63
     7
 74
     1
 91
        0
 64
     7
 65
   257
 75
     1
175
     1
 42
1.0
 92
        0
 66
   257
 43
1.0
 76
     1
 77
     6
 78
     2
 67
     7
 79
     5
170
     0
171
     0
290
     0
174
     0
 93
       13
 44
0.0
173
     0
291
     1
 45
0.0
1001
ACAD
1000
AcDbSavedByObjectVersion
1070
     0
  0
VISUALSTYLE
  5
159
102
{ACAD_XDICTIONARY
360
1E5
102
}
102
{ACAD_REACTORS
330
151
102
}
330
151
100
AcDbVisualStyle
  2
Hidden
 70
     6
 71
     1
 72
     2
 73
     2
 90
        0
 40
-0.6
 41
-30.0
 62
     5
 63
     7
 74
     2
 91
        2
 64
     7
 65
   257
 75
     2
175
     1
 42
40.0
 92
        0
 66
   257
 43
1.0
 76
     1
 77
     6
 78
     2
 67
     7
 79
     3
170
     0
171
     0
290
     0
174
     0
 93
        1
 44
0.0
173
     0
291
     0
 45
0.0
1001
ACAD
1000
AcDbSavedByObjectVersion
1070
     0
  0
VISUALSTYLE
  5
167
102
{ACAD_XDICTIONARY
360
201
102
}
102
{ACAD_REACTORS
330
151
102
}
330
151
100
AcDbVisualStyle
  2
JitterOff
 70
    20
 71
     2
 72
     2
 73
     0
 90
        0
 40
-0.6
 41
-30.0
 62
     5
 63
     7
 74
     1
 91
        4
 64
     7
 65
   257
 75
     1
175
     1
 42
1.0
 92
       10
 66
     7
 43
1.0
 76
     1
 77
     6
 78
     2
 67
     7
 79
     5
170
     0
171
     0
290
     0
174
     0
 93
        1
 44
0.0
173
     0
291
     1
 45
0.0
1001
ACAD
1000
AcDbSavedByObjectVersion
1070
     0
  0
VISUALSTYLE
  5
15F
102
{ACAD_XDICTIONARY
360
1F1
102
}
102
{ACAD_REACTORS
330
151
102
}
330
151
100
AcDbVisualStyle
  2
Linepattern
 70
    14
 71
     2
 72
     2
 73
     0
 90
        0
 40
-0.6
 41
-30.0
 62
     5
 63
     7
 74
     1
 91
        4
 64
     7
 65
   257
 75
     7
175
     7
 42
1.0
 92
        8
 66
     7
 43
1.0
 76
     1
 77
     6
 78
     2
 67
     7
 79
     5
170
     0
171
     0
290
     0
174
     0
 93
        1
 44
0.0
173
     0
291
     1
 45
0.0
1001
ACAD
1000
AcDbSavedByObjectVersion
1070
     0
  0
VISUALSTYLE
  5
168
102
{ACAD_XDICTIONARY
360
203
102
}
102
{ACAD_REACTORS
330
151
102
}
330
151
100
AcDbVisualStyle
  2
OverhangOff
 70
    21
 71
     2
 72
     2
 73
     0
 90
        0
 40
-0.6
 41
-30.0
 62
     5
 63
     7
 74
     1
 91
        4
 64
     7
 65
   257
 75
     1
175
     1
 42
1.0
 92
        9
 66
     7
 43
1.0
 76
     1
 77
     6
 78
     2
 67
     7
 79
     5
170
     0
171
     0
290
     0
174
     0
 93
        1
 44
0.0
173
     0
291
     1
 45
0.0
1001
ACAD
1000
AcDbSavedByObjectVersion
1070
     0
  0
VISUALSTYLE
  5
15B
102
{ACAD_XDICTIONARY
360
1E9
102
}
102
{ACAD_REACTORS
330
151
102
}
330
151
100
AcDbVisualStyle
  2
Realistic
 70
     8
 71
     2
 72
     3
 73
     0
 90
        2
 40
-0.6
 41
30.0
 62
     5
 63
     7
 74
     0
 91
        0
 64
     7
 65
   257
 75
     1
175
     1
 42
1.0
 92
        8
 66
   257
 43
1.0
 76
     1
 77
     6
 78
     2
 67
     7
 79
     3
170
     0
171
     0
290
     0
174
     0
 93
       13
 44
0.0
173
     0
291
     0
 45
0.0
1001
ACAD
1000
AcDbSavedByObjectVersion
1070
     0
  0
VISUALSTYLE
  5
166
102
{ACAD_XDICTIONARY
360
1FF
102
}
102
{ACAD_REACTORS
330
151
102
}
330
151
100
AcDbVisualStyle
  2
Shaded
 70
    27
 71
     2
 72
     2
 73
     1
 90
        2
 40
-0.6
 41
30.0
 62
     5
 63
     7
 74
     0
 91
        4
 64
     7
 65
   257
 75
     1
175
     1
 42
1.0
 92
        8
 66
   257
 43
1.0
 76
     1
 77
     6
 78
     2
 67
     8
 79
     3
170
     0
171
     0
290
     0
174
     0
 93
        5
 44
0.0
173
     0
291
     0
 45
0.0
1001
ACAD
1000
AcDbSavedByObjectVersion
1070
     0
  0
VISUALSTYLE
  5
165
102
{ACAD_XDICTIONARY
360
1FD
102
}
102
{ACAD_REACTORS
330
151
102
}
330
151
100
AcDbVisualStyle
  2
Shaded with edges
 70
    26
 71
     2
 72
     2
 73
     1
 90
        2
 40
-0.6
 41
30.0
 62
     5
 63
     7
 74
     1
 91
       10
 64
     7
 65
   257
 75
     2
175
     1
 42
1.0
 92
        8
 66
   257
 43
1.0
 76
     1
 77
     6
 78
     2
 67
     7
 79
     3
170
     0
171
     0
290
     0
174
     0
 93
        5
 44
0.0
173
     0
291
     0
 45
0.0
1001
ACAD
1000
AcDbSavedByObjectVersion
1070
     0
  0
VISUALSTYLE
  5
162
102
{ACAD_XDICTIONARY
360
1F7
102
}
102
{ACAD_REACTORS
330
151
102
}
330
151
100
AcDbVisualStyle
  2
Shades of Gray
 70
    23
 71
     2
 72
     2
 73
     3
 90
        0
 40
-0.6
 41
-30.0
 62
     5
 63
     7
 74
     2
 91
        2
 64
     7
 65
     7
 75
     1
175
     1
 42
40.0
 92
        8
 66
     7
 43
1.0
 76
     1
 77
     6
 78
     2
 67
     7
 79
     3
170
     0
171
     0
290
     0
174
     0
 93
        1
 44
0.0
173
     0
291
     0
 45
0.0
1001
ACAD
1000
AcDbSavedByObjectVersion
1070
     0
  0
VISUALSTYLE
  5
163
102
{ACAD_XDICTIONARY
360
1F9
102
}
102
{ACAD_REACTORS
330
151
102
}
330
151
100
AcDbVisualStyle
  2
Sketchy
 70
    24
 71
     1
 72
     2
 73
     2
 90
        0
 40
-0.6
 41
-30.0
 62
     5
 63
     7
 74
     2
 91
        2
 64
     7
 65
     7
 75
     1
175
     1
 42
40.0
 92
       11
 66
     7
 43
1.0
 76
     1
 77
     6
 78
     2
 67
     7
 79
     6
170
     0
171
     0
290
     0
174
     0
 93
        1
 44
0.0
173
     0
291
     0
 45
0.0
1001
ACAD
1000
AcDbSavedByObjectVersion
1070
     0
  0
VISUALSTYLE
  5
15E
102
{ACAD_XDICTIONARY
360
1EF
102
}
102
{ACAD_REACTORS
330
151
102
}
330
151
100
AcDbVisualStyle
  2
Thicken
 70
    13
 71
     2
 72
     2
 73
     0
 90
        0
 40
-0.6
 41
-30.0
 62
     5
 63
     7
 74
     1
 91
        4
 64
     7
 65
   257
 75
     1
175
     1
 42
1.0
 92
       12
 66
     7
 43
1.0
 76
     1
 77
     6
 78
     2
 67
     7
 79
     5
170
     0
171
     0
290
     0
174
     0
 93
        1
 44
0.0
173
     0
291
     1
 45
0.0
1001
ACAD
1000
AcDbSavedByObjectVersion
1070
     0
  0
VISUALSTYLE
  5
158
102
{ACAD_XDICTIONARY
360
1E3
102
}
102
{ACAD_REACTORS
330
151
102
}
330
151
100
AcDbVisualStyle
  2
Wireframe
 70
     5
 71
     0
 72
     2
 73
     0
 90
        0
 40
-0.6
 41
-30.0
 62
     5
 63
     7
 74
     1
 91
        4
 64
     7
 65
   257
 75
     1
175
     1
 42
1.0
 92
        0
 66
   257
 43
1.0
 76
     1
 77
     6
 78
     2
 67
     7
 79
     3
170
     0
171
     0
290
     0
174
     0
 93
        1
 44
0.0
173
     0
291
     0
 45
0.0
1001
ACAD
1000
AcDbSavedByObjectVersion
1070
     0
  0
VISUALSTYLE
  5
164
102
{ACAD_XDICTIONARY
360
1FB
102
}
102
{ACAD_REACTORS
330
151
102
}
330
151
100
AcDbVisualStyle
  2
X-Ray
 70
    25
 71
     2
 72
     2
 73
     1
 90
        1
 40
0.5
 41
-30.0
 62
     5
 63
     7
 74
     1
 91
        0
 64
     7
 65
   257
 75
     1
175
     1
 42
1.0
 92
        8
 66
     7
 43
1.0
 76
     1
 77
     6
 78
     2
 67
     7
 79
     3
170
     0
171
     0
290
     0
174
     0
 93
       13
 44
0.0
173
     0
291
     0
 45
0.0
1001
ACAD
1000
AcDbSavedByObjectVersion
1070
     0
  0
DICTIONARYVAR
  5
1CB
102
{ACAD_REACTORS
330
1C8
102
}
330
1C8
100
DictionaryVariables
280
     0
  1
1:1
  0
DICTIONARYVAR
  5
1CA
102
{ACAD_REACTORS
330
1C8
102
}
330
1C8
100
DictionaryVariables
280
     0
  1
STANDARD
  0
DICTIONARYVAR
  5
1C9
102
{ACAD_REACTORS
330
1C8
102
}
330
1C8
100
DictionaryVariables
280
     0
  1
STANDARD
  0
DICTIONARYVAR
  5
1CE
102
{ACAD_REACTORS
330
1C8
102
}
330
1C8
100
DictionaryVariables
280
     0
  1
1
  0
DICTIONARYVAR
  5
1CD
102
{ACAD_REACTORS
330
1C8
102
}
330
1C8
100
DictionaryVariables
280
     0
  1
0
  0
DICTIONARYVAR
  5
1CC
102
{ACAD_REACTORS
330
1C8
102
}
330
1C8
100
DictionaryVariables
280
     0
  1
127
  0
DICTIONARYVAR
  5
1CF
102
{ACAD_REACTORS
330
1C8
102
}
330
1C8
100
DictionaryVariables
280
     0
  1
2
  0
DICTIONARY
  5
209
330
184
100
AcDbDictionary
280
     1
281
     1
  3
ACAD_XREC_ROUNDTRIP
360
20A
  0
DICTIONARY
  5
20B
330
185
100
AcDbDictionary
280
     1
281
     1
  3
ACAD_XREC_ROUNDTRIP
360
20C
  0
DICTIONARY
  5
142
330
141
100
AcDbDictionary
280
     1
281
     1
  3
ACAD_XREC_ROUNDTRIP
360
1D5
  3
BUMPTILE
360
144
  3
DIFFUSETILE
360
143
  3
OPACITYTILE
360
147
  3
REFLECTIONTILE
360
146
  3
REFRACTIONTILE
360
148
  3
SPECULARTILE
360
145
  0
DICTIONARY
  5
13A
330
139
100
AcDbDictionary
280
     1
281
     1
  3
ACAD_XREC_ROUNDTRIP
360
1D4
  3
BUMPTILE
360
13C
  3
DIFFUSETILE
360
13B
  3
OPACITYTILE
360
13F
  3
REFLECTIONTILE
360
13E
  3
REFRACTIONTILE
360
140
  3
SPECULARTILE
360
13D
  0
DICTIONARY
  5
14A
330
149
100
AcDbDictionary
280
     1
281
     1
  3
ACAD_XREC_ROUNDTRIP
360
1D6
  3
BUMPTILE
360
14C
  3
DIFFUSETILE
360
14B
  3
OPACITYTILE
360
14F
  3
REFLECTIONTILE
360
14E
  3
REFRACTIONTILE
360
150
  3
SPECULARTILE
360
14D
  0
DICTIONARY
  5
1D0
330
16C
100
AcDbDictionary
280
     1
281
     1
  3
ACAD_ROUNDTRIP_2008_TABLESTYLE_CELLSTYLEMAP
360
1D1
  3
ACAD_XREC_ROUNDTRIP
360
207
  0
DICTIONARY
  5
1E1
330
157
100
AcDbDictionary
280
     1
281
     1
  3
ACAD_XREC_ROUNDTRIP
360
1E2
  0
DICTIONARY
  5
1DF
330
156
100
AcDbDictionary
280
     1
281
     1
  3
ACAD_XREC_ROUNDTRIP
360
1E0
  0
DICTIONARY
  5
1ED
330
15D
100
AcDbDictionary
280
     1
281
     1
  3
ACAD_XREC_ROUNDTRIP
360
1EE
  0
DICTIONARY
  5
1F5
330
161
100
AcDbDictionary
280
     1
281
     1
  3
ACAD_XREC_ROUNDTRIP
360
1F6
  0
DICTIONARY
  5
1E7
330
15A
100
AcDbDictionary
280
     1
281
     1
  3
ACAD_XREC_ROUNDTRIP
360
1E8
  0
DICTIONARY
  5
1EB
330
15C
100
AcDbDictionary
280
     1
281
     1
  3
ACAD_XREC_ROUNDTRIP
360
1EC
  0
DICTIONARY
  5
205
330
169
100
AcDbDictionary
280
     1
281
     1
  3
ACAD_XREC_ROUNDTRIP
360
206
  0
DICTIONARY
  5
1F3
330
160
100
AcDbDictionary
280
     1
281
     1
  3
ACAD_XREC_ROUNDTRIP
360
1F4
  0
DICTIONARY
  5
1D7
330
152
100
AcDbDictionary
280
     1
281
     1
  3
ACAD_XREC_ROUNDTRIP
360
1D8
  0
DICTIONARY
  5
1D9
330
153
100
AcDbDictionary
280
     1
281
     1
  3
ACAD_XREC_ROUNDTRIP
360
1DA
  0
DICTIONARY
  5
1DB
330
154
100
AcDbDictionary
280
     1
281
     1
  3
ACAD_XREC_ROUNDTRIP
360
1DC
  0
DICTIONARY
  5
1DD
330
155
100
AcDbDictionary
280
     1
281
     1
  3
ACAD_XREC_ROUNDTRIP
360
1DE
  0
DICTIONARY
  5
1E5
330
159
100
AcDbDictionary
280
     1
281
     1
  3
ACAD_XREC_ROUNDTRIP
360
1E6
  0
DICTIONARY
  5
201
330
167
100
AcDbDictionary
280
     1
281
     1
  3
ACAD_XREC_ROUNDTRIP
360
202
  0
DICTIONARY
  5
1F1
330
15F
100
AcDbDictionary
280
     1
281
     1
  3
ACAD_XREC_ROUNDTRIP
360
1F2
  0
DICTIONARY
  5
203
330
168
100
AcDbDictionary
280
     1
281
     1
  3
ACAD_XREC_ROUNDTRIP
360
204
  0
DICTIONARY
  5
1E9
330
15B
100
AcDbDictionary
280
     1
281
     1
  3
ACAD_XREC_ROUNDTRIP
360
1EA
  0
DICTIONARY
  5
1FF
330
166
100
AcDbDictionary
280
     1
281
     1
  3
ACAD_XREC_ROUNDTRIP
360
200
  0
DICTIONARY
  5
1FD
330
165
100
AcDbDictionary
280
     1
281
     1
  3
ACAD_XREC_ROUNDTRIP
360
1FE
  0
DICTIONARY
  5
1F7
330
162
100
AcDbDictionary
280
     1
281
     1
  3
ACAD_XREC_ROUNDTRIP
360
1F8
  0
DICTIONARY
  5
1F9
330
163
100
AcDbDictionary
280
     1
281
     1
  3
ACAD_XREC_ROUNDTRIP
360
1FA
  0
DICTIONARY
  5
1EF
330
15E
100
AcDbDictionary
280
     1
281
     1
  3
ACAD_XREC_ROUNDTRIP
360
1F0
  0
DICTIONARY
  5
1E3
330
158
100
AcDbDictionary
280
     1
281
     1
  3
ACAD_XREC_ROUNDTRIP
360
1E4
  0
DICTIONARY
  5
1FB
330
164
100
AcDbDictionary
280
     1
281
     1
  3
ACAD_XREC_ROUNDTRIP
360
1FC
  0
XRECORD
  5
20A
102
{ACAD_REACTORS
330
209
102
}
330
209
100
AcDbXrecord
280
     1
102
SHADEPLOT
 70
     0
102
SHADEPLOTRESLEVEL
 70
     2
102
SHADEPLOTCUSTOMDPI
 70
   300
  0
XRECORD
  5
20C
102
{ACAD_REACTORS
330
20B
102
}
330
20B
100
AcDbXrecord
280
     1
102
SHADEPLOT
 70
     0
102
SHADEPLOTRESLEVEL
 70
     2
102
SHADEPLOTCUSTOMDPI
 70
   300
  0
XRECORD
  5
1D5
102
{ACAD_REACTORS
330
142
102
}
330
142
100
AcDbXrecord
280
     1
102
MATERIAL
148
0.0
149
0.0
149
0.0
 93
        0
 94
      127
282
     0
 72
     0
 77
     0
171
     0
175
     0
179
     0
273
     0
  0
XRECORD
  5
144
102
{ACAD_REACTORS
330
142
102
}
330
142
100
AcDbXrecord
280
     1
270
     1
271
     1
  0
XRECORD
  5
143
102
{ACAD_REACTORS
330
142
102
}
330
142
100
AcDbXrecord
280
     1
270
     1
271
     1
  0
XRECORD
  5
147
102
{ACAD_REACTORS
330
142
102
}
330
142
100
AcDbXrecord
280
     1
270
     1
271
     1
  0
XRECORD
  5
146
102
{ACAD_REACTORS
330
142
102
}
330
142
100
AcDbXrecord
280
     1
270
     1
271
     1
  0
XRECORD
  5
148
102
{ACAD_REACTORS
330
142
102
}
330
142
100
AcDbXrecord
280
     1
270
     1
271
     1
  0
XRECORD
  5
145
102
{ACAD_REACTORS
330
142
102
}
330
142
100
AcDbXrecord
280
     1
270
     1
271
     1
  0
XRECORD
  5
1D4
102
{ACAD_REACTORS
330
13A
102
}
330
13A
100
AcDbXrecord
280
     1
102
MATERIAL
148
0.0
149
0.0
149
0.0
 93
        0
 94
      127
282
     0
 72
     0
 77
     0
171
     0
175
     0
179
     0
273
     0
  0
XRECORD
  5
13C
102
{ACAD_REACTORS
330
13A
102
}
330
13A
100
AcDbXrecord
280
     1
270
     1
271
     1
  0
XRECORD
  5
13B
102
{ACAD_REACTORS
330
13A
102
}
330
13A
100
AcDbXrecord
280
     1
270
     1
271
     1
  0
XRECORD
  5
13F
102
{ACAD_REACTORS
330
13A
102
}
330
13A
100
AcDbXrecord
280
     1
270
     1
271
     1
  0
XRECORD
  5
13E
102
{ACAD_REACTORS
330
13A
102
}
330
13A
100
AcDbXrecord
280
     1
270
     1
271
     1
  0
XRECORD
  5
140
102
{ACAD_REACTORS
330
13A
102
}
330
13A
100
AcDbXrecord
280
     1
270
     1
271
     1
  0
XRECORD
  5
13D
102
{ACAD_REACTORS
330
13A
102
}
330
13A
100
AcDbXrecord
280
     1
270
     1
271
     1
  0
XRECORD
  5
1D6
102
{ACAD_REACTORS
330
14A
102
}
330
14A
100
AcDbXrecord
280
     1
102
MATERIAL
148
0.0
149
0.0
149
0.0
 93
        0
 94
      127
282
     0
 72
     0
 77
     0
171
     0
175
     0
179
     0
273
     0
  0
XRECORD
  5
14C
102
{ACAD_REACTORS
330
14A
102
}
330
14A
100
AcDbXrecord
280
     1
270
     1
271
     1
  0
XRECORD
  5
14B
102
{ACAD_REACTORS
330
14A
102
}
330
14A
100
AcDbXrecord
280
     1
270
     1
271
     1
  0
XRECORD
  5
14F
102
{ACAD_REACTORS
330
14A
102
}
330
14A
100
AcDbXrecord
280
     1
270
     1
271
     1
  0
XRECORD
  5
14E
102
{ACAD_REACTORS
330
14A
102
}
330
14A
100
AcDbXrecord
280
     1
270
     1
271
     1
  0
XRECORD
  5
150
102
{ACAD_REACTORS
330
14A
102
}
330
14A
100
AcDbXrecord
280
     1
270
     1
271
     1
  0
XRECORD
  5
14D
102
{ACAD_REACTORS
330
14A
102
}
330
14A
100
AcDbXrecord
280
     1
270
     1
271
     1
  0
CELLSTYLEMAP
  5
1D1
102
{ACAD_REACTORS
330
1D0
102
}
330
1D0
100
AcDbCellStyleMap
 90
        3
300
CELLSTYLE
  1
TABLEFORMAT_BEGIN
 90
        5
170
     1
 91
        0
 92
    32768
 62
   257
 93
        1
300
CONTENTFORMAT
  1
CONTENTFORMAT_BEGIN
 90
        0
 91
        0
 92
      512
 93
        0
300

 40
0.0
140
1.0
 94
        5
 62
     0
340
2D
144
6.0
309
CONTENTFORMAT_END
171
     1
301
MARGIN
  1
CELLMARGIN_BEGIN
 40
1.5
 40
1.5
 40
1.5
 40
1.5
 40
4.5
 40
4.5
309
CELLMARGIN_END
 94
        6
 95
        1
302
GRIDFORMAT
  1
GRIDFORMAT_BEGIN
 90
        0
 91
        1
 62
     0
 92
       -2
340
0
 93
        0
 40
1.125
309
GRIDFORMAT_END
 95
        2
302
GRIDFORMAT
  1
GRIDFORMAT_BEGIN
 90
        0
 91
        1
 62
     0
 92
       -2
340
0
 93
        0
 40
1.125
309
GRIDFORMAT_END
 95
        4
302
GRIDFORMAT
  1
GRIDFORMAT_BEGIN
 90
        0
 91
        1
 62
     0
 92
       -2
340
0
 93
        0
 40
1.125
309
GRIDFORMAT_END
 95
        8
302
GRIDFORMAT
  1
GRIDFORMAT_BEGIN
 90
        0
 91
        1
 62
     0
 92
       -2
340
0
 93
        0
 40
1.125
309
GRIDFORMAT_END
 95
       16
302
GRIDFORMAT
  1
GRIDFORMAT_BEGIN
 90
        0
 91
        1
 62
     0
 92
       -2
340
0
 93
        0
 40
1.125
309
GRIDFORMAT_END
 95
       32
302
GRIDFORMAT
  1
GRIDFORMAT_BEGIN
 90
        0
 91
        1
 62
     0
 92
       -2
340
0
 93
        0
 40
1.125
309
GRIDFORMAT_END
309
TABLEFORMAT_END
  1
CELLSTYLE_BEGIN
 90
        1
 91
        1
300
_TITLE
309
CELLSTYLE_END
300
CELLSTYLE
  1
TABLEFORMAT_BEGIN
 90
        5
170
     1
 91
        0
 92
        0
 62
   257
 93
        1
300
CONTENTFORMAT
  1
CONTENTFORMAT_BEGIN
 90
        0
 91
        0
 92
      512
 93
        0
300

 40
0.0
140
1.0
 94
        5
 62
     0
340
2D
144
4.5
309
CONTENTFORMAT_END
171
     1
301
MARGIN
  1
CELLMARGIN_BEGIN
 40
1.5
 40
1.5
 40
1.5
 40
1.5
 40
4.5
 40
4.5
309
CELLMARGIN_END
 94
        6
 95
        1
302
GRIDFORMAT
  1
GRIDFORMAT_BEGIN
 90
        0
 91
        1
 62
     0
 92
       -2
340
0
 93
        0
 40
1.125
309
GRIDFORMAT_END
 95
        2
302
GRIDFORMAT
  1
GRIDFORMAT_BEGIN
 90
        0
 91
        1
 62
     0
 92
       -2
340
0
 93
        0
 40
1.125
309
GRIDFORMAT_END
 95
        4
302
GRIDFORMAT
  1
GRIDFORMAT_BEGIN
 90
        0
 91
        1
 62
     0
 92
       -2
340
0
 93
        0
 40
1.125
309
GRIDFORMAT_END
 95
        8
302
GRIDFORMAT
  1
GRIDFORMAT_BEGIN
 90
        0
 91
        1
 62
     0
 92
       -2
340
0
 93
        0
 40
1.125
309
GRIDFORMAT_END
 95
       16
302
GRIDFORMAT
  1
GRIDFORMAT_BEGIN
 90
        0
 91
        1
 62
     0
 92
       -2
340
0
 93
        0
 40
1.125
309
GRIDFORMAT_END
 95
       32
302
GRIDFORMAT
  1
GRIDFORMAT_BEGIN
 90
        0
 91
        1
 62
     0
 92
       -2
340
0
 93
        0
 40
1.125
309
GRIDFORMAT_END
309
TABLEFORMAT_END
  1
CELLSTYLE_BEGIN
 90
        2
 91
        1
300
_HEADER
309
CELLSTYLE_END
300
CELLSTYLE
  1
TABLEFORMAT_BEGIN
 90
        5
170
     1
 91
        0
 92
        0
 62
   257
 93
        1
300
CONTENTFORMAT
  1
CONTENTFORMAT_BEGIN
 90
        0
 91
        0
 92
      512
 93
        0
300

 40
0.0
140
1.0
 94
        2
 62
     0
340
2D
144
4.5
309
CONTENTFORMAT_END
171
     1
301
MARGIN
  1
CELLMARGIN_BEGIN
 40
1.5
 40
1.5
 40
1.5
 40
1.5
 40
4.5
 40
4.5
309
CELLMARGIN_END
 94
        6
 95
        1
302
GRIDFORMAT
  1
GRIDFORMAT_BEGIN
 90
        0
 91
        1
 62
     0
 92
       -2
340
0
 93
        0
 40
1.125
309
GRIDFORMAT_END
 95
        2
302
GRIDFORMAT
  1
GRIDFORMAT_BEGIN
 90
        0
 91
        1
 62
     0
 92
       -2
340
0
 93
        0
 40
1.125
309
GRIDFORMAT_END
 95
        4
302
GRIDFORMAT
  1
GRIDFORMAT_BEGIN
 90
        0
 91
        1
 62
     0
 92
       -2
340
0
 93
        0
 40
1.125
309
GRIDFORMAT_END
 95
        8
302
GRIDFORMAT
  1
GRIDFORMAT_BEGIN
 90
        0
 91
        1
 62
     0
 92
       -2
340
0
 93
        0
 40
1.125
309
GRIDFORMAT_END
 95
       16
302
GRIDFORMAT
  1
GRIDFORMAT_BEGIN
 90
        0
 91
        1
 62
     0
 92
       -2
340
0
 93
        0
 40
1.125
309
GRIDFORMAT_END
 95
       32
302
GRIDFORMAT
  1
GRIDFORMAT_BEGIN
 90
        0
 91
        1
 62
     0
 92
       -2
340
0
 93
        0
 40
1.125
309
GRIDFORMAT_END
309
TABLEFORMAT_END
  1
CELLSTYLE_BEGIN
 90
        3
 91
        2
300
_DATA
309
CELLSTYLE_END
  0
XRECORD
  5
207
102
{ACAD_REACTORS
330
1D0
102
}
330
1D0
100
AcDbXrecord
280
     1
102
ACAD_ROUNDTRIP_PRE2007_TABLESTYLE
 90
      512
 91
        0
  1

 92
      512
 93
        0
  2

 94
      512
 95
        0
  3

  0
XRECORD
  5
1E2
102
{ACAD_REACTORS
330
1E1
102
}
330
1E1
100
AcDbXrecord
280
     1
102
RTVSPropertyOp0
 70
     1
102
RTVSPropertyOp1
 70
     1
102
RTVSPropertyOp2
 70
     1
102
RTVSPropertyOp3
 70
     1
102
RTVSPropertyOp4
 70
     1
102
RTVSPropertyOp5
 70
     1
102
RTVSPropertyOp6
 70
     1
102
RTVSPropertyOp7
 70
     1
102
RTVSPropertyOp8
 70
     1
102
RTVSPropertyOp9
 70
     1
102
RTVSPropertyOp10
 70
     1
102
RTVSPropertyOp11
 70
     1
102
RTVSPropertyOp12
 70
     1
102
RTVSPropertyOp13
 70
     1
102
RTVSPropertyOp14
 70
     1
102
RTVSPropertyOp15
 70
     1
102
RTVSPropertyOp16
 70
     1
102
RTVSPropertyOp17
 70
     1
102
RTVSPropertyOp18
 70
     1
102
RTVSPropertyOp19
 70
     1
102
RTVSPropertyOp20
 70
     1
102
RTVSPropertyOp21
 70
     1
102
RTVSPropertyOp22
 70
     1
102
RTVSPropertyOp23
 70
     1
102
RTVSPropertyOp24
 70
     1
102
RTVSPropertyOp25
 70
     1
102
RTVSPropertyOp26
 70
     1
102
RTVSPropertyOp27
 70
     1
102
RTVSPropertyOp28
 70
     1
102
RTVSPropertyOp29
 70
     1
102
RTVSPropertyOp30
 70
     1
102
RTVSPropertyOp31
 70
     1
102
RTVSPropertyOp32
 70
     1
  0
XRECORD
  5
1E0
102
{ACAD_REACTORS
330
1DF
102
}
330
1DF
100
AcDbXrecord
280
     1
102
RTVSPropertyOp0
 70
     1
102
RTVSPropertyOp1
 70
     1
102
RTVSPropertyOp2
 70
     1
102
RTVSPropertyOp3
 70
     1
102
RTVSPropertyOp4
 70
     1
102
RTVSPropertyOp5
 70
     1
102
RTVSPropertyOp6
 70
     1
102
RTVSPropertyOp7
 70
     1
102
RTVSPropertyOp8
 70
     1
102
RTVSPropertyOp9
 70
     1
102
RTVSPropertyOp10
 70
     1
102
RTVSPropertyOp11
 70
     1
102
RTVSPropertyOp12
 70
     1
102
RTVSPropertyOp13
 70
     1
102
RTVSPropertyOp14
 70
     1
102
RTVSPropertyOp15
 70
     1
102
RTVSPropertyOp16
 70
     1
102
RTVSPropertyOp17
 70
     1
102
RTVSPropertyOp18
 70
     1
102
RTVSPropertyOp19
 70
     1
102
RTVSPropertyOp20
 70
     1
102
RTVSPropertyOp21
 70
     1
102
RTVSPropertyOp22
 70
     1
102
RTVSPropertyOp23
 70
     1
102
RTVSPropertyOp24
 70
     1
102
RTVSPropertyOp25
 70
     1
102
RTVSPropertyOp26
 70
     1
102
RTVSPropertyOp27
 70
     1
102
RTVSPropertyOp28
 70
     1
102
RTVSPropertyOp29
 70
     1
102
RTVSPropertyOp30
 70
     1
102
RTVSPropertyOp31
 70
     1
102
RTVSPropertyOp32
 70
     1
  0
XRECORD
  5
1EE
102
{ACAD_REACTORS
330
1ED
102
}
330
1ED
100
AcDbXrecord
280
     1
102
RTVSPropertyOp0
 70
     1
102
RTVSPropertyOp1
 70
     1
102
RTVSPropertyOp2
 70
     1
102
RTVSPropertyOp3
 70
     1
102
RTVSPropertyOp4
 70
     1
102
RTVSPropertyOp5
 70
     1
102
RTVSPropertyOp6
 70
     1
102
RTVSPropertyOp7
 70
     1
102
RTVSPropertyOp8
 70
     1
102
RTVSPropertyOp9
 70
     1
102
RTVSPropertyOp10
 70
     1
102
RTVSPropertyOp11
 70
     1
102
RTVSPropertyOp12
 70
     1
102
RTVSPropertyOp13
 70
     1
102
RTVSPropertyOp14
 70
     1
102
RTVSPropertyOp15
 70
     1
102
RTVSPropertyOp16
 70
     1
102
RTVSPropertyOp17
 70
     1
102
RTVSPropertyOp18
 70
     1
102
RTVSPropertyOp19
 70
     1
102
RTVSPropertyOp20
 70
     1
102
RTVSPropertyOp21
 70
     1
102
RTVSPropertyOp22
 70
     1
102
RTVSPropertyOp23
 70
     1
102
RTVSPropertyOp24
 70
     1
102
RTVSPropertyOp25
 70
     1
102
RTVSPropertyOp26
 70
     1
102
RTVSPropertyOp27
 70
     1
102
RTVSPropertyOp28
 70
     1
102
RTVSPropertyOp29
 70
     1
102
RTVSPropertyOp30
 70
     1
102
RTVSPropertyOp31
 70
     1
102
RTVSPropertyOp32
 70
     1
  0
XRECORD
  5
1F6
102
{ACAD_REACTORS
330
1F5
102
}
330
1F5
100
AcDbXrecord
280
     1
102
RTVSPropertyOp0
 70
     1
102
RTVSPropertyOp1
 70
     1
102
RTVSPropertyOp2
 70
     1
102
RTVSPropertyOp3
 70
     1
102
RTVSPropertyOp4
 70
     1
102
RTVSPropertyOp5
 70
     1
102
RTVSPropertyOp6
 70
     1
102
RTVSPropertyOp7
 70
     1
102
RTVSPropertyOp8
 70
     1
102
RTVSPropertyOp9
 70
     1
102
RTVSPropertyOp10
 70
     1
102
RTVSPropertyOp11
 70
     1
102
RTVSPropertyOp12
 70
     1
102
RTVSPropertyOp13
 70
     1
102
RTVSPropertyOp14
 70
     1
102
RTVSPropertyOp15
 70
     1
102
RTVSPropertyOp16
 70
     1
102
RTVSPropertyOp17
 70
     1
102
RTVSPropertyOp18
 70
     1
102
RTVSPropertyOp19
 70
     1
102
RTVSPropertyOp20
 70
     1
102
RTVSPropertyOp21
 70
     1
102
RTVSPropertyOp22
 70
     1
102
RTVSPropertyOp23
 70
     1
102
RTVSPropertyOp24
 70
     1
102
RTVSPropertyOp25
 70
     1
102
RTVSPropertyOp26
 70
     1
102
RTVSPropertyOp27
 70
     1
102
RTVSPropertyOp28
 70
     1
102
RTVSPropertyOp29
 70
     1
102
RTVSPropertyOp30
 70
     1
102
RTVSPropertyOp31
 70
     1
102
RTVSPropertyOp32
 70
     1
  0
XRECORD
  5
1E8
102
{ACAD_REACTORS
330
1E7
102
}
330
1E7
100
AcDbXrecord
280
     1
102
RTVSPropertyOp0
 70
     1
102
RTVSPropertyOp1
 70
     1
102
RTVSPropertyOp2
 70
     1
102
RTVSPropertyOp3
 70
     1
102
RTVSPropertyOp4
 70
     1
102
RTVSPropertyOp5
 70
     1
102
RTVSPropertyOp6
 70
     1
102
RTVSPropertyOp7
 70
     1
102
RTVSPropertyOp8
 70
     1
102
RTVSPropertyOp9
 70
     1
102
RTVSPropertyOp10
 70
     1
102
RTVSPropertyOp11
 70
     1
102
RTVSPropertyOp12
 70
     1
102
RTVSPropertyOp13
 70
     1
102
RTVSPropertyOp14
 70
     1
102
RTVSPropertyOp15
 70
     1
102
RTVSPropertyOp16
 70
     1
102
RTVSPropertyOp17
 70
     1
102
RTVSPropertyOp18
 70
     1
102
RTVSPropertyOp19
 70
     1
102
RTVSPropertyOp20
 70
     1
102
RTVSPropertyOp21
 70
     1
102
RTVSPropertyOp22
 70
     1
102
RTVSPropertyOp23
 70
     1
102
RTVSPropertyOp24
 70
     1
102
RTVSPropertyOp25
 70
     1
102
RTVSPropertyOp26
 70
     1
102
RTVSPropertyOp27
 70
     1
102
RTVSPropertyOp28
 70
     1
102
RTVSPropertyOp29
 70
     1
102
RTVSPropertyOp30
 70
     1
102
RTVSPropertyOp31
 70
     1
102
RTVSPropertyOp32
 70
     1
  0
XRECORD
  5
1EC
102
{ACAD_REACTORS
330
1EB
102
}
330
1EB
100
AcDbXrecord
280
     1
102
RTVSPropertyOp0
 70
     1
102
RTVSPropertyOp1
 70
     1
102
RTVSPropertyOp2
 70
     1
102
RTVSPropertyOp3
 70
     1
102
RTVSPropertyOp4
 70
     1
102
RTVSPropertyOp5
 70
     1
102
RTVSPropertyOp6
 70
     1
102
RTVSPropertyOp7
 70
     1
102
RTVSPropertyOp8
 70
     1
102
RTVSPropertyOp9
 70
     1
102
RTVSPropertyOp10
 70
     1
102
RTVSPropertyOp11
 70
     1
102
RTVSPropertyOp12
 70
     1
102
RTVSPropertyOp13
 70
     1
102
RTVSPropertyOp14
 70
     1
102
RTVSPropertyOp15
 70
     1
102
RTVSPropertyOp16
 70
     1
102
RTVSPropertyOp17
 70
     1
102
RTVSPropertyOp18
 70
     1
102
RTVSPropertyOp19
 70
     1
102
RTVSPropertyOp20
 70
     1
102
RTVSPropertyOp21
 70
     1
102
RTVSPropertyOp22
 70
     1
102
RTVSPropertyOp23
 70
     1
102
RTVSPropertyOp24
 70
     1
102
RTVSPropertyOp25
 70
     1
102
RTVSPropertyOp26
 70
     1
102
RTVSPropertyOp27
 70
     1
102
RTVSPropertyOp28
 70
     1
102
RTVSPropertyOp29
 70
     1
102
RTVSPropertyOp30
 70
     1
102
RTVSPropertyOp31
 70
     1
102
RTVSPropertyOp32
 70
     1
  0
XRECORD
  5
206
102
{ACAD_REACTORS
330
205
102
}
330
205
100
AcDbXrecord
280
     1
102
RTVSPropertyOp0
 70
     0
102
RTVSPropertyOp1
 70
     0
102
RTVSPropertyOp2
 70
     0
102
RTVSPropertyOp3
 70
     0
102
RTVSPropertyOp4
 70
     0
102
RTVSPropertyOp5
 70
     0
102
RTVSPropertyOp6
 70
     0
102
RTVSPropertyOp7
 70
     0
102
RTVSPropertyOp8
 70
     0
102
RTVSPropertyOp9
 70
     0
102
RTVSPropertyOp10
 70
     0
102
RTVSPropertyOp11
 70
     0
102
RTVSPropertyOp12
 70
     0
102
RTVSPropertyOp13
 70
     0
102
RTVSPropertyOp14
 70
     2
102
RTVSPropertyOp15
 70
     0
102
RTVSPropertyOp16
 70
     0
102
RTVSPropertyOp17
 70
     0
102
RTVSPropertyOp18
 70
     0
102
RTVSPropertyOp19
 70
     0
102
RTVSPropertyOp20
 70
     0
102
RTVSPropertyOp21
 70
     0
102
RTVSPropertyOp22
 70
     0
102
RTVSPropertyOp23
 70
     0
102
RTVSPropertyOp24
 70
     0
102
RTVSPropertyOp25
 70
     0
102
RTVSPropertyOp26
 70
     0
102
RTVSPropertyOp27
 70
     0
102
RTVSPropertyOp28
 70
     0
102
RTVSPropertyOp29
 70
     0
102
RTVSPropertyOp30
 70
     0
102
RTVSPropertyOp31
 70
     0
102
RTVSPropertyOp32
 70
     0
  0
XRECORD
  5
1F4
102
{ACAD_REACTORS
330
1F3
102
}
330
1F3
100
AcDbXrecord
280
     1
102
RTVSPropertyOp0
 70
     1
102
RTVSPropertyOp1
 70
     1
102
RTVSPropertyOp2
 70
     1
102
RTVSPropertyOp3
 70
     1
102
RTVSPropertyOp4
 70
     1
102
RTVSPropertyOp5
 70
     1
102
RTVSPropertyOp6
 70
     1
102
RTVSPropertyOp7
 70
     1
102
RTVSPropertyOp8
 70
     1
102
RTVSPropertyOp9
 70
     1
102
RTVSPropertyOp10
 70
     1
102
RTVSPropertyOp11
 70
     1
102
RTVSPropertyOp12
 70
     1
102
RTVSPropertyOp13
 70
     1
102
RTVSPropertyOp14
 70
     1
102
RTVSPropertyOp15
 70
     1
102
RTVSPropertyOp16
 70
     1
102
RTVSPropertyOp17
 70
     1
102
RTVSPropertyOp18
 70
     1
102
RTVSPropertyOp19
 70
     1
102
RTVSPropertyOp20
 70
     1
102
RTVSPropertyOp21
 70
     1
102
RTVSPropertyOp22
 70
     1
102
RTVSPropertyOp23
 70
     1
102
RTVSPropertyOp24
 70
     1
102
RTVSPropertyOp25
 70
     1
102
RTVSPropertyOp26
 70
     1
102
RTVSPropertyOp27
 70
     1
102
RTVSPropertyOp28
 70
     1
102
RTVSPropertyOp29
 70
     1
102
RTVSPropertyOp30
 70
     1
102
RTVSPropertyOp31
 70
     1
102
RTVSPropertyOp32
 70
     1
  0
XRECORD
  5
1D8
102
{ACAD_REACTORS
330
1D7
102
}
330
1D7
100
AcDbXrecord
280
     1
102
RTVSPropertyOp0
 70
     1
102
RTVSPropertyOp1
 70
     1
102
RTVSPropertyOp2
 70
     1
102
RTVSPropertyOp3
 70
     1
102
RTVSPropertyOp4
 70
     1
102
RTVSPropertyOp5
 70
     1
102
RTVSPropertyOp6
 70
     1
102
RTVSPropertyOp7
 70
     1
102
RTVSPropertyOp8
 70
     1
102
RTVSPropertyOp9
 70
     1
102
RTVSPropertyOp10
 70
     1
102
RTVSPropertyOp11
 70
     1
102
RTVSPropertyOp12
 70
     1
102
RTVSPropertyOp13
 70
     1
102
RTVSPropertyOp14
 70
     1
102
RTVSPropertyOp15
 70
     1
102
RTVSPropertyOp16
 70
     1
102
RTVSPropertyOp17
 70
     1
102
RTVSPropertyOp18
 70
     1
102
RTVSPropertyOp19
 70
     1
102
RTVSPropertyOp20
 70
     1
102
RTVSPropertyOp21
 70
     1
102
RTVSPropertyOp22
 70
     1
102
RTVSPropertyOp23
 70
     1
102
RTVSPropertyOp24
 70
     1
102
RTVSPropertyOp25
 70
     1
102
RTVSPropertyOp26
 70
     1
102
RTVSPropertyOp27
 70
     1
102
RTVSPropertyOp28
 70
     1
102
RTVSPropertyOp29
 70
     1
102
RTVSPropertyOp30
 70
     1
102
RTVSPropertyOp31
 70
     1
102
RTVSPropertyOp32
 70
     1
  0
XRECORD
  5
1DA
102
{ACAD_REACTORS
330
1D9
102
}
330
1D9
100
AcDbXrecord
280
     1
102
RTVSPropertyOp0
 70
     1
102
RTVSPropertyOp1
 70
     1
102
RTVSPropertyOp2
 70
     1
102
RTVSPropertyOp3
 70
     1
102
RTVSPropertyOp4
 70
     1
102
RTVSPropertyOp5
 70
     1
102
RTVSPropertyOp6
 70
     1
102
RTVSPropertyOp7
 70
     1
102
RTVSPropertyOp8
 70
     1
102
RTVSPropertyOp9
 70
     1
102
RTVSPropertyOp10
 70
     1
102
RTVSPropertyOp11
 70
     1
102
RTVSPropertyOp12
 70
     1
102
RTVSPropertyOp13
 70
     1
102
RTVSPropertyOp14
 70
     1
102
RTVSPropertyOp15
 70
     1
102
RTVSPropertyOp16
 70
     1
102
RTVSPropertyOp17
 70
     1
102
RTVSPropertyOp18
 70
     1
102
RTVSPropertyOp19
 70
     1
102
RTVSPropertyOp20
 70
     1
102
RTVSPropertyOp21
 70
     1
102
RTVSPropertyOp22
 70
     1
102
RTVSPropertyOp23
 70
     1
102
RTVSPropertyOp24
 70
     1
102
RTVSPropertyOp25
 70
     1
102
RTVSPropertyOp26
 70
     1
102
RTVSPropertyOp27
 70
     1
102
RTVSPropertyOp28
 70
     1
102
RTVSPropertyOp29
 70
     1
102
RTVSPropertyOp30
 70
     1
102
RTVSPropertyOp31
 70
     1
102
RTVSPropertyOp32
 70
     1
  0
XRECORD
  5
1DC
102
{ACAD_REACTORS
330
1DB
102
}
330
1DB
100
AcDbXrecord
280
     1
102
RTVSPropertyOp0
 70
     1
102
RTVSPropertyOp1
 70
     1
102
RTVSPropertyOp2
 70
     1
102
RTVSPropertyOp3
 70
     1
102
RTVSPropertyOp4
 70
     1
102
RTVSPropertyOp5
 70
     1
102
RTVSPropertyOp6
 70
     1
102
RTVSPropertyOp7
 70
     1
102
RTVSPropertyOp8
 70
     1
102
RTVSPropertyOp9
 70
     1
102
RTVSPropertyOp10
 70
     1
102
RTVSPropertyOp11
 70
     1
102
RTVSPropertyOp12
 70
     1
102
RTVSPropertyOp13
 70
     1
102
RTVSPropertyOp14
 70
     1
102
RTVSPropertyOp15
 70
     1
102
RTVSPropertyOp16
 70
     1
102
RTVSPropertyOp17
 70
     1
102
RTVSPropertyOp18
 70
     1
102
RTVSPropertyOp19
 70
     1
102
RTVSPropertyOp20
 70
     1
102
RTVSPropertyOp21
 70
     1
102
RTVSPropertyOp22
 70
     1
102
RTVSPropertyOp23
 70
     1
102
RTVSPropertyOp24
 70
     1
102
RTVSPropertyOp25
 70
     1
102
RTVSPropertyOp26
 70
     1
102
RTVSPropertyOp27
 70
     1
102
RTVSPropertyOp28
 70
     1
102
RTVSPropertyOp29
 70
     1
102
RTVSPropertyOp30
 70
     1
102
RTVSPropertyOp31
 70
     1
102
RTVSPropertyOp32
 70
     1
  0
XRECORD
  5
1DE
102
{ACAD_REACTORS
330
1DD
102
}
330
1DD
100
AcDbXrecord
280
     1
102
RTVSPropertyOp0
 70
     1
102
RTVSPropertyOp1
 70
     1
102
RTVSPropertyOp2
 70
     1
102
RTVSPropertyOp3
 70
     1
102
RTVSPropertyOp4
 70
     1
102
RTVSPropertyOp5
 70
     1
102
RTVSPropertyOp6
 70
     1
102
RTVSPropertyOp7
 70
     1
102
RTVSPropertyOp8
 70
     1
102
RTVSPropertyOp9
 70
     1
102
RTVSPropertyOp10
 70
     1
102
RTVSPropertyOp11
 70
     1
102
RTVSPropertyOp12
 70
     1
102
RTVSPropertyOp13
 70
     1
102
RTVSPropertyOp14
 70
     1
102
RTVSPropertyOp15
 70
     1
102
RTVSPropertyOp16
 70
     1
102
RTVSPropertyOp17
 70
     1
102
RTVSPropertyOp18
 70
     1
102
RTVSPropertyOp19
 70
     1
102
RTVSPropertyOp20
 70
     1
102
RTVSPropertyOp21
 70
     1
102
RTVSPropertyOp22
 70
     1
102
RTVSPropertyOp23
 70
     1
102
RTVSPropertyOp24
 70
     1
102
RTVSPropertyOp25
 70
     1
102
RTVSPropertyOp26
 70
     1
102
RTVSPropertyOp27
 70
     1
102
RTVSPropertyOp28
 70
     1
102
RTVSPropertyOp29
 70
     1
102
RTVSPropertyOp30
 70
     1
102
RTVSPropertyOp31
 70
     1
102
RTVSPropertyOp32
 70
     1
  0
XRECORD
  5
1E6
102
{ACAD_REACTORS
330
1E5
102
}
330
1E5
100
AcDbXrecord
280
     1
102
RTVSPropertyOp0
 70
     1
102
RTVSPropertyOp1
 70
     1
102
RTVSPropertyOp2
 70
     1
102
RTVSPropertyOp3
 70
     1
102
RTVSPropertyOp4
 70
     1
102
RTVSPropertyOp5
 70
     1
102
RTVSPropertyOp6
 70
     1
102
RTVSPropertyOp7
 70
     1
102
RTVSPropertyOp8
 70
     1
102
RTVSPropertyOp9
 70
     1
102
RTVSPropertyOp10
 70
     1
102
RTVSPropertyOp11
 70
     1
102
RTVSPropertyOp12
 70
     1
102
RTVSPropertyOp13
 70
     1
102
RTVSPropertyOp14
 70
     1
102
RTVSPropertyOp15
 70
     1
102
RTVSPropertyOp16
 70
     1
102
RTVSPropertyOp17
 70
     1
102
RTVSPropertyOp18
 70
     1
102
RTVSPropertyOp19
 70
     1
102
RTVSPropertyOp20
 70
     1
102
RTVSPropertyOp21
 70
     1
102
RTVSPropertyOp22
 70
     1
102
RTVSPropertyOp23
 70
     1
102
RTVSPropertyOp24
 70
     1
102
RTVSPropertyOp25
 70
     1
102
RTVSPropertyOp26
 70
     1
102
RTVSPropertyOp27
 70
     1
102
RTVSPropertyOp28
 70
     1
102
RTVSPropertyOp29
 70
     1
102
RTVSPropertyOp30
 70
     1
102
RTVSPropertyOp31
 70
     1
102
RTVSPropertyOp32
 70
     1
  0
XRECORD
  5
202
102
{ACAD_REACTORS
330
201
102
}
330
201
100
AcDbXrecord
280
     1
102
RTVSPropertyOp0
 70
     0
102
RTVSPropertyOp1
 70
     0
102
RTVSPropertyOp2
 70
     0
102
RTVSPropertyOp3
 70
     0
102
RTVSPropertyOp4
 70
     0
102
RTVSPropertyOp5
 70
     0
102
RTVSPropertyOp6
 70
     0
102
RTVSPropertyOp7
 70
     0
102
RTVSPropertyOp8
 70
     0
102
RTVSPropertyOp9
 70
     0
102
RTVSPropertyOp10
 70
     0
102
RTVSPropertyOp11
 70
     0
102
RTVSPropertyOp12
 70
     0
102
RTVSPropertyOp13
 70
     0
102
RTVSPropertyOp14
 70
     2
102
RTVSPropertyOp15
 70
     0
102
RTVSPropertyOp16
 70
     0
102
RTVSPropertyOp17
 70
     0
102
RTVSPropertyOp18
 70
     0
102
RTVSPropertyOp19
 70
     0
102
RTVSPropertyOp20
 70
     0
102
RTVSPropertyOp21
 70
     0
102
RTVSPropertyOp22
 70
     0
102
RTVSPropertyOp23
 70
     0
102
RTVSPropertyOp24
 70
     0
102
RTVSPropertyOp25
 70
     0
102
RTVSPropertyOp26
 70
     0
102
RTVSPropertyOp27
 70
     0
102
RTVSPropertyOp28
 70
     0
102
RTVSPropertyOp29
 70
     0
102
RTVSPropertyOp30
 70
     0
102
RTVSPropertyOp31
 70
     0
102
RTVSPropertyOp32
 70
     0
  0
XRECORD
  5
1F2
102
{ACAD_REACTORS
330
1F1
102
}
330
1F1
100
AcDbXrecord
280
     1
102
RTVSPropertyOp0
 70
     1
102
RTVSPropertyOp1
 70
     1
102
RTVSPropertyOp2
 70
     1
102
RTVSPropertyOp3
 70
     1
102
RTVSPropertyOp4
 70
     1
102
RTVSPropertyOp5
 70
     1
102
RTVSPropertyOp6
 70
     1
102
RTVSPropertyOp7
 70
     1
102
RTVSPropertyOp8
 70
     1
102
RTVSPropertyOp9
 70
     1
102
RTVSPropertyOp10
 70
     1
102
RTVSPropertyOp11
 70
     1
102
RTVSPropertyOp12
 70
     1
102
RTVSPropertyOp13
 70
     1
102
RTVSPropertyOp14
 70
     1
102
RTVSPropertyOp15
 70
     1
102
RTVSPropertyOp16
 70
     1
102
RTVSPropertyOp17
 70
     1
102
RTVSPropertyOp18
 70
     1
102
RTVSPropertyOp19
 70
     1
102
RTVSPropertyOp20
 70
     1
102
RTVSPropertyOp21
 70
     1
102
RTVSPropertyOp22
 70
     1
102
RTVSPropertyOp23
 70
     1
102
RTVSPropertyOp24
 70
     1
102
RTVSPropertyOp25
 70
     1
102
RTVSPropertyOp26
 70
     1
102
RTVSPropertyOp27
 70
     1
102
RTVSPropertyOp28
 70
     1
102
RTVSPropertyOp29
 70
     1
102
RTVSPropertyOp30
 70
     1
102
RTVSPropertyOp31
 70
     1
102
RTVSPropertyOp32
 70
     1
  0
XRECORD
  5
204
102
{ACAD_REACTORS
330
203
102
}
330
203
100
AcDbXrecord
280
     1
102
RTVSPropertyOp0
 70
     0
102
RTVSPropertyOp1
 70
     0
102
RTVSPropertyOp2
 70
     0
102
RTVSPropertyOp3
 70
     0
102
RTVSPropertyOp4
 70
     0
102
RTVSPropertyOp5
 70
     0
102
RTVSPropertyOp6
 70
     0
102
RTVSPropertyOp7
 70
     0
102
RTVSPropertyOp8
 70
     0
102
RTVSPropertyOp9
 70
     0
102
RTVSPropertyOp10
 70
     0
102
RTVSPropertyOp11
 70
     0
102
RTVSPropertyOp12
 70
     0
102
RTVSPropertyOp13
 70
     0
102
RTVSPropertyOp14
 70
     2
102
RTVSPropertyOp15
 70
     0
102
RTVSPropertyOp16
 70
     0
102
RTVSPropertyOp17
 70
     0
102
RTVSPropertyOp18
 70
     0
102
RTVSPropertyOp19
 70
     0
102
RTVSPropertyOp20
 70
     0
102
RTVSPropertyOp21
 70
     0
102
RTVSPropertyOp22
 70
     0
102
RTVSPropertyOp23
 70
     0
102
RTVSPropertyOp24
 70
     0
102
RTVSPropertyOp25
 70
     0
102
RTVSPropertyOp26
 70
     0
102
RTVSPropertyOp27
 70
     0
102
RTVSPropertyOp28
 70
     0
102
RTVSPropertyOp29
 70
     0
102
RTVSPropertyOp30
 70
     0
102
RTVSPropertyOp31
 70
     0
102
RTVSPropertyOp32
 70
     0
  0
XRECORD
  5
1EA
102
{ACAD_REACTORS
330
1E9
102
}
330
1E9
100
AcDbXrecord
280
     1
102
RTVSPropertyOp0
 70
     1
102
RTVSPropertyOp1
 70
     1
102
RTVSPropertyOp2
 70
     1
102
RTVSPropertyOp3
 70
     1
102
RTVSPropertyOp4
 70
     1
102
RTVSPropertyOp5
 70
     1
102
RTVSPropertyOp6
 70
     1
102
RTVSPropertyOp7
 70
     1
102
RTVSPropertyOp8
 70
     1
102
RTVSPropertyOp9
 70
     1
102
RTVSPropertyOp10
 70
     1
102
RTVSPropertyOp11
 70
     1
102
RTVSPropertyOp12
 70
     1
102
RTVSPropertyOp13
 70
     1
102
RTVSPropertyOp14
 70
     1
102
RTVSPropertyOp15
 70
     1
102
RTVSPropertyOp16
 70
     1
102
RTVSPropertyOp17
 70
     1
102
RTVSPropertyOp18
 70
     1
102
RTVSPropertyOp19
 70
     1
102
RTVSPropertyOp20
 70
     1
102
RTVSPropertyOp21
 70
     1
102
RTVSPropertyOp22
 70
     1
102
RTVSPropertyOp23
 70
     1
102
RTVSPropertyOp24
 70
     1
102
RTVSPropertyOp25
 70
     1
102
RTVSPropertyOp26
 70
     1
102
RTVSPropertyOp27
 70
     1
102
RTVSPropertyOp28
 70
     1
102
RTVSPropertyOp29
 70
     1
102
RTVSPropertyOp30
 70
     1
102
RTVSPropertyOp31
 70
     1
102
RTVSPropertyOp32
 70
     1
  0
XRECORD
  5
200
102
{ACAD_REACTORS
330
1FF
102
}
330
1FF
100
AcDbXrecord
280
     1
102
RTVSPropertyOp0
 70
     1
102
RTVSPropertyOp1
 70
     1
102
RTVSPropertyOp2
 70
     1
102
RTVSPropertyOp3
 70
     1
102
RTVSPropertyOp4
 70
     1
102
RTVSPropertyOp5
 70
     1
102
RTVSPropertyOp6
 70
     1
102
RTVSPropertyOp7
 70
     1
102
RTVSPropertyOp8
 70
     1
102
RTVSPropertyOp9
 70
     1
102
RTVSPropertyOp10
 70
     1
102
RTVSPropertyOp11
 70
     1
102
RTVSPropertyOp12
 70
     1
102
RTVSPropertyOp13
 70
     1
102
RTVSPropertyOp14
 70
     1
102
RTVSPropertyOp15
 70
     1
102
RTVSPropertyOp16
 70
     1
102
RTVSPropertyOp17
 70
     1
102
RTVSPropertyOp18
 70
     1
102
RTVSPropertyOp19
 70
     1
102
RTVSPropertyOp20
 70
     1
102
RTVSPropertyOp21
 70
     1
102
RTVSPropertyOp22
 70
     1
102
RTVSPropertyOp23
 70
     1
102
RTVSPropertyOp24
 70
     1
102
RTVSPropertyOp25
 70
     1
102
RTVSPropertyOp26
 70
     1
102
RTVSPropertyOp27
 70
     1
102
RTVSPropertyOp28
 70
     1
102
RTVSPropertyOp29
 70
     1
102
RTVSPropertyOp30
 70
     1
102
RTVSPropertyOp31
 70
     1
102
RTVSPropertyOp32
 70
     1
  0
XRECORD
  5
1FE
102
{ACAD_REACTORS
330
1FD
102
}
330
1FD
100
AcDbXrecord
280
     1
102
RTVSPropertyOp0
 70
     1
102
RTVSPropertyOp1
 70
     1
102
RTVSPropertyOp2
 70
     1
102
RTVSPropertyOp3
 70
     1
102
RTVSPropertyOp4
 70
     1
102
RTVSPropertyOp5
 70
     1
102
RTVSPropertyOp6
 70
     1
102
RTVSPropertyOp7
 70
     1
102
RTVSPropertyOp8
 70
     1
102
RTVSPropertyOp9
 70
     1
102
RTVSPropertyOp10
 70
     1
102
RTVSPropertyOp11
 70
     1
102
RTVSPropertyOp12
 70
     1
102
RTVSPropertyOp13
 70
     1
102
RTVSPropertyOp14
 70
     1
102
RTVSPropertyOp15
 70
     1
102
RTVSPropertyOp16
 70
     1
102
RTVSPropertyOp17
 70
     1
102
RTVSPropertyOp18
 70
     1
102
RTVSPropertyOp19
 70
     1
102
RTVSPropertyOp20
 70
     1
102
RTVSPropertyOp21
 70
     1
102
RTVSPropertyOp22
 70
     1
102
RTVSPropertyOp23
 70
     1
102
RTVSPropertyOp24
 70
     1
102
RTVSPropertyOp25
 70
     1
102
RTVSPropertyOp26
 70
     1
102
RTVSPropertyOp27
 70
     1
102
RTVSPropertyOp28
 70
     1
102
RTVSPropertyOp29
 70
     1
102
RTVSPropertyOp30
 70
     1
102
RTVSPropertyOp31
 70
     1
102
RTVSPropertyOp32
 70
     1
  0
XRECORD
  5
1F8
102
{ACAD_REACTORS
330
1F7
102
}
330
1F7
100
AcDbXrecord
280
     1
102
RTVSPropertyOp0
 70
     1
102
RTVSPropertyOp1
 70
     1
102
RTVSPropertyOp2
 70
     1
102
RTVSPropertyOp3
 70
     1
102
RTVSPropertyOp4
 70
     1
102
RTVSPropertyOp5
 70
     1
102
RTVSPropertyOp6
 70
     1
102
RTVSPropertyOp7
 70
     1
102
RTVSPropertyOp8
 70
     1
102
RTVSPropertyOp9
 70
     1
102
RTVSPropertyOp10
 70
     1
102
RTVSPropertyOp11
 70
     1
102
RTVSPropertyOp12
 70
     1
102
RTVSPropertyOp13
 70
     1
102
RTVSPropertyOp14
 70
     1
102
RTVSPropertyOp15
 70
     1
102
RTVSPropertyOp16
 70
     1
102
RTVSPropertyOp17
 70
     1
102
RTVSPropertyOp18
 70
     1
102
RTVSPropertyOp19
 70
     1
102
RTVSPropertyOp20
 70
     1
102
RTVSPropertyOp21
 70
     1
102
RTVSPropertyOp22
 70
     1
102
RTVSPropertyOp23
 70
     1
102
RTVSPropertyOp24
 70
     1
102
RTVSPropertyOp25
 70
     1
102
RTVSPropertyOp26
 70
     1
102
RTVSPropertyOp27
 70
     1
102
RTVSPropertyOp28
 70
     1
102
RTVSPropertyOp29
 70
     1
102
RTVSPropertyOp30
 70
     1
102
RTVSPropertyOp31
 70
     1
102
RTVSPropertyOp32
 70
     1
  0
XRECORD
  5
1FA
102
{ACAD_REACTORS
330
1F9
102
}
330
1F9
100
AcDbXrecord
280
     1
102
RTVSPropertyOp0
 70
     1
102
RTVSPropertyOp1
 70
     1
102
RTVSPropertyOp2
 70
     1
102
RTVSPropertyOp3
 70
     1
102
RTVSPropertyOp4
 70
     1
102
RTVSPropertyOp5
 70
     1
102
RTVSPropertyOp6
 70
     1
102
RTVSPropertyOp7
 70
     1
102
RTVSPropertyOp8
 70
     1
102
RTVSPropertyOp9
 70
     1
102
RTVSPropertyOp10
 70
     1
102
RTVSPropertyOp11
 70
     1
102
RTVSPropertyOp12
 70
     1
102
RTVSPropertyOp13
 70
     1
102
RTVSPropertyOp14
 70
     1
102
RTVSPropertyOp15
 70
     1
102
RTVSPropertyOp16
 70
     1
102
RTVSPropertyOp17
 70
     1
102
RTVSPropertyOp18
 70
     1
102
RTVSPropertyOp19
 70
     1
102
RTVSPropertyOp20
 70
     1
102
RTVSPropertyOp21
 70
     1
102
RTVSPropertyOp22
 70
     1
102
RTVSPropertyOp23
 70
     1
102
RTVSPropertyOp24
 70
     1
102
RTVSPropertyOp25
 70
     1
102
RTVSPropertyOp26
 70
     1
102
RTVSPropertyOp27
 70
     1
102
RTVSPropertyOp28
 70
     1
102
RTVSPropertyOp29
 70
     1
102
RTVSPropertyOp30
 70
     1
102
RTVSPropertyOp31
 70
     1
102
RTVSPropertyOp32
 70
     1
  0
XRECORD
  5
1F0
102
{ACAD_REACTORS
330
1EF
102
}
330
1EF
100
AcDbXrecord
280
     1
102
RTVSPropertyOp0
 70
     1
102
RTVSPropertyOp1
 70
     1
102
RTVSPropertyOp2
 70
     1
102
RTVSPropertyOp3
 70
     1
102
RTVSPropertyOp4
 70
     1
102
RTVSPropertyOp5
 70
     1
102
RTVSPropertyOp6
 70
     1
102
RTVSPropertyOp7
 70
     1
102
RTVSPropertyOp8
 70
     1
102
RTVSPropertyOp9
 70
     1
102
RTVSPropertyOp10
 70
     1
102
RTVSPropertyOp11
 70
     1
102
RTVSPropertyOp12
 70
     1
102
RTVSPropertyOp13
 70
     1
102
RTVSPropertyOp14
 70
     1
102
RTVSPropertyOp15
 70
     1
102
RTVSPropertyOp16
 70
     1
102
RTVSPropertyOp17
 70
     1
102
RTVSPropertyOp18
 70
     1
102
RTVSPropertyOp19
 70
     1
102
RTVSPropertyOp20
 70
     1
102
RTVSPropertyOp21
 70
     1
102
RTVSPropertyOp22
 70
     1
102
RTVSPropertyOp23
 70
     1
102
RTVSPropertyOp24
 70
     1
102
RTVSPropertyOp25
 70
     1
102
RTVSPropertyOp26
 70
     1
102
RTVSPropertyOp27
 70
     1
102
RTVSPropertyOp28
 70
     1
102
RTVSPropertyOp29
 70
     1
102
RTVSPropertyOp30
 70
     1
102
RTVSPropertyOp31
 70
     1
102
RTVSPropertyOp32
 70
     1
  0
XRECORD
  5
1E4
102
{ACAD_REACTORS
330
1E3
102
}
330
1E3
100
AcDbXrecord
280
     1
102
RTVSPropertyOp0
 70
     1
102
RTVSPropertyOp1
 70
     1
102
RTVSPropertyOp2
 70
     1
102
RTVSPropertyOp3
 70
     1
102
RTVSPropertyOp4
 70
     1
102
RTVSPropertyOp5
 70
     1
102
RTVSPropertyOp6
 70
     1
102
RTVSPropertyOp7
 70
     1
102
RTVSPropertyOp8
 70
     1
102
RTVSPropertyOp9
 70
     1
102
RTVSPropertyOp10
 70
     1
102
RTVSPropertyOp11
 70
     1
102
RTVSPropertyOp12
 70
     1
102
RTVSPropertyOp13
 70
     1
102
RTVSPropertyOp14
 70
     1
102
RTVSPropertyOp15
 70
     1
102
RTVSPropertyOp16
 70
     1
102
RTVSPropertyOp17
 70
     1
102
RTVSPropertyOp18
 70
     1
102
RTVSPropertyOp19
 70
     1
102
RTVSPropertyOp20
 70
     1
102
RTVSPropertyOp21
 70
     1
102
RTVSPropertyOp22
 70
     1
102
RTVSPropertyOp23
 70
     1
102
RTVSPropertyOp24
 70
     1
102
RTVSPropertyOp25
 70
     1
102
RTVSPropertyOp26
 70
     1
102
RTVSPropertyOp27
 70
     1
102
RTVSPropertyOp28
 70
     1
102
RTVSPropertyOp29
 70
     1
102
RTVSPropertyOp30
 70
     1
102
RTVSPropertyOp31
 70
     1
102
RTVSPropertyOp32
 70
     1
  0
XRECORD
  5
1FC
102
{ACAD_REACTORS
330
1FB
102
}
330
1FB
100
AcDbXrecord
280
     1
102
RTVSPropertyOp0
 70
     1
102
RTVSPropertyOp1
 70
     1
102
RTVSPropertyOp2
 70
     1
102
RTVSPropertyOp3
 70
     1
102
RTVSPropertyOp4
 70
     1
102
RTVSPropertyOp5
 70
     1
102
RTVSPropertyOp6
 70
     1
102
RTVSPropertyOp7
 70
     1
102
RTVSPropertyOp8
 70
     1
102
RTVSPropertyOp9
 70
     1
102
RTVSPropertyOp10
 70
     1
102
RTVSPropertyOp11
 70
     1
102
RTVSPropertyOp12
 70
     1
102
RTVSPropertyOp13
 70
     1
102
RTVSPropertyOp14
 70
     1
102
RTVSPropertyOp15
 70
     1
102
RTVSPropertyOp16
 70
     1
102
RTVSPropertyOp17
 70
     1
102
RTVSPropertyOp18
 70
     1
102
RTVSPropertyOp19
 70
     1
102
RTVSPropertyOp20
 70
     1
102
RTVSPropertyOp21
 70
     1
102
RTVSPropertyOp22
 70
     1
102
RTVSPropertyOp23
 70
     1
102
RTVSPropertyOp24
 70
     1
102
RTVSPropertyOp25
 70
     1
102
RTVSPropertyOp26
 70
     1
102
RTVSPropertyOp27
 70
     1
102
RTVSPropertyOp28
 70
     1
102
RTVSPropertyOp29
 70
     1
102
RTVSPropertyOp30
 70
     1
102
RTVSPropertyOp31
 70
     1
102
RTVSPropertyOp32
 70
     1
  0
ENDSEC
  0
EOF
