  0
SECTION
  2
HEADER
  9
$ACADVER
  1
AC1015
  9
$ACADMAINTVER
 70
    20
  9
$DWGCODEPAGE
  3
ANSI_1252
  9
$INSBASE
 10
0.0
 20
0.0
 30
0.0
  9
$EXTMIN
 10
42512.5602922231
 20
7033.685472418229
 30
-0.0015258207003583
  9
$EXTMAX
 10
43873.44120284334
 20
8409.726061029479
 30
0.0000000349246037
  9
$LIMMIN
 10
434.9844171099999
 20
5051.80477042
  9
$LIMMAX
 10
57061.45779796
 20
10270.56613086
  9
$ORTHOMODE
 70
     0
  9
$REGENMODE
 70
     1
  9
$FILLMODE
 70
     1
  9
$QTEXTMODE
 70
     0
  9
$MIRRTEXT
 70
     1
  9
$LTSCALE
 40
5.0
  9
$ATTMODE
 70
     1
  9
$TEXTSIZE
 40
3.5
  9
$TRACEWID
 40
1.0
  9
$TEXTSTYLE
  7
STANDARD
  9
$CLAYER
  8
0
  9
$CELTYPE
  6
BYLAYER
  9
$CECOLOR
 62
   256
  9
$CELTSCALE
 40
1.0
  9
$DISPSILH
 70
     0
  9
$DIMSCALE
 40
1.0
  9
$DIMASZ
 40
2.0
  9
$DIMEXO
 40
5.0
  9
$DIMDLI
 40
10.0
  9
$DIMRND
 40
0.0
  9
$DIMDLE
 40
2.0
  9
$DIMEXE
 40
2.0
  9
$DIMTP
 40
0.0
  9
$DIMTM
 40
0.0
  9
$DIMTXT
 40
2.5
  9
$DIMCEN
 40
1.5
  9
$DIMTSZ
 40
0.0
  9
$DIMTOL
 70
     0
  9
$DIMLIM
 70
     0
  9
$DIMTIH
 70
     1
  9
$DIMTOH
 70
     0
  9
$DIMSE1
 70
     0
  9
$DIMSE2
 70
     0
  9
$DIMTAD
 70
     1
  9
$DIMZIN
 70
     8
  9
$DIMBLK
  1

  9
$DIMASO
 70
     1
  9
$DIMSHO
 70
     1
  9
$DIMPOST
  1

  9
$DIMAPOST
  1

  9
$DIMALT
 70
     0
  9
$DIMALTD
 70
     2
  9
$DIMALTF
 40
25.4
  9
$DIMLFAC
 40
1.0
  9
$DIMTOFL
 70
     0
  9
$DIMTVP
 40
0.0
  9
$DIMTIX
 70
     0
  9
$DIMSOXD
 70
     0
  9
$DIMSAH
 70
     0
  9
$DIMBLK1
  1

  9
$DIMBLK2
  1

  9
$DIMSTYLE
  2
Standard
  9
$DIMCLRD
 70
   190
  9
$DIMCLRE
 70
   190
  9
$DIMCLRT
 70
   190
  9
$DIMTFAC
 40
1.0
  9
$DIMGAP
 40
0.09
  9
$DIMJUST
 70
     0
  9
$DIMSD1
 70
     0
  9
$DIMSD2
 70
     0
  9
$DIMTOLJ
 70
     1
  9
$DIMTZIN
 70
     0
  9
$DIMALTZ
 70
     0
  9
$DIMALTTZ
 70
     0
  9
$DIMUPT
 70
     0
  9
$DIMDEC
 70
     4
  9
$DIMTDEC
 70
     4
  9
$DIMALTU
 70
     2
  9
$DIMALTTD
 70
     2
  9
$DIMTXSTY
  7
STANDARD
  9
$DIMAUNIT
 70
     0
  9
$DIMADEC
 70
     0
  9
$DIMALTRND
 40
0.0
  9
$DIMAZIN
 70
     0
  9
$DIMDSEP
 70
    46
  9
$DIMATFIT
 70
     3
  9
$DIMFRAC
 70
     0
  9
$DIMLDRBLK
  1

  9
$DIMLUNIT
 70
     2
  9
$DIMLWD
 70
    -2
  9
$DIMLWE
 70
    -2
  9
$DIMTMOVE
 70
     0
  9
$LUNITS
 70
     2
  9
$LUPREC
 70
     6
  9
$SKETCHINC
 40
0.1
  9
$FILLETRAD
 40
0.0
  9
$AUNITS
 70
     0
  9
$AUPREC
 70
     0
  9
$MENU
  1
ACAD
  9
$ELEVATION
 40
0.0
  9
$PELEVATION
 40
0.0
  9
$THICKNESS
 40
0.0
  9
$LIMCHECK
 70
     0
  9
$CHAMFERA
 40
0.0
  9
$CHAMFERB
 40
0.0
  9
$CHAMFERC
 40
0.0
  9
$CHAMFERD
 40
0.0
  9
$SKPOLY
 70
     1
  9
$TDCREATE
 40
2456443.000000000
  9
$TDUCREATE
 40
2456442.916666667
  9
$TDUPDATE
 40
2456458.479258021
  9
$TDUUPDATE
 40
2456458.395924688
  9
$TDINDWG
 40
0.0006896875
  9
$TDUSRTIMER
 40
0.0006896875
  9
$USRTIMER
 70
     1
  9
$ANGBASE
 50
0.0
  9
$ANGDIR
 70
     0
  9
$PDMODE
 70
     0
  9
$PDSIZE
 40
0.0
  9
$PLINEWID
 40
0.0
  9
$SPLFRAME
 70
     0
  9
$SPLINETYPE
 70
     6
  9
$SPLINESEGS
 70
     8
  9
$HANDSEED
  5
248
  9
$SURFTAB1
 70
     6
  9
$SURFTAB2
 70
     6
  9
$SURFTYPE
 70
     6
  9
$SURFU
 70
     6
  9
$SURFV
 70
     6
  9
$UCSBASE
  2

  9
$UCSNAME
  2

  9
$UCSORG
 10
0.0
 20
0.0
 30
0.0
  9
$UCSXDIR
 10
1.0
 20
0.0
 30
0.0
  9
$UCSYDIR
 10
0.0
 20
1.0
 30
0.0
  9
$UCSORTHOREF
  2

  9
$UCSORTHOVIEW
 70
     0
  9
$UCSORGTOP
 10
0.0
 20
0.0
 30
0.0
  9
$UCSORGBOTTOM
 10
0.0
 20
0.0
 30
0.0
  9
$UCSORGLEFT
 10
0.0
 20
0.0
 30
0.0
  9
$UCSORGRIGHT
 10
0.0
 20
0.0
 30
0.0
  9
$UCSORGFRONT
 10
0.0
 20
0.0
 30
0.0
  9
$UCSORGBACK
 10
0.0
 20
0.0
 30
0.0
  9
$PUCSBASE
  2

  9
$PUCSNAME
  2

  9
$PUCSORG
 10
0.0
 20
0.0
 30
0.0
  9
$PUCSXDIR
 10
1.0
 20
0.0
 30
0.0
  9
$PUCSYDIR
 10
0.0
 20
1.0
 30
0.0
  9
$PUCSORTHOREF
  2

  9
$PUCSORTHOVIEW
 70
     0
  9
$PUCSORGTOP
 10
0.0
 20
0.0
 30
0.0
  9
$PUCSORGBOTTOM
 10
0.0
 20
0.0
 30
0.0
  9
$PUCSORGLEFT
 10
0.0
 20
0.0
 30
0.0
  9
$PUCSORGRIGHT
 10
0.0
 20
0.0
 30
0.0
  9
$PUCSORGFRONT
 10
0.0
 20
0.0
 30
0.0
  9
$PUCSORGBACK
 10
0.0
 20
0.0
 30
0.0
  9
$USERI1
 70
     0
  9
$USERI2
 70
     0
  9
$USERI3
 70
     0
  9
$USERI4
 70
     0
  9
$USERI5
 70
     0
  9
$USERR1
 40
0.0
  9
$USERR2
 40
0.0
  9
$USERR3
 40
0.0
  9
$USERR4
 40
0.0
  9
$USERR5
 40
0.0
  9
$WORLDVIEW
 70
     1
  9
$SHADEDGE
 70
     3
  9
$SHADEDIF
 70
    70
  9
$TILEMODE
 70
     1
  9
$MAXACTVP
 70
    16
  9
$PINSBASE
 10
0.0
 20
0.0
 30
0.0
  9
$PLIMCHECK
 70
     0
  9
$PEXTMIN
 10
1.000000000000000E+20
 20
1.000000000000000E+20
 30
1.000000000000000E+20
  9
$PEXTMAX
 10
-1.000000000000000E+20
 20
-1.000000000000000E+20
 30
-1.000000000000000E+20
  9
$PLIMMIN
 10
0.0
 20
0.0
  9
$PLIMMAX
 10
12.0
 20
9.0
  9
$UNITMODE
 70
     0
  9
$VISRETAIN
 70
     0
  9
$PLINEGEN
 70
     0
  9
$PSLTSCALE
 70
     1
  9
$TREEDEPTH
 70
  3020
  9
$CMLSTYLE
  2
STANDARD
  9
$CMLJUST
 70
     0
  9
$CMLSCALE
 40
1.0
  9
$PROXYGRAPHICS
 70
     1
  9
$MEASUREMENT
 70
     1
  9
$CELWEIGHT
370
    -1
  9
$ENDCAPS
280
     0
  9
$JOINSTYLE
280
     0
  9
$LWDISPLAY
290
     0
  9
$INSUNITS
 70
     0
  9
$HYPERLINKBASE
  1

  9
$STYLESHEET
  1

  9
$XEDIT
290
     1
  9
$CEPSNTYPE
380
     0
  9
$PSTYLEMODE
290
     1
  9
$FINGERPRINTGUID
  2
{71C73A75-BF18-4339-AB79-AF2EC0A4FD30}
  9
$VERSIONGUID
  2
{1C3A6849-9434-4C40-9D91-13F893B5839A}
  9
$EXTNAMES
290
     1
  9
$PSVPSCALE
 40
0.0
  9
$OLESTARTUP
290
     0
  0
ENDSEC
  0
SECTION
  2
CLASSES
  0
CLASS
  1
ACDBDICTIONARYWDFLT
  2
AcDbDictionaryWithDefault
  3
ObjectDBX Classes
 90
        0
280
     0
281
     0
  0
CLASS
  1
MATERIAL
  2
AcDbMaterial
  3
ObjectDBX Classes
 90
     1153
280
     0
281
     0
  0
CLASS
  1
VISUALSTYLE
  2
AcDbVisualStyle
  3
ObjectDBX Classes
 90
     4095
280
     0
281
     0
  0
CLASS
  1
TABLESTYLE
  2
AcDbTableStyle
  3
ObjectDBX Classes
 90
     4095
280
     0
281
     0
  0
CLASS
  1
SCALE
  2
AcDbScale
  3
ObjectDBX Classes
 90
     1153
280
     0
281
     0
  0
CLASS
  1
MLEADERSTYLE
  2
AcDbMLeaderStyle
  3
ACDB_MLEADERSTYLE_CLASS
 90
     4095
280
     0
281
     0
  0
CLASS
  1
DICTIONARYVAR
  2
AcDbDictionaryVar
  3
ObjectDBX Classes
 90
        0
280
     0
281
     0
  0
CLASS
  1
CELLSTYLEMAP
  2
AcDbCellStyleMap
  3
ObjectDBX Classes
 90
     1152
280
     0
281
     0
  0
CLASS
  1
ACDBPLACEHOLDER
  2
AcDbPlaceHolder
  3
ObjectDBX Classes
 90
        0
280
     0
281
     0
  0
CLASS
  1
LAYOUT
  2
AcDbLayout
  3
ObjectDBX Classes
 90
        0
280
     0
281
     0
  0
ENDSEC
  0
SECTION
  2
TABLES
  0
TABLE
  2
VPORT
  5
2B
330
0
100
AcDbSymbolTable
 70
     1
  0
VPORT
  5
1BD
330
2B
100
AcDbSymbolTableRecord
100
AcDbViewportTableRecord
  2
*Active
 70
     0
 10
0.0
 20
0.0
 11
1.0
 21
1.0
 12
43193.00074753322
 22
7721.705766723855
 13
0.0
 23
0.0
 14
1.0
 24
1.0
 15
0.0
 25
0.0
 16
0.0
 26
0.0
 36
1.0
 17
0.0
 27
0.0
 37
0.0
 40
1386.584960937774
 41
2.015345268542199
 42
50.0
 43
0.0
 44
0.0
 50
0.0
 51
0.0
 71
     0
 72
  1000
 73
     1
 74
     3
 75
     0
 76
     0
 77
     0
 78
     0
281
     0
 65
     1
110
0.0
120
0.0
130
0.0
111
1.0
121
0.0
131
0.0
112
0.0
122
1.0
132
0.0
 79
     0
146
0.0
  0
ENDTAB
  0
TABLE
  2
LTYPE
  5
32
330
0
100
AcDbSymbolTable
 70
    10
  0
LTYPE
  5
33
330
32
100
AcDbSymbolTableRecord
100
AcDbLinetypeTableRecord
  2
BYBLOCK
 70
     0
  3

 72
    65
 73
     0
 40
0.0
  0
LTYPE
  5
34
330
32
100
AcDbSymbolTableRecord
100
AcDbLinetypeTableRecord
  2
BYLAYER
 70
     0
  3

 72
    65
 73
     0
 40
0.0
  0
LTYPE
  5
35
330
32
100
AcDbSymbolTableRecord
100
AcDbLinetypeTableRecord
  2
CONTINUOUS
 70
     0
  3
Solid line
 72
    65
 73
     0
 40
0.0
  0
LTYPE
  5
36
330
32
100
AcDbSymbolTableRecord
100
AcDbLinetypeTableRecord
  2
DOT
 70
     0
  3
. . . . . . . . . . . . . . . . . . . . . . . .
 72
    65
 73
     2
 40
2.5
 49
0.0
 74
     0
 49
-2.5
 74
     0
  0
LTYPE
  5
37
330
32
100
AcDbSymbolTableRecord
100
AcDbLinetypeTableRecord
  2
HIDDEN
 70
     0
  3
__ __ __ __ __ __ __ __ __ __ __ __ __ __ __ __
 72
    65
 73
     2
 40
1.875
 49
1.25
 74
     0
 49
-0.625
 74
     0
  0
LTYPE
  5
38
330
32
100
AcDbSymbolTableRecord
100
AcDbLinetypeTableRecord
  2
CADWORK_22
 70
     0
  3
22 =======================================
 72
    65
 73
     0
 40
0.0
  0
LTYPE
  5
39
330
32
100
AcDbSymbolTableRecord
100
AcDbLinetypeTableRecord
  2
DAL
 70
     0
  3
Solid line (for MAPS)
 72
    65
 73
     0
 40
0.0
  0
LTYPE
  5
3A
330
32
100
AcDbSymbolTableRecord
100
AcDbLinetypeTableRecord
  2
MUR
 70
     0
  3
Solid line (for MAPS)
 72
    65
 73
     0
 40
0.0
  0
LTYPE
  5
3B
330
32
100
AcDbSymbolTableRecord
100
AcDbLinetypeTableRecord
  2
SOM
 70
     0
  3
Solid line (for MAPS)
 72
    65
 73
     0
 40
0.0
  0
LTYPE
  5
3C
330
32
100
AcDbSymbolTableRecord
100
AcDbLinetypeTableRecord
  2
COL
 70
     0
  3
Solid line (for MAPS)
 72
    65
 73
     0
 40
0.0
  0
LTYPE
  5
3D
330
32
100
AcDbSymbolTableRecord
100
AcDbLinetypeTableRecord
  2
LGN
 70
     0
  3
Solid line (for MAPS)
 72
    65
 73
     0
 40
0.0
  0
LTYPE
  5
3E
330
32
100
AcDbSymbolTableRecord
100
AcDbLinetypeTableRecord
  2
PNT
 70
     0
  3
Solid line (for MAPS)
 72
    65
 73
     0
 40
0.0
  0
ENDTAB
  0
TABLE
  2
LAYER
  5
3F
330
0
100
AcDbSymbolTable
 70
    32
  0
LAYER
  5
40
102
{ACAD_XDICTIONARY
360
1C7
102
}
330
3F
100
AcDbSymbolTableRecord
100
AcDbLayerTableRecord
  2
STANDARD
 70
     0
 62
     7
  6
CONTINUOUS
370
    -3
390
16C
  0
LAYER
  5
41
102
{ACAD_XDICTIONARY
360
1C9
102
}
330
3F
100
AcDbSymbolTableRecord
100
AcDbLayerTableRecord
  2
Ech.1_1
 70
     0
 62
     7
  6
CONTINUOUS
370
    -3
390
16C
  0
LAYER
  5
42
102
{ACAD_XDICTIONARY
360
1CB
102
}
330
3F
100
AcDbSymbolTableRecord
100
AcDbLayerTableRecord
  2
Ech.1_2
 70
     0
 62
     7
  6
CONTINUOUS
370
    -3
390
16C
  0
LAYER
  5
43
102
{ACAD_XDICTIONARY
360
1CD
102
}
330
3F
100
AcDbSymbolTableRecord
100
AcDbLayerTableRecord
  2
Ech.1_5
 70
     0
 62
     7
  6
CONTINUOUS
370
    -3
390
16C
  0
LAYER
  5
44
102
{ACAD_XDICTIONARY
360
1CF
102
}
330
3F
100
AcDbSymbolTableRecord
100
AcDbLayerTableRecord
  2
Ech.1_10
 70
     0
 62
     7
  6
CONTINUOUS
370
    -3
390
16C
  0
LAYER
  5
45
102
{ACAD_XDICTIONARY
360
1D1
102
}
330
3F
100
AcDbSymbolTableRecord
100
AcDbLayerTableRecord
  2
Ech.1_20
 70
     0
 62
     7
  6
CONTINUOUS
370
    -3
390
16C
  0
LAYER
  5
46
102
{ACAD_XDICTIONARY
360
1D3
102
}
330
3F
100
AcDbSymbolTableRecord
100
AcDbLayerTableRecord
  2
Ech.1_25
 70
     0
 62
     7
  6
CONTINUOUS
370
    -3
390
16C
  0
LAYER
  5
47
102
{ACAD_XDICTIONARY
360
1D5
102
}
330
3F
100
AcDbSymbolTableRecord
100
AcDbLayerTableRecord
  2
Ech.1_33
 70
     0
 62
     7
  6
CONTINUOUS
370
    -3
390
16C
  0
LAYER
  5
48
102
{ACAD_XDICTIONARY
360
1D7
102
}
330
3F
100
AcDbSymbolTableRecord
100
AcDbLayerTableRecord
  2
Ech.1_50
 70
     0
 62
     7
  6
CONTINUOUS
370
    -3
390
16C
  0
LAYER
  5
49
102
{ACAD_XDICTIONARY
360
1D9
102
}
330
3F
100
AcDbSymbolTableRecord
100
AcDbLayerTableRecord
  2
Ech.1_75
 70
     0
 62
     7
  6
CONTINUOUS
370
    -3
390
16C
  0
LAYER
  5
4A
102
{ACAD_XDICTIONARY
360
1DB
102
}
330
3F
100
AcDbSymbolTableRecord
100
AcDbLayerTableRecord
  2
Ech.1_100
 70
     0
 62
     7
  6
CONTINUOUS
370
    -3
390
16C
  0
LAYER
  5
4B
102
{ACAD_XDICTIONARY
360
1DD
102
}
330
3F
100
AcDbSymbolTableRecord
100
AcDbLayerTableRecord
  2
Ech.1_200
 70
     0
 62
     7
  6
CONTINUOUS
370
    -3
390
16C
  0
LAYER
  5
4C
102
{ACAD_XDICTIONARY
360
1DF
102
}
330
3F
100
AcDbSymbolTableRecord
100
AcDbLayerTableRecord
  2
Ech.1_500
 70
     0
 62
     7
  6
CONTINUOUS
370
    -3
390
16C
  0
LAYER
  5
4D
102
{ACAD_XDICTIONARY
360
1E1
102
}
330
3F
100
AcDbSymbolTableRecord
100
AcDbLayerTableRecord
  2
Ech.1_1000
 70
     0
 62
     7
  6
CONTINUOUS
370
    -3
390
16C
  0
LAYER
  5
4E
102
{ACAD_XDICTIONARY
360
1E3
102
}
330
3F
100
AcDbSymbolTableRecord
100
AcDbLayerTableRecord
  2
Cadres traceur
 70
     0
 62
     7
  6
CONTINUOUS
370
    -3
390
16C
  0
LAYER
  5
4F
102
{ACAD_XDICTIONARY
360
1E5
102
}
330
3F
100
AcDbSymbolTableRecord
100
AcDbLayerTableRecord
  2
Cadres laser
 70
     0
 62
     7
  6
CONTINUOUS
370
    -3
390
16C
  0
LAYER
  5
50
102
{ACAD_XDICTIONARY
360
1E7
102
}
330
3F
100
AcDbSymbolTableRecord
100
AcDbLayerTableRecord
  2
Légende d_aide
 70
     0
 62
     7
  6
CONTINUOUS
370
    -3
390
16C
  0
LAYER
  5
51
102
{ACAD_XDICTIONARY
360
1E9
102
}
330
3F
100
AcDbSymbolTableRecord
100
AcDbLayerTableRecord
  2
hachures ok
 70
     0
 62
     7
  6
CONTINUOUS
370
    -3
390
16C
  0
LAYER
  5
52
102
{ACAD_XDICTIONARY
360
1EB
102
}
330
3F
100
AcDbSymbolTableRecord
100
AcDbLayerTableRecord
  2
ossature bois
 70
     0
 62
     7
  6
CONTINUOUS
370
    -3
390
16C
  0
LAYER
  5
53
102
{ACAD_XDICTIONARY
360
1ED
102
}
330
3F
100
AcDbSymbolTableRecord
100
AcDbLayerTableRecord
  2
VR
 70
     0
 62
     7
  6
CONTINUOUS
370
    -3
390
16C
  0
LAYER
  5
54
102
{ACAD_XDICTIONARY
360
1EF
102
}
330
3F
100
AcDbSymbolTableRecord
100
AcDbLayerTableRecord
  2
CALQUE1
 70
     0
 62
     7
  6
CONTINUOUS
370
    -3
390
16C
  0
LAYER
  5
55
330
3F
100
AcDbSymbolTableRecord
100
AcDbLayerTableRecord
  2
0
 70
     0
 62
     7
  6
CONTINUOUS
370
    -3
390
16C
  0
LAYER
  5
56
102
{ACAD_XDICTIONARY
360
1F1
102
}
330
3F
100
AcDbSymbolTableRecord
100
AcDbLayerTableRecord
  2
MENUISERIE
 70
     0
 62
     7
  6
CONTINUOUS
370
    -3
390
16C
  0
LAYER
  5
57
102
{ACAD_XDICTIONARY
360
1F3
102
}
330
3F
100
AcDbSymbolTableRecord
100
AcDbLayerTableRecord
  2
COTATION
 70
     0
 62
   250
  6
CONTINUOUS
370
    -3
390
16C
  0
LAYER
  5
58
330
3F
100
AcDbSymbolTableRecord
100
AcDbLayerTableRecord
  2
DEFPOINTS
 70
     0
 62
    10
  6
CONTINUOUS
290
     0
370
    -3
390
16C
  0
LAYER
  5
59
102
{ACAD_XDICTIONARY
360
1F5
102
}
330
3F
100
AcDbSymbolTableRecord
100
AcDbLayerTableRecord
  2
HACHURE
 70
     0
 62
   254
  6
CONTINUOUS
370
    -3
390
16C
  0
LAYER
  5
5A
102
{ACAD_XDICTIONARY
360
1F7
102
}
330
3F
100
AcDbSymbolTableRecord
100
AcDbLayerTableRecord
  2
MAT1
 70
     0
 62
     7
  6
CONTINUOUS
370
    -3
390
16C
  0
LAYER
  5
5B
102
{ACAD_XDICTIONARY
360
1F9
102
}
330
3F
100
AcDbSymbolTableRecord
100
AcDbLayerTableRecord
  2
MAT2
 70
     0
 62
     7
  6
CONTINUOUS
370
    -3
390
16C
  0
LAYER
  5
5C
102
{ACAD_XDICTIONARY
360
1FB
102
}
330
3F
100
AcDbSymbolTableRecord
100
AcDbLayerTableRecord
  2
HACH
 70
     0
 62
     8
  6
CONTINUOUS
370
    -3
390
16C
  0
LAYER
  5
5D
102
{ACAD_XDICTIONARY
360
1FD
102
}
330
3F
100
AcDbSymbolTableRecord
100
AcDbLayerTableRecord
  2
MENUISERIES
 70
     0
 62
     7
  6
CONTINUOUS
370
    -3
390
16C
  0
LAYER
  5
5E
102
{ACAD_XDICTIONARY
360
1FF
102
}
330
3F
100
AcDbSymbolTableRecord
100
AcDbLayerTableRecord
  2
BÉTONMÉTAL
 70
     0
 62
     7
  6
CONTINUOUS
370
    -3
390
16C
  0
LAYER
  5
5F
102
{ACAD_XDICTIONARY
360
201
102
}
330
3F
100
AcDbSymbolTableRecord
100
AcDbLayerTableRecord
  2
BOIS
 70
     0
 62
     7
  6
CONTINUOUS
370
    -3
390
16C
  0
ENDTAB
  0
TABLE
  2
STYLE
  5
2C
330
0
100
AcDbSymbolTable
 70
     5
  0
STYLE
  5
2D
330
2C
100
AcDbSymbolTableRecord
100
AcDbTextStyleTableRecord
  2
STANDARD
 70
     0
 40
0.0
 41
1.0
 50
0.0
 71
     0
 42
3.5
  3
MONOTXT
  4

  0
STYLE
  5
2E
330
2C
100
AcDbSymbolTableRecord
100
AcDbTextStyleTableRecord
  2
CADWORK1
 70
     0
 40
0.0
 41
1.0
 50
0.0
 71
     0
 42
3.5
  3
MONOTXT
  4

  0
STYLE
  5
2F
330
2C
100
AcDbSymbolTableRecord
100
AcDbTextStyleTableRecord
  2
MONOTXT
 70
     0
 40
0.0
 41
1.0
 50
0.0
 71
     0
 42
3.5
  3
MONOTXT
  4

  0
STYLE
  5
30
330
2C
100
AcDbSymbolTableRecord
100
AcDbTextStyleTableRecord
  2
TAHOMA
 70
     0
 40
0.0
 41
1.0
 50
0.0
 71
     0
 42
3.5
  3

  4

1001
ACAD
1000
Tahoma
1071
        0
  0
STYLE
  5
31
330
2C
100
AcDbSymbolTableRecord
100
AcDbTextStyleTableRecord
  2
ARIAL
 70
     0
 40
0.0
 41
1.0
 50
0.0
 71
     0
 42
3.5
  3

  4

1001
ACAD
1000
Arial
1071
        0
  0
ENDTAB
  0
TABLE
  2
VIEW
  5
60
330
0
100
AcDbSymbolTable
 70
     3
  0
ENDTAB
  0
TABLE
  2
UCS
  5
61
330
0
100
AcDbSymbolTable
 70
     0
  0
ENDTAB
  0
TABLE
  2
APPID
  5
62
330
0
100
AcDbSymbolTable
 70
     2
  0
APPID
  5
63
330
62
100
AcDbSymbolTableRecord
100
AcDbRegAppTableRecord
  2
ACAD
 70
     0
  0
APPID
  5
243
330
62
100
AcDbSymbolTableRecord
100
AcDbRegAppTableRecord
  2
ACAD_MLEADERVER
 70
     0
  0
ENDTAB
  0
TABLE
  2
DIMSTYLE
  5
64
330
0
100
AcDbSymbolTable
 70
     1
100
AcDbDimStyleTable
 71
     0
  0
DIMSTYLE
105
1B6
330
64
100
AcDbSymbolTableRecord
100
AcDbDimStyleTableRecord
  2
Standard
 70
     0
340
2D
  0
ENDTAB
  0
TABLE
  2
BLOCK_RECORD
  5
65
330
0
100
AcDbSymbolTable
 70
    13
  0
BLOCK_RECORD
  5
66
330
65
100
AcDbSymbolTableRecord
100
AcDbBlockTableRecord
  2
*MODEL_SPACE
340
1B9
  0
BLOCK_RECORD
  5
67
330
65
100
AcDbSymbolTableRecord
100
AcDbBlockTableRecord
  2
*PAPER_SPACE
340
1BA
  0
BLOCK_RECORD
  5
68
330
65
100
AcDbSymbolTableRecord
100
AcDbBlockTableRecord
  2
CDWK_EXTR_0
340
0
  0
BLOCK_RECORD
  5
69
330
65
100
AcDbSymbolTableRecord
100
AcDbBlockTableRecord
  2
CDWK_EXTR_1D
340
0
  0
BLOCK_RECORD
  5
6A
330
65
100
AcDbSymbolTableRecord
100
AcDbBlockTableRecord
  2
CDWK_EXTR_1G
340
0
  0
BLOCK_RECORD
  5
6B
330
65
100
AcDbSymbolTableRecord
100
AcDbBlockTableRecord
  2
CDWK_EXTR_2
340
0
  0
BLOCK_RECORD
  5
6C
330
65
100
AcDbSymbolTableRecord
100
AcDbBlockTableRecord
  2
CDWK_EXTR_3
340
0
  0
BLOCK_RECORD
  5
6D
330
65
100
AcDbSymbolTableRecord
100
AcDbBlockTableRecord
  2
CDWK_EXTR_4
340
0
  0
BLOCK_RECORD
  5
6E
330
65
100
AcDbSymbolTableRecord
100
AcDbBlockTableRecord
  2
CDWK_PTTYP0
340
0
  0
BLOCK_RECORD
  5
6F
330
65
100
AcDbSymbolTableRecord
100
AcDbBlockTableRecord
  2
*X7
340
0
102
{BLKREFS
331
B5
102
}
  0
BLOCK_RECORD
  5
70
330
65
100
AcDbSymbolTableRecord
100
AcDbBlockTableRecord
  2
*X8
340
0
102
{BLKREFS
331
B6
102
}
  0
BLOCK_RECORD
  5
71
330
65
100
AcDbSymbolTableRecord
100
AcDbBlockTableRecord
  2
*X9
340
0
102
{BLKREFS
331
B7
102
}
  0
BLOCK_RECORD
  5
72
330
65
100
AcDbSymbolTableRecord
100
AcDbBlockTableRecord
  2
*X10
340
0
102
{BLKREFS
331
B8
102
}
  0
BLOCK_RECORD
  5
73
330
65
100
AcDbSymbolTableRecord
100
AcDbBlockTableRecord
  2
*D11
340
0
102
{BLKREFS
331
165
102
}
  0
BLOCK_RECORD
  5
74
330
65
100
AcDbSymbolTableRecord
100
AcDbBlockTableRecord
  2
*D12
340
0
102
{BLKREFS
331
166
102
}
  0
ENDTAB
  0
ENDSEC
  0
SECTION
  2
BLOCKS
  0
BLOCK
  5
75
330
66
100
AcDbEntity
  8
0
100
AcDbBlockBegin
  2
*MODEL_SPACE
 70
     0
 10
0.0
 20
0.0
 30
0.0
  3
*MODEL_SPACE
  1

  0
ENDBLK
  5
76
330
66
100
AcDbEntity
  8
0
100
AcDbBlockEnd
  0
BLOCK
  5
77
330
67
100
AcDbEntity
 67
     1
  8
0
100
AcDbBlockBegin
  2
*PAPER_SPACE
 70
     0
 10
0.0
 20
0.0
 30
0.0
  3
*PAPER_SPACE
  1

  0
ENDBLK
  5
78
330
67
100
AcDbEntity
 67
     1
  8
0
100
AcDbBlockEnd
  0
BLOCK
  5
79
330
68
100
AcDbEntity
  8
0
100
AcDbBlockBegin
  2
CDWK_EXTR_0
 70
     0
 10
0.0
 20
0.0
 30
0.0
  3
CDWK_EXTR_0
  1

  0
LINE
  5
7A
330
68
100
AcDbEntity
  8
0
 62
     0
370
    -2
100
AcDbLine
 10
0.0
 20
0.0
 30
0.0
 11
2.0
 21
0.5
 31
0.0
  0
LINE
  5
7B
330
68
100
AcDbEntity
  8
0
 62
     0
370
    -2
100
AcDbLine
 10
0.0
 20
0.0
 30
0.0
 11
2.0
 21
-0.5
 31
0.0
  0
LINE
  5
7C
330
68
100
AcDbEntity
  8
0
 62
     0
370
    -2
100
AcDbLine
 10
2.0
 20
0.5
 30
0.0
 11
2.0
 21
-0.5
 31
0.0
  0
ENDBLK
  5
7D
330
68
100
AcDbEntity
  8
0
100
AcDbBlockEnd
  0
BLOCK
  5
7E
330
69
100
AcDbEntity
  8
0
100
AcDbBlockBegin
  2
CDWK_EXTR_1D
 70
     0
 10
0.0
 20
0.0
 30
0.0
  3
CDWK_EXTR_1D
  1

  0
LINE
  5
7F
330
69
100
AcDbEntity
  8
0
 62
     0
370
    -2
100
AcDbLine
 10
0.0
 20
0.0
 30
0.0
 11
0.0
 21
1.0
 31
0.0
  0
LINE
  5
80
330
69
100
AcDbEntity
  8
0
 62
     0
370
    -2
100
AcDbLine
 10
0.0
 20
1.0
 30
0.0
 11
0.5
 21
1.5
 31
0.0
  0
LINE
  5
81
330
69
100
AcDbEntity
  8
0
 62
     0
370
    -2
100
AcDbLine
 10
0.5
 20
1.5
 30
0.0
 11
1.5
 21
1.5
 31
0.0
  0
ENDBLK
  5
82
330
69
100
AcDbEntity
  8
0
100
AcDbBlockEnd
  0
BLOCK
  5
83
330
6A
100
AcDbEntity
  8
0
100
AcDbBlockBegin
  2
CDWK_EXTR_1G
 70
     0
 10
0.0
 20
0.0
 30
0.0
  3
CDWK_EXTR_1G
  1

  0
LINE
  5
84
330
6A
100
AcDbEntity
  8
0
 62
     0
370
    -2
100
AcDbLine
 10
0.0
 20
0.0
 30
0.0
 11
0.0
 21
-1.0
 31
0.0
  0
LINE
  5
85
330
6A
100
AcDbEntity
  8
0
 62
     0
370
    -2
100
AcDbLine
 10
0.0
 20
-1.0
 30
0.0
 11
0.5
 21
-1.5
 31
0.0
  0
LINE
  5
86
330
6A
100
AcDbEntity
  8
0
 62
     0
370
    -2
100
AcDbLine
 10
0.5
 20
-1.5
 30
0.0
 11
1.5
 21
-1.5
 31
0.0
  0
ENDBLK
  5
87
330
6A
100
AcDbEntity
  8
0
100
AcDbBlockEnd
  0
BLOCK
  5
88
330
6B
100
AcDbEntity
  8
0
100
AcDbBlockBegin
  2
CDWK_EXTR_2
 70
     0
 10
0.0
 20
0.0
 30
0.0
  3
CDWK_EXTR_2
  1

  0
SOLID
  5
89
330
6B
100
AcDbEntity
  8
0
 62
     0
100
AcDbTrace
 10
0.0
 20
0.0
 30
0.0
 11
2.0
 21
0.5
 31
0.0
 12
2.0
 22
-0.5
 32
0.0
 13
2.0
 23
-0.5
 33
0.0
  0
ENDBLK
  5
8A
330
6B
100
AcDbEntity
  8
0
100
AcDbBlockEnd
  0
BLOCK
  5
8B
330
6C
100
AcDbEntity
  8
0
100
AcDbBlockBegin
  2
CDWK_EXTR_3
 70
     0
 10
0.0
 20
0.0
 30
0.0
  3
CDWK_EXTR_3
  1

  0
SOLID
  5
8C
330
6C
100
AcDbEntity
  8
0
 62
     0
100
AcDbTrace
 10
0.0
 20
0.0
 30
0.0
 11
2.0
 21
0.5
 31
0.0
 12
2.0
 22
-0.5
 32
0.0
 13
2.0
 23
-0.5
 33
0.0
  0
LINE
  5
8D
330
6C
100
AcDbEntity
  8
0
 62
     0
370
    -2
100
AcDbLine
 10
0.0
 20
1.0
 30
0.0
 11
0.0
 21
-1.0
 31
0.0
  0
ENDBLK
  5
8E
330
6C
100
AcDbEntity
  8
0
100
AcDbBlockEnd
  0
BLOCK
  5
8F
330
6D
100
AcDbEntity
  8
0
100
AcDbBlockBegin
  2
CDWK_EXTR_4
 70
     0
 10
0.0
 20
0.0
 30
0.0
  3
CDWK_EXTR_4
  1

  0
HATCH
  5
90
330
6D
100
AcDbEntity
  8
0
 62
     0
370
    20
100
AcDbHatch
 10
0.0
 20
0.0
 30
0.0
210
0.0
220
0.0
230
1.0
  2
SOLID
 70
     1
 71
     0
 91
        1
 92
        1
 93
        1
 72
     2
 10
0.0
 20
0.0
 40
0.5
 50
0.0
 51
360.0
 73
     1
 97
        0
 75
     0
 76
     1
 98
        1
 10
0.0
 20
0.0
  0
ENDBLK
  5
91
330
6D
100
AcDbEntity
  8
0
100
AcDbBlockEnd
  0
BLOCK
  5
92
330
6E
100
AcDbEntity
  8
0
100
AcDbBlockBegin
  2
CDWK_PTTYP0
 70
     0
 10
0.0
 20
0.0
 30
0.0
  3
CDWK_PTTYP0
  1

  0
POINT
  5
93
330
6E
100
AcDbEntity
  8
0
 62
     0
100
AcDbPoint
 10
0.0
 20
0.0
 30
0.0
  0
ENDBLK
  5
94
330
6E
100
AcDbEntity
  8
0
100
AcDbBlockEnd
  0
BLOCK
  5
95
330
6F
100
AcDbEntity
  8
Ech.1_5
100
AcDbBlockBegin
  2
*X7
 70
     1
 10
0.0
 20
0.0
 30
0.0
  3
*X7
  1

  0
LINE
  5
96
330
6F
100
AcDbEntity
  8
Ech.1_5
  6
Continuous
 62
     7
370
    -2
100
AcDbLine
 10
42833.29021634
 20
7642.65414823
 30
0.0
 11
42950.99401844
 21
7451.3750692
 31
0.0
  0
LINE
  5
97
330
6F
100
AcDbEntity
  8
Ech.1_5
  6
Continuous
 62
     7
370
    -2
100
AcDbLine
 10
42875.58433237999
 20
7658.045763860001
 30
0.0
 11
42908.71030302
 21
7435.984753640001
 31
0.0
  0
ENDBLK
  5
98
330
6F
100
AcDbEntity
  8
0
100
AcDbBlockEnd
  0
BLOCK
  5
99
330
70
100
AcDbEntity
  8
Ech.1_5
100
AcDbBlockBegin
  2
*X8
 70
     1
 10
0.0
 20
0.0
 30
0.0
  3
*X8
  1

  0
LINE
  5
9A
330
70
100
AcDbEntity
  8
Ech.1_5
  6
Continuous
 62
     7
370
    -2
100
AcDbLine
 10
43413.15591206
 20
7853.707403610001
 30
0.0
 11
43530.85451384999
 21
7662.427024500001
 31
0.0
  0
LINE
  5
9B
330
70
100
AcDbEntity
  8
Ech.1_5
  6
Continuous
 62
     7
370
    -2
100
AcDbLine
 10
43455.43962748
 20
7869.097719160001
 30
0.0
 11
43488.57079843
 21
7647.03540886
 31
0.0
  0
ENDBLK
  5
9C
330
70
100
AcDbEntity
  8
0
100
AcDbBlockEnd
  0
BLOCK
  5
9D
330
71
100
AcDbEntity
  8
Ech.1_5
100
AcDbBlockBegin
  2
*X9
 70
     1
 10
0.0
 20
0.0
 30
0.0
  3
*X9
  1

  0
LINE
  5
9E
330
71
100
AcDbEntity
  8
Ech.1_5
  6
Continuous
 62
     7
370
    -2
100
AcDbLine
 10
42833.29021634
 20
7642.65414823
 30
0.0
 11
42950.99401844
 21
7451.3750692
 31
0.0
  0
LINE
  5
9F
330
71
100
AcDbEntity
  8
Ech.1_5
  6
Continuous
 62
     7
370
    -2
100
AcDbLine
 10
42875.58433237999
 20
7658.045763860001
 30
0.0
 11
42908.71030302
 21
7435.984753640001
 31
0.0
  0
ENDBLK
  5
A0
330
71
100
AcDbEntity
  8
0
100
AcDbBlockEnd
  0
BLOCK
  5
A1
330
72
100
AcDbEntity
  8
Ech.1_5
100
AcDbBlockBegin
  2
*X10
 70
     1
 10
0.0
 20
0.0
 30
0.0
  3
*X10
  1

  0
LINE
  5
A2
330
72
100
AcDbEntity
  8
Ech.1_5
  6
Continuous
 62
     7
370
    -2
100
AcDbLine
 10
43413.15591206
 20
7853.707403610001
 30
0.0
 11
43530.85451384999
 21
7662.427024500001
 31
0.0
  0
LINE
  5
A3
330
72
100
AcDbEntity
  8
Ech.1_5
  6
Continuous
 62
     7
370
    -2
100
AcDbLine
 10
43455.43962748
 20
7869.097719160001
 30
0.0
 11
43488.57079843
 21
7647.03540886
 31
0.0
  0
ENDBLK
  5
A4
330
72
100
AcDbEntity
  8
0
100
AcDbBlockEnd
  0
BLOCK
  5
A5
330
73
100
AcDbEntity
  8
Ech.1_5
100
AcDbBlockBegin
  2
*D11
 70
     1
 10
0.0
 20
0.0
 30
0.0
  3
*D11
  1

  0
TEXT
  5
A6
330
73
100
AcDbEntity
  8
Ech.1_5
 62
     7
370
    18
100
AcDbText
 10
43107.50423724
 20
7611.228887820001
 30
0.0
 40
12.5
  1
distance de sécurité
  7
ARIAL
100
AcDbText
  0
LINE
  5
A7
330
73
100
AcDbEntity
  8
Ech.1_5
 62
     7
370
    -2
100
AcDbLine
 10
43012.07445538
 20
7624.84416985
 30
0.0
 11
43012.07445538
 21
7663.44246907
 31
0.0
  0
LINE
  5
A8
330
73
100
AcDbEntity
  8
Ech.1_5
 62
     7
370
    -2
100
AcDbLine
 10
43092.07445538
 20
7624.84416985
 30
0.0
 11
43092.07445538
 21
7663.44246907
 31
0.0
  0
LINE
  5
A9
330
73
100
AcDbEntity
  8
Ech.1_5
 62
     7
370
    -2
100
AcDbLine
 10
43007.07445538
 20
7629.84416985
 30
0.0
 11
43097.07445538
 21
7629.84416985
 31
0.0
  0
LINE
  5
AA
330
73
100
AcDbEntity
  8
Ech.1_5
 62
     7
370
    -2
100
AcDbLine
 10
43009.57445538
 20
7627.344169850001
 30
0.0
 11
43014.57445538
 21
7632.34416985
 31
0.0
  0
LINE
  5
AB
330
73
100
AcDbEntity
  8
Ech.1_5
 62
     7
370
    -2
100
AcDbLine
 10
43089.57445538
 20
7627.344169850001
 30
0.0
 11
43094.57445538
 21
7632.34416985
 31
0.0
  0
ENDBLK
  5
AC
330
73
100
AcDbEntity
  8
0
100
AcDbBlockEnd
  0
BLOCK
  5
AD
330
74
100
AcDbEntity
  8
Ech.1_5
100
AcDbBlockBegin
  2
*D12
 70
     1
 10
0.0
 20
0.0
 30
0.0
  3
*D12
  1

  0
TEXT
  5
AE
330
74
100
AcDbEntity
  8
Ech.1_5
 62
     7
370
    18
100
AcDbText
 10
43302.57103074
 20
7634.84416985
 30
0.0
 40
12.5
  1

  7
ARIAL
100
AcDbText
  0
LINE
  5
AF
330
74
100
AcDbEntity
  8
Ech.1_5
 62
     7
370
    -2
100
AcDbLine
 10
43272.07445538
 20
7624.84416985
 30
0.0
 11
43272.07445538
 21
7663.44246907
 31
0.0
  0
LINE
  5
B0
330
74
100
AcDbEntity
  8
Ech.1_5
 62
     7
370
    -2
100
AcDbLine
 10
43352.07445538
 20
7624.84416985
 30
0.0
 11
43352.07445538
 21
7710.443354199999
 31
0.0
  0
LINE
  5
B1
330
74
100
AcDbEntity
  8
Ech.1_5
 62
     7
370
    -2
100
AcDbLine
 10
43267.07445538
 20
7629.84416985
 30
0.0
 11
43357.07445538
 21
7629.84416985
 31
0.0
  0
LINE
  5
B2
330
74
100
AcDbEntity
  8
Ech.1_5
 62
     7
370
    -2
100
AcDbLine
 10
43269.57445538
 20
7627.344169850001
 30
0.0
 11
43274.57445538
 21
7632.34416985
 31
0.0
  0
LINE
  5
B3
330
74
100
AcDbEntity
  8
Ech.1_5
 62
     7
370
    -2
100
AcDbLine
 10
43349.57445538
 20
7627.344169850001
 30
0.0
 11
43354.57445538
 21
7632.34416985
 31
0.0
  0
ENDBLK
  5
B4
330
74
100
AcDbEntity
  8
0
100
AcDbBlockEnd
  0
ENDSEC
  0
SECTION
  2
ENTITIES
  0
INSERT
  5
B5
330
66
100
AcDbEntity
  8
Ech.1_5
 62
     0
370
     5
100
AcDbBlockReference
  2
*X7
 10
0.0
 20
0.0
 30
0.0
  0
INSERT
  5
B6
330
66
100
AcDbEntity
  8
Ech.1_5
 62
     0
370
     5
100
AcDbBlockReference
  2
*X8
 10
0.0
 20
0.0
 30
0.0
  0
INSERT
  5
B7
330
66
100
AcDbEntity
  8
Ech.1_5
 62
     0
370
     5
100
AcDbBlockReference
  2
*X9
 10
0.0
 20
0.0
 30
0.0
  0
INSERT
  5
B8
330
66
100
AcDbEntity
  8
Ech.1_5
 62
     0
370
     5
100
AcDbBlockReference
  2
*X10
 10
0.0
 20
0.0
 30
0.0
  0
LWPOLYLINE
  5
B9
330
66
100
AcDbEntity
  8
Ech.1_5
  6
HIDDEN
 62
     7
370
    -3
100
AcDbPolyline
 90
        4
 70
     0
 43
0.0
 10
42628.39347329
 20
7625.61386473
 10
42600.04031232999
 20
7586.561358229999
 10
42637.62801716
 20
7600.24216397
 10
42590.80576846
 20
7611.933059
  0
LWPOLYLINE
  5
BA
330
66
100
AcDbEntity
  8
Ech.1_5
  6
HIDDEN
 62
     7
370
    -3
100
AcDbPolyline
 90
        5
 70
     0
 43
0.0
 10
42590.84384850999
 20
7611.985508930001
 10
42628.43155334
 20
7625.66631466
 10
42637.66609721
 20
7600.2946139
 10
42600.07839237999
 20
7586.61380816
 10
42590.84384850999
 20
7611.985508930001
  0
LINE
  5
BB
330
66
100
AcDbEntity
  8
Ech.1_5
  6
HIDDEN
 62
     7
370
    -3
100
AcDbLine
 10
42583.48954942
 20
7677.26534133
 30
0.0
 11
42931.56109134
 21
7761.317758610001
 31
0.0
  0
LWPOLYLINE
  5
BC
330
66
100
AcDbEntity
  8
Ech.1_5
  6
HIDDEN
 62
     7
370
    -3
100
AcDbPolyline
 90
       23
 70
     0
 43
0.0
 10
42978.49462899
 20
7783.948321789999
 10
42987.93904745
 20
7786.22896271
 10
43000.54330611
 20
7734.033155760001
 10
42976.81064182
 20
7727.667418920001
 10
42970.70172706
 20
7750.4426022
 10
42636.85722231
 20
7660.896555600001
 10
42639.04045482
 20
7651.85551749
 10
42628.581257
 20
7649.05008022
 10
42626.08583988
 20
7659.383913710001
 10
42610.30118280999
 20
7655.213095639999
 10
42612.83443547999
 20
7644.72258041
 10
42592.53188214
 20
7639.81991392
 10
42583.48954942
 20
7677.26534133
 10
42575.59533418
 20
7709.956271140001
 42
-0.41421356
 10
42592.04315707999
 20
7736.876663230001
 10
42918.4785411
 20
7815.704374799999
 10
42931.60904093999
 20
7761.3293375
 10
42954.67538972
 20
7766.89940612
 10
42952.09769019999
 20
7777.57398132
 10
42961.54210866
 20
7779.854622240001
 10
42964.11980819
 20
7769.180047040001
 10
42981.07232851999
 20
7773.27374658
 10
42978.49462899
 20
7783.948321789999
  0
LWPOLYLINE
  5
BD
330
66
100
AcDbEntity
  8
Ech.1_5
  6
HIDDEN
 62
     7
370
    -3
100
AcDbPolyline
 90
        5
 70
     0
 43
0.0
 10
42590.81593139
 20
7611.90513658
 10
42628.40363621999
 20
7625.58594231
 10
42637.63818009
 20
7600.21424155
 10
42600.05047526
 20
7586.53343582
 10
42590.81593139
 20
7611.90513658
  0
LWPOLYLINE
  5
BE
330
66
100
AcDbEntity
  8
Ech.1_5
  6
HIDDEN
 62
     7
370
    -3
100
AcDbPolyline
 90
        4
 70
     0
 43
0.0
 10
42966.95074646
 20
7748.838629000001
 10
42938.5975855
 20
7709.78612251
 10
42976.18529033
 20
7723.46692824
 10
42929.36304163
 20
7735.15782327
  0
LWPOLYLINE
  5
BF
330
66
100
AcDbEntity
  8
Ech.1_5
  6
HIDDEN
 62
     7
370
    -3
100
AcDbPolyline
 90
        4
 70
     0
 43
0.0
 10
43425.55132526999
 20
7915.756468819999
 10
43397.19816431
 20
7876.703962329999
 10
43434.78586914
 20
7890.384768060001
 10
43387.96362044
 20
7902.075663089999
  0
LWPOLYLINE
  5
C0
330
66
100
AcDbEntity
  8
Ech.1_5
  6
HIDDEN
 62
     7
370
    -3
100
AcDbPolyline
 90
        5
 70
     0
 43
0.0
 10
42590.77785134
 20
7611.85268665
 10
42628.36555617
 20
7625.53349238
 10
42637.60010003999
 20
7600.16179162
 10
42600.01239521
 20
7586.48098589
 10
42590.77785134
 20
7611.85268665
  0
LWPOLYLINE
  5
C1
330
66
100
AcDbEntity
  8
Ech.1_5
  6
HIDDEN
 62
     7
370
    -3
100
AcDbPolyline
 90
        5
 70
     0
 43
0.0
 10
42929.40112167999
 20
7735.210273199999
 10
42966.98882651
 20
7748.891078939999
 10
42976.22337038
 20
7723.51937817
 10
42938.63566555
 20
7709.83857244
 10
42929.40112167999
 20
7735.210273199999
  0
LINE
  5
C2
330
66
100
AcDbEntity
  8
Ech.1_5
  6
HIDDEN
 62
     7
370
    -3
100
AcDbLine
 10
43380.6474014
 20
7967.407945419999
 30
0.0
 11
43728.71894331999
 21
8051.460362710001
 31
0.0
  0
LWPOLYLINE
  5
C3
330
66
100
AcDbEntity
  8
Ech.1_5
  6
HIDDEN
 62
     7
370
    -3
100
AcDbPolyline
 90
       23
 70
     0
 43
0.0
 10
43775.65248097
 20
8074.09092588
 10
43785.09689942999
 20
8076.3715668
 10
43797.70115809
 20
8024.175759850001
 10
43773.9684938
 20
8017.81002301
 10
43767.85957903
 20
8040.585206290002
 10
43434.01507428
 20
7951.039159690001
 10
43436.1983068
 20
7941.998121580001
 10
43425.73910898
 20
7939.19268431
 10
43423.24369186
 20
7949.526517799999
 10
43407.45903478
 20
7945.35569973
 10
43409.99228745999
 20
7934.865184499999
 10
43389.68973412
 20
7929.96251801
 10
43380.6474014
 20
7967.407945419999
 10
43372.75318615
 20
8000.098875229999
 42
-0.41421356
 10
43389.20100906
 20
8027.01926732
 10
43715.63639308
 20
8105.846978889999
 10
43728.76689292
 20
8051.47194159
 10
43751.83324169999
 20
8057.04201021
 10
43749.25554217
 20
8067.716585410002
 10
43758.69996063
 20
8069.99722633
 10
43761.27766016
 20
8059.322651130001
 10
43778.2301805
 20
8063.416350670001
 10
43775.65248097
 20
8074.09092588
  0
LWPOLYLINE
  5
C4
330
66
100
AcDbEntity
  8
Ech.1_5
  6
HIDDEN
 62
     7
370
    -3
100
AcDbPolyline
 90
        4
 70
     0
 43
0.0
 10
43764.10859844
 20
8038.981233100001
 10
43735.75543748
 20
7999.9287266
 10
43773.34314230999
 20
8013.60953234
 10
43726.52089361
 20
8025.300427359999
  0
LWPOLYLINE
  5
C5
330
66
100
AcDbEntity
  8
Ech.1_5
  6
HIDDEN
 62
     7
370
    -3
100
AcDbPolyline
 90
        5
 70
     0
 43
0.0
 10
43726.55897366
 20
8025.35287729
 10
43764.14667848999
 20
8039.03368303
 10
43773.38122236
 20
8013.661982270001
 10
43735.79351753
 20
7999.981176530001
 10
43726.55897366
 20
8025.35287729
  0
LWPOLYLINE
  5
C6
330
66
100
AcDbEntity
  8
Ech.1_5
  6
Continuous
 62
     7
370
    -3
100
AcDbPolyline
 90
        5
 70
     0
 43
0.0
 10
43092.07445538
 20
8198.567300650001
 10
43272.07445538
 20
8198.567300650001
 10
43272.07445538
 20
7266.73920151
 10
43092.07445538
 20
7266.73920151
 10
43092.07445538
 20
8198.567300650001
  0
LWPOLYLINE
  5
C7
330
66
100
AcDbEntity
  8
Ech.1_5
  6
HIDDEN
 62
     7
370
    -3
100
AcDbPolyline
 90
        3
 70
     0
 43
0.0
 10
43718.2301805
 20
8041.578134559999
 10
43320.64740139999
 20
7914.885245589999
 10
43272.07445538
 20
8040.909169429999
  0
LWPOLYLINE
  5
C8
330
66
100
AcDbEntity
  8
Ech.1_5
  6
HIDDEN
 62
     7
370
    -3
100
AcDbPolyline
 90
        3
 70
     0
 43
0.0
 10
42643.48954942
 20
7699.10355416
 10
43041.07232852
 20
7825.796443129999
 10
43092.07445538
 20
8040.909169429999
  0
LWPOLYLINE
  5
C9
330
66
100
AcDbEntity
  8
Ech.1_5
  6
HIDDEN
 62
     7
370
    -3
100
AcDbPolyline
 90
        3
 70
     0
 43
0.0
 10
42583.48954942
 20
7644.44958017
 10
42976.75392113
 20
7769.766374560001
 10
42981.07232851999
 20
7803.958230300001
  0
LWPOLYLINE
  5
CA
330
66
100
AcDbEntity
  8
Ech.1_5
  6
HIDDEN
 62
     7
370
    -3
100
AcDbPolyline
 90
        3
 70
     0
 43
0.0
 10
43718.2301805
 20
8008.762373400001
 10
43325.47452192
 20
7883.60768447
 10
43320.64740139999
 20
7914.885245589999
  0
LWPOLYLINE
  5
CB
330
66
100
AcDbEntity
  8
Ech.1_5
  6
HIDDEN
 62
     7
370
    -3
100
AcDbPolyline
 90
        5
 70
     0
 43
0.0
 10
43001.07232852
 20
8409.623170199997
 10
43360.6474014
 20
8409.623170199997
 10
43360.6474014
 20
8363.321320049999
 10
43001.07232852
 20
8363.321320049999
 10
43001.07232852
 20
8409.623170199997
  0
LWPOLYLINE
  5
CC
330
66
100
AcDbEntity
  8
Ech.1_5
  6
HIDDEN
 62
     7
370
    -3
100
AcDbPolyline
 90
        5
 70
     0
 43
0.0
 10
43041.07232852
 20
8363.321320049999
 10
43320.64740139999
 20
8363.321320049999
 10
43320.64740139999
 20
8198.567300650001
 10
43041.07232852
 20
8198.567300650001
 10
43041.07232852
 20
8363.321320049999
  0
LINE
  5
CD
330
66
100
AcDbEntity
  8
Ech.1_5
  6
HIDDEN
 62
     7
370
    -3
100
AcDbLine
 10
43041.07232852
 20
8198.567300650001
 30
0.0
 11
43041.07232852
 21
7825.796443129999
 31
0.0
  0
LINE
  5
CE
330
66
100
AcDbEntity
  8
Ech.1_5
  6
HIDDEN
 62
     7
370
    -3
100
AcDbLine
 10
43320.64740139999
 20
8198.567300650001
 30
0.0
 11
43320.64740139999
 21
7914.885245589999
 31
0.0
  0
LWPOLYLINE
  5
CF
330
66
100
AcDbEntity
  8
Ech.1_5
  6
Continuous
 62
     7
370
    -3
100
AcDbPolyline
 90
        4
 70
     0
 43
0.0
 10
43092.07445538
 20
8040.909169429999
 10
43092.07445538
 20
8198.567300650001
 10
43272.07445538
 20
8198.567300650001
 10
43272.07445538
 20
8040.909169429999
  0
LWPOLYLINE
  5
D0
330
66
100
AcDbEntity
  8
Ech.1_5
  6
Continuous
 62
     5
370
    -3
100
AcDbPolyline
 90
        4
 70
     0
 43
0.0
 10
43087.62307850999
 20
7474.282944939999
 10
43087.62307850999
 20
7491.95462187
 42
0.35164347
 10
43074.72242251
 20
7498.408460020001
 10
43038.07445538
 20
7485.06969014
  0
CIRCLE
  5
D1
330
66
100
AcDbEntity
  8
Ech.1_5
  6
Continuous
 62
     7
370
    -3
100
AcDbCircle
 10
42886.70583076999
 20
7325.750280240001
 30
0.0
 40
2.518023729999999
  0
LINE
  5
D2
330
66
100
AcDbEntity
  8
Ech.1_5
  6
Continuous
 62
     7
370
    -3
100
AcDbLine
 10
42869.47108309
 20
7412.573719730001
 30
0.0
 11
42905.86925893999
 21
7312.57055347
 31
0.0
  0
CIRCLE
  5
D3
330
66
100
AcDbEntity
  8
Ech.1_5
  6
Continuous
 62
     7
370
    -3
100
AcDbCircle
 10
42871.31492432
 20
7368.036448169999
 30
0.0
 40
2.518023729999999
  0
ARC
  5
D4
330
66
100
AcDbEntity
  8
Ech.1_5
  6
Continuous
 62
     7
370
    -3
100
AcDbCircle
 10
42875.79909508
 20
7301.62590888
 30
0.0
 40
5.0
100
AcDbArc
 50
290.00001002
 51
20.0
  0
LINE
  5
D5
330
66
100
AcDbEntity
  8
Ech.1_5
  6
Continuous
 62
     7
370
    -3
100
AcDbLine
 10
42877.05965444
 20
7297.489776359999
 30
0.0
 11
42876.37561414999
 21
7299.369161599999
 31
0.0
  0
LINE
  5
D6
330
66
100
AcDbEntity
  8
Ech.1_5
  6
Continuous
 62
     7
370
    -3
100
AcDbLine
 10
42873.75042530999
 20
7295.5593652
 30
0.0
 11
42877.50919579
 21
7296.927445779999
 31
0.0
  0
ARC
  5
D7
330
66
100
AcDbEntity
  8
Ech.1_5
  6
Continuous
 62
     7
370
    -3
100
AcDbCircle
 10
42884.80384841
 20
7305.4402428
 30
0.0
 40
14.82598747
100
AcDbArc
 50
221.7941811
 51
258.13516837
  0
ARC
  5
D8
330
66
100
AcDbEntity
  8
Ech.1_5
  6
Continuous
 62
     7
370
    -3
100
AcDbCircle
 10
42888.0447774
 20
7292.28027068
 30
0.0
 40
12.47697948
100
AcDbArc
 50
209.36225397
 51
274.61219105
  0
LINE
  5
D9
330
66
100
AcDbEntity
  8
Ech.1_5
  6
Continuous
 62
     7
370
    -3
100
AcDbLine
 10
42877.05965444
 20
7297.489776359999
 30
0.0
 11
42873.17833493999
 21
7296.077091589999
 31
0.0
  0
LINE
  5
DA
330
66
100
AcDbEntity
  8
Ech.1_5
  6
Continuous
 62
     7
370
    -3
100
AcDbLine
 10
42873.17833493999
 20
7296.077091589999
 30
0.0
 11
42880.25205372
 21
7276.64220897
 31
0.0
  0
LINE
  5
DB
330
66
100
AcDbEntity
  8
Ech.1_5
  6
Continuous
 62
     7
370
    -3
100
AcDbLine
 10
42876.37561414999
 20
7299.369161599999
 30
0.0
 11
42870.61490940999
 21
7297.27243655
 31
0.0
  0
LINE
  5
DC
330
66
100
AcDbEntity
  8
Ech.1_5
  6
Continuous
 62
     7
370
    -3
100
AcDbLine
 10
42870.61490940999
 20
7297.27243655
 30
0.0
 11
42879.05670876999
 21
7274.07878344
 31
0.0
  0
CIRCLE
  5
DD
330
66
100
AcDbEntity
  8
Ech.1_5
  6
Continuous
 62
     7
370
    -3
100
AcDbCircle
 10
42881.57552862
 20
7339.84566955
 30
0.0
 40
2.518023729999999
  0
CIRCLE
  5
DE
330
66
100
AcDbEntity
  8
Ech.1_5
  6
Continuous
 62
     7
370
    -3
100
AcDbCircle
 10
42891.83613291999
 20
7311.65489093
 30
0.0
 40
2.518023729999999
  0
CIRCLE
  5
DF
330
66
100
AcDbEntity
  8
Ech.1_5
  6
Continuous
 62
     7
370
    -3
100
AcDbCircle
 10
42876.44522647
 20
7353.941058860001
 30
0.0
 40
2.518023729999999
  0
ARC
  5
E0
330
66
100
AcDbEntity
  8
Ech.1_5
  6
Continuous
 62
     7
370
    -3
100
AcDbCircle
 10
42901.21787421
 20
7311.41445961
 30
0.0
 40
14.82598747
100
AcDbArc
 50
321.86485166
 51
358.20583894
  0
ARC
  5
E1
330
66
100
AcDbEntity
  8
Ech.1_5
  6
Continuous
 62
     7
370
    -3
100
AcDbCircle
 10
42916.36871798
 20
7303.776123370001
 30
0.0
 40
3.804859969999999
100
AcDbArc
 50
203.49677662
 51
324.25391082
  0
ARC
  5
E2
330
66
100
AcDbEntity
  8
Ech.1_5
  6
Continuous
 62
     7
370
    -3
100
AcDbCircle
 10
42907.19424558999
 20
7299.2501071
 30
0.0
 40
12.47697948
100
AcDbArc
 50
305.38782898
 51
10.63775604
  0
LINE
  5
E3
330
66
100
AcDbEntity
  8
Ech.1_5
  6
Continuous
 62
     7
370
    -3
100
AcDbLine
 10
42916.03659324
 20
7310.95027165
 30
0.0
 11
42912.27782276
 21
7309.58219108
 31
0.0
  0
ARC
  5
E4
330
66
100
AcDbEntity
  8
Ech.1_5
  6
Continuous
 62
     7
370
    -3
100
AcDbCircle
 10
42910.56772204
 20
7314.28065418
 30
0.0
 40
5.0
100
AcDbArc
 50
200.00001002
 51
290.00001002
  0
LINE
  5
E5
330
66
100
AcDbEntity
  8
Ech.1_5
  6
Continuous
 62
     7
370
    -3
100
AcDbLine
 10
42912.26073229
 20
7310.301920909999
 30
0.0
 11
42911.576692
 21
7312.181306149999
 31
0.0
  0
LINE
  5
E6
330
66
100
AcDbEntity
  8
Ech.1_5
  6
Continuous
 62
     7
370
    -3
100
AcDbLine
 10
42912.26073229
 20
7310.301920909999
 30
0.0
 11
42916.14205179
 21
7311.714605680001
 31
0.0
  0
LINE
  5
E7
330
66
100
AcDbEntity
  8
Ech.1_5
  6
Continuous
 62
     7
370
    -3
100
AcDbLine
 10
42916.14205179
 20
7311.714605680001
 30
0.0
 11
42923.21577057
 21
7292.27972306
 31
0.0
  0
LINE
  5
E8
330
66
100
AcDbEntity
  8
Ech.1_5
  6
Continuous
 62
     7
370
    -3
100
AcDbLine
 10
42911.576692
 20
7312.181306149999
 30
0.0
 11
42917.33739674
 21
7314.2780312
 31
0.0
  0
LINE
  5
E9
330
66
100
AcDbEntity
  8
Ech.1_5
  6
Continuous
 62
     7
370
    -3
100
AcDbLine
 10
42917.33739674
 20
7314.2780312
 30
0.0
 11
42925.77919609
 21
7291.084378100001
 31
0.0
  0
CIRCLE
  5
EA
330
66
100
AcDbEntity
  8
Ech.1_5
  6
Continuous
 62
     7
370
    -3
100
AcDbCircle
 10
42866.18462217
 20
7382.13183749
 30
0.0
 40
2.518023729999999
  0
LINE
  5
EB
330
66
100
AcDbEntity
  8
Ech.1_5
  6
Continuous
 62
     7
370
    -3
100
AcDbLine
 10
42844.09938233
 20
7403.339175860001
 30
0.0
 11
42880.49755818
 21
7303.336009599999
 31
0.0
  0
CIRCLE
  5
EC
330
66
100
AcDbEntity
  8
Ech.1_5
  6
Continuous
 62
     7
370
    -3
100
AcDbCircle
 10
42861.05432001999
 20
7396.2272268
 30
0.0
 40
2.518023729999999
  0
LINE
  5
ED
330
66
100
AcDbEntity
  8
Ech.1_5
  6
Continuous
 62
     7
370
    -3
100
AcDbLine
 10
42844.09938233
 20
7403.339175860001
 30
0.0
 11
42869.47108309
 21
7412.573719730001
 31
0.0
  0
LINE
  5
EE
330
66
100
AcDbEntity
  8
Ech.1_5
  6
Continuous
 62
     7
370
    -3
100
AcDbLine
 10
42923.21577057
 20
7292.27972306
 30
0.0
 11
42880.25205372
 21
7276.64220897
 31
0.0
  0
LINE
  5
EF
330
66
100
AcDbEntity
  8
Ech.1_5
  6
Continuous
 62
     7
370
    -3
100
AcDbLine
 10
42879.05670876999
 20
7274.07878344
 30
0.0
 11
42925.77919609
 21
7291.084378100001
 31
0.0
  0
ARC
  5
F0
330
66
100
AcDbEntity
  8
Ech.1_5
  6
Continuous
 62
     7
370
    -3
100
AcDbCircle
 10
42878.10745662
 20
7289.85016311
 30
0.0
 40
3.804859969999999
100
AcDbArc
 50
255.74610922
 51
16.50323339
  0
LINE
  5
F1
330
66
100
AcDbEntity
  8
Ech.1_5
  6
Continuous
 62
     7
370
    -3
100
AcDbLine
 10
42852.36388557
 20
7414.57092525
 30
0.0
 11
42852.36388557
 21
7414.57092525
 31
0.0
  0
LINE
  5
F2
330
66
100
AcDbEntity
  8
Ech.1_5
  6
Continuous
 62
     7
370
    -3
100
AcDbLine
 10
43513.47777793
 20
7646.97298815
 30
0.0
 11
43549.87595378999
 21
7546.969821890001
 31
0.0
  0
CIRCLE
  5
F3
330
66
100
AcDbEntity
  8
Ech.1_5
  6
Continuous
 62
     7
370
    -3
100
AcDbCircle
 10
43515.32161916999
 20
7602.435716600002
 30
0.0
 40
2.518023729999999
  0
ARC
  5
F4
330
66
100
AcDbEntity
  8
Ech.1_5
  6
Continuous
 62
     7
370
    -3
100
AcDbCircle
 10
43519.80578992
 20
7536.0251773
 30
0.0
 40
5.0
100
AcDbArc
 50
290.00001002
 51
20.0
  0
LINE
  5
F5
330
66
100
AcDbEntity
  8
Ech.1_5
  6
Continuous
 62
     7
370
    -3
100
AcDbLine
 10
43517.75712015
 20
7529.958633629999
 30
0.0
 11
43521.51589064
 21
7531.3267142
 31
0.0
  0
ARC
  5
F6
330
66
100
AcDbEntity
  8
Ech.1_5
  6
Continuous
 62
     7
370
    -3
100
AcDbCircle
 10
43528.81054325999
 20
7539.839511219999
 30
0.0
 40
14.82598747
100
AcDbArc
 50
221.7941811
 51
258.13516837
  0
ARC
  5
F7
330
66
100
AcDbEntity
  8
Ech.1_5
  6
Continuous
 62
     7
370
    -3
100
AcDbCircle
 10
43532.05147225
 20
7526.6795391
 30
0.0
 40
12.47697948
100
AcDbArc
 50
209.36225397
 51
274.61219105
  0
LINE
  5
F8
330
66
100
AcDbEntity
  8
Ech.1_5
  6
Continuous
 62
     7
370
    -3
100
AcDbLine
 10
43521.06634927999
 20
7531.88904478
 30
0.0
 11
43517.18502979
 21
7530.47636001
 31
0.0
  0
LINE
  5
F9
330
66
100
AcDbEntity
  8
Ech.1_5
  6
Continuous
 62
     7
370
    -3
100
AcDbLine
 10
43517.18502979
 20
7530.47636001
 30
0.0
 11
43524.25874857
 21
7511.04147739
 31
0.0
  0
LINE
  5
FA
330
66
100
AcDbEntity
  8
Ech.1_5
  6
Continuous
 62
     7
370
    -3
100
AcDbLine
 10
43520.38230899999
 20
7533.76843002
 30
0.0
 11
43514.62160426
 21
7531.67170497
 31
0.0
  0
LINE
  5
FB
330
66
100
AcDbEntity
  8
Ech.1_5
  6
Continuous
 62
     7
370
    -3
100
AcDbLine
 10
43514.62160426
 20
7531.67170497
 30
0.0
 11
43523.06340361
 21
7508.47805187
 31
0.0
  0
CIRCLE
  5
FC
330
66
100
AcDbEntity
  8
Ech.1_5
  6
Continuous
 62
     7
370
    -3
100
AcDbCircle
 10
43525.58222347
 20
7574.24493797
 30
0.0
 40
2.518023729999999
  0
CIRCLE
  5
FD
330
66
100
AcDbEntity
  8
Ech.1_5
  6
Continuous
 62
     7
370
    -3
100
AcDbCircle
 10
43535.84282777
 20
7546.054159349999
 30
0.0
 40
2.518023729999999
  0
CIRCLE
  5
FE
330
66
100
AcDbEntity
  8
Ech.1_5
  6
Continuous
 62
     7
370
    -3
100
AcDbCircle
 10
43520.45192131999
 20
7588.34032729
 30
0.0
 40
2.518023729999999
  0
ARC
  5
FF
330
66
100
AcDbEntity
  8
Ech.1_5
  6
Continuous
 62
     7
370
    -3
100
AcDbCircle
 10
43545.22456905
 20
7545.813728029999
 30
0.0
 40
14.82598747
100
AcDbArc
 50
321.86485166
 51
358.20583894
  0
ARC
  5
100
330
66
100
AcDbEntity
  8
Ech.1_5
  6
Continuous
 62
     7
370
    -3
100
AcDbCircle
 10
43560.37541283
 20
7538.1753918
 30
0.0
 40
3.804859969999999
100
AcDbArc
 50
203.49677662
 51
324.25391082
  0
ARC
  5
101
330
66
100
AcDbEntity
  8
Ech.1_5
  6
Continuous
 62
     7
370
    -3
100
AcDbCircle
 10
43551.20094042999
 20
7533.649375519999
 30
0.0
 40
12.47697948
100
AcDbArc
 50
305.38782898
 51
10.63775604
  0
LINE
  5
102
330
66
100
AcDbEntity
  8
Ech.1_5
  6
Continuous
 62
     7
370
    -3
100
AcDbLine
 10
43560.04328809
 20
7545.349540080001
 30
0.0
 11
43556.28451761
 21
7543.9814595
 31
0.0
  0
ARC
  5
103
330
66
100
AcDbEntity
  8
Ech.1_5
  6
Continuous
 62
     7
370
    -3
100
AcDbCircle
 10
43554.57441689
 20
7548.67992261
 30
0.0
 40
5.0
100
AcDbArc
 50
200.00001002
 51
290.00001002
  0
LINE
  5
104
330
66
100
AcDbEntity
  8
Ech.1_5
  6
Continuous
 62
     7
370
    -3
100
AcDbLine
 10
43556.26742713
 20
7544.70118933
 30
0.0
 11
43555.58338685
 21
7546.58057457
 31
0.0
  0
LINE
  5
105
330
66
100
AcDbEntity
  8
Ech.1_5
  6
Continuous
 62
     7
370
    -3
100
AcDbLine
 10
43556.26742713
 20
7544.70118933
 30
0.0
 11
43560.14874663
 21
7546.1138741
 31
0.0
  0
LINE
  5
106
330
66
100
AcDbEntity
  8
Ech.1_5
  6
Continuous
 62
     7
370
    -3
100
AcDbLine
 10
43560.14874663
 20
7546.1138741
 30
0.0
 11
43567.22246541
 21
7526.67899148
 31
0.0
  0
LINE
  5
107
330
66
100
AcDbEntity
  8
Ech.1_5
  6
Continuous
 62
     7
370
    -3
100
AcDbLine
 10
43555.58338685
 20
7546.58057457
 30
0.0
 11
43561.34409158999
 21
7548.67729963
 31
0.0
  0
LINE
  5
108
330
66
100
AcDbEntity
  8
Ech.1_5
  6
Continuous
 62
     7
370
    -3
100
AcDbLine
 10
43561.34409158999
 20
7548.67729963
 30
0.0
 11
43569.78589094
 21
7525.48364652
 31
0.0
  0
CIRCLE
  5
109
330
66
100
AcDbEntity
  8
Ech.1_5
  6
Continuous
 62
     7
370
    -3
100
AcDbCircle
 10
43510.19131702
 20
7616.53110591
 30
0.0
 40
2.518023729999999
  0
LINE
  5
10A
330
66
100
AcDbEntity
  8
Ech.1_5
  6
Continuous
 62
     7
370
    -3
100
AcDbLine
 10
43488.10607717
 20
7637.73844428
 30
0.0
 11
43524.50425301999
 21
7537.73527802
 31
0.0
  0
CIRCLE
  5
10B
330
66
100
AcDbEntity
  8
Ech.1_5
  6
Continuous
 62
     7
370
    -3
100
AcDbCircle
 10
43505.06101487
 20
7630.626495219999
 30
0.0
 40
2.518023729999999
  0
LINE
  5
10C
330
66
100
AcDbEntity
  8
Ech.1_5
  6
Continuous
 62
     7
370
    -3
100
AcDbLine
 10
43488.10607717
 20
7637.73844428
 30
0.0
 11
43513.47777793
 21
7646.97298815
 31
0.0
  0
LINE
  5
10D
330
66
100
AcDbEntity
  8
Ech.1_5
  6
Continuous
 62
     7
370
    -3
100
AcDbLine
 10
43567.22246541
 20
7526.67899148
 30
0.0
 11
43524.25874857
 21
7511.04147739
 31
0.0
  0
LINE
  5
10E
330
66
100
AcDbEntity
  8
Ech.1_5
  6
Continuous
 62
     7
370
    -3
100
AcDbLine
 10
43523.06340361
 20
7508.47805187
 30
0.0
 11
43569.78589094
 21
7525.48364652
 31
0.0
  0
ARC
  5
10F
330
66
100
AcDbEntity
  8
Ech.1_5
  6
Continuous
 62
     7
370
    -3
100
AcDbCircle
 10
43522.11415146999
 20
7524.249431539999
 30
0.0
 40
3.804859969999999
100
AcDbArc
 50
255.74610922
 51
16.50323339
  0
LINE
  5
110
330
66
100
AcDbEntity
  8
Ech.1_5
  6
Continuous
 62
     7
370
    -3
100
AcDbLine
 10
43496.37058042
 20
7648.97019367
 30
0.0
 11
43496.37058042
 21
7648.97019367
 31
0.0
  0
CIRCLE
  5
111
330
66
100
AcDbEntity
  8
Ech.1_5
  6
Continuous
 62
     7
370
    -3
100
AcDbCircle
 10
43530.71252562
 20
7560.14954866
 30
0.0
 40
2.518023729999999
  0
LINE
  5
112
330
66
100
AcDbEntity
  8
Ech.1_5
  6
Continuous
 62
     7
370
    -3
100
AcDbLine
 10
43521.06634927999
 20
7531.88904478
 30
0.0
 11
43520.38230899999
 21
7533.76843002
 31
0.0
  0
LINE
  5
113
330
66
100
AcDbEntity
  8
Ech.1_5
 62
     7
100
AcDbLine
 10
43012.07445538
 20
7322.493216169999
 30
0.0
 11
42554.61781221
 21
7155.992518259999
 31
0.0
  0
LINE
  5
114
330
66
100
AcDbEntity
  8
Ech.1_5
 62
     7
100
AcDbLine
 10
42554.61781221
 20
7541.224984270001
 30
0.0
 11
43012.07445538
 21
7707.72556636
 31
0.0
  0
LINE
  5
115
330
66
100
AcDbEntity
  8
Ech.1_5
  6
Continuous
 62
     7
370
    -3
100
AcDbLine
 10
43012.07445538
 20
7580.024231759999
 30
0.0
 11
42554.61781221
 21
7413.09852625
 31
0.0
  0
LINE
  5
116
330
66
100
AcDbEntity
  8
Ech.1_5
  6
Continuous
 62
     7
370
    -3
100
AcDbLine
 10
42554.61781221
 20
7519.516303020001
 30
0.0
 11
43012.07445538
 21
7686.442009610001
 31
0.0
  0
LWPOLYLINE
  5
117
330
66
100
AcDbEntity
  8
Ech.1_5
  6
Continuous
 62
     7
370
    -3
100
AcDbPolyline
 90
        6
 70
     0
 43
0.0
 10
43821.58836639
 20
8188.514041480001
 10
43821.58984221
 20
7828.96843094
 10
43839.56719062
 20
7812.48292779
 10
43803.61149060999
 20
7826.592867809999
 10
43821.58984221
 20
7810.10651372
 10
43821.58901992999
 20
7583.076017039999
  0
LWPOLYLINE
  5
118
330
66
100
AcDbEntity
  8
Ech.1_5
  6
Continuous
 62
     7
370
    -3
100
AcDbPolyline
 90
        6
 70
     0
 43
0.0
 10
42554.61781221
 20
7710.04743502
 10
42554.61928803
 20
7383.536765630001
 10
42572.59663642999
 20
7367.051262470001
 10
42536.64093642
 20
7381.16120249
 10
42554.61928803
 20
7364.67484841
 10
42554.61781221
 20
7121.733195540001
  0
LINE
  5
119
330
66
100
AcDbEntity
  8
Ech.1_5
 62
     7
100
AcDbLine
 10
43012.07445538
 20
7473.60645255
 30
0.0
 11
43012.07445538
 21
7473.60645671
 31
0.0
  0
LINE
  5
11A
330
66
100
AcDbEntity
  8
Ech.1_5
  6
Continuous
 62
     7
370
    -3
100
AcDbLine
 10
43352.07445538
 20
7810.191984790001
 30
0.0
 11
43855.65129897
 21
7993.478979800001
 31
0.0
  0
LINE
  5
11B
330
66
100
AcDbEntity
  8
Ech.1_5
  6
Continuous
 62
     7
370
    -3
100
AcDbLine
 10
43352.07445538
 20
7533.50576558
 30
0.0
 11
43821.58945852999
 21
7704.17309559
 31
0.0
  0
LWPOLYLINE
  5
11C
330
66
100
AcDbEntity
  8
Ech.1_5
  6
Continuous
 62
     7
370
    -3
100
AcDbPolyline
 90
        3
 70
     0
 43
0.0
 10
43012.07445538
 20
7678.442469069999
 42
0.8518450999999998
 10
42988.46071687999
 20
7655.52051518
 10
43012.07445538
 20
7621.77265332
  0
LWPOLYLINE
  5
11D
330
66
100
AcDbEntity
  8
Ech.1_5
  6
Continuous
 62
     7
370
    -3
100
AcDbPolyline
 90
        3
 70
     0
 43
0.0
 10
43012.07445538
 20
7572.024691399999
 42
0.8518450999999998
 10
42988.46071739
 20
7549.102738180001
 10
43012.07445538
 20
7515.35487686
  0
LWPOLYLINE
  5
11E
330
66
100
AcDbEntity
  8
Ech.1_5
  6
Continuous
 62
     7
370
    -3
100
AcDbPolyline
 90
        3
 70
     0
 43
0.0
 10
43352.07445538
 20
7711.7737808
 42
0.85184508
 10
43375.68829205999
 20
7734.695834739999
 10
43352.07445538
 20
7768.44383118
  0
LWPOLYLINE
  5
11F
330
66
100
AcDbEntity
  8
Ech.1_5
  6
Continuous
 62
     7
370
    -3
100
AcDbPolyline
 90
        3
 70
     0
 43
0.0
 10
43352.07445538
 20
7605.355972170001
 42
0.8518450899999999
 10
43375.68819077
 20
7628.27792735
 10
43352.07445538
 20
7662.025779540001
  0
LINE
  5
120
330
66
100
AcDbEntity
  8
Ech.1_5
  6
Continuous
 62
     7
370
    -3
100
AcDbLine
 10
43352.07445538
 20
7552.37769993
 30
0.0
 11
43352.12094883999
 21
7552.385618059999
 31
0.0
  0
LWPOLYLINE
  5
121
330
66
100
AcDbEntity
  8
Ech.1_5
  6
Continuous
 62
     7
370
    -3
100
AcDbPolyline
 90
        3
 70
     0
 43
0.0
 10
43352.07445538
 20
7452.802822159999
 42
0.8518450999999998
 10
43371.43772736999
 20
7471.598830810001
 10
43352.07445538
 20
7499.272086419999
  0
LINE
  5
122
330
66
100
AcDbEntity
  8
Ech.1_5
  6
HIDDEN
 62
     7
370
    -3
100
AcDbLine
 10
42554.61781221
 20
7628.82353044
 30
0.0
 11
42593.00381816999
 21
7638.09299434
 31
0.0
  0
LINE
  5
123
330
66
100
AcDbEntity
  8
Ech.1_5
 62
     7
100
AcDbLine
 10
43012.07445538
 20
7707.72556636
 30
0.0
 11
42554.61781221
 21
7541.22498424
 31
0.0
  0
LINE
  5
124
330
66
100
AcDbEntity
  8
Ech.1_5
  6
CADWORK_22
 62
     1
370
    35
100
AcDbLine
 10
42554.61781221
 20
7305.50967165
 30
0.0
 11
43012.07445538
 21
7472.01028244
 31
0.0
  0
LWPOLYLINE
  5
125
330
66
100
AcDbEntity
  8
Ech.1_5
  6
Continuous
 62
     7
370
    -3
100
AcDbPolyline
 90
       56
 70
     0
 43
0.0
 10
43012.07445538
 20
7580.307497699999
 42
-0.4386897600000001
 10
42992.64979543
 20
7595.28103282
 10
42987.39340362
 20
7655.132044990001
 42
1.303226189999999
 10
42957.13762812
 20
7644.119845119999
 10
42991.58248217
 20
7594.89256262
 42
-1.303226189999999
 10
42961.32670667
 20
7583.88036276
 10
42956.07031485999
 20
7643.73137493
 42
1.303226189999999
 10
42925.81453936
 20
7632.71917507
 10
42960.25939340999
 20
7583.491892570001
 42
-1.303226189999999
 10
42930.00361792
 20
7572.479692699999
 10
42924.74722610999
 20
7632.330704880001
 42
1.303226189999999
 10
42894.49145061
 20
7621.318505010001
 10
42928.93630465999
 20
7572.09122251
 42
-1.303226189999999
 10
42898.68052916
 20
7561.07902265
 10
42893.42413734999
 20
7620.93003482
 42
1.303226189999999
 10
42863.16836185
 20
7609.91783496
 10
42897.6132159
 20
7560.690552459999
 42
-1.303226189999999
 10
42867.3574404
 20
7549.678352589999
 10
42862.10104859
 20
7609.52936476
 42
1.303226189999999
 10
42831.8452731
 20
7598.517164899998
 10
42866.29012715
 20
7549.2898824
 42
-1.303226189999999
 10
42836.03435165
 20
7538.27768254
 10
42830.77795984
 20
7598.12869471
 42
1.303226189999999
 10
42800.52218434
 20
7587.11649484
 10
42834.96703838999
 20
7537.889212340001
 42
-1.303226189999999
 10
42804.71126289
 20
7526.877012479999
 10
42799.45487108
 20
7586.72802465
 42
1.303226189999999
 10
42769.19909557999
 20
7575.715824789999
 10
42803.64394963
 20
7526.48854229
 42
-1.303226189999999
 10
42773.38817413999
 20
7515.47634242
 10
42768.13178232
 20
7575.3273546
 42
1.303226189999999
 10
42737.87600683
 20
7564.31515473
 10
42772.32086087999
 20
7515.087872230001
 42
-1.303226189999999
 10
42742.06508538
 20
7504.075672369999
 10
42736.80869357
 20
7563.92668454
 42
1.303226189999999
 10
42706.55291807
 20
7552.914484680001
 10
42740.99777212
 20
7503.68720218
 42
-1.303226189999999
 10
42710.74199662
 20
7492.67500231
 10
42705.48560481
 20
7552.52601448
 42
1.303226189999999
 10
42675.22982932
 20
7541.51381462
 10
42709.67468337
 20
7492.286532119999
 42
-1.303226189999999
 10
42679.41890787
 20
7481.274332259999
 10
42674.16251606
 20
7541.12534443
 42
1.303226189999999
 10
42643.90674056
 20
7530.113144560001
 10
42678.35159461
 20
7480.88586206
 42
-1.303226189999999
 10
42648.09581910999
 20
7469.8736622
 10
42642.8394273
 20
7529.72467437
 42
1.303226189999999
 10
42612.58365179999
 20
7518.71247451
 10
42647.02850585
 20
7469.485192010001
 42
-1.303226189999999
 10
42616.77273035999
 20
7458.472992140001
 10
42611.51633854
 20
7518.32400432
 42
1.303226189999999
 10
42581.26056304999
 20
7507.311804449999
 10
42615.7054171
 20
7458.08452195
 42
-1.303226189999999
 10
42585.4496416
 20
7447.07232209
 10
42580.19324979
 20
7506.92333426
 42
0.5632995400000001
 10
42554.61781221
 20
7519.516303020001
  0
LWPOLYLINE
  5
126
330
66
100
AcDbEntity
  8
Ech.1_5
  6
Continuous
 62
     7
370
    -3
100
AcDbPolyline
 90
        3
 70
     0
 43
0.0
 10
42554.61781221
 20
7489.222172480001
 10
42584.38232834
 20
7446.683851899999
 42
-1.193621119999999
 10
42554.61781221
 20
7432.860240220001
  0
LWPOLYLINE
  5
127
330
66
100
AcDbEntity
  8
Ech.1_5
  6
Continuous
 62
     7
370
    -3
100
AcDbPolyline
 90
       56
 70
     0
 43
0.0
 10
43012.07445538
 20
7473.88972259
 42
-0.4386897600000001
 10
42992.64979568
 20
7488.86325733
 10
42987.39340416
 20
7548.714268000001
 42
1.303226189999999
 10
42957.1376294
 20
7537.70206849
 10
42991.58248244999
 20
7488.474787150001
 42
-1.303226189999999
 10
42961.32670769
 20
7477.462587650001
 10
42956.07031617
 20
7537.313598309999
 42
1.303226189999999
 10
42925.81454141
 20
7526.30139881
 10
42960.25939445
 20
7477.074117469999
 42
-1.303226189999999
 10
42930.00361968999
 20
7466.061917960001
 10
42924.74722818
 20
7525.912928630001
 42
1.303226189999999
 10
42894.49145342
 20
7514.900729130001
 10
42928.93630645999
 20
7465.67344778
 42
-1.303226189999999
 10
42898.6805317
 20
7454.66124828
 10
42893.42414018
 20
7514.51225895
 42
1.303226189999999
 10
42863.16836543
 20
7503.50005944
 10
42897.61321847
 20
7454.272778100001
 42
-1.303226189999999
 10
42867.35744371
 20
7443.2605786
 10
42862.10105219
 20
7503.11158926
 42
1.303226189999999
 10
42831.84527743
 20
7492.099389759999
 10
42866.29013048
 20
7442.872108419999
 42
-1.303226189999999
 10
42836.03435572
 20
7431.85990891
 10
42830.77796419999
 20
7491.71091958
 42
1.303226189999999
 10
42800.52218944
 20
7480.698720080001
 10
42834.96704249
 20
7431.47143873
 42
-1.303226189999999
 10
42804.71126773
 20
7420.45923923
 10
42799.45487621
 20
7480.3102499
 42
1.303226189999999
 10
42769.19910145
 20
7469.29805039
 10
42803.64395449
 20
7420.070769050001
 42
-1.303226189999999
 10
42773.38817974
 20
7409.058569539999
 10
42768.13178822
 20
7468.90958021
 42
1.303226189999999
 10
42737.87601346
 20
7457.89738071
 10
42772.3208665
 20
7408.670099369999
 42
-1.303226189999999
 10
42742.06509174
 20
7397.65789986
 10
42736.80870023
 20
7457.508910530001
 42
1.303226189999999
 10
42706.55292547
 20
7446.49671103
 10
42740.99777851
 20
7397.26942968
 42
-1.303226189999999
 10
42710.74200374999
 20
7386.25723018
 10
42705.48561223
 20
7446.108240850001
 42
1.303226189999999
 10
42675.22983746999
 20
7435.09604134
 10
42709.67469051999
 20
7385.86876
 42
-1.303226189999999
 10
42679.41891576
 20
7374.856560490001
 10
42674.16252423999
 20
7434.70757116
 42
1.303226189999999
 10
42643.90674948
 20
7423.69537166
 10
42678.35160253
 20
7374.46809031
 42
-1.303226189999999
 10
42648.09582776999
 20
7363.45589081
 10
42642.83943625
 20
7423.306901480001
 42
1.303226189999999
 10
42612.58366149
 20
7412.294701969999
 10
42647.02851453999
 20
7363.06742063
 42
-1.303226189999999
 10
42616.77273978
 20
7352.05522113
 10
42611.51634825999
 20
7411.9062318
 42
1.303226189999999
 10
42581.2605735
 20
7400.89403229
 10
42615.70542653999
 20
7351.666750950001
 42
-1.303226189999999
 10
42585.44965178
 20
7340.654551440001
 10
42580.19326027
 20
7400.50556211
 42
0.5632998000000001
 10
42554.61781221
 20
7413.098523489999
  0
LWPOLYLINE
  5
128
330
66
100
AcDbEntity
  8
Ech.1_5
  6
Continuous
 62
     7
370
    -3
100
AcDbPolyline
 90
        3
 70
     0
 43
0.0
 10
42554.61781221
 20
7382.804416689999
 10
42584.38233855
 20
7340.266081260001
 42
-1.19362267
 10
42554.61781221
 20
7326.44251132
  0
LWPOLYLINE
  5
129
330
66
100
AcDbEntity
  8
Ech.1_5
  6
Continuous
 62
     7
370
    -3
100
AcDbPolyline
 90
       70
 70
     0
 43
0.0
 10
42554.61781221
 20
7239.220698320001
 42
-0.27389226
 10
42562.73240695
 20
7227.900727080001
 10
42567.04266036
 20
7178.82280341
 42
1.303226189999999
 10
42591.85244309
 20
7187.852826549999
 10
42563.60760548
 20
7228.21927332
 42
-1.303226189999999
 10
42588.41738821
 20
7237.249296459999
 10
42592.72764161999
 20
7188.171372789999
 42
1.303226189999999
 10
42617.53742435
 20
7197.20139594
 10
42589.29258673
 20
7237.567842700001
 42
-1.303226189999999
 10
42614.10236946
 20
7246.59786584
 10
42618.41262286999
 20
7197.51994217
 42
1.303226189999999
 10
42643.2224056
 20
7206.54996532
 10
42614.97756798999
 20
7246.91641208
 42
-1.303226189999999
 10
42639.78735072
 20
7255.94643523
 10
42644.09760413
 20
7206.86851155
 42
1.303226189999999
 10
42668.90738686
 20
7215.898534700001
 10
42640.66254923999
 20
7256.264981460001
 42
-1.303226189999999
 10
42665.47233197
 20
7265.29500461
 10
42669.78258538
 20
7216.217080940001
 42
1.303226189999999
 10
42694.59236811
 20
7225.247104080001
 10
42666.3475305
 20
7265.61355084
 42
-1.303226189999999
 10
42691.15731323
 20
7274.643573989999
 10
42695.46756663999
 20
7225.56565032
 42
1.303226189999999
 10
42720.27734937
 20
7234.595673460001
 10
42692.03251175
 20
7274.96212023
 42
-1.303226189999999
 10
42716.84229447999
 20
7283.992143369999
 10
42721.15254789
 20
7234.914219700001
 42
1.303226189999999
 10
42745.96233062
 20
7243.94424284
 10
42717.717493
 20
7284.310689609999
 42
-1.303226189999999
 10
42742.52727572999
 20
7293.34071275
 10
42746.83752915
 20
7244.262789080001
 42
1.303226189999999
 10
42771.64731187999
 20
7253.29281222
 10
42743.40247426
 20
7293.65925899
 42
-1.303226189999999
 10
42768.21225699
 20
7302.68928213
 10
42772.52251040001
 20
7253.61135846
 42
1.303226189999999
 10
42797.33229312999
 20
7262.641381600001
 10
42769.08745551
 20
7303.007828370001
 42
-1.303226189999999
 10
42793.89723824
 20
7312.03785151
 10
42798.20749165
 20
7262.95992784
 42
1.303226189999999
 10
42823.01727437999
 20
7271.989950990001
 10
42794.77243677
 20
7312.35639775
 42
-1.303226189999999
 10
42819.5822195
 20
7321.386420899999
 10
42823.89247291
 20
7272.30849722
 42
1.303226189999999
 10
42848.70225564
 20
7281.338520370001
 10
42820.45741802
 20
7321.70496713
 42
-1.303226189999999
 10
42845.26720075
 20
7330.734990279999
 10
42849.57745415999
 20
7281.657066600001
 42
1.303226189999999
 10
42874.38723689
 20
7290.68708975
 10
42846.14239927999
 20
7331.053536510001
 42
-1.303226189999999
 10
42870.95218201
 20
7340.08355966
 10
42875.26243542
 20
7291.00563599
 42
1.303226189999999
 10
42900.07221815
 20
7300.03565913
 10
42871.82738052999
 20
7340.402105889999
 42
-1.303226189999999
 10
42896.63716326
 20
7349.432129040001
 10
42900.94741667
 20
7300.35420537
 42
1.303226189999999
 10
42925.7571994
 20
7309.384228509999
 10
42897.51236177999
 20
7349.750675280001
 42
-1.303226189999999
 10
42922.32214452
 20
7358.78069842
 10
42926.63239792999
 20
7309.702774749999
 42
1.303226189999999
 10
42951.44218066
 20
7318.73279789
 10
42923.19734304
 20
7359.09924466
 42
-1.303226189999999
 10
42948.00712576999
 20
7368.1292678
 10
42952.31737917999
 20
7319.05134413
 42
1.303226189999999
 10
42977.12716191
 20
7328.081367269999
 10
42948.88232429
 20
7368.44781404
 42
-1.303226189999999
 10
42973.69210701999
 20
7377.477837180001
 10
42978.00236042999
 20
7328.399913510001
 42
1.303226189999999
 10
43002.81214316999
 20
7337.42993666
 10
42974.56730554999
 20
7377.796383420001
 42
-0.5671379500000001
 10
42984.15293412999
 20
7399.20687609
  0
LWPOLYLINE
  5
12A
330
66
100
AcDbEntity
  8
Ech.1_5
  6
HIDDEN
 62
     7
370
    -3
100
AcDbPolyline
 90
       12
 70
     0
 43
0.0
 10
43821.58901992999
 20
8087.416348620001
 10
43772.62282822
 20
8074.28230322
 10
43774.80606074
 20
8065.2412651
 10
43764.34686291
 20
8062.435827839999
 10
43761.85144579
 20
8072.769661330001
 10
43746.06678872
 20
8068.598843249999
 10
43748.60004139
 20
8058.108328020001
 10
43728.29748804999
 20
8053.205661529998
 10
43719.25515533999
 20
8090.65108895
 10
43711.36094009
 20
8123.34201876
 42
-0.41421356
 10
43727.808763
 20
8150.262410839999
 10
43821.58901992999
 20
8172.90849459
  0
LINE
  5
12B
330
66
100
AcDbEntity
  8
Ech.1_5
  6
HIDDEN
 62
     7
370
    -3
100
AcDbLine
 10
43719.24798021
 20
8090.649356289999
 30
0.0
 11
43821.58901992999
 21
8115.36270036
 31
0.0
  0
LINE
  5
12C
330
66
100
AcDbEntity
  8
Ech.1_5
  6
Continuous
 62
     7
370
    -3
100
AcDbLine
 10
43821.58901992999
 20
8002.36488053
 30
0.0
 11
43352.07445538
 21
7831.475547290001
 31
0.0
  0
LINE
  5
12D
330
66
100
AcDbEntity
  8
Ech.1_5
  6
Continuous
 62
     7
370
    -3
100
AcDbLine
 10
43352.07445538
 20
7831.475542309999
 30
0.0
 11
43821.58901992999
 21
8002.36487847
 31
0.0
  0
LWPOLYLINE
  5
12E
330
66
100
AcDbEntity
  8
Ech.1_5
  6
Continuous
 62
     7
370
    -3
100
AcDbPolyline
 90
       60
 70
     0
 43
0.0
 10
43352.07445538
 20
7809.90917235
 42
-0.4386896
 10
43371.49919085
 20
7794.93557351
 10
43376.75560984
 20
7735.08430667
 42
1.303226189999999
 10
43407.01151341
 20
7746.09655589
 10
43372.56650862999
 20
7795.324045440001
 42
-1.303226189999999
 10
43402.82241218999
 20
7806.336294660001
 10
43408.07883119
 20
7746.48502782
 42
1.303226189999999
 10
43438.33473475
 20
7757.497277030001
 10
43403.88972997
 20
7806.724766590001
 42
-1.303226189999999
 10
43434.14563354
 20
7817.7370158
 10
43439.40205253
 20
7757.88574897
 42
1.303226189999999
 10
43469.6579561
 20
7768.89799818
 10
43435.21295131
 20
7818.125487739999
 42
-1.303226189999999
 10
43465.46885488
 20
7829.137736949999
 10
43470.72527386999
 20
7769.286470109999
 42
1.303226189999999
 10
43500.98117744
 20
7780.29871932
 10
43466.53617266
 20
7829.52620888
 42
-1.303226189999999
 10
43496.79207622999
 20
7840.538458090001
 10
43502.04849522
 20
7780.68719126
 42
1.303226189999999
 10
43532.30439879
 20
7791.699440470001
 10
43497.859394
 20
7840.926930030001
 42
-1.303226189999999
 10
43528.11529757
 20
7851.93917924
 10
43533.37171656
 20
7792.087912399999
 42
1.303226189999999
 10
43563.62762013
 20
7803.10016162
 10
43529.18261535
 20
7852.32765117
 42
-1.303226189999999
 10
43559.43851891999
 20
7863.339900390001
 10
43564.69493790999
 20
7803.488633549999
 42
1.303226189999999
 10
43594.95084148
 20
7814.50088276
 10
43560.50583668999
 20
7863.72837232
 42
-1.303226189999999
 10
43590.76174026
 20
7874.74062153
 10
43596.01815925
 20
7814.889354699999
 42
1.303226189999999
 10
43626.27406281999
 20
7825.901603910001
 10
43591.82905804
 20
7875.12909346
 42
-1.303226189999999
 10
43622.0849616
 20
7886.14134268
 10
43627.3413806
 20
7826.290075840001
 42
1.303226189999999
 10
43657.59728416
 20
7837.30232505
 10
43623.15227938
 20
7886.52981461
 42
-1.303226189999999
 10
43653.40818295
 20
7897.542063820001
 10
43658.66460193999
 20
7837.69079699
 42
1.303226189999999
 10
43688.92050551
 20
7848.703046199999
 10
43654.47550073
 20
7897.93053576
 42
-1.303226189999999
 10
43684.73140429
 20
7908.94278497
 10
43689.98782328
 20
7849.091518129999
 42
1.303226189999999
 10
43720.24372684999
 20
7860.10376735
 10
43685.79872207
 20
7909.331256899999
 42
-1.303226189999999
 10
43716.05462564
 20
7920.34350611
 10
43721.31104462999
 20
7860.49223928
 42
1.303226189999999
 10
43751.5669482
 20
7871.50448849
 10
43717.12194340999
 20
7920.73197805
 42
-1.303226189999999
 10
43747.37784698
 20
7931.744227260001
 10
43752.63426597
 20
7871.89296042
 42
1.303226189999999
 10
43782.89016953999
 20
7882.90520964
 10
43748.44516476
 20
7932.132699189999
 42
-1.303226189999999
 10
43778.70106833
 20
7943.14494841
 10
43783.95748732
 20
7883.293681570001
 42
1.303226189999999
 10
43814.21339088999
 20
7894.305930779999
 10
43779.76838609999
 20
7943.53342034
 42
-1.303226189999999
 10
43810.02428967
 20
7954.545669549999
 10
43815.28070866
 20
7894.69440272
 42
0.20732591
 10
43821.58901992999
 20
7883.04001157
  0
LWPOLYLINE
  5
12F
330
66
100
AcDbEntity
  8
Ech.1_5
  6
Continuous
 62
     7
370
    -3
100
AcDbPolyline
 90
        3
 70
     0
 43
0.0
 10
43821.58901992999
 20
7939.93163919
 10
43811.09160744999
 20
7954.934141479999
 42
-0.5434503600000001
 10
43821.58901992999
 20
7980.859159190001
  0
LWPOLYLINE
  5
130
330
66
100
AcDbEntity
  8
Ech.1_5
  6
Continuous
 62
     7
370
    -3
100
AcDbPolyline
 90
       60
 70
     0
 43
0.0
 10
43352.07445538
 20
7703.49094163
 42
-0.43868962
 10
43371.499108
 20
7688.51740716
 10
43376.75550395999
 20
7628.666397600001
 42
1.303226189999999
 10
43407.01127753
 20
7639.67859925
 10
43372.56642119
 20
7688.90587741
 42
-1.303226189999999
 10
43402.82219476
 20
7699.918079060001
 10
43408.07859072
 20
7640.06706951
 42
1.303226189999999
 10
43438.33436429
 20
7651.07927115
 10
43403.88950794999
 20
7700.30654932
 42
-1.303226189999999
 10
43434.14528152
 20
7711.318750960001
 10
43439.40167748
 20
7651.467741409999
 42
1.303226189999999
 10
43469.65745104
 20
7662.479943050001
 10
43435.21259471
 20
7711.70722122
 42
-1.303226189999999
 10
43465.46836828
 20
7722.71942286
 10
43470.72476424
 20
7662.86841331
 42
1.303226189999999
 10
43500.9805378
 20
7673.880614959999
 10
43466.53568147
 20
7723.10789312
 42
-1.303226189999999
 10
43496.79145504
 20
7734.12009477
 10
43502.04785098999
 20
7674.269085210001
 42
1.303226189999999
 10
43532.30362456
 20
7685.281286860001
 10
43497.85876822999
 20
7734.50856502
 42
-1.303226189999999
 10
43528.1145418
 20
7745.520766670001
 10
43533.37093774999
 20
7685.66975711
 42
1.303226189999999
 10
43563.62671132
 20
7696.68195876
 10
43529.18185499
 20
7745.909236919999
 42
-1.303226189999999
 10
43559.43762856
 20
7756.92143857
 10
43564.69402451
 20
7697.07042901
 42
1.303226189999999
 10
43594.94979808
 20
7708.08263066
 10
43560.50494175
 20
7757.309908819999
 42
-1.303226189999999
 10
43590.76071531999
 20
7768.322110469999
 10
43596.01711126999
 20
7708.47110092
 42
1.303226189999999
 10
43626.27288484
 20
7719.48330256
 10
43591.82802850999
 20
7768.71058073
 42
-1.303226189999999
 10
43622.08380208
 20
7779.72278237
 10
43627.34019802999
 20
7719.871772819999
 42
1.303226189999999
 10
43657.59597159999
 20
7730.88397447
 10
43623.15111526999
 20
7780.11125263
 42
-1.303226189999999
 10
43653.40688883
 20
7791.12345428
 10
43658.66328479
 20
7731.27244472
 42
1.303226189999999
 10
43688.91905836
 20
7742.284646369999
 10
43654.47420201999
 20
7791.51192453
 42
-1.303226189999999
 10
43684.72997559
 20
7802.52412618
 10
43689.98637155
 20
7742.67311662
 42
1.303226189999999
 10
43720.24214511999
 20
7753.68531827
 10
43685.79728878
 20
7802.912596430001
 42
-1.303226189999999
 10
43716.05306235
 20
7813.924798080001
 10
43721.30945831
 20
7754.07378852
 42
1.303226189999999
 10
43751.56523188
 20
7765.08599017
 10
43717.12037554
 20
7814.31326833
 42
-1.303226189999999
 10
43747.37614910999
 20
7825.32546998
 10
43752.63254507
 20
7765.474460430001
 42
1.303226189999999
 10
43782.88831864
 20
7776.48666207
 10
43748.4434623
 20
7825.713940239999
 42
-1.303226189999999
 10
43778.69923587
 20
7836.726141879999
 10
43783.95563183
 20
7776.875132330001
 42
1.303226189999999
 10
43814.21140539
 20
7787.887333970001
 10
43779.76654905999
 20
7837.11461214
 42
-1.303226189999999
 10
43810.02232263
 20
7848.12681378
 10
43815.27871859
 20
7788.27580423
 42
0.20736604
 10
43821.58901992999
 20
7776.619878899999
  0
LWPOLYLINE
  5
131
330
66
100
AcDbEntity
  8
Ech.1_5
  6
Continuous
 62
     7
370
    -3
100
AcDbPolyline
 90
        3
 70
     0
 43
0.0
 10
43821.58901992999
 20
7833.50996374
 10
43811.08963582
 20
7848.515284040001
 42
-0.54349026
 10
43821.58901992999
 20
7874.440578869999
  0
LWPOLYLINE
  5
132
330
66
100
AcDbEntity
  8
Ech.1_5
  6
Continuous
 62
     7
370
    -3
100
AcDbPolyline
 90
       72
 70
     0
 43
0.0
 10
43352.07445538
 20
7533.273525929999
 42
-0.43868975
 10
43368.00268155999
 20
7520.995223000001
 10
43372.31292453999
 20
7471.91737648
 42
1.303226189999999
 10
43397.12266877
 20
7480.94738353
 10
43368.87787873
 20
7521.313768670001
 42
-1.303226189999999
 10
43393.68762295999
 20
7530.34377572
 10
43397.99786593999
 20
7481.2659292
 42
1.303226189999999
 10
43422.80761017
 20
7490.29593626
 10
43394.56282012999
 20
7530.662321390001
 42
-1.303226189999999
 10
43419.37256436
 20
7539.692328440001
 10
43423.68280734
 20
7490.614481929999
 42
1.303226189999999
 10
43448.49255157
 20
7499.64448898
 10
43420.24776152999
 20
7540.01087411
 42
-1.303226189999999
 10
43445.05750576
 20
7549.04088117
 10
43449.36774874
 20
7499.96303465
 42
1.303226189999999
 10
43474.17749296999
 20
7508.993041699999
 10
43445.93270293
 20
7549.35942684
 42
-1.303226189999999
 10
43470.74244716
 20
7558.389433889999
 10
43475.05269014
 20
7509.31158737
 42
1.303226189999999
 10
43499.86243436999
 20
7518.341594430001
 10
43471.61764433
 20
7558.707979560001
 42
-1.303226189999999
 10
43496.42738855999
 20
7567.73798661
 10
43500.73763154
 20
7518.6601401
 42
1.303226189999999
 10
43525.54737577
 20
7527.69014715
 10
43497.30258573
 20
7568.05653228
 42
-1.303226189999999
 10
43522.11232995999
 20
7577.08653934
 10
43526.42257293999
 20
7528.008692820001
 42
1.303226189999999
 10
43551.23231717
 20
7537.03869987
 10
43522.98752712999
 20
7577.405085010001
 42
-1.303226189999999
 10
43547.79727136
 20
7586.43509206
 10
43552.10751433999
 20
7537.357245539999
 42
1.303226189999999
 10
43576.91725857
 20
7546.3872526
 10
43548.67246852999
 20
7586.75363773
 42
-1.303226189999999
 10
43573.48221276
 20
7595.78364478
 10
43577.79245574
 20
7546.70579827
 42
1.303226189999999
 10
43602.60219997
 20
7555.735805319999
 10
43574.35740993
 20
7596.10219045
 42
-1.303226189999999
 10
43599.16715416
 20
7605.132197509999
 10
43603.47739714
 20
7556.05435099
 42
1.303226189999999
 10
43628.28714136999
 20
7565.08435804
 10
43600.04235133
 20
7605.45074318
 42
-1.303226189999999
 10
43624.85209556
 20
7614.48075023
 10
43629.16233854
 20
7565.40290371
 42
1.303226189999999
 10
43653.97208276999
 20
7574.432910769999
 10
43625.72729273
 20
7614.799295899999
 42
-1.303226189999999
 10
43650.53703695999
 20
7623.829302949999
 10
43654.84727993999
 20
7574.751456440001
 42
1.303226189999999
 10
43679.65702417
 20
7583.78146349
 10
43651.41223413
 20
7624.147848620001
 42
-1.303226189999999
 10
43676.22197835999
 20
7633.17785568
 10
43680.53222133999
 20
7584.10000916
 42
1.303226189999999
 10
43705.34196557
 20
7593.13001621
 10
43677.09717552999
 20
7633.49640135
 42
-1.303226189999999
 10
43701.90691976
 20
7642.526408399999
 10
43706.21716273999
 20
7593.448561879999
 42
1.303226189999999
 10
43731.02690697
 20
7602.478568939999
 10
43702.78211692999
 20
7642.84495407
 42
-1.303226189999999
 10
43727.59186116
 20
7651.87496112
 10
43731.90210414
 20
7602.79711461
 42
1.303226189999999
 10
43756.71184837
 20
7611.827121659999
 10
43728.46705833
 20
7652.19350679
 42
-1.303226189999999
 10
43753.27680256
 20
7661.22351385
 10
43757.58704554
 20
7612.14566733
 42
1.303226189999999
 10
43782.39678976999
 20
7621.175674379999
 10
43754.15199973
 20
7661.542059520001
 42
-1.303226189999999
 10
43778.96174395999
 20
7670.57206657
 10
43783.27198694
 20
7621.49422005
 42
1.303226189999999
 10
43808.08173116999
 20
7630.52422711
 10
43779.83694113
 20
7670.89061224
 42
-1.303226189999999
 10
43804.64668535999
 20
7679.92061929
 10
43808.95692833999
 20
7630.842772779999
 42
0.36831066
 10
43821.58901992999
 20
7618.40258842
  0
LWPOLYLINE
  5
133
330
66
100
AcDbEntity
  8
Ech.1_5
  6
Continuous
 62
     7
370
    -3
100
AcDbPolyline
 90
        3
 70
     0
 43
0.0
 10
43821.58901992999
 20
7657.276620190001
 10
43805.52188253
 20
7680.239164960001
 42
-0.7391844800000001
 10
43821.58901992999
 20
7700.846800819999
  0
LINE
  5
134
330
66
100
AcDbEntity
  8
Ech.1_5
 62
     7
100
AcDbLine
 10
43352.07445538
 20
7432.408885550001
 30
0.0
 11
43821.58901992999
 21
7603.298226539999
 31
0.0
  0
LINE
  5
135
330
66
100
AcDbEntity
  8
Ech.1_5
  6
Continuous
 62
     5
370
    70
100
AcDbLine
 10
42901.9354171
 20
7435.41677301
 30
0.0
 11
43070.26986187
 21
7496.812066690001
 31
0.0
  0
LINE
  5
136
330
66
100
AcDbEntity
  8
Ech.1_5
  6
Continuous
 62
     5
370
    70
100
AcDbLine
 10
43287.20724036
 20
7575.568636879999
 30
0.0
 11
43457.61365646
 21
7637.71962431
 31
0.0
  0
LWPOLYLINE
  5
137
330
66
100
AcDbEntity
  8
Ech.1_5
  6
Continuous
 62
     5
370
    -3
100
AcDbPolyline
 90
        4
 70
     0
 43
0.0
 10
43276.07445538
 20
7541.55456193
 10
43276.07445538
 20
7559.54539307
 42
-0.30153287
 10
43281.41238311999
 20
7573.40976839
 10
43318.45645069999
 20
7586.965914770001
  0
LWPOLYLINE
  5
138
330
66
100
AcDbEntity
  8
Ech.1_5
  6
HIDDEN
 62
     7
370
    -3
100
AcDbPolyline
 90
        5
 70
     0
 43
0.0
 10
43352.07445538
 20
7860.20838382
 10
43352.07445538
 20
7831.475547290001
 10
43821.58901992999
 20
8002.36488053
 10
43821.58901992999
 20
8031.09772596
 10
43352.07445538
 20
7860.20838382
  0
LWPOLYLINE
  5
139
330
66
100
AcDbEntity
  8
Ech.1_5
  6
HIDDEN
 62
     7
370
    -3
100
AcDbPolyline
 90
        5
 70
     0
 43
0.0
 10
42554.61781221
 20
7569.9578208
 10
42554.61781221
 20
7541.224984270001
 10
43024.13237675
 20
7712.11431751
 10
43024.13237675
 20
7740.847162939999
 10
42554.61781221
 20
7569.9578208
  0
LWPOLYLINE
  5
13A
330
66
100
AcDbEntity
  8
Ech.1_5
  6
HIDDEN
 62
     7
370
    -3
100
AcDbPolyline
 90
        5
 70
     0
 43
0.0
 10
43387.96362044
 20
7902.075663089999
 10
43425.55132526999
 20
7915.756468819999
 10
43434.78586914
 20
7890.384768060001
 10
43397.19816431
 20
7876.703962329999
 10
43387.96362044
 20
7902.075663089999
  0
LWPOLYLINE
  5
13B
330
66
100
AcDbEntity
  8
Ech.1_5
  6
HIDDEN
 62
     7
370
    -3
100
AcDbPolyline
 90
        5
 70
     0
 43
0.0
 10
43012.07445538
 20
7707.72556636
 10
43352.07445538
 20
7831.475547290001
 10
43352.07445538
 20
7600.35643686
 10
43012.07445538
 20
7476.889722590001
 10
43012.07445538
 20
7707.72556636
  0
LWPOLYLINE
  5
13C
330
66
100
AcDbEntity
  8
Ech.1_5
  6
Continuous
 62
     7
370
    -3
100
AcDbPolyline
 90
        4
 70
     1
 43
0.0
 10
42833.29420461
 20
7642.654900370001
 10
42875.58038657
 20
7658.045812570001
 10
42950.99441053999
 20
7451.375146420001
 10
42908.70822735
 20
7435.9842376
  0
LWPOLYLINE
  5
13D
330
66
100
AcDbEntity
  8
Ech.1_5
  6
Continuous
 62
     7
370
    -3
100
AcDbPolyline
 90
        4
 70
     1
 43
0.0
 10
43413.15449747
 20
7853.70686085
 10
43455.44067941999
 20
7869.09777305
 10
43530.85470339
 20
7662.42710691
 10
43488.56852019999
 20
7647.036198089999
  0
LWPOLYLINE
  5
13E
330
66
100
AcDbEntity
  8
Ech.1_5
  6
Continuous
 62
     7
370
    -3
100
AcDbPolyline
 90
        5
 70
     0
 43
0.0
 10
42833.29420461
 20
7642.654900370001
 10
42875.58038657
 20
7658.045812570001
 10
42950.99441053999
 20
7451.375146420001
 10
42908.70822735
 20
7435.9842376
 10
42833.29420461
 20
7642.654900370001
  0
LWPOLYLINE
  5
13F
330
66
100
AcDbEntity
  8
Ech.1_5
  6
Continuous
 62
     7
370
    -3
100
AcDbPolyline
 90
        5
 70
     0
 43
0.0
 10
43413.15449747
 20
7853.70686085
 10
43455.44067941999
 20
7869.09777305
 10
43530.85470339
 20
7662.42710691
 10
43488.56852019999
 20
7647.036198089999
 10
43413.15449747
 20
7853.70686085
  0
LINE
  5
140
330
66
100
AcDbEntity
  8
Ech.1_5
  6
CADWORK_22
 62
     1
370
    35
100
AcDbLine
 10
43352.07445538
 20
7595.76016735
 30
0.0
 11
43821.58901992999
 21
7766.64950285
 31
0.0
  0
LWPOLYLINE
  5
141
330
66
100
AcDbEntity
  8
Ech.1_5
 62
     3
370
    70
100
AcDbPolyline
 90
        4
 70
     0
 43
0.0
 10
43334.17426037
 20
7591.52975425
 10
43346.38005312
 20
7595.972299729999
 10
43352.020376
 20
7591.980027399999
 10
43364.68595713999
 20
7596.58992217
  0
LWPOLYLINE
  5
142
330
66
100
AcDbEntity
  8
Ech.1_5
 62
     3
370
    70
100
AcDbPolyline
 90
        4
 70
     0
 43
0.0
 10
43027.80297797999
 20
7478.37350128
 10
43015.59718523
 20
7473.9309558
 10
43013.84263064999
 20
7467.24716804
 10
43001.17704950999
 20
7462.63727326
  0
LWPOLYLINE
  5
143
330
66
100
AcDbEntity
  8
Ech.1_5
  6
HIDDEN
 62
     7
370
    -3
100
AcDbPolyline
 90
        4
 70
     0
 43
0.0
 10
43012.07445538
 20
7308.658905
 10
43012.07445538
 20
7266.73920151
 10
42952.07445538
 20
7266.73920151
 10
42952.07445538
 20
7286.82060572
  0
LWPOLYLINE
  5
144
330
66
100
AcDbEntity
  8
Ech.1_5
  6
HIDDEN
 62
     7
370
    -3
100
AcDbPolyline
 90
        4
 70
     0
 43
0.0
 10
43412.07445538
 20
7454.24710443
 10
43412.07445538
 20
7266.73920151
 10
43352.07445538
 20
7266.73920151
 10
43352.07445538
 20
7432.40880515
  0
LINE
  5
145
330
66
100
AcDbEntity
  8
Ech.1_5
  6
HIDDEN
 62
     7
370
    -3
100
AcDbLine
 10
42965.07445538
 20
7266.73920151
 30
0.0
 11
42965.07445538
 21
7291.552306599999
 31
0.0
  0
LINE
  5
146
330
66
100
AcDbEntity
  8
Ech.1_5
  6
HIDDEN
 62
     7
370
    -3
100
AcDbLine
 10
43399.07445538
 20
7266.73920151
 30
0.0
 11
43399.07445538
 21
7449.51541105
 31
0.0
  0
LWPOLYLINE
  5
147
330
66
100
AcDbEntity
  8
Ech.1_5
 62
     7
100
AcDbPolyline
 90
        5
 70
     0
 43
0.0
 10
42581.53528318
 20
7894.11847897
 10
42715.96406216
 20
7894.11847897
 10
42715.96406216
 20
7837.39552016
 10
42581.53528318
 20
7837.39552016
 10
42581.53528318
 20
7894.11847897
  0
LWPOLYLINE
  5
148
330
66
100
AcDbEntity
  8
Ech.1_5
 62
     7
100
AcDbPolyline
 90
        5
 70
     0
 43
0.0
 10
42599.81532896
 20
7860.46166784
 10
42649.81532895999
 20
7860.46166784
 10
42649.81532895999
 20
7867.876805379999
 10
42599.81532896
 20
7867.876805379999
 10
42599.81532896
 20
7860.46166784
  0
LWPOLYLINE
  5
149
330
66
100
AcDbEntity
  8
Ech.1_5
 62
     7
100
AcDbPolyline
 90
        5
 70
     0
 43
0.0
 10
42649.81532895999
 20
7860.46166784
 10
42699.81532896
 20
7860.46166784
 10
42699.81532896
 20
7867.876805379999
 10
42649.81532895999
 20
7867.876805379999
 10
42649.81532895999
 20
7860.46166784
  0
LWPOLYLINE
  5
14A
330
66
100
AcDbEntity
  8
Ech.1_5
  6
Continuous
 62
     7
370
    -3
100
AcDbPolyline
 90
        5
 70
     0
 43
0.0
 10
42514.46593546999
 20
7033.80916644
 10
42514.46593546999
 20
8018.80916644
 10
43869.46593547
 20
8018.80916644
 10
43869.46593547
 20
7033.80916644
 10
42514.46593546999
 20
7033.80916644
  0
LWPOLYLINE
  5
14B
330
66
100
AcDbEntity
  8
Ech.1_5
  6
Continuous
 62
     7
370
    -3
100
AcDbPolyline
 90
        4
 70
     1
 43
0.0
 10
43012.07445538
 20
7308.658905
 10
43012.07445538
 20
7322.493216169999
 10
42554.61781221
 20
7155.992639899999
 10
42554.61781221
 20
7142.158328890001
  0
HATCH
  5
14C
330
66
100
AcDbEntity
  8
Ech.1_5
  6
Continuous
 62
     7
100
AcDbHatch
 10
0.0
 20
0.0
 30
0.0
210
0.0
220
0.0
230
1.0
  2
DOTS2
 70
     0
 71
     0
 91
        1
 92
        7
 72
     0
 73
     1
 93
        4
 10
43012.07445538
 20
7308.658905
 10
43012.07445538
 20
7322.493216169999
 10
42554.61781221
 20
7155.992639899999
 10
42554.61781221
 20
7142.158328890001
 97
        0
 75
     0
 76
     2
 52
0.0
 41
4.72440952
 77
     0
 78
     1
 53
0.0
 43
0.0
 44
0.0
 45
3.75
 46
3.535
 79
     2
 49
0.0
 49
-3.535
 47
0.775229
 98
        1
 10
0.0
 20
0.0
  0
LWPOLYLINE
  5
14D
330
66
100
AcDbEntity
  8
Ech.1_5
  6
Continuous
 62
     7
370
    -3
100
AcDbPolyline
 90
        4
 70
     1
 43
0.0
 10
43352.07445538
 20
7446.243196730001
 10
43352.07445538
 20
7432.408885550001
 10
43821.58901992999
 20
7603.298226539999
 10
43821.58901992999
 20
7617.13253772
  0
HATCH
  5
14E
330
66
100
AcDbEntity
  8
Ech.1_5
  6
Continuous
 62
     7
100
AcDbHatch
 10
0.0
 20
0.0
 30
0.0
210
0.0
220
0.0
230
1.0
  2
DOTS2
 70
     0
 71
     0
 91
        1
 92
        7
 72
     0
 73
     1
 93
        4
 10
43352.07445538
 20
7446.243196730001
 10
43352.07445538
 20
7432.408885550001
 10
43821.58901992999
 20
7603.298226539999
 10
43821.58901992999
 20
7617.13253772
 97
        0
 75
     0
 76
     2
 52
0.0
 41
4.72440952
 77
     0
 78
     1
 53
0.0
 43
0.0
 44
0.0
 45
3.75
 46
3.535
 79
     2
 49
0.0
 49
-3.535
 47
0.775229
 98
        1
 10
0.0
 20
0.0
  0
LWPOLYLINE
  5
14F
330
66
100
AcDbEntity
  8
Ech.1_5
  6
Continuous
 62
     7
370
    -3
100
AcDbPolyline
 90
        5
 70
     0
 43
0.0
 10
42554.61781221
 20
7519.516303020001
 10
42554.61781221
 20
7413.09852553
 10
43012.07445538
 20
7580.02423194
 10
43012.07445538
 20
7686.442009610001
 10
42554.61781221
 20
7519.516303020001
  0
LWPOLYLINE
  5
150
330
66
100
AcDbEntity
  8
Ech.1_5
  6
Continuous
 62
     7
370
    -3
100
AcDbPolyline
 90
        5
 70
     0
 43
0.0
 10
42554.61854784999
 20
7242.83040004
 10
42554.61781221
 20
7155.567509109999
 10
43012.07445538
 20
7322.493212170001
 10
43012.07445538
 20
7409.7558805
 10
42554.61854784999
 20
7242.83040004
  0
LWPOLYLINE
  5
151
330
66
100
AcDbEntity
  8
Ech.1_5
  6
Continuous
 62
     7
370
    -3
100
AcDbPolyline
 90
       10
 70
     0
 43
0.0
 10
42554.61781221
 20
7374.10661479
 10
42536.64093642
 20
7381.16120249
 10
42554.61928803
 20
7364.67484841
 10
42554.61781221
 20
7306.680750579999
 10
43012.07445538
 20
7473.60645367
 10
43012.07445538
 20
7580.024231759999
 10
42554.61781221
 20
7413.09852625
 10
42554.61781221
 20
7383.536765630001
 10
42572.59663642999
 20
7367.051262470001
 10
42554.61781221
 20
7374.10661479
  0
LWPOLYLINE
  5
152
330
66
100
AcDbEntity
  8
Ech.1_5
  6
Continuous
 62
     7
370
    -3
100
AcDbPolyline
 90
        5
 70
     0
 43
0.0
 10
43821.58901992999
 20
7616.91036296
 10
43821.58945852999
 20
7704.173095619999
 10
43352.07445538
 20
7533.50576575
 10
43352.07445538
 20
7446.24319226
 10
43821.58901992999
 20
7616.91036296
  0
LWPOLYLINE
  5
153
330
66
100
AcDbEntity
  8
Ech.1_5
  6
Continuous
 62
     7
370
    -3
100
AcDbPolyline
 90
        5
 70
     0
 43
0.0
 10
43821.58901992999
 20
7874.44138136
 10
43821.58901992999
 20
7980.859159190001
 10
43352.07445538
 20
7810.19198979
 10
43352.07445538
 20
7703.774212119999
 10
43821.58901992999
 20
7874.44138136
  0
LWPOLYLINE
  5
154
330
66
100
AcDbEntity
  8
Ech.1_5
  6
Continuous
 62
     7
370
    -3
100
AcDbPolyline
 90
       10
 70
     0
 43
0.0
 10
43821.58971497
 20
7819.537750890001
 10
43839.56719062
 20
7812.48292779
 10
43821.58901992999
 20
7828.96843094
 10
43821.58901992999
 20
7874.44138128
 10
43352.07445538
 20
7703.7742119
 10
43352.07445538
 20
7597.35643372
 10
43821.58901992999
 20
7768.023603270001
 10
43821.58984221
 20
7810.10651372
 10
43803.61149060999
 20
7826.592867809999
 10
43821.58971497
 20
7819.537750890001
  0
LWPOLYLINE
  5
155
330
66
100
AcDbEntity
  8
Ech.1_5
  6
Continuous
 62
     7
370
    -3
100
AcDbPolyline
 90
        5
 70
     0
 43
0.0
 10
43012.07445538
 20
7409.755880360001
 10
43012.07445538
 20
7473.60645671
 10
42554.61781221
 20
7307.105885510001
 10
42554.61781221
 20
7243.255268920001
 10
43012.07445538
 20
7409.755880360001
  0
LWPOLYLINE
  5
156
330
66
100
AcDbEntity
  8
Ech.1_5
  6
Continuous
 62
     7
370
    -3
100
AcDbPolyline
 90
        5
 70
     0
 43
0.0
 10
43012.07445538
 20
7473.60645241
 10
43012.07445538
 20
7707.725562500001
 10
42554.61781221
 20
7541.22499856
 10
42554.61781221
 20
7307.105885220001
 10
43012.07445538
 20
7473.60645241
  0
LWPOLYLINE
  5
157
330
66
100
AcDbEntity
  8
Ech.1_5
  6
Continuous
 62
     7
370
    -3
100
AcDbPolyline
 90
        5
 70
     0
 43
0.0
 10
43012.07445538
 20
7308.65882148
 10
43012.07445538
 20
7322.49313297
 10
42554.61781221
 20
7155.992518259999
 10
42554.61781221
 20
7142.158206910001
 10
43012.07445538
 20
7308.65882148
  0
LWPOLYLINE
  5
158
330
66
100
AcDbEntity
  8
Ech.1_5
  6
Continuous
 62
     7
370
    -3
100
AcDbPolyline
 90
        5
 70
     0
 43
0.0
 10
43352.07445538
 20
7597.356436860001
 10
43352.07445538
 20
7533.50576558
 10
43821.58901992999
 20
7704.39510171
 10
43821.58901992999
 20
7768.24577343
 10
43352.07445538
 20
7597.356436860001
  0
LWPOLYLINE
  5
159
330
66
100
AcDbEntity
  8
Ech.1_5
  6
Continuous
 62
     7
370
    -3
100
AcDbPolyline
 90
        5
 70
     0
 43
0.0
 10
43352.07445538
 20
7446.243116649999
 10
43352.07445538
 20
7432.40880515
 10
43821.58901992999
 20
7603.29817999
 10
43821.58901992999
 20
7617.1324915
 10
43352.07445538
 20
7446.243116649999
  0
LWPOLYLINE
  5
15A
330
66
100
AcDbEntity
  8
Ech.1_5
  6
Continuous
 62
     7
370
    -3
100
AcDbPolyline
 90
        8
 70
     0
 43
0.0
 10
43821.58901992999
 20
7768.245768519999
 10
43821.58984221
 20
7810.10651372
 10
43803.61149060999
 20
7826.592867809999
 10
43821.58971497
 20
7819.537750890001
 10
43821.58901992999
 20
8002.36487847
 10
43352.07445538
 20
7831.475542309999
 10
43352.07445538
 20
7597.35643237
 10
43821.58901992999
 20
7768.245768519999
  0
LWPOLYLINE
  5
15B
330
66
100
AcDbEntity
  8
Ech.1_5
  6
Continuous
 62
     7
370
     5
100
AcDbPolyline
 90
        5
 70
     0
 43
0.0
 10
42599.81532896
 20
7860.46166784
 10
42649.81532895999
 20
7860.46166784
 10
42649.81532895999
 20
7867.876805379999
 10
42599.81532896
 20
7867.876805379999
 10
42599.81532896
 20
7860.46166784
  0
LWPOLYLINE
  5
15C
330
66
100
AcDbEntity
  8
Ech.1_5
  6
Continuous
 62
     7
370
    -3
100
AcDbPolyline
 90
        4
 70
     1
 43
0.0
 10
42833.29420461
 20
7642.654900370001
 10
42875.58038657
 20
7658.045812570001
 10
42950.99441053999
 20
7451.375146420001
 10
42908.7082265
 20
7435.984239940001
  0
LWPOLYLINE
  5
15D
330
66
100
AcDbEntity
  8
Ech.1_5
  6
Continuous
 62
     7
370
    -3
100
AcDbPolyline
 90
        4
 70
     1
 43
0.0
 10
43413.15449747
 20
7853.70686085
 10
43455.44067941999
 20
7869.09777305
 10
43530.85470339
 20
7662.42710691
 10
43488.56851935
 20
7647.03620043
  0
TEXT
  5
15E
330
66
100
AcDbEntity
  8
Ech.1_5
 62
     7
370
    18
100
AcDbText
 10
43082.44140892999
 20
7588.72888782
 30
0.0
 40
12.5
  1
selon NF DTU 24.1 ou AT
  7
ARIAL
100
AcDbText
  0
TEXT
  5
15F
330
66
100
AcDbEntity
  8
Ech.1_5
 62
     7
370
    18
100
AcDbText
 10
43079.64391467999
 20
7702.26278252
 30
0.0
 40
17.5
  1
Caisson isolé et ventilé (voir AT)
 50
19.76704321
 41
0.7
 51
10.0
  7
TAHOMA
100
AcDbText
  0
TEXT
  5
160
330
66
100
AcDbEntity
  8
Ech.1_5
 62
     7
370
    18
100
AcDbText
 10
43112.50423724
 20
7634.777124200001
 30
0.0
 40
12.5
  1
Mise en oeuvre et
  7
ARIAL
100
AcDbText
  0
TEXT
  5
161
330
66
100
AcDbEntity
  8
Ech.1_5
 62
     7
100
AcDbText
 10
42611.10962159
 20
7877.462808459999
 30
0.0
 40
8.000000119999999
  1
Echelle en mm
  7
ARIAL
100
AcDbText
  0
TEXT
  5
162
330
66
100
AcDbEntity
  8
Ech.1_5
 62
     7
100
AcDbText
 10
42597.12903684
 20
7849.25297293
 30
0.0
 40
8.000000119999999
  1
0
  7
ARIAL
100
AcDbText
  0
TEXT
  5
163
330
66
100
AcDbEntity
  8
Ech.1_5
 62
     7
100
AcDbText
 10
42683.72609473
 20
7849.25297293
 30
0.0
 40
8.000000119999999
  1
100
  7
ARIAL
100
AcDbText
  0
TEXT
  5
164
330
66
100
AcDbEntity
  8
Ech.1_5
 62
     7
100
AcDbText
 10
42644.98566317
 20
7849.25297293
 30
0.0
 40
8.000000119999999
  1
50
  7
ARIAL
100
AcDbText
  0
INSERT
  5
165
330
66
100
AcDbEntity
  8
Ech.1_5
 62
     0
370
    -3
100
AcDbBlockReference
  2
*D11
 10
0.0
 20
0.0
 30
0.0
  0
INSERT
  5
166
330
66
100
AcDbEntity
  8
Ech.1_5
 62
     0
370
    -3
100
AcDbBlockReference
  2
*D12
 10
0.0
 20
0.0
 30
0.0
  0
ENDSEC
  0
SECTION
  2
OBJECTS
  0
DICTIONARY
  5
1
330
0
100
AcDbDictionary
281
     1
  3
ACAD_COLOR
350
19F
  3
ACAD_GROUP
350
2
  3
ACAD_LAYOUT
350
1B7
  3
ACAD_MATERIAL
350
16D
  3
ACAD_MLEADERSTYLE
350
1B4
  3
ACAD_MLINESTYLE
350
3
  3
ACAD_PLOTSETTINGS
350
1B8
  3
ACAD_PLOTSTYLENAME
350
16B
  3
ACAD_SCALELIST
350
1A2
  3
ACAD_TABLESTYLE
350
1A0
  3
ACAD_VISUALSTYLE
350
186
  3
ACDB_RECOMPOSE_DATA
350
20D
  3
AcDbVariableDictionary
350
203
  3
DWGPROPS
350
20E
  0
DICTIONARY
  5
1C7
330
40
100
AcDbDictionary
280
     1
281
     1
  3
ADSK_XREC_LAYER_RECONCILED
360
1C8
  0
DICTIONARY
  5
1C9
330
41
100
AcDbDictionary
280
     1
281
     1
  3
ADSK_XREC_LAYER_RECONCILED
360
1CA
  0
DICTIONARY
  5
1CB
330
42
100
AcDbDictionary
280
     1
281
     1
  3
ADSK_XREC_LAYER_RECONCILED
360
1CC
  0
DICTIONARY
  5
1CD
330
43
100
AcDbDictionary
280
     1
281
     1
  3
ADSK_XREC_LAYER_RECONCILED
360
1CE
  0
DICTIONARY
  5
1CF
330
44
100
AcDbDictionary
280
     1
281
     1
  3
ADSK_XREC_LAYER_RECONCILED
360
1D0
  0
DICTIONARY
  5
1D1
330
45
100
AcDbDictionary
280
     1
281
     1
  3
ADSK_XREC_LAYER_RECONCILED
360
1D2
  0
DICTIONARY
  5
1D3
330
46
100
AcDbDictionary
280
     1
281
     1
  3
ADSK_XREC_LAYER_RECONCILED
360
1D4
  0
DICTIONARY
  5
1D5
330
47
100
AcDbDictionary
280
     1
281
     1
  3
ADSK_XREC_LAYER_RECONCILED
360
1D6
  0
DICTIONARY
  5
1D7
330
48
100
AcDbDictionary
280
     1
281
     1
  3
ADSK_XREC_LAYER_RECONCILED
360
1D8
  0
DICTIONARY
  5
1D9
330
49
100
AcDbDictionary
280
     1
281
     1
  3
ADSK_XREC_LAYER_RECONCILED
360
1DA
  0
DICTIONARY
  5
1DB
330
4A
100
AcDbDictionary
280
     1
281
     1
  3
ADSK_XREC_LAYER_RECONCILED
360
1DC
  0
DICTIONARY
  5
1DD
330
4B
100
AcDbDictionary
280
     1
281
     1
  3
ADSK_XREC_LAYER_RECONCILED
360
1DE
  0
DICTIONARY
  5
1DF
330
4C
100
AcDbDictionary
280
     1
281
     1
  3
ADSK_XREC_LAYER_RECONCILED
360
1E0
  0
DICTIONARY
  5
1E1
330
4D
100
AcDbDictionary
280
     1
281
     1
  3
ADSK_XREC_LAYER_RECONCILED
360
1E2
  0
DICTIONARY
  5
1E3
330
4E
100
AcDbDictionary
280
     1
281
     1
  3
ADSK_XREC_LAYER_RECONCILED
360
1E4
  0
DICTIONARY
  5
1E5
330
4F
100
AcDbDictionary
280
     1
281
     1
  3
ADSK_XREC_LAYER_RECONCILED
360
1E6
  0
DICTIONARY
  5
1E7
330
50
100
AcDbDictionary
280
     1
281
     1
  3
ADSK_XREC_LAYER_RECONCILED
360
1E8
  0
DICTIONARY
  5
1E9
330
51
100
AcDbDictionary
280
     1
281
     1
  3
ADSK_XREC_LAYER_RECONCILED
360
1EA
  0
DICTIONARY
  5
1EB
330
52
100
AcDbDictionary
280
     1
281
     1
  3
ADSK_XREC_LAYER_RECONCILED
360
1EC
  0
DICTIONARY
  5
1ED
330
53
100
AcDbDictionary
280
     1
281
     1
  3
ADSK_XREC_LAYER_RECONCILED
360
1EE
  0
DICTIONARY
  5
1EF
330
54
100
AcDbDictionary
280
     1
281
     1
  3
ADSK_XREC_LAYER_RECONCILED
360
1F0
  0
DICTIONARY
  5
1F1
330
56
100
AcDbDictionary
280
     1
281
     1
  3
ADSK_XREC_LAYER_RECONCILED
360
1F2
  0
DICTIONARY
  5
1F3
330
57
100
AcDbDictionary
280
     1
281
     1
  3
ADSK_XREC_LAYER_RECONCILED
360
1F4
  0
DICTIONARY
  5
1F5
330
59
100
AcDbDictionary
280
     1
281
     1
  3
ADSK_XREC_LAYER_RECONCILED
360
1F6
  0
DICTIONARY
  5
1F7
330
5A
100
AcDbDictionary
280
     1
281
     1
  3
ADSK_XREC_LAYER_RECONCILED
360
1F8
  0
DICTIONARY
  5
1F9
330
5B
100
AcDbDictionary
280
     1
281
     1
  3
ADSK_XREC_LAYER_RECONCILED
360
1FA
  0
DICTIONARY
  5
1FB
330
5C
100
AcDbDictionary
280
     1
281
     1
  3
ADSK_XREC_LAYER_RECONCILED
360
1FC
  0
DICTIONARY
  5
1FD
330
5D
100
AcDbDictionary
280
     1
281
     1
  3
ADSK_XREC_LAYER_RECONCILED
360
1FE
  0
DICTIONARY
  5
1FF
330
5E
100
AcDbDictionary
280
     1
281
     1
  3
ADSK_XREC_LAYER_RECONCILED
360
200
  0
DICTIONARY
  5
201
330
5F
100
AcDbDictionary
280
     1
281
     1
  3
ADSK_XREC_LAYER_RECONCILED
360
202
  0
DICTIONARY
  5
19F
102
{ACAD_REACTORS
330
1
102
}
330
1
100
AcDbDictionary
281
     1
  0
DICTIONARY
  5
2
330
1
100
AcDbDictionary
281
     1
  0
DICTIONARY
  5
1B7
102
{ACAD_REACTORS
330
1
102
}
330
1
100
AcDbDictionary
281
     1
  3
Model
350
1B9
  3
Présentation1
350
1BA
  0
DICTIONARY
  5
16D
102
{ACAD_REACTORS
330
1
102
}
330
1
100
AcDbDictionary
281
     1
  3
ByBlock
350
176
  3
ByLayer
350
16E
  3
Global
350
17E
  0
DICTIONARY
  5
1B4
102
{ACAD_REACTORS
330
1
102
}
330
1
100
AcDbDictionary
281
     1
  3
Standard
350
1B5
  0
DICTIONARY
  5
3
330
1
100
AcDbDictionary
281
     1
  3
STANDARD
350
4
  0
DICTIONARY
  5
1B8
102
{ACAD_REACTORS
330
1
102
}
330
1
100
AcDbDictionary
281
     1
  0
ACDBDICTIONARYWDFLT
  5
16B
102
{ACAD_REACTORS
330
1
102
}
330
1
100
AcDbDictionary
281
     1
  3
Normal
350
16C
100
AcDbDictionaryWithDefault
340
16C
  0
DICTIONARY
  5
1A2
102
{ACAD_REACTORS
330
1
102
}
330
1
100
AcDbDictionary
281
     1
  3
A0
350
1A3
  3
A1
350
1A4
  3
A2
350
1A5
  3
A3
350
1A6
  3
A4
350
1A7
  3
A5
350
1A8
  3
A6
350
1A9
  3
A7
350
1AA
  3
A8
350
1AB
  3
A9
350
1AC
  3
B0
350
1AD
  3
B1
350
1AE
  3
B2
350
1AF
  3
B3
350
1B0
  3
B4
350
1B1
  3
B5
350
1B2
  3
B6
350
1B3
  0
DICTIONARY
  5
1A0
102
{ACAD_REACTORS
330
1
102
}
330
1
100
AcDbDictionary
281
     1
  3
Standard
350
1A1
  0
DICTIONARY
  5
186
102
{ACAD_REACTORS
330
1
102
}
330
1
100
AcDbDictionary
281
     1
  3
2dWireframe
350
18C
  3
Basic
350
18B
  3
Brighten
350
192
  3
ColorChange
350
196
  3
Conceptual
350
18F
  3
Dim
350
191
  3
EdgeColorOff
350
19E
  3
Facepattern
350
195
  3
Flat
350
187
  3
FlatWithEdges
350
188
  3
Gouraud
350
189
  3
GouraudWithEdges
350
18A
  3
Hidden
350
18E
  3
JitterOff
350
19C
  3
Linepattern
350
194
  3
OverhangOff
350
19D
  3
Realistic
350
190
  3
Shaded
350
19B
  3
Shaded with edges
350
19A
  3
Shades of Gray
350
197
  3
Sketchy
350
198
  3
Thicken
350
193
  3
Wireframe
350
18D
  3
X-Ray
350
199
  0
XRECORD
  5
20D
102
{ACAD_REACTORS
330
1
102
}
330
1
100
AcDbXrecord
280
     1
 90
        1
330
1A1
  0
DICTIONARY
  5
203
102
{ACAD_REACTORS
330
1
102
}
330
1
100
AcDbDictionary
281
     1
  3
CANNOSCALE
350
206
  3
CMLEADERSTYLE
350
205
  3
CTABLESTYLE
350
204
  3
DIMASSOC
350
209
  3
INDEXCTL
350
208
  3
SORTENTS
350
207
  3
XCLIPFRAME
350
20A
  0
XRECORD
  5
20E
102
{ACAD_REACTORS
330
1
102
}
330
1
100
AcDbXrecord
280
     1
  1
DWGPROPS COOKIE
  2

  3

  4

  6

  7

  8
cazeaux
  9

300
=
301
=
302
=
303
=
304
=
305
=
306
=
307
=
308
=
309
=
 40
0.0006891435185185
 41
2456443.0
 42
2456458.479258021
  1

 90
        0
  0
XRECORD
  5
1C8
102
{ACAD_REACTORS
330
1C7
102
}
330
1C7
100
AcDbXrecord
280
     1
290
     1
  0
XRECORD
  5
1CA
102
{ACAD_REACTORS
330
1C9
102
}
330
1C9
100
AcDbXrecord
280
     1
290
     1
  0
XRECORD
  5
1CC
102
{ACAD_REACTORS
330
1CB
102
}
330
1CB
100
AcDbXrecord
280
     1
290
     1
  0
XRECORD
  5
1CE
102
{ACAD_REACTORS
330
1CD
102
}
330
1CD
100
AcDbXrecord
280
     1
290
     1
  0
XRECORD
  5
1D0
102
{ACAD_REACTORS
330
1CF
102
}
330
1CF
100
AcDbXrecord
280
     1
290
     1
  0
XRECORD
  5
1D2
102
{ACAD_REACTORS
330
1D1
102
}
330
1D1
100
AcDbXrecord
280
     1
290
     1
  0
XRECORD
  5
1D4
102
{ACAD_REACTORS
330
1D3
102
}
330
1D3
100
AcDbXrecord
280
     1
290
     1
  0
XRECORD
  5
1D6
102
{ACAD_REACTORS
330
1D5
102
}
330
1D5
100
AcDbXrecord
280
     1
290
     1
  0
XRECORD
  5
1D8
102
{ACAD_REACTORS
330
1D7
102
}
330
1D7
100
AcDbXrecord
280
     1
290
     1
  0
XRECORD
  5
1DA
102
{ACAD_REACTORS
330
1D9
102
}
330
1D9
100
AcDbXrecord
280
     1
290
     1
  0
XRECORD
  5
1DC
102
{ACAD_REACTORS
330
1DB
102
}
330
1DB
100
AcDbXrecord
280
     1
290
     1
  0
XRECORD
  5
1DE
102
{ACAD_REACTORS
330
1DD
102
}
330
1DD
100
AcDbXrecord
280
     1
290
     1
  0
XRECORD
  5
1E0
102
{ACAD_REACTORS
330
1DF
102
}
330
1DF
100
AcDbXrecord
280
     1
290
     1
  0
XRECORD
  5
1E2
102
{ACAD_REACTORS
330
1E1
102
}
330
1E1
100
AcDbXrecord
280
     1
290
     1
  0
XRECORD
  5
1E4
102
{ACAD_REACTORS
330
1E3
102
}
330
1E3
100
AcDbXrecord
280
     1
290
     1
  0
XRECORD
  5
1E6
102
{ACAD_REACTORS
330
1E5
102
}
330
1E5
100
AcDbXrecord
280
     1
290
     1
  0
XRECORD
  5
1E8
102
{ACAD_REACTORS
330
1E7
102
}
330
1E7
100
AcDbXrecord
280
     1
290
     1
  0
XRECORD
  5
1EA
102
{ACAD_REACTORS
330
1E9
102
}
330
1E9
100
AcDbXrecord
280
     1
290
     1
  0
XRECORD
  5
1EC
102
{ACAD_REACTORS
330
1EB
102
}
330
1EB
100
AcDbXrecord
280
     1
290
     1
  0
XRECORD
  5
1EE
102
{ACAD_REACTORS
330
1ED
102
}
330
1ED
100
AcDbXrecord
280
     1
290
     1
  0
XRECORD
  5
1F0
102
{ACAD_REACTORS
330
1EF
102
}
330
1EF
100
AcDbXrecord
280
     1
290
     1
  0
XRECORD
  5
1F2
102
{ACAD_REACTORS
330
1F1
102
}
330
1F1
100
AcDbXrecord
280
     1
290
     1
  0
XRECORD
  5
1F4
102
{ACAD_REACTORS
330
1F3
102
}
330
1F3
100
AcDbXrecord
280
     1
290
     1
  0
XRECORD
  5
1F6
102
{ACAD_REACTORS
330
1F5
102
}
330
1F5
100
AcDbXrecord
280
     1
290
     1
  0
XRECORD
  5
1F8
102
{ACAD_REACTORS
330
1F7
102
}
330
1F7
100
AcDbXrecord
280
     1
290
     1
  0
XRECORD
  5
1FA
102
{ACAD_REACTORS
330
1F9
102
}
330
1F9
100
AcDbXrecord
280
     1
290
     1
  0
XRECORD
  5
1FC
102
{ACAD_REACTORS
330
1FB
102
}
330
1FB
100
AcDbXrecord
280
     1
290
     1
  0
XRECORD
  5
1FE
102
{ACAD_REACTORS
330
1FD
102
}
330
1FD
100
AcDbXrecord
280
     1
290
     1
  0
XRECORD
  5
200
102
{ACAD_REACTORS
330
1FF
102
}
330
1FF
100
AcDbXrecord
280
     1
290
     1
  0
XRECORD
  5
202
102
{ACAD_REACTORS
330
201
102
}
330
201
100
AcDbXrecord
280
     1
290
     1
  0
LAYOUT
  5
1B9
102
{ACAD_XDICTIONARY
360
244
102
}
102
{ACAD_REACTORS
330
1B7
102
}
330
1B7
100
AcDbPlotSettings
  1

  2
Aucun(e)
  4

  6

 40
0.0
 41
0.0
 42
0.0
 43
0.0
 44
0.0
 45
0.0
 46
0.0
 47
0.0
 48
0.0
 49
0.0
140
0.0
141
0.0
142
1.0
143
1.0
 70
  1712
 72
     0
 73
     0
 74
     0
  7
acad.ctb
 75
     0
147
1.0
148
0.0
149
0.0
100
AcDbLayout
  1
Model
 70
     1
 71
     0
 10
0.0
 20
0.0
 11
12.0
 21
9.0
 12
0.0
 22
0.0
 32
0.0
 14
0.0
 24
0.0
 34
0.0
 15
0.0
 25
0.0
 35
0.0
146
0.0
 13
0.0
 23
0.0
 33
0.0
 16
1.0
 26
0.0
 36
0.0
 17
0.0
 27
1.0
 37
0.0
 76
     0
330
66
331
1BD
  0
LAYOUT
  5
1BA
102
{ACAD_XDICTIONARY
360
246
102
}
102
{ACAD_REACTORS
330
1B7
102
}
330
1B7
100
AcDbPlotSettings
  1

  2
Aucun(e)
  4

  6

 40
0.0
 41
0.0
 42
0.0
 43
0.0
 44
0.0
 45
0.0
 46
0.0
 47
0.0
 48
0.0
 49
0.0
140
0.0
141
0.0
142
1.0
143
1.0
 70
   688
 72
     0
 73
     0
 74
     5
  7
acad.ctb
 75
    16
147
1.0
148
0.0
149
0.0
100
AcDbLayout
  1
Présentation1
 70
     1
 71
     1
 10
0.0
 20
0.0
 11
12.0
 21
9.0
 12
0.0
 22
0.0
 32
0.0
 14
1.000000000000000E+20
 24
1.000000000000000E+20
 34
1.000000000000000E+20
 15
-1.000000000000000E+20
 25
-1.000000000000000E+20
 35
-1.000000000000000E+20
146
0.0
 13
0.0
 23
0.0
 33
0.0
 16
1.0
 26
0.0
 36
0.0
 17
0.0
 27
1.0
 37
0.0
 76
     0
330
67
  0
MATERIAL
  5
176
102
{ACAD_XDICTIONARY
360
177
102
}
102
{ACAD_REACTORS
330
16D
102
}
330
16D
100
AcDbMaterial
  1
ByBlock
 72
     0
 43
0.0208333333333333
 43
0.0
 43
0.0
 43
0.0
 43
0.0
 43
0.0208333333333333
 43
0.0
 43
0.0
 43
0.0
 43
0.0
 43
1.0
 43
0.0
 43
0.0
 43
0.0
 43
0.0
 43
1.0
 77
     0
 47
0.0208333333333333
 47
0.0
 47
0.0
 47
0.0
 47
0.0
 47
0.0208333333333333
 47
0.0
 47
0.0
 47
0.0
 47
0.0
 47
1.0
 47
0.0
 47
0.0
 47
0.0
 47
0.0
 47
1.0
171
     0
 49
0.0208333333333333
 49
0.0
 49
0.0
 49
0.0
 49
0.0
 49
0.0208333333333333
 49
0.0
 49
0.0
 49
0.0
 49
0.0
 49
1.0
 49
0.0
 49
0.0
 49
0.0
 49
0.0
 49
1.0
175
     0
142
0.0208333333333333
142
0.0
142
0.0
142
0.0
142
0.0
142
0.0208333333333333
142
0.0
142
0.0
142
0.0
142
0.0
142
1.0
142
0.0
142
0.0
142
0.0
142
0.0
142
1.0
179
     0
144
0.0208333333333333
144
0.0
144
0.0
144
0.0
144
0.0
144
0.0208333333333333
144
0.0
144
0.0
144
0.0
144
0.0
144
1.0
144
0.0
144
0.0
144
0.0
144
0.0
144
1.0
147
0.0208333333333333
147
0.0
147
0.0
147
0.0
147
0.0
147
0.0208333333333333
147
0.0
147
0.0
147
0.0
147
0.0
147
1.0
147
0.0
147
0.0
147
0.0
147
0.0
147
1.0
  0
MATERIAL
  5
16E
102
{ACAD_XDICTIONARY
360
16F
102
}
102
{ACAD_REACTORS
330
16D
102
}
330
16D
100
AcDbMaterial
  1
ByLayer
 72
     0
 43
0.0208333333333333
 43
0.0
 43
0.0
 43
0.0
 43
0.0
 43
0.0208333333333333
 43
0.0
 43
0.0
 43
0.0
 43
0.0
 43
1.0
 43
0.0
 43
0.0
 43
0.0
 43
0.0
 43
1.0
 77
     0
 47
0.0208333333333333
 47
0.0
 47
0.0
 47
0.0
 47
0.0
 47
0.0208333333333333
 47
0.0
 47
0.0
 47
0.0
 47
0.0
 47
1.0
 47
0.0
 47
0.0
 47
0.0
 47
0.0
 47
1.0
171
     0
 49
0.0208333333333333
 49
0.0
 49
0.0
 49
0.0
 49
0.0
 49
0.0208333333333333
 49
0.0
 49
0.0
 49
0.0
 49
0.0
 49
1.0
 49
0.0
 49
0.0
 49
0.0
 49
0.0
 49
1.0
175
     0
142
0.0208333333333333
142
0.0
142
0.0
142
0.0
142
0.0
142
0.0208333333333333
142
0.0
142
0.0
142
0.0
142
0.0
142
1.0
142
0.0
142
0.0
142
0.0
142
0.0
142
1.0
179
     0
144
0.0208333333333333
144
0.0
144
0.0
144
0.0
144
0.0
144
0.0208333333333333
144
0.0
144
0.0
144
0.0
144
0.0
144
1.0
144
0.0
144
0.0
144
0.0
144
0.0
144
1.0
147
0.0208333333333333
147
0.0
147
0.0
147
0.0
147
0.0
147
0.0208333333333333
147
0.0
147
0.0
147
0.0
147
0.0
147
1.0
147
0.0
147
0.0
147
0.0
147
0.0
147
1.0
  0
MATERIAL
  5
17E
102
{ACAD_XDICTIONARY
360
17F
102
}
102
{ACAD_REACTORS
330
16D
102
}
330
16D
100
AcDbMaterial
  1
Global
 72
     0
 43
0.0208333333333333
 43
0.0
 43
0.0
 43
0.0
 43
0.0
 43
0.0208333333333333
 43
0.0
 43
0.0
 43
0.0
 43
0.0
 43
1.0
 43
0.0
 43
0.0
 43
0.0
 43
0.0
 43
1.0
 77
     0
 47
0.0208333333333333
 47
0.0
 47
0.0
 47
0.0
 47
0.0
 47
0.0208333333333333
 47
0.0
 47
0.0
 47
0.0
 47
0.0
 47
1.0
 47
0.0
 47
0.0
 47
0.0
 47
0.0
 47
1.0
171
     0
 49
0.0208333333333333
 49
0.0
 49
0.0
 49
0.0
 49
0.0
 49
0.0208333333333333
 49
0.0
 49
0.0
 49
0.0
 49
0.0
 49
1.0
 49
0.0
 49
0.0
 49
0.0
 49
0.0
 49
1.0
175
     0
142
0.0208333333333333
142
0.0
142
0.0
142
0.0
142
0.0
142
0.0208333333333333
142
0.0
142
0.0
142
0.0
142
0.0
142
1.0
142
0.0
142
0.0
142
0.0
142
0.0
142
1.0
179
     0
144
0.0208333333333333
144
0.0
144
0.0
144
0.0
144
0.0
144
0.0208333333333333
144
0.0
144
0.0
144
0.0
144
0.0
144
1.0
144
0.0
144
0.0
144
0.0
144
0.0
144
1.0
147
0.0208333333333333
147
0.0
147
0.0
147
0.0
147
0.0
147
0.0208333333333333
147
0.0
147
0.0
147
0.0
147
0.0
147
1.0
147
0.0
147
0.0
147
0.0
147
0.0
147
1.0
  0
MLEADERSTYLE
  5
1B5
102
{ACAD_REACTORS
330
1B4
102
}
330
1B4
100
AcDbMLeaderStyle
170
     2
171
     1
172
     0
 90
        2
 40
0.0
 41
0.0
173
     1
 91
-1056964608
340
33
 92
       -2
290
     1
 42
2.0
291
     1
 43
0.36
  3
Standard
 44
4.0
300

342
2D
174
     1
178
     6
175
     1
176
     0
 93
-1056964608
 45
4.0
292
     0
297
     0
 46
4.0
 94
-1056964608
 47
1.0
 49
1.0
140
1.0
293
     1
141
0.0
294
     1
177
     0
142
1.0
295
     0
296
     0
143
0.125
1001
ACAD_MLEADERVER
1070
     2
  0
MLINESTYLE
  5
4
330
3
100
AcDbMlineStyle
  2
STANDARD
 70
     0
  3

 62
     0
 51
90.0
 52
90.0
 71
     2
 49
0.5
 62
   256
  6
BYLAYER
 49
-0.5
 62
   256
  6
BYLAYER
  0
ACDBPLACEHOLDER
  5
16C
102
{ACAD_REACTORS
330
16B
102
}
330
16B
  0
SCALE
  5
1A3
102
{ACAD_REACTORS
330
1A2
102
}
330
1A2
100
AcDbScale
 70
     0
300
1:1
140
1.0
141
1.0
290
     1
  0
SCALE
  5
1A4
102
{ACAD_REACTORS
330
1A2
102
}
330
1A2
100
AcDbScale
 70
     0
300
1:2
140
1.0
141
2.0
290
     0
  0
SCALE
  5
1A5
102
{ACAD_REACTORS
330
1A2
102
}
330
1A2
100
AcDbScale
 70
     0
300
1:4
140
1.0
141
4.0
290
     0
  0
SCALE
  5
1A6
102
{ACAD_REACTORS
330
1A2
102
}
330
1A2
100
AcDbScale
 70
     0
300
1:5
140
1.0
141
5.0
290
     0
  0
SCALE
  5
1A7
102
{ACAD_REACTORS
330
1A2
102
}
330
1A2
100
AcDbScale
 70
     0
300
1:8
140
1.0
141
8.0
290
     0
  0
SCALE
  5
1A8
102
{ACAD_REACTORS
330
1A2
102
}
330
1A2
100
AcDbScale
 70
     0
300
1:10
140
1.0
141
10.0
290
     0
  0
SCALE
  5
1A9
102
{ACAD_REACTORS
330
1A2
102
}
330
1A2
100
AcDbScale
 70
     0
300
1:16
140
1.0
141
16.0
290
     0
  0
SCALE
  5
1AA
102
{ACAD_REACTORS
330
1A2
102
}
330
1A2
100
AcDbScale
 70
     0
300
1:20
140
1.0
141
20.0
290
     0
  0
SCALE
  5
1AB
102
{ACAD_REACTORS
330
1A2
102
}
330
1A2
100
AcDbScale
 70
     0
300
1:30
140
1.0
141
30.0
290
     0
  0
SCALE
  5
1AC
102
{ACAD_REACTORS
330
1A2
102
}
330
1A2
100
AcDbScale
 70
     0
300
1:40
140
1.0
141
40.0
290
     0
  0
SCALE
  5
1AD
102
{ACAD_REACTORS
330
1A2
102
}
330
1A2
100
AcDbScale
 70
     0
300
1:50
140
1.0
141
50.0
290
     0
  0
SCALE
  5
1AE
102
{ACAD_REACTORS
330
1A2
102
}
330
1A2
100
AcDbScale
 70
     0
300
1:100
140
1.0
141
100.0
290
     0
  0
SCALE
  5
1AF
102
{ACAD_REACTORS
330
1A2
102
}
330
1A2
100
AcDbScale
 70
     0
300
2:1
140
2.0
141
1.0
290
     0
  0
SCALE
  5
1B0
102
{ACAD_REACTORS
330
1A2
102
}
330
1A2
100
AcDbScale
 70
     0
300
4:1
140
4.0
141
1.0
290
     0
  0
SCALE
  5
1B1
102
{ACAD_REACTORS
330
1A2
102
}
330
1A2
100
AcDbScale
 70
     0
300
8:1
140
8.0
141
1.0
290
     0
  0
SCALE
  5
1B2
102
{ACAD_REACTORS
330
1A2
102
}
330
1A2
100
AcDbScale
 70
     0
300
10:1
140
10.0
141
1.0
290
     0
  0
SCALE
  5
1B3
102
{ACAD_REACTORS
330
1A2
102
}
330
1A2
100
AcDbScale
 70
     0
300
100:1
140
100.0
141
1.0
290
     0
  0
TABLESTYLE
  5
1A1
102
{ACAD_XDICTIONARY
360
20B
102
}
102
{ACAD_REACTORS
330
1A0
102
}
330
1A0
100
AcDbTableStyle
  3
Standard
 70
     0
 71
     0
 40
1.5
 41
1.5
280
     0
281
     0
  7
STANDARD
140
4.5
170
     2
 62
     0
 63
     7
283
     0
274
    -2
284
     1
 64
     0
275
    -2
285
     1
 65
     0
276
    -2
286
     1
 66
     0
277
    -2
287
     1
 67
     0
278
    -2
288
     1
 68
     0
279
    -2
289
     1
 69
     0
  7
STANDARD
140
6.0
170
     5
 62
     0
 63
     7
283
     0
274
    -2
284
     1
 64
     0
275
    -2
285
     1
 65
     0
276
    -2
286
     1
 66
     0
277
    -2
287
     1
 67
     0
278
    -2
288
     1
 68
     0
279
    -2
289
     1
 69
     0
  7
STANDARD
140
4.5
170
     5
 62
     0
 63
     7
283
     0
274
    -2
284
     1
 64
     0
275
    -2
285
     1
 65
     0
276
    -2
286
     1
 66
     0
277
    -2
287
     1
 67
     0
278
    -2
288
     1
 68
     0
279
    -2
289
     1
 69
     0
  0
VISUALSTYLE
  5
18C
102
{ACAD_XDICTIONARY
360
21C
102
}
102
{ACAD_REACTORS
330
186
102
}
330
186
100
AcDbVisualStyle
  2
2dWireframe
 70
     4
 71
     0
 72
     2
 73
     0
 90
        0
 40
-0.6
 41
-30.0
 62
     5
 63
     7
 74
     1
 91
        4
 64
     7
 65
   257
 75
     1
175
     1
 42
1.0
 92
        0
 66
   257
 43
1.0
 76
     1
 77
     6
 78
     2
 67
     7
 79
     5
170
     0
171
     0
290
     0
174
     0
 93
        1
 44
0.0
173
     0
291
     0
 45
0.0
1001
ACAD
1000
AcDbSavedByObjectVersion
1070
     0
  0
VISUALSTYLE
  5
18B
102
{ACAD_XDICTIONARY
360
21A
102
}
102
{ACAD_REACTORS
330
186
102
}
330
186
100
AcDbVisualStyle
  2
Basic
 70
     7
 71
     1
 72
     0
 73
     1
 90
        0
 40
-0.6
 41
-30.0
 62
     5
 63
     7
 74
     0
 91
        4
 64
     7
 65
   257
 75
     1
175
     1
 42
1.0
 92
        8
 66
     7
 43
1.0
 76
     1
 77
     6
 78
     2
 67
     7
 79
     5
170
     0
171
     0
290
     0
174
     0
 93
        1
 44
0.0
173
     0
291
     1
 45
0.0
1001
ACAD
1000
AcDbSavedByObjectVersion
1070
     0
  0
VISUALSTYLE
  5
192
102
{ACAD_XDICTIONARY
360
228
102
}
102
{ACAD_REACTORS
330
186
102
}
330
186
100
AcDbVisualStyle
  2
Brighten
 70
    12
 71
     2
 72
     2
 73
     0
 90
        0
 40
-0.6
 41
-30.0
 62
     5
 63
     7
 74
     1
 91
        4
 64
     7
 65
   257
 75
     1
175
     1
 42
1.0
 92
        8
 66
     7
 43
1.0
 76
     1
 77
     6
 78
     2
 67
     7
 79
     5
170
     0
171
     0
290
     0
174
     0
 93
        1
 44
50.0
173
     0
291
     1
 45
0.0
1001
ACAD
1000
AcDbSavedByObjectVersion
1070
     0
  0
VISUALSTYLE
  5
196
102
{ACAD_XDICTIONARY
360
230
102
}
102
{ACAD_REACTORS
330
186
102
}
330
186
100
AcDbVisualStyle
  2
ColorChange
 70
    16
 71
     2
 72
     2
 73
     3
 90
        0
 40
-0.6
 41
-30.0
 62
     5
 63
     8
 74
     1
 91
        4
 64
     7
 65
   257
 75
     1
175
     1
 42
1.0
 92
        8
 66
     8
 43
1.0
 76
     1
 77
     6
 78
     2
 67
     7
 79
     5
170
     0
171
     0
290
     0
174
     0
 93
        1
 44
0.0
173
     0
291
     1
 45
0.0
1001
ACAD
1000
AcDbSavedByObjectVersion
1070
     0
  0
VISUALSTYLE
  5
18F
102
{ACAD_XDICTIONARY
360
222
102
}
102
{ACAD_REACTORS
330
186
102
}
330
186
100
AcDbVisualStyle
  2
Conceptual
 70
     9
 71
     3
 72
     2
 73
     0
 90
        0
 40
-0.6
 41
-30.0
 62
     5
 63
     7
 74
     2
 91
        2
 64
     7
 65
   257
 75
     1
175
     1
 42
179.0
 92
        8
 66
     7
 43
1.0
 76
     1
 77
     6
 78
     2
 67
     7
 79
     3
170
     0
171
     0
290
     0
174
     0
 93
        1
 44
0.0
173
     0
291
     0
 45
0.0
1001
ACAD
1000
AcDbSavedByObjectVersion
1070
     0
  0
VISUALSTYLE
  5
191
102
{ACAD_XDICTIONARY
360
226
102
}
102
{ACAD_REACTORS
330
186
102
}
330
186
100
AcDbVisualStyle
  2
Dim
 70
    11
 71
     2
 72
     2
 73
     0
 90
        0
 40
-0.6
 41
-30.0
 62
     5
 63
     7
 74
     1
 91
        4
 64
     7
 65
   257
 75
     1
175
     1
 42
1.0
 92
        8
 66
     7
 43
1.0
 76
     1
 77
     6
 78
     2
 67
     7
 79
     5
170
     0
171
     0
290
     0
174
     0
 93
        1
 44
-50.0
173
     0
291
     1
 45
0.0
1001
ACAD
1000
AcDbSavedByObjectVersion
1070
     0
  0
VISUALSTYLE
  5
19E
102
{ACAD_XDICTIONARY
360
240
102
}
102
{ACAD_REACTORS
330
186
102
}
330
186
100
AcDbVisualStyle
  2
EdgeColorOff
 70
    22
 71
     2
 72
     2
 73
     0
 90
        0
 40
-0.6
 41
-30.0
 62
     5
 63
     7
 74
     1
 91
        4
 64
     7
 65
   257
 75
     1
175
     1
 42
1.0
 92
        8
 66
     7
 43
1.0
 76
     1
 77
     6
 78
     2
 67
     7
 79
     5
170
     0
171
     0
290
     0
174
     0
 93
        1
 44
0.0
173
     0
291
     1
 45
0.0
1001
ACAD
1000
AcDbSavedByObjectVersion
1070
     0
  0
VISUALSTYLE
  5
195
102
{ACAD_XDICTIONARY
360
22E
102
}
102
{ACAD_REACTORS
330
186
102
}
330
186
100
AcDbVisualStyle
  2
Facepattern
 70
    15
 71
     2
 72
     2
 73
     0
 90
        0
 40
-0.6
 41
-30.0
 62
     5
 63
     7
 74
     1
 91
        4
 64
     7
 65
   257
 75
     1
175
     1
 42
1.0
 92
        8
 66
     7
 43
1.0
 76
     1
 77
     6
 78
     2
 67
     7
 79
     5
170
     0
171
     0
290
     0
174
     0
 93
        1
 44
0.0
173
     0
291
     1
 45
0.0
1001
ACAD
1000
AcDbSavedByObjectVersion
1070
     0
  0
VISUALSTYLE
  5
187
102
{ACAD_XDICTIONARY
360
212
102
}
102
{ACAD_REACTORS
330
186
102
}
330
186
100
AcDbVisualStyle
  2
Flat
 70
     0
 71
     2
 72
     1
 73
     1
 90
        2
 40
-0.6
 41
30.0
 62
     5
 63
     7
 74
     0
 91
        0
 64
     7
 65
   257
 75
     1
175
     1
 42
1.0
 92
        8
 66
     7
 43
1.0
 76
     1
 77
     6
 78
     2
 67
     7
 79
     5
170
     0
171
     0
290
     0
174
     0
 93
       13
 44
0.0
173
     0
291
     1
 45
0.0
1001
ACAD
1000
AcDbSavedByObjectVersion
1070
     0
  0
VISUALSTYLE
  5
188
102
{ACAD_XDICTIONARY
360
214
102
}
102
{ACAD_REACTORS
330
186
102
}
330
186
100
AcDbVisualStyle
  2
FlatWithEdges
 70
     1
 71
     2
 72
     1
 73
     1
 90
        2
 40
-0.6
 41
30.0
 62
     5
 63
     7
 74
     1
 91
        0
 64
     7
 65
   257
 75
     1
175
     1
 42
1.0
 92
        0
 66
   257
 43
1.0
 76
     1
 77
     6
 78
     2
 67
     7
 79
     5
170
     0
171
     0
290
     0
174
     0
 93
       13
 44
0.0
173
     0
291
     1
 45
0.0
1001
ACAD
1000
AcDbSavedByObjectVersion
1070
     0
  0
VISUALSTYLE
  5
189
102
{ACAD_XDICTIONARY
360
216
102
}
102
{ACAD_REACTORS
330
186
102
}
330
186
100
AcDbVisualStyle
  2
Gouraud
 70
     2
 71
     2
 72
     2
 73
     1
 90
        2
 40
-0.6
 41
30.0
 62
     5
 63
     7
 74
     0
 91
        0
 64
     7
 65
   257
 75
     1
175
     1
 42
1.0
 92
        0
 66
     7
 43
1.0
 76
     1
 77
     6
 78
     2
 67
     7
 79
     5
170
     0
171
     0
290
     0
174
     0
 93
       13
 44
0.0
173
     0
291
     1
 45
0.0
1001
ACAD
1000
AcDbSavedByObjectVersion
1070
     0
  0
VISUALSTYLE
  5
18A
102
{ACAD_XDICTIONARY
360
218
102
}
102
{ACAD_REACTORS
330
186
102
}
330
186
100
AcDbVisualStyle
  2
GouraudWithEdges
 70
     3
 71
     2
 72
     2
 73
     1
 90
        2
 40
-0.6
 41
30.0
 62
     5
 63
     7
 74
     1
 91
        0
 64
     7
 65
   257
 75
     1
175
     1
 42
1.0
 92
        0
 66
   257
 43
1.0
 76
     1
 77
     6
 78
     2
 67
     7
 79
     5
170
     0
171
     0
290
     0
174
     0
 93
       13
 44
0.0
173
     0
291
     1
 45
0.0
1001
ACAD
1000
AcDbSavedByObjectVersion
1070
     0
  0
VISUALSTYLE
  5
18E
102
{ACAD_XDICTIONARY
360
220
102
}
102
{ACAD_REACTORS
330
186
102
}
330
186
100
AcDbVisualStyle
  2
Hidden
 70
     6
 71
     1
 72
     2
 73
     2
 90
        0
 40
-0.6
 41
-30.0
 62
     5
 63
     7
 74
     2
 91
        2
 64
     7
 65
   257
 75
     2
175
     1
 42
40.0
 92
        0
 66
   257
 43
1.0
 76
     1
 77
     6
 78
     2
 67
     7
 79
     3
170
     0
171
     0
290
     0
174
     0
 93
        1
 44
0.0
173
     0
291
     0
 45
0.0
1001
ACAD
1000
AcDbSavedByObjectVersion
1070
     0
  0
VISUALSTYLE
  5
19C
102
{ACAD_XDICTIONARY
360
23C
102
}
102
{ACAD_REACTORS
330
186
102
}
330
186
100
AcDbVisualStyle
  2
JitterOff
 70
    20
 71
     2
 72
     2
 73
     0
 90
        0
 40
-0.6
 41
-30.0
 62
     5
 63
     7
 74
     1
 91
        4
 64
     7
 65
   257
 75
     1
175
     1
 42
1.0
 92
       10
 66
     7
 43
1.0
 76
     1
 77
     6
 78
     2
 67
     7
 79
     5
170
     0
171
     0
290
     0
174
     0
 93
        1
 44
0.0
173
     0
291
     1
 45
0.0
1001
ACAD
1000
AcDbSavedByObjectVersion
1070
     0
  0
VISUALSTYLE
  5
194
102
{ACAD_XDICTIONARY
360
22C
102
}
102
{ACAD_REACTORS
330
186
102
}
330
186
100
AcDbVisualStyle
  2
Linepattern
 70
    14
 71
     2
 72
     2
 73
     0
 90
        0
 40
-0.6
 41
-30.0
 62
     5
 63
     7
 74
     1
 91
        4
 64
     7
 65
   257
 75
     7
175
     7
 42
1.0
 92
        8
 66
     7
 43
1.0
 76
     1
 77
     6
 78
     2
 67
     7
 79
     5
170
     0
171
     0
290
     0
174
     0
 93
        1
 44
0.0
173
     0
291
     1
 45
0.0
1001
ACAD
1000
AcDbSavedByObjectVersion
1070
     0
  0
VISUALSTYLE
  5
19D
102
{ACAD_XDICTIONARY
360
23E
102
}
102
{ACAD_REACTORS
330
186
102
}
330
186
100
AcDbVisualStyle
  2
OverhangOff
 70
    21
 71
     2
 72
     2
 73
     0
 90
        0
 40
-0.6
 41
-30.0
 62
     5
 63
     7
 74
     1
 91
        4
 64
     7
 65
   257
 75
     1
175
     1
 42
1.0
 92
        9
 66
     7
 43
1.0
 76
     1
 77
     6
 78
     2
 67
     7
 79
     5
170
     0
171
     0
290
     0
174
     0
 93
        1
 44
0.0
173
     0
291
     1
 45
0.0
1001
ACAD
1000
AcDbSavedByObjectVersion
1070
     0
  0
VISUALSTYLE
  5
190
102
{ACAD_XDICTIONARY
360
224
102
}
102
{ACAD_REACTORS
330
186
102
}
330
186
100
AcDbVisualStyle
  2
Realistic
 70
     8
 71
     2
 72
     3
 73
     0
 90
        2
 40
-0.6
 41
30.0
 62
     5
 63
     7
 74
     0
 91
        0
 64
     7
 65
   257
 75
     1
175
     1
 42
1.0
 92
        8
 66
   257
 43
1.0
 76
     1
 77
     6
 78
     2
 67
     7
 79
     3
170
     0
171
     0
290
     0
174
     0
 93
       13
 44
0.0
173
     0
291
     0
 45
0.0
1001
ACAD
1000
AcDbSavedByObjectVersion
1070
     0
  0
VISUALSTYLE
  5
19B
102
{ACAD_XDICTIONARY
360
23A
102
}
102
{ACAD_REACTORS
330
186
102
}
330
186
100
AcDbVisualStyle
  2
Shaded
 70
    27
 71
     2
 72
     2
 73
     1
 90
        2
 40
-0.6
 41
30.0
 62
     5
 63
     7
 74
     0
 91
        4
 64
     7
 65
   257
 75
     1
175
     1
 42
1.0
 92
        8
 66
   257
 43
1.0
 76
     1
 77
     6
 78
     2
 67
     8
 79
     3
170
     0
171
     0
290
     0
174
     0
 93
        5
 44
0.0
173
     0
291
     0
 45
0.0
1001
ACAD
1000
AcDbSavedByObjectVersion
1070
     0
  0
VISUALSTYLE
  5
19A
102
{ACAD_XDICTIONARY
360
238
102
}
102
{ACAD_REACTORS
330
186
102
}
330
186
100
AcDbVisualStyle
  2
Shaded with edges
 70
    26
 71
     2
 72
     2
 73
     1
 90
        2
 40
-0.6
 41
30.0
 62
     5
 63
     7
 74
     1
 91
       10
 64
     7
 65
   257
 75
     2
175
     1
 42
1.0
 92
        8
 66
   257
 43
1.0
 76
     1
 77
     6
 78
     2
 67
     7
 79
     3
170
     0
171
     0
290
     0
174
     0
 93
        5
 44
0.0
173
     0
291
     0
 45
0.0
1001
ACAD
1000
AcDbSavedByObjectVersion
1070
     0
  0
VISUALSTYLE
  5
197
102
{ACAD_XDICTIONARY
360
232
102
}
102
{ACAD_REACTORS
330
186
102
}
330
186
100
AcDbVisualStyle
  2
Shades of Gray
 70
    23
 71
     2
 72
     2
 73
     3
 90
        0
 40
-0.6
 41
-30.0
 62
     5
 63
     7
 74
     2
 91
        2
 64
     7
 65
     7
 75
     1
175
     1
 42
40.0
 92
        8
 66
     7
 43
1.0
 76
     1
 77
     6
 78
     2
 67
     7
 79
     3
170
     0
171
     0
290
     0
174
     0
 93
        1
 44
0.0
173
     0
291
     0
 45
0.0
1001
ACAD
1000
AcDbSavedByObjectVersion
1070
     0
  0
VISUALSTYLE
  5
198
102
{ACAD_XDICTIONARY
360
234
102
}
102
{ACAD_REACTORS
330
186
102
}
330
186
100
AcDbVisualStyle
  2
Sketchy
 70
    24
 71
     1
 72
     2
 73
     2
 90
        0
 40
-0.6
 41
-30.0
 62
     5
 63
     7
 74
     2
 91
        2
 64
     7
 65
     7
 75
     1
175
     1
 42
40.0
 92
       11
 66
     7
 43
1.0
 76
     1
 77
     6
 78
     2
 67
     7
 79
     6
170
     0
171
     0
290
     0
174
     0
 93
        1
 44
0.0
173
     0
291
     0
 45
0.0
1001
ACAD
1000
AcDbSavedByObjectVersion
1070
     0
  0
VISUALSTYLE
  5
193
102
{ACAD_XDICTIONARY
360
22A
102
}
102
{ACAD_REACTORS
330
186
102
}
330
186
100
AcDbVisualStyle
  2
Thicken
 70
    13
 71
     2
 72
     2
 73
     0
 90
        0
 40
-0.6
 41
-30.0
 62
     5
 63
     7
 74
     1
 91
        4
 64
     7
 65
   257
 75
     1
175
     1
 42
1.0
 92
       12
 66
     7
 43
1.0
 76
     1
 77
     6
 78
     2
 67
     7
 79
     5
170
     0
171
     0
290
     0
174
     0
 93
        1
 44
0.0
173
     0
291
     1
 45
0.0
1001
ACAD
1000
AcDbSavedByObjectVersion
1070
     0
  0
VISUALSTYLE
  5
18D
102
{ACAD_XDICTIONARY
360
21E
102
}
102
{ACAD_REACTORS
330
186
102
}
330
186
100
AcDbVisualStyle
  2
Wireframe
 70
     5
 71
     0
 72
     2
 73
     0
 90
        0
 40
-0.6
 41
-30.0
 62
     5
 63
     7
 74
     1
 91
        4
 64
     7
 65
   257
 75
     1
175
     1
 42
1.0
 92
        0
 66
   257
 43
1.0
 76
     1
 77
     6
 78
     2
 67
     7
 79
     3
170
     0
171
     0
290
     0
174
     0
 93
        1
 44
0.0
173
     0
291
     0
 45
0.0
1001
ACAD
1000
AcDbSavedByObjectVersion
1070
     0
  0
VISUALSTYLE
  5
199
102
{ACAD_XDICTIONARY
360
236
102
}
102
{ACAD_REACTORS
330
186
102
}
330
186
100
AcDbVisualStyle
  2
X-Ray
 70
    25
 71
     2
 72
     2
 73
     1
 90
        1
 40
0.5
 41
-30.0
 62
     5
 63
     7
 74
     1
 91
        0
 64
     7
 65
   257
 75
     1
175
     1
 42
1.0
 92
        8
 66
     7
 43
1.0
 76
     1
 77
     6
 78
     2
 67
     7
 79
     3
170
     0
171
     0
290
     0
174
     0
 93
       13
 44
0.0
173
     0
291
     0
 45
0.0
1001
ACAD
1000
AcDbSavedByObjectVersion
1070
     0
  0
DICTIONARYVAR
  5
206
102
{ACAD_REACTORS
330
203
102
}
330
203
100
DictionaryVariables
280
     0
  1
1:1
  0
DICTIONARYVAR
  5
205
102
{ACAD_REACTORS
330
203
102
}
330
203
100
DictionaryVariables
280
     0
  1
STANDARD
  0
DICTIONARYVAR
  5
204
102
{ACAD_REACTORS
330
203
102
}
330
203
100
DictionaryVariables
280
     0
  1
STANDARD
  0
DICTIONARYVAR
  5
209
102
{ACAD_REACTORS
330
203
102
}
330
203
100
DictionaryVariables
280
     0
  1
1
  0
DICTIONARYVAR
  5
208
102
{ACAD_REACTORS
330
203
102
}
330
203
100
DictionaryVariables
280
     0
  1
0
  0
DICTIONARYVAR
  5
207
102
{ACAD_REACTORS
330
203
102
}
330
203
100
DictionaryVariables
280
     0
  1
127
  0
DICTIONARYVAR
  5
20A
102
{ACAD_REACTORS
330
203
102
}
330
203
100
DictionaryVariables
280
     0
  1
2
  0
DICTIONARY
  5
244
330
1B9
100
AcDbDictionary
280
     1
281
     1
  3
ACAD_XREC_ROUNDTRIP
360
245
  0
DICTIONARY
  5
246
330
1BA
100
AcDbDictionary
280
     1
281
     1
  3
ACAD_XREC_ROUNDTRIP
360
247
  0
DICTIONARY
  5
177
330
176
100
AcDbDictionary
280
     1
281
     1
  3
ACAD_XREC_ROUNDTRIP
360
210
  3
BUMPTILE
360
179
  3
DIFFUSETILE
360
178
  3
OPACITYTILE
360
17C
  3
REFLECTIONTILE
360
17B
  3
REFRACTIONTILE
360
17D
  3
SPECULARTILE
360
17A
  0
DICTIONARY
  5
16F
330
16E
100
AcDbDictionary
280
     1
281
     1
  3
ACAD_XREC_ROUNDTRIP
360
20F
  3
BUMPTILE
360
171
  3
DIFFUSETILE
360
170
  3
OPACITYTILE
360
174
  3
REFLECTIONTILE
360
173
  3
REFRACTIONTILE
360
175
  3
SPECULARTILE
360
172
  0
DICTIONARY
  5
17F
330
17E
100
AcDbDictionary
280
     1
281
     1
  3
ACAD_XREC_ROUNDTRIP
360
211
  3
BUMPTILE
360
181
  3
DIFFUSETILE
360
180
  3
OPACITYTILE
360
184
  3
REFLECTIONTILE
360
183
  3
REFRACTIONTILE
360
185
  3
SPECULARTILE
360
182
  0
DICTIONARY
  5
20B
330
1A1
100
AcDbDictionary
280
     1
281
     1
  3
ACAD_ROUNDTRIP_2008_TABLESTYLE_CELLSTYLEMAP
360
20C
  3
ACAD_XREC_ROUNDTRIP
360
242
  0
DICTIONARY
  5
21C
330
18C
100
AcDbDictionary
280
     1
281
     1
  3
ACAD_XREC_ROUNDTRIP
360
21D
  0
DICTIONARY
  5
21A
330
18B
100
AcDbDictionary
280
     1
281
     1
  3
ACAD_XREC_ROUNDTRIP
360
21B
  0
DICTIONARY
  5
228
330
192
100
AcDbDictionary
280
     1
281
     1
  3
ACAD_XREC_ROUNDTRIP
360
229
  0
DICTIONARY
  5
230
330
196
100
AcDbDictionary
280
     1
281
     1
  3
ACAD_XREC_ROUNDTRIP
360
231
  0
DICTIONARY
  5
222
330
18F
100
AcDbDictionary
280
     1
281
     1
  3
ACAD_XREC_ROUNDTRIP
360
223
  0
DICTIONARY
  5
226
330
191
100
AcDbDictionary
280
     1
281
     1
  3
ACAD_XREC_ROUNDTRIP
360
227
  0
DICTIONARY
  5
240
330
19E
100
AcDbDictionary
280
     1
281
     1
  3
ACAD_XREC_ROUNDTRIP
360
241
  0
DICTIONARY
  5
22E
330
195
100
AcDbDictionary
280
     1
281
     1
  3
ACAD_XREC_ROUNDTRIP
360
22F
  0
DICTIONARY
  5
212
330
187
100
AcDbDictionary
280
     1
281
     1
  3
ACAD_XREC_ROUNDTRIP
360
213
  0
DICTIONARY
  5
214
330
188
100
AcDbDictionary
280
     1
281
     1
  3
ACAD_XREC_ROUNDTRIP
360
215
  0
DICTIONARY
  5
216
330
189
100
AcDbDictionary
280
     1
281
     1
  3
ACAD_XREC_ROUNDTRIP
360
217
  0
DICTIONARY
  5
218
330
18A
100
AcDbDictionary
280
     1
281
     1
  3
ACAD_XREC_ROUNDTRIP
360
219
  0
DICTIONARY
  5
220
330
18E
100
AcDbDictionary
280
     1
281
     1
  3
ACAD_XREC_ROUNDTRIP
360
221
  0
DICTIONARY
  5
23C
330
19C
100
AcDbDictionary
280
     1
281
     1
  3
ACAD_XREC_ROUNDTRIP
360
23D
  0
DICTIONARY
  5
22C
330
194
100
AcDbDictionary
280
     1
281
     1
  3
ACAD_XREC_ROUNDTRIP
360
22D
  0
DICTIONARY
  5
23E
330
19D
100
AcDbDictionary
280
     1
281
     1
  3
ACAD_XREC_ROUNDTRIP
360
23F
  0
DICTIONARY
  5
224
330
190
100
AcDbDictionary
280
     1
281
     1
  3
ACAD_XREC_ROUNDTRIP
360
225
  0
DICTIONARY
  5
23A
330
19B
100
AcDbDictionary
280
     1
281
     1
  3
ACAD_XREC_ROUNDTRIP
360
23B
  0
DICTIONARY
  5
238
330
19A
100
AcDbDictionary
280
     1
281
     1
  3
ACAD_XREC_ROUNDTRIP
360
239
  0
DICTIONARY
  5
232
330
197
100
AcDbDictionary
280
     1
281
     1
  3
ACAD_XREC_ROUNDTRIP
360
233
  0
DICTIONARY
  5
234
330
198
100
AcDbDictionary
280
     1
281
     1
  3
ACAD_XREC_ROUNDTRIP
360
235
  0
DICTIONARY
  5
22A
330
193
100
AcDbDictionary
280
     1
281
     1
  3
ACAD_XREC_ROUNDTRIP
360
22B
  0
DICTIONARY
  5
21E
330
18D
100
AcDbDictionary
280
     1
281
     1
  3
ACAD_XREC_ROUNDTRIP
360
21F
  0
DICTIONARY
  5
236
330
199
100
AcDbDictionary
280
     1
281
     1
  3
ACAD_XREC_ROUNDTRIP
360
237
  0
XRECORD
  5
245
102
{ACAD_REACTORS
330
244
102
}
330
244
100
AcDbXrecord
280
     1
102
SHADEPLOT
 70
     0
102
SHADEPLOTRESLEVEL
 70
     2
102
SHADEPLOTCUSTOMDPI
 70
   300
  0
XRECORD
  5
247
102
{ACAD_REACTORS
330
246
102
}
330
246
100
AcDbXrecord
280
     1
102
SHADEPLOT
 70
     0
102
SHADEPLOTRESLEVEL
 70
     2
102
SHADEPLOTCUSTOMDPI
 70
   300
  0
XRECORD
  5
210
102
{ACAD_REACTORS
330
177
102
}
330
177
100
AcDbXrecord
280
     1
102
MATERIAL
148
0.0
149
0.0
149
0.0
 93
        0
 94
      127
282
     0
 72
     0
 77
     0
171
     0
175
     0
179
     0
273
     0
  0
XRECORD
  5
179
102
{ACAD_REACTORS
330
177
102
}
330
177
100
AcDbXrecord
280
     1
270
     1
271
     1
  0
XRECORD
  5
178
102
{ACAD_REACTORS
330
177
102
}
330
177
100
AcDbXrecord
280
     1
270
     1
271
     1
  0
XRECORD
  5
17C
102
{ACAD_REACTORS
330
177
102
}
330
177
100
AcDbXrecord
280
     1
270
     1
271
     1
  0
XRECORD
  5
17B
102
{ACAD_REACTORS
330
177
102
}
330
177
100
AcDbXrecord
280
     1
270
     1
271
     1
  0
XRECORD
  5
17D
102
{ACAD_REACTORS
330
177
102
}
330
177
100
AcDbXrecord
280
     1
270
     1
271
     1
  0
XRECORD
  5
17A
102
{ACAD_REACTORS
330
177
102
}
330
177
100
AcDbXrecord
280
     1
270
     1
271
     1
  0
XRECORD
  5
20F
102
{ACAD_REACTORS
330
16F
102
}
330
16F
100
AcDbXrecord
280
     1
102
MATERIAL
148
0.0
149
0.0
149
0.0
 93
        0
 94
      127
282
     0
 72
     0
 77
     0
171
     0
175
     0
179
     0
273
     0
  0
XRECORD
  5
171
102
{ACAD_REACTORS
330
16F
102
}
330
16F
100
AcDbXrecord
280
     1
270
     1
271
     1
  0
XRECORD
  5
170
102
{ACAD_REACTORS
330
16F
102
}
330
16F
100
AcDbXrecord
280
     1
270
     1
271
     1
  0
XRECORD
  5
174
102
{ACAD_REACTORS
330
16F
102
}
330
16F
100
AcDbXrecord
280
     1
270
     1
271
     1
  0
XRECORD
  5
173
102
{ACAD_REACTORS
330
16F
102
}
330
16F
100
AcDbXrecord
280
     1
270
     1
271
     1
  0
XRECORD
  5
175
102
{ACAD_REACTORS
330
16F
102
}
330
16F
100
AcDbXrecord
280
     1
270
     1
271
     1
  0
XRECORD
  5
172
102
{ACAD_REACTORS
330
16F
102
}
330
16F
100
AcDbXrecord
280
     1
270
     1
271
     1
  0
XRECORD
  5
211
102
{ACAD_REACTORS
330
17F
102
}
330
17F
100
AcDbXrecord
280
     1
102
MATERIAL
148
0.0
149
0.0
149
0.0
 93
        0
 94
      127
282
     0
 72
     0
 77
     0
171
     0
175
     0
179
     0
273
     0
  0
XRECORD
  5
181
102
{ACAD_REACTORS
330
17F
102
}
330
17F
100
AcDbXrecord
280
     1
270
     1
271
     1
  0
XRECORD
  5
180
102
{ACAD_REACTORS
330
17F
102
}
330
17F
100
AcDbXrecord
280
     1
270
     1
271
     1
  0
XRECORD
  5
184
102
{ACAD_REACTORS
330
17F
102
}
330
17F
100
AcDbXrecord
280
     1
270
     1
271
     1
  0
XRECORD
  5
183
102
{ACAD_REACTORS
330
17F
102
}
330
17F
100
AcDbXrecord
280
     1
270
     1
271
     1
  0
XRECORD
  5
185
102
{ACAD_REACTORS
330
17F
102
}
330
17F
100
AcDbXrecord
280
     1
270
     1
271
     1
  0
XRECORD
  5
182
102
{ACAD_REACTORS
330
17F
102
}
330
17F
100
AcDbXrecord
280
     1
270
     1
271
     1
  0
CELLSTYLEMAP
  5
20C
102
{ACAD_REACTORS
330
20B
102
}
330
20B
100
AcDbCellStyleMap
 90
        3
300
CELLSTYLE
  1
TABLEFORMAT_BEGIN
 90
        5
170
     1
 91
        0
 92
    32768
 62
   257
 93
        1
300
CONTENTFORMAT
  1
CONTENTFORMAT_BEGIN
 90
        0
 91
        0
 92
      512
 93
        0
300

 40
0.0
140
1.0
 94
        5
 62
     0
340
2D
144
6.0
309
CONTENTFORMAT_END
171
     1
301
MARGIN
  1
CELLMARGIN_BEGIN
 40
1.5
 40
1.5
 40
1.5
 40
1.5
 40
4.5
 40
4.5
309
CELLMARGIN_END
 94
        6
 95
        1
302
GRIDFORMAT
  1
GRIDFORMAT_BEGIN
 90
        0
 91
        1
 62
     0
 92
       -2
340
0
 93
        0
 40
1.125
309
GRIDFORMAT_END
 95
        2
302
GRIDFORMAT
  1
GRIDFORMAT_BEGIN
 90
        0
 91
        1
 62
     0
 92
       -2
340
0
 93
        0
 40
1.125
309
GRIDFORMAT_END
 95
        4
302
GRIDFORMAT
  1
GRIDFORMAT_BEGIN
 90
        0
 91
        1
 62
     0
 92
       -2
340
0
 93
        0
 40
1.125
309
GRIDFORMAT_END
 95
        8
302
GRIDFORMAT
  1
GRIDFORMAT_BEGIN
 90
        0
 91
        1
 62
     0
 92
       -2
340
0
 93
        0
 40
1.125
309
GRIDFORMAT_END
 95
       16
302
GRIDFORMAT
  1
GRIDFORMAT_BEGIN
 90
        0
 91
        1
 62
     0
 92
       -2
340
0
 93
        0
 40
1.125
309
GRIDFORMAT_END
 95
       32
302
GRIDFORMAT
  1
GRIDFORMAT_BEGIN
 90
        0
 91
        1
 62
     0
 92
       -2
340
0
 93
        0
 40
1.125
309
GRIDFORMAT_END
309
TABLEFORMAT_END
  1
CELLSTYLE_BEGIN
 90
        1
 91
        1
300
_TITLE
309
CELLSTYLE_END
300
CELLSTYLE
  1
TABLEFORMAT_BEGIN
 90
        5
170
     1
 91
        0
 92
        0
 62
   257
 93
        1
300
CONTENTFORMAT
  1
CONTENTFORMAT_BEGIN
 90
        0
 91
        0
 92
      512
 93
        0
300

 40
0.0
140
1.0
 94
        5
 62
     0
340
2D
144
4.5
309
CONTENTFORMAT_END
171
     1
301
MARGIN
  1
CELLMARGIN_BEGIN
 40
1.5
 40
1.5
 40
1.5
 40
1.5
 40
4.5
 40
4.5
309
CELLMARGIN_END
 94
        6
 95
        1
302
GRIDFORMAT
  1
GRIDFORMAT_BEGIN
 90
        0
 91
        1
 62
     0
 92
       -2
340
0
 93
        0
 40
1.125
309
GRIDFORMAT_END
 95
        2
302
GRIDFORMAT
  1
GRIDFORMAT_BEGIN
 90
        0
 91
        1
 62
     0
 92
       -2
340
0
 93
        0
 40
1.125
309
GRIDFORMAT_END
 95
        4
302
GRIDFORMAT
  1
GRIDFORMAT_BEGIN
 90
        0
 91
        1
 62
     0
 92
       -2
340
0
 93
        0
 40
1.125
309
GRIDFORMAT_END
 95
        8
302
GRIDFORMAT
  1
GRIDFORMAT_BEGIN
 90
        0
 91
        1
 62
     0
 92
       -2
340
0
 93
        0
 40
1.125
309
GRIDFORMAT_END
 95
       16
302
GRIDFORMAT
  1
GRIDFORMAT_BEGIN
 90
        0
 91
        1
 62
     0
 92
       -2
340
0
 93
        0
 40
1.125
309
GRIDFORMAT_END
 95
       32
302
GRIDFORMAT
  1
GRIDFORMAT_BEGIN
 90
        0
 91
        1
 62
     0
 92
       -2
340
0
 93
        0
 40
1.125
309
GRIDFORMAT_END
309
TABLEFORMAT_END
  1
CELLSTYLE_BEGIN
 90
        2
 91
        1
300
_HEADER
309
CELLSTYLE_END
300
CELLSTYLE
  1
TABLEFORMAT_BEGIN
 90
        5
170
     1
 91
        0
 92
        0
 62
   257
 93
        1
300
CONTENTFORMAT
  1
CONTENTFORMAT_BEGIN
 90
        0
 91
        0
 92
      512
 93
        0
300

 40
0.0
140
1.0
 94
        2
 62
     0
340
2D
144
4.5
309
CONTENTFORMAT_END
171
     1
301
MARGIN
  1
CELLMARGIN_BEGIN
 40
1.5
 40
1.5
 40
1.5
 40
1.5
 40
4.5
 40
4.5
309
CELLMARGIN_END
 94
        6
 95
        1
302
GRIDFORMAT
  1
GRIDFORMAT_BEGIN
 90
        0
 91
        1
 62
     0
 92
       -2
340
0
 93
        0
 40
1.125
309
GRIDFORMAT_END
 95
        2
302
GRIDFORMAT
  1
GRIDFORMAT_BEGIN
 90
        0
 91
        1
 62
     0
 92
       -2
340
0
 93
        0
 40
1.125
309
GRIDFORMAT_END
 95
        4
302
GRIDFORMAT
  1
GRIDFORMAT_BEGIN
 90
        0
 91
        1
 62
     0
 92
       -2
340
0
 93
        0
 40
1.125
309
GRIDFORMAT_END
 95
        8
302
GRIDFORMAT
  1
GRIDFORMAT_BEGIN
 90
        0
 91
        1
 62
     0
 92
       -2
340
0
 93
        0
 40
1.125
309
GRIDFORMAT_END
 95
       16
302
GRIDFORMAT
  1
GRIDFORMAT_BEGIN
 90
        0
 91
        1
 62
     0
 92
       -2
340
0
 93
        0
 40
1.125
309
GRIDFORMAT_END
 95
       32
302
GRIDFORMAT
  1
GRIDFORMAT_BEGIN
 90
        0
 91
        1
 62
     0
 92
       -2
340
0
 93
        0
 40
1.125
309
GRIDFORMAT_END
309
TABLEFORMAT_END
  1
CELLSTYLE_BEGIN
 90
        3
 91
        2
300
_DATA
309
CELLSTYLE_END
  0
XRECORD
  5
242
102
{ACAD_REACTORS
330
20B
102
}
330
20B
100
AcDbXrecord
280
     1
102
ACAD_ROUNDTRIP_PRE2007_TABLESTYLE
 90
      512
 91
        0
  1

 92
      512
 93
        0
  2

 94
      512
 95
        0
  3

  0
XRECORD
  5
21D
102
{ACAD_REACTORS
330
21C
102
}
330
21C
100
AcDbXrecord
280
     1
102
RTVSPropertyOp0
 70
     1
102
RTVSPropertyOp1
 70
     1
102
RTVSPropertyOp2
 70
     1
102
RTVSPropertyOp3
 70
     1
102
RTVSPropertyOp4
 70
     1
102
RTVSPropertyOp5
 70
     1
102
RTVSPropertyOp6
 70
     1
102
RTVSPropertyOp7
 70
     1
102
RTVSPropertyOp8
 70
     1
102
RTVSPropertyOp9
 70
     1
102
RTVSPropertyOp10
 70
     1
102
RTVSPropertyOp11
 70
     1
102
RTVSPropertyOp12
 70
     1
102
RTVSPropertyOp13
 70
     1
102
RTVSPropertyOp14
 70
     1
102
RTVSPropertyOp15
 70
     1
102
RTVSPropertyOp16
 70
     1
102
RTVSPropertyOp17
 70
     1
102
RTVSPropertyOp18
 70
     1
102
RTVSPropertyOp19
 70
     1
102
RTVSPropertyOp20
 70
     1
102
RTVSPropertyOp21
 70
     1
102
RTVSPropertyOp22
 70
     1
102
RTVSPropertyOp23
 70
     1
102
RTVSPropertyOp24
 70
     1
102
RTVSPropertyOp25
 70
     1
102
RTVSPropertyOp26
 70
     1
102
RTVSPropertyOp27
 70
     1
102
RTVSPropertyOp28
 70
     1
102
RTVSPropertyOp29
 70
     1
102
RTVSPropertyOp30
 70
     1
102
RTVSPropertyOp31
 70
     1
102
RTVSPropertyOp32
 70
     1
  0
XRECORD
  5
21B
102
{ACAD_REACTORS
330
21A
102
}
330
21A
100
AcDbXrecord
280
     1
102
RTVSPropertyOp0
 70
     1
102
RTVSPropertyOp1
 70
     1
102
RTVSPropertyOp2
 70
     1
102
RTVSPropertyOp3
 70
     1
102
RTVSPropertyOp4
 70
     1
102
RTVSPropertyOp5
 70
     1
102
RTVSPropertyOp6
 70
     1
102
RTVSPropertyOp7
 70
     1
102
RTVSPropertyOp8
 70
     1
102
RTVSPropertyOp9
 70
     1
102
RTVSPropertyOp10
 70
     1
102
RTVSPropertyOp11
 70
     1
102
RTVSPropertyOp12
 70
     1
102
RTVSPropertyOp13
 70
     1
102
RTVSPropertyOp14
 70
     1
102
RTVSPropertyOp15
 70
     1
102
RTVSPropertyOp16
 70
     1
102
RTVSPropertyOp17
 70
     1
102
RTVSPropertyOp18
 70
     1
102
RTVSPropertyOp19
 70
     1
102
RTVSPropertyOp20
 70
     1
102
RTVSPropertyOp21
 70
     1
102
RTVSPropertyOp22
 70
     1
102
RTVSPropertyOp23
 70
     1
102
RTVSPropertyOp24
 70
     1
102
RTVSPropertyOp25
 70
     1
102
RTVSPropertyOp26
 70
     1
102
RTVSPropertyOp27
 70
     1
102
RTVSPropertyOp28
 70
     1
102
RTVSPropertyOp29
 70
     1
102
RTVSPropertyOp30
 70
     1
102
RTVSPropertyOp31
 70
     1
102
RTVSPropertyOp32
 70
     1
  0
XRECORD
  5
229
102
{ACAD_REACTORS
330
228
102
}
330
228
100
AcDbXrecord
280
     1
102
RTVSPropertyOp0
 70
     1
102
RTVSPropertyOp1
 70
     1
102
RTVSPropertyOp2
 70
     1
102
RTVSPropertyOp3
 70
     1
102
RTVSPropertyOp4
 70
     1
102
RTVSPropertyOp5
 70
     1
102
RTVSPropertyOp6
 70
     1
102
RTVSPropertyOp7
 70
     1
102
RTVSPropertyOp8
 70
     1
102
RTVSPropertyOp9
 70
     1
102
RTVSPropertyOp10
 70
     1
102
RTVSPropertyOp11
 70
     1
102
RTVSPropertyOp12
 70
     1
102
RTVSPropertyOp13
 70
     1
102
RTVSPropertyOp14
 70
     1
102
RTVSPropertyOp15
 70
     1
102
RTVSPropertyOp16
 70
     1
102
RTVSPropertyOp17
 70
     1
102
RTVSPropertyOp18
 70
     1
102
RTVSPropertyOp19
 70
     1
102
RTVSPropertyOp20
 70
     1
102
RTVSPropertyOp21
 70
     1
102
RTVSPropertyOp22
 70
     1
102
RTVSPropertyOp23
 70
     1
102
RTVSPropertyOp24
 70
     1
102
RTVSPropertyOp25
 70
     1
102
RTVSPropertyOp26
 70
     1
102
RTVSPropertyOp27
 70
     1
102
RTVSPropertyOp28
 70
     1
102
RTVSPropertyOp29
 70
     1
102
RTVSPropertyOp30
 70
     1
102
RTVSPropertyOp31
 70
     1
102
RTVSPropertyOp32
 70
     1
  0
XRECORD
  5
231
102
{ACAD_REACTORS
330
230
102
}
330
230
100
AcDbXrecord
280
     1
102
RTVSPropertyOp0
 70
     1
102
RTVSPropertyOp1
 70
     1
102
RTVSPropertyOp2
 70
     1
102
RTVSPropertyOp3
 70
     1
102
RTVSPropertyOp4
 70
     1
102
RTVSPropertyOp5
 70
     1
102
RTVSPropertyOp6
 70
     1
102
RTVSPropertyOp7
 70
     1
102
RTVSPropertyOp8
 70
     1
102
RTVSPropertyOp9
 70
     1
102
RTVSPropertyOp10
 70
     1
102
RTVSPropertyOp11
 70
     1
102
RTVSPropertyOp12
 70
     1
102
RTVSPropertyOp13
 70
     1
102
RTVSPropertyOp14
 70
     1
102
RTVSPropertyOp15
 70
     1
102
RTVSPropertyOp16
 70
     1
102
RTVSPropertyOp17
 70
     1
102
RTVSPropertyOp18
 70
     1
102
RTVSPropertyOp19
 70
     1
102
RTVSPropertyOp20
 70
     1
102
RTVSPropertyOp21
 70
     1
102
RTVSPropertyOp22
 70
     1
102
RTVSPropertyOp23
 70
     1
102
RTVSPropertyOp24
 70
     1
102
RTVSPropertyOp25
 70
     1
102
RTVSPropertyOp26
 70
     1
102
RTVSPropertyOp27
 70
     1
102
RTVSPropertyOp28
 70
     1
102
RTVSPropertyOp29
 70
     1
102
RTVSPropertyOp30
 70
     1
102
RTVSPropertyOp31
 70
     1
102
RTVSPropertyOp32
 70
     1
  0
XRECORD
  5
223
102
{ACAD_REACTORS
330
222
102
}
330
222
100
AcDbXrecord
280
     1
102
RTVSPropertyOp0
 70
     1
102
RTVSPropertyOp1
 70
     1
102
RTVSPropertyOp2
 70
     1
102
RTVSPropertyOp3
 70
     1
102
RTVSPropertyOp4
 70
     1
102
RTVSPropertyOp5
 70
     1
102
RTVSPropertyOp6
 70
     1
102
RTVSPropertyOp7
 70
     1
102
RTVSPropertyOp8
 70
     1
102
RTVSPropertyOp9
 70
     1
102
RTVSPropertyOp10
 70
     1
102
RTVSPropertyOp11
 70
     1
102
RTVSPropertyOp12
 70
     1
102
RTVSPropertyOp13
 70
     1
102
RTVSPropertyOp14
 70
     1
102
RTVSPropertyOp15
 70
     1
102
RTVSPropertyOp16
 70
     1
102
RTVSPropertyOp17
 70
     1
102
RTVSPropertyOp18
 70
     1
102
RTVSPropertyOp19
 70
     1
102
RTVSPropertyOp20
 70
     1
102
RTVSPropertyOp21
 70
     1
102
RTVSPropertyOp22
 70
     1
102
RTVSPropertyOp23
 70
     1
102
RTVSPropertyOp24
 70
     1
102
RTVSPropertyOp25
 70
     1
102
RTVSPropertyOp26
 70
     1
102
RTVSPropertyOp27
 70
     1
102
RTVSPropertyOp28
 70
     1
102
RTVSPropertyOp29
 70
     1
102
RTVSPropertyOp30
 70
     1
102
RTVSPropertyOp31
 70
     1
102
RTVSPropertyOp32
 70
     1
  0
XRECORD
  5
227
102
{ACAD_REACTORS
330
226
102
}
330
226
100
AcDbXrecord
280
     1
102
RTVSPropertyOp0
 70
     1
102
RTVSPropertyOp1
 70
     1
102
RTVSPropertyOp2
 70
     1
102
RTVSPropertyOp3
 70
     1
102
RTVSPropertyOp4
 70
     1
102
RTVSPropertyOp5
 70
     1
102
RTVSPropertyOp6
 70
     1
102
RTVSPropertyOp7
 70
     1
102
RTVSPropertyOp8
 70
     1
102
RTVSPropertyOp9
 70
     1
102
RTVSPropertyOp10
 70
     1
102
RTVSPropertyOp11
 70
     1
102
RTVSPropertyOp12
 70
     1
102
RTVSPropertyOp13
 70
     1
102
RTVSPropertyOp14
 70
     1
102
RTVSPropertyOp15
 70
     1
102
RTVSPropertyOp16
 70
     1
102
RTVSPropertyOp17
 70
     1
102
RTVSPropertyOp18
 70
     1
102
RTVSPropertyOp19
 70
     1
102
RTVSPropertyOp20
 70
     1
102
RTVSPropertyOp21
 70
     1
102
RTVSPropertyOp22
 70
     1
102
RTVSPropertyOp23
 70
     1
102
RTVSPropertyOp24
 70
     1
102
RTVSPropertyOp25
 70
     1
102
RTVSPropertyOp26
 70
     1
102
RTVSPropertyOp27
 70
     1
102
RTVSPropertyOp28
 70
     1
102
RTVSPropertyOp29
 70
     1
102
RTVSPropertyOp30
 70
     1
102
RTVSPropertyOp31
 70
     1
102
RTVSPropertyOp32
 70
     1
  0
XRECORD
  5
241
102
{ACAD_REACTORS
330
240
102
}
330
240
100
AcDbXrecord
280
     1
102
RTVSPropertyOp0
 70
     0
102
RTVSPropertyOp1
 70
     0
102
RTVSPropertyOp2
 70
     0
102
RTVSPropertyOp3
 70
     0
102
RTVSPropertyOp4
 70
     0
102
RTVSPropertyOp5
 70
     0
102
RTVSPropertyOp6
 70
     0
102
RTVSPropertyOp7
 70
     0
102
RTVSPropertyOp8
 70
     0
102
RTVSPropertyOp9
 70
     0
102
RTVSPropertyOp10
 70
     0
102
RTVSPropertyOp11
 70
     0
102
RTVSPropertyOp12
 70
     0
102
RTVSPropertyOp13
 70
     0
102
RTVSPropertyOp14
 70
     2
102
RTVSPropertyOp15
 70
     0
102
RTVSPropertyOp16
 70
     0
102
RTVSPropertyOp17
 70
     0
102
RTVSPropertyOp18
 70
     0
102
RTVSPropertyOp19
 70
     0
102
RTVSPropertyOp20
 70
     0
102
RTVSPropertyOp21
 70
     0
102
RTVSPropertyOp22
 70
     0
102
RTVSPropertyOp23
 70
     0
102
RTVSPropertyOp24
 70
     0
102
RTVSPropertyOp25
 70
     0
102
RTVSPropertyOp26
 70
     0
102
RTVSPropertyOp27
 70
     0
102
RTVSPropertyOp28
 70
     0
102
RTVSPropertyOp29
 70
     0
102
RTVSPropertyOp30
 70
     0
102
RTVSPropertyOp31
 70
     0
102
RTVSPropertyOp32
 70
     0
  0
XRECORD
  5
22F
102
{ACAD_REACTORS
330
22E
102
}
330
22E
100
AcDbXrecord
280
     1
102
RTVSPropertyOp0
 70
     1
102
RTVSPropertyOp1
 70
     1
102
RTVSPropertyOp2
 70
     1
102
RTVSPropertyOp3
 70
     1
102
RTVSPropertyOp4
 70
     1
102
RTVSPropertyOp5
 70
     1
102
RTVSPropertyOp6
 70
     1
102
RTVSPropertyOp7
 70
     1
102
RTVSPropertyOp8
 70
     1
102
RTVSPropertyOp9
 70
     1
102
RTVSPropertyOp10
 70
     1
102
RTVSPropertyOp11
 70
     1
102
RTVSPropertyOp12
 70
     1
102
RTVSPropertyOp13
 70
     1
102
RTVSPropertyOp14
 70
     1
102
RTVSPropertyOp15
 70
     1
102
RTVSPropertyOp16
 70
     1
102
RTVSPropertyOp17
 70
     1
102
RTVSPropertyOp18
 70
     1
102
RTVSPropertyOp19
 70
     1
102
RTVSPropertyOp20
 70
     1
102
RTVSPropertyOp21
 70
     1
102
RTVSPropertyOp22
 70
     1
102
RTVSPropertyOp23
 70
     1
102
RTVSPropertyOp24
 70
     1
102
RTVSPropertyOp25
 70
     1
102
RTVSPropertyOp26
 70
     1
102
RTVSPropertyOp27
 70
     1
102
RTVSPropertyOp28
 70
     1
102
RTVSPropertyOp29
 70
     1
102
RTVSPropertyOp30
 70
     1
102
RTVSPropertyOp31
 70
     1
102
RTVSPropertyOp32
 70
     1
  0
XRECORD
  5
213
102
{ACAD_REACTORS
330
212
102
}
330
212
100
AcDbXrecord
280
     1
102
RTVSPropertyOp0
 70
     1
102
RTVSPropertyOp1
 70
     1
102
RTVSPropertyOp2
 70
     1
102
RTVSPropertyOp3
 70
     1
102
RTVSPropertyOp4
 70
     1
102
RTVSPropertyOp5
 70
     1
102
RTVSPropertyOp6
 70
     1
102
RTVSPropertyOp7
 70
     1
102
RTVSPropertyOp8
 70
     1
102
RTVSPropertyOp9
 70
     1
102
RTVSPropertyOp10
 70
     1
102
RTVSPropertyOp11
 70
     1
102
RTVSPropertyOp12
 70
     1
102
RTVSPropertyOp13
 70
     1
102
RTVSPropertyOp14
 70
     1
102
RTVSPropertyOp15
 70
     1
102
RTVSPropertyOp16
 70
     1
102
RTVSPropertyOp17
 70
     1
102
RTVSPropertyOp18
 70
     1
102
RTVSPropertyOp19
 70
     1
102
RTVSPropertyOp20
 70
     1
102
RTVSPropertyOp21
 70
     1
102
RTVSPropertyOp22
 70
     1
102
RTVSPropertyOp23
 70
     1
102
RTVSPropertyOp24
 70
     1
102
RTVSPropertyOp25
 70
     1
102
RTVSPropertyOp26
 70
     1
102
RTVSPropertyOp27
 70
     1
102
RTVSPropertyOp28
 70
     1
102
RTVSPropertyOp29
 70
     1
102
RTVSPropertyOp30
 70
     1
102
RTVSPropertyOp31
 70
     1
102
RTVSPropertyOp32
 70
     1
  0
XRECORD
  5
215
102
{ACAD_REACTORS
330
214
102
}
330
214
100
AcDbXrecord
280
     1
102
RTVSPropertyOp0
 70
     1
102
RTVSPropertyOp1
 70
     1
102
RTVSPropertyOp2
 70
     1
102
RTVSPropertyOp3
 70
     1
102
RTVSPropertyOp4
 70
     1
102
RTVSPropertyOp5
 70
     1
102
RTVSPropertyOp6
 70
     1
102
RTVSPropertyOp7
 70
     1
102
RTVSPropertyOp8
 70
     1
102
RTVSPropertyOp9
 70
     1
102
RTVSPropertyOp10
 70
     1
102
RTVSPropertyOp11
 70
     1
102
RTVSPropertyOp12
 70
     1
102
RTVSPropertyOp13
 70
     1
102
RTVSPropertyOp14
 70
     1
102
RTVSPropertyOp15
 70
     1
102
RTVSPropertyOp16
 70
     1
102
RTVSPropertyOp17
 70
     1
102
RTVSPropertyOp18
 70
     1
102
RTVSPropertyOp19
 70
     1
102
RTVSPropertyOp20
 70
     1
102
RTVSPropertyOp21
 70
     1
102
RTVSPropertyOp22
 70
     1
102
RTVSPropertyOp23
 70
     1
102
RTVSPropertyOp24
 70
     1
102
RTVSPropertyOp25
 70
     1
102
RTVSPropertyOp26
 70
     1
102
RTVSPropertyOp27
 70
     1
102
RTVSPropertyOp28
 70
     1
102
RTVSPropertyOp29
 70
     1
102
RTVSPropertyOp30
 70
     1
102
RTVSPropertyOp31
 70
     1
102
RTVSPropertyOp32
 70
     1
  0
XRECORD
  5
217
102
{ACAD_REACTORS
330
216
102
}
330
216
100
AcDbXrecord
280
     1
102
RTVSPropertyOp0
 70
     1
102
RTVSPropertyOp1
 70
     1
102
RTVSPropertyOp2
 70
     1
102
RTVSPropertyOp3
 70
     1
102
RTVSPropertyOp4
 70
     1
102
RTVSPropertyOp5
 70
     1
102
RTVSPropertyOp6
 70
     1
102
RTVSPropertyOp7
 70
     1
102
RTVSPropertyOp8
 70
     1
102
RTVSPropertyOp9
 70
     1
102
RTVSPropertyOp10
 70
     1
102
RTVSPropertyOp11
 70
     1
102
RTVSPropertyOp12
 70
     1
102
RTVSPropertyOp13
 70
     1
102
RTVSPropertyOp14
 70
     1
102
RTVSPropertyOp15
 70
     1
102
RTVSPropertyOp16
 70
     1
102
RTVSPropertyOp17
 70
     1
102
RTVSPropertyOp18
 70
     1
102
RTVSPropertyOp19
 70
     1
102
RTVSPropertyOp20
 70
     1
102
RTVSPropertyOp21
 70
     1
102
RTVSPropertyOp22
 70
     1
102
RTVSPropertyOp23
 70
     1
102
RTVSPropertyOp24
 70
     1
102
RTVSPropertyOp25
 70
     1
102
RTVSPropertyOp26
 70
     1
102
RTVSPropertyOp27
 70
     1
102
RTVSPropertyOp28
 70
     1
102
RTVSPropertyOp29
 70
     1
102
RTVSPropertyOp30
 70
     1
102
RTVSPropertyOp31
 70
     1
102
RTVSPropertyOp32
 70
     1
  0
XRECORD
  5
219
102
{ACAD_REACTORS
330
218
102
}
330
218
100
AcDbXrecord
280
     1
102
RTVSPropertyOp0
 70
     1
102
RTVSPropertyOp1
 70
     1
102
RTVSPropertyOp2
 70
     1
102
RTVSPropertyOp3
 70
     1
102
RTVSPropertyOp4
 70
     1
102
RTVSPropertyOp5
 70
     1
102
RTVSPropertyOp6
 70
     1
102
RTVSPropertyOp7
 70
     1
102
RTVSPropertyOp8
 70
     1
102
RTVSPropertyOp9
 70
     1
102
RTVSPropertyOp10
 70
     1
102
RTVSPropertyOp11
 70
     1
102
RTVSPropertyOp12
 70
     1
102
RTVSPropertyOp13
 70
     1
102
RTVSPropertyOp14
 70
     1
102
RTVSPropertyOp15
 70
     1
102
RTVSPropertyOp16
 70
     1
102
RTVSPropertyOp17
 70
     1
102
RTVSPropertyOp18
 70
     1
102
RTVSPropertyOp19
 70
     1
102
RTVSPropertyOp20
 70
     1
102
RTVSPropertyOp21
 70
     1
102
RTVSPropertyOp22
 70
     1
102
RTVSPropertyOp23
 70
     1
102
RTVSPropertyOp24
 70
     1
102
RTVSPropertyOp25
 70
     1
102
RTVSPropertyOp26
 70
     1
102
RTVSPropertyOp27
 70
     1
102
RTVSPropertyOp28
 70
     1
102
RTVSPropertyOp29
 70
     1
102
RTVSPropertyOp30
 70
     1
102
RTVSPropertyOp31
 70
     1
102
RTVSPropertyOp32
 70
     1
  0
XRECORD
  5
221
102
{ACAD_REACTORS
330
220
102
}
330
220
100
AcDbXrecord
280
     1
102
RTVSPropertyOp0
 70
     1
102
RTVSPropertyOp1
 70
     1
102
RTVSPropertyOp2
 70
     1
102
RTVSPropertyOp3
 70
     1
102
RTVSPropertyOp4
 70
     1
102
RTVSPropertyOp5
 70
     1
102
RTVSPropertyOp6
 70
     1
102
RTVSPropertyOp7
 70
     1
102
RTVSPropertyOp8
 70
     1
102
RTVSPropertyOp9
 70
     1
102
RTVSPropertyOp10
 70
     1
102
RTVSPropertyOp11
 70
     1
102
RTVSPropertyOp12
 70
     1
102
RTVSPropertyOp13
 70
     1
102
RTVSPropertyOp14
 70
     1
102
RTVSPropertyOp15
 70
     1
102
RTVSPropertyOp16
 70
     1
102
RTVSPropertyOp17
 70
     1
102
RTVSPropertyOp18
 70
     1
102
RTVSPropertyOp19
 70
     1
102
RTVSPropertyOp20
 70
     1
102
RTVSPropertyOp21
 70
     1
102
RTVSPropertyOp22
 70
     1
102
RTVSPropertyOp23
 70
     1
102
RTVSPropertyOp24
 70
     1
102
RTVSPropertyOp25
 70
     1
102
RTVSPropertyOp26
 70
     1
102
RTVSPropertyOp27
 70
     1
102
RTVSPropertyOp28
 70
     1
102
RTVSPropertyOp29
 70
     1
102
RTVSPropertyOp30
 70
     1
102
RTVSPropertyOp31
 70
     1
102
RTVSPropertyOp32
 70
     1
  0
XRECORD
  5
23D
102
{ACAD_REACTORS
330
23C
102
}
330
23C
100
AcDbXrecord
280
     1
102
RTVSPropertyOp0
 70
     0
102
RTVSPropertyOp1
 70
     0
102
RTVSPropertyOp2
 70
     0
102
RTVSPropertyOp3
 70
     0
102
RTVSPropertyOp4
 70
     0
102
RTVSPropertyOp5
 70
     0
102
RTVSPropertyOp6
 70
     0
102
RTVSPropertyOp7
 70
     0
102
RTVSPropertyOp8
 70
     0
102
RTVSPropertyOp9
 70
     0
102
RTVSPropertyOp10
 70
     0
102
RTVSPropertyOp11
 70
     0
102
RTVSPropertyOp12
 70
     0
102
RTVSPropertyOp13
 70
     0
102
RTVSPropertyOp14
 70
     2
102
RTVSPropertyOp15
 70
     0
102
RTVSPropertyOp16
 70
     0
102
RTVSPropertyOp17
 70
     0
102
RTVSPropertyOp18
 70
     0
102
RTVSPropertyOp19
 70
     0
102
RTVSPropertyOp20
 70
     0
102
RTVSPropertyOp21
 70
     0
102
RTVSPropertyOp22
 70
     0
102
RTVSPropertyOp23
 70
     0
102
RTVSPropertyOp24
 70
     0
102
RTVSPropertyOp25
 70
     0
102
RTVSPropertyOp26
 70
     0
102
RTVSPropertyOp27
 70
     0
102
RTVSPropertyOp28
 70
     0
102
RTVSPropertyOp29
 70
     0
102
RTVSPropertyOp30
 70
     0
102
RTVSPropertyOp31
 70
     0
102
RTVSPropertyOp32
 70
     0
  0
XRECORD
  5
22D
102
{ACAD_REACTORS
330
22C
102
}
330
22C
100
AcDbXrecord
280
     1
102
RTVSPropertyOp0
 70
     1
102
RTVSPropertyOp1
 70
     1
102
RTVSPropertyOp2
 70
     1
102
RTVSPropertyOp3
 70
     1
102
RTVSPropertyOp4
 70
     1
102
RTVSPropertyOp5
 70
     1
102
RTVSPropertyOp6
 70
     1
102
RTVSPropertyOp7
 70
     1
102
RTVSPropertyOp8
 70
     1
102
RTVSPropertyOp9
 70
     1
102
RTVSPropertyOp10
 70
     1
102
RTVSPropertyOp11
 70
     1
102
RTVSPropertyOp12
 70
     1
102
RTVSPropertyOp13
 70
     1
102
RTVSPropertyOp14
 70
     1
102
RTVSPropertyOp15
 70
     1
102
RTVSPropertyOp16
 70
     1
102
RTVSPropertyOp17
 70
     1
102
RTVSPropertyOp18
 70
     1
102
RTVSPropertyOp19
 70
     1
102
RTVSPropertyOp20
 70
     1
102
RTVSPropertyOp21
 70
     1
102
RTVSPropertyOp22
 70
     1
102
RTVSPropertyOp23
 70
     1
102
RTVSPropertyOp24
 70
     1
102
RTVSPropertyOp25
 70
     1
102
RTVSPropertyOp26
 70
     1
102
RTVSPropertyOp27
 70
     1
102
RTVSPropertyOp28
 70
     1
102
RTVSPropertyOp29
 70
     1
102
RTVSPropertyOp30
 70
     1
102
RTVSPropertyOp31
 70
     1
102
RTVSPropertyOp32
 70
     1
  0
XRECORD
  5
23F
102
{ACAD_REACTORS
330
23E
102
}
330
23E
100
AcDbXrecord
280
     1
102
RTVSPropertyOp0
 70
     0
102
RTVSPropertyOp1
 70
     0
102
RTVSPropertyOp2
 70
     0
102
RTVSPropertyOp3
 70
     0
102
RTVSPropertyOp4
 70
     0
102
RTVSPropertyOp5
 70
     0
102
RTVSPropertyOp6
 70
     0
102
RTVSPropertyOp7
 70
     0
102
RTVSPropertyOp8
 70
     0
102
RTVSPropertyOp9
 70
     0
102
RTVSPropertyOp10
 70
     0
102
RTVSPropertyOp11
 70
     0
102
RTVSPropertyOp12
 70
     0
102
RTVSPropertyOp13
 70
     0
102
RTVSPropertyOp14
 70
     2
102
RTVSPropertyOp15
 70
     0
102
RTVSPropertyOp16
 70
     0
102
RTVSPropertyOp17
 70
     0
102
RTVSPropertyOp18
 70
     0
102
RTVSPropertyOp19
 70
     0
102
RTVSPropertyOp20
 70
     0
102
RTVSPropertyOp21
 70
     0
102
RTVSPropertyOp22
 70
     0
102
RTVSPropertyOp23
 70
     0
102
RTVSPropertyOp24
 70
     0
102
RTVSPropertyOp25
 70
     0
102
RTVSPropertyOp26
 70
     0
102
RTVSPropertyOp27
 70
     0
102
RTVSPropertyOp28
 70
     0
102
RTVSPropertyOp29
 70
     0
102
RTVSPropertyOp30
 70
     0
102
RTVSPropertyOp31
 70
     0
102
RTVSPropertyOp32
 70
     0
  0
XRECORD
  5
225
102
{ACAD_REACTORS
330
224
102
}
330
224
100
AcDbXrecord
280
     1
102
RTVSPropertyOp0
 70
     1
102
RTVSPropertyOp1
 70
     1
102
RTVSPropertyOp2
 70
     1
102
RTVSPropertyOp3
 70
     1
102
RTVSPropertyOp4
 70
     1
102
RTVSPropertyOp5
 70
     1
102
RTVSPropertyOp6
 70
     1
102
RTVSPropertyOp7
 70
     1
102
RTVSPropertyOp8
 70
     1
102
RTVSPropertyOp9
 70
     1
102
RTVSPropertyOp10
 70
     1
102
RTVSPropertyOp11
 70
     1
102
RTVSPropertyOp12
 70
     1
102
RTVSPropertyOp13
 70
     1
102
RTVSPropertyOp14
 70
     1
102
RTVSPropertyOp15
 70
     1
102
RTVSPropertyOp16
 70
     1
102
RTVSPropertyOp17
 70
     1
102
RTVSPropertyOp18
 70
     1
102
RTVSPropertyOp19
 70
     1
102
RTVSPropertyOp20
 70
     1
102
RTVSPropertyOp21
 70
     1
102
RTVSPropertyOp22
 70
     1
102
RTVSPropertyOp23
 70
     1
102
RTVSPropertyOp24
 70
     1
102
RTVSPropertyOp25
 70
     1
102
RTVSPropertyOp26
 70
     1
102
RTVSPropertyOp27
 70
     1
102
RTVSPropertyOp28
 70
     1
102
RTVSPropertyOp29
 70
     1
102
RTVSPropertyOp30
 70
     1
102
RTVSPropertyOp31
 70
     1
102
RTVSPropertyOp32
 70
     1
  0
XRECORD
  5
23B
102
{ACAD_REACTORS
330
23A
102
}
330
23A
100
AcDbXrecord
280
     1
102
RTVSPropertyOp0
 70
     1
102
RTVSPropertyOp1
 70
     1
102
RTVSPropertyOp2
 70
     1
102
RTVSPropertyOp3
 70
     1
102
RTVSPropertyOp4
 70
     1
102
RTVSPropertyOp5
 70
     1
102
RTVSPropertyOp6
 70
     1
102
RTVSPropertyOp7
 70
     1
102
RTVSPropertyOp8
 70
     1
102
RTVSPropertyOp9
 70
     1
102
RTVSPropertyOp10
 70
     1
102
RTVSPropertyOp11
 70
     1
102
RTVSPropertyOp12
 70
     1
102
RTVSPropertyOp13
 70
     1
102
RTVSPropertyOp14
 70
     1
102
RTVSPropertyOp15
 70
     1
102
RTVSPropertyOp16
 70
     1
102
RTVSPropertyOp17
 70
     1
102
RTVSPropertyOp18
 70
     1
102
RTVSPropertyOp19
 70
     1
102
RTVSPropertyOp20
 70
     1
102
RTVSPropertyOp21
 70
     1
102
RTVSPropertyOp22
 70
     1
102
RTVSPropertyOp23
 70
     1
102
RTVSPropertyOp24
 70
     1
102
RTVSPropertyOp25
 70
     1
102
RTVSPropertyOp26
 70
     1
102
RTVSPropertyOp27
 70
     1
102
RTVSPropertyOp28
 70
     1
102
RTVSPropertyOp29
 70
     1
102
RTVSPropertyOp30
 70
     1
102
RTVSPropertyOp31
 70
     1
102
RTVSPropertyOp32
 70
     1
  0
XRECORD
  5
239
102
{ACAD_REACTORS
330
238
102
}
330
238
100
AcDbXrecord
280
     1
102
RTVSPropertyOp0
 70
     1
102
RTVSPropertyOp1
 70
     1
102
RTVSPropertyOp2
 70
     1
102
RTVSPropertyOp3
 70
     1
102
RTVSPropertyOp4
 70
     1
102
RTVSPropertyOp5
 70
     1
102
RTVSPropertyOp6
 70
     1
102
RTVSPropertyOp7
 70
     1
102
RTVSPropertyOp8
 70
     1
102
RTVSPropertyOp9
 70
     1
102
RTVSPropertyOp10
 70
     1
102
RTVSPropertyOp11
 70
     1
102
RTVSPropertyOp12
 70
     1
102
RTVSPropertyOp13
 70
     1
102
RTVSPropertyOp14
 70
     1
102
RTVSPropertyOp15
 70
     1
102
RTVSPropertyOp16
 70
     1
102
RTVSPropertyOp17
 70
     1
102
RTVSPropertyOp18
 70
     1
102
RTVSPropertyOp19
 70
     1
102
RTVSPropertyOp20
 70
     1
102
RTVSPropertyOp21
 70
     1
102
RTVSPropertyOp22
 70
     1
102
RTVSPropertyOp23
 70
     1
102
RTVSPropertyOp24
 70
     1
102
RTVSPropertyOp25
 70
     1
102
RTVSPropertyOp26
 70
     1
102
RTVSPropertyOp27
 70
     1
102
RTVSPropertyOp28
 70
     1
102
RTVSPropertyOp29
 70
     1
102
RTVSPropertyOp30
 70
     1
102
RTVSPropertyOp31
 70
     1
102
RTVSPropertyOp32
 70
     1
  0
XRECORD
  5
233
102
{ACAD_REACTORS
330
232
102
}
330
232
100
AcDbXrecord
280
     1
102
RTVSPropertyOp0
 70
     1
102
RTVSPropertyOp1
 70
     1
102
RTVSPropertyOp2
 70
     1
102
RTVSPropertyOp3
 70
     1
102
RTVSPropertyOp4
 70
     1
102
RTVSPropertyOp5
 70
     1
102
RTVSPropertyOp6
 70
     1
102
RTVSPropertyOp7
 70
     1
102
RTVSPropertyOp8
 70
     1
102
RTVSPropertyOp9
 70
     1
102
RTVSPropertyOp10
 70
     1
102
RTVSPropertyOp11
 70
     1
102
RTVSPropertyOp12
 70
     1
102
RTVSPropertyOp13
 70
     1
102
RTVSPropertyOp14
 70
     1
102
RTVSPropertyOp15
 70
     1
102
RTVSPropertyOp16
 70
     1
102
RTVSPropertyOp17
 70
     1
102
RTVSPropertyOp18
 70
     1
102
RTVSPropertyOp19
 70
     1
102
RTVSPropertyOp20
 70
     1
102
RTVSPropertyOp21
 70
     1
102
RTVSPropertyOp22
 70
     1
102
RTVSPropertyOp23
 70
     1
102
RTVSPropertyOp24
 70
     1
102
RTVSPropertyOp25
 70
     1
102
RTVSPropertyOp26
 70
     1
102
RTVSPropertyOp27
 70
     1
102
RTVSPropertyOp28
 70
     1
102
RTVSPropertyOp29
 70
     1
102
RTVSPropertyOp30
 70
     1
102
RTVSPropertyOp31
 70
     1
102
RTVSPropertyOp32
 70
     1
  0
XRECORD
  5
235
102
{ACAD_REACTORS
330
234
102
}
330
234
100
AcDbXrecord
280
     1
102
RTVSPropertyOp0
 70
     1
102
RTVSPropertyOp1
 70
     1
102
RTVSPropertyOp2
 70
     1
102
RTVSPropertyOp3
 70
     1
102
RTVSPropertyOp4
 70
     1
102
RTVSPropertyOp5
 70
     1
102
RTVSPropertyOp6
 70
     1
102
RTVSPropertyOp7
 70
     1
102
RTVSPropertyOp8
 70
     1
102
RTVSPropertyOp9
 70
     1
102
RTVSPropertyOp10
 70
     1
102
RTVSPropertyOp11
 70
     1
102
RTVSPropertyOp12
 70
     1
102
RTVSPropertyOp13
 70
     1
102
RTVSPropertyOp14
 70
     1
102
RTVSPropertyOp15
 70
     1
102
RTVSPropertyOp16
 70
     1
102
RTVSPropertyOp17
 70
     1
102
RTVSPropertyOp18
 70
     1
102
RTVSPropertyOp19
 70
     1
102
RTVSPropertyOp20
 70
     1
102
RTVSPropertyOp21
 70
     1
102
RTVSPropertyOp22
 70
     1
102
RTVSPropertyOp23
 70
     1
102
RTVSPropertyOp24
 70
     1
102
RTVSPropertyOp25
 70
     1
102
RTVSPropertyOp26
 70
     1
102
RTVSPropertyOp27
 70
     1
102
RTVSPropertyOp28
 70
     1
102
RTVSPropertyOp29
 70
     1
102
RTVSPropertyOp30
 70
     1
102
RTVSPropertyOp31
 70
     1
102
RTVSPropertyOp32
 70
     1
  0
XRECORD
  5
22B
102
{ACAD_REACTORS
330
22A
102
}
330
22A
100
AcDbXrecord
280
     1
102
RTVSPropertyOp0
 70
     1
102
RTVSPropertyOp1
 70
     1
102
RTVSPropertyOp2
 70
     1
102
RTVSPropertyOp3
 70
     1
102
RTVSPropertyOp4
 70
     1
102
RTVSPropertyOp5
 70
     1
102
RTVSPropertyOp6
 70
     1
102
RTVSPropertyOp7
 70
     1
102
RTVSPropertyOp8
 70
     1
102
RTVSPropertyOp9
 70
     1
102
RTVSPropertyOp10
 70
     1
102
RTVSPropertyOp11
 70
     1
102
RTVSPropertyOp12
 70
     1
102
RTVSPropertyOp13
 70
     1
102
RTVSPropertyOp14
 70
     1
102
RTVSPropertyOp15
 70
     1
102
RTVSPropertyOp16
 70
     1
102
RTVSPropertyOp17
 70
     1
102
RTVSPropertyOp18
 70
     1
102
RTVSPropertyOp19
 70
     1
102
RTVSPropertyOp20
 70
     1
102
RTVSPropertyOp21
 70
     1
102
RTVSPropertyOp22
 70
     1
102
RTVSPropertyOp23
 70
     1
102
RTVSPropertyOp24
 70
     1
102
RTVSPropertyOp25
 70
     1
102
RTVSPropertyOp26
 70
     1
102
RTVSPropertyOp27
 70
     1
102
RTVSPropertyOp28
 70
     1
102
RTVSPropertyOp29
 70
     1
102
RTVSPropertyOp30
 70
     1
102
RTVSPropertyOp31
 70
     1
102
RTVSPropertyOp32
 70
     1
  0
XRECORD
  5
21F
102
{ACAD_REACTORS
330
21E
102
}
330
21E
100
AcDbXrecord
280
     1
102
RTVSPropertyOp0
 70
     1
102
RTVSPropertyOp1
 70
     1
102
RTVSPropertyOp2
 70
     1
102
RTVSPropertyOp3
 70
     1
102
RTVSPropertyOp4
 70
     1
102
RTVSPropertyOp5
 70
     1
102
RTVSPropertyOp6
 70
     1
102
RTVSPropertyOp7
 70
     1
102
RTVSPropertyOp8
 70
     1
102
RTVSPropertyOp9
 70
     1
102
RTVSPropertyOp10
 70
     1
102
RTVSPropertyOp11
 70
     1
102
RTVSPropertyOp12
 70
     1
102
RTVSPropertyOp13
 70
     1
102
RTVSPropertyOp14
 70
     1
102
RTVSPropertyOp15
 70
     1
102
RTVSPropertyOp16
 70
     1
102
RTVSPropertyOp17
 70
     1
102
RTVSPropertyOp18
 70
     1
102
RTVSPropertyOp19
 70
     1
102
RTVSPropertyOp20
 70
     1
102
RTVSPropertyOp21
 70
     1
102
RTVSPropertyOp22
 70
     1
102
RTVSPropertyOp23
 70
     1
102
RTVSPropertyOp24
 70
     1
102
RTVSPropertyOp25
 70
     1
102
RTVSPropertyOp26
 70
     1
102
RTVSPropertyOp27
 70
     1
102
RTVSPropertyOp28
 70
     1
102
RTVSPropertyOp29
 70
     1
102
RTVSPropertyOp30
 70
     1
102
RTVSPropertyOp31
 70
     1
102
RTVSPropertyOp32
 70
     1
  0
XRECORD
  5
237
102
{ACAD_REACTORS
330
236
102
}
330
236
100
AcDbXrecord
280
     1
102
RTVSPropertyOp0
 70
     1
102
RTVSPropertyOp1
 70
     1
102
RTVSPropertyOp2
 70
     1
102
RTVSPropertyOp3
 70
     1
102
RTVSPropertyOp4
 70
     1
102
RTVSPropertyOp5
 70
     1
102
RTVSPropertyOp6
 70
     1
102
RTVSPropertyOp7
 70
     1
102
RTVSPropertyOp8
 70
     1
102
RTVSPropertyOp9
 70
     1
102
RTVSPropertyOp10
 70
     1
102
RTVSPropertyOp11
 70
     1
102
RTVSPropertyOp12
 70
     1
102
RTVSPropertyOp13
 70
     1
102
RTVSPropertyOp14
 70
     1
102
RTVSPropertyOp15
 70
     1
102
RTVSPropertyOp16
 70
     1
102
RTVSPropertyOp17
 70
     1
102
RTVSPropertyOp18
 70
     1
102
RTVSPropertyOp19
 70
     1
102
RTVSPropertyOp20
 70
     1
102
RTVSPropertyOp21
 70
     1
102
RTVSPropertyOp22
 70
     1
102
RTVSPropertyOp23
 70
     1
102
RTVSPropertyOp24
 70
     1
102
RTVSPropertyOp25
 70
     1
102
RTVSPropertyOp26
 70
     1
102
RTVSPropertyOp27
 70
     1
102
RTVSPropertyOp28
 70
     1
102
RTVSPropertyOp29
 70
     1
102
RTVSPropertyOp30
 70
     1
102
RTVSPropertyOp31
 70
     1
102
RTVSPropertyOp32
 70
     1
  0
ENDSEC
  0
EOF
