  0
SECTION
  2
HEADER
  9
$ACADVER
  1
AC1014
  9
$DWGCODEPAGE
  3
ANSI_1252
  9
$INSBASE
 10
0.0
 20
0.0
 30
0.0
  9
$EXTMIN
 10
1033.98771282
 20
-23306.08488211
  9
$EXTMAX
 10
122326.07664696
 20
2240.3362527
  9
$LIMMIN
 10
1033.98771282
 20
-23306.08488211
  9
$LIMMAX
 10
122326.07664696
 20
2240.3362527
  9
$ORTHOMODE
 70
     0
  9
$REGENMODE
 70
     1
  9
$FILLMODE
 70
     1
  9
$QTEXTMODE
 70
     0
  9
$MIRRTEXT
 70
     1
  9
$DRAGMODE
 70
     2
  9
$LTSCALE
 40
5.0
  9
$OSMODE
 70
     0
  9
$ATTMODE
 70
     1
  9
$TEXTSIZE
 40
3.5
  9
$TRACEWID
 40
1.0
  9
$TEXTSTYLE
  7
STANDARD
  9
$CLAYER
  8
0
  9
$CELTYPE
  6
BYLAYER
  9
$CECOLOR
 62
   256
  9
$DIMSCALE
 40
1.0
  9
$DIMASZ
 40
2.0
  9
$DIMEXO
 40
5.0
  9
$DIMDLI
 40
10.0
  9
$DIMRND
 40
0.0
  9
$DIMDLE
 40
2.0
  9
$DIMEXE
 40
2.0
  9
$DIMTP
 40
0.0
  9
$DIMTM
 40
0.0
  9
$DIMTXT
 40
2.5
  9
$DIMCEN
 40
1.5
  9
$DIMTSZ
 40
0.0
  9
$DIMTOL
 70
     0
  9
$DIMLIM
 70
     0
  9
$DIMTIH
 70
     1
  9
$DIMTOH
 70
     0
  9
$DIMSE1
 70
     0
  9
$DIMSE2
 70
     0
  9
$DIMTAD
 70
     1
  9
$DIMZIN
 70
     8
  9
$DIMBLK
  1

  9
$DIMASO
 70
     1
  9
$DIMSHO
 70
     1
  9
$DIMPOST
  1

  9
$DIMAPOST
  1

  9
$DIMALT
 70
     0
  9
$DIMALTD
 70
     2
  9
$DIMALTF
 40
25.4
  9
$DIMLFAC
 40
1.0
  9
$DIMTOFL
 70
     0
  9
$DIMTVP
 40
0.0
  9
$DIMTIX
 70
     0
  9
$DIMSOXD
 70
     0
  9
$DIMSAH
 70
     0
  9
$DIMBLK1
  1

  9
$DIMBLK2
  1

  9
$DIMSTYLE
  2
*UNNAMED
  9
$DIMCLRD
 70
   190
  9
$DIMCLRE
 70
   190
  9
$DIMCLRT
 70
   190
  9
$DIMTFAC
 40
1.0
  9
$DIMGAP
 40
0.09
  9
$DIMUNIT
 70
     2
  9
$LUNITS
 70
     2
  9
$LUPREC
 70
     6
  9
$AXISMODE
 70
     0
  9
$AXISUNIT
 10
0.0
 20
0.0
  9
$SKETCHINC
 40
0.1
  9
$FILLETRAD
 40
0.0
  9
$AUNITS
 70
     0
  9
$AUPREC
 70
     0
  9
$MENU
  1
ACAD
  9
$ELEVATION
 40
0.0
  9
$PELEVATION
 40
0.0
  9
$THICKNESS
 40
0.0
  9
$LIMCHECK
 70
     0
  9
$BLIPMODE
 70
     1
  9
$CHAMFERA
 40
0.0
  9
$CHAMFERB
 40
0.0
  9
$SKPOLY
 70
     1
  9
$TDCREATE
 40
2457811.0000000000
  9
$TDUPDATE
 40
2457811.0000000000
  9
$TDINDWG
 40
0.0
  9
$TDUSRTIMER
 40
0.0
  9
$USRTIMER
 70
     1
  9
$ANGBASE
 50
0.0
  9
$ANGDIR
 70
     0
  9
$PDMODE
 70
     0
  9
$PDSIZE
 40
0.0
  9
$PLINEWID
 40
0.0
  9
$COORDS
 70
     2
  9
$SPLFRAME
 70
     0
  9
$SPLINETYPE
 70
     6
  9
$SPLINESEGS
 70
     8
  9
$ATTDIA
 70
     1
  9
$ATTREQ
 70
     1
  9
$HANDLING
 70
     1
  9
$HANDSEED
  5
     666
  9
$SURFTAB1
 70
     6
  9
$SURFTAB2
 70
     6
  9
$SURFTYPE
 70
     6
  9
$SURFU
 70
     6
  9
$SURFV
 70
     6
  9
$UCSNAME
  2

  9
$UCSORG
 10
0.0
 20
0.0
 30
0.0
  9
$UCSXDIR
 10
1.0
 20
0.0
 30
0.0
  9
$UCSYDIR
 10
0.0
 20
1.0
 30
0.0
  9
$PUCSNAME
  2

  9
$PUCSORG
 10
0.0
 20
0.0
 30
0.0
  9
$PUCSXDIR
 10
1.0
 20
0.0
 30
0.0
  9
$PUCSYDIR
 10
0.0
 20
1.0
 30
0.0
  9
$USERI1
 70
     0
  9
$USERI2
 70
     0
  9
$USERI3
 70
     0
  9
$USERI4
 70
     0
  9
$USERI5
 70
     0
  9
$USERR1
 40
0.0
  9
$USERR2
 40
0.0
  9
$USERR3
 40
0.0
  9
$USERR4
 40
0.0
  9
$USERR5
 40
0.0
  9
$WORLDVIEW
 70
     1
  9
$SHADEDGE
 70
     3
  9
$SHADEDIF
 70
    70
  9
$TILEMODE
 70
     1
  9
$MAXACTVP
 70
    16
  9
$PINSBASE
 10
0.0
 20
0.0
 30
0.0
  9
$PLIMCHECK
 70
     0
  9
$PEXTMIN
 10
1.0000000000000E+20
 20
1.0000000000000E+20
 30
1.0000000000000E+20
  9
$PEXTMAX
 10
-1.0000000000000E+20
 20
-1.0000000000000E+20
 30
-1.0000000000000E+20
  9
$PLIMMIN
 10
0.0
 20
0.0
  9
$UNITMODE
 70
     0
  9
$VISRETAIN
 70
     0
  9
$MEASUREMENT
 70
     1
  0
ENDSEC
  0
SECTION
  2
TABLES
  0
TABLE
  2
VPORT
  5
487
100
AcDbSymbolTable
 70
     1
  0
ENDTAB
  0
TABLE
  2
STYLE
  5
488
100
AcDbSymbolTable
 70
     3
  0
STYLE
  5
489
100
AcDbSymbolTableRecord
100
AcDbTextStyleTableRecord
  2
STANDARD
 70
     0
 40
0.0
 41
1.0
 50
0.0
 71
     0
 42
3.5
  3
MONOTXT
  4

  0
STYLE
  5
48A
100
AcDbSymbolTableRecord
100
AcDbTextStyleTableRecord
  2
SYMAP
 70
     0
 40
0.0
 41
1.0
 50
0.0
 71
     0
 42
3.5
  3
SYMAP
  4

  0
STYLE
  5
48B
100
AcDbSymbolTableRecord
100
AcDbTextStyleTableRecord
  2
CADWORK1
 70
     0
 40
0.0
 41
1.0
 50
0.0
 71
     0
 42
3.5
  3
MONOTXT
  4

  0
STYLE
  5
48C
100
AcDbSymbolTableRecord
100
AcDbTextStyleTableRecord
  2
MONOTXT
 70
     0
 40
0.0
 41
1.0
 50
0.0
 71
     0
 42
3.5
  3
MONOTXT
  4

  0
STYLE
  5
48D
100
AcDbSymbolTableRecord
100
AcDbTextStyleTableRecord
  2
ARIAL
 70
     0
 40
0.0
 41
1.0
 50
0.0
 71
     0
 42
3.5
  3

  4

1001
ACAD
1000
Arial
1071
        0
  0
ENDTAB
  0
TABLE
  2
LTYPE
  5
48E
100
AcDbSymbolTable
 70
    15
  0
LTYPE
  5
48F
100
AcDbSymbolTableRecord
100
AcDbLinetypeTableRecord
  2
BYBLOCK
 70
    64
  3

 72
    65
 73
     0
 40
0.0
  0
LTYPE
  5
490
100
AcDbSymbolTableRecord
100
AcDbLinetypeTableRecord
  2
BYLAYER
 70
    64
  3

 72
    65
 73
     0
 40
0.0
  0
LTYPE
  5
491
100
AcDbSymbolTableRecord
100
AcDbLinetypeTableRecord
  2
CONTINUOUS
 70
    64
  3
Solid line
 72
    65
 73
     0
 40
0.0
  0
LTYPE
  5
492
100
AcDbSymbolTableRecord
100
AcDbLinetypeTableRecord
  2
DOT2
 70
    64
  3
...............................................
 72
    65
 73
     2
 40
1.25
 49
0.0
 74
     0
 49
-1.25
 74
     0
  0
LTYPE
  5
493
100
AcDbSymbolTableRecord
100
AcDbLinetypeTableRecord
  2
CADWORK_13
 70
    64
  3
13 =======================================
 72
    65
 73
     2
 40
4.0
 49
2.0
 74
     0
 49
-2.0
 74
     0
  0
LTYPE
  5
494
100
AcDbSymbolTableRecord
100
AcDbLinetypeTableRecord
  2
DASHDOT
 70
    64
  3
 __ . __ . __ . __ . __ . __ . __ . __ . __ . __
 72
    65
 73
     4
 40
10.0
 49
5.0
 74
     0
 49
-2.5
 74
     0
 49
0.0
 74
     0
 49
-2.5
 74
     0
  0
LTYPE
  5
495
100
AcDbSymbolTableRecord
100
AcDbLinetypeTableRecord
  2
CENTER
 70
    64
  3
 ____ _ ____ _ ____ _ ____ _ ____ _ ____ _ ____
 72
    65
 73
     4
 40
20.0
 49
12.5
 74
     0
 49
-2.5
 74
     0
 49
2.5
 74
     0
 49
-2.5
 74
     0
  0
LTYPE
  5
496
100
AcDbSymbolTableRecord
100
AcDbLinetypeTableRecord
  2
DASHEDX2
 70
    64
  3
____  ____  ____  ____  ____  ____  ____  ____
 72
    65
 73
     2
 40
3.75
 49
2.5
 74
     0
 49
-1.25
 74
     0
  0
LTYPE
  5
497
100
AcDbSymbolTableRecord
100
AcDbLinetypeTableRecord
  2
CADWORK_22
 70
    64
  3
22 =======================================
 72
    65
 73
     0
 40
0.0
  0
LTYPE
  5
498
100
AcDbSymbolTableRecord
100
AcDbLinetypeTableRecord
  2
DAL
 70
    64
  3
Solid line (for MAPS)
 72
    65
 73
     0
 40
0.0
  0
LTYPE
  5
499
100
AcDbSymbolTableRecord
100
AcDbLinetypeTableRecord
  2
MUR
 70
    64
  3
Solid line (for MAPS)
 72
    65
 73
     0
 40
0.0
  0
LTYPE
  5
49A
100
AcDbSymbolTableRecord
100
AcDbLinetypeTableRecord
  2
SOM
 70
    64
  3
Solid line (for MAPS)
 72
    65
 73
     0
 40
0.0
  0
LTYPE
  5
49B
100
AcDbSymbolTableRecord
100
AcDbLinetypeTableRecord
  2
COL
 70
    64
  3
Solid line (for MAPS)
 72
    65
 73
     0
 40
0.0
  0
LTYPE
  5
49C
100
AcDbSymbolTableRecord
100
AcDbLinetypeTableRecord
  2
LGN
 70
    64
  3
Solid line (for MAPS)
 72
    65
 73
     0
 40
0.0
  0
LTYPE
  5
49D
100
AcDbSymbolTableRecord
100
AcDbLinetypeTableRecord
  2
PNT
 70
    64
  3
Solid line (for MAPS)
 72
    65
 73
     0
 40
0.0
  0
ENDTAB
  0
TABLE
  2
LAYER
  5
49E
100
AcDbSymbolTable
 70
    32
  0
LAYER
  5
49F
100
AcDbSymbolTableRecord
100
AcDbLayerTableRecord
  2
Standard
 70
     0
 62
     7
  6
CONTINUOUS
370
    -3
  0
LAYER
  5
4A0
100
AcDbSymbolTableRecord
100
AcDbLayerTableRecord
  2
Ech.1_1
 70
     0
 62
     7
  6
CONTINUOUS
370
    -3
  0
LAYER
  5
4A1
100
AcDbSymbolTableRecord
100
AcDbLayerTableRecord
  2
Ech.1_2
 70
     0
 62
     7
  6
CONTINUOUS
370
    -3
  0
LAYER
  5
4A2
100
AcDbSymbolTableRecord
100
AcDbLayerTableRecord
  2
Ech.1_5
 70
     0
 62
     7
  6
CONTINUOUS
370
    -3
  0
LAYER
  5
4A3
100
AcDbSymbolTableRecord
100
AcDbLayerTableRecord
  2
Ech.1_10
 70
     0
 62
     7
  6
CONTINUOUS
370
    -3
  0
LAYER
  5
4A4
100
AcDbSymbolTableRecord
100
AcDbLayerTableRecord
  2
Ech.1_20
 70
     0
 62
     7
  6
CONTINUOUS
370
    -3
  0
LAYER
  5
4A5
100
AcDbSymbolTableRecord
100
AcDbLayerTableRecord
  2
Ech.1_25
 70
     0
 62
     7
  6
CONTINUOUS
370
    -3
  0
LAYER
  5
4A6
100
AcDbSymbolTableRecord
100
AcDbLayerTableRecord
  2
Ech.1_33
 70
     0
 62
     7
  6
CONTINUOUS
370
    -3
  0
LAYER
  5
4A7
100
AcDbSymbolTableRecord
100
AcDbLayerTableRecord
  2
Ech.1_50
 70
     0
 62
     7
  6
CONTINUOUS
370
    -3
  0
LAYER
  5
4A8
100
AcDbSymbolTableRecord
100
AcDbLayerTableRecord
  2
Ech.1_75
 70
     0
 62
     7
  6
CONTINUOUS
370
    -3
  0
LAYER
  5
4A9
100
AcDbSymbolTableRecord
100
AcDbLayerTableRecord
  2
Ech.1_100
 70
     0
 62
     7
  6
CONTINUOUS
370
    -3
  0
LAYER
  5
4AA
100
AcDbSymbolTableRecord
100
AcDbLayerTableRecord
  2
Ech.1_200
 70
     0
 62
     7
  6
CONTINUOUS
370
    -3
  0
LAYER
  5
4AB
100
AcDbSymbolTableRecord
100
AcDbLayerTableRecord
  2
Ech.1_500
 70
     0
 62
     7
  6
CONTINUOUS
370
    -3
  0
LAYER
  5
4AC
100
AcDbSymbolTableRecord
100
AcDbLayerTableRecord
  2
Ech.1_1000
 70
     0
 62
     7
  6
CONTINUOUS
370
    -3
  0
LAYER
  5
4AD
100
AcDbSymbolTableRecord
100
AcDbLayerTableRecord
  2
Cadres traceur
 70
     0
 62
     7
  6
CONTINUOUS
370
    18
  0
LAYER
  5
4AE
100
AcDbSymbolTableRecord
100
AcDbLayerTableRecord
  2
Cadres laser
 70
     0
 62
     7
  6
CONTINUOUS
370
    18
  0
LAYER
  5
4AF
100
AcDbSymbolTableRecord
100
AcDbLayerTableRecord
  2
Légende d_aide
 70
     0
 62
     7
  6
CONTINUOUS
370
    18
  0
LAYER
  5
4B0
100
AcDbSymbolTableRecord
100
AcDbLayerTableRecord
  2
hachures ok
 70
     0
 62
     7
  6
CONTINUOUS
370
    18
  0
LAYER
  5
4B1
100
AcDbSymbolTableRecord
100
AcDbLayerTableRecord
  2
ossature bois
 70
     0
 62
     7
  6
CONTINUOUS
370
    18
  0
LAYER
  5
4B2
100
AcDbSymbolTableRecord
100
AcDbLayerTableRecord
  2
VR
 70
     0
 62
     7
  6
CONTINUOUS
370
    25
  0
LAYER
  5
4B3
100
AcDbSymbolTableRecord
100
AcDbLayerTableRecord
  2
Calque1
 70
     0
 62
     7
  6
CONTINUOUS
370
     9
  0
LAYER
  5
4B4
100
AcDbSymbolTableRecord
100
AcDbLayerTableRecord
  2
0
 70
     0
 62
     7
  6
CONTINUOUS
370
    -3
  0
LAYER
  5
4B5
100
AcDbSymbolTableRecord
100
AcDbLayerTableRecord
  2
menuiserie
 70
     0
 62
     7
  6
CONTINUOUS
370
    -3
  0
LAYER
  5
4B6
100
AcDbSymbolTableRecord
100
AcDbLayerTableRecord
  2
cotation
 70
     0
 62
   250
  6
CONTINUOUS
370
     9
  0
LAYER
  5
4B7
100
AcDbSymbolTableRecord
100
AcDbLayerTableRecord
  2
Defpoints
 70
     0
 62
    10
  6
CONTINUOUS
370
    -3
  0
LAYER
  5
4B8
100
AcDbSymbolTableRecord
100
AcDbLayerTableRecord
  2
HACHURE
 70
     0
 62
   254
  6
CONTINUOUS
370
    25
  0
LAYER
  5
4B9
100
AcDbSymbolTableRecord
100
AcDbLayerTableRecord
  2
mat1
 70
     0
 62
     7
  6
CONTINUOUS
370
    30
  0
LAYER
  5
4BA
100
AcDbSymbolTableRecord
100
AcDbLayerTableRecord
  2
mat2
 70
     0
 62
     7
  6
CONTINUOUS
370
     5
  0
LAYER
  5
4BB
100
AcDbSymbolTableRecord
100
AcDbLayerTableRecord
  2
hach
 70
     0
 62
     8
  6
CONTINUOUS
370
     5
  0
LAYER
  5
4BC
100
AcDbSymbolTableRecord
100
AcDbLayerTableRecord
  2
menuiseries
 70
     0
 62
     7
  6
CONTINUOUS
370
     9
  0
LAYER
  5
4BD
100
AcDbSymbolTableRecord
100
AcDbLayerTableRecord
  2
BétonMétal
 70
     0
 62
     7
  6
CONTINUOUS
370
    80
  0
LAYER
  5
4BE
100
AcDbSymbolTableRecord
100
AcDbLayerTableRecord
  2
bois
 70
     0
 62
     7
  6
CONTINUOUS
370
    60
  0
ENDTAB
  0
TABLE
  2
VIEW
  5
4BF
100
AcDbSymbolTable
 70
     0
  0
ENDTAB
  0
TABLE
  2
UCS
  5
4C0
100
AcDbSymbolTable
 70
     0
  0
ENDTAB
  0
TABLE
  2
APPID
  5
4C1
100
AcDbSymbolTable
 70
     1
  0
APPID
  5
4C2
100
AcDbSymbolTableRecord
100
AcDbRegAppTableRecord
  2
ACAD
 70
     0
  0
ENDTAB
  0
TABLE
  2
DIMSTYLE
  5
4C3
100
AcDbSymbolTable
 70
     0
  0
ENDTAB
  0
TABLE
  2
BLOCK_RECORD
  5
4C4
100
AcDbSymbolTable
 70
     0
  0
BLOCK_RECORD
  5
4C5
100
AcDbSymbolTableRecord
100
AcDbBlockTableRecord
  2
*MODEL_SPACE
  0
BLOCK_RECORD
  5
4C6
100
AcDbSymbolTableRecord
100
AcDbBlockTableRecord
  2
*PAPER_SPACE
  0
BLOCK_RECORD
  5
4C7
100
AcDbSymbolTableRecord
100
AcDbBlockTableRecord
  2
CDWK_EXTR_0
  0
BLOCK_RECORD
  5
4C8
100
AcDbSymbolTableRecord
100
AcDbBlockTableRecord
  2
CDWK_EXTR_1D
  0
BLOCK_RECORD
  5
4C9
100
AcDbSymbolTableRecord
100
AcDbBlockTableRecord
  2
CDWK_EXTR_1G
  0
BLOCK_RECORD
  5
4CA
100
AcDbSymbolTableRecord
100
AcDbBlockTableRecord
  2
CDWK_EXTR_2
  0
BLOCK_RECORD
  5
4CB
100
AcDbSymbolTableRecord
100
AcDbBlockTableRecord
  2
CDWK_EXTR_3
  0
BLOCK_RECORD
  5
4CC
100
AcDbSymbolTableRecord
100
AcDbBlockTableRecord
  2
CDWK_EXTR_4
  0
BLOCK_RECORD
  5
4CD
100
AcDbSymbolTableRecord
100
AcDbBlockTableRecord
  2
CDWK_PTTYP0
  0
BLOCK_RECORD
  5
4CE
100
AcDbSymbolTableRecord
100
AcDbBlockTableRecord
  2
CDWK_PTTYP1
  0
BLOCK_RECORD
  5
4CF
100
AcDbSymbolTableRecord
100
AcDbBlockTableRecord
  2
CDWK_PTTYP2
  0
BLOCK_RECORD
  5
4D0
100
AcDbSymbolTableRecord
100
AcDbBlockTableRecord
  2
CDWK_PTTYP3
  0
BLOCK_RECORD
  5
4D1
100
AcDbSymbolTableRecord
100
AcDbBlockTableRecord
  2
CDWK_PTTYP4
  0
BLOCK_RECORD
  5
4D2
100
AcDbSymbolTableRecord
100
AcDbBlockTableRecord
  2
CDWK_PTTYP5
  0
BLOCK_RECORD
  5
4D3
100
AcDbSymbolTableRecord
100
AcDbBlockTableRecord
  2
CDWK_PTTYP6
  0
BLOCK_RECORD
  5
4D4
100
AcDbSymbolTableRecord
100
AcDbBlockTableRecord
  2
CDWK_PTTYP7
  0
BLOCK_RECORD
  5
4D5
100
AcDbSymbolTableRecord
100
AcDbBlockTableRecord
  2
CDWK_PTTYP8
  0
BLOCK_RECORD
  5
4D6
100
AcDbSymbolTableRecord
100
AcDbBlockTableRecord
  2
CDWK_PTTYP9
  0
BLOCK_RECORD
  5
4D7
100
AcDbSymbolTableRecord
100
AcDbBlockTableRecord
  2
CDWK_PTTYP10
  0
BLOCK_RECORD
  5
4D8
100
AcDbSymbolTableRecord
100
AcDbBlockTableRecord
  2
CDWK_PTTYP11
  0
BLOCK_RECORD
  5
4D9
100
AcDbSymbolTableRecord
100
AcDbBlockTableRecord
  2
CDWK_PTTYP12
  0
BLOCK_RECORD
  5
4DA
100
AcDbSymbolTableRecord
100
AcDbBlockTableRecord
  2
CDWK_PTTYP13
  0
BLOCK_RECORD
  5
4DB
100
AcDbSymbolTableRecord
100
AcDbBlockTableRecord
  2
CDWK_PTTYP14
  0
BLOCK_RECORD
  5
4DC
100
AcDbSymbolTableRecord
100
AcDbBlockTableRecord
  2
CDWK_PTTYP15
  0
BLOCK_RECORD
  5
4DD
100
AcDbSymbolTableRecord
100
AcDbBlockTableRecord
  2
CDWK_PTTYP16
  0
BLOCK_RECORD
  5
4DE
100
AcDbSymbolTableRecord
100
AcDbBlockTableRecord
  2
CDWK_PTTYP17
  0
BLOCK_RECORD
  5
4DF
100
AcDbSymbolTableRecord
100
AcDbBlockTableRecord
  2
CDWK_PTTYP18
  0
BLOCK_RECORD
  5
4E0
100
AcDbSymbolTableRecord
100
AcDbBlockTableRecord
  2
CDWK_PTTYP19
  0
BLOCK_RECORD
  5
4E1
100
AcDbSymbolTableRecord
100
AcDbBlockTableRecord
  2
CDWK_PTTYP20
  0
BLOCK_RECORD
  5
4E2
100
AcDbSymbolTableRecord
100
AcDbBlockTableRecord
  2
CDWK_PTTYP21
  0
BLOCK_RECORD
  5
4E3
100
AcDbSymbolTableRecord
100
AcDbBlockTableRecord
  2
CDWK_PTTYP22
  0
BLOCK_RECORD
  5
4E4
100
AcDbSymbolTableRecord
100
AcDbBlockTableRecord
  2
CDWK_PTTYP23
  0
BLOCK_RECORD
  5
4E5
100
AcDbSymbolTableRecord
100
AcDbBlockTableRecord
  2
CDWK_PTTYP24
  0
BLOCK_RECORD
  5
4E6
100
AcDbSymbolTableRecord
100
AcDbBlockTableRecord
  2
CDWK_PTTYP25
  0
BLOCK_RECORD
  5
4E7
100
AcDbSymbolTableRecord
100
AcDbBlockTableRecord
  2
CDWK_PTTYP26
  0
BLOCK_RECORD
  5
4E8
100
AcDbSymbolTableRecord
100
AcDbBlockTableRecord
  2
CDWK_PTTYP27
  0
BLOCK_RECORD
  5
4E9
100
AcDbSymbolTableRecord
100
AcDbBlockTableRecord
  2
CDWK_PTTYP28
  0
BLOCK_RECORD
  5
4EA
100
AcDbSymbolTableRecord
100
AcDbBlockTableRecord
  2
CDWK_PTTYP29
  0
BLOCK_RECORD
  5
4EB
100
AcDbSymbolTableRecord
100
AcDbBlockTableRecord
  2
CDWK_PTTYP30
  0
BLOCK_RECORD
  5
4EC
100
AcDbSymbolTableRecord
100
AcDbBlockTableRecord
  2
CDWK_PTTYP31
  0
BLOCK_RECORD
  5
4ED
100
AcDbSymbolTableRecord
100
AcDbBlockTableRecord
  2
CDWK_PTTYP32
  0
BLOCK_RECORD
  5
4EE
100
AcDbSymbolTableRecord
100
AcDbBlockTableRecord
  2
CDWK_PTTYP33
  0
BLOCK_RECORD
  5
4EF
100
AcDbSymbolTableRecord
100
AcDbBlockTableRecord
  2
CDWK_PTTYP34
  0
BLOCK_RECORD
  5
4F0
100
AcDbSymbolTableRecord
100
AcDbBlockTableRecord
  2
CDWK_PTTYP35
  0
BLOCK_RECORD
  5
4F1
100
AcDbSymbolTableRecord
100
AcDbBlockTableRecord
  2
CDWK_PTTYP36
  0
BLOCK_RECORD
  5
4F2
100
AcDbSymbolTableRecord
100
AcDbBlockTableRecord
  2
CDWK_PTTYP37
  0
BLOCK_RECORD
  5
4F3
100
AcDbSymbolTableRecord
100
AcDbBlockTableRecord
  2
CDWK_PTTYP38
  0
BLOCK_RECORD
  5
4F4
100
AcDbSymbolTableRecord
100
AcDbBlockTableRecord
  2
*X1
  0
BLOCK_RECORD
  5
4F5
100
AcDbSymbolTableRecord
100
AcDbBlockTableRecord
  2
*X2
  0
BLOCK_RECORD
  5
4F6
100
AcDbSymbolTableRecord
100
AcDbBlockTableRecord
  2
*X3
  0
BLOCK_RECORD
  5
4F7
100
AcDbSymbolTableRecord
100
AcDbBlockTableRecord
  2
*D66
  0
BLOCK_RECORD
  5
4F8
100
AcDbSymbolTableRecord
100
AcDbBlockTableRecord
  2
*D67
  0
ENDTAB
  0
ENDSEC
  0
SECTION
  2
BLOCKS
  0
BLOCK
  5
4F9
100
AcDbEntity
  8
0
100
AcDbBlockBegin
  2
*MODEL_SPACE
 70
     0
 10
0.0
 20
0.0
 30
0.0
  3
*MODEL_SPACE
  1

  0
ENDBLK
  5
4FA
100
AcDbEntity
100
AcDbBlockEnd
  0
BLOCK
  5
4FB
100
AcDbEntity
  8
0
100
AcDbBlockBegin
  2
*PAPER_SPACE
 70
     0
 10
0.0
 20
0.0
 30
0.0
  3
*PAPER_SPACE
  1

  0
ENDBLK
  5
4FC
100
AcDbEntity
100
AcDbBlockEnd
  0
BLOCK
  5
4FD
100
AcDbEntity
  8
0
100
AcDbBlockBegin
  2
CDWK_EXTR_0
 70
     0
 10
0.0
 20
0.0
 30
0.0
  3
CDWK_EXTR_0
  1

  4
Cadwork line-extremity
  0
LINE
  5
4FE
100
AcDbEntity
  8
0
 62
     0
370
    -2
100
AcDbLine
 10
0.0
 20
0.0
 30
0.0
 11
2.0
 21
0.5
 31
0.0
  0
LINE
  5
4FF
100
AcDbEntity
  8
0
 62
     0
370
    -2
100
AcDbLine
 10
0.0
 20
0.0
 30
0.0
 11
2.0
 21
-0.5
 31
0.0
  0
LINE
  5
500
100
AcDbEntity
  8
0
 62
     0
370
    -2
100
AcDbLine
 10
2.0
 20
0.5
 30
0.0
 11
2.0
 21
-0.5
 31
0.0
  0
ENDBLK
  5
501
100
AcDbEntity
100
AcDbBlockEnd
  0
BLOCK
  5
502
100
AcDbEntity
  8
0
100
AcDbBlockBegin
  2
CDWK_EXTR_1D
 70
     0
 10
0.0
 20
0.0
 30
0.0
  3
CDWK_EXTR_1D
  1

  4
Cadwork line-extremity
  0
LINE
  5
503
100
AcDbEntity
  8
0
 62
     0
370
    -2
100
AcDbLine
 10
0.0
 20
0.0
 30
0.0
 11
0.0
 21
1.0
 31
0.0
  0
LINE
  5
504
100
AcDbEntity
  8
0
 62
     0
370
    -2
100
AcDbLine
 10
0.0
 20
1.0
 30
0.0
 11
0.5
 21
1.5
 31
0.0
  0
LINE
  5
505
100
AcDbEntity
  8
0
 62
     0
370
    -2
100
AcDbLine
 10
0.5
 20
1.5
 30
0.0
 11
1.5
 21
1.5
 31
0.0
  0
ENDBLK
  5
506
100
AcDbEntity
100
AcDbBlockEnd
  0
BLOCK
  5
507
100
AcDbEntity
  8
0
100
AcDbBlockBegin
  2
CDWK_EXTR_1G
 70
     0
 10
0.0
 20
0.0
 30
0.0
  3
CDWK_EXTR_1G
  1

  4
Cadwork line-extremity
  0
LINE
  5
508
100
AcDbEntity
  8
0
 62
     0
370
    -2
100
AcDbLine
 10
0.0
 20
0.0
 30
0.0
 11
0.0
 21
-1.0
 31
0.0
  0
LINE
  5
509
100
AcDbEntity
  8
0
 62
     0
370
    -2
100
AcDbLine
 10
0.0
 20
-1.0
 30
0.0
 11
0.5
 21
-1.5
 31
0.0
  0
LINE
  5
50A
100
AcDbEntity
  8
0
 62
     0
370
    -2
100
AcDbLine
 10
0.5
 20
-1.5
 30
0.0
 11
1.5
 21
-1.5
 31
0.0
  0
ENDBLK
  5
50B
100
AcDbEntity
100
AcDbBlockEnd
  0
BLOCK
  5
50C
100
AcDbEntity
  8
0
100
AcDbBlockBegin
  2
CDWK_EXTR_2
 70
     0
 10
0.0
 20
0.0
 30
0.0
  3
CDWK_EXTR_2
  1

  4
Cadwork line-extremity
  0
SOLID
  5
50D
100
AcDbEntity
  8
0
 62
     0
100
AcDbTrace
 10
0.0
 20
0.0
 11
2.0
 21
0.5
 12
2.0
 22
-0.5
 13
2.0
 23
-0.5
  0
ENDBLK
  5
50E
100
AcDbEntity
100
AcDbBlockEnd
  0
BLOCK
  5
50F
100
AcDbEntity
  8
0
100
AcDbBlockBegin
  2
CDWK_EXTR_3
 70
     0
 10
0.0
 20
0.0
 30
0.0
  3
CDWK_EXTR_3
  1

  4
Cadwork line-extremity
  0
SOLID
  5
510
100
AcDbEntity
  8
0
 62
     0
100
AcDbTrace
 10
0.0
 20
0.0
 11
2.0
 21
0.5
 12
2.0
 22
-0.5
 13
2.0
 23
-0.5
  0
LINE
  5
511
100
AcDbEntity
  8
0
 62
     0
370
    -2
100
AcDbLine
 10
0.0
 20
1.0
 30
0.0
 11
0.0
 21
-1.0
 31
0.0
  0
ENDBLK
  5
512
100
AcDbEntity
100
AcDbBlockEnd
  0
BLOCK
  5
513
100
AcDbEntity
  8
0
100
AcDbBlockBegin
  2
CDWK_EXTR_4
 70
     0
 10
0.0
 20
0.0
 30
0.0
  3
CDWK_EXTR_4
  1

  4
Cadwork line-extremity
  0
HATCH
  5
514
100
AcDbEntity
  8
0
 62
     0
370
    -2
100
AcDbHatch
 10
0.0
 20
0.0
 30
0.0
210
0.0
220
0.0
230
1.0
  2
SOLID
 70
     1
 71
     0
 91
        1
 92
        1
 93
        1
 72
     2
 10
0.0
 20
0.0
 40
0.5
 50
0.0
 51
360.0
 73
     1
 97
        0
 75
     0
 76
     1
 98
        1
 10
0.0
 20
0.0
  0
ENDBLK
  5
515
100
AcDbEntity
100
AcDbBlockEnd
  0
BLOCK
  5
516
100
AcDbEntity
  8
0
100
AcDbBlockBegin
  2
CDWK_PTTYP0
 70
     0
 10
0.0
 20
0.0
 30
0.0
  3
CDWK_PTTYP0
  1

  4
Cadwork point
  0
POINT
  5
517
100
AcDbEntity
  8
0
 62
     0
100
AcDbPoint
 10
0.0
 20
0.0
 30
0.0
  0
ENDBLK
  5
518
100
AcDbEntity
100
AcDbBlockEnd
  0
BLOCK
  5
519
100
AcDbEntity
  8
0
100
AcDbBlockBegin
  2
CDWK_PTTYP1
 70
     0
 10
0.0
 20
0.0
 30
0.0
  3
CDWK_PTTYP1
  1

  4
Cadwork node
  0
LINE
  5
51A
100
AcDbEntity
  8
0
 62
     0
370
    -2
100
AcDbLine
 10
-0.5
 20
0.5
 30
0.0
 11
0.5
 21
0.5
 31
0.0
  0
LINE
  5
51B
100
AcDbEntity
  8
0
 62
     0
370
    -2
100
AcDbLine
 10
0.5
 20
0.5
 30
0.0
 11
0.5
 21
-0.5
 31
0.0
  0
LINE
  5
51C
100
AcDbEntity
  8
0
 62
     0
370
    -2
100
AcDbLine
 10
0.5
 20
-0.5
 30
0.0
 11
-0.5
 21
-0.5
 31
0.0
  0
LINE
  5
51D
100
AcDbEntity
  8
0
 62
     0
370
    -2
100
AcDbLine
 10
-0.5
 20
-0.5
 30
0.0
 11
-0.5
 21
0.5
 31
0.0
  0
ENDBLK
  5
51E
100
AcDbEntity
100
AcDbBlockEnd
  0
BLOCK
  5
51F
100
AcDbEntity
  8
0
100
AcDbBlockBegin
  2
CDWK_PTTYP2
 70
     0
 10
0.0
 20
0.0
 30
0.0
  3
CDWK_PTTYP2
  1

  4
Cadwork node
  0
LINE
  5
520
100
AcDbEntity
  8
0
 62
     0
370
    -2
100
AcDbLine
 10
0.0
 20
0.5
 30
0.0
 11
0.0
 21
-0.5
 31
0.0
  0
LINE
  5
521
100
AcDbEntity
  8
0
 62
     0
370
    -2
100
AcDbLine
 10
-0.5
 20
0.0
 30
0.0
 11
0.5
 21
0.0
 31
0.0
  0
ENDBLK
  5
522
100
AcDbEntity
100
AcDbBlockEnd
  0
BLOCK
  5
523
100
AcDbEntity
  8
0
100
AcDbBlockBegin
  2
CDWK_PTTYP3
 70
     0
 10
0.0
 20
0.0
 30
0.0
  3
CDWK_PTTYP3
  1

  4
Cadwork node
  0
CIRCLE
  5
524
100
AcDbEntity
  8
0
 62
     0
370
    -2
100
AcDbCircle
 10
0.0
 20
0.0
 30
0.0
 40
0.5
  0
ENDBLK
  5
525
100
AcDbEntity
100
AcDbBlockEnd
  0
BLOCK
  5
526
100
AcDbEntity
  8
0
100
AcDbBlockBegin
  2
CDWK_PTTYP4
 70
     0
 10
0.0
 20
0.0
 30
0.0
  3
CDWK_PTTYP4
  1

  4
Cadwork node
  0
HATCH
  5
527
100
AcDbEntity
  8
0
 62
     0
370
    -2
100
AcDbHatch
 10
0.0
 20
0.0
 30
0.0
210
0.0
220
0.0
230
1.0
  2
SOLID
 70
     1
 71
     0
 91
        1
 92
        1
 93
        1
 72
     2
 10
0.0
 20
0.0
 40
0.5
 50
0.0
 51
360.0
 73
     1
 97
        0
 75
     0
 76
     1
 98
        1
 10
0.0
 20
0.0
  0
ENDBLK
  5
528
100
AcDbEntity
100
AcDbBlockEnd
  0
BLOCK
  5
529
100
AcDbEntity
  8
0
100
AcDbBlockBegin
  2
CDWK_PTTYP5
 70
     0
 10
0.0
 20
0.0
 30
0.0
  3
CDWK_PTTYP5
  1

  4
Cadwork node
  0
LINE
  5
52A
100
AcDbEntity
  8
0
 62
     0
370
    -2
100
AcDbLine
 10
-0.5
 20
0.5
 30
0.0
 11
0.5
 21
0.5
 31
0.0
  0
LINE
  5
52B
100
AcDbEntity
  8
0
 62
     0
370
    -2
100
AcDbLine
 10
0.5
 20
0.5
 30
0.0
 11
0.5
 21
-0.5
 31
0.0
  0
LINE
  5
52C
100
AcDbEntity
  8
0
 62
     0
370
    -2
100
AcDbLine
 10
0.5
 20
-0.5
 30
0.0
 11
-0.5
 21
-0.5
 31
0.0
  0
LINE
  5
52D
100
AcDbEntity
  8
0
 62
     0
370
    -2
100
AcDbLine
 10
-0.5
 20
-0.5
 30
0.0
 11
-0.5
 21
0.5
 31
0.0
  0
SOLID
  5
52E
100
AcDbEntity
  8
0
 62
     0
100
AcDbTrace
 10
-0.5
 20
-0.5
 11
-0.5
 21
0.0
 12
0.0
 22
-0.5
 13
0.0
 23
0.0
  0
SOLID
  5
52F
100
AcDbEntity
  8
0
 62
     0
100
AcDbTrace
 10
0.0
 20
0.0
 11
0.0
 21
0.5
 12
0.5
 22
0.0
 13
0.5
 23
0.5
  0
ENDBLK
  5
530
100
AcDbEntity
100
AcDbBlockEnd
  0
BLOCK
  5
531
100
AcDbEntity
  8
0
100
AcDbBlockBegin
  2
CDWK_PTTYP6
 70
     0
 10
0.0
 20
0.0
 30
0.0
  3
CDWK_PTTYP6
  1

  4
Cadwork node
  0
LINE
  5
532
100
AcDbEntity
  8
0
 62
     0
370
    -2
100
AcDbLine
 10
-0.5
 20
0.5
 30
0.0
 11
0.5
 21
0.5
 31
0.0
  0
LINE
  5
533
100
AcDbEntity
  8
0
 62
     0
370
    -2
100
AcDbLine
 10
0.5
 20
0.5
 30
0.0
 11
0.5
 21
-0.5
 31
0.0
  0
LINE
  5
534
100
AcDbEntity
  8
0
 62
     0
370
    -2
100
AcDbLine
 10
0.5
 20
-0.5
 30
0.0
 11
-0.5
 21
-0.5
 31
0.0
  0
LINE
  5
535
100
AcDbEntity
  8
0
 62
     0
370
    -2
100
AcDbLine
 10
-0.5
 20
-0.5
 30
0.0
 11
-0.5
 21
0.5
 31
0.0
  0
SOLID
  5
536
100
AcDbEntity
  8
0
 62
     0
100
AcDbTrace
 10
-0.5
 20
-0.5
 11
-0.5
 21
0.5
 12
0.5
 22
0.5
 13
0.5
 23
0.5
  0
ENDBLK
  5
537
100
AcDbEntity
100
AcDbBlockEnd
  0
BLOCK
  5
538
100
AcDbEntity
  8
0
100
AcDbBlockBegin
  2
CDWK_PTTYP7
 70
     0
 10
0.0
 20
0.0
 30
0.0
  3
CDWK_PTTYP7
  1

  4
Cadwork node
  0
LINE
  5
539
100
AcDbEntity
  8
0
 62
     0
370
    -2
100
AcDbLine
 10
-0.5
 20
0.5
 30
0.0
 11
0.5
 21
0.5
 31
0.0
  0
LINE
  5
53A
100
AcDbEntity
  8
0
 62
     0
370
    -2
100
AcDbLine
 10
0.5
 20
0.5
 30
0.0
 11
0.5
 21
-0.5
 31
0.0
  0
LINE
  5
53B
100
AcDbEntity
  8
0
 62
     0
370
    -2
100
AcDbLine
 10
0.5
 20
-0.5
 30
0.0
 11
-0.5
 21
-0.5
 31
0.0
  0
LINE
  5
53C
100
AcDbEntity
  8
0
 62
     0
370
    -2
100
AcDbLine
 10
-0.5
 20
-0.5
 30
0.0
 11
-0.5
 21
0.5
 31
0.0
  0
LINE
  5
53D
100
AcDbEntity
  8
0
 62
     0
370
    -2
100
AcDbLine
 10
0.0
 20
0.5
 30
0.0
 11
0.0
 21
-0.5
 31
0.0
  0
LINE
  5
53E
100
AcDbEntity
  8
0
 62
     0
370
    -2
100
AcDbLine
 10
-0.5
 20
0.0
 30
0.0
 11
0.5
 21
0.0
 31
0.0
  0
ENDBLK
  5
53F
100
AcDbEntity
100
AcDbBlockEnd
  0
BLOCK
  5
540
100
AcDbEntity
  8
0
100
AcDbBlockBegin
  2
CDWK_PTTYP8
 70
     0
 10
0.0
 20
0.0
 30
0.0
  3
CDWK_PTTYP8
  1

  4
Cadwork node
  0
SOLID
  5
541
100
AcDbEntity
  8
0
 62
     0
100
AcDbTrace
 10
-0.5
 20
0.5
 11
0.5
 21
0.5
 12
-0.5
 22
-0.5
 13
0.5
 23
-0.5
  0
ENDBLK
  5
542
100
AcDbEntity
100
AcDbBlockEnd
  0
BLOCK
  5
543
100
AcDbEntity
  8
0
100
AcDbBlockBegin
  2
CDWK_PTTYP9
 70
     0
 10
0.0
 20
0.0
 30
0.0
  3
CDWK_PTTYP9
  1

  4
Cadwork node
  0
CIRCLE
  5
544
100
AcDbEntity
  8
0
 62
     0
370
    -2
100
AcDbCircle
 10
0.0
 20
0.0
 30
0.0
 40
0.5
  0
CIRCLE
  5
545
100
AcDbEntity
  8
0
 62
     0
370
    -2
100
AcDbCircle
 10
0.0
 20
0.0
 30
0.0
 40
0.16666667
  0
ENDBLK
  5
546
100
AcDbEntity
100
AcDbBlockEnd
  0
BLOCK
  5
547
100
AcDbEntity
  8
0
100
AcDbBlockBegin
  2
CDWK_PTTYP10
 70
     0
 10
0.0
 20
0.0
 30
0.0
  3
CDWK_PTTYP10
  1

  4
Cadwork node
  0
CIRCLE
  5
548
100
AcDbEntity
  8
0
 62
     0
370
    -2
100
AcDbCircle
 10
0.0
 20
0.0
 30
0.0
 40
0.5
  0
ENDBLK
  5
549
100
AcDbEntity
100
AcDbBlockEnd
  0
BLOCK
  5
54A
100
AcDbEntity
  8
0
100
AcDbBlockBegin
  2
CDWK_PTTYP11
 70
     0
 10
0.0
 20
0.0
 30
0.0
  3
CDWK_PTTYP11
  1

  4
Cadwork node
  0
CIRCLE
  5
54B
100
AcDbEntity
  8
0
 62
     0
370
    -2
100
AcDbCircle
 10
0.0
 20
0.0
 30
0.0
 40
0.5
  0
CIRCLE
  5
54C
100
AcDbEntity
  8
0
 62
     0
370
    -2
100
AcDbCircle
 10
0.0
 20
0.0
 30
0.0
 40
0.25
  0
ENDBLK
  5
54D
100
AcDbEntity
100
AcDbBlockEnd
  0
BLOCK
  5
54E
100
AcDbEntity
  8
0
100
AcDbBlockBegin
  2
CDWK_PTTYP12
 70
     0
 10
0.0
 20
0.0
 30
0.0
  3
CDWK_PTTYP12
  1

  4
Cadwork node
  0
CIRCLE
  5
54F
100
AcDbEntity
  8
0
 62
     0
370
    -2
100
AcDbCircle
 10
0.0
 20
0.0
 30
0.0
 40
0.5
  0
CIRCLE
  5
550
100
AcDbEntity
  8
0
 62
     0
370
    -2
100
AcDbCircle
 10
0.25
 20
0.0
 30
0.0
 40
0.25
  0
ENDBLK
  5
551
100
AcDbEntity
100
AcDbBlockEnd
  0
BLOCK
  5
552
100
AcDbEntity
  8
0
100
AcDbBlockBegin
  2
CDWK_PTTYP13
 70
     0
 10
0.0
 20
0.0
 30
0.0
  3
CDWK_PTTYP13
  1

  4
Cadwork node
  0
CIRCLE
  5
553
100
AcDbEntity
  8
0
 62
     0
370
    -2
100
AcDbCircle
 10
0.0
 20
0.0
 30
0.0
 40
0.5
  0
CIRCLE
  5
554
100
AcDbEntity
  8
0
 62
     0
370
    -2
100
AcDbCircle
 10
0.25
 20
0.0
 30
0.0
 40
0.25
  0
CIRCLE
  5
555
100
AcDbEntity
  8
0
 62
     0
370
    -2
100
AcDbCircle
 10
-0.25
 20
0.0
 30
0.0
 40
0.25
  0
ENDBLK
  5
556
100
AcDbEntity
100
AcDbBlockEnd
  0
BLOCK
  5
557
100
AcDbEntity
  8
0
100
AcDbBlockBegin
  2
CDWK_PTTYP14
 70
     0
 10
0.0
 20
0.0
 30
0.0
  3
CDWK_PTTYP14
  1

  4
Cadwork node
  0
POINT
  5
558
100
AcDbEntity
  8
0
 62
     0
100
AcDbPoint
 10
0.0
 20
0.0
 30
0.0
  0
ENDBLK
  5
559
100
AcDbEntity
100
AcDbBlockEnd
  0
BLOCK
  5
55A
100
AcDbEntity
  8
0
100
AcDbBlockBegin
  2
CDWK_PTTYP15
 70
     0
 10
0.0
 20
0.0
 30
0.0
  3
CDWK_PTTYP15
  1

  4
Cadwork node
  0
POINT
  5
55B
100
AcDbEntity
  8
0
 62
     0
100
AcDbPoint
 10
0.0
 20
0.0
 30
0.0
  0
ENDBLK
  5
55C
100
AcDbEntity
100
AcDbBlockEnd
  0
BLOCK
  5
55D
100
AcDbEntity
  8
0
100
AcDbBlockBegin
  2
CDWK_PTTYP16
 70
     0
 10
0.0
 20
0.0
 30
0.0
  3
CDWK_PTTYP16
  1

  4
Cadwork node
  0
LINE
  5
55E
100
AcDbEntity
  8
0
 62
     0
370
    -2
100
AcDbLine
 10
-0.5
 20
-0.28867513
 30
0.0
 11
0.5
 21
-0.28867513
 31
0.0
  0
LINE
  5
55F
100
AcDbEntity
  8
0
 62
     0
370
    -2
100
AcDbLine
 10
0.5
 20
-0.28867513
 30
0.0
 11
0.0
 21
0.57735027
 31
0.0
  0
LINE
  5
560
100
AcDbEntity
  8
0
 62
     0
370
    -2
100
AcDbLine
 10
0.0
 20
0.57735027
 30
0.0
 11
-0.5
 21
-0.28867513
 31
0.0
  0
CIRCLE
  5
561
100
AcDbEntity
  8
0
 62
     0
370
    -2
100
AcDbCircle
 10
0.0
 20
0.0
 30
0.0
 40
0.28867513
  0
ENDBLK
  5
562
100
AcDbEntity
100
AcDbBlockEnd
  0
BLOCK
  5
563
100
AcDbEntity
  8
0
100
AcDbBlockBegin
  2
CDWK_PTTYP17
 70
     0
 10
0.0
 20
0.0
 30
0.0
  3
CDWK_PTTYP17
  1

  4
Cadwork node
  0
CIRCLE
  5
564
100
AcDbEntity
  8
0
 62
     0
370
    -2
100
AcDbCircle
 10
0.0
 20
0.0
 30
0.0
 40
0.5
  0
HATCH
  5
565
100
AcDbEntity
  8
0
 62
     0
370
    -2
100
AcDbHatch
 10
0.0
 20
0.0
 30
0.0
210
0.0
220
0.0
230
1.0
  2
SOLID
 70
     1
 71
     0
 91
        1
 92
        1
 93
        1
 72
     2
 10
0.0
 20
0.0
 40
0.25
 50
0.0
 51
360.0
 73
     1
 97
        0
 75
     0
 76
     1
 98
        1
 10
0.0
 20
0.0
  0
ENDBLK
  5
566
100
AcDbEntity
100
AcDbBlockEnd
  0
BLOCK
  5
567
100
AcDbEntity
  8
0
100
AcDbBlockBegin
  2
CDWK_PTTYP18
 70
     0
 10
0.0
 20
0.0
 30
0.0
  3
CDWK_PTTYP18
  1

  4
Cadwork node
  0
CIRCLE
  5
568
100
AcDbEntity
  8
0
 62
     0
370
    -2
100
AcDbCircle
 10
0.0
 20
0.0
 30
0.0
 40
0.5
  0
CIRCLE
  5
569
100
AcDbEntity
  8
0
 62
     0
370
    -2
100
AcDbCircle
 10
0.0
 20
0.0
 30
0.0
 40
0.2
  0
ENDBLK
  5
56A
100
AcDbEntity
100
AcDbBlockEnd
  0
BLOCK
  5
56B
100
AcDbEntity
  8
0
100
AcDbBlockBegin
  2
CDWK_PTTYP19
 70
     0
 10
0.0
 20
0.0
 30
0.0
  3
CDWK_PTTYP19
  1

  4
Cadwork node
  0
CIRCLE
  5
56C
100
AcDbEntity
  8
0
 62
     0
370
    -2
100
AcDbCircle
 10
0.0
 20
0.0
 30
0.0
 40
0.4
  0
CIRCLE
  5
56D
100
AcDbEntity
  8
0
 62
     0
370
    -2
100
AcDbCircle
 10
0.0
 20
0.0
 30
0.0
 40
0.25
  0
LINE
  5
56E
100
AcDbEntity
  8
0
 62
     0
370
    -2
100
AcDbLine
 10
-0.25
 20
0.0
 30
0.0
 11
0.25
 21
0.0
 31
0.0
  0
ENDBLK
  5
56F
100
AcDbEntity
100
AcDbBlockEnd
  0
BLOCK
  5
570
100
AcDbEntity
  8
0
100
AcDbBlockBegin
  2
CDWK_PTTYP20
 70
     0
 10
0.0
 20
0.0
 30
0.0
  3
CDWK_PTTYP20
  1

  4
Cadwork node
  0
CIRCLE
  5
571
100
AcDbEntity
  8
0
 62
     0
370
    -2
100
AcDbCircle
 10
0.0
 20
0.0
 30
0.0
 40
0.5
  0
CIRCLE
  5
572
100
AcDbEntity
  8
0
 62
     0
370
    -2
100
AcDbCircle
 10
0.0
 20
0.0
 30
0.0
 40
0.3
  0
ENDBLK
  5
573
100
AcDbEntity
100
AcDbBlockEnd
  0
BLOCK
  5
574
100
AcDbEntity
  8
0
100
AcDbBlockBegin
  2
CDWK_PTTYP21
 70
     0
 10
0.0
 20
0.0
 30
0.0
  3
CDWK_PTTYP21
  1

  4
Cadwork node
  0
CIRCLE
  5
575
100
AcDbEntity
  8
0
 62
     0
370
    -2
100
AcDbCircle
 10
0.0
 20
0.0
 30
0.0
 40
0.5
  0
LINE
  5
576
100
AcDbEntity
  8
0
 62
     0
370
    -2
100
AcDbLine
 10
-0.5
 20
0.0
 30
0.0
 11
0.5
 21
0.0
 31
0.0
  0
ENDBLK
  5
577
100
AcDbEntity
100
AcDbBlockEnd
  0
BLOCK
  5
578
100
AcDbEntity
  8
0
100
AcDbBlockBegin
  2
CDWK_PTTYP22
 70
     0
 10
0.0
 20
0.0
 30
0.0
  3
CDWK_PTTYP22
  1

  4
Cadwork node
  0
POINT
  5
579
100
AcDbEntity
  8
0
 62
     0
100
AcDbPoint
 10
0.0
 20
0.0
 30
0.0
  0
ENDBLK
  5
57A
100
AcDbEntity
100
AcDbBlockEnd
  0
BLOCK
  5
57B
100
AcDbEntity
  8
0
100
AcDbBlockBegin
  2
CDWK_PTTYP23
 70
     0
 10
0.0
 20
0.0
 30
0.0
  3
CDWK_PTTYP23
  1

  4
Cadwork node
  0
POINT
  5
57C
100
AcDbEntity
  8
0
 62
     0
100
AcDbPoint
 10
0.0
 20
0.0
 30
0.0
  0
ENDBLK
  5
57D
100
AcDbEntity
100
AcDbBlockEnd
  0
BLOCK
  5
57E
100
AcDbEntity
  8
0
100
AcDbBlockBegin
  2
CDWK_PTTYP24
 70
     0
 10
0.0
 20
0.0
 30
0.0
  3
CDWK_PTTYP24
  1

  4
Cadwork node
  0
POINT
  5
57F
100
AcDbEntity
  8
0
 62
     0
100
AcDbPoint
 10
0.0
 20
0.0
 30
0.0
  0
ENDBLK
  5
580
100
AcDbEntity
100
AcDbBlockEnd
  0
BLOCK
  5
581
100
AcDbEntity
  8
0
100
AcDbBlockBegin
  2
CDWK_PTTYP25
 70
     0
 10
0.0
 20
0.0
 30
0.0
  3
CDWK_PTTYP25
  1

  4
Cadwork node
  0
LINE
  5
582
100
AcDbEntity
  8
0
 62
     0
370
    -2
100
AcDbLine
 10
-0.43290044
 20
-0.25
 30
0.0
 11
0.43290044
 21
-0.25
 31
0.0
  0
LINE
  5
583
100
AcDbEntity
  8
0
 62
     0
370
    -2
100
AcDbLine
 10
-0.43290044
 20
-0.25
 30
0.0
 11
0.0
 21
0.5
 31
0.0
  0
LINE
  5
584
100
AcDbEntity
  8
0
 62
     0
370
    -2
100
AcDbLine
 10
0.43290044
 20
-0.25
 30
0.0
 11
0.0
 21
0.5
 31
0.0
  0
CIRCLE
  5
585
100
AcDbEntity
  8
0
 62
     0
370
    -2
100
AcDbCircle
 10
0.0
 20
0.0
 30
0.0
 40
0.5
  0
ENDBLK
  5
586
100
AcDbEntity
100
AcDbBlockEnd
  0
BLOCK
  5
587
100
AcDbEntity
  8
0
100
AcDbBlockBegin
  2
CDWK_PTTYP26
 70
     0
 10
0.0
 20
0.0
 30
0.0
  3
CDWK_PTTYP26
  1

  4
Cadwork node
  0
LINE
  5
588
100
AcDbEntity
  8
0
 62
     0
370
    -2
100
AcDbLine
 10
-0.5
 20
-0.28850001
 30
0.0
 11
0.5
 21
-0.28850001
 31
0.0
  0
LINE
  5
589
100
AcDbEntity
  8
0
 62
     0
370
    -2
100
AcDbLine
 10
-0.5
 20
-0.28850001
 30
0.0
 11
0.0
 21
0.57736721
 31
0.0
  0
LINE
  5
58A
100
AcDbEntity
  8
0
 62
     0
370
    -2
100
AcDbLine
 10
0.5
 20
-0.28850001
 30
0.0
 11
0.0
 21
0.57736721
 31
0.0
  0
CIRCLE
  5
58B
100
AcDbEntity
  8
0
 62
     0
370
    -2
100
AcDbCircle
 10
0.0
 20
0.0
 30
0.0
 40
0.1312336
  0
ENDBLK
  5
58C
100
AcDbEntity
100
AcDbBlockEnd
  0
BLOCK
  5
58D
100
AcDbEntity
  8
0
100
AcDbBlockBegin
  2
CDWK_PTTYP27
 70
     0
 10
0.0
 20
0.0
 30
0.0
  3
CDWK_PTTYP27
  1

  4
Cadwork node
  0
LINE
  5
58E
100
AcDbEntity
  8
0
 62
     0
370
    -2
100
AcDbLine
 10
-0.43290044
 20
-0.25
 30
0.0
 11
0.43290044
 21
-0.25
 31
0.0
  0
LINE
  5
58F
100
AcDbEntity
  8
0
 62
     0
370
    -2
100
AcDbLine
 10
-0.43290044
 20
-0.25
 30
0.0
 11
0.0
 21
0.5
 31
0.0
  0
LINE
  5
590
100
AcDbEntity
  8
0
 62
     0
370
    -2
100
AcDbLine
 10
0.43290044
 20
-0.25
 30
0.0
 11
0.0
 21
0.5
 31
0.0
  0
CIRCLE
  5
591
100
AcDbEntity
  8
0
 62
     0
370
    -2
100
AcDbCircle
 10
0.0
 20
0.0
 30
0.0
 40
0.5
  0
CIRCLE
  5
592
100
AcDbEntity
  8
0
 62
     0
370
    -2
100
AcDbCircle
 10
0.0
 20
0.0
 30
0.0
 40
0.1312336
  0
ENDBLK
  5
593
100
AcDbEntity
100
AcDbBlockEnd
  0
BLOCK
  5
594
100
AcDbEntity
  8
0
100
AcDbBlockBegin
  2
CDWK_PTTYP28
 70
     0
 10
0.0
 20
0.0
 30
0.0
  3
CDWK_PTTYP28
  1

  4
Cadwork node
  0
POINT
  5
595
100
AcDbEntity
  8
0
 62
     0
100
AcDbPoint
 10
0.0
 20
0.0
 30
0.0
  0
ENDBLK
  5
596
100
AcDbEntity
100
AcDbBlockEnd
  0
BLOCK
  5
597
100
AcDbEntity
  8
0
100
AcDbBlockBegin
  2
CDWK_PTTYP29
 70
     0
 10
0.0
 20
0.0
 30
0.0
  3
CDWK_PTTYP29
  1

  4
Cadwork node
  0
CIRCLE
  5
598
100
AcDbEntity
  8
0
 62
     0
370
    -2
100
AcDbCircle
 10
0.0
 20
0.0
 30
0.0
 40
0.5
  0
CIRCLE
  5
599
100
AcDbEntity
  8
0
 62
     0
370
    -2
100
AcDbCircle
 10
0.0
 20
0.0
 30
0.0
 40
0.375
  0
CIRCLE
  5
59A
100
AcDbEntity
  8
0
 62
     0
370
    -2
100
AcDbCircle
 10
0.0
 20
0.0
 30
0.0
 40
0.21875
  0
ENDBLK
  5
59B
100
AcDbEntity
100
AcDbBlockEnd
  0
BLOCK
  5
59C
100
AcDbEntity
  8
0
100
AcDbBlockBegin
  2
CDWK_PTTYP30
 70
     0
 10
0.0
 20
0.0
 30
0.0
  3
CDWK_PTTYP30
  1

  4
Cadwork node
  0
LINE
  5
59D
100
AcDbEntity
  8
0
 62
     0
370
    -2
100
AcDbLine
 10
0.17680339
 20
0.17680339
 30
0.0
 11
0.5
 21
0.5
 31
0.0
  0
LINE
  5
59E
100
AcDbEntity
  8
0
 62
     0
370
    -2
100
AcDbLine
 10
-0.17680339
 20
0.17680339
 30
0.0
 11
-0.5
 21
0.5
 31
0.0
  0
LINE
  5
59F
100
AcDbEntity
  8
0
 62
     0
370
    -2
100
AcDbLine
 10
0.17680339
 20
-0.17680339
 30
0.0
 11
0.5
 21
-0.5
 31
0.0
  0
LINE
  5
5A0
100
AcDbEntity
  8
0
 62
     0
370
    -2
100
AcDbLine
 10
-0.17680339
 20
-0.17680339
 30
0.0
 11
-0.5
 21
-0.5
 31
0.0
  0
ENDBLK
  5
5A1
100
AcDbEntity
100
AcDbBlockEnd
  0
BLOCK
  5
5A2
100
AcDbEntity
  8
0
100
AcDbBlockBegin
  2
CDWK_PTTYP31
 70
     0
 10
0.0
 20
0.0
 30
0.0
  3
CDWK_PTTYP31
  1

  4
Cadwork node
  0
CIRCLE
  5
5A3
100
AcDbEntity
  8
0
 62
     0
370
    -2
100
AcDbCircle
 10
0.0
 20
0.0
 30
0.0
 40
0.075
  0
LINE
  5
5A4
100
AcDbEntity
  8
0
 62
     0
370
    -2
100
AcDbLine
 10
0.075
 20
0.0
 30
0.0
 11
0.5
 21
0.0
 31
0.0
  0
LINE
  5
5A5
100
AcDbEntity
  8
0
 62
     0
370
    -2
100
AcDbLine
 10
-0.075
 20
0.0
 30
0.0
 11
-0.5
 21
0.0
 31
0.0
  0
LINE
  5
5A6
100
AcDbEntity
  8
0
 62
     0
370
    -2
100
AcDbLine
 10
0.0
 20
0.075
 30
0.0
 11
0.0
 21
0.5
 31
0.0
  0
LINE
  5
5A7
100
AcDbEntity
  8
0
 62
     0
370
    -2
100
AcDbLine
 10
0.0
 20
-0.075
 30
0.0
 11
0.0
 21
-0.5
 31
0.0
  0
ENDBLK
  5
5A8
100
AcDbEntity
100
AcDbBlockEnd
  0
BLOCK
  5
5A9
100
AcDbEntity
  8
0
100
AcDbBlockBegin
  2
CDWK_PTTYP32
 70
     0
 10
0.0
 20
0.0
 30
0.0
  3
CDWK_PTTYP32
  1

  4
Cadwork node
  0
CIRCLE
  5
5AA
100
AcDbEntity
  8
0
 62
     0
370
    -2
100
AcDbCircle
 10
0.0
 20
0.0
 30
0.0
 40
0.5
  0
CIRCLE
  5
5AB
100
AcDbEntity
  8
0
 62
     0
370
    -2
100
AcDbCircle
 10
0.0
 20
0.0
 30
0.0
 40
0.16666667
  0
LINE
  5
5AC
100
AcDbEntity
  8
0
 62
     0
370
    -2
100
AcDbLine
 10
0.11786893
 20
0.11786893
 30
0.0
 11
0.35360678
 21
0.35360678
 31
0.0
  0
LINE
  5
5AD
100
AcDbEntity
  8
0
 62
     0
370
    -2
100
AcDbLine
 10
-0.11786893
 20
0.11786893
 30
0.0
 11
-0.35360678
 21
0.35360678
 31
0.0
  0
LINE
  5
5AE
100
AcDbEntity
  8
0
 62
     0
370
    -2
100
AcDbLine
 10
0.11786893
 20
-0.11786893
 30
0.0
 11
0.35360678
 21
-0.35360678
 31
0.0
  0
LINE
  5
5AF
100
AcDbEntity
  8
0
 62
     0
370
    -2
100
AcDbLine
 10
-0.11786893
 20
-0.11786893
 30
0.0
 11
-0.35360678
 21
-0.35360678
 31
0.0
  0
ENDBLK
  5
5B0
100
AcDbEntity
100
AcDbBlockEnd
  0
BLOCK
  5
5B1
100
AcDbEntity
  8
0
100
AcDbBlockBegin
  2
CDWK_PTTYP33
 70
     0
 10
0.0
 20
0.0
 30
0.0
  3
CDWK_PTTYP33
  1

  4
Cadwork node
  0
CIRCLE
  5
5B2
100
AcDbEntity
  8
0
 62
     0
370
    -2
100
AcDbCircle
 10
0.0
 20
0.0
 30
0.0
 40
0.5
  0
LINE
  5
5B3
100
AcDbEntity
  8
0
 62
     0
370
    -2
100
AcDbLine
 10
0.0
 20
0.5
 30
0.0
 11
0.0
 21
-0.5
 31
0.0
  0
LINE
  5
5B4
100
AcDbEntity
  8
0
 62
     0
370
    -2
100
AcDbLine
 10
-0.5
 20
0.0
 30
0.0
 11
0.5
 21
0.0
 31
0.0
  0
ENDBLK
  5
5B5
100
AcDbEntity
100
AcDbBlockEnd
  0
BLOCK
  5
5B6
100
AcDbEntity
  8
0
100
AcDbBlockBegin
  2
CDWK_PTTYP34
 70
     0
 10
0.0
 20
0.0
 30
0.0
  3
CDWK_PTTYP34
  1

  4
Cadwork node
  0
CIRCLE
  5
5B7
100
AcDbEntity
  8
0
 62
     0
370
    -2
100
AcDbCircle
 10
0.0
 20
0.0
 30
0.0
 40
0.5
  0
LINE
  5
5B8
100
AcDbEntity
  8
0
 62
     0
370
    -2
100
AcDbLine
 10
-0.30360678
 20
-0.40360678
 30
0.0
 11
0.40360678
 21
0.30360678
 31
0.0
  0
LINE
  5
5B9
100
AcDbEntity
  8
0
 62
     0
370
    -2
100
AcDbLine
 10
-0.40360678
 20
-0.30360678
 30
0.0
 11
0.30360678
 21
0.40360678
 31
0.0
  0
ENDBLK
  5
5BA
100
AcDbEntity
100
AcDbBlockEnd
  0
BLOCK
  5
5BB
100
AcDbEntity
  8
0
100
AcDbBlockBegin
  2
CDWK_PTTYP35
 70
     0
 10
0.0
 20
0.0
 30
0.0
  3
CDWK_PTTYP35
  1

  4
Cadwork node
  0
CIRCLE
  5
5BC
100
AcDbEntity
  8
0
 62
     0
370
    -2
100
AcDbCircle
 10
0.0
 20
0.0
 30
0.0
 40
0.21431634
  0
LINE
  5
5BD
100
AcDbEntity
  8
0
 62
     0
370
    -2
100
AcDbLine
 10
0.0
 20
0.21431634
 30
0.0
 11
0.0
 21
0.5
 31
0.0
  0
LINE
  5
5BE
100
AcDbEntity
  8
0
 62
     0
370
    -2
100
AcDbLine
 10
0.0
 20
-0.21431634
 30
0.0
 11
0.0
 21
-0.5
 31
0.0
  0
ENDBLK
  5
5BF
100
AcDbEntity
100
AcDbBlockEnd
  0
BLOCK
  5
5C0
100
AcDbEntity
  8
0
100
AcDbBlockBegin
  2
CDWK_PTTYP36
 70
     0
 10
0.0
 20
0.0
 30
0.0
  3
CDWK_PTTYP36
  1

  4
Cadwork node
  0
LINE
  5
5C1
100
AcDbEntity
  8
0
 62
     0
370
    -2
100
AcDbLine
 10
-0.5
 20
-0.16666667
 30
0.0
 11
0.5
 21
-0.16666667
 31
0.0
  0
LINE
  5
5C2
100
AcDbEntity
  8
0
 62
     0
370
    -2
100
AcDbLine
 10
0.5
 20
-0.16666667
 30
0.0
 11
0.5
 21
0.16666667
 31
0.0
  0
LINE
  5
5C3
100
AcDbEntity
  8
0
 62
     0
370
    -2
100
AcDbLine
 10
0.5
 20
0.16666667
 30
0.0
 11
-0.5
 21
0.16666667
 31
0.0
  0
LINE
  5
5C4
100
AcDbEntity
  8
0
 62
     0
370
    -2
100
AcDbLine
 10
-0.5
 20
0.16666667
 30
0.0
 11
-0.5
 21
-0.16666667
 31
0.0
  0
SOLID
  5
5C5
100
AcDbEntity
  8
0
 62
     0
100
AcDbTrace
 10
-0.5
 20
-0.16666667
 11
0.5
 21
0.16666667
 12
0.5
 22
-0.16666667
 13
0.5
 23
-0.16666667
  0
ENDBLK
  5
5C6
100
AcDbEntity
100
AcDbBlockEnd
  0
BLOCK
  5
5C7
100
AcDbEntity
  8
0
100
AcDbBlockBegin
  2
CDWK_PTTYP37
 70
     0
 10
0.0
 20
0.0
 30
0.0
  3
CDWK_PTTYP37
  1

  4
Cadwork node
  0
CIRCLE
  5
5C8
100
AcDbEntity
  8
0
 62
     0
370
    -2
100
AcDbCircle
 10
0.0
 20
0.0
 30
0.0
 40
0.5
  0
SOLID
  5
5C9
100
AcDbEntity
  8
0
 62
     0
100
AcDbTrace
 10
0.0
 20
0.0
 11
0.35350001
 21
0.35350001
 12
0.5
 22
0.0
 13
0.46200001
 23
0.19149999
  0
SOLID
  5
5CA
100
AcDbEntity
  8
0
 62
     0
100
AcDbTrace
 10
0.0
 20
0.0
 11
0.35350001
 21
-0.35350001
 12
0.5
 22
0.0
 13
0.46200001
 23
-0.19149999
  0
SOLID
  5
5CB
100
AcDbEntity
  8
0
 62
     0
100
AcDbTrace
 10
0.0
 20
0.0
 11
0.0
 21
-0.5
 12
0.35350001
 22
-0.35350001
 13
0.19149999
 23
-0.46200001
  0
SOLID
  5
5CC
100
AcDbEntity
  8
0
 62
     0
100
AcDbTrace
 10
0.0
 20
0.0
 11
0.0
 21
-0.5
 12
-0.35350001
 22
-0.35350001
 13
-0.19149999
 23
-0.46200001
  0
ENDBLK
  5
5CD
100
AcDbEntity
100
AcDbBlockEnd
  0
BLOCK
  5
5CE
100
AcDbEntity
  8
0
100
AcDbBlockBegin
  2
CDWK_PTTYP38
 70
     0
 10
0.0
 20
0.0
 30
0.0
  3
CDWK_PTTYP38
  1

  4
Cadwork node
  0
CIRCLE
  5
5CF
100
AcDbEntity
  8
0
 62
     0
370
    -2
100
AcDbCircle
 10
0.0
 20
0.0
 30
0.0
 40
0.5
  0
SOLID
  5
5D0
100
AcDbEntity
  8
0
 62
     0
100
AcDbTrace
 10
0.0
 20
0.0
 11
0.35350001
 21
0.35350001
 12
0.0
 22
0.5
 13
0.19149999
 23
0.46200001
  0
SOLID
  5
5D1
100
AcDbEntity
  8
0
 62
     0
100
AcDbTrace
 10
0.0
 20
0.0
 11
0.5
 21
0.0
 12
0.35350001
 22
0.35350001
 13
0.46200001
 23
0.19149999
  0
SOLID
  5
5D2
100
AcDbEntity
  8
0
 62
     0
100
AcDbTrace
 10
0.0
 20
0.0
 11
0.0
 21
-0.5
 12
-0.35350001
 22
-0.35350001
 13
-0.19149999
 23
-0.46200001
  0
SOLID
  5
5D3
100
AcDbEntity
  8
0
 62
     0
100
AcDbTrace
 10
0.0
 20
0.0
 11
-0.5
 21
0.0
 12
-0.35350001
 22
-0.35350001
 13
-0.46200001
 23
-0.19149999
  0
ENDBLK
  5
5D4
100
AcDbEntity
100
AcDbBlockEnd
  0
BLOCK
  5
5D5
100
AcDbEntity
  8
Ech.1_5
100
AcDbBlockBegin
  2
*X1
 70
     1
 10
0.0
 20
0.0
 30
0.0
  3
*X1
  1

  4
Cadwork hatch
  0
LINE
  5
5D6
100
AcDbEntity
  8
Ech.1_5
 62
   190
  6
CONTINUOUS
370
    -2
100
AcDbLine
 10
28858.72972748
 20
-22565.33727494
 30
0.0
 11
28903.72795776
 21
-22345.3371957
 31
0.0
  0
LINE
  5
5D7
100
AcDbEntity
  8
Ech.1_5
 62
   190
  6
CONTINUOUS
370
    -2
100
AcDbLine
 10
28903.72795776
 20
-22565.33727494
 30
0.0
 11
28858.72972748
 21
-22345.3371957
 31
0.0
  0
ENDBLK
  5
5D8
100
AcDbEntity
100
AcDbBlockEnd
  0
BLOCK
  5
5D9
100
AcDbEntity
  8
Ech.1_5
100
AcDbBlockBegin
  2
*X2
 70
     1
 10
0.0
 20
0.0
 30
0.0
  3
*X2
  1

  4
Cadwork hatch
  0
LINE
  5
5DA
100
AcDbEntity
  8
Ech.1_5
 62
   190
  6
CONTINUOUS
370
    -2
100
AcDbLine
 10
28878.72973468
 20
-22326.33730792
 30
0.0
 11
28941.72773333
 21
-22286.33729351
 31
0.0
  0
LINE
  5
5DB
100
AcDbEntity
  8
Ech.1_5
 62
   190
  6
CONTINUOUS
370
    -2
100
AcDbLine
 10
28941.72773333
 20
-22326.33730792
 30
0.0
 11
28878.72973468
 21
-22286.33729351
 31
0.0
  0
ENDBLK
  5
5DC
100
AcDbEntity
100
AcDbBlockEnd
  0
BLOCK
  5
5DD
100
AcDbEntity
  8
Ech.1_5
100
AcDbBlockBegin
  2
*X3
 70
     1
 10
0.0
 20
0.0
 30
0.0
  3
*X3
  1

  4
Cadwork hatch
  0
LINE
  5
5DE
100
AcDbEntity
  8
Ech.1_5
 62
   190
  6
CONTINUOUS
370
    -2
100
AcDbLine
 10
28878.72973468
 20
-22605.33728935
 30
0.0
 11
28941.72773333
 21
-22565.33727494
 31
0.0
  0
LINE
  5
5DF
100
AcDbEntity
  8
Ech.1_5
 62
   190
  6
CONTINUOUS
370
    -2
100
AcDbLine
 10
28941.72773333
 20
-22605.33728935
 30
0.0
 11
28878.72973468
 21
-22565.33727494
 31
0.0
  0
ENDBLK
  5
5E0
100
AcDbEntity
100
AcDbBlockEnd
  0
BLOCK
  5
5E1
100
AcDbEntity
  8
Ech.1_5
100
AcDbBlockBegin
  2
*D66
 70
     1
 10
0.0
 20
0.0
 30
0.0
  3
*D66
  1

  4
Cadwork dimension
  0
TEXT
  5
5E2
100
AcDbEntity
  8
Ech.1_5
 62
   190
370
    18
100
AcDbText
 10
28736.24707791
 20
-22034.93351357
 30
0.0
 40
12.5
  1
Partie existante
  7
ARIAL
 50
0.0
 41
1.0
 51
0.0
100
AcDbText
  0
LINE
  5
5E3
100
AcDbEntity
  8
Ech.1_5
 62
   190
370
    -2
100
AcDbLine
 10
28431.72811483
 20
-22034.93351357
 30
0.0
 11
28431.72811483
 21
-22085.44652615
 31
0.0
  0
LINE
  5
5E4
100
AcDbEntity
  8
Ech.1_5
 62
   190
370
    -2
100
AcDbLine
 10
28650.72811483
 20
-22034.93351357
 30
0.0
 11
28650.72811483
 21
-22085.44637071
 31
0.0
  0
LINE
  5
5E5
100
AcDbEntity
  8
Ech.1_5
 62
   190
370
    -2
100
AcDbLine
 10
28426.72811483
 20
-22039.93351357
 30
0.0
 11
28655.72811483
 21
-22039.93351357
 31
0.0
  0
LINE
  5
5E6
100
AcDbEntity
  8
Ech.1_5
 62
   190
370
    -2
100
AcDbLine
 10
28429.22811483
 20
-22042.43351357
 30
0.0
 11
28434.22811483
 21
-22037.43351357
 31
0.0
  0
LINE
  5
5E7
100
AcDbEntity
  8
Ech.1_5
 62
   190
370
    -2
100
AcDbLine
 10
28648.22811483
 20
-22042.43351357
 30
0.0
 11
28653.22811483
 21
-22037.43351357
 31
0.0
  0
ENDBLK
  5
5E8
100
AcDbEntity
100
AcDbBlockEnd
  0
BLOCK
  5
5E9
100
AcDbEntity
  8
Ech.1_5
100
AcDbBlockBegin
  2
*D67
 70
     1
 10
0.0
 20
0.0
 30
0.0
  3
*D67
  1

  4
Cadwork dimension
  0
TEXT
  5
5EA
100
AcDbEntity
  8
Ech.1_5
 62
   190
370
    18
100
AcDbText
 10
28482.7847836
 20
-22034.93351357
 30
0.0
 40
12.5
  1
Partie rénovée
  7
ARIAL
 50
0.0
 41
1.0
 51
0.0
100
AcDbText
  0
LINE
  5
5EB
100
AcDbEntity
  8
Ech.1_5
 62
   190
370
    -2
100
AcDbLine
 10
28650.72811483
 20
-22034.93351357
 30
0.0
 11
28650.72811483
 21
-22085.44637071
 31
0.0
  0
LINE
  5
5EC
100
AcDbEntity
  8
Ech.1_5
 62
   190
370
    -2
100
AcDbLine
 10
28941.72811483
 20
-22034.93351357
 30
0.0
 11
28941.72811483
 21
-22085.44565831
 31
0.0
  0
LINE
  5
5ED
100
AcDbEntity
  8
Ech.1_5
 62
   190
370
    -2
100
AcDbLine
 10
28645.72811483
 20
-22039.93351357
 30
0.0
 11
28946.72811483
 21
-22039.93351357
 31
0.0
  0
LINE
  5
5EE
100
AcDbEntity
  8
Ech.1_5
 62
   190
370
    -2
100
AcDbLine
 10
28648.22811483
 20
-22042.43351357
 30
0.0
 11
28653.22811483
 21
-22037.43351357
 31
0.0
  0
LINE
  5
5EF
100
AcDbEntity
  8
Ech.1_5
 62
   190
370
    -2
100
AcDbLine
 10
28939.22811483
 20
-22042.43351357
 30
0.0
 11
28944.22811483
 21
-22037.43351357
 31
0.0
  0
ENDBLK
  5
5F0
100
AcDbEntity
100
AcDbBlockEnd
  0
ENDSEC
  0
SECTION
  2
ENTITIES
  0
INSERT
  5
5F1
100
AcDbEntity
  8
Ech.1_5
 62
     0
100
AcDbBlockReference
  2
*X1
 10
0.0
 20
0.0
 30
0.0
  0
INSERT
  5
5F2
100
AcDbEntity
  8
Ech.1_5
 62
     0
100
AcDbBlockReference
  2
*X2
 10
0.0
 20
0.0
 30
0.0
  0
INSERT
  5
5F3
100
AcDbEntity
  8
Ech.1_5
 62
     0
100
AcDbBlockReference
  2
*X3
 10
0.0
 20
0.0
 30
0.0
  0
LWPOLYLINE
  5
5F4
102
{ACAD_REACTORS
330
5F5
102
}
100
AcDbEntity
  8
Ech.1_5
 62
     9
  6
CONTINUOUS
370
    -3
100
AcDbPolyline
 90
        4
 70
     1
 43
0.0
 10
28658.72811483
 20
-22100.44565831
 10
28858.72811483
 20
-22100.44565831
 10
28858.72811483
 20
-22852.15706273
 10
28658.72811483
 20
-22852.1539423
  0
HATCH
  5
5F5
100
AcDbEntity
  8
Ech.1_5
 62
     9
  6
CONTINUOUS
100
AcDbHatch
 10
0.0
 20
0.0
 30
0.0
210
0.0
220
0.0
230
1.0
  2
AR-CONC
 70
     0
 71
     1
 91
        1
 92
        7
 72
     0
 73
     1
 93
        4
 10
28658.72811483
 20
-22100.44565831
 10
28858.72811483
 20
-22100.44565831
 10
28858.72811483
 20
-22852.15706273
 10
28658.72811483
 20
-22852.1539423
 97
        1
330
5F4
 75
     0
 76
     2
 52
0.0
 41
0.11811097
 77
     0
 78
    13
 53
50.0
 43
0.0
 44
0.0
 45
-18.84283637
 46
1.64853443
 79
     2
 49
1.97029307
 49
-21.67322338
 53
355.0
 43
0.0
 44
0.0
 45
-3.64507756
 46
19.76051824
 79
     2
 49
1.57623377
 49
-17.3385787
 53
100.45140076
 43
1.57023568
 44
-0.13737749
 45
-15.19777228
 46
-18.11197244
 79
     2
 49
1.67449124
 49
-18.41940522
 53
46.18420029
 43
0.0
 44
5.25411576
 45
-28.03703353
 46
4.34827878
 79
     2
 49
2.95543872
 49
-32.50983238
 53
96.63559723
 43
2.33641885
 44
4.89175692
 45
-24.55412615
 46
-25.59063404
 79
     2
 49
2.51173697
 49
-27.62910426
 53
351.1842041
 43
0.0
 44
5.25411576
 45
24.55410288
 46
25.59065715
 79
     2
 49
2.36435249
 49
-26.00786805
 53
21.0
 43
2.62705699
 44
3.94058615
 45
-15.68109068
 46
10.57702905
 79
     2
 49
1.97029307
 49
-21.67322338
 53
326.0
 43
2.62705699
 44
3.94058615
 45
6.39203268
 46
19.05010734
 79
     2
 49
1.57623377
 49
-17.3385787
 53
71.45140076
 43
3.93381357
 44
3.05916555
 45
-22.07312962
 46
-8.47306182
 79
     2
 49
1.67449124
 49
-18.41940522
 53
37.5
 43
0.0
 44
0.0
 45
0.31944534
 46
8.74531245
 79
     6
 49
0.01875
 49
-17.12841332
 49
0.01875
 49
-17.60128498
 49
0.01875
 49
-17.40425348
 53
7.5
 43
0.0
 44
0.0
 45
6.91098818
 46
10.3614222
 79
     6
 49
0.01875
 49
-10.03535807
 49
0.01875
 49
-16.7343539
 49
0.01875
 49
-6.6333206
 53
-32.5
 43
-5.85833833
 44
0.0
 45
14.02382061
 46
-0.59253003
 79
     6
 49
0.01875
 49
-6.56764314
 49
0.01875
 49
-20.49104869
 49
0.01875
 49
-27.19004452
 53
-42.5
 43
-8.48539531
 44
0.0
 45
15.32063571
 46
2.62981542
 79
     6
 49
0.01875
 49
-8.53793621
 49
0.01875
 49
-13.60815793
 49
0.01875
 49
-19.30887222
 47
0.775229
 98
        1
 10
0.0
 20
0.0
  0
LWPOLYLINE
  5
5F6
100
AcDbEntity
  8
Ech.1_5
 62
   190
  6
CONTINUOUS
370
    -3
100
AcDbPolyline
 90
       12
 70
     1
 43
0.0
 10
28630.72811483
 20
-22100.44622956
 10
28560.68545502
 20
-22100.44565831
 10
28544.19910094
 20
-22118.4240099
 10
28558.30904096
 20
-22082.46830998
 10
28541.8235378
 20
-22100.44565831
 10
28485.72811483
 20
-22100.44625817
 10
28485.72811483
 20
-22852.15739651
 10
28592.40929526
 20
-22852.15706273
 10
28608.89479841
 20
-22834.1797144
 10
28594.7848584
 20
-22870.13541432
 10
28611.27121248
 20
-22852.15706273
 10
28630.72811483
 20
-22852.15704842
  0
LINE
  5
5F7
100
AcDbEntity
  8
Ech.1_5
 62
     0
  6
CONTINUOUS
100
AcDbLine
 10
28630.72811483
 20
-22331.12844296
 30
0.0
 11
28630.72811483
 21
-22852.15704842
 31
0.0
  0
LINE
  5
5F8
100
AcDbEntity
  8
Ech.1_5
 62
   190
  6
CONTINUOUS
370
    -3
100
AcDbLine
 10
28630.72811483
 20
-22852.15706273
 30
0.0
 11
28630.72811483
 21
-22331.12787171
 31
0.0
  0
LWPOLYLINE
  5
5F9
100
AcDbEntity
  8
Ech.1_5
 62
     0
  6
BYBLOCK
100
AcDbPolyline
 90
        3
 70
     0
 43
0.0
 10
28481.90907994
 20
-22687.4155428
 42
1.0
 10
28484.40907994
 20
-22687.4155428
 42
1.0
 10
28481.90907994
 20
-22687.4155428
  0
LINE
  5
5FA
100
AcDbEntity
  8
Ech.1_5
 62
     0
  6
BYBLOCK
100
AcDbLine
 10
28480.65907994
 20
-22687.4155428
 30
0.0
 11
28478.15907994
 21
-22687.4155428
 31
0.0
  0
LINE
  5
5FB
100
AcDbEntity
  8
Ech.1_5
 62
     1
  6
CADWORK_22
 48
-5.0
370
    35
100
AcDbLine
 10
28632.22811483
 20
-22100.44565831
 30
0.0
 11
28632.22811483
 21
-22852.15706273
 31
0.0
  0
LWPOLYLINE
  5
5FC
100
AcDbEntity
  8
Ech.1_5
 62
     9
  6
CONTINUOUS
370
    -3
100
AcDbPolyline
 90
        4
 70
     1
 43
0.0
 10
28451.72811483
 20
-22852.1575243
 10
28476.72811483
 20
-22852.15744229
 10
28476.72811483
 20
-22100.44625817
 10
28451.72811483
 20
-22100.44652615
  0
LINE
  5
5FD
100
AcDbEntity
  8
Ech.1_5
 62
     9
  6
CONTINUOUS
370
    18
100
AcDbLine
 10
28451.72811483
 20
-22852.1575243
 30
0.0
 11
28451.72811483
 21
-22331.12873955
 31
0.0
  0
LWPOLYLINE
  5
5FE
100
AcDbEntity
  8
Ech.1_5
 62
     9
  6
CONTINUOUS
100
AcDbPolyline
 90
       27
 70
     0
 43
0.0
 10
28438.60149771
 20
-22676.03271599
 10
28438.72811483
 20
-22675.69824238
 10
28438.72811483
 20
-22648.31477757
 10
28445.72811483
 20
-22648.31477757
 10
28445.72811483
 20
-22657.31477757
 10
28451.72811483
 20
-22657.31477757
 10
28451.72811483
 20
-22630.31477757
 10
28447.72811483
 20
-22626.31477757
 10
28451.72811483
 20
-22622.31477757
 10
28451.72811483
 20
-22558.31477757
 10
28447.72811483
 20
-22554.31477757
 10
28451.72811483
 20
-22550.31477757
 10
28451.72811483
 20
-22515.31477757
 10
28444.72811483
 20
-22515.31477757
 10
28444.72811483
 20
-22509.31477757
 10
28442.22811483
 20
-22504.31477757
 10
28439.72811483
 20
-22509.31477757
 10
28439.72811483
 20
-22540.24370976
 10
28439.34751249
 20
-22542.15712758
 10
28433.19258093
 20
-22548.85031147
 10
28431.72811483
 20
-22552.38584538
 10
28431.72811483
 20
-22671.47258969
 10
28432.68843723
 20
-22673.10245915
 10
28437.42455809
 20
-22676.07380887
 10
28437.83655945
 20
-22676.31477757
 10
28438.15037694
 20
-22676.31477757
 10
28438.60149771
 20
-22676.03271599
  0
LWPOLYLINE
  5
5FF
100
AcDbEntity
  8
Ech.1_5
 62
     9
  6
CONTINUOUS
100
AcDbPolyline
 90
       27
 70
     0
 43
0.0
 10
28438.60149771
 20
-22821.03271599
 10
28438.72811483
 20
-22820.69824238
 10
28438.72811483
 20
-22793.31477757
 10
28445.72811483
 20
-22793.31477757
 10
28445.72811483
 20
-22802.31477757
 10
28451.72811483
 20
-22802.31477757
 10
28451.72811483
 20
-22775.31477757
 10
28447.72811483
 20
-22771.31477757
 10
28451.72811483
 20
-22767.31477757
 10
28451.72811483
 20
-22703.31477757
 10
28447.72811483
 20
-22699.31477757
 10
28451.72811483
 20
-22695.31477757
 10
28451.72811483
 20
-22660.31477757
 10
28444.72811483
 20
-22660.31477757
 10
28444.72811483
 20
-22654.31477757
 10
28442.22811483
 20
-22649.31477757
 10
28439.72811483
 20
-22654.31477757
 10
28439.72811483
 20
-22685.24370976
 10
28439.34751249
 20
-22687.15712758
 10
28433.19258093
 20
-22693.85031147
 10
28431.72811483
 20
-22697.38584538
 10
28431.72811483
 20
-22816.47258969
 10
28432.68843723
 20
-22818.10245915
 10
28437.42455809
 20
-22821.07380887
 10
28437.83655945
 20
-22821.31477757
 10
28438.15037694
 20
-22821.31477757
 10
28438.60149771
 20
-22821.03271599
  0
LWPOLYLINE
  5
600
100
AcDbEntity
  8
Ech.1_5
 62
     9
  6
CONTINUOUS
100
AcDbPolyline
 90
       14
 70
     0
 43
0.0
 10
28451.72811483
 20
-22852.1575243
 10
28451.72811483
 20
-22848.31477757
 10
28447.72811483
 20
-22844.31477757
 10
28451.72811483
 20
-22840.31477757
 10
28451.72811483
 20
-22805.31477757
 10
28444.72811483
 20
-22805.31477757
 10
28444.72811483
 20
-22799.31477757
 10
28442.22811483
 20
-22794.31477757
 10
28439.72811483
 20
-22799.31477757
 10
28439.72811483
 20
-22830.24370976
 10
28439.34751249
 20
-22832.15712758
 10
28433.19258093
 20
-22838.85031147
 10
28431.72811483
 20
-22842.38584538
 10
28431.72811483
 20
-22852.15758915
  0
LWPOLYLINE
  5
601
100
AcDbEntity
  8
Ech.1_5
 62
     9
  6
CONTINUOUS
100
AcDbPolyline
 90
       27
 70
     0
 43
0.0
 10
28438.60149771
 20
-22531.03271599
 10
28438.72811483
 20
-22530.69824238
 10
28438.72811483
 20
-22503.31477757
 10
28445.72811483
 20
-22503.31477757
 10
28445.72811483
 20
-22512.31477757
 10
28451.72811483
 20
-22512.31477757
 10
28451.72811483
 20
-22485.31477757
 10
28447.72811483
 20
-22481.31477757
 10
28451.72811483
 20
-22477.31477757
 10
28451.72811483
 20
-22413.31477757
 10
28447.72811483
 20
-22409.31477757
 10
28451.72811483
 20
-22405.31477757
 10
28451.72811483
 20
-22370.31477757
 10
28444.72811483
 20
-22370.31477757
 10
28444.72811483
 20
-22364.31477757
 10
28442.22811483
 20
-22359.31477757
 10
28439.72811483
 20
-22364.31477757
 10
28439.72811483
 20
-22395.24370976
 10
28439.34751249
 20
-22397.15712758
 10
28433.19258093
 20
-22403.85031147
 10
28431.72811483
 20
-22407.38584538
 10
28431.72811483
 20
-22526.47258969
 10
28432.68843723
 20
-22528.10245915
 10
28437.42455809
 20
-22531.07380887
 10
28437.83655945
 20
-22531.31477757
 10
28438.15037694
 20
-22531.31477757
 10
28438.60149771
 20
-22531.03271599
  0
LINE
  5
602
100
AcDbEntity
  8
Ech.1_5
 62
     7
  6
CONTINUOUS
370
    18
100
AcDbLine
 10
28476.73207491
 20
-22100.44617997
 30
0.0
 11
28476.73207491
 21
-22852.15736409
 31
0.0
  0
LWPOLYLINE
  5
603
100
AcDbEntity
  8
Ech.1_5
 62
   140
  6
CONTINUOUS
370
    18
100
AcDbPolyline
 90
        3
 70
     0
 43
0.0
 10
28474.73207491
 20
-22852.15704842
 10
28474.73208012
 20
-22100.44617997
 10
28474.73208012
 20
-22100.44617997
  0
LWPOLYLINE
  5
604
100
AcDbEntity
  8
Ech.1_5
 62
     0
  6
BYBLOCK
100
AcDbPolyline
 90
        3
 70
     0
 43
0.0
 10
28473.48207724
 20
-22584.31825562
 42
1.0
 10
28475.98207724
 20
-22584.31825562
 42
1.0
 10
28473.48207724
 20
-22584.31825562
  0
LINE
  5
605
100
AcDbEntity
  8
Ech.1_5
 62
     0
  6
BYBLOCK
100
AcDbLine
 10
28472.23207724
 20
-22584.31825562
 30
0.0
 11
28469.73207724
 21
-22584.31825562
 31
0.0
  0
LINE
  5
606
100
AcDbEntity
  8
Ech.1_5
 62
   150
  6
CADWORK_22
370
    35
100
AcDbLine
 10
28475.22811483
 20
-22100.44625817
 30
2500.0
 11
28475.22811483
 21
-22852.15736409
 31
2500.0
  0
LINE
  5
607
100
AcDbEntity
  8
Ech.1_5
 62
   190
  6
CONTINUOUS
370
    -3
100
AcDbLine
 10
29030.39926647
 20
-22766.75468135
 30
0.0
 11
29030.39624194
 21
-22766.75468135
 31
0.0
  0
LWPOLYLINE
  5
608
100
AcDbEntity
  8
Ech.1_5
 62
     7
  6
CONTINUOUS
370
    -3
100
AcDbPolyline
 90
        8
 70
     1
 43
0.0
 10
29312.78931635
 20
-22479.82027245
 10
29348.74501636
 20
-22493.93021247
 10
29330.76766795
 20
-22477.44470931
 10
29330.76715628
 20
-22345.33720988
 10
28903.72811483
 20
-22345.33720988
 10
28903.72811483
 20
-22565.33720988
 10
29330.76684567
 20
-22565.33720988
 10
29330.76766795
 20
-22496.30662653
  0
LWPOLYLINE
  5
609
102
{ACAD_REACTORS
330
60A
102
}
100
AcDbEntity
  8
Ech.1_5
 62
     7
  6
CONTINUOUS
370
    -3
100
AcDbPolyline
 90
        4
 70
     1
 43
0.0
 10
28858.72811483
 20
-22345.33720988
 10
28858.72811483
 20
-22326.33720988
 10
29330.76715628
 20
-22326.33720988
 10
29330.76715628
 20
-22345.33720988
  0
HATCH
  5
60A
100
AcDbEntity
  8
Ech.1_5
 62
   190
  6
CONTINUOUS
100
AcDbHatch
 10
0.0
 20
0.0
 30
0.0
210
0.0
220
0.0
230
1.0
  2
ANSI38
 70
     0
 71
     1
 91
        1
 92
        7
 72
     0
 73
     1
 93
        4
 10
28858.72811483
 20
-22345.33720988
 10
28858.72811483
 20
-22326.33720988
 10
29330.76715628
 20
-22326.33720988
 10
29330.76715628
 20
-22345.33720988
 97
        1
330
609
 75
     0
 76
     2
 52
0.0
 41
1.0
 77
     0
 78
     2
 53
45.0
 43
0.0
 44
0.0
 45
-8.48528171
 46
8.48528171
 79
     2
 49
960.00003815
 49
0.0
 53
135.0
 43
0.0
 44
0.0
 45
-25.45584513
 46
8.48528171
 79
     2
 49
30.00000119
 49
-18.00000072
 47
0.775229
 98
        1
 10
0.0
 20
0.0
  0
LWPOLYLINE
  5
60B
100
AcDbEntity
  8
Ech.1_5
 62
   190
  6
CONTINUOUS
370
    -3
100
AcDbPolyline
 90
        4
 70
     1
 43
0.0
 10
28903.72811483
 20
-22345.33720988
 10
28858.72811483
 20
-22345.33720988
 10
28858.72811483
 20
-22565.33720988
 10
28903.72811483
 20
-22565.33720988
  0
LWPOLYLINE
  5
60C
100
AcDbEntity
  8
Ech.1_5
 62
   190
  6
CONTINUOUS
370
    -3
100
AcDbPolyline
 90
        4
 70
     1
 43
0.0
 10
28858.72811483
 20
-22565.33720988
 10
28903.72811483
 20
-22565.33720988
 10
28903.72811483
 20
-22345.33720988
 10
28858.72811483
 20
-22345.33720988
  0
LWPOLYLINE
  5
60D
100
AcDbEntity
  8
Ech.1_5
 62
     5
  6
CONTINUOUS
370
    -3
100
AcDbPolyline
 90
        5
 70
     0
 43
0.0
 10
28858.72811483
 20
-22345.33720988
 10
28903.72811483
 20
-22345.33720988
 10
28903.72811483
 20
-22565.33720988
 10
28858.72811483
 20
-22565.33720988
 10
28858.72811483
 20
-22345.33720988
  0
LWPOLYLINE
  5
60E
102
{ACAD_REACTORS
330
60F
102
}
100
AcDbEntity
  8
Ech.1_5
 62
   190
  6
CONTINUOUS
370
    -3
100
AcDbPolyline
 90
        4
 70
     1
 43
0.0
 10
29330.76715628
 20
-22326.33720988
 10
29330.76714457
 20
-22312.33720988
 10
28948.84321555
 20
-22312.33720988
 10
28948.84321555
 20
-22326.33720988
  0
HATCH
  5
60F
100
AcDbEntity
  8
Ech.1_5
 62
   190
  6
CONTINUOUS
100
AcDbHatch
 10
0.0
 20
0.0
 30
0.0
210
0.0
220
0.0
230
1.0
  2
ANSI31
 70
     0
 71
     1
 91
        1
 92
        7
 72
     0
 73
     1
 93
        4
 10
29330.76715628
 20
-22326.33720988
 10
29330.76714457
 20
-22312.33720988
 10
28948.84321555
 20
-22312.33720988
 10
28948.84321555
 20
-22326.33720988
 97
        1
330
60E
 75
     0
 76
     2
 52
90.0
 41
3.14962605
 77
     0
 78
     1
 53
-45.0
 43
0.0
 44
0.0
 45
7.07106781
 46
7.07106781
 79
     0
 47
0.775229
 98
        1
 10
0.0
 20
0.0
  0
LWPOLYLINE
  5
610
100
AcDbEntity
  8
Ech.1_5
 62
     9
  6
CONTINUOUS
100
AcDbPolyline
 90
       23
 70
     0
 43
0.0
 10
28439.72811483
 20
-22100.44696294
 10
28439.72811483
 20
-22105.24370976
 10
28439.34751249
 20
-22107.15712758
 10
28433.19258093
 20
-22113.85031147
 10
28431.72811483
 20
-22117.38584538
 10
28431.72811483
 20
-22236.47258969
 10
28432.68843723
 20
-22238.10245915
 10
28437.42455809
 20
-22241.07380887
 10
28437.83655945
 20
-22241.31477757
 10
28438.15037694
 20
-22241.31477757
 10
28438.60149771
 20
-22241.03271599
 10
28438.72811483
 20
-22240.69824238
 10
28438.72811483
 20
-22213.31477757
 10
28445.72811483
 20
-22213.31477757
 10
28445.72811483
 20
-22222.31477757
 10
28451.72811483
 20
-22222.31477757
 10
28451.72811483
 20
-22195.31477757
 10
28447.72811483
 20
-22191.31477757
 10
28451.72811483
 20
-22187.31477757
 10
28451.72811483
 20
-22123.31477757
 10
28447.72811483
 20
-22119.31477757
 10
28451.72811483
 20
-22115.31477757
 10
28451.72811483
 20
-22100.44696294
  0
LWPOLYLINE
  5
611
100
AcDbEntity
  8
Ech.1_5
 62
     9
  6
CONTINUOUS
100
AcDbPolyline
 90
       27
 70
     0
 43
0.0
 10
28438.60149771
 20
-22386.03271599
 10
28438.72811483
 20
-22385.69824238
 10
28438.72811483
 20
-22358.31477757
 10
28445.72811483
 20
-22358.31477757
 10
28445.72811483
 20
-22367.31477757
 10
28451.72811483
 20
-22367.31477757
 10
28451.72811483
 20
-22340.31477757
 10
28447.72811483
 20
-22336.31477757
 10
28451.72811483
 20
-22332.31477757
 10
28451.72811483
 20
-22268.31477757
 10
28447.72811483
 20
-22264.31477757
 10
28451.72811483
 20
-22260.31477757
 10
28451.72811483
 20
-22225.31477757
 10
28444.72811483
 20
-22225.31477757
 10
28444.72811483
 20
-22219.31477757
 10
28442.22811483
 20
-22214.31477757
 10
28439.72811483
 20
-22219.31477757
 10
28439.72811483
 20
-22250.24370976
 10
28439.34751249
 20
-22252.15712758
 10
28433.19258093
 20
-22258.85031147
 10
28431.72811483
 20
-22262.38584538
 10
28431.72811483
 20
-22381.47258969
 10
28432.68843723
 20
-22383.10245915
 10
28437.42455809
 20
-22386.07380887
 10
28437.83655945
 20
-22386.31477757
 10
28438.15037694
 20
-22386.31477757
 10
28438.60149771
 20
-22386.03271599
  0
LWPOLYLINE
  5
612
100
AcDbEntity
  8
Ech.1_5
 62
   190
  6
CONTINUOUS
370
    -3
100
AcDbPolyline
 90
       62
 70
     0
 43
0.0
 10
28509.8947815
 20
-22100.44625817
 42
1.14028181
 10
28516.14958917
 20
-22147.95612853
 10
28600.30664049
 20
-22125.43638781
 42
-1.30322619
 10
28600.30664049
 20
-22172.1227952
 10
28516.14958917
 20
-22149.60305448
 42
1.30322619
 10
28516.14958917
 20
-22196.28946187
 10
28600.30664049
 20
-22173.76972114
 42
-1.30322619
 10
28600.30664049
 20
-22220.45612853
 10
28516.14958917
 20
-22197.93638781
 42
1.30322619
 10
28516.14958917
 20
-22244.6227952
 10
28600.30664049
 20
-22222.10305448
 42
-1.30322619
 10
28600.30664049
 20
-22268.78946187
 10
28516.14958917
 20
-22246.26972114
 42
1.30322619
 10
28516.14958917
 20
-22292.95612853
 10
28600.30664049
 20
-22270.43638781
 42
-1.30322619
 10
28600.30664049
 20
-22317.1227952
 10
28516.14958917
 20
-22294.60305448
 42
1.30322619
 10
28516.14958917
 20
-22341.28946187
 10
28600.30664049
 20
-22318.76972114
 42
-1.30322619
 10
28600.30664049
 20
-22365.45612853
 10
28516.14958917
 20
-22342.93638781
 42
1.30322619
 10
28516.14958917
 20
-22389.6227952
 10
28600.30664049
 20
-22367.10305448
 42
-1.30322619
 10
28600.30664049
 20
-22413.78946187
 10
28516.14958917
 20
-22391.26972114
 42
1.30322619
 10
28516.14958917
 20
-22437.95612853
 10
28600.30664049
 20
-22415.43638781
 42
-1.30322619
 10
28600.30664049
 20
-22462.1227952
 10
28516.14958917
 20
-22439.60305448
 42
1.30322619
 10
28516.14958917
 20
-22486.28946187
 10
28600.30664049
 20
-22463.76972114
 42
-1.30322619
 10
28600.30664049
 20
-22510.45612853
 10
28516.14958917
 20
-22487.93638781
 42
1.30322619
 10
28516.14958917
 20
-22534.6227952
 10
28600.30664049
 20
-22512.10305448
 42
-1.30322619
 10
28600.30664049
 20
-22558.78946187
 10
28516.14958917
 20
-22536.26972114
 42
1.30322619
 10
28516.14958917
 20
-22582.95612853
 10
28600.30664049
 20
-22560.43638781
 42
-1.30322619
 10
28600.30664049
 20
-22607.1227952
 10
28516.14958917
 20
-22584.60305448
 42
1.30322619
 10
28516.14958917
 20
-22631.28946187
 10
28600.30664049
 20
-22608.76972114
 42
-1.30322619
 10
28600.30664049
 20
-22655.45612853
 10
28516.14958917
 20
-22632.93638781
 42
1.30322619
 10
28516.14958917
 20
-22679.6227952
 10
28600.30664049
 20
-22657.10305448
 42
-1.30322619
 10
28600.30664049
 20
-22703.78946187
 10
28516.14958917
 20
-22681.26972114
 42
1.30322619
 10
28516.14958917
 20
-22727.95612853
 10
28600.30664049
 20
-22705.43638781
 42
-1.30322619
 10
28600.30664049
 20
-22752.1227952
 10
28516.14958917
 20
-22729.60305448
 42
1.30322619
 10
28516.14958917
 20
-22776.28946187
 10
28600.30664049
 20
-22753.76972114
 42
-1.30322619
 10
28600.30664049
 20
-22800.45612853
 10
28516.14958917
 20
-22777.93638781
 42
1.30322619
 10
28516.14958917
 20
-22824.6227952
 10
28600.30664049
 20
-22802.10305448
 42
-1.30322619
 10
28600.30664049
 20
-22848.78946187
 10
28516.14958917
 20
-22826.26972114
 42
0.52637243
 10
28485.86246234
 20
-22852.15760823
  0
LWPOLYLINE
  5
613
102
{ACAD_REACTORS
330
614
102
}
100
AcDbEntity
  8
Ech.1_5
 62
   190
  6
CONTINUOUS
370
    -3
100
AcDbPolyline
 90
        4
 70
     1
 43
0.0
 10
28941.72811483
 20
-22670.33712321
 10
28941.72811483
 20
-22683.33712321
 10
29330.76735306
 20
-22683.33712321
 10
29330.76735306
 20
-22670.33712321
  0
HATCH
  5
614
100
AcDbEntity
  8
Ech.1_5
 62
   253
  6
CONTINUOUS
100
AcDbHatch
 10
0.0
 20
0.0
 30
0.0
210
0.0
220
0.0
230
1.0
  2
SOLID
 70
     1
 71
     1
 91
        1
 92
        7
 72
     0
 73
     1
 93
        4
 10
28941.72811483
 20
-22670.33712321
 10
28941.72811483
 20
-22683.33712321
 10
29330.76735306
 20
-22683.33712321
 10
29330.76735306
 20
-22670.33712321
 97
        1
330
613
 75
     0
 76
     2
 47
0.775229
 98
        1
 10
0.0
 20
0.0
  0
LWPOLYLINE
  5
615
102
{ACAD_REACTORS
330
616
102
}
100
AcDbEntity
  8
Ech.1_5
 62
     7
  6
CONTINUOUS
370
    -3
100
AcDbPolyline
 90
        4
 70
     1
 43
0.0
 10
29330.76735306
 20
-22683.33719905
 10
29330.76735306
 20
-22670.33719905
 10
28941.72811483
 20
-22670.33728571
 10
28941.72811483
 20
-22683.33728571
  0
HATCH
  5
616
100
AcDbEntity
  8
Ech.1_5
 62
   190
  6
CONTINUOUS
100
AcDbHatch
 10
0.0
 20
0.0
 30
0.0
210
0.0
220
0.0
230
1.0
  2
DOTS2
 70
     0
 71
     1
 91
        1
 92
        7
 72
     0
 73
     1
 93
        4
 10
29330.76735306
 20
-22683.33719905
 10
29330.76735306
 20
-22670.33719905
 10
28941.72811483
 20
-22670.33728571
 10
28941.72811483
 20
-22683.33728571
 97
        1
330
615
 75
     0
 76
     2
 52
0.0
 41
4.72440952
 77
     0
 78
     1
 53
0.0
 43
0.0
 44
0.0
 45
3.75
 46
3.535
 79
     2
 49
0.0
 49
-3.535
 47
0.775229
 98
        1
 10
0.0
 20
0.0
  0
LWPOLYLINE
  5
617
100
AcDbEntity
  8
Ech.1_5
 62
   190
  6
CONTINUOUS
370
    -3
100
AcDbPolyline
 90
        4
 70
     1
 43
0.0
 10
29330.76684567
 20
-22670.33728571
 10
29330.76684567
 20
-22570.33728571
 10
28928.72811483
 20
-22570.33728571
 10
28928.72811483
 20
-22670.33728571
  0
CIRCLE
  5
618
100
AcDbEntity
  8
Ech.1_5
 62
     7
  6
CONTINUOUS
370
    -3
100
AcDbCircle
 10
29066.37010873
 20
-22624.39814422
 30
0.0
 40
2.51802373
  0
LINE
  5
619
100
AcDbEntity
  8
Ech.1_5
 62
     7
  6
CONTINUOUS
370
    -3
100
AcDbLine
 10
29079.87021059
 20
-22517.65106373
 30
0.0
 11
29079.87008667
 21
-22643.33733038
 31
0.0
  0
CIRCLE
  5
61A
100
AcDbEntity
  8
Ech.1_5
 62
     7
  6
CONTINUOUS
370
    -3
100
AcDbCircle
 10
29066.37016112
 20
-22579.39814422
 30
0.0
 40
2.51802373
  0
ARC
  5
61B
100
AcDbEntity
  8
Ech.1_5
 62
     7
  6
CONTINUOUS
370
    -3
100
AcDbCircle
 10
29047.87008667
 20
-22643.33729312
 30
0.0
 40
5.0
100
AcDbArc
 50
269.99993329
 51
359.99993329
  0
LINE
  5
61C
100
AcDbEntity
  8
Ech.1_5
 62
     7
  6
CONTINUOUS
370
    -3
100
AcDbLine
 10
29047.63996797
 20
-22657.41758922
 30
0.0
 11
29047.6399703
 21
-22655.41758922
 31
0.0
  0
LINE
  5
61D
100
AcDbEntity
  8
Ech.1_5
 62
     7
  6
CONTINUOUS
370
    -3
100
AcDbLine
 10
29043.87008085
 20
-22648.33728846
 30
0.0
 11
29047.87008085
 21
-22648.33729312
 31
0.0
  0
ARC
  5
61E
100
AcDbEntity
  8
Ech.1_5
 62
     7
  6
CONTINUOUS
370
    -3
100
AcDbCircle
 10
29057.63636656
 20
-22642.83281008
 30
0.0
 40
14.82598747
100
AcDbArc
 50
201.79410437
 51
238.13509164
  0
ARC
  5
61F
100
AcDbEntity
  8
Ech.1_5
 62
     7
  6
CONTINUOUS
370
    -3
100
AcDbCircle
 10
29056.18085237
 20
-22656.30760008
 30
0.0
 40
12.47697948
100
AcDbArc
 50
189.36217724
 51
254.61211432
  0
LINE
  5
620
100
AcDbEntity
  8
Ech.1_5
 62
     7
  6
CONTINUOUS
370
    -3
100
AcDbLine
 10
29047.63996797
 20
-22657.41758922
 30
0.0
 11
29043.50955403
 21
-22657.41758441
 31
0.0
  0
LINE
  5
621
100
AcDbEntity
  8
Ech.1_5
 62
     7
  6
CONTINUOUS
370
    -3
100
AcDbLine
 10
29043.50955403
 20
-22657.41758441
 30
0.0
 11
29043.50954132
 21
-22668.33728804
 31
0.0
  0
LINE
  5
622
100
AcDbEntity
  8
Ech.1_5
 62
     7
  6
CONTINUOUS
370
    -3
100
AcDbLine
 10
29047.6399703
 20
-22655.41758922
 30
0.0
 11
29041.50955636
 21
-22655.41758208
 31
0.0
  0
LINE
  5
623
100
AcDbEntity
  8
Ech.1_5
 62
     7
  6
CONTINUOUS
370
    -3
100
AcDbLine
 10
29041.50955636
 20
-22655.41758208
 30
0.0
 11
29041.50953899
 21
-22670.33728571
 31
0.0
  0
CIRCLE
  5
624
100
AcDbEntity
  8
Ech.1_5
 62
     7
  6
CONTINUOUS
370
    -3
100
AcDbCircle
 10
29066.37012619
 20
-22609.39814422
 30
0.0
 40
2.51802373
  0
CIRCLE
  5
625
100
AcDbEntity
  8
Ech.1_5
 62
     7
  6
CONTINUOUS
370
    -3
100
AcDbCircle
 10
29066.37009126
 20
-22639.39814422
 30
0.0
 40
2.51802373
  0
CIRCLE
  5
626
100
AcDbEntity
  8
Ech.1_5
 62
     7
  6
CONTINUOUS
370
    -3
100
AcDbCircle
 10
29066.37014366
 20
-22594.39814422
 30
0.0
 40
2.51802373
  0
ARC
  5
627
100
AcDbEntity
  8
Ech.1_5
 62
     7
  6
CONTINUOUS
370
    -3
100
AcDbCircle
 10
29075.10380796
 20
-22642.83283042
 30
0.0
 40
14.82598747
100
AcDbArc
 50
301.86477493
 51
338.20576221
  0
ARC
  5
628
100
AcDbEntity
  8
Ech.1_5
 62
     7
  6
CONTINUOUS
370
    -3
100
AcDbCircle
 10
29086.72846481
 20
-22655.19242592
 30
0.0
 40
3.80485997
100
AcDbArc
 50
183.49669989
 51
304.25383409
  0
ARC
  5
629
100
AcDbEntity
  8
Ech.1_5
 62
     7
  6
CONTINUOUS
370
    -3
100
AcDbCircle
 10
29076.55929077
 20
-22656.30762381
 30
0.0
 40
12.47697948
100
AcDbArc
 50
285.38775225
 51
350.63768933
  0
LINE
  5
62A
100
AcDbEntity
  8
Ech.1_5
 62
     7
  6
CONTINUOUS
370
    -3
100
AcDbLine
 10
29088.87008085
 20
-22648.33734086
 30
0.0
 11
29084.87008085
 21
-22648.3373362
 31
0.0
  0
ARC
  5
62B
100
AcDbEntity
  8
Ech.1_5
 62
     7
  6
CONTINUOUS
370
    -3
100
AcDbCircle
 10
29084.87008667
 20
-22643.3373362
 30
0.0
 40
5.0
100
AcDbArc
 50
179.99993329
 51
269.99993328
  0
LINE
  5
62C
100
AcDbEntity
  8
Ech.1_5
 62
     7
  6
CONTINUOUS
370
    -3
100
AcDbLine
 10
29085.10017259
 20
-22657.41763284
 30
0.0
 11
29085.10017491
 21
-22655.41763284
 31
0.0
  0
LINE
  5
62D
100
AcDbEntity
  8
Ech.1_5
 62
     7
  6
CONTINUOUS
370
    -3
100
AcDbLine
 10
29085.10017259
 20
-22657.41763284
 30
0.0
 11
29089.23058652
 21
-22657.41763765
 31
0.0
  0
LINE
  5
62E
100
AcDbEntity
  8
Ech.1_5
 62
     7
  6
CONTINUOUS
370
    -3
100
AcDbLine
 10
29089.23058652
 20
-22657.41763765
 30
0.0
 11
29089.23057381
 21
-22668.33734128
 31
0.0
  0
LINE
  5
62F
100
AcDbEntity
  8
Ech.1_5
 62
     7
  6
CONTINUOUS
370
    -3
100
AcDbLine
 10
29085.10017491
 20
-22655.41763284
 30
0.0
 11
29091.23058885
 21
-22655.41763998
 31
0.0
  0
LINE
  5
630
100
AcDbEntity
  8
Ech.1_5
 62
     7
  6
CONTINUOUS
370
    -3
100
AcDbLine
 10
29091.23058885
 20
-22655.41763998
 30
0.0
 11
29091.23057148
 21
-22670.33734361
 31
0.0
  0
CIRCLE
  5
631
100
AcDbEntity
  8
Ech.1_5
 62
     7
  6
CONTINUOUS
370
    -3
100
AcDbCircle
 10
29066.37017859
 20
-22564.39814422
 30
0.0
 40
2.51802373
  0
LINE
  5
632
100
AcDbEntity
  8
Ech.1_5
 62
     7
  6
CONTINUOUS
370
    -3
100
AcDbLine
 10
29052.87021059
 20
-22517.6510323
 30
0.0
 11
29052.87008667
 21
-22643.33729894
 31
0.0
  0
CIRCLE
  5
633
100
AcDbEntity
  8
Ech.1_5
 62
     7
  6
CONTINUOUS
370
    -3
100
AcDbCircle
 10
29066.37019605
 20
-22549.39814422
 30
0.0
 40
2.51802373
  0
LINE
  5
634
100
AcDbEntity
  8
Ech.1_5
 62
     7
  6
CONTINUOUS
370
    -3
100
AcDbLine
 10
29052.87021059
 20
-22517.6510323
 30
0.0
 11
29079.87021059
 21
-22517.65106373
 31
0.0
  0
LINE
  5
635
100
AcDbEntity
  8
Ech.1_5
 62
     7
  6
CONTINUOUS
370
    -3
100
AcDbLine
 10
29089.23057381
 20
-22668.33734128
 30
0.0
 11
29043.50954132
 21
-22668.33728804
 31
0.0
  0
LINE
  5
636
100
AcDbEntity
  8
Ech.1_5
 62
     7
  6
CONTINUOUS
370
    -3
100
AcDbLine
 10
29041.50953899
 20
-22670.33728571
 30
0.0
 11
29091.23057148
 21
-22670.33734361
 31
0.0
  0
ARC
  5
637
100
AcDbEntity
  8
Ech.1_5
 62
     7
  6
CONTINUOUS
370
    -3
100
AcDbCircle
 10
29046.01168093
 20
-22655.19237851
 30
0.0
 40
3.80485997
100
AcDbArc
 50
235.74603248
 51
356.50316668
  0
LINE
  5
638
100
AcDbEntity
  8
Ech.1_5
 62
     7
  6
CONTINUOUS
370
    -3
100
AcDbLine
 10
29064.47779683
 20
-22529.18840031
 30
0.0
 11
29064.47779683
 21
-22529.18840031
 31
0.0
  0
CIRCLE
  5
639
100
AcDbEntity
  8
Ech.1_5
 62
     7
  6
CONTINUOUS
370
    -3
100
AcDbCircle
 10
29066.37019605
 20
-22534.48973279
 30
0.0
 40
2.51802373
  0
LWPOLYLINE
  5
63A
100
AcDbEntity
  8
Ech.1_5
 62
   190
  6
CONTINUOUS
370
    -3
100
AcDbPolyline
 90
        6
 70
     0
 43
0.0
 10
29330.76669952
 20
-22266.33728571
 10
29330.76817534
 20
-22477.44478515
 10
29348.74552375
 20
-22493.9302883
 10
29312.78982374
 20
-22479.82034828
 10
29330.76817534
 20
-22496.30670237
 10
29330.76735306
 20
-22703.33719905
  0
LWPOLYLINE
  5
63B
100
AcDbEntity
  8
Ech.1_5
 62
   190
  6
CONTINUOUS
370
    -3
100
AcDbPolyline
 90
       48
 70
     0
 43
0.0
 10
29330.76684567
 20
-22577.00311342
 42
0.82526442
 10
29301.33542013
 20
-22591.31757875
 10
29316.86625057
 20
-22649.35683017
 42
-1.30322619
 10
29284.66878055
 20
-22649.35683017
 10
29300.19961098
 20
-22591.31757875
 42
1.30322619
 10
29268.00214097
 20
-22591.31757875
 10
29283.5329714
 20
-22649.35683017
 42
-1.30322619
 10
29251.33550138
 20
-22649.35683017
 10
29266.86633182
 20
-22591.31757875
 42
1.30322619
 10
29234.6688618
 20
-22591.31757875
 10
29250.19969223
 20
-22649.35683017
 42
-1.30322619
 10
29218.00222222
 20
-22649.35683017
 10
29233.53305265
 20
-22591.31757875
 42
1.30322619
 10
29201.33558263
 20
-22591.31757875
 10
29216.86641307
 20
-22649.35683017
 42
-1.30322619
 10
29184.66894305
 20
-22649.35683017
 10
29200.19977348
 20
-22591.31757875
 42
1.30322619
 10
29168.00230347
 20
-22591.31757875
 10
29183.5331339
 20
-22649.35683017
 42
-1.30322619
 10
29151.33566389
 20
-22649.35683017
 10
29166.86649432
 20
-22591.31757875
 42
1.30322619
 10
29134.6690243
 20
-22591.31757875
 10
29150.19985474
 20
-22649.35683017
 42
-1.30322619
 10
29118.00238472
 20
-22649.35683017
 10
29133.53321515
 20
-22591.31757875
 42
1.30322619
 10
29101.33574514
 20
-22591.31757875
 10
29116.86657557
 20
-22649.35683017
 42
-1.30322619
 10
29084.66910555
 20
-22649.35683017
 10
29100.19993599
 20
-22591.31757875
 42
1.30322619
 10
29068.00246597
 20
-22591.31757875
 10
29083.5332964
 20
-22649.35683017
 42
-1.30322619
 10
29051.33582639
 20
-22649.35683017
 10
29066.86665682
 20
-22591.31757875
 42
1.30322619
 10
29034.6691868
 20
-22591.31757875
 10
29050.20001724
 20
-22649.35683017
 42
-1.30322619
 10
29018.00254722
 20
-22649.35683017
 10
29033.53337765
 20
-22591.31757875
 42
1.30322619
 10
29001.33590764
 20
-22591.31757875
 10
29016.86673807
 20
-22649.35683017
 42
-1.30322619
 10
28984.66926805
 20
-22649.35683017
 10
29000.20009849
 20
-22591.31757875
 42
1.30322619
 10
28968.00262847
 20
-22591.31757875
 10
28983.5334589
 20
-22649.35683017
 42
-1.30322619
 10
28951.33598889
 20
-22649.35683017
 10
28966.86681932
 20
-22591.31757875
 42
1.30322619
 10
28934.6693493
 20
-22591.31757875
 10
28950.20017974
 20
-22649.35683017
 42
-0.59972206
 10
28928.72811483
 20
-22669.44718166
  0
LWPOLYLINE
  5
63C
100
AcDbEntity
  8
Ech.1_5
 62
   190
  6
CONTINUOUS
370
    -3
100
AcDbPolyline
 90
        3
 70
     0
 43
0.0
 10
29330.76684567
 20
-22670.00026191
 42
-0.43201822
 10
29318.00205972
 20
-22649.35683017
 10
29330.76684567
 20
-22601.65438281
  0
LWPOLYLINE
  5
63D
100
AcDbEntity
  8
Ech.1_5
 62
   190
  6
CONTINUOUS
370
    -3
100
AcDbPolyline
 90
        5
 70
     0
 43
0.0
 10
28366.58561439
 20
-23306.08488211
 10
29351.58561439
 20
-23306.08488211
 10
29351.58561439
 20
-21951.08488211
 10
28366.58561439
 20
-21951.08488211
 10
28366.58561439
 20
-23306.08488211
  0
LWPOLYLINE
  5
63E
100
AcDbEntity
  8
Ech.1_5
 62
   254
  6
CONTINUOUS
370
    -3
100
AcDbPolyline
 90
        4
 70
     1
 43
0.0
 10
28878.72811483
 20
-22852.15706273
 10
28928.72811483
 20
-22852.15706273
 10
28928.72811483
 20
-22565.33720988
 10
28878.72811483
 20
-22565.33720988
  0
LWPOLYLINE
  5
63F
102
{ACAD_REACTORS
330
640
102
}
100
AcDbEntity
  8
Ech.1_5
 62
     9
  6
CONTINUOUS
370
    -3
100
AcDbPolyline
 90
        9
 70
     1
 43
0.0
 10
28939.54215054
 20
-22638.27895602
 10
28938.24169562
 20
-22633.81078972
 10
28937.00968526
 20
-22644.16522344
 10
28934.2034417
 20
-22633.81078972
 10
28932.15009246
 20
-22641.29053531
 10
28928.72811483
 20
-22633.81078972
 10
28928.72811483
 20
-22852.15706273
 10
28941.72811483
 20
-22852.15706273
 10
28941.72811483
 20
-22633.81078972
  0
HATCH
  5
640
100
AcDbEntity
  8
Ech.1_5
 62
     9
  6
CONTINUOUS
100
AcDbHatch
 10
0.0
 20
0.0
 30
0.0
210
0.0
220
0.0
230
1.0
  2
DOTS2
 70
     0
 71
     1
 91
        1
 92
        7
 72
     0
 73
     1
 93
        9
 10
28939.54215054
 20
-22638.27895602
 10
28938.24169562
 20
-22633.81078972
 10
28937.00968526
 20
-22644.16522344
 10
28934.2034417
 20
-22633.81078972
 10
28932.15009246
 20
-22641.29053531
 10
28928.72811483
 20
-22633.81078972
 10
28928.72811483
 20
-22852.15706273
 10
28941.72811483
 20
-22852.15706273
 10
28941.72811483
 20
-22633.81078972
 97
        1
330
63F
 75
     0
 76
     2
 52
0.0
 41
4.72440952
 77
     0
 78
     1
 53
0.0
 43
0.0
 44
0.0
 45
3.75
 46
3.535
 79
     2
 49
0.0
 49
-3.535
 47
0.775229
 98
        1
 10
0.0
 20
0.0
  0
LINE
  5
641
100
AcDbEntity
  8
Ech.1_5
 62
   190
  6
CADWORK_13
370
    -3
100
AcDbLine
 10
29015.72811483
 20
-22565.33720988
 30
0.0
 11
28903.72811483
 21
-22565.33720988
 31
0.0
  0
LINE
  5
642
100
AcDbEntity
  8
Ech.1_5
 62
   190
  6
CADWORK_13
370
    -3
100
AcDbLine
 10
28903.72811483
 20
-22568.53720988
 30
0.0
 11
29015.72811483
 21
-22568.53720988
 31
0.0
  0
LINE
  5
643
100
AcDbEntity
  8
Ech.1_5
 62
   190
  6
CADWORK_13
370
    -3
100
AcDbLine
 10
28903.72811483
 20
-22413.33720988
 30
0.0
 11
28903.72811483
 21
-22568.53720988
 31
0.0
  0
LINE
  5
644
100
AcDbEntity
  8
Ech.1_5
 62
   190
  6
CADWORK_13
370
    -3
100
AcDbLine
 10
28900.52811483
 20
-22565.33720988
 30
0.0
 11
28903.72811483
 21
-22565.33720988
 31
0.0
  0
LINE
  5
645
100
AcDbEntity
  8
Ech.1_5
 62
   190
  6
CADWORK_13
370
    -3
100
AcDbLine
 10
28900.52811483
 20
-22413.33720988
 30
0.0
 11
28900.52811483
 21
-22565.33720988
 31
0.0
  0
LWPOLYLINE
  5
646
100
AcDbEntity
  8
Ech.1_5
 62
   190
  6
CADWORK_13
370
    -3
100
AcDbPolyline
 90
        3
 70
     0
 43
0.0
 10
28950.12811483
 20
-22529.33720988
 42
1.0
 10
28950.12811483
 20
-22521.33720988
 42
1.0
 10
28950.12811483
 20
-22529.33720988
  0
LWPOLYLINE
  5
647
100
AcDbEntity
  8
Ech.1_5
 62
   190
  6
CADWORK_13
370
    -3
100
AcDbPolyline
 90
        3
 70
     0
 43
0.0
 10
28950.12811483
 20
-22497.33720988
 42
1.0
 10
28950.12811483
 20
-22489.33720988
 42
1.0
 10
28950.12811483
 20
-22497.33720988
  0
LWPOLYLINE
  5
648
100
AcDbEntity
  8
Ech.1_5
 62
   190
  6
CADWORK_13
370
    -3
100
AcDbPolyline
 90
        3
 70
     0
 43
0.0
 10
28950.12811483
 20
-22465.33720988
 42
1.0
 10
28950.12811483
 20
-22457.33720988
 42
1.0
 10
28950.12811483
 20
-22465.33720988
  0
LWPOLYLINE
  5
649
100
AcDbEntity
  8
Ech.1_5
 62
   190
  6
CADWORK_13
370
    -3
100
AcDbPolyline
 90
        3
 70
     0
 43
0.0
 10
28950.12811483
 20
-22433.33720988
 42
1.0
 10
28950.12811483
 20
-22425.33720988
 42
1.0
 10
28950.12811483
 20
-22433.33720988
  0
LINE
  5
64A
100
AcDbEntity
  8
Ech.1_5
 62
   190
  6
CADWORK_13
370
    -3
100
AcDbLine
 10
29015.72811483
 20
-22560.53720988
 30
0.0
 11
29015.72811483
 21
-22568.53720988
 31
0.0
  0
LINE
  5
64B
100
AcDbEntity
  8
Ech.1_5
 62
   190
  6
CADWORK_13
370
    -3
100
AcDbLine
 10
28961.32811483
 20
-22413.33720988
 30
0.0
 11
28961.32811483
 21
-22506.13720988
 31
0.0
  0
LINE
  5
64C
100
AcDbEntity
  8
Ech.1_5
 62
   190
  6
CADWORK_13
370
    -3
100
AcDbLine
 10
28900.52811483
 20
-22413.33720988
 30
0.0
 11
28961.32811483
 21
-22413.33720988
 31
0.0
  0
LINE
  5
64D
100
AcDbEntity
  8
Ech.1_5
 62
   190
  6
CADWORK_13
370
    -3
100
AcDbLine
 10
28961.32811483
 20
-22506.13720988
 30
0.0
 11
29015.72811483
 21
-22560.53720988
 31
0.0
  0
LWPOLYLINE
  5
64E
100
AcDbEntity
  8
Ech.1_5
 62
     9
  6
CONTINUOUS
370
    -3
100
AcDbPolyline
 90
       68
 70
     0
 43
0.0
 10
28887.06144817
 20
-22565.33720988
 42
1.14028181
 10
28889.2182784
 20
-22581.7199238
 10
28918.23795127
 20
-22573.95449596
 42
-1.30322619
 10
28918.23795127
 20
-22590.05325713
 10
28889.2182784
 20
-22582.2878293
 42
1.30322619
 10
28889.2182784
 20
-22598.38659046
 10
28918.23795127
 20
-22590.62116263
 42
-1.30322619
 10
28918.23795127
 20
-22606.7199238
 10
28889.2182784
 20
-22598.95449596
 42
1.30322619
 10
28889.2182784
 20
-22615.05325713
 10
28918.23795127
 20
-22607.2878293
 42
-1.30322619
 10
28918.23795127
 20
-22623.38659046
 10
28889.2182784
 20
-22615.62116263
 42
1.30322619
 10
28889.2182784
 20
-22631.7199238
 10
28918.23795127
 20
-22623.95449596
 42
-1.30322619
 10
28918.23795127
 20
-22640.05325713
 10
28889.2182784
 20
-22632.2878293
 42
1.30322619
 10
28889.2182784
 20
-22648.38659046
 10
28918.23795127
 20
-22640.62116263
 42
-1.30322619
 10
28918.23795127
 20
-22656.7199238
 10
28889.2182784
 20
-22648.95449596
 42
1.30322619
 10
28889.2182784
 20
-22665.05325713
 10
28918.23795127
 20
-22657.2878293
 42
-1.30322619
 10
28918.23795127
 20
-22673.38659046
 10
28889.2182784
 20
-22665.62116263
 42
1.30322619
 10
28889.2182784
 20
-22681.7199238
 10
28918.23795127
 20
-22673.95449596
 42
-1.30322619
 10
28918.23795127
 20
-22690.05325713
 10
28889.2182784
 20
-22682.2878293
 42
1.30322619
 10
28889.2182784
 20
-22698.38659046
 10
28918.23795127
 20
-22690.62116263
 42
-1.30322619
 10
28918.23795127
 20
-22706.7199238
 10
28889.2182784
 20
-22698.95449596
 42
1.30322619
 10
28889.2182784
 20
-22715.05325713
 10
28918.23795127
 20
-22707.2878293
 42
-1.30322619
 10
28918.23795127
 20
-22723.38659046
 10
28889.2182784
 20
-22715.62116263
 42
1.30322619
 10
28889.2182784
 20
-22731.7199238
 10
28918.23795127
 20
-22723.95449596
 42
-1.30322619
 10
28918.23795127
 20
-22740.05325713
 10
28889.2182784
 20
-22732.2878293
 42
1.30322619
 10
28889.2182784
 20
-22748.38659046
 10
28918.23795127
 20
-22740.62116263
 42
-1.30322619
 10
28918.23795127
 20
-22756.7199238
 10
28889.2182784
 20
-22748.95449596
 42
1.30322619
 10
28889.2182784
 20
-22765.05325713
 10
28918.23795127
 20
-22757.2878293
 42
-1.30322619
 10
28918.23795127
 20
-22773.38659046
 10
28889.2182784
 20
-22765.62116263
 42
1.30322619
 10
28889.2182784
 20
-22781.7199238
 10
28918.23795127
 20
-22773.95449596
 42
-1.30322619
 10
28918.23795127
 20
-22790.05325713
 10
28889.2182784
 20
-22782.2878293
 42
1.30322619
 10
28889.2182784
 20
-22798.38659046
 10
28918.23795127
 20
-22790.62116263
 42
-1.30322619
 10
28918.23795127
 20
-22806.7199238
 10
28889.2182784
 20
-22798.95449596
 42
1.30322619
 10
28889.2182784
 20
-22815.05325713
 10
28918.23795127
 20
-22807.2878293
 42
-1.30322619
 10
28918.23795127
 20
-22823.38659046
 10
28889.2182784
 20
-22815.62116263
 42
1.30322619
 10
28889.2182784
 20
-22831.7199238
 10
28918.23795127
 20
-22823.95449596
 42
-1.30322619
 10
28918.23795127
 20
-22840.05325713
 10
28889.2182784
 20
-22832.2878293
 42
1.30322619
 10
28889.2182784
 20
-22848.38659046
 10
28918.23795127
 20
-22840.62116263
 42
-0.63543079
 10
28927.96370653
 20
-22852.15706273
  0
LWPOLYLINE
  5
64F
100
AcDbEntity
  8
Ech.1_5
 62
   190
  6
CONTINUOUS
100
AcDbPolyline
 90
        6
 70
     0
 43
0.0
 10
28941.72953002
 20
-22246.67236727
 10
28944.72811482
 20
-22246.67243594
 42
-0.41421356
 10
28954.72811482
 20
-22256.67243594
 10
28954.72811482
 20
-22312.33720988
 10
28941.72811483
 20
-22312.33721179
 10
28941.72811483
 20
-22246.6724388
  0
LWPOLYLINE
  5
650
100
AcDbEntity
  8
Ech.1_5
 62
   254
  6
CONTINUOUS
370
    -3
100
AcDbPolyline
 90
        4
 70
     1
 43
0.0
 10
28928.72811483
 20
-22100.44565831
 10
28878.72811483
 20
-22100.44565831
 10
28878.72811483
 20
-22326.33720988
 10
28928.72811483
 20
-22326.33720988
  0
LWPOLYLINE
  5
651
102
{ACAD_REACTORS
330
652
102
}
100
AcDbEntity
  8
Ech.1_5
 62
     9
  6
CONTINUOUS
370
    -3
100
AcDbPolyline
 90
        9
 70
     1
 43
0.0
 10
28939.54215054
 20
-22279.92161433
 10
28941.72811483
 20
-22284.38978063
 10
28941.72811483
 20
-22100.44565831
 10
28928.72811483
 20
-22100.44565831
 10
28928.72811483
 20
-22284.38978063
 10
28932.15009246
 20
-22276.91003503
 10
28934.2034417
 20
-22284.38978063
 10
28937.00968526
 20
-22274.03534691
 10
28938.24169562
 20
-22284.38978063
  0
HATCH
  5
652
100
AcDbEntity
  8
Ech.1_5
 62
     9
  6
CONTINUOUS
100
AcDbHatch
 10
0.0
 20
0.0
 30
0.0
210
0.0
220
0.0
230
1.0
  2
DOTS2
 70
     0
 71
     1
 91
        1
 92
        7
 72
     0
 73
     1
 93
        9
 10
28939.54215054
 20
-22279.92161433
 10
28941.72811483
 20
-22284.38978063
 10
28941.72811483
 20
-22100.44565831
 10
28928.72811483
 20
-22100.44565831
 10
28928.72811483
 20
-22284.38978063
 10
28932.15009246
 20
-22276.91003503
 10
28934.2034417
 20
-22284.38978063
 10
28937.00968526
 20
-22274.03534691
 10
28938.24169562
 20
-22284.38978063
 97
        1
330
651
 75
     0
 76
     2
 52
0.0
 41
4.72440952
 77
     0
 78
     1
 53
0.0
 43
0.0
 44
0.0
 45
3.75
 46
3.535
 79
     2
 49
0.0
 49
-3.535
 47
0.775229
 98
        1
 10
0.0
 20
0.0
  0
LWPOLYLINE
  5
653
100
AcDbEntity
  8
Ech.1_5
 62
     9
  6
CONTINUOUS
370
    -3
100
AcDbPolyline
 90
       54
 70
     0
 43
0.0
 10
28887.06144817
 20
-22100.44565831
 42
1.14028181
 10
28889.2182784
 20
-22116.82837223
 10
28918.23795127
 20
-22109.06294439
 42
-1.30322619
 10
28918.23795127
 20
-22125.16170556
 10
28889.2182784
 20
-22117.39627773
 42
1.30322619
 10
28889.2182784
 20
-22133.4950389
 10
28918.23795127
 20
-22125.72961106
 42
-1.30322619
 10
28918.23795127
 20
-22141.82837223
 10
28889.2182784
 20
-22134.06294439
 42
1.30322619
 10
28889.2182784
 20
-22150.16170556
 10
28918.23795127
 20
-22142.39627773
 42
-1.30322619
 10
28918.23795127
 20
-22158.4950389
 10
28889.2182784
 20
-22150.72961106
 42
1.30322619
 10
28889.2182784
 20
-22166.82837223
 10
28918.23795127
 20
-22159.06294439
 42
-1.30322619
 10
28918.23795127
 20
-22175.16170556
 10
28889.2182784
 20
-22167.39627773
 42
1.30322619
 10
28889.2182784
 20
-22183.4950389
 10
28918.23795127
 20
-22175.72961106
 42
-1.30322619
 10
28918.23795127
 20
-22191.82837223
 10
28889.2182784
 20
-22184.06294439
 42
1.30322619
 10
28889.2182784
 20
-22200.16170556
 10
28918.23795127
 20
-22192.39627773
 42
-1.30322619
 10
28918.23795127
 20
-22208.4950389
 10
28889.2182784
 20
-22200.72961106
 42
1.30322619
 10
28889.2182784
 20
-22216.82837223
 10
28918.23795127
 20
-22209.06294439
 42
-1.30322619
 10
28918.23795127
 20
-22225.16170556
 10
28889.2182784
 20
-22217.39627773
 42
1.30322619
 10
28889.2182784
 20
-22233.4950389
 10
28918.23795127
 20
-22225.72961106
 42
-1.30322619
 10
28918.23795127
 20
-22241.82837223
 10
28889.2182784
 20
-22234.06294439
 42
1.30322619
 10
28889.2182784
 20
-22250.16170556
 10
28918.23795127
 20
-22242.39627773
 42
-1.30322619
 10
28918.23795127
 20
-22258.4950389
 10
28889.2182784
 20
-22250.72961106
 42
1.30322619
 10
28889.2182784
 20
-22266.82837223
 10
28918.23795127
 20
-22259.06294439
 42
-1.30322619
 10
28918.23795127
 20
-22275.16170556
 10
28889.2182784
 20
-22267.39627773
 42
1.30322619
 10
28889.2182784
 20
-22283.4950389
 10
28918.23795127
 20
-22275.72961106
 42
-1.30322619
 10
28918.23795127
 20
-22291.82837223
 10
28889.2182784
 20
-22284.06294439
 42
1.30322619
 10
28889.2182784
 20
-22300.16170556
 10
28918.23795127
 20
-22292.39627773
 42
-1.30322619
 10
28918.23795127
 20
-22308.4950389
 10
28889.2182784
 20
-22300.72961106
 42
1.30322619
 10
28889.2182784
 20
-22316.82837223
 10
28918.23795127
 20
-22309.06294439
 42
-1.30322619
 10
28918.23795127
 20
-22325.16170556
 10
28889.2182784
 20
-22317.39627773
 42
0.52691484
 10
28878.77594394
 20
-22326.33720988
  0
LWPOLYLINE
  5
654
100
AcDbEntity
  8
Ech.1_5
 62
   190
100
AcDbPolyline
 90
        5
 70
     0
 43
0.0
 10
29171.80858336
 20
-21990.72003468
 10
29306.23736235
 20
-21990.72003468
 10
29306.23736235
 20
-22047.44299349
 10
29171.80858336
 20
-22047.44299349
 10
29171.80858336
 20
-21990.72003468
  0
HATCH
  5
655
100
AcDbEntity
  8
Ech.1_5
 62
   190
100
AcDbHatch
 10
0.0
 20
0.0
 30
0.0
210
0.0
220
0.0
230
1.0
  2
SOLID
 70
     1
 71
     0
 91
        1
 92
        7
 72
     0
 73
     1
 93
        4
 10
29190.08862914
 20
-22024.37684581
 10
29240.08862914
 20
-22024.37684581
 10
29240.08862914
 20
-22016.96170828
 10
29190.08862914
 20
-22016.96170828
 97
        0
 75
     0
 76
     2
 47
0.775229
 98
        1
 10
0.0
 20
0.0
  0
LWPOLYLINE
  5
656
100
AcDbEntity
  8
Ech.1_5
 62
   190
100
AcDbPolyline
 90
        5
 70
     0
 43
0.0
 10
29190.08862914
 20
-22024.37684581
 10
29240.08862914
 20
-22024.37684581
 10
29240.08862914
 20
-22016.96170828
 10
29190.08862914
 20
-22016.96170828
 10
29190.08862914
 20
-22024.37684581
  0
LWPOLYLINE
  5
657
100
AcDbEntity
  8
Ech.1_5
 62
   190
100
AcDbPolyline
 90
        5
 70
     0
 43
0.0
 10
29240.08862914
 20
-22024.37684581
 10
29290.08862914
 20
-22024.37684581
 10
29290.08862914
 20
-22016.96170828
 10
29240.08862914
 20
-22016.96170828
 10
29240.08862914
 20
-22024.37684581
  0
LWPOLYLINE
  5
658
100
AcDbEntity
  8
Ech.1_5
 62
   190
  6
CONTINUOUS
370
    -3
100
AcDbPolyline
 90
        4
 70
     1
 43
0.0
 10
28941.72811483
 20
-22286.33720988
 10
28878.72811483
 20
-22286.33720988
 10
28878.72811483
 20
-22326.33720988
 10
28941.72811483
 20
-22326.33720988
  0
LWPOLYLINE
  5
659
100
AcDbEntity
  8
Ech.1_5
 62
   190
  6
CONTINUOUS
370
    -3
100
AcDbPolyline
 90
        4
 70
     1
 43
0.0
 10
28878.72811483
 20
-22326.33720988
 10
28941.72811483
 20
-22326.33720988
 10
28941.72811483
 20
-22286.33720988
 10
28878.72811483
 20
-22286.33720988
  0
LWPOLYLINE
  5
65A
100
AcDbEntity
  8
Ech.1_5
 62
     5
  6
CONTINUOUS
370
    -3
100
AcDbPolyline
 90
        5
 70
     0
 43
0.0
 10
28878.72811483
 20
-22286.33720988
 10
28941.72811483
 20
-22286.33720988
 10
28941.72811483
 20
-22326.33720988
 10
28878.72811483
 20
-22326.33720988
 10
28878.72811483
 20
-22286.33720988
  0
LWPOLYLINE
  5
65B
100
AcDbEntity
  8
Ech.1_5
 62
   190
  6
CONTINUOUS
370
    -3
100
AcDbPolyline
 90
        4
 70
     1
 43
0.0
 10
28941.72811483
 20
-22565.33720988
 10
28878.72811483
 20
-22565.33720988
 10
28878.72811483
 20
-22605.33720988
 10
28941.72811483
 20
-22605.33720988
  0
LWPOLYLINE
  5
65C
100
AcDbEntity
  8
Ech.1_5
 62
   190
  6
CONTINUOUS
370
    -3
100
AcDbPolyline
 90
        4
 70
     1
 43
0.0
 10
28878.72811483
 20
-22605.33720988
 10
28941.72811483
 20
-22605.33720988
 10
28941.72811483
 20
-22565.33720988
 10
28878.72811483
 20
-22565.33720988
  0
LWPOLYLINE
  5
65D
100
AcDbEntity
  8
Ech.1_5
 62
     5
  6
CONTINUOUS
370
    -3
100
AcDbPolyline
 90
        5
 70
     0
 43
0.0
 10
28878.72811483
 20
-22565.33720988
 10
28941.72811483
 20
-22565.33720988
 10
28941.72811483
 20
-22605.33720988
 10
28878.72811483
 20
-22605.33720988
 10
28878.72811483
 20
-22565.33720988
  0
LWPOLYLINE
  5
65E
100
AcDbEntity
  8
Ech.1_5
 62
   190
  6
CONTINUOUS
370
    -3
100
AcDbPolyline
 90
        6
 70
     0
 43
0.0
 10
28419.82353781
 20
-22852.15762539
 10
28592.40929526
 20
-22852.15706273
 10
28608.89479841
 20
-22834.1797144
 10
28594.7848584
 20
-22870.13541432
 10
28611.27121248
 20
-22852.15706273
 10
28961.4583807
 20
-22852.15706273
  0
LWPOLYLINE
  5
65F
100
AcDbEntity
  8
Ech.1_5
 62
   190
  6
CONTINUOUS
370
    -3
100
AcDbPolyline
 90
        6
 70
     0
 43
0.0
 10
28419.82353781
 20
-22100.44696294
 10
28541.8235378
 20
-22100.44565831
 10
28558.30904096
 20
-22082.46830998
 10
28544.19910094
 20
-22118.4240099
 10
28560.68545502
 20
-22100.44565831
 10
28971.48137825
 20
-22100.44565831
  0
TEXT
  5
660
100
AcDbEntity
  8
Ech.1_5
 62
   190
100
AcDbText
 10
29201.38292177
 20
-22007.3757052
 30
0.0
 40
8.00000012
  1
Echelle en mm
  7
ARIAL
 50
0.0
 41
1.0
 51
0.0
100
AcDbText
  0
TEXT
  5
661
100
AcDbEntity
  8
Ech.1_5
 62
   190
100
AcDbText
 10
29187.40233702
 20
-22035.58554073
 30
0.0
 40
8.00000012
  1
0
  7
ARIAL
 50
0.0
 41
1.0
 51
0.0
100
AcDbText
  0
TEXT
  5
662
100
AcDbEntity
  8
Ech.1_5
 62
   190
100
AcDbText
 10
29273.99939491
 20
-22035.58554073
 30
0.0
 40
8.00000012
  1
100
  7
ARIAL
 50
0.0
 41
1.0
 51
0.0
100
AcDbText
  0
TEXT
  5
663
100
AcDbEntity
  8
Ech.1_5
 62
   190
100
AcDbText
 10
29235.25896335
 20
-22035.58554073
 30
0.0
 40
8.00000012
  1
50
  7
ARIAL
 50
0.0
 41
1.0
 51
0.0
100
AcDbText
  0
INSERT
  5
664
100
AcDbEntity
  8
Ech.1_5
 62
     0
370
    -3
100
AcDbBlockReference
  2
*D66
 10
0.0
 20
0.0
 30
0.0
  0
INSERT
  5
665
100
AcDbEntity
  8
Ech.1_5
 62
     0
370
    -3
100
AcDbBlockReference
  2
*D67
 10
0.0
 20
0.0
 30
0.0
  0
ENDSEC
  0
SECTION
  2
OBJECTS
  0
DICTIONARY
  5
1
100
AcDbDictionary
  3
ACAD_GROUP
350
2
  3
ACAD_MLINESTYLE
350
3
  0
DICTIONARY
  5
2
102
{CDWK_REACTORS
330
1
102
}
100
AcDbDictionary
  0
DICTIONARY
  5
3
102
{CDWK_REACTORS
330
1
102
}
100
AcDbDictionary
  3
STANDARD
350
4
  0
MLINESTYLE
  5
4
102
{CDWK_REACTORS
330
3
102
}
100
AcDbMlineStyle
  2
STANDARD
 70
     0
  3

 62
     0
 51
90.0
 52
90.0
 71
     2
 49
0.5
 62
   256
  6
BYLAYER
 49
-0.5
 62
   256
  6
BYLAYER
  0
ENDSEC
  0
EOF
