  0
SECTION
  2
HEADER
  9
$ACADVER
  1
AC1014
  9
$DWGCODEPAGE
  3
ANSI_1252
  9
$INSBASE
 10
0.0
 20
0.0
 30
0.0
  9
$EXTMIN
 10
51951.25731673
 20
-31590.87399296
  9
$EXTMAX
 10
52936.25731673
 20
-30235.87399296
  9
$LIMMIN
 10
51951.25731673
 20
-31590.87399296
  9
$LIMMAX
 10
52936.25731673
 20
-30235.87399296
  9
$ORTHOMODE
 70
     0
  9
$REGENMODE
 70
     1
  9
$FILLMODE
 70
     1
  9
$QTEXTMODE
 70
     0
  9
$MIRRTEXT
 70
     1
  9
$DRAGMODE
 70
     2
  9
$LTSCALE
 40
5.0
  9
$OSMODE
 70
     0
  9
$ATTMODE
 70
     1
  9
$TEXTSIZE
 40
3.5
  9
$TRACEWID
 40
1.0
  9
$TEXTSTYLE
  7
STANDARD
  9
$CLAYER
  8
0
  9
$CELTYPE
  6
BYLAYER
  9
$CECOLOR
 62
   256
  9
$DIMSCALE
 40
1.0
  9
$DIMASZ
 40
4.0
  9
$DIMEXO
 40
5.0
  9
$DIMDLI
 40
10.0
  9
$DIMRND
 40
0.0
  9
$DIMDLE
 40
2.0
  9
$DIMEXE
 40
2.0
  9
$DIMTP
 40
0.0
  9
$DIMTM
 40
0.0
  9
$DIMTXT
 40
2.0
  9
$DIMCEN
 40
1.5
  9
$DIMTSZ
 40
0.0
  9
$DIMTOL
 70
     0
  9
$DIMLIM
 70
     0
  9
$DIMTIH
 70
     1
  9
$DIMTOH
 70
     0
  9
$DIMSE1
 70
     0
  9
$DIMSE2
 70
     0
  9
$DIMTAD
 70
     1
  9
$DIMZIN
 70
     8
  9
$DIMBLK
  1

  9
$DIMASO
 70
     1
  9
$DIMSHO
 70
     1
  9
$DIMPOST
  1

  9
$DIMAPOST
  1

  9
$DIMALT
 70
     0
  9
$DIMALTD
 70
     2
  9
$DIMALTF
 40
25.4
  9
$DIMLFAC
 40
1.0
  9
$DIMTOFL
 70
     0
  9
$DIMTVP
 40
0.0
  9
$DIMTIX
 70
     0
  9
$DIMSOXD
 70
     0
  9
$DIMSAH
 70
     0
  9
$DIMBLK1
  1

  9
$DIMBLK2
  1

  9
$DIMSTYLE
  2
*UNNAMED
  9
$DIMCLRD
 70
     9
  9
$DIMCLRE
 70
     9
  9
$DIMCLRT
 70
     7
  9
$DIMTFAC
 40
1.0
  9
$DIMGAP
 40
0.09
  9
$DIMUNIT
 70
     2
  9
$LUNITS
 70
     2
  9
$LUPREC
 70
     6
  9
$AXISMODE
 70
     0
  9
$AXISUNIT
 10
0.0
 20
0.0
  9
$SKETCHINC
 40
0.1
  9
$FILLETRAD
 40
0.0
  9
$AUNITS
 70
     0
  9
$AUPREC
 70
     0
  9
$MENU
  1
ACAD
  9
$ELEVATION
 40
0.0
  9
$PELEVATION
 40
0.0
  9
$THICKNESS
 40
0.0
  9
$LIMCHECK
 70
     0
  9
$BLIPMODE
 70
     1
  9
$CHAMFERA
 40
0.0
  9
$CHAMFERB
 40
0.0
  9
$SKPOLY
 70
     1
  9
$TDCREATE
 40
2456497.0000000000
  9
$TDUPDATE
 40
2456497.0000000000
  9
$TDINDWG
 40
0.0
  9
$TDUSRTIMER
 40
0.0
  9
$USRTIMER
 70
     1
  9
$ANGBASE
 50
0.0
  9
$ANGDIR
 70
     0
  9
$PDMODE
 70
     0
  9
$PDSIZE
 40
0.0
  9
$PLINEWID
 40
0.0
  9
$COORDS
 70
     2
  9
$SPLFRAME
 70
     0
  9
$SPLINETYPE
 70
     6
  9
$SPLINESEGS
 70
     8
  9
$ATTDIA
 70
     1
  9
$ATTREQ
 70
     1
  9
$HANDLING
 70
     1
  9
$HANDSEED
  5
     456
  9
$SURFTAB1
 70
     6
  9
$SURFTAB2
 70
     6
  9
$SURFTYPE
 70
     6
  9
$SURFU
 70
     6
  9
$SURFV
 70
     6
  9
$UCSNAME
  2

  9
$UCSORG
 10
0.0
 20
0.0
 30
0.0
  9
$UCSXDIR
 10
1.0
 20
0.0
 30
0.0
  9
$UCSYDIR
 10
0.0
 20
1.0
 30
0.0
  9
$PUCSNAME
  2

  9
$PUCSORG
 10
0.0
 20
0.0
 30
0.0
  9
$PUCSXDIR
 10
1.0
 20
0.0
 30
0.0
  9
$PUCSYDIR
 10
0.0
 20
1.0
 30
0.0
  9
$USERI1
 70
     0
  9
$USERI2
 70
     0
  9
$USERI3
 70
     0
  9
$USERI4
 70
     0
  9
$USERI5
 70
     0
  9
$USERR1
 40
0.0
  9
$USERR2
 40
0.0
  9
$USERR3
 40
0.0
  9
$USERR4
 40
0.0
  9
$USERR5
 40
0.0
  9
$WORLDVIEW
 70
     1
  9
$SHADEDGE
 70
     3
  9
$SHADEDIF
 70
    70
  9
$TILEMODE
 70
     1
  9
$MAXACTVP
 70
    16
  9
$PINSBASE
 10
0.0
 20
0.0
 30
0.0
  9
$PLIMCHECK
 70
     0
  9
$PEXTMIN
 10
1.0000000000000E+20
 20
1.0000000000000E+20
 30
1.0000000000000E+20
  9
$PEXTMAX
 10
-1.0000000000000E+20
 20
-1.0000000000000E+20
 30
-1.0000000000000E+20
  9
$PLIMMIN
 10
0.0
 20
0.0
  9
$UNITMODE
 70
     0
  9
$VISRETAIN
 70
     0
  9
$MEASUREMENT
 70
     1
  0
ENDSEC
  0
SECTION
  2
TABLES
  0
TABLE
  2
VPORT
  5
13F
100
AcDbSymbolTable
 70
     1
  0
ENDTAB
  0
TABLE
  2
STYLE
  5
140
100
AcDbSymbolTable
 70
     3
  0
STYLE
  5
141
100
AcDbSymbolTableRecord
100
AcDbTextStyleTableRecord
  2
STANDARD
 70
     0
 40
0.0
 41
1.0
 50
0.0
 71
     0
 42
3.5
  3
MONOTXT
  4

  0
STYLE
  5
142
100
AcDbSymbolTableRecord
100
AcDbTextStyleTableRecord
  2
CADWORK1
 70
     0
 40
0.0
 41
1.0
 50
0.0
 71
     0
 42
3.5
  3
MONOTXT
  4

  0
STYLE
  5
143
100
AcDbSymbolTableRecord
100
AcDbTextStyleTableRecord
  2
MONOTXT
 70
     0
 40
0.0
 41
1.0
 50
0.0
 71
     0
 42
3.5
  3
MONOTXT
  4

  0
STYLE
  5
144
100
AcDbSymbolTableRecord
100
AcDbTextStyleTableRecord
  2
ARIAL
 70
     0
 40
0.0
 41
1.0
 50
0.0
 71
     0
 42
3.5
  3

  4

1001
ACAD
1000
Arial
1071
        0
  0
ENDTAB
  0
TABLE
  2
LTYPE
  5
145
100
AcDbSymbolTable
 70
    17
  0
LTYPE
  5
146
100
AcDbSymbolTableRecord
100
AcDbLinetypeTableRecord
  2
BYBLOCK
 70
    64
  3

 72
    65
 73
     0
 40
0.0
  0
LTYPE
  5
147
100
AcDbSymbolTableRecord
100
AcDbLinetypeTableRecord
  2
BYLAYER
 70
    64
  3

 72
    65
 73
     0
 40
0.0
  0
LTYPE
  5
148
100
AcDbSymbolTableRecord
100
AcDbLinetypeTableRecord
  2
CONTINUOUS
 70
    64
  3
Solid line
 72
    65
 73
     0
 40
0.0
  0
LTYPE
  5
149
100
AcDbSymbolTableRecord
100
AcDbLinetypeTableRecord
  2
DOT
 70
    64
  3
. . . . . . . . . . . . . . . . . . . . . . . .
 72
    65
 73
     2
 40
2.5
 49
0.0
 74
     0
 49
-2.5
 74
     0
  0
LTYPE
  5
14A
100
AcDbSymbolTableRecord
100
AcDbLinetypeTableRecord
  2
HIDDEN
 70
    64
  3
__ __ __ __ __ __ __ __ __ __ __ __ __ __ __ __
 72
    65
 73
     2
 40
1.875
 49
1.25
 74
     0
 49
-0.625
 74
     0
  0
LTYPE
  5
14B
100
AcDbSymbolTableRecord
100
AcDbLinetypeTableRecord
  2
DASHDOT
 70
    64
  3
 __ . __ . __ . __ . __ . __ . __ . __ . __ . __
 72
    65
 73
     4
 40
10.0
 49
5.0
 74
     0
 49
-2.5
 74
     0
 49
0.0
 74
     0
 49
-2.5
 74
     0
  0
LTYPE
  5
14C
100
AcDbSymbolTableRecord
100
AcDbLinetypeTableRecord
  2
CENTER
 70
    64
  3
 ____ _ ____ _ ____ _ ____ _ ____ _ ____ _ ____
 72
    65
 73
     4
 40
20.0
 49
12.5
 74
     0
 49
-2.5
 74
     0
 49
2.5
 74
     0
 49
-2.5
 74
     0
  0
LTYPE
  5
14D
100
AcDbSymbolTableRecord
100
AcDbLinetypeTableRecord
  2
DASHEDX2
 70
    64
  3
____  ____  ____  ____  ____  ____  ____  ____
 72
    65
 73
     2
 40
3.75
 49
2.5
 74
     0
 49
-1.25
 74
     0
  0
LTYPE
  5
14E
100
AcDbSymbolTableRecord
100
AcDbLinetypeTableRecord
  2
CADWORK_19
 70
    64
  3
19 =======================================
 72
    65
 73
     0
 40
0.0
  0
LTYPE
  5
14F
100
AcDbSymbolTableRecord
100
AcDbLinetypeTableRecord
  2
CADWORK_22
 70
    64
  3
22 =======================================
 72
    65
 73
     0
 40
0.0
  0
LTYPE
  5
150
100
AcDbSymbolTableRecord
100
AcDbLinetypeTableRecord
  2
DAL
 70
    64
  3
Solid line (for MAPS)
 72
    65
 73
     0
 40
0.0
  0
LTYPE
  5
151
100
AcDbSymbolTableRecord
100
AcDbLinetypeTableRecord
  2
MUR
 70
    64
  3
Solid line (for MAPS)
 72
    65
 73
     0
 40
0.0
  0
LTYPE
  5
152
100
AcDbSymbolTableRecord
100
AcDbLinetypeTableRecord
  2
SOM
 70
    64
  3
Solid line (for MAPS)
 72
    65
 73
     0
 40
0.0
  0
LTYPE
  5
153
100
AcDbSymbolTableRecord
100
AcDbLinetypeTableRecord
  2
COL
 70
    64
  3
Solid line (for MAPS)
 72
    65
 73
     0
 40
0.0
  0
LTYPE
  5
154
100
AcDbSymbolTableRecord
100
AcDbLinetypeTableRecord
  2
LGN
 70
    64
  3
Solid line (for MAPS)
 72
    65
 73
     0
 40
0.0
  0
LTYPE
  5
155
100
AcDbSymbolTableRecord
100
AcDbLinetypeTableRecord
  2
PNT
 70
    64
  3
Solid line (for MAPS)
 72
    65
 73
     0
 40
0.0
  0
ENDTAB
  0
TABLE
  2
LAYER
  5
156
100
AcDbSymbolTable
 70
    33
  0
LAYER
  5
157
100
AcDbSymbolTableRecord
100
AcDbLayerTableRecord
  2
Standard
 70
     0
 62
     7
  6
CONTINUOUS
370
    -3
  0
LAYER
  5
158
100
AcDbSymbolTableRecord
100
AcDbLayerTableRecord
  2
Ech.1_1
 70
     0
 62
     7
  6
CONTINUOUS
370
    -3
  0
LAYER
  5
159
100
AcDbSymbolTableRecord
100
AcDbLayerTableRecord
  2
Ech.1_2
 70
     0
 62
     7
  6
CONTINUOUS
370
    -3
  0
LAYER
  5
15A
100
AcDbSymbolTableRecord
100
AcDbLayerTableRecord
  2
Ech.1_5
 70
     0
 62
     7
  6
CONTINUOUS
370
    -3
  0
LAYER
  5
15B
100
AcDbSymbolTableRecord
100
AcDbLayerTableRecord
  2
Ech.1_10
 70
     0
 62
     7
  6
CONTINUOUS
370
    -3
  0
LAYER
  5
15C
100
AcDbSymbolTableRecord
100
AcDbLayerTableRecord
  2
Ech.1_20
 70
     0
 62
     7
  6
CONTINUOUS
370
    -3
  0
LAYER
  5
15D
100
AcDbSymbolTableRecord
100
AcDbLayerTableRecord
  2
Ech.1_25
 70
     0
 62
     7
  6
CONTINUOUS
370
    -3
  0
LAYER
  5
15E
100
AcDbSymbolTableRecord
100
AcDbLayerTableRecord
  2
Ech.1_33
 70
     0
 62
     7
  6
CONTINUOUS
370
    -3
  0
LAYER
  5
15F
100
AcDbSymbolTableRecord
100
AcDbLayerTableRecord
  2
Ech.1_50
 70
     0
 62
     7
  6
CONTINUOUS
370
    -3
  0
LAYER
  5
160
100
AcDbSymbolTableRecord
100
AcDbLayerTableRecord
  2
Ech.1_75
 70
     0
 62
     7
  6
CONTINUOUS
370
    -3
  0
LAYER
  5
161
100
AcDbSymbolTableRecord
100
AcDbLayerTableRecord
  2
Ech.1_100
 70
     0
 62
     7
  6
CONTINUOUS
370
    -3
  0
LAYER
  5
162
100
AcDbSymbolTableRecord
100
AcDbLayerTableRecord
  2
Ech.1_200
 70
     0
 62
     7
  6
CONTINUOUS
370
    -3
  0
LAYER
  5
163
100
AcDbSymbolTableRecord
100
AcDbLayerTableRecord
  2
Ech.1_500
 70
     0
 62
     7
  6
CONTINUOUS
370
    -3
  0
LAYER
  5
164
100
AcDbSymbolTableRecord
100
AcDbLayerTableRecord
  2
Ech.1_1000
 70
     0
 62
     7
  6
CONTINUOUS
370
    -3
  0
LAYER
  5
165
100
AcDbSymbolTableRecord
100
AcDbLayerTableRecord
  2
%%%VP_001
 70
     0
 62
     7
  6
CONTINUOUS
370
    18
  0
LAYER
  5
166
100
AcDbSymbolTableRecord
100
AcDbLayerTableRecord
  2
Cadres traceur
 70
     0
 62
     7
  6
CONTINUOUS
370
    18
  0
LAYER
  5
167
100
AcDbSymbolTableRecord
100
AcDbLayerTableRecord
  2
Cadres laser
 70
     0
 62
     7
  6
CONTINUOUS
370
    18
  0
LAYER
  5
168
100
AcDbSymbolTableRecord
100
AcDbLayerTableRecord
  2
Légende d_aide
 70
     0
 62
     7
  6
CONTINUOUS
370
    18
  0
LAYER
  5
169
100
AcDbSymbolTableRecord
100
AcDbLayerTableRecord
  2
hachures ok
 70
     0
 62
     7
  6
CONTINUOUS
370
    18
  0
LAYER
  5
16A
100
AcDbSymbolTableRecord
100
AcDbLayerTableRecord
  2
ossature bois
 70
     0
 62
     7
  6
CONTINUOUS
370
    18
  0
LAYER
  5
16B
100
AcDbSymbolTableRecord
100
AcDbLayerTableRecord
  2
VR
 70
     0
 62
     7
  6
CONTINUOUS
370
    25
  0
LAYER
  5
16C
100
AcDbSymbolTableRecord
100
AcDbLayerTableRecord
  2
Calque1
 70
     0
 62
     7
  6
CONTINUOUS
370
     9
  0
LAYER
  5
16D
100
AcDbSymbolTableRecord
100
AcDbLayerTableRecord
  2
0
 70
     0
 62
     7
  6
CONTINUOUS
370
    -3
  0
LAYER
  5
16E
100
AcDbSymbolTableRecord
100
AcDbLayerTableRecord
  2
menuiserie
 70
     0
 62
     7
  6
CONTINUOUS
370
    -3
  0
LAYER
  5
16F
100
AcDbSymbolTableRecord
100
AcDbLayerTableRecord
  2
cotation
 70
     0
 62
   250
  6
CONTINUOUS
370
     9
  0
LAYER
  5
170
100
AcDbSymbolTableRecord
100
AcDbLayerTableRecord
  2
Defpoints
 70
     0
 62
    10
  6
CONTINUOUS
370
    -3
  0
LAYER
  5
171
100
AcDbSymbolTableRecord
100
AcDbLayerTableRecord
  2
HACHURE
 70
     0
 62
   254
  6
CONTINUOUS
370
    25
  0
LAYER
  5
172
100
AcDbSymbolTableRecord
100
AcDbLayerTableRecord
  2
mat1
 70
     0
 62
     7
  6
CONTINUOUS
370
    30
  0
LAYER
  5
173
100
AcDbSymbolTableRecord
100
AcDbLayerTableRecord
  2
mat2
 70
     0
 62
     7
  6
CONTINUOUS
370
     5
  0
LAYER
  5
174
100
AcDbSymbolTableRecord
100
AcDbLayerTableRecord
  2
hach
 70
     0
 62
     8
  6
CONTINUOUS
370
     5
  0
LAYER
  5
175
100
AcDbSymbolTableRecord
100
AcDbLayerTableRecord
  2
menuiseries
 70
     0
 62
     7
  6
CONTINUOUS
370
     9
  0
LAYER
  5
176
100
AcDbSymbolTableRecord
100
AcDbLayerTableRecord
  2
BétonMétal
 70
     0
 62
     7
  6
CONTINUOUS
370
    80
  0
LAYER
  5
177
100
AcDbSymbolTableRecord
100
AcDbLayerTableRecord
  2
bois
 70
     0
 62
     7
  6
CONTINUOUS
370
    60
  0
ENDTAB
  0
TABLE
  2
VIEW
  5
178
100
AcDbSymbolTable
 70
     0
  0
ENDTAB
  0
TABLE
  2
UCS
  5
179
100
AcDbSymbolTable
 70
     0
  0
ENDTAB
  0
TABLE
  2
APPID
  5
17A
100
AcDbSymbolTable
 70
     1
  0
APPID
  5
17B
100
AcDbSymbolTableRecord
100
AcDbRegAppTableRecord
  2
ACAD
 70
     0
  0
ENDTAB
  0
TABLE
  2
DIMSTYLE
  5
17C
100
AcDbSymbolTable
 70
     0
  0
ENDTAB
  0
TABLE
  2
BLOCK_RECORD
  5
17D
100
AcDbSymbolTable
 70
     0
  0
BLOCK_RECORD
  5
17E
100
AcDbSymbolTableRecord
100
AcDbBlockTableRecord
  2
*MODEL_SPACE
  0
BLOCK_RECORD
  5
17F
100
AcDbSymbolTableRecord
100
AcDbBlockTableRecord
  2
*PAPER_SPACE
  0
BLOCK_RECORD
  5
180
100
AcDbSymbolTableRecord
100
AcDbBlockTableRecord
  2
CDWK_EXTR_0
  0
BLOCK_RECORD
  5
181
100
AcDbSymbolTableRecord
100
AcDbBlockTableRecord
  2
CDWK_EXTR_1D
  0
BLOCK_RECORD
  5
182
100
AcDbSymbolTableRecord
100
AcDbBlockTableRecord
  2
CDWK_EXTR_1G
  0
BLOCK_RECORD
  5
183
100
AcDbSymbolTableRecord
100
AcDbBlockTableRecord
  2
CDWK_EXTR_2
  0
BLOCK_RECORD
  5
184
100
AcDbSymbolTableRecord
100
AcDbBlockTableRecord
  2
CDWK_EXTR_3
  0
BLOCK_RECORD
  5
185
100
AcDbSymbolTableRecord
100
AcDbBlockTableRecord
  2
CDWK_EXTR_4
  0
BLOCK_RECORD
  5
186
100
AcDbSymbolTableRecord
100
AcDbBlockTableRecord
  2
CDWK_PTTYP0
  0
BLOCK_RECORD
  5
187
100
AcDbSymbolTableRecord
100
AcDbBlockTableRecord
  2
CDWK_PTTYP1
  0
BLOCK_RECORD
  5
188
100
AcDbSymbolTableRecord
100
AcDbBlockTableRecord
  2
CDWK_PTTYP2
  0
BLOCK_RECORD
  5
189
100
AcDbSymbolTableRecord
100
AcDbBlockTableRecord
  2
CDWK_PTTYP3
  0
BLOCK_RECORD
  5
18A
100
AcDbSymbolTableRecord
100
AcDbBlockTableRecord
  2
CDWK_PTTYP4
  0
BLOCK_RECORD
  5
18B
100
AcDbSymbolTableRecord
100
AcDbBlockTableRecord
  2
CDWK_PTTYP5
  0
BLOCK_RECORD
  5
18C
100
AcDbSymbolTableRecord
100
AcDbBlockTableRecord
  2
CDWK_PTTYP6
  0
BLOCK_RECORD
  5
18D
100
AcDbSymbolTableRecord
100
AcDbBlockTableRecord
  2
CDWK_PTTYP7
  0
BLOCK_RECORD
  5
18E
100
AcDbSymbolTableRecord
100
AcDbBlockTableRecord
  2
CDWK_PTTYP8
  0
BLOCK_RECORD
  5
18F
100
AcDbSymbolTableRecord
100
AcDbBlockTableRecord
  2
CDWK_PTTYP9
  0
BLOCK_RECORD
  5
190
100
AcDbSymbolTableRecord
100
AcDbBlockTableRecord
  2
CDWK_PTTYP10
  0
BLOCK_RECORD
  5
191
100
AcDbSymbolTableRecord
100
AcDbBlockTableRecord
  2
CDWK_PTTYP11
  0
BLOCK_RECORD
  5
192
100
AcDbSymbolTableRecord
100
AcDbBlockTableRecord
  2
CDWK_PTTYP12
  0
BLOCK_RECORD
  5
193
100
AcDbSymbolTableRecord
100
AcDbBlockTableRecord
  2
CDWK_PTTYP13
  0
BLOCK_RECORD
  5
194
100
AcDbSymbolTableRecord
100
AcDbBlockTableRecord
  2
CDWK_PTTYP14
  0
BLOCK_RECORD
  5
195
100
AcDbSymbolTableRecord
100
AcDbBlockTableRecord
  2
CDWK_PTTYP15
  0
BLOCK_RECORD
  5
196
100
AcDbSymbolTableRecord
100
AcDbBlockTableRecord
  2
CDWK_PTTYP16
  0
BLOCK_RECORD
  5
197
100
AcDbSymbolTableRecord
100
AcDbBlockTableRecord
  2
CDWK_PTTYP17
  0
BLOCK_RECORD
  5
198
100
AcDbSymbolTableRecord
100
AcDbBlockTableRecord
  2
CDWK_PTTYP18
  0
BLOCK_RECORD
  5
199
100
AcDbSymbolTableRecord
100
AcDbBlockTableRecord
  2
CDWK_PTTYP19
  0
BLOCK_RECORD
  5
19A
100
AcDbSymbolTableRecord
100
AcDbBlockTableRecord
  2
CDWK_PTTYP20
  0
BLOCK_RECORD
  5
19B
100
AcDbSymbolTableRecord
100
AcDbBlockTableRecord
  2
CDWK_PTTYP21
  0
BLOCK_RECORD
  5
19C
100
AcDbSymbolTableRecord
100
AcDbBlockTableRecord
  2
CDWK_PTTYP22
  0
BLOCK_RECORD
  5
19D
100
AcDbSymbolTableRecord
100
AcDbBlockTableRecord
  2
CDWK_PTTYP23
  0
BLOCK_RECORD
  5
19E
100
AcDbSymbolTableRecord
100
AcDbBlockTableRecord
  2
CDWK_PTTYP24
  0
BLOCK_RECORD
  5
19F
100
AcDbSymbolTableRecord
100
AcDbBlockTableRecord
  2
CDWK_PTTYP25
  0
BLOCK_RECORD
  5
1A0
100
AcDbSymbolTableRecord
100
AcDbBlockTableRecord
  2
CDWK_PTTYP26
  0
BLOCK_RECORD
  5
1A1
100
AcDbSymbolTableRecord
100
AcDbBlockTableRecord
  2
CDWK_PTTYP27
  0
BLOCK_RECORD
  5
1A2
100
AcDbSymbolTableRecord
100
AcDbBlockTableRecord
  2
CDWK_PTTYP28
  0
BLOCK_RECORD
  5
1A3
100
AcDbSymbolTableRecord
100
AcDbBlockTableRecord
  2
CDWK_PTTYP29
  0
BLOCK_RECORD
  5
1A4
100
AcDbSymbolTableRecord
100
AcDbBlockTableRecord
  2
CDWK_PTTYP30
  0
BLOCK_RECORD
  5
1A5
100
AcDbSymbolTableRecord
100
AcDbBlockTableRecord
  2
CDWK_PTTYP31
  0
BLOCK_RECORD
  5
1A6
100
AcDbSymbolTableRecord
100
AcDbBlockTableRecord
  2
CDWK_PTTYP32
  0
BLOCK_RECORD
  5
1A7
100
AcDbSymbolTableRecord
100
AcDbBlockTableRecord
  2
CDWK_PTTYP33
  0
BLOCK_RECORD
  5
1A8
100
AcDbSymbolTableRecord
100
AcDbBlockTableRecord
  2
CDWK_PTTYP34
  0
BLOCK_RECORD
  5
1A9
100
AcDbSymbolTableRecord
100
AcDbBlockTableRecord
  2
CDWK_PTTYP35
  0
BLOCK_RECORD
  5
1AA
100
AcDbSymbolTableRecord
100
AcDbBlockTableRecord
  2
CDWK_PTTYP36
  0
BLOCK_RECORD
  5
1AB
100
AcDbSymbolTableRecord
100
AcDbBlockTableRecord
  2
CDWK_PTTYP37
  0
BLOCK_RECORD
  5
1AC
100
AcDbSymbolTableRecord
100
AcDbBlockTableRecord
  2
CDWK_PTTYP38
  0
BLOCK_RECORD
  5
1AD
100
AcDbSymbolTableRecord
100
AcDbBlockTableRecord
  2
A$C42653196
  0
BLOCK_RECORD
  5
1AE
100
AcDbSymbolTableRecord
100
AcDbBlockTableRecord
  2
A$C3F0A7B51
  0
BLOCK_RECORD
  5
1AF
100
AcDbSymbolTableRecord
100
AcDbBlockTableRecord
  2
PROFIL_L
  0
BLOCK_RECORD
  5
1B0
100
AcDbSymbolTableRecord
100
AcDbBlockTableRecord
  2
A$C4DC86443
  0
ENDTAB
  0
ENDSEC
  0
SECTION
  2
BLOCKS
  0
BLOCK
  5
1B1
100
AcDbEntity
  8
0
100
AcDbBlockBegin
  2
*MODEL_SPACE
 70
     0
 10
0.0
 20
0.0
 30
0.0
  3
*MODEL_SPACE
  1

  0
ENDBLK
  5
1B2
100
AcDbEntity
100
AcDbBlockEnd
  0
BLOCK
  5
1B3
100
AcDbEntity
  8
0
100
AcDbBlockBegin
  2
*PAPER_SPACE
 70
     0
 10
0.0
 20
0.0
 30
0.0
  3
*PAPER_SPACE
  1

  0
ENDBLK
  5
1B4
100
AcDbEntity
100
AcDbBlockEnd
  0
BLOCK
  5
1B5
100
AcDbEntity
  8
0
100
AcDbBlockBegin
  2
CDWK_EXTR_0
 70
     0
 10
0.0
 20
0.0
 30
0.0
  3
CDWK_EXTR_0
  1

  4
Cadwork line-extremity
  0
LINE
  5
1B6
100
AcDbEntity
  8
0
 62
     0
370
    -2
100
AcDbLine
 10
0.0
 20
0.0
 30
0.0
 11
2.0
 21
0.5
 31
0.0
  0
LINE
  5
1B7
100
AcDbEntity
  8
0
 62
     0
370
    -2
100
AcDbLine
 10
0.0
 20
0.0
 30
0.0
 11
2.0
 21
-0.5
 31
0.0
  0
LINE
  5
1B8
100
AcDbEntity
  8
0
 62
     0
370
    -2
100
AcDbLine
 10
2.0
 20
0.5
 30
0.0
 11
2.0
 21
-0.5
 31
0.0
  0
ENDBLK
  5
1B9
100
AcDbEntity
100
AcDbBlockEnd
  0
BLOCK
  5
1BA
100
AcDbEntity
  8
0
100
AcDbBlockBegin
  2
CDWK_EXTR_1D
 70
     0
 10
0.0
 20
0.0
 30
0.0
  3
CDWK_EXTR_1D
  1

  4
Cadwork line-extremity
  0
LINE
  5
1BB
100
AcDbEntity
  8
0
 62
     0
370
    -2
100
AcDbLine
 10
0.0
 20
0.0
 30
0.0
 11
0.0
 21
1.0
 31
0.0
  0
LINE
  5
1BC
100
AcDbEntity
  8
0
 62
     0
370
    -2
100
AcDbLine
 10
0.0
 20
1.0
 30
0.0
 11
0.5
 21
1.5
 31
0.0
  0
LINE
  5
1BD
100
AcDbEntity
  8
0
 62
     0
370
    -2
100
AcDbLine
 10
0.5
 20
1.5
 30
0.0
 11
1.5
 21
1.5
 31
0.0
  0
ENDBLK
  5
1BE
100
AcDbEntity
100
AcDbBlockEnd
  0
BLOCK
  5
1BF
100
AcDbEntity
  8
0
100
AcDbBlockBegin
  2
CDWK_EXTR_1G
 70
     0
 10
0.0
 20
0.0
 30
0.0
  3
CDWK_EXTR_1G
  1

  4
Cadwork line-extremity
  0
LINE
  5
1C0
100
AcDbEntity
  8
0
 62
     0
370
    -2
100
AcDbLine
 10
0.0
 20
0.0
 30
0.0
 11
0.0
 21
-1.0
 31
0.0
  0
LINE
  5
1C1
100
AcDbEntity
  8
0
 62
     0
370
    -2
100
AcDbLine
 10
0.0
 20
-1.0
 30
0.0
 11
0.5
 21
-1.5
 31
0.0
  0
LINE
  5
1C2
100
AcDbEntity
  8
0
 62
     0
370
    -2
100
AcDbLine
 10
0.5
 20
-1.5
 30
0.0
 11
1.5
 21
-1.5
 31
0.0
  0
ENDBLK
  5
1C3
100
AcDbEntity
100
AcDbBlockEnd
  0
BLOCK
  5
1C4
100
AcDbEntity
  8
0
100
AcDbBlockBegin
  2
CDWK_EXTR_2
 70
     0
 10
0.0
 20
0.0
 30
0.0
  3
CDWK_EXTR_2
  1

  4
Cadwork line-extremity
  0
SOLID
  5
1C5
100
AcDbEntity
  8
0
 62
     0
100
AcDbTrace
 10
0.0
 20
0.0
 11
2.0
 21
0.5
 12
2.0
 22
-0.5
 13
2.0
 23
-0.5
  0
ENDBLK
  5
1C6
100
AcDbEntity
100
AcDbBlockEnd
  0
BLOCK
  5
1C7
100
AcDbEntity
  8
0
100
AcDbBlockBegin
  2
CDWK_EXTR_3
 70
     0
 10
0.0
 20
0.0
 30
0.0
  3
CDWK_EXTR_3
  1

  4
Cadwork line-extremity
  0
SOLID
  5
1C8
100
AcDbEntity
  8
0
 62
     0
100
AcDbTrace
 10
0.0
 20
0.0
 11
2.0
 21
0.5
 12
2.0
 22
-0.5
 13
2.0
 23
-0.5
  0
LINE
  5
1C9
100
AcDbEntity
  8
0
 62
     0
370
    -2
100
AcDbLine
 10
0.0
 20
1.0
 30
0.0
 11
0.0
 21
-1.0
 31
0.0
  0
ENDBLK
  5
1CA
100
AcDbEntity
100
AcDbBlockEnd
  0
BLOCK
  5
1CB
100
AcDbEntity
  8
0
100
AcDbBlockBegin
  2
CDWK_EXTR_4
 70
     0
 10
0.0
 20
0.0
 30
0.0
  3
CDWK_EXTR_4
  1

  4
Cadwork line-extremity
  0
HATCH
  5
1CC
100
AcDbEntity
  8
0
 62
     0
370
    20
100
AcDbHatch
 10
0.0
 20
0.0
 30
0.0
210
0.0
220
0.0
230
1.0
  2
SOLID
 70
     1
 71
     0
 91
        1
 92
        1
 93
        1
 72
     2
 10
0.0
 20
0.0
 40
0.5
 50
0.0
 51
360.0
 73
     1
 97
        0
 75
     0
 76
     1
 98
        1
 10
0.0
 20
0.0
  0
ENDBLK
  5
1CD
100
AcDbEntity
100
AcDbBlockEnd
  0
BLOCK
  5
1CE
100
AcDbEntity
  8
0
100
AcDbBlockBegin
  2
CDWK_PTTYP0
 70
     0
 10
0.0
 20
0.0
 30
0.0
  3
CDWK_PTTYP0
  1

  4
Cadwork point
  0
POINT
  5
1CF
100
AcDbEntity
  8
0
 62
     0
100
AcDbPoint
 10
0.0
 20
0.0
 30
0.0
  0
ENDBLK
  5
1D0
100
AcDbEntity
100
AcDbBlockEnd
  0
BLOCK
  5
1D1
100
AcDbEntity
  8
0
100
AcDbBlockBegin
  2
CDWK_PTTYP1
 70
     0
 10
0.0
 20
0.0
 30
0.0
  3
CDWK_PTTYP1
  1

  4
Cadwork node
  0
LINE
  5
1D2
100
AcDbEntity
  8
0
 62
     0
370
    -2
100
AcDbLine
 10
-0.5
 20
0.5
 30
0.0
 11
0.5
 21
0.5
 31
0.0
  0
LINE
  5
1D3
100
AcDbEntity
  8
0
 62
     0
370
    -2
100
AcDbLine
 10
0.5
 20
0.5
 30
0.0
 11
0.5
 21
-0.5
 31
0.0
  0
LINE
  5
1D4
100
AcDbEntity
  8
0
 62
     0
370
    -2
100
AcDbLine
 10
0.5
 20
-0.5
 30
0.0
 11
-0.5
 21
-0.5
 31
0.0
  0
LINE
  5
1D5
100
AcDbEntity
  8
0
 62
     0
370
    -2
100
AcDbLine
 10
-0.5
 20
-0.5
 30
0.0
 11
-0.5
 21
0.5
 31
0.0
  0
ENDBLK
  5
1D6
100
AcDbEntity
100
AcDbBlockEnd
  0
BLOCK
  5
1D7
100
AcDbEntity
  8
0
100
AcDbBlockBegin
  2
CDWK_PTTYP2
 70
     0
 10
0.0
 20
0.0
 30
0.0
  3
CDWK_PTTYP2
  1

  4
Cadwork node
  0
LINE
  5
1D8
100
AcDbEntity
  8
0
 62
     0
370
    -2
100
AcDbLine
 10
0.0
 20
0.5
 30
0.0
 11
0.0
 21
-0.5
 31
0.0
  0
LINE
  5
1D9
100
AcDbEntity
  8
0
 62
     0
370
    -2
100
AcDbLine
 10
-0.5
 20
0.0
 30
0.0
 11
0.5
 21
0.0
 31
0.0
  0
ENDBLK
  5
1DA
100
AcDbEntity
100
AcDbBlockEnd
  0
BLOCK
  5
1DB
100
AcDbEntity
  8
0
100
AcDbBlockBegin
  2
CDWK_PTTYP3
 70
     0
 10
0.0
 20
0.0
 30
0.0
  3
CDWK_PTTYP3
  1

  4
Cadwork node
  0
CIRCLE
  5
1DC
100
AcDbEntity
  8
0
 62
     0
370
    -2
100
AcDbCircle
 10
0.0
 20
0.0
 30
0.0
 40
0.5
  0
ENDBLK
  5
1DD
100
AcDbEntity
100
AcDbBlockEnd
  0
BLOCK
  5
1DE
100
AcDbEntity
  8
0
100
AcDbBlockBegin
  2
CDWK_PTTYP4
 70
     0
 10
0.0
 20
0.0
 30
0.0
  3
CDWK_PTTYP4
  1

  4
Cadwork node
  0
HATCH
  5
1DF
100
AcDbEntity
  8
0
 62
     0
370
    20
100
AcDbHatch
 10
0.0
 20
0.0
 30
0.0
210
0.0
220
0.0
230
1.0
  2
SOLID
 70
     1
 71
     0
 91
        1
 92
        1
 93
        1
 72
     2
 10
0.0
 20
0.0
 40
0.5
 50
0.0
 51
360.0
 73
     1
 97
        0
 75
     0
 76
     1
 98
        1
 10
0.0
 20
0.0
  0
ENDBLK
  5
1E0
100
AcDbEntity
100
AcDbBlockEnd
  0
BLOCK
  5
1E1
100
AcDbEntity
  8
0
100
AcDbBlockBegin
  2
CDWK_PTTYP5
 70
     0
 10
0.0
 20
0.0
 30
0.0
  3
CDWK_PTTYP5
  1

  4
Cadwork node
  0
LINE
  5
1E2
100
AcDbEntity
  8
0
 62
     0
370
    -2
100
AcDbLine
 10
-0.5
 20
0.5
 30
0.0
 11
0.5
 21
0.5
 31
0.0
  0
LINE
  5
1E3
100
AcDbEntity
  8
0
 62
     0
370
    -2
100
AcDbLine
 10
0.5
 20
0.5
 30
0.0
 11
0.5
 21
-0.5
 31
0.0
  0
LINE
  5
1E4
100
AcDbEntity
  8
0
 62
     0
370
    -2
100
AcDbLine
 10
0.5
 20
-0.5
 30
0.0
 11
-0.5
 21
-0.5
 31
0.0
  0
LINE
  5
1E5
100
AcDbEntity
  8
0
 62
     0
370
    -2
100
AcDbLine
 10
-0.5
 20
-0.5
 30
0.0
 11
-0.5
 21
0.5
 31
0.0
  0
SOLID
  5
1E6
100
AcDbEntity
  8
0
 62
     0
100
AcDbTrace
 10
-0.5
 20
-0.5
 11
-0.5
 21
0.0
 12
0.0
 22
-0.5
 13
0.0
 23
0.0
  0
SOLID
  5
1E7
100
AcDbEntity
  8
0
 62
     0
100
AcDbTrace
 10
0.0
 20
0.0
 11
0.0
 21
0.5
 12
0.5
 22
0.0
 13
0.5
 23
0.5
  0
ENDBLK
  5
1E8
100
AcDbEntity
100
AcDbBlockEnd
  0
BLOCK
  5
1E9
100
AcDbEntity
  8
0
100
AcDbBlockBegin
  2
CDWK_PTTYP6
 70
     0
 10
0.0
 20
0.0
 30
0.0
  3
CDWK_PTTYP6
  1

  4
Cadwork node
  0
LINE
  5
1EA
100
AcDbEntity
  8
0
 62
     0
370
    -2
100
AcDbLine
 10
-0.5
 20
0.5
 30
0.0
 11
0.5
 21
0.5
 31
0.0
  0
LINE
  5
1EB
100
AcDbEntity
  8
0
 62
     0
370
    -2
100
AcDbLine
 10
0.5
 20
0.5
 30
0.0
 11
0.5
 21
-0.5
 31
0.0
  0
LINE
  5
1EC
100
AcDbEntity
  8
0
 62
     0
370
    -2
100
AcDbLine
 10
0.5
 20
-0.5
 30
0.0
 11
-0.5
 21
-0.5
 31
0.0
  0
LINE
  5
1ED
100
AcDbEntity
  8
0
 62
     0
370
    -2
100
AcDbLine
 10
-0.5
 20
-0.5
 30
0.0
 11
-0.5
 21
0.5
 31
0.0
  0
SOLID
  5
1EE
100
AcDbEntity
  8
0
 62
     0
100
AcDbTrace
 10
-0.5
 20
-0.5
 11
-0.5
 21
0.5
 12
0.5
 22
0.5
 13
0.5
 23
0.5
  0
ENDBLK
  5
1EF
100
AcDbEntity
100
AcDbBlockEnd
  0
BLOCK
  5
1F0
100
AcDbEntity
  8
0
100
AcDbBlockBegin
  2
CDWK_PTTYP7
 70
     0
 10
0.0
 20
0.0
 30
0.0
  3
CDWK_PTTYP7
  1

  4
Cadwork node
  0
LINE
  5
1F1
100
AcDbEntity
  8
0
 62
     0
370
    -2
100
AcDbLine
 10
-0.5
 20
0.5
 30
0.0
 11
0.5
 21
0.5
 31
0.0
  0
LINE
  5
1F2
100
AcDbEntity
  8
0
 62
     0
370
    -2
100
AcDbLine
 10
0.5
 20
0.5
 30
0.0
 11
0.5
 21
-0.5
 31
0.0
  0
LINE
  5
1F3
100
AcDbEntity
  8
0
 62
     0
370
    -2
100
AcDbLine
 10
0.5
 20
-0.5
 30
0.0
 11
-0.5
 21
-0.5
 31
0.0
  0
LINE
  5
1F4
100
AcDbEntity
  8
0
 62
     0
370
    -2
100
AcDbLine
 10
-0.5
 20
-0.5
 30
0.0
 11
-0.5
 21
0.5
 31
0.0
  0
LINE
  5
1F5
100
AcDbEntity
  8
0
 62
     0
370
    -2
100
AcDbLine
 10
0.0
 20
0.5
 30
0.0
 11
0.0
 21
-0.5
 31
0.0
  0
LINE
  5
1F6
100
AcDbEntity
  8
0
 62
     0
370
    -2
100
AcDbLine
 10
-0.5
 20
0.0
 30
0.0
 11
0.5
 21
0.0
 31
0.0
  0
ENDBLK
  5
1F7
100
AcDbEntity
100
AcDbBlockEnd
  0
BLOCK
  5
1F8
100
AcDbEntity
  8
0
100
AcDbBlockBegin
  2
CDWK_PTTYP8
 70
     0
 10
0.0
 20
0.0
 30
0.0
  3
CDWK_PTTYP8
  1

  4
Cadwork node
  0
SOLID
  5
1F9
100
AcDbEntity
  8
0
 62
     0
100
AcDbTrace
 10
-0.5
 20
0.5
 11
0.5
 21
0.5
 12
-0.5
 22
-0.5
 13
0.5
 23
-0.5
  0
ENDBLK
  5
1FA
100
AcDbEntity
100
AcDbBlockEnd
  0
BLOCK
  5
1FB
100
AcDbEntity
  8
0
100
AcDbBlockBegin
  2
CDWK_PTTYP9
 70
     0
 10
0.0
 20
0.0
 30
0.0
  3
CDWK_PTTYP9
  1

  4
Cadwork node
  0
CIRCLE
  5
1FC
100
AcDbEntity
  8
0
 62
     0
370
    -2
100
AcDbCircle
 10
0.0
 20
0.0
 30
0.0
 40
0.5
  0
CIRCLE
  5
1FD
100
AcDbEntity
  8
0
 62
     0
370
    -2
100
AcDbCircle
 10
0.0
 20
0.0
 30
0.0
 40
0.16666667
  0
ENDBLK
  5
1FE
100
AcDbEntity
100
AcDbBlockEnd
  0
BLOCK
  5
1FF
100
AcDbEntity
  8
0
100
AcDbBlockBegin
  2
CDWK_PTTYP10
 70
     0
 10
0.0
 20
0.0
 30
0.0
  3
CDWK_PTTYP10
  1

  4
Cadwork node
  0
CIRCLE
  5
200
100
AcDbEntity
  8
0
 62
     0
370
    -2
100
AcDbCircle
 10
0.0
 20
0.0
 30
0.0
 40
0.5
  0
ENDBLK
  5
201
100
AcDbEntity
100
AcDbBlockEnd
  0
BLOCK
  5
202
100
AcDbEntity
  8
0
100
AcDbBlockBegin
  2
CDWK_PTTYP11
 70
     0
 10
0.0
 20
0.0
 30
0.0
  3
CDWK_PTTYP11
  1

  4
Cadwork node
  0
CIRCLE
  5
203
100
AcDbEntity
  8
0
 62
     0
370
    -2
100
AcDbCircle
 10
0.0
 20
0.0
 30
0.0
 40
0.5
  0
CIRCLE
  5
204
100
AcDbEntity
  8
0
 62
     0
370
    -2
100
AcDbCircle
 10
0.0
 20
0.0
 30
0.0
 40
0.25
  0
ENDBLK
  5
205
100
AcDbEntity
100
AcDbBlockEnd
  0
BLOCK
  5
206
100
AcDbEntity
  8
0
100
AcDbBlockBegin
  2
CDWK_PTTYP12
 70
     0
 10
0.0
 20
0.0
 30
0.0
  3
CDWK_PTTYP12
  1

  4
Cadwork node
  0
CIRCLE
  5
207
100
AcDbEntity
  8
0
 62
     0
370
    -2
100
AcDbCircle
 10
0.0
 20
0.0
 30
0.0
 40
0.5
  0
CIRCLE
  5
208
100
AcDbEntity
  8
0
 62
     0
370
    -2
100
AcDbCircle
 10
0.25
 20
0.0
 30
0.0
 40
0.25
  0
ENDBLK
  5
209
100
AcDbEntity
100
AcDbBlockEnd
  0
BLOCK
  5
20A
100
AcDbEntity
  8
0
100
AcDbBlockBegin
  2
CDWK_PTTYP13
 70
     0
 10
0.0
 20
0.0
 30
0.0
  3
CDWK_PTTYP13
  1

  4
Cadwork node
  0
CIRCLE
  5
20B
100
AcDbEntity
  8
0
 62
     0
370
    -2
100
AcDbCircle
 10
0.0
 20
0.0
 30
0.0
 40
0.5
  0
CIRCLE
  5
20C
100
AcDbEntity
  8
0
 62
     0
370
    -2
100
AcDbCircle
 10
0.25
 20
0.0
 30
0.0
 40
0.25
  0
CIRCLE
  5
20D
100
AcDbEntity
  8
0
 62
     0
370
    -2
100
AcDbCircle
 10
-0.25
 20
0.0
 30
0.0
 40
0.25
  0
ENDBLK
  5
20E
100
AcDbEntity
100
AcDbBlockEnd
  0
BLOCK
  5
20F
100
AcDbEntity
  8
0
100
AcDbBlockBegin
  2
CDWK_PTTYP14
 70
     0
 10
0.0
 20
0.0
 30
0.0
  3
CDWK_PTTYP14
  1

  4
Cadwork node
  0
POINT
  5
210
100
AcDbEntity
  8
0
 62
     0
100
AcDbPoint
 10
0.0
 20
0.0
 30
0.0
  0
ENDBLK
  5
211
100
AcDbEntity
100
AcDbBlockEnd
  0
BLOCK
  5
212
100
AcDbEntity
  8
0
100
AcDbBlockBegin
  2
CDWK_PTTYP15
 70
     0
 10
0.0
 20
0.0
 30
0.0
  3
CDWK_PTTYP15
  1

  4
Cadwork node
  0
POINT
  5
213
100
AcDbEntity
  8
0
 62
     0
100
AcDbPoint
 10
0.0
 20
0.0
 30
0.0
  0
ENDBLK
  5
214
100
AcDbEntity
100
AcDbBlockEnd
  0
BLOCK
  5
215
100
AcDbEntity
  8
0
100
AcDbBlockBegin
  2
CDWK_PTTYP16
 70
     0
 10
0.0
 20
0.0
 30
0.0
  3
CDWK_PTTYP16
  1

  4
Cadwork node
  0
LINE
  5
216
100
AcDbEntity
  8
0
 62
     0
370
    -2
100
AcDbLine
 10
-0.5
 20
-0.28867513
 30
0.0
 11
0.5
 21
-0.28867513
 31
0.0
  0
LINE
  5
217
100
AcDbEntity
  8
0
 62
     0
370
    -2
100
AcDbLine
 10
0.5
 20
-0.28867513
 30
0.0
 11
0.0
 21
0.57735027
 31
0.0
  0
LINE
  5
218
100
AcDbEntity
  8
0
 62
     0
370
    -2
100
AcDbLine
 10
0.0
 20
0.57735027
 30
0.0
 11
-0.5
 21
-0.28867513
 31
0.0
  0
CIRCLE
  5
219
100
AcDbEntity
  8
0
 62
     0
370
    -2
100
AcDbCircle
 10
0.0
 20
0.0
 30
0.0
 40
0.28867513
  0
ENDBLK
  5
21A
100
AcDbEntity
100
AcDbBlockEnd
  0
BLOCK
  5
21B
100
AcDbEntity
  8
0
100
AcDbBlockBegin
  2
CDWK_PTTYP17
 70
     0
 10
0.0
 20
0.0
 30
0.0
  3
CDWK_PTTYP17
  1

  4
Cadwork node
  0
CIRCLE
  5
21C
100
AcDbEntity
  8
0
 62
     0
370
    -2
100
AcDbCircle
 10
0.0
 20
0.0
 30
0.0
 40
0.5
  0
HATCH
  5
21D
100
AcDbEntity
  8
0
 62
     0
370
   211
100
AcDbHatch
 10
0.0
 20
0.0
 30
0.0
210
0.0
220
0.0
230
1.0
  2
SOLID
 70
     1
 71
     0
 91
        1
 92
        1
 93
        1
 72
     2
 10
0.0
 20
0.0
 40
0.25
 50
0.0
 51
360.0
 73
     1
 97
        0
 75
     0
 76
     1
 98
        1
 10
0.0
 20
0.0
  0
ENDBLK
  5
21E
100
AcDbEntity
100
AcDbBlockEnd
  0
BLOCK
  5
21F
100
AcDbEntity
  8
0
100
AcDbBlockBegin
  2
CDWK_PTTYP18
 70
     0
 10
0.0
 20
0.0
 30
0.0
  3
CDWK_PTTYP18
  1

  4
Cadwork node
  0
CIRCLE
  5
220
100
AcDbEntity
  8
0
 62
     0
370
    -2
100
AcDbCircle
 10
0.0
 20
0.0
 30
0.0
 40
0.5
  0
CIRCLE
  5
221
100
AcDbEntity
  8
0
 62
     0
370
    -2
100
AcDbCircle
 10
0.0
 20
0.0
 30
0.0
 40
0.2
  0
ENDBLK
  5
222
100
AcDbEntity
100
AcDbBlockEnd
  0
BLOCK
  5
223
100
AcDbEntity
  8
0
100
AcDbBlockBegin
  2
CDWK_PTTYP19
 70
     0
 10
0.0
 20
0.0
 30
0.0
  3
CDWK_PTTYP19
  1

  4
Cadwork node
  0
CIRCLE
  5
224
100
AcDbEntity
  8
0
 62
     0
370
    -2
100
AcDbCircle
 10
0.0
 20
0.0
 30
0.0
 40
0.4
  0
CIRCLE
  5
225
100
AcDbEntity
  8
0
 62
     0
370
    -2
100
AcDbCircle
 10
0.0
 20
0.0
 30
0.0
 40
0.25
  0
LINE
  5
226
100
AcDbEntity
  8
0
 62
     0
370
    -2
100
AcDbLine
 10
-0.25
 20
0.0
 30
0.0
 11
0.25
 21
0.0
 31
0.0
  0
ENDBLK
  5
227
100
AcDbEntity
100
AcDbBlockEnd
  0
BLOCK
  5
228
100
AcDbEntity
  8
0
100
AcDbBlockBegin
  2
CDWK_PTTYP20
 70
     0
 10
0.0
 20
0.0
 30
0.0
  3
CDWK_PTTYP20
  1

  4
Cadwork node
  0
CIRCLE
  5
229
100
AcDbEntity
  8
0
 62
     0
370
    -2
100
AcDbCircle
 10
0.0
 20
0.0
 30
0.0
 40
0.5
  0
CIRCLE
  5
22A
100
AcDbEntity
  8
0
 62
     0
370
    -2
100
AcDbCircle
 10
0.0
 20
0.0
 30
0.0
 40
0.3
  0
ENDBLK
  5
22B
100
AcDbEntity
100
AcDbBlockEnd
  0
BLOCK
  5
22C
100
AcDbEntity
  8
0
100
AcDbBlockBegin
  2
CDWK_PTTYP21
 70
     0
 10
0.0
 20
0.0
 30
0.0
  3
CDWK_PTTYP21
  1

  4
Cadwork node
  0
CIRCLE
  5
22D
100
AcDbEntity
  8
0
 62
     0
370
    -2
100
AcDbCircle
 10
0.0
 20
0.0
 30
0.0
 40
0.5
  0
LINE
  5
22E
100
AcDbEntity
  8
0
 62
     0
370
    -2
100
AcDbLine
 10
-0.5
 20
0.0
 30
0.0
 11
0.5
 21
0.0
 31
0.0
  0
ENDBLK
  5
22F
100
AcDbEntity
100
AcDbBlockEnd
  0
BLOCK
  5
230
100
AcDbEntity
  8
0
100
AcDbBlockBegin
  2
CDWK_PTTYP22
 70
     0
 10
0.0
 20
0.0
 30
0.0
  3
CDWK_PTTYP22
  1

  4
Cadwork node
  0
POINT
  5
231
100
AcDbEntity
  8
0
 62
     0
100
AcDbPoint
 10
0.0
 20
0.0
 30
0.0
  0
ENDBLK
  5
232
100
AcDbEntity
100
AcDbBlockEnd
  0
BLOCK
  5
233
100
AcDbEntity
  8
0
100
AcDbBlockBegin
  2
CDWK_PTTYP23
 70
     0
 10
0.0
 20
0.0
 30
0.0
  3
CDWK_PTTYP23
  1

  4
Cadwork node
  0
POINT
  5
234
100
AcDbEntity
  8
0
 62
     0
100
AcDbPoint
 10
0.0
 20
0.0
 30
0.0
  0
ENDBLK
  5
235
100
AcDbEntity
100
AcDbBlockEnd
  0
BLOCK
  5
236
100
AcDbEntity
  8
0
100
AcDbBlockBegin
  2
CDWK_PTTYP24
 70
     0
 10
0.0
 20
0.0
 30
0.0
  3
CDWK_PTTYP24
  1

  4
Cadwork node
  0
POINT
  5
237
100
AcDbEntity
  8
0
 62
     0
100
AcDbPoint
 10
0.0
 20
0.0
 30
0.0
  0
ENDBLK
  5
238
100
AcDbEntity
100
AcDbBlockEnd
  0
BLOCK
  5
239
100
AcDbEntity
  8
0
100
AcDbBlockBegin
  2
CDWK_PTTYP25
 70
     0
 10
0.0
 20
0.0
 30
0.0
  3
CDWK_PTTYP25
  1

  4
Cadwork node
  0
LINE
  5
23A
100
AcDbEntity
  8
0
 62
     0
370
    -2
100
AcDbLine
 10
-0.43290044
 20
-0.25
 30
0.0
 11
0.43290044
 21
-0.25
 31
0.0
  0
LINE
  5
23B
100
AcDbEntity
  8
0
 62
     0
370
    -2
100
AcDbLine
 10
-0.43290044
 20
-0.25
 30
0.0
 11
0.0
 21
0.5
 31
0.0
  0
LINE
  5
23C
100
AcDbEntity
  8
0
 62
     0
370
    -2
100
AcDbLine
 10
0.43290044
 20
-0.25
 30
0.0
 11
0.0
 21
0.5
 31
0.0
  0
CIRCLE
  5
23D
100
AcDbEntity
  8
0
 62
     0
370
    -2
100
AcDbCircle
 10
0.0
 20
0.0
 30
0.0
 40
0.5
  0
ENDBLK
  5
23E
100
AcDbEntity
100
AcDbBlockEnd
  0
BLOCK
  5
23F
100
AcDbEntity
  8
0
100
AcDbBlockBegin
  2
CDWK_PTTYP26
 70
     0
 10
0.0
 20
0.0
 30
0.0
  3
CDWK_PTTYP26
  1

  4
Cadwork node
  0
LINE
  5
240
100
AcDbEntity
  8
0
 62
     0
370
    -2
100
AcDbLine
 10
-0.5
 20
-0.28850001
 30
0.0
 11
0.5
 21
-0.28850001
 31
0.0
  0
LINE
  5
241
100
AcDbEntity
  8
0
 62
     0
370
    -2
100
AcDbLine
 10
-0.5
 20
-0.28850001
 30
0.0
 11
0.0
 21
0.57736721
 31
0.0
  0
LINE
  5
242
100
AcDbEntity
  8
0
 62
     0
370
    -2
100
AcDbLine
 10
0.5
 20
-0.28850001
 30
0.0
 11
0.0
 21
0.57736721
 31
0.0
  0
CIRCLE
  5
243
100
AcDbEntity
  8
0
 62
     0
370
    -2
100
AcDbCircle
 10
0.0
 20
0.0
 30
0.0
 40
0.1312336
  0
ENDBLK
  5
244
100
AcDbEntity
100
AcDbBlockEnd
  0
BLOCK
  5
245
100
AcDbEntity
  8
0
100
AcDbBlockBegin
  2
CDWK_PTTYP27
 70
     0
 10
0.0
 20
0.0
 30
0.0
  3
CDWK_PTTYP27
  1

  4
Cadwork node
  0
LINE
  5
246
100
AcDbEntity
  8
0
 62
     0
370
    -2
100
AcDbLine
 10
-0.43290044
 20
-0.25
 30
0.0
 11
0.43290044
 21
-0.25
 31
0.0
  0
LINE
  5
247
100
AcDbEntity
  8
0
 62
     0
370
    -2
100
AcDbLine
 10
-0.43290044
 20
-0.25
 30
0.0
 11
0.0
 21
0.5
 31
0.0
  0
LINE
  5
248
100
AcDbEntity
  8
0
 62
     0
370
    -2
100
AcDbLine
 10
0.43290044
 20
-0.25
 30
0.0
 11
0.0
 21
0.5
 31
0.0
  0
CIRCLE
  5
249
100
AcDbEntity
  8
0
 62
     0
370
    -2
100
AcDbCircle
 10
0.0
 20
0.0
 30
0.0
 40
0.5
  0
CIRCLE
  5
24A
100
AcDbEntity
  8
0
 62
     0
370
    -2
100
AcDbCircle
 10
0.0
 20
0.0
 30
0.0
 40
0.1312336
  0
ENDBLK
  5
24B
100
AcDbEntity
100
AcDbBlockEnd
  0
BLOCK
  5
24C
100
AcDbEntity
  8
0
100
AcDbBlockBegin
  2
CDWK_PTTYP28
 70
     0
 10
0.0
 20
0.0
 30
0.0
  3
CDWK_PTTYP28
  1

  4
Cadwork node
  0
POINT
  5
24D
100
AcDbEntity
  8
0
 62
     0
100
AcDbPoint
 10
0.0
 20
0.0
 30
0.0
  0
ENDBLK
  5
24E
100
AcDbEntity
100
AcDbBlockEnd
  0
BLOCK
  5
24F
100
AcDbEntity
  8
0
100
AcDbBlockBegin
  2
CDWK_PTTYP29
 70
     0
 10
0.0
 20
0.0
 30
0.0
  3
CDWK_PTTYP29
  1

  4
Cadwork node
  0
CIRCLE
  5
250
100
AcDbEntity
  8
0
 62
     0
370
    -2
100
AcDbCircle
 10
0.0
 20
0.0
 30
0.0
 40
0.5
  0
CIRCLE
  5
251
100
AcDbEntity
  8
0
 62
     0
370
    -2
100
AcDbCircle
 10
0.0
 20
0.0
 30
0.0
 40
0.375
  0
CIRCLE
  5
252
100
AcDbEntity
  8
0
 62
     0
370
    -2
100
AcDbCircle
 10
0.0
 20
0.0
 30
0.0
 40
0.21875
  0
ENDBLK
  5
253
100
AcDbEntity
100
AcDbBlockEnd
  0
BLOCK
  5
254
100
AcDbEntity
  8
0
100
AcDbBlockBegin
  2
CDWK_PTTYP30
 70
     0
 10
0.0
 20
0.0
 30
0.0
  3
CDWK_PTTYP30
  1

  4
Cadwork node
  0
LINE
  5
255
100
AcDbEntity
  8
0
 62
     0
370
    -2
100
AcDbLine
 10
0.17680339
 20
0.17680339
 30
0.0
 11
0.5
 21
0.5
 31
0.0
  0
LINE
  5
256
100
AcDbEntity
  8
0
 62
     0
370
    -2
100
AcDbLine
 10
-0.17680339
 20
0.17680339
 30
0.0
 11
-0.5
 21
0.5
 31
0.0
  0
LINE
  5
257
100
AcDbEntity
  8
0
 62
     0
370
    -2
100
AcDbLine
 10
0.17680339
 20
-0.17680339
 30
0.0
 11
0.5
 21
-0.5
 31
0.0
  0
LINE
  5
258
100
AcDbEntity
  8
0
 62
     0
370
    -2
100
AcDbLine
 10
-0.17680339
 20
-0.17680339
 30
0.0
 11
-0.5
 21
-0.5
 31
0.0
  0
ENDBLK
  5
259
100
AcDbEntity
100
AcDbBlockEnd
  0
BLOCK
  5
25A
100
AcDbEntity
  8
0
100
AcDbBlockBegin
  2
CDWK_PTTYP31
 70
     0
 10
0.0
 20
0.0
 30
0.0
  3
CDWK_PTTYP31
  1

  4
Cadwork node
  0
CIRCLE
  5
25B
100
AcDbEntity
  8
0
 62
     0
370
    -2
100
AcDbCircle
 10
0.0
 20
0.0
 30
0.0
 40
0.075
  0
LINE
  5
25C
100
AcDbEntity
  8
0
 62
     0
370
    -2
100
AcDbLine
 10
0.075
 20
0.0
 30
0.0
 11
0.5
 21
0.0
 31
0.0
  0
LINE
  5
25D
100
AcDbEntity
  8
0
 62
     0
370
    -2
100
AcDbLine
 10
-0.075
 20
0.0
 30
0.0
 11
-0.5
 21
0.0
 31
0.0
  0
LINE
  5
25E
100
AcDbEntity
  8
0
 62
     0
370
    -2
100
AcDbLine
 10
0.0
 20
0.075
 30
0.0
 11
0.0
 21
0.5
 31
0.0
  0
LINE
  5
25F
100
AcDbEntity
  8
0
 62
     0
370
    -2
100
AcDbLine
 10
0.0
 20
-0.075
 30
0.0
 11
0.0
 21
-0.5
 31
0.0
  0
ENDBLK
  5
260
100
AcDbEntity
100
AcDbBlockEnd
  0
BLOCK
  5
261
100
AcDbEntity
  8
0
100
AcDbBlockBegin
  2
CDWK_PTTYP32
 70
     0
 10
0.0
 20
0.0
 30
0.0
  3
CDWK_PTTYP32
  1

  4
Cadwork node
  0
CIRCLE
  5
262
100
AcDbEntity
  8
0
 62
     0
370
    -2
100
AcDbCircle
 10
0.0
 20
0.0
 30
0.0
 40
0.5
  0
CIRCLE
  5
263
100
AcDbEntity
  8
0
 62
     0
370
    -2
100
AcDbCircle
 10
0.0
 20
0.0
 30
0.0
 40
0.16666667
  0
LINE
  5
264
100
AcDbEntity
  8
0
 62
     0
370
    -2
100
AcDbLine
 10
0.11786893
 20
0.11786893
 30
0.0
 11
0.35360678
 21
0.35360678
 31
0.0
  0
LINE
  5
265
100
AcDbEntity
  8
0
 62
     0
370
    -2
100
AcDbLine
 10
-0.11786893
 20
0.11786893
 30
0.0
 11
-0.35360678
 21
0.35360678
 31
0.0
  0
LINE
  5
266
100
AcDbEntity
  8
0
 62
     0
370
    -2
100
AcDbLine
 10
0.11786893
 20
-0.11786893
 30
0.0
 11
0.35360678
 21
-0.35360678
 31
0.0
  0
LINE
  5
267
100
AcDbEntity
  8
0
 62
     0
370
    -2
100
AcDbLine
 10
-0.11786893
 20
-0.11786893
 30
0.0
 11
-0.35360678
 21
-0.35360678
 31
0.0
  0
ENDBLK
  5
268
100
AcDbEntity
100
AcDbBlockEnd
  0
BLOCK
  5
269
100
AcDbEntity
  8
0
100
AcDbBlockBegin
  2
CDWK_PTTYP33
 70
     0
 10
0.0
 20
0.0
 30
0.0
  3
CDWK_PTTYP33
  1

  4
Cadwork node
  0
CIRCLE
  5
26A
100
AcDbEntity
  8
0
 62
     0
370
    -2
100
AcDbCircle
 10
0.0
 20
0.0
 30
0.0
 40
0.5
  0
LINE
  5
26B
100
AcDbEntity
  8
0
 62
     0
370
    -2
100
AcDbLine
 10
0.0
 20
0.5
 30
0.0
 11
0.0
 21
-0.5
 31
0.0
  0
LINE
  5
26C
100
AcDbEntity
  8
0
 62
     0
370
    -2
100
AcDbLine
 10
-0.5
 20
0.0
 30
0.0
 11
0.5
 21
0.0
 31
0.0
  0
ENDBLK
  5
26D
100
AcDbEntity
100
AcDbBlockEnd
  0
BLOCK
  5
26E
100
AcDbEntity
  8
0
100
AcDbBlockBegin
  2
CDWK_PTTYP34
 70
     0
 10
0.0
 20
0.0
 30
0.0
  3
CDWK_PTTYP34
  1

  4
Cadwork node
  0
CIRCLE
  5
26F
100
AcDbEntity
  8
0
 62
     0
370
    -2
100
AcDbCircle
 10
0.0
 20
0.0
 30
0.0
 40
0.5
  0
LINE
  5
270
100
AcDbEntity
  8
0
 62
     0
370
    -2
100
AcDbLine
 10
-0.30360678
 20
-0.40360678
 30
0.0
 11
0.40360678
 21
0.30360678
 31
0.0
  0
LINE
  5
271
100
AcDbEntity
  8
0
 62
     0
370
    -2
100
AcDbLine
 10
-0.40360678
 20
-0.30360678
 30
0.0
 11
0.30360678
 21
0.40360678
 31
0.0
  0
ENDBLK
  5
272
100
AcDbEntity
100
AcDbBlockEnd
  0
BLOCK
  5
273
100
AcDbEntity
  8
0
100
AcDbBlockBegin
  2
CDWK_PTTYP35
 70
     0
 10
0.0
 20
0.0
 30
0.0
  3
CDWK_PTTYP35
  1

  4
Cadwork node
  0
CIRCLE
  5
274
100
AcDbEntity
  8
0
 62
     0
370
    -2
100
AcDbCircle
 10
0.0
 20
0.0
 30
0.0
 40
0.21431634
  0
LINE
  5
275
100
AcDbEntity
  8
0
 62
     0
370
    -2
100
AcDbLine
 10
0.0
 20
0.21431634
 30
0.0
 11
0.0
 21
0.5
 31
0.0
  0
LINE
  5
276
100
AcDbEntity
  8
0
 62
     0
370
    -2
100
AcDbLine
 10
0.0
 20
-0.21431634
 30
0.0
 11
0.0
 21
-0.5
 31
0.0
  0
ENDBLK
  5
277
100
AcDbEntity
100
AcDbBlockEnd
  0
BLOCK
  5
278
100
AcDbEntity
  8
0
100
AcDbBlockBegin
  2
CDWK_PTTYP36
 70
     0
 10
0.0
 20
0.0
 30
0.0
  3
CDWK_PTTYP36
  1

  4
Cadwork node
  0
LINE
  5
279
100
AcDbEntity
  8
0
 62
     0
370
    -2
100
AcDbLine
 10
-0.5
 20
-0.16666667
 30
0.0
 11
0.5
 21
-0.16666667
 31
0.0
  0
LINE
  5
27A
100
AcDbEntity
  8
0
 62
     0
370
    -2
100
AcDbLine
 10
0.5
 20
-0.16666667
 30
0.0
 11
0.5
 21
0.16666667
 31
0.0
  0
LINE
  5
27B
100
AcDbEntity
  8
0
 62
     0
370
    -2
100
AcDbLine
 10
0.5
 20
0.16666667
 30
0.0
 11
-0.5
 21
0.16666667
 31
0.0
  0
LINE
  5
27C
100
AcDbEntity
  8
0
 62
     0
370
    -2
100
AcDbLine
 10
-0.5
 20
0.16666667
 30
0.0
 11
-0.5
 21
-0.16666667
 31
0.0
  0
SOLID
  5
27D
100
AcDbEntity
  8
0
 62
     0
100
AcDbTrace
 10
-0.5
 20
-0.16666667
 11
0.5
 21
0.16666667
 12
0.5
 22
-0.16666667
 13
0.5
 23
-0.16666667
  0
ENDBLK
  5
27E
100
AcDbEntity
100
AcDbBlockEnd
  0
BLOCK
  5
27F
100
AcDbEntity
  8
0
100
AcDbBlockBegin
  2
CDWK_PTTYP37
 70
     0
 10
0.0
 20
0.0
 30
0.0
  3
CDWK_PTTYP37
  1

  4
Cadwork node
  0
CIRCLE
  5
280
100
AcDbEntity
  8
0
 62
     0
370
    -2
100
AcDbCircle
 10
0.0
 20
0.0
 30
0.0
 40
0.5
  0
SOLID
  5
281
100
AcDbEntity
  8
0
 62
     0
100
AcDbTrace
 10
0.0
 20
0.0
 11
0.35350001
 21
0.35350001
 12
0.5
 22
0.0
 13
0.46200001
 23
0.19149999
  0
SOLID
  5
282
100
AcDbEntity
  8
0
 62
     0
100
AcDbTrace
 10
0.0
 20
0.0
 11
0.35350001
 21
-0.35350001
 12
0.5
 22
0.0
 13
0.46200001
 23
-0.19149999
  0
SOLID
  5
283
100
AcDbEntity
  8
0
 62
     0
100
AcDbTrace
 10
0.0
 20
0.0
 11
0.0
 21
-0.5
 12
0.35350001
 22
-0.35350001
 13
0.19149999
 23
-0.46200001
  0
SOLID
  5
284
100
AcDbEntity
  8
0
 62
     0
100
AcDbTrace
 10
0.0
 20
0.0
 11
0.0
 21
-0.5
 12
-0.35350001
 22
-0.35350001
 13
-0.19149999
 23
-0.46200001
  0
ENDBLK
  5
285
100
AcDbEntity
100
AcDbBlockEnd
  0
BLOCK
  5
286
100
AcDbEntity
  8
0
100
AcDbBlockBegin
  2
CDWK_PTTYP38
 70
     0
 10
0.0
 20
0.0
 30
0.0
  3
CDWK_PTTYP38
  1

  4
Cadwork node
  0
CIRCLE
  5
287
100
AcDbEntity
  8
0
 62
     0
370
    -2
100
AcDbCircle
 10
0.0
 20
0.0
 30
0.0
 40
0.5
  0
SOLID
  5
288
100
AcDbEntity
  8
0
 62
     0
100
AcDbTrace
 10
0.0
 20
0.0
 11
0.35350001
 21
0.35350001
 12
0.0
 22
0.5
 13
0.19149999
 23
0.46200001
  0
SOLID
  5
289
100
AcDbEntity
  8
0
 62
     0
100
AcDbTrace
 10
0.0
 20
0.0
 11
0.5
 21
0.0
 12
0.35350001
 22
0.35350001
 13
0.46200001
 23
0.19149999
  0
SOLID
  5
28A
100
AcDbEntity
  8
0
 62
     0
100
AcDbTrace
 10
0.0
 20
0.0
 11
0.0
 21
-0.5
 12
-0.35350001
 22
-0.35350001
 13
-0.19149999
 23
-0.46200001
  0
SOLID
  5
28B
100
AcDbEntity
  8
0
 62
     0
100
AcDbTrace
 10
0.0
 20
0.0
 11
-0.5
 21
0.0
 12
-0.35350001
 22
-0.35350001
 13
-0.46200001
 23
-0.19149999
  0
ENDBLK
  5
28C
100
AcDbEntity
100
AcDbBlockEnd
  0
BLOCK
  5
28D
100
AcDbEntity
  8
Ech.1_1
100
AcDbBlockBegin
  2
A$C42653196
 70
     0
 10
0.0
 20
0.0
 30
0.0
  3
A$C42653196
  1

  4
Cadwork node ref
  0
HATCH
  5
28E
100
AcDbEntity
  8
Ech.1_1
 62
    44
100
AcDbHatch
 10
0.0
 20
0.0
 30
0.0
210
0.0
220
0.0
230
1.0
  2
USER
 70
     0
 71
     0
 91
        1
 92
        7
 72
     0
 73
     1
 93
       60
 10
117.85866598
 20
6.04795498
 10
118.14635307
 20
5.78124937
 10
118.4722202
 20
5.56283153
 10
118.82824344
 20
5.39807962
 10
119.20565633
 20
5.29105039
 10
119.5951657
 20
5.24437925
 10
124.72676034
 20
5.03534633
 10
125.62869615
 20
5.16479307
 10
126.42433621
 20
5.6088669
 10
127.00798837
 20
6.30857743
 10
127.30212077
 20
7.17097571
 10
127.26766112
 20
8.0815015
 10
124.91726737
 20
18.53878175
 10
126.98610403
 20
18.45450873
 10
130.05096074
 20
4.81846771
 10
129.92885851
 20
1.82095357
 10
124.3723648
 20
0.54605058
 10
124.43341592
 20
2.04480765
 10
118.87692221
 20
0.76990466
 10
118.93797332
 20
2.26866173
 10
113.38147961
 20
0.99375874
 10
113.44253072
 20
2.49251581
 10
101.95205983
 20
2.96057435
 10
56.38917232
 20
1.63426601
 10
3.24601796
 20
0.08730066
 10
1.74665307
 20
0.04365504
 10
0.24728819
 20
9.4313872978091E-06
 10
-3.6950659705326E-05
 20
8.49641045
 10
0.05985995
 20
8.96187585
 10
0.26066201
 20
9.38605059
 10
0.58271332
 20
9.72741349
 10
0.99448926
 20
9.95254957
 10
1.45568232
 20
10.03942095
 10
1.92114772
 20
9.97952404
 10
2.34532246
 20
9.77872198
 10
2.68668536
 20
9.45667067
 10
2.91182144
 20
9.04489474
 10
2.99869282
 20
8.58370168
 10
3.15872673
 20
3.08603043
 10
51.97358749
 20
4.50700175
 10
56.2291384
 20
7.13193726
 10
100.77828017
 20
8.42873606
 10
101.21970253
 20
8.50869648
 10
101.61773883
 20
8.71561307
 10
101.93678738
 20
9.03097856
 10
102.14831145
 20
9.42658561
 10
102.23339163
 20
9.86704984
 10
102.50151985
 20
16.449388
 10
102.59374007
 20
16.90954135
 10
102.82364192
 20
17.31867558
 10
103.16872101
 20
17.63674177
 10
103.59519858
 20
17.83260539
 10
104.06132804
 20
17.88709396
 10
104.52148139
 20
17.79487373
 10
104.93061561
 20
17.56497188
 10
105.24868181
 20
17.2198928
 10
105.44454543
 20
16.79341523
 10
105.499034
 20
16.32728577
 10
105.45833325
 20
15.32811439
 10
110.41348942
 20
14.1254393
 97
        0
 75
     0
 76
     2
 52
0.0
 41
1.0
 77
     0
 78
     1
 53
132.66740417
 43
0.0
 44
0.0
 45
-2.57355095
 46
-2.37209508
 79
     2
 49
50.0
 49
0.0
 47
0.775229
 98
        1
 10
0.0
 20
0.0
  0
ARC
  5
28F
100
AcDbEntity
  8
Ech.1_1
 62
    44
  6
CONTINUOUS
100
AcDbCircle
 10
1.49932794
 20
8.54005606
 30
0.0
 40
1.5
100
AcDbArc
 50
1.66737493
 51
91.66737494
  0
ARC
  5
290
100
AcDbEntity
  8
Ech.1_1
 62
    44
  6
CONTINUOUS
100
AcDbCircle
 10
1.49932794
 20
8.54005606
 30
0.0
 40
1.5
100
AcDbArc
 50
91.66737495
 51
181.66738495
  0
ARC
  5
291
100
AcDbEntity
  8
Ech.1_1
 62
    44
  6
CONTINUOUS
100
AcDbCircle
 10
119.69691755
 20
7.7423077
 30
0.0
 40
2.5
100
AcDbArc
 50
222.66738496
 51
267.66738494
  0
ARC
  5
292
100
AcDbEntity
  8
Ech.1_1
 62
    44
  6
CONTINUOUS
100
AcDbCircle
 10
124.82851219
 20
7.53327478
 30
0.0
 40
2.5
100
AcDbArc
 50
267.66738496
 51
12.66737494
  0
ARC
  5
293
100
AcDbEntity
  8
Ech.1_1
 62
    44
  6
CONTINUOUS
100
AcDbCircle
 10
100.73463456
 20
9.92810095
 30
0.0
 40
1.5
100
AcDbArc
 50
271.66738495
 51
357.66738496
  0
CIRCLE
  5
294
100
AcDbEntity
  8
Ech.1_1
 62
    44
  6
CONTINUOUS
100
AcDbCircle
 10
46.27791422
 20
8.20582032
 30
0.0
 40
1.28741883
  0
CIRCLE
  5
295
100
AcDbEntity
  8
Ech.1_1
 62
    44
  6
CONTINUOUS
100
AcDbCircle
 10
33.43004406
 20
7.08585325
 30
0.0
 40
1.28741883
  0
CIRCLE
  5
296
100
AcDbEntity
  8
Ech.1_1
 62
    44
  6
CONTINUOUS
100
AcDbCircle
 10
18.68870005
 20
7.80056724
 30
0.0
 40
1.28741883
  0
CIRCLE
  5
297
100
AcDbEntity
  8
Ech.1_1
 62
    44
  6
CONTINUOUS
100
AcDbCircle
 10
8.06485876
 20
10.57466976
 30
0.0
 40
1.28741883
  0
CIRCLE
  5
298
100
AcDbEntity
  8
Ech.1_1
 62
    44
  6
CONTINUOUS
100
AcDbCircle
 10
9.8099472
 20
20.67124156
 30
0.0
 40
1.28741883
  0
CIRCLE
  5
299
100
AcDbEntity
  8
Ech.1_1
 62
    44
  6
CONTINUOUS
100
AcDbCircle
 10
23.86159679
 20
29.98222429
 30
0.0
 40
1.28741883
  0
CIRCLE
  5
29A
100
AcDbEntity
  8
Ech.1_1
 62
    44
  6
CONTINUOUS
100
AcDbCircle
 10
28.22193483
 20
31.84932759
 30
0.0
 40
0.69421153
  0
CIRCLE
  5
29B
100
AcDbEntity
  8
Ech.1_1
 62
    44
  6
CONTINUOUS
100
AcDbCircle
 10
21.25902975
 20
25.0323453
 30
0.0
 40
0.69421153
  0
CIRCLE
  5
29C
100
AcDbEntity
  8
Ech.1_1
 62
    44
  6
CONTINUOUS
100
AcDbCircle
 10
15.94132338
 20
26.61815435
 30
0.0
 40
0.69421153
  0
CIRCLE
  5
29D
100
AcDbEntity
  8
Ech.1_1
 62
    44
  6
CONTINUOUS
100
AcDbCircle
 10
6.7341394
 20
16.60275473
 30
0.0
 40
0.69421153
  0
CIRCLE
  5
29E
100
AcDbEntity
  8
Ech.1_1
 62
    44
  6
CONTINUOUS
100
AcDbCircle
 10
11.26200347
 20
7.98180515
 30
0.0
 40
0.69421153
  0
CIRCLE
  5
29F
100
AcDbEntity
  8
Ech.1_1
 62
    44
  6
CONTINUOUS
100
AcDbCircle
 10
14.81113978
 20
5.64827238
 30
0.0
 40
0.69421153
  0
CIRCLE
  5
2A0
100
AcDbEntity
  8
Ech.1_1
 62
    44
  6
CONTINUOUS
100
AcDbCircle
 10
24.58745367
 20
8.07131171
 30
0.0
 40
0.69421153
  0
CIRCLE
  5
2A1
100
AcDbEntity
  8
Ech.1_1
 62
    44
  6
CONTINUOUS
100
AcDbCircle
 10
41.67917679
 20
8.61857307
 30
0.0
 40
0.69421153
  0
CIRCLE
  5
2A2
100
AcDbEntity
  8
Ech.1_1
 62
    44
  6
CONTINUOUS
100
AcDbCircle
 10
37.76621757
 20
6.36621248
 30
0.0
 40
0.69421153
  0
CIRCLE
  5
2A3
100
AcDbEntity
  8
Ech.1_1
 62
    44
  6
CONTINUOUS
100
AcDbCircle
 10
28.50346921
 20
34.32757278
 30
0.0
 40
0.3440962
  0
CIRCLE
  5
2A4
100
AcDbEntity
  8
Ech.1_1
 62
    44
  6
CONTINUOUS
100
AcDbCircle
 10
29.88413787
 20
33.02501134
 30
0.0
 40
0.3440962
  0
CIRCLE
  5
2A5
100
AcDbEntity
  8
Ech.1_1
 62
    44
  6
CONTINUOUS
100
AcDbCircle
 10
30.04426683
 20
30.94094745
 30
0.0
 40
0.3440962
  0
CIRCLE
  5
2A6
100
AcDbEntity
  8
Ech.1_1
 62
    44
  6
CONTINUOUS
100
AcDbCircle
 10
27.70979845
 20
29.13238819
 30
0.0
 40
0.3440962
  0
CIRCLE
  5
2A7
100
AcDbEntity
  8
Ech.1_1
 62
    44
  6
CONTINUOUS
100
AcDbCircle
 10
26.99202498
 20
33.28894452
 30
0.0
 40
0.3440962
  0
CIRCLE
  5
2A8
100
AcDbEntity
  8
Ech.1_1
 62
    44
  6
CONTINUOUS
100
AcDbCircle
 10
25.34938039
 20
33.34059123
 30
0.0
 40
0.3440962
  0
CIRCLE
  5
2A9
100
AcDbEntity
  8
Ech.1_1
 62
    44
  6
CONTINUOUS
100
AcDbCircle
 10
25.96394651
 20
31.02109798
 30
0.0
 40
0.3440962
  0
CIRCLE
  5
2AA
100
AcDbEntity
  8
Ech.1_1
 62
    44
  6
CONTINUOUS
100
AcDbCircle
 10
26.05217873
 20
27.99004175
 30
0.0
 40
0.3440962
  0
CIRCLE
  5
2AB
100
AcDbEntity
  8
Ech.1_1
 62
    44
  6
CONTINUOUS
100
AcDbCircle
 10
23.5628563
 20
26.37590098
 30
0.0
 40
0.3440962
  0
CIRCLE
  5
2AC
100
AcDbEntity
  8
Ech.1_1
 62
    44
  6
CONTINUOUS
100
AcDbCircle
 10
21.66019304
 20
26.81783111
 30
0.0
 40
0.3440962
  0
CIRCLE
  5
2AD
100
AcDbEntity
  8
Ech.1_1
 62
    44
  6
CONTINUOUS
100
AcDbCircle
 10
21.50295695
 20
28.8025161
 30
0.0
 40
0.3440962
  0
CIRCLE
  5
2AE
100
AcDbEntity
  8
Ech.1_1
 62
    44
  6
CONTINUOUS
100
AcDbCircle
 10
22.94931183
 20
32.07716945
 30
0.0
 40
0.3440962
  0
CIRCLE
  5
2AF
100
AcDbEntity
  8
Ech.1_1
 62
    44
  6
CONTINUOUS
100
AcDbCircle
 10
20.27135662
 20
30.10941683
 30
0.0
 40
0.3440962
  0
CIRCLE
  5
2B0
100
AcDbEntity
  8
Ech.1_1
 62
    44
  6
CONTINUOUS
100
AcDbCircle
 10
17.5832764
 20
28.48949035
 30
0.0
 40
0.3440962
  0
CIRCLE
  5
2B1
100
AcDbEntity
  8
Ech.1_1
 62
    44
  6
CONTINUOUS
100
AcDbCircle
 10
19.38511434
 20
28.09435681
 30
0.0
 40
0.3440962
  0
CIRCLE
  5
2B2
100
AcDbEntity
  8
Ech.1_1
 62
    44
  6
CONTINUOUS
100
AcDbCircle
 10
18.14815308
 20
26.16855067
 30
0.0
 40
0.3440962
  0
CIRCLE
  5
2B3
100
AcDbEntity
  8
Ech.1_1
 62
    44
  6
CONTINUOUS
100
AcDbCircle
 10
19.5037216
 20
24.01982221
 30
0.0
 40
0.3440962
  0
CIRCLE
  5
2B4
100
AcDbEntity
  8
Ech.1_1
 62
    44
  6
CONTINUOUS
100
AcDbCircle
 10
18.11479914
 20
22.18905567
 30
0.0
 40
0.3440962
  0
CIRCLE
  5
2B5
100
AcDbEntity
  8
Ech.1_1
 62
    44
  6
CONTINUOUS
100
AcDbCircle
 10
16.41574378
 20
24.17859078
 30
0.0
 40
0.3440962
  0
CIRCLE
  5
2B6
100
AcDbEntity
  8
Ech.1_1
 62
    44
  6
CONTINUOUS
100
AcDbCircle
 10
13.68912077
 20
25.59116695
 30
0.0
 40
0.3440962
  0
CIRCLE
  5
2B7
100
AcDbEntity
  8
Ech.1_1
 62
    44
  6
CONTINUOUS
100
AcDbCircle
 10
11.05217643
 20
23.92299745
 30
0.0
 40
0.3440962
  0
CIRCLE
  5
2B8
100
AcDbEntity
  8
Ech.1_1
 62
    44
  6
CONTINUOUS
100
AcDbCircle
 10
13.34367668
 20
23.79077544
 30
0.0
 40
0.3440962
  0
CIRCLE
  5
2B9
100
AcDbEntity
  8
Ech.1_1
 62
    44
  6
CONTINUOUS
100
AcDbCircle
 10
14.77548122
 20
22.43997099
 30
0.0
 40
0.3440962
  0
CIRCLE
  5
2BA
100
AcDbEntity
  8
Ech.1_1
 62
    44
  6
CONTINUOUS
100
AcDbCircle
 10
14.73395953
 20
20.44950027
 30
0.0
 40
0.3440962
  0
CIRCLE
  5
2BB
100
AcDbEntity
  8
Ech.1_1
 62
    44
  6
CONTINUOUS
100
AcDbCircle
 10
12.67065649
 20
21.28460668
 30
0.0
 40
0.3440962
  0
CIRCLE
  5
2BC
100
AcDbEntity
  8
Ech.1_1
 62
    44
  6
CONTINUOUS
100
AcDbCircle
 10
12.20073337
 20
18.63515529
 30
0.0
 40
0.3440962
  0
CIRCLE
  5
2BD
100
AcDbEntity
  8
Ech.1_1
 62
    44
  6
CONTINUOUS
100
AcDbCircle
 10
10.57255308
 20
18.18990753
 30
0.0
 40
0.3440962
  0
CIRCLE
  5
2BE
100
AcDbEntity
  8
Ech.1_1
 62
    44
  6
CONTINUOUS
100
AcDbCircle
 10
7.52269326
 20
18.7476381
 30
0.0
 40
0.3440962
  0
CIRCLE
  5
2BF
100
AcDbEntity
  8
Ech.1_1
 62
    44
  6
CONTINUOUS
100
AcDbCircle
 10
8.17546343
 20
21.94945912
 30
0.0
 40
0.3440962
  0
CIRCLE
  5
2C0
100
AcDbEntity
  8
Ech.1_1
 62
    44
  6
CONTINUOUS
100
AcDbCircle
 10
6.21630335
 20
19.20692539
 30
0.0
 40
0.3440962
  0
CIRCLE
  5
2C1
100
AcDbEntity
  8
Ech.1_1
 62
    44
  6
CONTINUOUS
100
AcDbCircle
 10
5.16891047
 20
15.89415404
 30
0.0
 40
0.3440962
  0
CIRCLE
  5
2C2
100
AcDbEntity
  8
Ech.1_1
 62
    44
  6
CONTINUOUS
100
AcDbCircle
 10
5.53792221
 20
13.46804974
 30
0.0
 40
0.3440962
  0
CIRCLE
  5
2C3
100
AcDbEntity
  8
Ech.1_1
 62
    44
  6
CONTINUOUS
100
AcDbCircle
 10
6.09267388
 20
11.49493619
 30
0.0
 40
0.3440962
  0
CIRCLE
  5
2C4
100
AcDbEntity
  8
Ech.1_1
 62
    44
  6
CONTINUOUS
100
AcDbCircle
 10
7.74016858
 20
12.98510875
 30
0.0
 40
0.3440962
  0
CIRCLE
  5
2C5
100
AcDbEntity
  8
Ech.1_1
 62
    44
  6
CONTINUOUS
100
AcDbCircle
 10
7.3035994
 20
14.31515237
 30
0.0
 40
0.3440962
  0
CIRCLE
  5
2C6
100
AcDbEntity
  8
Ech.1_1
 62
    44
  6
CONTINUOUS
100
AcDbCircle
 10
8.8695832
 20
16.89704632
 30
0.0
 40
0.3440962
  0
CIRCLE
  5
2C7
100
AcDbEntity
  8
Ech.1_1
 62
    44
  6
CONTINUOUS
100
AcDbCircle
 10
10.30283417
 20
15.49655241
 30
0.0
 40
0.3440962
  0
CIRCLE
  5
2C8
100
AcDbEntity
  8
Ech.1_1
 62
    44
  6
CONTINUOUS
100
AcDbCircle
 10
9.0132906
 20
13.66867874
 30
0.0
 40
0.3440962
  0
CIRCLE
  5
2C9
100
AcDbEntity
  8
Ech.1_1
 62
    44
  6
CONTINUOUS
100
AcDbCircle
 10
10.84261071
 20
12.32944572
 30
0.0
 40
0.3440962
  0
CIRCLE
  5
2CA
100
AcDbEntity
  8
Ech.1_1
 62
    44
  6
CONTINUOUS
100
AcDbCircle
 10
10.39634129
 20
10.5758508
 30
0.0
 40
0.3440962
  0
CIRCLE
  5
2CB
100
AcDbEntity
  8
Ech.1_1
 62
    44
  6
CONTINUOUS
100
AcDbCircle
 10
11.7977708
 20
10.26852471
 30
0.0
 40
0.3440962
  0
CIRCLE
  5
2CC
100
AcDbEntity
  8
Ech.1_1
 62
    44
  6
CONTINUOUS
100
AcDbCircle
 10
9.46185599
 20
8.50965489
 30
0.0
 40
0.3440962
  0
CIRCLE
  5
2CD
100
AcDbEntity
  8
Ech.1_1
 62
    44
  6
CONTINUOUS
100
AcDbCircle
 10
10.61577387
 20
6.45451961
 30
0.0
 40
0.3440962
  0
CIRCLE
  5
2CE
100
AcDbEntity
  8
Ech.1_1
 62
    44
  6
CONTINUOUS
100
AcDbCircle
 10
12.33848294
 20
5.36084096
 30
0.0
 40
0.3440962
  0
CIRCLE
  5
2CF
100
AcDbEntity
  8
Ech.1_1
 62
    44
  6
CONTINUOUS
100
AcDbCircle
 10
13.88081303
 20
7.04687845
 30
0.0
 40
0.3440962
  0
CIRCLE
  5
2D0
100
AcDbEntity
  8
Ech.1_1
 62
    44
  6
CONTINUOUS
100
AcDbCircle
 10
13.04383542
 20
8.46472951
 30
0.0
 40
0.3440962
  0
CIRCLE
  5
2D1
100
AcDbEntity
  8
Ech.1_1
 62
    44
  6
CONTINUOUS
100
AcDbCircle
 10
15.44773244
 20
7.88819535
 30
0.0
 40
0.3440962
  0
CIRCLE
  5
2D2
100
AcDbEntity
  8
Ech.1_1
 62
    44
  6
CONTINUOUS
100
AcDbCircle
 10
17.10866979
 20
5.49969824
 30
0.0
 40
0.3440962
  0
CIRCLE
  5
2D3
100
AcDbEntity
  8
Ech.1_1
 62
    44
  6
CONTINUOUS
100
AcDbCircle
 10
19.34758774
 20
5.4654087
 30
0.0
 40
0.3440962
  0
CIRCLE
  5
2D4
100
AcDbEntity
  8
Ech.1_1
 62
    44
  6
CONTINUOUS
100
AcDbCircle
 10
21.4538589
 20
6.57108356
 30
0.0
 40
0.3440962
  0
CIRCLE
  5
2D5
100
AcDbEntity
  8
Ech.1_1
 62
    44
  6
CONTINUOUS
100
AcDbCircle
 10
21.79785656
 20
8.42116451
 30
0.0
 40
0.3440962
  0
CIRCLE
  5
2D6
100
AcDbEntity
  8
Ech.1_1
 62
    44
  6
CONTINUOUS
100
AcDbCircle
 10
22.89919214
 20
6.46396169
 30
0.0
 40
0.3440962
  0
CIRCLE
  5
2D7
100
AcDbEntity
  8
Ech.1_1
 62
    44
  6
CONTINUOUS
100
AcDbCircle
 10
24.47572572
 20
5.26656486
 30
0.0
 40
0.3440962
  0
CIRCLE
  5
2D8
100
AcDbEntity
  8
Ech.1_1
 62
    44
  6
CONTINUOUS
100
AcDbCircle
 10
26.43437498
 20
6.31821099
 30
0.0
 40
0.3440962
  0
CIRCLE
  5
2D9
100
AcDbEntity
  8
Ech.1_1
 62
    44
  6
CONTINUOUS
100
AcDbCircle
 10
26.92454812
 20
8.27201012
 30
0.0
 40
0.3440962
  0
CIRCLE
  5
2DA
100
AcDbEntity
  8
Ech.1_1
 62
    44
  6
CONTINUOUS
100
AcDbCircle
 10
30.04630466
 20
8.66127189
 30
0.0
 40
0.3440962
  0
CIRCLE
  5
2DB
100
AcDbEntity
  8
Ech.1_1
 62
    44
  6
CONTINUOUS
100
AcDbCircle
 10
30.35260909
 20
6.68092619
 30
0.0
 40
0.3440962
  0
CIRCLE
  5
2DC
100
AcDbEntity
  8
Ech.1_1
 62
    44
  6
CONTINUOUS
100
AcDbCircle
 10
28.79198623
 20
7.33173911
 30
0.0
 40
0.3440962
  0
CIRCLE
  5
2DD
100
AcDbEntity
  8
Ech.1_1
 62
    44
  6
CONTINUOUS
100
AcDbCircle
 10
27.99933712
 20
5.51832973
 30
0.0
 40
0.3440962
  0
CIRCLE
  5
2DE
100
AcDbEntity
  8
Ech.1_1
 62
    44
  6
CONTINUOUS
100
AcDbCircle
 10
31.53988091
 20
8.6052859
 30
0.0
 40
0.3440962
  0
CIRCLE
  5
2DF
100
AcDbEntity
  8
Ech.1_1
 62
    44
  6
CONTINUOUS
100
AcDbCircle
 10
34.55791927
 20
9.14072315
 30
0.0
 40
0.3440962
  0
CIRCLE
  5
2E0
100
AcDbEntity
  8
Ech.1_1
 62
    44
  6
CONTINUOUS
100
AcDbCircle
 10
37.15189549
 20
8.86811138
 30
0.0
 40
0.3440962
  0
CIRCLE
  5
2E1
100
AcDbEntity
  8
Ech.1_1
 62
    44
  6
CONTINUOUS
100
AcDbCircle
 10
39.42893144
 20
9.23278384
 30
0.0
 40
0.3440962
  0
CIRCLE
  5
2E2
100
AcDbEntity
  8
Ech.1_1
 62
    44
  6
CONTINUOUS
100
AcDbCircle
 10
39.37728474
 20
7.59013925
 30
0.0
 40
0.3440962
  0
CIRCLE
  5
2E3
100
AcDbEntity
  8
Ech.1_1
 62
    44
  6
CONTINUOUS
100
AcDbCircle
 10
36.29075334
 20
7.69921837
 30
0.0
 40
0.3440962
  0
CIRCLE
  5
2E4
100
AcDbEntity
  8
Ech.1_1
 62
    44
  6
CONTINUOUS
100
AcDbCircle
 10
35.30485754
 20
6.13219059
 30
0.0
 40
0.3440962
  0
CIRCLE
  5
2E5
100
AcDbEntity
  8
Ech.1_1
 62
    44
  6
CONTINUOUS
100
AcDbCircle
 10
39.8237043
 20
6.36319461
 30
0.0
 40
0.3440962
  0
CIRCLE
  5
2E6
100
AcDbEntity
  8
Ech.1_1
 62
    44
  6
CONTINUOUS
100
AcDbCircle
 10
41.95339297
 20
6.22291323
 30
0.0
 40
0.3440962
  0
CIRCLE
  5
2E7
100
AcDbEntity
  8
Ech.1_1
 62
    44
  6
CONTINUOUS
100
AcDbCircle
 10
43.70367026
 20
9.30748737
 30
0.0
 40
0.3440962
  0
CIRCLE
  5
2E8
100
AcDbEntity
  8
Ech.1_1
 62
    44
  6
CONTINUOUS
100
AcDbCircle
 10
43.27331157
 20
7.00730854
 30
0.0
 40
0.3440962
  0
CIRCLE
  5
2E9
100
AcDbEntity
  8
Ech.1_1
 62
    44
  6
CONTINUOUS
100
AcDbCircle
 10
44.89374889
 20
6.01011592
 30
0.0
 40
0.3440962
  0
CIRCLE
  5
2EA
100
AcDbEntity
  8
Ech.1_1
 62
    44
  6
CONTINUOUS
100
AcDbCircle
 10
47.92335869
 20
6.1480376
 30
0.0
 40
0.3440962
  0
CIRCLE
  5
2EB
100
AcDbEntity
  8
Ech.1_1
 62
    44
  6
CONTINUOUS
100
AcDbCircle
 10
49.19988439
 20
8.4231163
 30
0.0
 40
0.3440962
  0
CIRCLE
  5
2EC
100
AcDbEntity
  8
Ech.1_1
 62
    44
  6
CONTINUOUS
100
AcDbCircle
 10
48.27365289
 20
9.49024838
 30
0.0
 40
0.3440962
  0
CIRCLE
  5
2ED
100
AcDbEntity
  8
Ech.1_1
 62
    44
  6
CONTINUOUS
100
AcDbCircle
 10
28.49002109
 20
9.16301647
 30
0.0
 40
0.3440962
  0
CIRCLE
  5
2EE
100
AcDbEntity
  8
Ech.1_1
 62
    44
  6
CONTINUOUS
100
AcDbCircle
 10
14.1678891
 20
9.14396021
 30
0.0
 40
0.3440962
  0
ARC
  5
2EF
100
AcDbEntity
  8
Ech.1_1
 62
    44
  6
CONTINUOUS
100
AcDbCircle
 10
27.42266169
 20
31.80419951
 30
0.0
 40
4.5
100
AcDbArc
 50
1.66737494
 51
91.66737494
  0
ARC
  5
2F0
100
AcDbEntity
  8
Ech.1_1
 62
    44
  6
CONTINUOUS
100
AcDbCircle
 10
27.42266169
 20
31.80419951
 30
0.0
 40
4.5
100
AcDbArc
 50
91.66737494
 51
123.12490237
  0
ARC
  5
2F1
100
AcDbEntity
  8
Ech.1_1
 62
    44
  6
CONTINUOUS
100
AcDbCircle
 10
16.42218118
 20
14.47678111
 30
0.0
 40
4.0
100
AcDbArc
 50
181.66738495
 51
271.66738496
  0
ARC
  5
2F2
100
AcDbEntity
  8
Ech.1_1
 62
    44
  6
CONTINUOUS
100
AcDbCircle
 10
27.42266169
 20
31.80419951
 30
0.0
 40
4.5
100
AcDbArc
 50
303.12491239
 51
1.66737494
  0
ARC
  5
2F3
100
AcDbEntity
  8
Ech.1_1
 62
    44
  6
CONTINUOUS
100
AcDbCircle
 10
16.42218118
 20
14.47678111
 30
0.0
 40
4.0
100
AcDbArc
 50
123.12490237
 51
181.66738496
  0
ARC
  5
2F4
100
AcDbEntity
  8
Ech.1_1
 62
    44
  6
CONTINUOUS
100
AcDbCircle
 10
47.62728355
 20
7.88196601
 30
0.0
 40
3.5
100
AcDbArc
 50
1.66737494
 51
91.66737493
  0
ARC
  5
2F5
100
AcDbEntity
  8
Ech.1_1
 62
    44
  6
CONTINUOUS
100
AcDbCircle
 10
47.62728355
 20
7.88196601
 30
0.0
 40
3.5
100
AcDbArc
 50
271.66738496
 51
1.66737493
  0
ARC
  5
2F6
100
AcDbEntity
  8
Ech.1_1
 62
    44
  6
CONTINUOUS
100
AcDbCircle
 10
15.12019226
 20
15.1575562
 30
0.0
 40
11.71837091
100
AcDbArc
 50
123.12490237
 51
181.66738495
  0
ARC
  5
2F7
100
AcDbEntity
  8
Ech.1_1
 62
    44
  6
CONTINUOUS
100
AcDbCircle
 10
15.12019226
 20
15.1575562
 30
0.0
 40
10.96837091
100
AcDbArc
 50
123.12490238
 51
271.66738495
  0
ARC
  5
2F8
100
AcDbEntity
  8
Ech.1_1
 62
    44
  6
CONTINUOUS
100
AcDbCircle
 10
27.42266169
 20
31.80419951
 30
0.0
 40
3.75
100
AcDbArc
 50
91.66737494
 51
123.12490237
  0
ARC
  5
2F9
100
AcDbEntity
  8
Ech.1_1
 62
    44
  6
CONTINUOUS
100
AcDbCircle
 10
27.42266169
 20
31.80419951
 30
0.0
 40
3.75
100
AcDbArc
 50
1.66737494
 51
91.66737493
  0
ARC
  5
2FA
100
AcDbEntity
  8
Ech.1_1
 62
    44
  6
CONTINUOUS
100
AcDbCircle
 10
27.42266169
 20
31.80419951
 30
0.0
 40
3.75
100
AcDbArc
 50
303.12491239
 51
1.66737494
  0
ARC
  5
2FB
100
AcDbEntity
  8
Ech.1_1
 62
    44
  6
CONTINUOUS
100
AcDbCircle
 10
16.42218118
 20
14.47678111
 30
0.0
 40
4.75
100
AcDbArc
 50
123.12490237
 51
181.66738496
  0
ARC
  5
2FC
100
AcDbEntity
  8
Ech.1_1
 62
    44
  6
CONTINUOUS
100
AcDbCircle
 10
16.42218118
 20
14.47678111
 30
0.0
 40
4.75
100
AcDbArc
 50
181.66738496
 51
271.66738495
  0
ARC
  5
2FD
100
AcDbEntity
  8
Ech.1_1
 62
    44
  6
CONTINUOUS
100
AcDbCircle
 10
47.62728355
 20
7.88196601
 30
0.0
 40
2.75
100
AcDbArc
 50
1.66737493
 51
91.66737494
  0
ARC
  5
2FE
100
AcDbEntity
  8
Ech.1_1
 62
    44
  6
CONTINUOUS
100
AcDbCircle
 10
47.62728355
 20
7.88196601
 30
0.0
 40
2.75
100
AcDbArc
 50
271.66738496
 51
1.66737493
  0
ARC
  5
2FF
100
AcDbEntity
  8
Ech.1_1
 62
    44
  6
CONTINUOUS
100
AcDbCircle
 10
15.12019226
 20
15.1575562
 30
0.0
 40
11.71837091
100
AcDbArc
 50
181.66738495
 51
271.66738495
  0
ARC
  5
300
100
AcDbEntity
  8
Ech.1_1
 62
    44
  6
CONTINUOUS
100
AcDbCircle
 10
104.00027692
 20
16.38833688
 30
0.0
 40
1.5
100
AcDbArc
 50
87.66737494
 51
177.66737493
  0
ARC
  5
301
100
AcDbEntity
  8
Ech.1_1
 62
    44
  6
CONTINUOUS
100
AcDbCircle
 10
104.00027692
 20
16.38833688
 30
0.0
 40
1.5
100
AcDbArc
 50
357.66738495
 51
87.66737495
  0
LINE
  5
302
100
AcDbEntity
  8
Ech.1_1
 62
    44
  6
CONTINUOUS
370
    -2
100
AcDbLine
 10
29.88175872
 20
28.03553373
 30
0.0
 11
14.23631716
 21
17.82670626
 31
0.0
  0
LINE
  5
303
100
AcDbEntity
  8
Ech.1_1
 62
    44
  6
CONTINUOUS
370
    -2
100
AcDbLine
 10
8.71650091
 20
24.97147255
 30
0.0
 11
24.96356467
 21
35.5728653
 31
0.0
  0
LINE
  5
304
100
AcDbEntity
  8
Ech.1_1
 62
    44
  6
CONTINUOUS
370
    -2
100
AcDbLine
 10
16.53856948
 20
10.47847475
 30
0.0
 11
47.52544379
 21
11.38048408
 31
0.0
  0
LINE
  5
305
100
AcDbEntity
  8
Ech.1_1
 62
    44
  6
CONTINUOUS
370
    -2
100
AcDbLine
 10
15.46116258
 20
3.44414696
 30
0.0
 11
31.23610957
 21
3.90334621
 31
0.0
  0
LINE
  5
306
100
AcDbEntity
  8
Ech.1_1
 62
    44
  6
CONTINUOUS
370
    -2
100
AcDbLine
 10
9.12635041
 20
24.34336158
 30
0.0
 11
25.37341417
 21
34.94475434
 31
0.0
  0
LINE
  5
307
100
AcDbEntity
  8
Ech.1_1
 62
    44
  6
CONTINUOUS
370
    -2
100
AcDbLine
 10
29.47190922
 20
28.66364469
 30
0.0
 11
13.82646765
 21
18.45481722
 31
0.0
  0
LINE
  5
308
100
AcDbEntity
  8
Ech.1_1
 62
    44
  6
CONTINUOUS
370
    -2
100
AcDbLine
 10
16.56039229
 20
9.72879231
 30
0.0
 11
47.54726659
 21
10.63080164
 31
0.0
  0
LINE
  5
309
100
AcDbEntity
  8
Ech.1_1
 62
    44
  6
CONTINUOUS
370
    -2
100
AcDbLine
 10
47.70730051
 20
5.13313039
 30
0.0
 11
42.06938694
 21
4.96901411
 31
0.0
  0
LINE
  5
30A
100
AcDbEntity
  8
Ech.1_1
 62
    44
  6
CONTINUOUS
370
    -2
100
AcDbLine
 10
31.23610957
 20
3.90334621
 30
0.0
 11
41.03099867
 21
4.18846955
 31
0.0
  0
LINE
  5
30B
100
AcDbEntity
  8
Ech.1_1
 62
    44
  6
CONTINUOUS
370
    -2
100
AcDbLine
 10
41.78068111
 20
4.21029236
 30
0.0
 11
47.72912331
 21
4.38344795
 31
0.0
  0
LINE
  5
30C
100
AcDbEntity
  8
Ech.1_1
 62
    44
  6
CONTINUOUS
370
    -2
100
AcDbLine
 10
41.03099867
 20
4.18846955
 30
0.0
 11
41.00917586
 21
4.938152
 31
0.0
  0
LINE
  5
30D
100
AcDbEntity
  8
Ech.1_1
 62
    44
  6
CONTINUOUS
370
    -2
100
AcDbLine
 10
41.00917586
 20
4.938152
 30
0.0
 11
31.21428676
 21
4.65302865
 31
0.0
  0
LINE
  5
30E
100
AcDbEntity
  8
Ech.1_1
 62
    44
  6
CONTINUOUS
370
    -2
100
AcDbLine
 10
42.06938694
 20
4.96901411
 30
0.0
 11
41.29788169
 21
5.69687374
 31
0.0
  0
LINE
  5
30F
100
AcDbEntity
  8
Ech.1_1
 62
    44
  6
CONTINUOUS
370
    -2
100
AcDbLine
 10
41.78068111
 20
4.21029236
 30
0.0
 11
41.00917586
 21
4.938152
 31
0.0
  0
LINE
  5
310
100
AcDbEntity
  8
Ech.1_1
 62
    44
  6
CONTINUOUS
370
    -2
100
AcDbLine
 10
41.29788169
 20
5.69687374
 30
0.0
 11
31.19246396
 21
5.40271109
 31
0.0
  0
LINE
  5
311
100
AcDbEntity
  8
Ech.1_1
 62
    44
  6
CONTINUOUS
370
    -2
100
AcDbLine
 10
31.19246396
 20
5.40271109
 30
0.0
 11
31.21428676
 21
4.65302865
 31
0.0
  0
LINE
  5
312
100
AcDbEntity
  8
Ech.1_1
 62
    44
  6
CONTINUOUS
370
    -2
100
AcDbLine
 10
31.21428676
 20
4.65302865
 30
0.0
 11
15.43933977
 21
4.1938294
 31
0.0
  0
LINE
  5
313
100
AcDbEntity
  8
Ech.1_1
 62
    44
  6
CONTINUOUS
370
    -2
100
AcDbLine
 10
3.15872673
 20
3.08603043
 30
0.0
 11
51.97358749
 21
4.50700175
 31
0.0
  0
LINE
  5
314
100
AcDbEntity
  8
Ech.1_1
 62
    44
  6
CONTINUOUS
370
    -2
100
AcDbLine
 10
1.74665307
 20
0.04365504
 30
0.0
 11
0.24728819
 21
9.4313872978091E-06
 31
0.0
  0
LINE
  5
315
100
AcDbEntity
  8
Ech.1_1
 62
    44
  6
CONTINUOUS
370
    -2
100
AcDbLine
 10
3.24601796
 20
0.08730066
 30
0.0
 11
1.74665307
 21
0.04365504
 31
0.0
  0
LINE
  5
316
100
AcDbEntity
  8
Ech.1_1
 62
    44
  6
CONTINUOUS
370
    -2
100
AcDbLine
 10
124.3723648
 20
0.54605058
 30
0.0
 11
129.92885851
 21
1.82095357
 31
0.0
  0
LINE
  5
317
100
AcDbEntity
  8
Ech.1_1
 62
    44
  6
CONTINUOUS
370
    -2
100
AcDbLine
 10
124.43341592
 20
2.04480765
 30
0.0
 11
124.3723648
 21
0.54605058
 31
0.0
  0
LINE
  5
318
100
AcDbEntity
  8
Ech.1_1
 62
    44
  6
CONTINUOUS
370
    -2
100
AcDbLine
 10
118.87692221
 20
0.76990466
 30
0.0
 11
124.43341592
 21
2.04480765
 31
0.0
  0
LINE
  5
319
100
AcDbEntity
  8
Ech.1_1
 62
    44
  6
CONTINUOUS
370
    -2
100
AcDbLine
 10
118.93797332
 20
2.26866173
 30
0.0
 11
118.87692221
 21
0.76990466
 31
0.0
  0
LINE
  5
31A
100
AcDbEntity
  8
Ech.1_1
 62
    44
  6
CONTINUOUS
370
    -2
100
AcDbLine
 10
113.38147961
 20
0.99375874
 30
0.0
 11
118.93797332
 21
2.26866173
 31
0.0
  0
LINE
  5
31B
100
AcDbEntity
  8
Ech.1_1
 62
    44
  6
CONTINUOUS
370
    -2
100
AcDbLine
 10
113.44253072
 20
2.49251581
 30
0.0
 11
113.38147961
 21
0.99375874
 31
0.0
  0
LINE
  5
31C
100
AcDbEntity
  8
Ech.1_1
 62
    44
  6
CONTINUOUS
370
    -2
100
AcDbLine
 10
101.95205983
 20
2.96057435
 30
0.0
 11
113.44253072
 21
2.49251581
 31
0.0
  0
LINE
  5
31D
100
AcDbEntity
  8
Ech.1_1
 62
    44
  6
CONTINUOUS
370
    -2
100
AcDbLine
 10
2.99869282
 20
8.58370168
 30
0.0
 11
3.15872673
 21
3.08603043
 31
0.0
  0
LINE
  5
31E
100
AcDbEntity
  8
Ech.1_1
 62
    44
  6
CONTINUOUS
370
    -2
100
AcDbLine
 10
0.24728819
 20
9.4313872978091E-06
 30
0.0
 11
-3.6950659705326E-05
 21
8.49641045
 31
0.0
  0
LINE
  5
31F
100
AcDbEntity
  8
Ech.1_1
 62
    44
  6
CONTINUOUS
370
    -2
100
AcDbLine
 10
101.95205983
 20
2.96057435
 30
0.0
 11
56.38917232
 21
1.63426601
 31
0.0
  0
LINE
  5
320
100
AcDbEntity
  8
Ech.1_1
 62
    44
  6
CONTINUOUS
370
    -2
100
AcDbLine
 10
51.97358749
 20
4.50700175
 30
0.0
 11
56.2291384
 21
7.13193726
 31
0.0
  0
LINE
  5
321
100
AcDbEntity
  8
Ech.1_1
 62
    44
  6
CONTINUOUS
370
    -2
100
AcDbLine
 10
56.2291384
 20
7.13193726
 30
0.0
 11
100.77828017
 21
8.42873606
 31
0.0
  0
LINE
  5
322
100
AcDbEntity
  8
Ech.1_1
 62
    44
  6
CONTINUOUS
370
    -2
100
AcDbLine
 10
129.92885851
 20
1.82095357
 30
0.0
 11
130.05096074
 21
4.81846771
 31
0.0
  0
LINE
  5
323
100
AcDbEntity
  8
Ech.1_1
 62
    44
  6
CONTINUOUS
370
    -2
100
AcDbLine
 10
102.23339163
 20
9.86704984
 30
0.0
 11
102.50151985
 21
16.449388
 31
0.0
  0
LINE
  5
324
100
AcDbEntity
  8
Ech.1_1
 62
    44
  6
CONTINUOUS
370
    -2
100
AcDbLine
 10
105.45833325
 20
15.32811439
 30
0.0
 11
105.499034
 21
16.32728577
 31
0.0
  0
LINE
  5
325
100
AcDbEntity
  8
Ech.1_1
 62
    44
  6
CONTINUOUS
370
    -2
100
AcDbLine
 10
105.45833325
 20
15.32811439
 30
0.0
 11
110.41348942
 21
14.1254393
 31
0.0
  0
LINE
  5
326
100
AcDbEntity
  8
Ech.1_1
 62
    44
  6
CONTINUOUS
370
    -2
100
AcDbLine
 10
110.41348942
 20
14.1254393
 30
0.0
 11
117.85866598
 21
6.04795498
 31
0.0
  0
LINE
  5
327
100
AcDbEntity
  8
Ech.1_1
 62
    44
  6
CONTINUOUS
370
    -2
100
AcDbLine
 10
119.5951657
 20
5.24437925
 30
0.0
 11
124.72676034
 21
5.03534633
 31
0.0
  0
LINE
  5
328
100
AcDbEntity
  8
Ech.1_1
 62
    44
  6
CONTINUOUS
370
    -2
100
AcDbLine
 10
127.26766112
 20
8.0815015
 30
0.0
 11
124.91726737
 21
18.53878175
 31
0.0
  0
LINE
  5
329
100
AcDbEntity
  8
Ech.1_1
 62
    44
  6
CONTINUOUS
370
    -2
100
AcDbLine
 10
130.05096074
 20
4.81846771
 30
0.0
 11
126.98610403
 21
18.45450873
 31
0.0
  0
LINE
  5
32A
100
AcDbEntity
  8
Ech.1_1
 62
    44
  6
CONTINUOUS
370
    -2
100
AcDbLine
 10
56.38917232
 20
1.63426601
 30
0.0
 11
3.24601796
 21
0.08730066
 31
0.0
  0
LINE
  5
32B
100
AcDbEntity
  8
Ech.1_1
 62
    44
  6
CONTINUOUS
370
    -2
100
AcDbLine
 10
32.14644786
 20
3.92984561
 30
0.0
 11
6.40735065
 21
3.18059592
 31
0.0
  0
LINE
  5
32C
100
AcDbEntity
  8
Ech.1_1
 62
    44
  6
CONTINUOUS
370
    -2
100
AcDbLine
 10
124.91726737
 20
18.53878175
 30
0.0
 11
126.98610403
 21
18.45450873
 31
0.0
  0
ENDBLK
  5
32D
100
AcDbEntity
100
AcDbBlockEnd
  0
BLOCK
  5
32E
100
AcDbEntity
  8
Ech.1_1
100
AcDbBlockBegin
  2
A$C3F0A7B51
 70
     0
 10
0.0
 20
0.0
 30
0.0
  3
A$C3F0A7B51
  1

  4
Cadwork node ref
  0
HATCH
  5
32F
100
AcDbEntity
  8
Ech.1_1
 62
    44
100
AcDbHatch
 10
0.0
 20
0.0
 30
0.0
210
0.0
220
0.0
230
1.0
  2
USER
 70
     0
 71
     0
 91
        1
 92
        7
 72
     0
 73
     1
 93
       60
 10
12.19228711
 20
30.25432773
 10
11.90460002
 20
30.52103334
 10
11.57873289
 20
30.73945119
 10
11.22270964
 20
30.90420309
 10
10.84529676
 20
31.01123232
 10
10.45578739
 20
31.05790347
 10
5.32419275
 20
31.26693638
 10
4.42225693
 20
31.13748964
 10
3.62661688
 20
30.69341582
 10
3.04296472
 20
29.99370528
 10
2.74883232
 20
29.131307
 10
2.78329197
 20
28.22078122
 10
5.13368571
 20
17.76350096
 10
3.06484905
 20
17.84777398
 10
-7.6553988037631E-06
 20
31.483815
 10
0.12209457
 20
34.48132915
 10
5.67858828
 20
35.75623214
 10
5.61753717
 20
34.25747506
 10
11.17403088
 20
35.53237805
 10
11.11297977
 20
34.03362098
 10
16.66947348
 20
35.30852397
 10
16.60842237
 20
33.8097669
 10
28.09889325
 20
33.34170837
 10
73.66178077
 20
34.6680167
 10
126.80493513
 20
36.21498206
 10
128.30430001
 20
36.25862767
 10
129.8036649
 20
36.30227328
 10
130.05099004
 20
27.80587226
 10
129.99109313
 20
27.34040686
 10
129.79029107
 20
26.91623213
 10
129.46823976
 20
26.57486922
 10
129.05646383
 20
26.34973314
 10
128.59527076
 20
26.26286176
 10
128.12980536
 20
26.32275867
 10
127.70563063
 20
26.52356073
 10
127.36426772
 20
26.84561204
 10
127.13913164
 20
27.25738798
 10
127.05226026
 20
27.71858104
 10
126.89222635
 20
33.21625229
 10
78.0773656
 20
31.79528096
 10
73.82181468
 20
29.17034545
 10
29.27267292
 20
27.87354665
 10
28.83125055
 20
27.79358624
 10
28.43321426
 20
27.58666964
 10
28.1141657
 20
27.27130415
 10
27.90264164
 20
26.8756971
 10
27.81756146
 20
26.43523288
 10
27.54943323
 20
19.85289472
 10
27.45721301
 20
19.39274137
 10
27.22731116
 20
18.98360714
 10
26.88223208
 20
18.66554094
 10
26.45575451
 20
18.46967732
 10
25.98962505
 20
18.41518876
 10
25.5294717
 20
18.50740898
 10
25.12033747
 20
18.73731083
 10
24.80227128
 20
19.08238991
 10
24.60640765
 20
19.50886748
 10
24.55191909
 20
19.97499694
 10
24.59261983
 20
20.97416833
 10
19.63746367
 20
22.17684342
 97
        0
 75
     0
 76
     2
 52
0.0
 41
1.0
 77
     0
 78
     1
 53
132.66740417
 43
0.0
 44
0.0
 45
-2.57355095
 46
-2.37209508
 79
     2
 49
50.0
 49
0.0
 47
0.775229
 98
        1
 10
0.0
 20
0.0
  0
ARC
  5
330
100
AcDbEntity
  8
Ech.1_1
 62
    44
  6
CONTINUOUS
100
AcDbCircle
 10
128.55162515
 20
27.76222665
 30
0.0
 40
1.5
100
AcDbArc
 50
181.66738496
 51
271.66738495
  0
ARC
  5
331
100
AcDbEntity
  8
Ech.1_1
 62
    44
  6
CONTINUOUS
100
AcDbCircle
 10
128.55162515
 20
27.76222665
 30
0.0
 40
1.5
100
AcDbArc
 50
271.66738495
 51
1.66737494
  0
ARC
  5
332
100
AcDbEntity
  8
Ech.1_1
 62
    44
  6
CONTINUOUS
100
AcDbCircle
 10
10.35403553
 20
28.55997501
 30
0.0
 40
2.5
100
AcDbArc
 50
42.66737495
 51
87.66737492
  0
ARC
  5
333
100
AcDbEntity
  8
Ech.1_1
 62
    44
  6
CONTINUOUS
100
AcDbCircle
 10
5.22244089
 20
28.76900793
 30
0.0
 40
2.5
100
AcDbArc
 50
87.66737493
 51
192.66738496
  0
ARC
  5
334
100
AcDbEntity
  8
Ech.1_1
 62
    44
  6
CONTINUOUS
100
AcDbCircle
 10
29.31631853
 20
26.37418177
 30
0.0
 40
1.5
100
AcDbArc
 50
91.66737493
 51
177.66737493
  0
CIRCLE
  5
335
100
AcDbEntity
  8
Ech.1_1
 62
    44
  6
CONTINUOUS
100
AcDbCircle
 10
83.77303887
 20
28.0964624
 30
0.0
 40
1.28741883
  0
CIRCLE
  5
336
100
AcDbEntity
  8
Ech.1_1
 62
    44
  6
CONTINUOUS
100
AcDbCircle
 10
96.62090903
 20
29.21642946
 30
0.0
 40
1.28741883
  0
CIRCLE
  5
337
100
AcDbEntity
  8
Ech.1_1
 62
    44
  6
CONTINUOUS
100
AcDbCircle
 10
111.36225304
 20
28.50171547
 30
0.0
 40
1.28741883
  0
CIRCLE
  5
338
100
AcDbEntity
  8
Ech.1_1
 62
    44
  6
CONTINUOUS
100
AcDbCircle
 10
121.98609433
 20
25.72761295
 30
0.0
 40
1.28741883
  0
CIRCLE
  5
339
100
AcDbEntity
  8
Ech.1_1
 62
    44
  6
CONTINUOUS
100
AcDbCircle
 10
120.24100588
 20
15.63104116
 30
0.0
 40
1.28741883
  0
CIRCLE
  5
33A
100
AcDbEntity
  8
Ech.1_1
 62
    44
  6
CONTINUOUS
100
AcDbCircle
 10
106.1893563
 20
6.32005842
 30
0.0
 40
1.28741883
  0
CIRCLE
  5
33B
100
AcDbEntity
  8
Ech.1_1
 62
    44
  6
CONTINUOUS
100
AcDbCircle
 10
101.82901825
 20
4.45295513
 30
0.0
 40
0.69421153
  0
CIRCLE
  5
33C
100
AcDbEntity
  8
Ech.1_1
 62
    44
  6
CONTINUOUS
100
AcDbCircle
 10
108.79192334
 20
11.26993741
 30
0.0
 40
0.69421153
  0
CIRCLE
  5
33D
100
AcDbEntity
  8
Ech.1_1
 62
    44
  6
CONTINUOUS
100
AcDbCircle
 10
114.1096297
 20
9.68412837
 30
0.0
 40
0.69421153
  0
CIRCLE
  5
33E
100
AcDbEntity
  8
Ech.1_1
 62
    44
  6
CONTINUOUS
100
AcDbCircle
 10
123.31681368
 20
19.69952798
 30
0.0
 40
0.69421153
  0
CIRCLE
  5
33F
100
AcDbEntity
  8
Ech.1_1
 62
    44
  6
CONTINUOUS
100
AcDbCircle
 10
118.78894962
 20
28.32047756
 30
0.0
 40
0.69421153
  0
CIRCLE
  5
340
100
AcDbEntity
  8
Ech.1_1
 62
    44
  6
CONTINUOUS
100
AcDbCircle
 10
115.2398133
 20
30.65401033
 30
0.0
 40
0.69421153
  0
CIRCLE
  5
341
100
AcDbEntity
  8
Ech.1_1
 62
    44
  6
CONTINUOUS
100
AcDbCircle
 10
105.46349941
 20
28.230971
 30
0.0
 40
0.69421153
  0
CIRCLE
  5
342
100
AcDbEntity
  8
Ech.1_1
 62
    44
  6
CONTINUOUS
100
AcDbCircle
 10
88.37177629
 20
27.68370964
 30
0.0
 40
0.69421153
  0
CIRCLE
  5
343
100
AcDbEntity
  8
Ech.1_1
 62
    44
  6
CONTINUOUS
100
AcDbCircle
 10
92.28473551
 20
29.93607023
 30
0.0
 40
0.69421153
  0
CIRCLE
  5
344
100
AcDbEntity
  8
Ech.1_1
 62
    44
  6
CONTINUOUS
100
AcDbCircle
 10
101.54748387
 20
1.97470993
 30
0.0
 40
0.3440962
  0
CIRCLE
  5
345
100
AcDbEntity
  8
Ech.1_1
 62
    44
  6
CONTINUOUS
100
AcDbCircle
 10
100.16681521
 20
3.27727137
 30
0.0
 40
0.3440962
  0
CIRCLE
  5
346
100
AcDbEntity
  8
Ech.1_1
 62
    44
  6
CONTINUOUS
100
AcDbCircle
 10
100.00668626
 20
5.36133526
 30
0.0
 40
0.3440962
  0
CIRCLE
  5
347
100
AcDbEntity
  8
Ech.1_1
 62
    44
  6
CONTINUOUS
100
AcDbCircle
 10
102.34115463
 20
7.16989452
 30
0.0
 40
0.3440962
  0
CIRCLE
  5
348
100
AcDbEntity
  8
Ech.1_1
 62
    44
  6
CONTINUOUS
100
AcDbCircle
 10
103.05892811
 20
3.01333819
 30
0.0
 40
0.3440962
  0
CIRCLE
  5
349
100
AcDbEntity
  8
Ech.1_1
 62
    44
  6
CONTINUOUS
100
AcDbCircle
 10
104.7015727
 20
2.96169149
 30
0.0
 40
0.3440962
  0
CIRCLE
  5
34A
100
AcDbEntity
  8
Ech.1_1
 62
    44
  6
CONTINUOUS
100
AcDbCircle
 10
104.08700658
 20
5.28118474
 30
0.0
 40
0.3440962
  0
CIRCLE
  5
34B
100
AcDbEntity
  8
Ech.1_1
 62
    44
  6
CONTINUOUS
100
AcDbCircle
 10
103.99877435
 20
8.31224096
 30
0.0
 40
0.3440962
  0
CIRCLE
  5
34C
100
AcDbEntity
  8
Ech.1_1
 62
    44
  6
CONTINUOUS
100
AcDbCircle
 10
106.48809679
 20
9.92638173
 30
0.0
 40
0.3440962
  0
CIRCLE
  5
34D
100
AcDbEntity
  8
Ech.1_1
 62
    44
  6
CONTINUOUS
100
AcDbCircle
 10
108.39076005
 20
9.48445161
 30
0.0
 40
0.3440962
  0
CIRCLE
  5
34E
100
AcDbEntity
  8
Ech.1_1
 62
    44
  6
CONTINUOUS
100
AcDbCircle
 10
108.54799614
 20
7.49976661
 30
0.0
 40
0.3440962
  0
CIRCLE
  5
34F
100
AcDbEntity
  8
Ech.1_1
 62
    44
  6
CONTINUOUS
100
AcDbCircle
 10
107.10164125
 20
4.22511327
 30
0.0
 40
0.3440962
  0
CIRCLE
  5
350
100
AcDbEntity
  8
Ech.1_1
 62
    44
  6
CONTINUOUS
100
AcDbCircle
 10
109.77959646
 20
6.19286588
 30
0.0
 40
0.3440962
  0
CIRCLE
  5
351
100
AcDbEntity
  8
Ech.1_1
 62
    44
  6
CONTINUOUS
100
AcDbCircle
 10
112.46767668
 20
7.81279237
 30
0.0
 40
0.3440962
  0
CIRCLE
  5
352
100
AcDbEntity
  8
Ech.1_1
 62
    44
  6
CONTINUOUS
100
AcDbCircle
 10
110.66583874
 20
8.2079259
 30
0.0
 40
0.3440962
  0
CIRCLE
  5
353
100
AcDbEntity
  8
Ech.1_1
 62
    44
  6
CONTINUOUS
100
AcDbCircle
 10
111.90280001
 20
10.13373204
 30
0.0
 40
0.3440962
  0
CIRCLE
  5
354
100
AcDbEntity
  8
Ech.1_1
 62
    44
  6
CONTINUOUS
100
AcDbCircle
 10
110.54723148
 20
12.28246051
 30
0.0
 40
0.3440962
  0
CIRCLE
  5
355
100
AcDbEntity
  8
Ech.1_1
 62
    44
  6
CONTINUOUS
100
AcDbCircle
 10
111.93615395
 20
14.11322704
 30
0.0
 40
0.3440962
  0
CIRCLE
  5
356
100
AcDbEntity
  8
Ech.1_1
 62
    44
  6
CONTINUOUS
100
AcDbCircle
 10
113.63520931
 20
12.12369193
 30
0.0
 40
0.3440962
  0
CIRCLE
  5
357
100
AcDbEntity
  8
Ech.1_1
 62
    44
  6
CONTINUOUS
100
AcDbCircle
 10
116.36183231
 20
10.71111576
 30
0.0
 40
0.3440962
  0
CIRCLE
  5
358
100
AcDbEntity
  8
Ech.1_1
 62
    44
  6
CONTINUOUS
100
AcDbCircle
 10
118.99877666
 20
12.37928526
 30
0.0
 40
0.3440962
  0
CIRCLE
  5
359
100
AcDbEntity
  8
Ech.1_1
 62
    44
  6
CONTINUOUS
100
AcDbCircle
 10
116.7072764
 20
12.51150727
 30
0.0
 40
0.3440962
  0
CIRCLE
  5
35A
100
AcDbEntity
  8
Ech.1_1
 62
    44
  6
CONTINUOUS
100
AcDbCircle
 10
115.27547187
 20
13.86231173
 30
0.0
 40
0.3440962
  0
CIRCLE
  5
35B
100
AcDbEntity
  8
Ech.1_1
 62
    44
  6
CONTINUOUS
100
AcDbCircle
 10
115.31699356
 20
15.85278244
 30
0.0
 40
0.3440962
  0
CIRCLE
  5
35C
100
AcDbEntity
  8
Ech.1_1
 62
    44
  6
CONTINUOUS
100
AcDbCircle
 10
117.3802966
 20
15.01767604
 30
0.0
 40
0.3440962
  0
CIRCLE
  5
35D
100
AcDbEntity
  8
Ech.1_1
 62
    44
  6
CONTINUOUS
100
AcDbCircle
 10
117.85021972
 20
17.66712742
 30
0.0
 40
0.3440962
  0
CIRCLE
  5
35E
100
AcDbEntity
  8
Ech.1_1
 62
    44
  6
CONTINUOUS
100
AcDbCircle
 10
119.47840001
 20
18.11237519
 30
0.0
 40
0.3440962
  0
CIRCLE
  5
35F
100
AcDbEntity
  8
Ech.1_1
 62
    44
  6
CONTINUOUS
100
AcDbCircle
 10
122.52825983
 20
17.55464461
 30
0.0
 40
0.3440962
  0
CIRCLE
  5
360
100
AcDbEntity
  8
Ech.1_1
 62
    44
  6
CONTINUOUS
100
AcDbCircle
 10
121.87548965
 20
14.35282359
 30
0.0
 40
0.3440962
  0
CIRCLE
  5
361
100
AcDbEntity
  8
Ech.1_1
 62
    44
  6
CONTINUOUS
100
AcDbCircle
 10
123.83464973
 20
17.09535733
 30
0.0
 40
0.3440962
  0
CIRCLE
  5
362
100
AcDbEntity
  8
Ech.1_1
 62
    44
  6
CONTINUOUS
100
AcDbCircle
 10
124.88204262
 20
20.40812868
 30
0.0
 40
0.3440962
  0
CIRCLE
  5
363
100
AcDbEntity
  8
Ech.1_1
 62
    44
  6
CONTINUOUS
100
AcDbCircle
 10
124.51303087
 20
22.83423297
 30
0.0
 40
0.3440962
  0
CIRCLE
  5
364
100
AcDbEntity
  8
Ech.1_1
 62
    44
  6
CONTINUOUS
100
AcDbCircle
 10
123.95827921
 20
24.80734652
 30
0.0
 40
0.3440962
  0
CIRCLE
  5
365
100
AcDbEntity
  8
Ech.1_1
 62
    44
  6
CONTINUOUS
100
AcDbCircle
 10
122.3107845
 20
23.31717396
 30
0.0
 40
0.3440962
  0
CIRCLE
  5
366
100
AcDbEntity
  8
Ech.1_1
 62
    44
  6
CONTINUOUS
100
AcDbCircle
 10
122.74735368
 20
21.98713035
 30
0.0
 40
0.3440962
  0
CIRCLE
  5
367
100
AcDbEntity
  8
Ech.1_1
 62
    44
  6
CONTINUOUS
100
AcDbCircle
 10
121.18136988
 20
19.40523639
 30
0.0
 40
0.3440962
  0
CIRCLE
  5
368
100
AcDbEntity
  8
Ech.1_1
 62
    44
  6
CONTINUOUS
100
AcDbCircle
 10
119.74811892
 20
20.8057303
 30
0.0
 40
0.3440962
  0
CIRCLE
  5
369
100
AcDbEntity
  8
Ech.1_1
 62
    44
  6
CONTINUOUS
100
AcDbCircle
 10
121.03766249
 20
22.63360398
 30
0.0
 40
0.3440962
  0
CIRCLE
  5
36A
100
AcDbEntity
  8
Ech.1_1
 62
    44
  6
CONTINUOUS
100
AcDbCircle
 10
119.20834238
 20
23.972837
 30
0.0
 40
0.3440962
  0
CIRCLE
  5
36B
100
AcDbEntity
  8
Ech.1_1
 62
    44
  6
CONTINUOUS
100
AcDbCircle
 10
119.65461179
 20
25.72643192
 30
0.0
 40
0.3440962
  0
CIRCLE
  5
36C
100
AcDbEntity
  8
Ech.1_1
 62
    44
  6
CONTINUOUS
100
AcDbCircle
 10
118.25318228
 20
26.033758
 30
0.0
 40
0.3440962
  0
CIRCLE
  5
36D
100
AcDbEntity
  8
Ech.1_1
 62
    44
  6
CONTINUOUS
100
AcDbCircle
 10
120.58909709
 20
27.79262782
 30
0.0
 40
0.3440962
  0
CIRCLE
  5
36E
100
AcDbEntity
  8
Ech.1_1
 62
    44
  6
CONTINUOUS
100
AcDbCircle
 10
119.43517921
 20
29.84776311
 30
0.0
 40
0.3440962
  0
CIRCLE
  5
36F
100
AcDbEntity
  8
Ech.1_1
 62
    44
  6
CONTINUOUS
100
AcDbCircle
 10
117.71247015
 20
30.94144175
 30
0.0
 40
0.3440962
  0
CIRCLE
  5
370
100
AcDbEntity
  8
Ech.1_1
 62
    44
  6
CONTINUOUS
100
AcDbCircle
 10
116.17014005
 20
29.25540426
 30
0.0
 40
0.3440962
  0
CIRCLE
  5
371
100
AcDbEntity
  8
Ech.1_1
 62
    44
  6
CONTINUOUS
100
AcDbCircle
 10
117.00711766
 20
27.8375532
 30
0.0
 40
0.3440962
  0
CIRCLE
  5
372
100
AcDbEntity
  8
Ech.1_1
 62
    44
  6
CONTINUOUS
100
AcDbCircle
 10
114.60322065
 20
28.41408736
 30
0.0
 40
0.3440962
  0
CIRCLE
  5
373
100
AcDbEntity
  8
Ech.1_1
 62
    44
  6
CONTINUOUS
100
AcDbCircle
 10
112.94228329
 20
30.80258447
 30
0.0
 40
0.3440962
  0
CIRCLE
  5
374
100
AcDbEntity
  8
Ech.1_1
 62
    44
  6
CONTINUOUS
100
AcDbCircle
 10
110.70336535
 20
30.83687402
 30
0.0
 40
0.3440962
  0
CIRCLE
  5
375
100
AcDbEntity
  8
Ech.1_1
 62
    44
  6
CONTINUOUS
100
AcDbCircle
 10
108.59709418
 20
29.73119915
 30
0.0
 40
0.3440962
  0
CIRCLE
  5
376
100
AcDbEntity
  8
Ech.1_1
 62
    44
  6
CONTINUOUS
100
AcDbCircle
 10
108.25309652
 20
27.8811182
 30
0.0
 40
0.3440962
  0
CIRCLE
  5
377
100
AcDbEntity
  8
Ech.1_1
 62
    44
  6
CONTINUOUS
100
AcDbCircle
 10
107.15176095
 20
29.83832102
 30
0.0
 40
0.3440962
  0
CIRCLE
  5
378
100
AcDbEntity
  8
Ech.1_1
 62
    44
  6
CONTINUOUS
100
AcDbCircle
 10
105.57522736
 20
31.03571785
 30
0.0
 40
0.3440962
  0
CIRCLE
  5
379
100
AcDbEntity
  8
Ech.1_1
 62
    44
  6
CONTINUOUS
100
AcDbCircle
 10
103.61657811
 20
29.98407173
 30
0.0
 40
0.3440962
  0
CIRCLE
  5
37A
100
AcDbEntity
  8
Ech.1_1
 62
    44
  6
CONTINUOUS
100
AcDbCircle
 10
103.12640497
 20
28.03027259
 30
0.0
 40
0.3440962
  0
CIRCLE
  5
37B
100
AcDbEntity
  8
Ech.1_1
 62
    44
  6
CONTINUOUS
100
AcDbCircle
 10
100.00464843
 20
27.64101082
 30
0.0
 40
0.3440962
  0
CIRCLE
  5
37C
100
AcDbEntity
  8
Ech.1_1
 62
    44
  6
CONTINUOUS
100
AcDbCircle
 10
99.698344
 20
29.62135653
 30
0.0
 40
0.3440962
  0
CIRCLE
  5
37D
100
AcDbEntity
  8
Ech.1_1
 62
    44
  6
CONTINUOUS
100
AcDbCircle
 10
101.25896685
 20
28.97054361
 30
0.0
 40
0.3440962
  0
CIRCLE
  5
37E
100
AcDbEntity
  8
Ech.1_1
 62
    44
  6
CONTINUOUS
100
AcDbCircle
 10
102.05161596
 20
30.78395299
 30
0.0
 40
0.3440962
  0
CIRCLE
  5
37F
100
AcDbEntity
  8
Ech.1_1
 62
    44
  6
CONTINUOUS
100
AcDbCircle
 10
98.51107218
 20
27.69699681
 30
0.0
 40
0.3440962
  0
CIRCLE
  5
380
100
AcDbEntity
  8
Ech.1_1
 62
    44
  6
CONTINUOUS
100
AcDbCircle
 10
95.49303382
 20
27.16155957
 30
0.0
 40
0.3440962
  0
CIRCLE
  5
381
100
AcDbEntity
  8
Ech.1_1
 62
    44
  6
CONTINUOUS
100
AcDbCircle
 10
92.8990576
 20
27.43417133
 30
0.0
 40
0.3440962
  0
CIRCLE
  5
382
100
AcDbEntity
  8
Ech.1_1
 62
    44
  6
CONTINUOUS
100
AcDbCircle
 10
90.62202164
 20
27.06949888
 30
0.0
 40
0.3440962
  0
CIRCLE
  5
383
100
AcDbEntity
  8
Ech.1_1
 62
    44
  6
CONTINUOUS
100
AcDbCircle
 10
90.67366835
 20
28.71214347
 30
0.0
 40
0.3440962
  0
CIRCLE
  5
384
100
AcDbEntity
  8
Ech.1_1
 62
    44
  6
CONTINUOUS
100
AcDbCircle
 10
93.76019974
 20
28.60306434
 30
0.0
 40
0.3440962
  0
CIRCLE
  5
385
100
AcDbEntity
  8
Ech.1_1
 62
    44
  6
CONTINUOUS
100
AcDbCircle
 10
94.74609555
 20
30.17009212
 30
0.0
 40
0.3440962
  0
CIRCLE
  5
386
100
AcDbEntity
  8
Ech.1_1
 62
    44
  6
CONTINUOUS
100
AcDbCircle
 10
90.22724879
 20
29.9390881
 30
0.0
 40
0.3440962
  0
CIRCLE
  5
387
100
AcDbEntity
  8
Ech.1_1
 62
    44
  6
CONTINUOUS
100
AcDbCircle
 10
88.09756011
 20
30.07936948
 30
0.0
 40
0.3440962
  0
CIRCLE
  5
388
100
AcDbEntity
  8
Ech.1_1
 62
    44
  6
CONTINUOUS
100
AcDbCircle
 10
86.34728283
 20
26.99479534
 30
0.0
 40
0.3440962
  0
CIRCLE
  5
389
100
AcDbEntity
  8
Ech.1_1
 62
    44
  6
CONTINUOUS
100
AcDbCircle
 10
86.77764151
 20
29.29497418
 30
0.0
 40
0.3440962
  0
CIRCLE
  5
38A
100
AcDbEntity
  8
Ech.1_1
 62
    44
  6
CONTINUOUS
100
AcDbCircle
 10
85.1572042
 20
30.29216679
 30
0.0
 40
0.3440962
  0
CIRCLE
  5
38B
100
AcDbEntity
  8
Ech.1_1
 62
    44
  6
CONTINUOUS
100
AcDbCircle
 10
82.1275944
 20
30.15424511
 30
0.0
 40
0.3440962
  0
CIRCLE
  5
38C
100
AcDbEntity
  8
Ech.1_1
 62
    44
  6
CONTINUOUS
100
AcDbCircle
 10
80.8510687
 20
27.87916642
 30
0.0
 40
0.3440962
  0
CIRCLE
  5
38D
100
AcDbEntity
  8
Ech.1_1
 62
    44
  6
CONTINUOUS
100
AcDbCircle
 10
81.77730019
 20
26.81203434
 30
0.0
 40
0.3440962
  0
CIRCLE
  5
38E
100
AcDbEntity
  8
Ech.1_1
 62
    44
  6
CONTINUOUS
100
AcDbCircle
 10
101.56093199
 20
27.13926624
 30
0.0
 40
0.3440962
  0
CIRCLE
  5
38F
100
AcDbEntity
  8
Ech.1_1
 62
    44
  6
CONTINUOUS
100
AcDbCircle
 10
115.88306399
 20
27.15832251
 30
0.0
 40
0.3440962
  0
ARC
  5
390
100
AcDbEntity
  8
Ech.1_1
 62
    44
  6
CONTINUOUS
100
AcDbCircle
 10
102.62829139
 20
4.4980832
 30
0.0
 40
4.5
100
AcDbArc
 50
181.66738495
 51
303.1249124
  0
ARC
  5
391
100
AcDbEntity
  8
Ech.1_1
 62
    44
  6
CONTINUOUS
100
AcDbCircle
 10
113.6287719
 20
21.8255016
 30
0.0
 40
4.0
100
AcDbArc
 50
1.66737494
 51
91.66737493
  0
ARC
  5
392
100
AcDbEntity
  8
Ech.1_1
 62
    44
  6
CONTINUOUS
100
AcDbCircle
 10
102.62829139
 20
4.4980832
 30
0.0
 40
4.5
100
AcDbArc
 50
123.12490237
 51
181.66738496
  0
ARC
  5
393
100
AcDbEntity
  8
Ech.1_1
 62
    44
  6
CONTINUOUS
100
AcDbCircle
 10
113.62877191
 20
21.8255016
 30
0.0
 40
4.0
100
AcDbArc
 50
303.12491239
 51
1.66737494
  0
ARC
  5
394
100
AcDbEntity
  8
Ech.1_1
 62
    44
  6
CONTINUOUS
100
AcDbCircle
 10
82.42366954
 20
28.4203167
 30
0.0
 40
3.5
100
AcDbArc
 50
181.66738495
 51
271.66738496
  0
ARC
  5
395
100
AcDbEntity
  8
Ech.1_1
 62
    44
  6
CONTINUOUS
100
AcDbCircle
 10
82.42366954
 20
28.4203167
 30
0.0
 40
3.5
100
AcDbArc
 50
91.66737494
 51
181.66738495
  0
ARC
  5
396
100
AcDbEntity
  8
Ech.1_1
 62
    44
  6
CONTINUOUS
100
AcDbCircle
 10
114.93076083
 20
21.14472651
 30
0.0
 40
11.71837091
100
AcDbArc
 50
303.12491239
 51
1.66737494
  0
ARC
  5
397
100
AcDbEntity
  8
Ech.1_1
 62
    44
  6
CONTINUOUS
100
AcDbCircle
 10
114.93076083
 20
21.14472651
 30
0.0
 40
10.96837091
100
AcDbArc
 50
303.12491239
 51
91.66737494
  0
ARC
  5
398
100
AcDbEntity
  8
Ech.1_1
 62
    44
  6
CONTINUOUS
100
AcDbCircle
 10
102.62829139
 20
4.4980832
 30
0.0
 40
3.75
100
AcDbArc
 50
181.66738495
 51
303.12491239
  0
ARC
  5
399
100
AcDbEntity
  8
Ech.1_1
 62
    44
  6
CONTINUOUS
100
AcDbCircle
 10
102.62829139
 20
4.4980832
 30
0.0
 40
3.75
100
AcDbArc
 50
123.12490237
 51
181.66738495
  0
ARC
  5
39A
100
AcDbEntity
  8
Ech.1_1
 62
    44
  6
CONTINUOUS
100
AcDbCircle
 10
113.6287719
 20
21.8255016
 30
0.0
 40
4.75
100
AcDbArc
 50
303.1249124
 51
1.66737493
  0
ARC
  5
39B
100
AcDbEntity
  8
Ech.1_1
 62
    44
  6
CONTINUOUS
100
AcDbCircle
 10
113.62877191
 20
21.8255016
 30
0.0
 40
4.75
100
AcDbArc
 50
1.66737493
 51
91.66737494
  0
ARC
  5
39C
100
AcDbEntity
  8
Ech.1_1
 62
    44
  6
CONTINUOUS
100
AcDbCircle
 10
82.42366954
 20
28.4203167
 30
0.0
 40
2.75
100
AcDbArc
 50
181.66738495
 51
271.66738496
  0
ARC
  5
39D
100
AcDbEntity
  8
Ech.1_1
 62
    44
  6
CONTINUOUS
100
AcDbCircle
 10
82.42366954
 20
28.4203167
 30
0.0
 40
2.75
100
AcDbArc
 50
91.66737494
 51
181.66738495
  0
ARC
  5
39E
100
AcDbEntity
  8
Ech.1_1
 62
    44
  6
CONTINUOUS
100
AcDbCircle
 10
114.93076083
 20
21.14472651
 30
0.0
 40
11.71837091
100
AcDbArc
 50
1.66737494
 51
91.66737494
  0
ARC
  5
39F
100
AcDbEntity
  8
Ech.1_1
 62
    44
  6
CONTINUOUS
100
AcDbCircle
 10
26.05067616
 20
19.91394583
 30
0.0
 40
1.5
100
AcDbArc
 50
267.66738495
 51
357.66738496
  0
ARC
  5
3A0
100
AcDbEntity
  8
Ech.1_1
 62
    44
  6
CONTINUOUS
100
AcDbCircle
 10
26.05067616
 20
19.91394583
 30
0.0
 40
1.5
100
AcDbArc
 50
177.66737495
 51
267.66738495
  0
LINE
  5
3A1
100
AcDbEntity
  8
Ech.1_1
 62
    44
  6
CONTINUOUS
370
    -2
100
AcDbLine
 10
100.16919437
 20
8.26674899
 30
0.0
 11
115.81463593
 21
18.47557646
 31
0.0
  0
LINE
  5
3A2
100
AcDbEntity
  8
Ech.1_1
 62
    44
  6
CONTINUOUS
370
    -2
100
AcDbLine
 10
121.33445218
 20
11.33081017
 30
0.0
 11
105.08738842
 21
0.72941741
 31
0.0
  0
LINE
  5
3A3
100
AcDbEntity
  8
Ech.1_1
 62
    44
  6
CONTINUOUS
370
    -2
100
AcDbLine
 10
113.5123836
 20
25.82380796
 30
0.0
 11
82.5255093
 21
24.92179863
 31
0.0
  0
LINE
  5
3A4
100
AcDbEntity
  8
Ech.1_1
 62
    44
  6
CONTINUOUS
370
    -2
100
AcDbLine
 10
114.58979051
 20
32.85813576
 30
0.0
 11
98.81484352
 21
32.39893651
 31
0.0
  0
LINE
  5
3A5
100
AcDbEntity
  8
Ech.1_1
 62
    44
  6
CONTINUOUS
370
    -2
100
AcDbLine
 10
120.92460267
 20
11.95892113
 30
0.0
 11
104.67753891
 21
1.35752838
 31
0.0
  0
LINE
  5
3A6
100
AcDbEntity
  8
Ech.1_1
 62
    44
  6
CONTINUOUS
370
    -2
100
AcDbLine
 10
100.57904387
 20
7.63863802
 30
0.0
 11
116.22448543
 21
17.84746549
 31
0.0
  0
LINE
  5
3A7
100
AcDbEntity
  8
Ech.1_1
 62
    44
  6
CONTINUOUS
370
    -2
100
AcDbLine
 10
113.4905608
 20
26.57349041
 30
0.0
 11
82.50368649
 21
25.67148108
 31
0.0
  0
LINE
  5
3A8
100
AcDbEntity
  8
Ech.1_1
 62
    44
  6
CONTINUOUS
370
    -2
100
AcDbLine
 10
82.34365258
 20
31.16915233
 30
0.0
 11
87.98156615
 21
31.33326861
 31
0.0
  0
LINE
  5
3A9
100
AcDbEntity
  8
Ech.1_1
 62
    44
  6
CONTINUOUS
370
    -2
100
AcDbLine
 10
98.81484352
 20
32.39893651
 30
0.0
 11
89.01995442
 21
32.11381316
 31
0.0
  0
LINE
  5
3AA
100
AcDbEntity
  8
Ech.1_1
 62
    44
  6
CONTINUOUS
370
    -2
100
AcDbLine
 10
88.27027197
 20
32.09199035
 30
0.0
 11
82.32182977
 21
31.91883477
 31
0.0
  0
LINE
  5
3AB
100
AcDbEntity
  8
Ech.1_1
 62
    44
  6
CONTINUOUS
370
    -2
100
AcDbLine
 10
89.01995442
 20
32.11381316
 30
0.0
 11
89.04177722
 21
31.36413072
 31
0.0
  0
LINE
  5
3AC
100
AcDbEntity
  8
Ech.1_1
 62
    44
  6
CONTINUOUS
370
    -2
100
AcDbLine
 10
89.04177722
 20
31.36413072
 30
0.0
 11
98.83666632
 21
31.64925407
 31
0.0
  0
LINE
  5
3AD
100
AcDbEntity
  8
Ech.1_1
 62
    44
  6
CONTINUOUS
370
    -2
100
AcDbLine
 10
87.98156615
 20
31.33326861
 30
0.0
 11
88.75307139
 21
30.60540897
 31
0.0
  0
LINE
  5
3AE
100
AcDbEntity
  8
Ech.1_1
 62
    44
  6
CONTINUOUS
370
    -2
100
AcDbLine
 10
88.27027197
 20
32.09199035
 30
0.0
 11
89.04177722
 21
31.36413072
 31
0.0
  0
LINE
  5
3AF
100
AcDbEntity
  8
Ech.1_1
 62
    44
  6
CONTINUOUS
370
    -2
100
AcDbLine
 10
88.75307139
 20
30.60540897
 30
0.0
 11
98.85848913
 21
30.89957162
 31
0.0
  0
LINE
  5
3B0
100
AcDbEntity
  8
Ech.1_1
 62
    44
  6
CONTINUOUS
370
    -2
100
AcDbLine
 10
98.85848913
 20
30.89957162
 30
0.0
 11
98.83666632
 21
31.64925407
 31
0.0
  0
LINE
  5
3B1
100
AcDbEntity
  8
Ech.1_1
 62
    44
  6
CONTINUOUS
370
    -2
100
AcDbLine
 10
98.83666632
 20
31.64925407
 30
0.0
 11
114.61161332
 21
32.10845331
 31
0.0
  0
LINE
  5
3B2
100
AcDbEntity
  8
Ech.1_1
 62
    44
  6
CONTINUOUS
370
    -2
100
AcDbLine
 10
126.89222635
 20
33.21625229
 30
0.0
 11
78.0773656
 21
31.79528096
 31
0.0
  0
LINE
  5
3B3
100
AcDbEntity
  8
Ech.1_1
 62
    44
  6
CONTINUOUS
370
    -2
100
AcDbLine
 10
128.30430001
 20
36.25862767
 30
0.0
 11
129.8036649
 21
36.30227328
 31
0.0
  0
LINE
  5
3B4
100
AcDbEntity
  8
Ech.1_1
 62
    44
  6
CONTINUOUS
370
    -2
100
AcDbLine
 10
126.80493513
 20
36.21498206
 30
0.0
 11
128.30430001
 21
36.25862767
 31
0.0
  0
LINE
  5
3B5
100
AcDbEntity
  8
Ech.1_1
 62
    44
  6
CONTINUOUS
370
    -2
100
AcDbLine
 10
5.67858828
 20
35.75623214
 30
0.0
 11
0.12209457
 21
34.48132915
 31
0.0
  0
LINE
  5
3B6
100
AcDbEntity
  8
Ech.1_1
 62
    44
  6
CONTINUOUS
370
    -2
100
AcDbLine
 10
5.61753717
 20
34.25747506
 30
0.0
 11
5.67858828
 21
35.75623214
 31
0.0
  0
LINE
  5
3B7
100
AcDbEntity
  8
Ech.1_1
 62
    44
  6
CONTINUOUS
370
    -2
100
AcDbLine
 10
11.17403088
 20
35.53237805
 30
0.0
 11
5.61753717
 21
34.25747506
 31
0.0
  0
LINE
  5
3B8
100
AcDbEntity
  8
Ech.1_1
 62
    44
  6
CONTINUOUS
370
    -2
100
AcDbLine
 10
11.11297977
 20
34.03362098
 30
0.0
 11
11.17403088
 21
35.53237805
 31
0.0
  0
LINE
  5
3B9
100
AcDbEntity
  8
Ech.1_1
 62
    44
  6
CONTINUOUS
370
    -2
100
AcDbLine
 10
16.66947348
 20
35.30852397
 30
0.0
 11
11.11297977
 21
34.03362098
 31
0.0
  0
LINE
  5
3BA
100
AcDbEntity
  8
Ech.1_1
 62
    44
  6
CONTINUOUS
370
    -2
100
AcDbLine
 10
16.60842237
 20
33.8097669
 30
0.0
 11
16.66947348
 21
35.30852397
 31
0.0
  0
LINE
  5
3BB
100
AcDbEntity
  8
Ech.1_1
 62
    44
  6
CONTINUOUS
370
    -2
100
AcDbLine
 10
28.09889325
 20
33.34170837
 30
0.0
 11
16.60842237
 21
33.8097669
 31
0.0
  0
LINE
  5
3BC
100
AcDbEntity
  8
Ech.1_1
 62
    44
  6
CONTINUOUS
370
    -2
100
AcDbLine
 10
127.05226026
 20
27.71858104
 30
0.0
 11
126.89222635
 21
33.21625229
 31
0.0
  0
LINE
  5
3BD
100
AcDbEntity
  8
Ech.1_1
 62
    44
  6
CONTINUOUS
370
    -2
100
AcDbLine
 10
129.8036649
 20
36.30227328
 30
0.0
 11
130.05099004
 21
27.80587226
 31
0.0
  0
LINE
  5
3BE
100
AcDbEntity
  8
Ech.1_1
 62
    44
  6
CONTINUOUS
370
    -2
100
AcDbLine
 10
28.09889325
 20
33.34170837
 30
0.0
 11
73.66178077
 21
34.6680167
 31
0.0
  0
LINE
  5
3BF
100
AcDbEntity
  8
Ech.1_1
 62
    44
  6
CONTINUOUS
370
    -2
100
AcDbLine
 10
78.0773656
 20
31.79528096
 30
0.0
 11
73.82181468
 21
29.17034545
 31
0.0
  0
LINE
  5
3C0
100
AcDbEntity
  8
Ech.1_1
 62
    44
  6
CONTINUOUS
370
    -2
100
AcDbLine
 10
73.82181468
 20
29.17034545
 30
0.0
 11
29.27267292
 21
27.87354665
 31
0.0
  0
LINE
  5
3C1
100
AcDbEntity
  8
Ech.1_1
 62
    44
  6
CONTINUOUS
370
    -2
100
AcDbLine
 10
0.12209457
 20
34.48132915
 30
0.0
 11
-7.6553988037631E-06
 21
31.483815
 31
0.0
  0
LINE
  5
3C2
100
AcDbEntity
  8
Ech.1_1
 62
    44
  6
CONTINUOUS
370
    -2
100
AcDbLine
 10
27.81756146
 20
26.43523288
 30
0.0
 11
27.54943323
 21
19.85289472
 31
0.0
  0
LINE
  5
3C3
100
AcDbEntity
  8
Ech.1_1
 62
    44
  6
CONTINUOUS
370
    -2
100
AcDbLine
 10
24.59261983
 20
20.97416833
 30
0.0
 11
24.55191909
 21
19.97499694
 31
0.0
  0
LINE
  5
3C4
100
AcDbEntity
  8
Ech.1_1
 62
    44
  6
CONTINUOUS
370
    -2
100
AcDbLine
 10
24.59261983
 20
20.97416833
 30
0.0
 11
19.63746367
 21
22.17684342
 31
0.0
  0
LINE
  5
3C5
100
AcDbEntity
  8
Ech.1_1
 62
    44
  6
CONTINUOUS
370
    -2
100
AcDbLine
 10
19.63746367
 20
22.17684342
 30
0.0
 11
12.19228711
 21
30.25432773
 31
0.0
  0
LINE
  5
3C6
100
AcDbEntity
  8
Ech.1_1
 62
    44
  6
CONTINUOUS
370
    -2
100
AcDbLine
 10
10.45578739
 20
31.05790347
 30
0.0
 11
5.32419275
 21
31.26693638
 31
0.0
  0
LINE
  5
3C7
100
AcDbEntity
  8
Ech.1_1
 62
    44
  6
CONTINUOUS
370
    -2
100
AcDbLine
 10
2.78329197
 20
28.22078122
 30
0.0
 11
5.13368571
 21
17.76350096
 31
0.0
  0
LINE
  5
3C8
100
AcDbEntity
  8
Ech.1_1
 62
    44
  6
CONTINUOUS
370
    -2
100
AcDbLine
 10
-7.6553988037631E-06
 20
31.483815
 30
0.0
 11
3.06484905
 21
17.84777398
 31
0.0
  0
LINE
  5
3C9
100
AcDbEntity
  8
Ech.1_1
 62
    44
  6
CONTINUOUS
370
    -2
100
AcDbLine
 10
73.66178077
 20
34.6680167
 30
0.0
 11
126.80493513
 21
36.21498206
 31
0.0
  0
LINE
  5
3CA
100
AcDbEntity
  8
Ech.1_1
 62
    44
  6
CONTINUOUS
370
    -2
100
AcDbLine
 10
97.90450523
 20
32.37243711
 30
0.0
 11
123.64360243
 21
33.12168679
 31
0.0
  0
LINE
  5
3CB
100
AcDbEntity
  8
Ech.1_1
 62
    44
  6
CONTINUOUS
370
    -2
100
AcDbLine
 10
5.13368571
 20
17.76350096
 30
0.0
 11
3.06484905
 21
17.84777398
 31
0.0
  0
ENDBLK
  5
3CC
100
AcDbEntity
100
AcDbBlockEnd
  0
BLOCK
  5
3CD
100
AcDbEntity
  8
Ech.1_1
100
AcDbBlockBegin
  2
PROFIL_L
 70
     0
 10
0.0
 20
0.0
 30
0.0
  3
PROFIL_L
  1

  4
Cadwork node ref
  0
HATCH
  5
3CE
100
AcDbEntity
  8
Ech.1_1
 62
   252
100
AcDbHatch
 10
0.0
 20
0.0
 30
0.0
210
0.0
220
0.0
230
1.0
  2
SOLID
 70
     1
 71
     0
 91
        1
 92
        7
 72
     1
 73
     1
 93
        6
 10
62.5
 20
-59.84638897
 42
0.0
 10
10.60042638
 20
-59.84638897
 42
0.0
 10
15.13881924
 20
-65.59638897
 42
0.0
 10
55.0
 20
-65.59638897
 42
0.0
 10
55.0
 20
-96.09638897
 42
1.0
 10
62.5
 20
-96.09638897
 42
0.0
 97
        0
 75
     0
 76
     2
 47
0.775229
 98
        1
 10
0.0
 20
0.0
  0
HATCH
  5
3CF
100
AcDbEntity
  8
Ech.1_1
 62
   252
100
AcDbHatch
 10
0.0
 20
0.0
 30
0.0
210
0.0
220
0.0
230
1.0
  2
SOLID
 70
     1
 71
     0
 91
        1
 92
        7
 72
     1
 73
     1
 93
        4
 10
-17.42278791
 20
-59.84638897
 42
0.0
 10
-59.625
 20
-59.84638897
 42
1.0
 10
-59.625
 20
-65.59638897
 42
0.0
 10
-21.96118076
 20
-65.59638897
 42
0.0
 97
        0
 75
     0
 76
     2
 47
0.775229
 98
        1
 10
0.0
 20
0.0
  0
HATCH
  5
3D0
100
AcDbEntity
  8
Ech.1_1
 62
   252
100
AcDbHatch
 10
0.0
 20
0.0
 30
0.0
210
0.0
220
0.0
230
1.0
  2
SOLID
 70
     1
 71
     0
 91
        1
 92
        7
 72
     0
 73
     1
 93
        4
 10
10.60042638
 20
-59.84638897
 10
-17.42278791
 20
-59.84638897
 10
-21.96118076
 20
-65.59638897
 10
15.13881924
 20
-65.59638897
 97
        0
 75
     0
 76
     2
 47
0.775229
 98
        1
 10
0.0
 20
0.0
  0
LINE
  5
3D1
100
AcDbEntity
  8
Ech.1_1
 62
     0
370
    -2
100
AcDbLine
 10
-59.625
 20
-65.59638897
 30
0.0
 11
55.0
 21
-65.59638897
 31
0.0
  0
LINE
  5
3D2
100
AcDbEntity
  8
Ech.1_1
 62
     0
370
    -2
100
AcDbLine
 10
55.0
 20
-96.09638897
 30
0.0
 11
55.0
 21
-65.59638897
 31
0.0
  0
LINE
  5
3D3
100
AcDbEntity
  8
Ech.1_1
 62
     0
370
    -2
100
AcDbLine
 10
-21.96118076
 20
-65.59638897
 30
0.0
 11
15.13881924
 21
-65.59638897
 31
0.0
  0
LINE
  5
3D4
100
AcDbEntity
  8
Ech.1_1
 62
     0
370
    -2
100
AcDbLine
 10
4.08881924
 20
-51.59638897
 30
0.0
 11
4.08881924
 21
17.90361103
 31
0.0
  0
LINE
  5
3D5
100
AcDbEntity
  8
Ech.1_1
 62
     0
370
    -2
100
AcDbLine
 10
15.13881924
 20
-65.59638897
 30
0.0
 11
4.08881924
 21
-51.59638897
 31
0.0
  0
LINE
  5
3D6
100
AcDbEntity
  8
Ech.1_1
 62
     0
370
    -2
100
AcDbLine
 10
-21.96118076
 20
-65.59638897
 30
0.0
 11
-10.91118076
 21
-51.59638897
 31
0.0
  0
LINE
  5
3D7
100
AcDbEntity
  8
Ech.1_1
 62
     0
370
    -2
100
AcDbLine
 10
-3.41118076
 20
84.40361103
 30
0.0
 11
4.08881924
 21
67.90361103
 31
0.0
  0
LINE
  5
3D8
100
AcDbEntity
  8
Ech.1_1
 62
     0
370
    -2
100
AcDbLine
 10
-3.41118076
 20
84.40361103
 30
0.0
 11
-10.91118076
 21
67.90361103
 31
0.0
  0
LINE
  5
3D9
100
AcDbEntity
  8
Ech.1_1
 62
     7
370
    -2
100
AcDbLine
 10
-13.41118076
 20
2.76901612
 30
0.0
 11
6.58881924
 21
16.2910497
 31
0.0
  0
LINE
  5
3DA
100
AcDbEntity
  8
Ech.1_1
 62
     7
370
    -2
100
AcDbLine
 10
-13.41118076
 20
-4.99747032
 30
0.0
 11
6.58881924
 21
8.52456326
 31
0.0
  0
LINE
  5
3DB
100
AcDbEntity
  8
Ech.1_1
 62
     7
370
    -2
100
AcDbLine
 10
-13.41118076
 20
-12.76395677
 30
0.0
 11
6.58881924
 21
0.75807681
 31
0.0
  0
LINE
  5
3DC
100
AcDbEntity
  8
Ech.1_1
 62
     7
370
    -2
100
AcDbLine
 10
-13.41118076
 20
-20.53044321
 30
0.0
 11
6.58881924
 21
-7.00840963
 31
0.0
  0
LINE
  5
3DD
100
AcDbEntity
  8
Ech.1_1
 62
     7
370
    -2
100
AcDbLine
 10
-13.41118076
 20
-28.29692965
 30
0.0
 11
6.58881924
 21
-14.77489607
 31
0.0
  0
LINE
  5
3DE
100
AcDbEntity
  8
Ech.1_1
 62
     7
370
    -2
100
AcDbLine
 10
-13.41118076
 20
-36.06341609
 30
0.0
 11
6.58881924
 21
-22.54138251
 31
0.0
  0
LINE
  5
3DF
100
AcDbEntity
  8
Ech.1_1
 62
     7
370
    -2
100
AcDbLine
 10
-13.41118076
 20
-43.82990253
 30
0.0
 11
6.58881924
 21
-30.30786895
 31
0.0
  0
LINE
  5
3E0
100
AcDbEntity
  8
Ech.1_1
 62
     7
370
    -2
100
AcDbLine
 10
6.58881924
 20
-45.84084183
 30
0.0
 11
-1.92402331
 21
-51.59638897
 31
0.0
  0
LINE
  5
3E1
100
AcDbEntity
  8
Ech.1_1
 62
     7
370
    -2
100
AcDbLine
 10
6.58881924
 20
-38.07435539
 30
0.0
 11
-13.41118076
 21
-51.59638897
 31
0.0
  0
LINE
  5
3E2
100
AcDbEntity
  8
Ech.1_1
 62
     0
370
    -2
100
AcDbLine
 10
-10.91118076
 20
-51.59638897
 30
0.0
 11
-10.91118076
 21
67.90361103
 31
0.0
  0
LINE
  5
3E3
100
AcDbEntity
  8
Ech.1_1
 62
     0
370
    -2
100
AcDbLine
 10
-21.96118076
 20
-65.59638897
 30
0.0
 11
15.13881924
 21
-65.59638897
 31
0.0
  0
LINE
  5
3E4
100
AcDbEntity
  8
Ech.1_1
 62
     0
370
    -2
100
AcDbLine
 10
4.08881924
 20
-51.59638897
 30
0.0
 11
4.08881924
 21
67.90361103
 31
0.0
  0
LINE
  5
3E5
100
AcDbEntity
  8
Ech.1_1
 62
     0
370
    -2
100
AcDbLine
 10
-3.41118076
 20
84.40361103
 30
0.0
 11
4.08881924
 21
67.90361103
 31
0.0
  0
LINE
  5
3E6
100
AcDbEntity
  8
Ech.1_1
 62
     0
370
    -2
100
AcDbLine
 10
-3.41118076
 20
84.40361103
 30
0.0
 11
-10.91118076
 21
67.90361103
 31
0.0
  0
LINE
  5
3E7
100
AcDbEntity
  8
Ech.1_1
 62
     7
370
    -2
100
AcDbLine
 10
-13.41118076
 20
2.76901612
 30
0.0
 11
6.58881924
 21
16.2910497
 31
0.0
  0
LINE
  5
3E8
100
AcDbEntity
  8
Ech.1_1
 62
     7
370
    -2
100
AcDbLine
 10
-13.41118076
 20
-4.99747032
 30
0.0
 11
6.58881924
 21
8.52456326
 31
0.0
  0
LINE
  5
3E9
100
AcDbEntity
  8
Ech.1_1
 62
     7
370
    -2
100
AcDbLine
 10
-13.41118076
 20
-12.76395677
 30
0.0
 11
6.58881924
 21
0.75807681
 31
0.0
  0
LINE
  5
3EA
100
AcDbEntity
  8
Ech.1_1
 62
     7
370
    -2
100
AcDbLine
 10
-13.41118076
 20
-20.53044321
 30
0.0
 11
6.58881924
 21
-7.00840963
 31
0.0
  0
LINE
  5
3EB
100
AcDbEntity
  8
Ech.1_1
 62
     7
370
    -2
100
AcDbLine
 10
-13.41118076
 20
-28.29692965
 30
0.0
 11
6.58881924
 21
-14.77489607
 31
0.0
  0
LINE
  5
3EC
100
AcDbEntity
  8
Ech.1_1
 62
     7
370
    -2
100
AcDbLine
 10
-13.41118076
 20
-36.06341609
 30
0.0
 11
6.58881924
 21
-22.54138251
 31
0.0
  0
LINE
  5
3ED
100
AcDbEntity
  8
Ech.1_1
 62
     7
370
    -2
100
AcDbLine
 10
-13.41118076
 20
-43.82990253
 30
0.0
 11
6.58881924
 21
-30.30786895
 31
0.0
  0
LINE
  5
3EE
100
AcDbEntity
  8
Ech.1_1
 62
     7
370
    -2
100
AcDbLine
 10
6.58881924
 20
-45.84084183
 30
0.0
 11
-1.92402331
 21
-51.59638897
 31
0.0
  0
LINE
  5
3EF
100
AcDbEntity
  8
Ech.1_1
 62
     7
370
    -2
100
AcDbLine
 10
6.58881924
 20
-38.07435539
 30
0.0
 11
-13.41118076
 21
-51.59638897
 31
0.0
  0
LINE
  5
3F0
100
AcDbEntity
  8
Ech.1_1
 62
     0
370
    -2
100
AcDbLine
 10
-10.91118076
 20
-51.59638897
 30
0.0
 11
-10.91118076
 21
67.90361103
 31
0.0
  0
LINE
  5
3F1
100
AcDbEntity
  8
Ech.1_1
 62
     0
370
    -2
100
AcDbLine
 10
-59.625
 20
-59.84638897
 30
0.0
 11
62.5
 21
-59.84638897
 31
0.0
  0
LINE
  5
3F2
100
AcDbEntity
  8
Ech.1_1
 62
     0
370
    -2
100
AcDbLine
 10
62.5
 20
-96.09638897
 30
0.0
 11
62.5
 21
-59.84638897
 31
0.0
  0
ARC
  5
3F3
100
AcDbEntity
  8
Ech.1_1
 62
     7
100
AcDbCircle
 10
-59.625
 20
-62.72138897
 30
0.0
 40
2.875
100
AcDbArc
 50
90.0
 51
270.00001002
  0
ARC
  5
3F4
100
AcDbEntity
  8
Ech.1_1
 62
     7
100
AcDbCircle
 10
58.75
 20
-96.09638897
 30
0.0
 40
3.75
100
AcDbArc
 50
180.0
 51
0.0
  0
LINE
  5
3F5
100
AcDbEntity
  8
Ech.1_1
 62
     7
370
    -2
100
AcDbLine
 10
-13.41118076
 20
33.83496188
 30
0.0
 11
6.58881924
 21
47.35699546
 31
0.0
  0
LINE
  5
3F6
100
AcDbEntity
  8
Ech.1_1
 62
     7
370
    -2
100
AcDbLine
 10
-13.41118076
 20
26.06847544
 30
0.0
 11
6.58881924
 21
39.59050902
 31
0.0
  0
LINE
  5
3F7
100
AcDbEntity
  8
Ech.1_1
 62
     7
370
    -2
100
AcDbLine
 10
-13.41118076
 20
18.301989
 30
0.0
 11
6.58881924
 21
31.82402258
 31
0.0
  0
LINE
  5
3F8
100
AcDbEntity
  8
Ech.1_1
 62
     7
370
    -2
100
AcDbLine
 10
-13.41118076
 20
10.53550256
 30
0.0
 11
6.58881924
 21
24.05753614
 31
0.0
  0
LINE
  5
3F9
100
AcDbEntity
  8
Ech.1_1
 62
     7
370
    -2
100
AcDbLine
 10
-13.41118076
 20
33.83496188
 30
0.0
 11
6.58881924
 21
47.35699546
 31
0.0
  0
LINE
  5
3FA
100
AcDbEntity
  8
Ech.1_1
 62
     7
370
    -2
100
AcDbLine
 10
-13.41118076
 20
26.06847544
 30
0.0
 11
6.58881924
 21
39.59050902
 31
0.0
  0
LINE
  5
3FB
100
AcDbEntity
  8
Ech.1_1
 62
     7
370
    -2
100
AcDbLine
 10
-13.41118076
 20
18.301989
 30
0.0
 11
6.58881924
 21
31.82402258
 31
0.0
  0
LINE
  5
3FC
100
AcDbEntity
  8
Ech.1_1
 62
     7
370
    -2
100
AcDbLine
 10
-13.41118076
 20
10.53550256
 30
0.0
 11
6.58881924
 21
24.05753614
 31
0.0
  0
LINE
  5
3FD
100
AcDbEntity
  8
Ech.1_1
 62
     7
370
    -2
100
AcDbLine
 10
-13.41118076
 20
64.90090765
 30
0.0
 11
1.01901261
 21
74.65718561
 31
0.0
  0
LINE
  5
3FE
100
AcDbEntity
  8
Ech.1_1
 62
     7
370
    -2
100
AcDbLine
 10
-13.41118076
 20
57.13442121
 30
0.0
 11
3.71936444
 21
68.71641158
 31
0.0
  0
LINE
  5
3FF
100
AcDbEntity
  8
Ech.1_1
 62
     7
370
    -2
100
AcDbLine
 10
-13.41118076
 20
49.36793476
 30
0.0
 11
6.58881924
 21
62.88996834
 31
0.0
  0
LINE
  5
400
100
AcDbEntity
  8
Ech.1_1
 62
     7
370
    -2
100
AcDbLine
 10
-13.41118076
 20
41.60144832
 30
0.0
 11
6.58881924
 21
55.1234819
 31
0.0
  0
LINE
  5
401
100
AcDbEntity
  8
Ech.1_1
 62
     7
370
    -2
100
AcDbLine
 10
-13.41118076
 20
64.90090765
 30
0.0
 11
1.01901261
 21
74.65718561
 31
0.0
  0
LINE
  5
402
100
AcDbEntity
  8
Ech.1_1
 62
     7
370
    -2
100
AcDbLine
 10
-13.41118076
 20
57.1344212
 30
0.0
 11
3.71936444
 21
68.71641158
 31
0.0
  0
LINE
  5
403
100
AcDbEntity
  8
Ech.1_1
 62
     7
370
    -2
100
AcDbLine
 10
-13.41118076
 20
49.36793476
 30
0.0
 11
6.58881924
 21
62.88996834
 31
0.0
  0
LINE
  5
404
100
AcDbEntity
  8
Ech.1_1
 62
     7
370
    -2
100
AcDbLine
 10
-13.41118076
 20
41.60144832
 30
0.0
 11
6.58881924
 21
55.1234819
 31
0.0
  0
LINE
  5
405
100
AcDbEntity
  8
Ech.1_1
 62
     7
370
    -2
100
AcDbLine
 10
-6.67596561
 20
77.22108436
 30
0.0
 11
-1.68133923
 21
80.59795965
 31
0.0
  0
LINE
  5
406
100
AcDbEntity
  8
Ech.1_1
 62
     7
370
    -2
100
AcDbLine
 10
-6.67596561
 20
77.22108436
 30
0.0
 11
-1.68133923
 21
80.59795965
 31
0.0
  0
LINE
  5
407
100
AcDbEntity
  8
Ech.1_1
 62
     7
370
    -2
100
AcDbLine
 10
4.08881924
 20
-51.59638897
 30
0.0
 11
-10.91118076
 21
-51.59638897
 31
0.0
  0
LINE
  5
408
100
AcDbEntity
  8
Ech.1_1
 62
     1
370
    -2
100
AcDbLine
 10
-3.41118076
 20
-82.20447956
 30
0.0
 11
-3.41118076
 21
99.84638897
 31
0.0
  0
ENDBLK
  5
409
100
AcDbEntity
100
AcDbBlockEnd
  0
BLOCK
  5
40A
100
AcDbEntity
  8
Ech.1_1
100
AcDbBlockBegin
  2
A$C4DC86443
 70
     0
 10
0.0
 20
0.0
 30
0.0
  3
A$C4DC86443
  1

  4
Cadwork node ref
  0
HATCH
  5
40B
100
AcDbEntity
  8
Ech.1_1
 62
    24
100
AcDbHatch
 10
0.0
 20
0.0
 30
0.0
210
0.0
220
0.0
230
1.0
  2
ANSI33
 70
     0
 71
     0
 91
        1
 92
        7
 72
     0
 73
     1
 93
       24
 10
222.50003256
 20
199.99994333
 10
242.50003256
 20
199.99994333
 10
242.50003256
 20
214.9999744
 10
212.50003261
 20
214.9999744
 10
212.50003261
 20
229.9999744
 10
350.00003261
 20
229.9999744
 10
337.6586257
 20
299.9999744
 10
125.00003256
 20
299.9999744
 10
125.00003256
 20
279.9999744
 10
75.00003256
 20
279.9999744
 10
75.00003256
 20
299.9999744
 10
25.00003256
 20
299.9999744
 10
25.0000326
 20
49.99997442
 10
3.2597599783912E-05
 20
49.99997442
 10
3.2562056730967E-05
 20
2.49997229
 10
3.7911304389127E-05
 20
2.49997229
 10
3.7911304389127E-05
 20
-2.5584886316210E-05
 10
242.50003256
 20
-2.5584886316210E-05
 10
242.50003256
 20
14.99997442
 10
202.50003256
 20
14.99997442
 10
202.50003256
 20
34.99997442
 10
242.50003256
 20
34.99997442
 10
242.50003256
 20
49.99997442
 10
222.50003256
 20
49.99997442
 97
        0
 75
     0
 76
     2
 52
0.0
 41
5.0000003
 77
     0
 78
     2
 53
45.0
 43
0.0
 44
0.0
 45
-22.85985804
 46
22.85985804
 79
     0
 53
45.0
 43
0.0
 44
22.85985804
 45
-22.85985804
 46
22.85985804
 79
     2
 49
13.96991324
 49
-6.98495662
 47
0.775229
 98
        1
 10
0.0
 20
0.0
  0
LINE
  5
40C
100
AcDbEntity
  8
Ech.1_1
 62
     0
370
    -2
100
AcDbLine
 10
3.2560164981987E-05
 20
-2.5584886316210E-05
 30
0.0
 11
242.50003256
 21
-2.5584886316210E-05
 31
0.0
  0
LINE
  5
40D
100
AcDbEntity
  8
Ech.1_1
 62
     0
370
    -2
100
AcDbLine
 10
242.50003256
 20
14.99997442
 30
0.0
 11
202.50003256
 21
14.99997442
 31
0.0
  0
LINE
  5
40E
100
AcDbEntity
  8
Ech.1_1
 62
     0
370
    -2
100
AcDbLine
 10
202.50003256
 20
34.99997442
 30
0.0
 11
242.50003256
 21
34.99997442
 31
0.0
  0
LINE
  5
40F
100
AcDbEntity
  8
Ech.1_1
 62
     0
370
    -2
100
AcDbLine
 10
242.50003256
 20
34.99997442
 30
0.0
 11
242.50003256
 21
49.99997442
 31
0.0
  0
LINE
  5
410
100
AcDbEntity
  8
Ech.1_1
 62
     0
370
    -2
100
AcDbLine
 10
25.0000326
 20
49.99997442
 30
0.0
 11
3.2560164981987E-05
 21
49.99997442
 31
0.0
  0
LINE
  5
411
100
AcDbEntity
  8
Ech.1_1
 62
     0
370
    -2
100
AcDbLine
 10
3.2560164981987E-05
 20
49.99997442
 30
0.0
 11
3.2560164981987E-05
 21
-2.5584886316210E-05
 31
0.0
  0
LINE
  5
412
100
AcDbEntity
  8
Ech.1_1
 62
     0
370
    -2
100
AcDbLine
 10
212.50003261
 20
229.9999744
 30
0.0
 11
350.00003261
 21
229.9999744
 31
0.0
  0
LINE
  5
413
100
AcDbEntity
  8
Ech.1_1
 62
     0
370
    -2
100
AcDbLine
 10
337.6586257
 20
299.9999744
 30
0.0
 11
140.00003256
 21
299.9999744
 31
0.0
  0
LINE
  5
414
100
AcDbEntity
  8
Ech.1_1
 62
     0
370
    -2
100
AcDbLine
 10
350.00003261
 20
229.9999744
 30
0.0
 11
337.6586257
 21
299.9999744
 31
0.0
  0
LINE
  5
415
100
AcDbEntity
  8
Ech.1_1
 62
     0
370
    -2
100
AcDbLine
 10
212.50003261
 20
229.9999744
 30
0.0
 11
212.50003261
 21
214.9999744
 31
0.0
  0
LINE
  5
416
100
AcDbEntity
  8
Ech.1_1
 62
     0
370
    -2
100
AcDbLine
 10
212.50003261
 20
214.9999744
 30
0.0
 11
242.50003256
 21
214.9999744
 31
0.0
  0
LINE
  5
417
100
AcDbEntity
  8
Ech.1_1
 62
     0
370
    -2
100
AcDbLine
 10
222.50003256
 20
49.99997442
 30
0.0
 11
242.50003256
 21
49.99997442
 31
0.0
  0
LINE
  5
418
100
AcDbEntity
  8
Ech.1_1
 62
     7
370
    -2
100
AcDbLine
 10
125.00003256
 20
299.9999744
 30
0.0
 11
337.6586257
 21
299.9999744
 31
0.0
  0
LINE
  5
419
100
AcDbEntity
  8
Ech.1_1
 62
     7
370
    -2
100
AcDbLine
 10
337.6586257
 20
299.9999744
 30
0.0
 11
350.00003261
 21
229.9999744
 31
0.0
  0
LINE
  5
41A
100
AcDbEntity
  8
Ech.1_1
 62
     7
370
    -2
100
AcDbLine
 10
350.00003261
 20
229.9999744
 30
0.0
 11
212.50003261
 21
229.9999744
 31
0.0
  0
LINE
  5
41B
100
AcDbEntity
  8
Ech.1_1
 62
     7
370
    -2
100
AcDbLine
 10
212.50003261
 20
229.9999744
 30
0.0
 11
212.50003261
 21
214.9999744
 31
0.0
  0
LINE
  5
41C
100
AcDbEntity
  8
Ech.1_1
 62
     7
370
    -2
100
AcDbLine
 10
212.50003261
 20
214.9999744
 30
0.0
 11
242.50003256
 21
214.9999744
 31
0.0
  0
LINE
  5
41D
100
AcDbEntity
  8
Ech.1_1
 62
     7
370
    -2
100
AcDbLine
 10
242.50003256
 20
214.9999744
 30
0.0
 11
242.50003256
 21
199.99994333
 31
0.0
  0
LINE
  5
41E
100
AcDbEntity
  8
Ech.1_1
 62
     7
370
    -2
100
AcDbLine
 10
222.50003256
 20
199.99994333
 30
0.0
 11
222.50003256
 21
49.99997442
 31
0.0
  0
LINE
  5
41F
100
AcDbEntity
  8
Ech.1_1
 62
     7
370
    -2
100
AcDbLine
 10
222.50003256
 20
49.99997442
 30
0.0
 11
242.50003256
 21
49.99997442
 31
0.0
  0
LINE
  5
420
100
AcDbEntity
  8
Ech.1_1
 62
     7
370
    -2
100
AcDbLine
 10
242.50003256
 20
49.99997442
 30
0.0
 11
242.50003256
 21
34.99997442
 31
0.0
  0
LINE
  5
421
100
AcDbEntity
  8
Ech.1_1
 62
     7
370
    -2
100
AcDbLine
 10
242.50003256
 20
34.99997442
 30
0.0
 11
202.50003256
 21
34.99997442
 31
0.0
  0
LINE
  5
422
100
AcDbEntity
  8
Ech.1_1
 62
     7
370
    -2
100
AcDbLine
 10
202.50003256
 20
34.99997442
 30
0.0
 11
202.50003256
 21
14.99997442
 31
0.0
  0
LINE
  5
423
100
AcDbEntity
  8
Ech.1_1
 62
     7
370
    -2
100
AcDbLine
 10
202.50003256
 20
14.99997442
 30
0.0
 11
242.50003256
 21
14.99997442
 31
0.0
  0
LINE
  5
424
100
AcDbEntity
  8
Ech.1_1
 62
     7
370
    -2
100
AcDbLine
 10
242.50003256
 20
14.99997442
 30
0.0
 11
242.50003256
 21
-2.5584886316210E-05
 31
0.0
  0
LINE
  5
425
100
AcDbEntity
  8
Ech.1_1
 62
     7
370
    -2
100
AcDbLine
 10
242.50003256
 20
-2.5584886316210E-05
 30
0.0
 11
3.2560164981987E-05
 21
-2.5584886316210E-05
 31
0.0
  0
LINE
  5
426
100
AcDbEntity
  8
Ech.1_1
 62
     7
370
    -2
100
AcDbLine
 10
3.2597599783912E-05
 20
49.99997442
 30
0.0
 11
25.0000326
 21
49.99997442
 31
0.0
  0
LINE
  5
427
100
AcDbEntity
  8
Ech.1_1
 62
     7
370
    -2
100
AcDbLine
 10
25.0000326
 20
49.99997442
 30
0.0
 11
25.00003256
 21
299.9999744
 31
0.0
  0
LINE
  5
428
100
AcDbEntity
  8
Ech.1_1
 62
     7
370
    -2
100
AcDbLine
 10
242.50003256
 20
199.99994333
 30
0.0
 11
222.50003256
 21
199.99994333
 31
0.0
  0
LINE
  5
429
100
AcDbEntity
  8
Ech.1_1
 62
     7
370
    -2
100
AcDbLine
 10
25.00003256
 20
299.9999744
 30
0.0
 11
75.00003256
 21
299.9999744
 31
0.0
  0
LINE
  5
42A
100
AcDbEntity
  8
Ech.1_1
 62
     7
370
    -2
100
AcDbLine
 10
75.00003256
 20
299.9999744
 30
0.0
 11
75.00003256
 21
279.9999744
 31
0.0
  0
LINE
  5
42B
100
AcDbEntity
  8
Ech.1_1
 62
     7
370
    -2
100
AcDbLine
 10
75.00003256
 20
279.9999744
 30
0.0
 11
125.00003256
 21
279.9999744
 31
0.0
  0
LINE
  5
42C
100
AcDbEntity
  8
Ech.1_1
 62
     7
370
    -2
100
AcDbLine
 10
125.00003256
 20
279.9999744
 30
0.0
 11
125.00003256
 21
299.9999744
 31
0.0
  0
ENDBLK
  5
42D
100
AcDbEntity
100
AcDbBlockEnd
  0
ENDSEC
  0
SECTION
  2
ENTITIES
  0
LWPOLYLINE
  5
42E
100
AcDbEntity
  8
Ech.1_5
 62
     7
  6
CONTINUOUS
370
    -3
100
AcDbPolyline
 90
        5
 70
     0
 43
0.0
 10
52936.25731673
 20
-31590.87399296
 10
52936.25731673
 20
-30235.87399296
 10
51951.25731673
 20
-30235.87399296
 10
51951.25731673
 20
-31590.87399296
 10
52936.25731673
 20
-31590.87399296
  0
LWPOLYLINE
  5
42F
100
AcDbEntity
  8
Ech.1_5
 62
     7
100
AcDbPolyline
 90
        5
 70
     0
 43
0.0
 10
51996.61671889
 20
-30324.08386744
 10
52131.04549787
 20
-30324.08386744
 10
52131.04549787
 20
-30380.80682625
 10
51996.61671889
 20
-30380.80682625
 10
51996.61671889
 20
-30324.08386744
  0
LWPOLYLINE
  5
430
100
AcDbEntity
  8
Ech.1_5
 62
     7
100
AcDbPolyline
 90
        5
 70
     0
 43
0.0
 10
52014.89676467
 20
-30357.74067857
 10
52064.89676467
 20
-30357.74067857
 10
52064.89676467
 20
-30350.32554104
 10
52014.89676467
 20
-30350.32554104
 10
52014.89676467
 20
-30357.74067857
  0
LWPOLYLINE
  5
431
100
AcDbEntity
  8
Ech.1_5
 62
     7
100
AcDbPolyline
 90
        5
 70
     0
 43
0.0
 10
52064.89676467
 20
-30357.74067857
 10
52114.89676467
 20
-30357.74067857
 10
52114.89676467
 20
-30350.32554104
 10
52064.89676467
 20
-30350.32554104
 10
52064.89676467
 20
-30357.74067857
  0
LWPOLYLINE
  5
432
100
AcDbEntity
  8
Ech.1_5
 62
     7
  6
CONTINUOUS
370
     5
100
AcDbPolyline
 90
        5
 70
     0
 43
0.0
 10
52014.89676467
 20
-30357.74067857
 10
52064.89676467
 20
-30357.74067857
 10
52064.89676467
 20
-30350.32554104
 10
52014.89676467
 20
-30350.32554104
 10
52014.89676467
 20
-30357.74067857
  0
HATCH
  5
433
100
AcDbEntity
  8
Ech.1_5
 62
     7
100
AcDbHatch
 10
0.0
 20
0.0
 30
0.0
210
0.0
220
0.0
230
1.0
  2
ANSI37
 70
     0
 71
     0
 91
        1
 92
        7
 72
     0
 73
     1
 93
        4
 10
51996.61673922
 20
-30940.40074508
 10
52887.28798653
 20
-30940.40074508
 10
52887.28798653
 20
-30930.96808502
 10
51996.61673922
 20
-30930.96808502
 97
        0
 75
     0
 76
     2
 52
0.0
 41
1.87498831
 77
     0
 78
     2
 53
45.0
 43
0.0
 44
0.0
 45
4.20946876
 46
-4.20946876
 79
     0
 53
-45.0
 43
0.0
 44
0.0
 45
4.20946876
 46
4.20946876
 79
     0
 47
0.775229
 98
        1
 10
0.0
 20
0.0
  0
LWPOLYLINE
  5
434
100
AcDbEntity
  8
Ech.1_5
 62
   150
  6
CADWORK_22
370
    35
100
AcDbPolyline
 90
        4
 70
     0
 43
0.0
 38
2500.0
 10
52693.04071888
 20
-30580.51839414
 10
52693.04071888
 20
-30826.80159886
 10
52688.09360479
 20
-30837.55595338
 10
52688.09360479
 20
-30853.38913454
  0
LWPOLYLINE
  5
435
102
{ACAD_REACTORS
330
436
102
}
100
AcDbEntity
  8
Ech.1_5
 62
     7
  6
CONTINUOUS
370
    -3
100
AcDbPolyline
 90
        4
 70
     1
 43
0.0
 10
52229.42839358
 20
-30844.21087527
 10
52229.42839358
 20
-30869.21087527
 10
52654.47633677
 20
-30869.21087527
 10
52654.47633677
 20
-30844.21087527
  0
HATCH
  5
436
100
AcDbEntity
  8
Ech.1_5
 62
     7
  6
CONTINUOUS
100
AcDbHatch
 10
0.0
 20
0.0
 30
0.0
210
0.0
220
0.0
230
1.0
  2
ANSI37
 70
     0
 71
     1
 91
        1
 92
        7
 72
     0
 73
     1
 93
        4
 10
52229.42839358
 20
-30844.21087527
 10
52229.42839358
 20
-30869.21087527
 10
52654.47633677
 20
-30869.21087527
 10
52654.47633677
 20
-30844.21087527
 97
        1
330
435
 75
     0
 76
     2
 52
0.0
 41
1.57480317
 77
     0
 78
     2
 53
45.0
 43
0.0
 44
0.0
 45
3.53553391
 46
-3.53553391
 79
     0
 53
-45.0
 43
0.0
 44
0.0
 45
3.53553391
 46
3.53553391
 79
     0
 47
0.775229
 98
        1
 10
0.0
 20
0.0
  0
LWPOLYLINE
  5
437
100
AcDbEntity
  8
Ech.1_5
 62
   204
  6
DASHDOT
370
    70
100
AcDbPolyline
 90
       11
 70
     0
 43
0.0
 38
2500.0
 10
51996.61674382
 20
-30933.3924167
 10
52467.58243323
 20
-30933.3924167
 10
52475.25971591
 20
-30933.3924167
 10
52480.13936932
 20
-30933.3924167
 10
52507.55743253
 20
-30933.3924167
 10
52512.8378719
 20
-30933.39599822
 10
52541.53046641
 20
-30933.3978697
 10
52547.58086191
 20
-30933.3924167
 10
52575.91926121
 20
-30933.3924167
 10
52581.61841015
 20
-30933.39968962
 10
52887.28798653
 20
-30933.39937382
  0
3DFACE
  5
438
102
{ACAD_REACTORS
330
439
102
}
100
AcDbEntity
  8
Ech.1_5
 62
     9
  6
CONTINUOUS
370
    -3
100
AcDbFace
 70
     0
 10
51996.61674382
 20
-30930.96858072
 30
2500.0
 11
52887.28838152
 21
-30930.9666757
 31
2500.0
 12
52887.28798653
 22
-31151.84873275
 32
2500.0
 13
51996.61658297
 23
-31151.84873275
 33
2500.0
  0
HATCH
  5
439
100
AcDbEntity
  8
Ech.1_5
 62
     9
  6
CONTINUOUS
100
AcDbHatch
 10
0.0
 20
0.0
 30
0.0
210
0.0
220
0.0
230
1.0
  2
AR-CONC
 70
     0
 71
     1
 91
        1
 92
        7
 72
     0
 73
     1
 93
        4
 10
51996.61674382
 20
-30930.96858072
 10
52887.28838152
 20
-30930.9666757
 10
52887.28798653
 20
-31151.84873275
 10
51996.61658297
 20
-31151.84873275
 97
        1
330
438
 75
     0
 76
     2
 52
45.0
 41
0.11811097
 77
     0
 78
    13
 53
50.0
 43
0.0
 44
0.0
 45
-18.84283637
 46
1.64853443
 79
     2
 49
1.97029307
 49
-21.67322338
 53
355.0
 43
0.0
 44
0.0
 45
-3.64507756
 46
19.76051824
 79
     2
 49
1.57623377
 49
-17.3385787
 53
100.45140076
 43
1.57023568
 44
-0.13737749
 45
-15.19777228
 46
-18.11197244
 79
     2
 49
1.67449124
 49
-18.41940522
 53
46.18420029
 43
0.0
 44
5.25411576
 45
-28.03703353
 46
4.34827878
 79
     2
 49
2.95543872
 49
-32.50983238
 53
96.63559723
 43
2.33641885
 44
4.89175692
 45
-24.55412615
 46
-25.59063404
 79
     2
 49
2.51173697
 49
-27.62910426
 53
351.1842041
 43
0.0
 44
5.25411576
 45
24.55410288
 46
25.59065715
 79
     2
 49
2.36435249
 49
-26.00786805
 53
21.0
 43
2.62705699
 44
3.94058615
 45
-15.68109068
 46
10.57702905
 79
     2
 49
1.97029307
 49
-21.67322338
 53
326.0
 43
2.62705699
 44
3.94058615
 45
6.39203268
 46
19.05010734
 79
     2
 49
1.57623377
 49
-17.3385787
 53
71.45140076
 43
3.93381357
 44
3.05916555
 45
-22.07312962
 46
-8.47306182
 79
     2
 49
1.67449124
 49
-18.41940522
 53
37.5
 43
0.0
 44
0.0
 45
0.31944534
 46
8.74531245
 79
     6
 49
0.01875
 49
-17.12841332
 49
0.01875
 49
-17.60128498
 49
0.01875
 49
-17.40425348
 53
7.5
 43
0.0
 44
0.0
 45
6.91098818
 46
10.3614222
 79
     6
 49
0.01875
 49
-10.03535807
 49
0.01875
 49
-16.7343539
 49
0.01875
 49
-6.6333206
 53
-32.5
 43
-5.85833833
 44
0.0
 45
14.02382061
 46
-0.59253003
 79
     6
 49
0.01875
 49
-6.56764314
 49
0.01875
 49
-20.49104869
 49
0.01875
 49
-27.19004452
 53
-42.5
 43
-8.48539531
 44
0.0
 45
15.32063571
 46
2.62981542
 79
     6
 49
0.01875
 49
-8.53793621
 49
0.01875
 49
-13.60815793
 49
0.01875
 49
-19.30887222
 47
0.775229
 98
        1
 10
0.0
 20
0.0
  0
LWPOLYLINE
  5
43A
100
AcDbEntity
  8
Ech.1_5
 62
     7
  6
CONTINUOUS
370
    -3
100
AcDbPolyline
 90
        8
 70
     1
 43
0.0
 10
52422.84401592
 20
-30970.01955014
 10
52420.7778399
 20
-30970.01955014
 10
52440.36188749
 20
-30894.5122348
 10
52432.09305986
 20
-30908.43865646
 10
52450.8066924
 20
-30814.00011062
 10
52452.84558042
 20
-30814.00011062
 10
52436.31834673
 20
-30897.4049714
 10
52445.83484404
 20
-30881.37721509
  0
LWPOLYLINE
  5
43B
100
AcDbEntity
  8
Ech.1_5
 62
     7
  6
CONTINUOUS
370
    -3
100
AcDbPolyline
 90
       30
 70
     0
 43
0.0
 10
52082.29311862
 20
-30840.9666757
 42
1.14028181
 10
52077.85817313
 20
-30807.27999879
 10
52018.18696427
 20
-30823.24752773
 42
-1.30322619
 10
52018.18696427
 20
-30790.14472383
 10
52077.85817313
 20
-30806.11225277
 42
1.30322619
 10
52077.85817313
 20
-30773.00944888
 10
52018.18696427
 20
-30788.97697781
 42
-1.30322619
 10
52018.18696427
 20
-30755.87417392
 10
52077.85817313
 20
-30771.84170285
 42
1.30322619
 10
52077.85817313
 20
-30738.73889896
 10
52018.18696427
 20
-30754.70642789
 42
-1.30322619
 10
52018.18696427
 20
-30721.603624
 10
52077.85817313
 20
-30737.57115293
 42
1.30322619
 10
52077.85817313
 20
-30704.46834904
 10
52018.18696427
 20
-30720.43587797
 42
-1.30322619
 10
52018.18696427
 20
-30687.33307408
 10
52077.85817313
 20
-30703.30060301
 42
1.30322619
 10
52077.85817313
 20
-30670.19779912
 10
52018.18696427
 20
-30686.16532805
 42
-1.30322619
 10
52018.18696427
 20
-30653.06252416
 10
52077.85817313
 20
-30669.03005309
 42
1.30322619
 10
52077.85817313
 20
-30635.9272492
 10
52018.18696427
 20
-30651.89477813
 42
-1.30322619
 10
52018.18696427
 20
-30618.79197424
 10
52077.85817313
 20
-30634.75950317
 42
1.30322619
 10
52077.85817313
 20
-30601.65669928
 10
52018.18696427
 20
-30617.62422821
 42
-1.30322619
 10
52018.18696427
 20
-30584.52142432
 10
52077.85817313
 20
-30600.48895325
 42
0.55722193
 10
52099.08380092
 20
-30580.51839414
  0
LWPOLYLINE
  5
43C
100
AcDbEntity
  8
Ech.1_5
 62
     7
  6
CONTINUOUS
370
    -3
100
AcDbPolyline
 90
       30
 70
     0
 43
0.0
 10
52881.41093169
 20
-30580.51839414
 42
-0.79491622
 10
52865.71776608
 20
-30609.98761818
 10
52806.04655722
 20
-30594.02008925
 42
1.30322619
 10
52806.04655722
 20
-30627.12289314
 10
52865.71776608
 20
-30611.15536421
 42
-1.30322619
 10
52865.71776608
 20
-30644.2581681
 10
52806.04655722
 20
-30628.29063917
 42
1.30322619
 10
52806.04655722
 20
-30661.39344306
 10
52865.71776608
 20
-30645.42591412
 42
-1.30322619
 10
52865.71776608
 20
-30678.52871802
 10
52806.04655722
 20
-30662.56118908
 42
1.30322619
 10
52806.04655722
 20
-30695.66399298
 10
52865.71776608
 20
-30679.69646404
 42
-1.30322619
 10
52865.71776608
 20
-30712.79926794
 10
52806.04655722
 20
-30696.831739
 42
1.30322619
 10
52806.04655722
 20
-30729.9345429
 10
52865.71776608
 20
-30713.96701396
 42
-1.30322619
 10
52865.71776608
 20
-30747.06981786
 10
52806.04655722
 20
-30731.10228892
 42
1.30322619
 10
52806.04655722
 20
-30764.20509282
 10
52865.71776608
 20
-30748.23756388
 42
-1.30322619
 10
52865.71776608
 20
-30781.34036778
 10
52806.04655722
 20
-30765.37283884
 42
1.30322619
 10
52806.04655722
 20
-30798.47564274
 10
52865.71776608
 20
-30782.5081138
 42
-1.30322619
 10
52865.71776608
 20
-30815.6109177
 10
52806.04655722
 20
-30799.64338876
 42
1.30322619
 10
52806.04655722
 20
-30832.74619266
 10
52865.71776608
 20
-30816.77866372
 42
-0.6460999
 10
52885.49219771
 20
-30840.9666757
  0
LWPOLYLINE
  5
43D
100
AcDbEntity
  8
Ech.1_5
 62
   150
  6
CADWORK_22
370
    35
100
AcDbPolyline
 90
        4
 70
     0
 43
0.0
 38
2500.0
 10
52190.86400687
 20
-30580.51839414
 10
52190.86400687
 20
-30823.80159886
 10
52195.5310667
 20
-30834.55595338
 10
52195.5310667
 20
-30853.38913454
  0
LWPOLYLINE
  5
43E
100
AcDbEntity
  8
Ech.1_5
 62
     7
  6
CONTINUOUS
370
    -3
100
AcDbPolyline
 90
        5
 70
     0
 43
0.0
 10
52224.42839358
 20
-30580.51839414
 10
52189.42839358
 20
-30580.51839414
 10
52189.42839358
 20
-30863.38913454
 10
52224.42839358
 20
-30863.38913454
 10
52224.42839358
 20
-30580.51839414
  0
LWPOLYLINE
  5
43F
100
AcDbEntity
  8
Ech.1_5
 62
     7
  6
CONTINUOUS
370
    -3
100
AcDbPolyline
 90
        5
 70
     0
 43
0.0
 10
52694.47633677
 20
-30580.51839414
 10
52659.47633677
 20
-30580.51839414
 10
52659.47633677
 20
-30863.38913454
 10
52694.47633677
 20
-30863.38913454
 10
52694.47633677
 20
-30580.51839414
  0
LWPOLYLINE
  5
440
100
AcDbEntity
  8
Ech.1_5
 62
     7
  6
CONTINUOUS
370
    -3
100
AcDbPolyline
 90
        9
 70
     0
 43
0.0
 10
51996.61669115
 20
-30840.9666757
 10
52189.42839358
 20
-30840.9666757
 10
52189.42839358
 20
-30580.51839414
 10
51996.61671889
 20
-30580.51839414
 10
51996.61669115
 20
-30718.64198733
 10
51978.63833955
 20
-30735.12834142
 10
52014.59403956
 20
-30721.0184014
 10
51996.61669115
 20
-30737.50390455
 10
51996.61669115
 20
-30840.9666757
  0
LWPOLYLINE
  5
441
100
AcDbEntity
  8
Ech.1_5
 62
     7
  6
CONTINUOUS
370
    -3
100
AcDbPolyline
 90
        9
 70
     0
 43
0.0
 10
52887.2880392
 20
-30737.50390455
 10
52869.31069079
 20
-30721.0184014
 10
52905.2663908
 20
-30735.12834142
 10
52887.2880392
 20
-30718.64198733
 10
52887.28801146
 20
-30580.51839414
 10
52694.47633677
 20
-30580.51839414
 10
52694.47633677
 20
-30840.9666757
 10
52887.2880392
 20
-30840.9666757
 10
52887.2880392
 20
-30737.50390455
  0
LWPOLYLINE
  5
442
100
AcDbEntity
  8
Ech.1_5
 62
     7
  6
CONTINUOUS
370
     5
100
AcDbPolyline
 90
        5
 70
     0
 43
0.0
 10
51996.61674382
 20
-30940.40074508
 10
52887.28798653
 20
-30940.40074508
 10
52887.28798653
 20
-30930.96808502
 10
51996.61674382
 20
-30930.96808502
 10
51996.61674382
 20
-30940.40074508
  0
LWPOLYLINE
  5
443
100
AcDbEntity
  8
Ech.1_5
 62
     7
  6
CONTINUOUS
370
    -3
100
AcDbPolyline
 90
        5
 70
     0
 43
0.0
 10
52189.42839358
 20
-30930.96859219
 10
52189.42839358
 20
-30888.3880011
 10
52694.47633677
 20
-30888.3880011
 10
52694.47633677
 20
-30930.96859219
 10
52189.42839358
 20
-30930.96859219
  0
LWPOLYLINE
  5
444
100
AcDbEntity
  8
Ech.1_5
 62
     7
  6
CONTINUOUS
370
    -3
100
AcDbPolyline
 90
        5
 70
     0
 43
0.0
 10
52887.2880392
 20
-30930.96700958
 10
52887.2880392
 20
-30885.96671255
 10
52694.47633677
 20
-30885.96688722
 10
52694.47633677
 20
-30930.96859219
 10
52887.2880392
 20
-30930.96700958
  0
LWPOLYLINE
  5
445
100
AcDbEntity
  8
Ech.1_5
 62
     7
  6
CONTINUOUS
370
    -3
100
AcDbPolyline
 90
        5
 70
     0
 43
0.0
 10
52887.2880392
 20
-30885.96700958
 10
52887.2880392
 20
-30840.96671255
 10
52694.47633677
 20
-30840.96688722
 10
52694.47633677
 20
-30885.96859219
 10
52887.2880392
 20
-30885.96700958
  0
LWPOLYLINE
  5
446
100
AcDbEntity
  8
Ech.1_5
 62
     7
  6
CONTINUOUS
370
    -3
100
AcDbPolyline
 90
        5
 70
     0
 43
0.0
 10
52189.42839358
 20
-30930.9666757
 10
52189.42839358
 20
-30885.9666757
 10
51996.61669115
 20
-30885.96685323
 10
51996.61669115
 20
-30930.9682842
 10
52189.42839358
 20
-30930.9666757
  0
LWPOLYLINE
  5
447
100
AcDbEntity
  8
Ech.1_5
 62
     7
  6
CONTINUOUS
370
    -3
100
AcDbPolyline
 90
        5
 70
     0
 43
0.0
 10
52189.42839358
 20
-30885.9666757
 10
52189.42839358
 20
-30840.9666757
 10
51996.61669115
 20
-30840.96685323
 10
51996.61669115
 20
-30885.9682842
 10
52189.42839358
 20
-30885.9666757
  0
LWPOLYLINE
  5
448
100
AcDbEntity
  8
Ech.1_5
 62
     7
  6
CONTINUOUS
370
    -3
100
AcDbPolyline
 90
        5
 70
     0
 43
0.0
 10
52739.47633677
 20
-30580.51839414
 10
52694.47633677
 20
-30580.51839414
 10
52694.47633677
 20
-30840.9666757
 10
52739.47633677
 20
-30840.9666757
 10
52739.47633677
 20
-30580.51839414
  0
LWPOLYLINE
  5
449
100
AcDbEntity
  8
Ech.1_5
 62
     7
  6
CONTINUOUS
370
    -3
100
AcDbPolyline
 90
        5
 70
     0
 43
0.0
 10
52189.42839358
 20
-30580.51839414
 10
52144.42839358
 20
-30580.51839414
 10
52144.42839358
 20
-30840.9666757
 10
52189.42839358
 20
-30840.9666757
 10
52189.42839358
 20
-30580.51839414
  0
LWPOLYLINE
  5
44A
100
AcDbEntity
  8
Ech.1_5
 62
     7
  6
CONTINUOUS
370
    -3
100
AcDbPolyline
 90
        5
 70
     0
 43
0.0
 10
52144.42839358
 20
-30580.51839414
 10
52099.42839358
 20
-30580.51839414
 10
52099.42839358
 20
-30840.9666757
 10
52144.42839358
 20
-30840.9666757
 10
52144.42839358
 20
-30580.51839414
  0
LWPOLYLINE
  5
44B
100
AcDbEntity
  8
Ech.1_5
 62
     7
  6
CONTINUOUS
370
    -3
100
AcDbPolyline
 90
        5
 70
     0
 43
0.0
 10
52784.47633677
 20
-30580.51839414
 10
52739.47633677
 20
-30580.51839414
 10
52739.47633677
 20
-30840.9666757
 10
52784.47633677
 20
-30840.9666757
 10
52784.47633677
 20
-30580.51839414
  0
LWPOLYLINE
  5
44C
100
AcDbEntity
  8
Ech.1_5
 62
   177
  6
CONTINUOUS
370
    70
100
AcDbPolyline
 90
        3
 70
     0
 43
0.0
 10
52240.72903158
 20
-30888.0005943
 10
52190.72903158
 20
-30888.0005943
 10
52190.72903158
 20
-30833.38721806
  0
LWPOLYLINE
  5
44D
100
AcDbEntity
  8
Ech.1_5
 62
   177
  6
CONTINUOUS
370
    70
100
AcDbPolyline
 90
        3
 70
     0
 43
0.0
 10
52643.17569877
 20
-30888.0005943
 10
52693.17569877
 20
-30888.0005943
 10
52693.17569877
 20
-30833.38721806
  0
LWPOLYLINE
  5
44E
100
AcDbEntity
  8
Ech.1_5
 62
     7
  6
CONTINUOUS
370
    -3
100
AcDbPolyline
 90
        5
 70
     0
 43
0.0
 10
52264.36139919
 20
-30883.38721806
 10
52264.36139919
 20
-30888.38608461
 10
52301.43708026
 20
-30888.38608461
 10
52301.43708026
 20
-30883.38721806
 10
52264.36139919
 20
-30883.38721806
  0
LWPOLYLINE
  5
44F
100
AcDbEntity
  8
Ech.1_5
 62
     7
  6
CONTINUOUS
370
    -3
100
AcDbPolyline
 90
        5
 70
     0
 43
0.0
 10
52458.62706355
 20
-30883.38721806
 10
52458.62706355
 20
-30888.38608461
 10
52495.70274462
 20
-30888.38608461
 10
52495.70274462
 20
-30883.38721806
 10
52458.62706355
 20
-30883.38721806
  0
LWPOLYLINE
  5
450
100
AcDbEntity
  8
Ech.1_5
 62
     7
  6
CONTINUOUS
370
    -3
100
AcDbPolyline
 90
        5
 70
     0
 43
0.0
 10
52619.54333116
 20
-30883.38721806
 10
52619.54333116
 20
-30888.38608461
 10
52582.46765009
 20
-30888.38608461
 10
52582.46765009
 20
-30883.38721806
 10
52619.54333116
 20
-30883.38721806
  0
LINE
  5
451
100
AcDbEntity
  8
Ech.1_5
 62
   177
  6
CONTINUOUS
370
    -2
100
AcDbLine
 10
52691.17569877
 20
-30883.38721806
 30
0.0
 11
52192.72903158
 21
-30883.38721806
 31
0.0
  0
TEXT
  5
452
100
AcDbEntity
  8
Ech.1_5
 62
     7
100
AcDbText
 10
52026.1910573
 20
-30340.73953795
 30
0.0
 40
8.00000012
  1
Echelle en mm
  7
ARIAL
 50
0.0
 41
1.0
 51
0.0
100
AcDbText
  0
TEXT
  5
453
100
AcDbEntity
  8
Ech.1_5
 62
     7
100
AcDbText
 10
52012.21047255
 20
-30368.94937348
 30
0.0
 40
8.00000012
  1
0
  7
ARIAL
 50
0.0
 41
1.0
 51
0.0
100
AcDbText
  0
TEXT
  5
454
100
AcDbEntity
  8
Ech.1_5
 62
     7
100
AcDbText
 10
52098.80753044
 20
-30368.94937348
 30
0.0
 40
8.00000012
  1
100
  7
ARIAL
 50
0.0
 41
1.0
 51
0.0
100
AcDbText
  0
TEXT
  5
455
100
AcDbEntity
  8
Ech.1_5
 62
     7
100
AcDbText
 10
52060.06709888
 20
-30368.94937348
 30
0.0
 40
8.00000012
  1
50
  7
ARIAL
 50
0.0
 41
1.0
 51
0.0
100
AcDbText
  0
ENDSEC
  0
SECTION
  2
OBJECTS
  0
DICTIONARY
  5
1
100
AcDbDictionary
  3
ACAD_GROUP
350
2
  3
ACAD_MLINESTYLE
350
3
  0
DICTIONARY
  5
2
102
{CDWK_REACTORS
330
1
102
}
100
AcDbDictionary
  0
DICTIONARY
  5
3
102
{CDWK_REACTORS
330
1
102
}
100
AcDbDictionary
  3
STANDARD
350
4
  0
MLINESTYLE
  5
4
102
{CDWK_REACTORS
330
3
102
}
100
AcDbMlineStyle
  2
STANDARD
 70
     0
  3

 62
     0
 51
90.0
 52
90.0
 71
     2
 49
0.5
 62
   256
  6
BYLAYER
 49
-0.5
 62
   256
  6
BYLAYER
  0
ENDSEC
  0
EOF
