  0
SECTION
  2
HEADER
  9
$ACADVER
  1
AC1015
  9
$ACADMAINTVER
 70
    20
  9
$DWGCODEPAGE
  3
ANSI_1252
  9
$INSBASE
 10
0.0
 20
0.0
 30
0.0
  9
$EXTMIN
 10
43945.69876093577
 20
-33300.85457339113
 30
-0.0762881246355391
  9
$EXTMAX
 10
44933.97372160546
 20
-31944.30321277885
 30
2500.076299766167
  9
$LIMMIN
 10
0.0
 20
-33299.71470120001
  9
$LIMMAX
 10
57061.45779796
 20
4054.46711203
  9
$ORTHOMODE
 70
     0
  9
$REGENMODE
 70
     1
  9
$FILLMODE
 70
     1
  9
$QTEXTMODE
 70
     0
  9
$MIRRTEXT
 70
     1
  9
$LTSCALE
 40
5.0
  9
$ATTMODE
 70
     1
  9
$TEXTSIZE
 40
3.5
  9
$TRACEWID
 40
1.0
  9
$TEXTSTYLE
  7
STANDARD
  9
$CLAYER
  8
0
  9
$CELTYPE
  6
BYLAYER
  9
$CECOLOR
 62
   256
  9
$CELTSCALE
 40
1.0
  9
$DISPSILH
 70
     0
  9
$DIMSCALE
 40
1.0
  9
$DIMASZ
 40
4.0
  9
$DIMEXO
 40
5.0
  9
$DIMDLI
 40
10.0
  9
$DIMRND
 40
0.0
  9
$DIMDLE
 40
2.0
  9
$DIMEXE
 40
2.0
  9
$DIMTP
 40
0.0
  9
$DIMTM
 40
0.0
  9
$DIMTXT
 40
2.0
  9
$DIMCEN
 40
1.5
  9
$DIMTSZ
 40
0.0
  9
$DIMTOL
 70
     0
  9
$DIMLIM
 70
     0
  9
$DIMTIH
 70
     1
  9
$DIMTOH
 70
     0
  9
$DIMSE1
 70
     0
  9
$DIMSE2
 70
     0
  9
$DIMTAD
 70
     1
  9
$DIMZIN
 70
     8
  9
$DIMBLK
  1

  9
$DIMASO
 70
     1
  9
$DIMSHO
 70
     1
  9
$DIMPOST
  1

  9
$DIMAPOST
  1

  9
$DIMALT
 70
     0
  9
$DIMALTD
 70
     2
  9
$DIMALTF
 40
25.4
  9
$DIMLFAC
 40
1.0
  9
$DIMTOFL
 70
     0
  9
$DIMTVP
 40
0.0
  9
$DIMTIX
 70
     0
  9
$DIMSOXD
 70
     0
  9
$DIMSAH
 70
     0
  9
$DIMBLK1
  1

  9
$DIMBLK2
  1

  9
$DIMSTYLE
  2
Standard
  9
$DIMCLRD
 70
     9
  9
$DIMCLRE
 70
     9
  9
$DIMCLRT
 70
     7
  9
$DIMTFAC
 40
1.0
  9
$DIMGAP
 40
0.09
  9
$DIMJUST
 70
     0
  9
$DIMSD1
 70
     0
  9
$DIMSD2
 70
     0
  9
$DIMTOLJ
 70
     1
  9
$DIMTZIN
 70
     0
  9
$DIMALTZ
 70
     0
  9
$DIMALTTZ
 70
     0
  9
$DIMUPT
 70
     0
  9
$DIMDEC
 70
     4
  9
$DIMTDEC
 70
     4
  9
$DIMALTU
 70
     2
  9
$DIMALTTD
 70
     2
  9
$DIMTXSTY
  7
STANDARD
  9
$DIMAUNIT
 70
     0
  9
$DIMADEC
 70
     0
  9
$DIMALTRND
 40
0.0
  9
$DIMAZIN
 70
     0
  9
$DIMDSEP
 70
    46
  9
$DIMATFIT
 70
     3
  9
$DIMFRAC
 70
     0
  9
$DIMLDRBLK
  1

  9
$DIMLUNIT
 70
     2
  9
$DIMLWD
 70
    -2
  9
$DIMLWE
 70
    -2
  9
$DIMTMOVE
 70
     0
  9
$LUNITS
 70
     2
  9
$LUPREC
 70
     6
  9
$SKETCHINC
 40
0.1
  9
$FILLETRAD
 40
0.0
  9
$AUNITS
 70
     0
  9
$AUPREC
 70
     0
  9
$MENU
  1
ACAD
  9
$ELEVATION
 40
0.0
  9
$PELEVATION
 40
0.0
  9
$THICKNESS
 40
0.0
  9
$LIMCHECK
 70
     0
  9
$CHAMFERA
 40
0.0
  9
$CHAMFERB
 40
0.0
  9
$CHAMFERC
 40
0.0
  9
$CHAMFERD
 40
0.0
  9
$SKPOLY
 70
     1
  9
$TDCREATE
 40
2456443.000000000
  9
$TDUCREATE
 40
2456442.916666667
  9
$TDUPDATE
 40
2456458.494684063
  9
$TDUUPDATE
 40
2456458.411350729
  9
$TDINDWG
 40
0.0046064583
  9
$TDUSRTIMER
 40
0.0046062731
  9
$USRTIMER
 70
     1
  9
$ANGBASE
 50
0.0
  9
$ANGDIR
 70
     0
  9
$PDMODE
 70
     0
  9
$PDSIZE
 40
0.0
  9
$PLINEWID
 40
0.0
  9
$SPLFRAME
 70
     0
  9
$SPLINETYPE
 70
     6
  9
$SPLINESEGS
 70
     8
  9
$HANDSEED
  5
523
  9
$SURFTAB1
 70
     6
  9
$SURFTAB2
 70
     6
  9
$SURFTYPE
 70
     6
  9
$SURFU
 70
     6
  9
$SURFV
 70
     6
  9
$UCSBASE
  2

  9
$UCSNAME
  2

  9
$UCSORG
 10
0.0
 20
0.0
 30
0.0
  9
$UCSXDIR
 10
1.0
 20
0.0
 30
0.0
  9
$UCSYDIR
 10
0.0
 20
1.0
 30
0.0
  9
$UCSORTHOREF
  2

  9
$UCSORTHOVIEW
 70
     0
  9
$UCSORGTOP
 10
0.0
 20
0.0
 30
0.0
  9
$UCSORGBOTTOM
 10
0.0
 20
0.0
 30
0.0
  9
$UCSORGLEFT
 10
0.0
 20
0.0
 30
0.0
  9
$UCSORGRIGHT
 10
0.0
 20
0.0
 30
0.0
  9
$UCSORGFRONT
 10
0.0
 20
0.0
 30
0.0
  9
$UCSORGBACK
 10
0.0
 20
0.0
 30
0.0
  9
$PUCSBASE
  2

  9
$PUCSNAME
  2

  9
$PUCSORG
 10
0.0
 20
0.0
 30
0.0
  9
$PUCSXDIR
 10
1.0
 20
0.0
 30
0.0
  9
$PUCSYDIR
 10
0.0
 20
1.0
 30
0.0
  9
$PUCSORTHOREF
  2

  9
$PUCSORTHOVIEW
 70
     0
  9
$PUCSORGTOP
 10
0.0
 20
0.0
 30
0.0
  9
$PUCSORGBOTTOM
 10
0.0
 20
0.0
 30
0.0
  9
$PUCSORGLEFT
 10
0.0
 20
0.0
 30
0.0
  9
$PUCSORGRIGHT
 10
0.0
 20
0.0
 30
0.0
  9
$PUCSORGFRONT
 10
0.0
 20
0.0
 30
0.0
  9
$PUCSORGBACK
 10
0.0
 20
0.0
 30
0.0
  9
$USERI1
 70
     0
  9
$USERI2
 70
     0
  9
$USERI3
 70
     0
  9
$USERI4
 70
     0
  9
$USERI5
 70
     0
  9
$USERR1
 40
0.0
  9
$USERR2
 40
0.0
  9
$USERR3
 40
0.0
  9
$USERR4
 40
0.0
  9
$USERR5
 40
0.0
  9
$WORLDVIEW
 70
     1
  9
$SHADEDGE
 70
     3
  9
$SHADEDIF
 70
    70
  9
$TILEMODE
 70
     1
  9
$MAXACTVP
 70
    16
  9
$PINSBASE
 10
0.0
 20
0.0
 30
0.0
  9
$PLIMCHECK
 70
     0
  9
$PEXTMIN
 10
1.000000000000000E+20
 20
1.000000000000000E+20
 30
1.000000000000000E+20
  9
$PEXTMAX
 10
-1.000000000000000E+20
 20
-1.000000000000000E+20
 30
-1.000000000000000E+20
  9
$PLIMMIN
 10
0.0
 20
0.0
  9
$PLIMMAX
 10
12.0
 20
9.0
  9
$UNITMODE
 70
     0
  9
$VISRETAIN
 70
     0
  9
$PLINEGEN
 70
     0
  9
$PSLTSCALE
 70
     1
  9
$TREEDEPTH
 70
  3020
  9
$CMLSTYLE
  2
STANDARD
  9
$CMLJUST
 70
     0
  9
$CMLSCALE
 40
1.0
  9
$PROXYGRAPHICS
 70
     1
  9
$MEASUREMENT
 70
     1
  9
$CELWEIGHT
370
    -1
  9
$ENDCAPS
280
     0
  9
$JOINSTYLE
280
     0
  9
$LWDISPLAY
290
     0
  9
$INSUNITS
 70
     0
  9
$HYPERLINKBASE
  1

  9
$STYLESHEET
  1

  9
$XEDIT
290
     1
  9
$CEPSNTYPE
380
     0
  9
$PSTYLEMODE
290
     1
  9
$FINGERPRINTGUID
  2
{C153F467-CA2A-42E9-AA22-FE0E3FD64265}
  9
$VERSIONGUID
  2
{AD057D56-F946-44D3-8F29-5322B5F21C54}
  9
$EXTNAMES
290
     1
  9
$PSVPSCALE
 40
0.0
  9
$OLESTARTUP
290
     0
  0
ENDSEC
  0
SECTION
  2
CLASSES
  0
CLASS
  1
ACDBDICTIONARYWDFLT
  2
AcDbDictionaryWithDefault
  3
ObjectDBX Classes
 90
        0
280
     0
281
     0
  0
CLASS
  1
MATERIAL
  2
AcDbMaterial
  3
ObjectDBX Classes
 90
     1153
280
     0
281
     0
  0
CLASS
  1
VISUALSTYLE
  2
AcDbVisualStyle
  3
ObjectDBX Classes
 90
     4095
280
     0
281
     0
  0
CLASS
  1
TABLESTYLE
  2
AcDbTableStyle
  3
ObjectDBX Classes
 90
     4095
280
     0
281
     0
  0
CLASS
  1
SCALE
  2
AcDbScale
  3
ObjectDBX Classes
 90
     1153
280
     0
281
     0
  0
CLASS
  1
MLEADERSTYLE
  2
AcDbMLeaderStyle
  3
ACDB_MLEADERSTYLE_CLASS
 90
     4095
280
     0
281
     0
  0
CLASS
  1
AEC_REFEDIT_STATUS_TRACKER
  2
AecDbRefEditStatusTracker
  3
AecArchBase60|Product Desc: Autodesk Architectural Desktop 2007 |Company: Autodesk,Inc. |WEB Address: www.autodesk.com
 90
      129
280
     0
281
     0
  0
CLASS
  1
NPOCOLLECTION
  2
AcDbImpNonPersistentObjectsCollection
  3
ObjectDBX Classes
 90
     1153
280
     0
281
     0
  0
CLASS
  1
SORTENTSTABLE
  2
AcDbSortentsTable
  3
ObjectDBX Classes
 90
        0
280
     0
281
     0
  0
CLASS
  1
DICTIONARYVAR
  2
AcDbDictionaryVar
  3
ObjectDBX Classes
 90
        0
280
     0
281
     0
  0
CLASS
  1
CELLSTYLEMAP
  2
AcDbCellStyleMap
  3
ObjectDBX Classes
 90
     1152
280
     0
281
     0
  0
CLASS
  1
ACDBPLACEHOLDER
  2
AcDbPlaceHolder
  3
ObjectDBX Classes
 90
        0
280
     0
281
     0
  0
CLASS
  1
LAYOUT
  2
AcDbLayout
  3
ObjectDBX Classes
 90
        0
280
     0
281
     0
  0
ENDSEC
  0
SECTION
  2
TABLES
  0
TABLE
  2
VPORT
  5
C2
330
0
100
AcDbSymbolTable
 70
     1
  0
VPORT
  5
483
330
C2
100
AcDbSymbolTableRecord
100
AcDbViewportTableRecord
  2
*Active
 70
     0
 10
0.0
 20
0.0
 11
1.0
 21
1.0
 12
44439.83624127062
 22
-32622.57889308499
 13
0.0
 23
0.0
 14
1.0
 24
1.0
 15
0.0
 25
0.0
 16
0.0
 26
0.0
 36
1.0
 17
0.0
 27
0.0
 37
0.0
 40
1366.946390195517
 41
2.015345268542199
 42
50.0
 43
0.0
 44
0.0
 50
0.0
 51
0.0
 71
     0
 72
  1000
 73
     1
 74
     3
 75
     0
 76
     0
 77
     0
 78
     0
281
     0
 65
     1
110
0.0
120
0.0
130
0.0
111
1.0
121
0.0
131
0.0
112
0.0
122
1.0
132
0.0
 79
     0
146
0.0
  0
ENDTAB
  0
TABLE
  2
LTYPE
  5
C9
330
0
100
AcDbSymbolTable
 70
    12
  0
LTYPE
  5
CA
330
C9
100
AcDbSymbolTableRecord
100
AcDbLinetypeTableRecord
  2
BYBLOCK
 70
     0
  3

 72
    65
 73
     0
 40
0.0
  0
LTYPE
  5
CB
330
C9
100
AcDbSymbolTableRecord
100
AcDbLinetypeTableRecord
  2
BYLAYER
 70
     0
  3

 72
    65
 73
     0
 40
0.0
  0
LTYPE
  5
CC
330
C9
100
AcDbSymbolTableRecord
100
AcDbLinetypeTableRecord
  2
CONTINUOUS
 70
     0
  3
Solid line
 72
    65
 73
     0
 40
0.0
  0
LTYPE
  5
CD
330
C9
100
AcDbSymbolTableRecord
100
AcDbLinetypeTableRecord
  2
DOT
 70
     0
  3
. . . . . . . . . . . . . . . . . . . . . . . .
 72
    65
 73
     2
 40
2.5
 49
0.0
 74
     0
 49
-2.5
 74
     0
  0
LTYPE
  5
CE
330
C9
100
AcDbSymbolTableRecord
100
AcDbLinetypeTableRecord
  2
HIDDEN
 70
     0
  3
__ __ __ __ __ __ __ __ __ __ __ __ __ __ __ __
 72
    65
 73
     2
 40
1.875
 49
1.25
 74
     0
 49
-0.625
 74
     0
  0
LTYPE
  5
CF
330
C9
100
AcDbSymbolTableRecord
100
AcDbLinetypeTableRecord
  2
DASHDOT
 70
     0
  3
 __ . __ . __ . __ . __ . __ . __ . __ . __ . __
 72
    65
 73
     4
 40
10.0
 49
5.0
 74
     0
 49
-2.5
 74
     0
 49
0.0
 74
     0
 49
-2.5
 74
     0
  0
LTYPE
  5
D0
330
C9
100
AcDbSymbolTableRecord
100
AcDbLinetypeTableRecord
  2
DASHEDX2
 70
     0
  3
____  ____  ____  ____  ____  ____  ____  ____
 72
    65
 73
     2
 40
3.75
 49
2.5
 74
     0
 49
-1.25
 74
     0
  0
LTYPE
  5
D1
330
C9
100
AcDbSymbolTableRecord
100
AcDbLinetypeTableRecord
  2
CADWORK_22
 70
     0
  3
22 =======================================
 72
    65
 73
     0
 40
0.0
  0
LTYPE
  5
D2
330
C9
100
AcDbSymbolTableRecord
100
AcDbLinetypeTableRecord
  2
DAL
 70
     0
  3
Solid line (for MAPS)
 72
    65
 73
     0
 40
0.0
  0
LTYPE
  5
D3
330
C9
100
AcDbSymbolTableRecord
100
AcDbLinetypeTableRecord
  2
MUR
 70
     0
  3
Solid line (for MAPS)
 72
    65
 73
     0
 40
0.0
  0
LTYPE
  5
D4
330
C9
100
AcDbSymbolTableRecord
100
AcDbLinetypeTableRecord
  2
SOM
 70
     0
  3
Solid line (for MAPS)
 72
    65
 73
     0
 40
0.0
  0
LTYPE
  5
D5
330
C9
100
AcDbSymbolTableRecord
100
AcDbLinetypeTableRecord
  2
COL
 70
     0
  3
Solid line (for MAPS)
 72
    65
 73
     0
 40
0.0
  0
LTYPE
  5
D6
330
C9
100
AcDbSymbolTableRecord
100
AcDbLinetypeTableRecord
  2
LGN
 70
     0
  3
Solid line (for MAPS)
 72
    65
 73
     0
 40
0.0
  0
LTYPE
  5
D7
330
C9
100
AcDbSymbolTableRecord
100
AcDbLinetypeTableRecord
  2
PNT
 70
     0
  3
Solid line (for MAPS)
 72
    65
 73
     0
 40
0.0
  0
ENDTAB
  0
TABLE
  2
LAYER
  5
D8
330
0
100
AcDbSymbolTable
 70
    32
  0
LAYER
  5
D9
102
{ACAD_XDICTIONARY
360
4A2
102
}
330
D8
100
AcDbSymbolTableRecord
100
AcDbLayerTableRecord
  2
STANDARD
 70
     0
 62
     7
  6
CONTINUOUS
370
    -3
390
432
  0
LAYER
  5
DA
102
{ACAD_XDICTIONARY
360
4A4
102
}
330
D8
100
AcDbSymbolTableRecord
100
AcDbLayerTableRecord
  2
Ech.1_1
 70
     0
 62
     7
  6
CONTINUOUS
370
    -3
390
432
  0
LAYER
  5
DB
102
{ACAD_XDICTIONARY
360
4A6
102
}
330
D8
100
AcDbSymbolTableRecord
100
AcDbLayerTableRecord
  2
Ech.1_2
 70
     0
 62
     7
  6
CONTINUOUS
370
    -3
390
432
  0
LAYER
  5
DC
102
{ACAD_XDICTIONARY
360
4A8
102
}
330
D8
100
AcDbSymbolTableRecord
100
AcDbLayerTableRecord
  2
Ech.1_5
 70
     0
 62
     7
  6
CONTINUOUS
370
    -3
390
432
  0
LAYER
  5
DD
102
{ACAD_XDICTIONARY
360
4AA
102
}
330
D8
100
AcDbSymbolTableRecord
100
AcDbLayerTableRecord
  2
Ech.1_10
 70
     0
 62
     7
  6
CONTINUOUS
370
    -3
390
432
  0
LAYER
  5
DE
102
{ACAD_XDICTIONARY
360
4AC
102
}
330
D8
100
AcDbSymbolTableRecord
100
AcDbLayerTableRecord
  2
Ech.1_20
 70
     0
 62
     7
  6
CONTINUOUS
370
    -3
390
432
  0
LAYER
  5
DF
102
{ACAD_XDICTIONARY
360
4AE
102
}
330
D8
100
AcDbSymbolTableRecord
100
AcDbLayerTableRecord
  2
Ech.1_25
 70
     0
 62
     7
  6
CONTINUOUS
370
    -3
390
432
  0
LAYER
  5
E0
102
{ACAD_XDICTIONARY
360
4B0
102
}
330
D8
100
AcDbSymbolTableRecord
100
AcDbLayerTableRecord
  2
Ech.1_33
 70
     0
 62
     7
  6
CONTINUOUS
370
    -3
390
432
  0
LAYER
  5
E1
102
{ACAD_XDICTIONARY
360
4B2
102
}
330
D8
100
AcDbSymbolTableRecord
100
AcDbLayerTableRecord
  2
Ech.1_50
 70
     0
 62
     7
  6
CONTINUOUS
370
    -3
390
432
  0
LAYER
  5
E2
102
{ACAD_XDICTIONARY
360
4B4
102
}
330
D8
100
AcDbSymbolTableRecord
100
AcDbLayerTableRecord
  2
Ech.1_75
 70
     0
 62
     7
  6
CONTINUOUS
370
    -3
390
432
  0
LAYER
  5
E3
102
{ACAD_XDICTIONARY
360
4B6
102
}
330
D8
100
AcDbSymbolTableRecord
100
AcDbLayerTableRecord
  2
Ech.1_100
 70
     0
 62
     7
  6
CONTINUOUS
370
    -3
390
432
  0
LAYER
  5
E4
102
{ACAD_XDICTIONARY
360
4B8
102
}
330
D8
100
AcDbSymbolTableRecord
100
AcDbLayerTableRecord
  2
Ech.1_200
 70
     0
 62
     7
  6
CONTINUOUS
370
    -3
390
432
  0
LAYER
  5
E5
102
{ACAD_XDICTIONARY
360
4BA
102
}
330
D8
100
AcDbSymbolTableRecord
100
AcDbLayerTableRecord
  2
Ech.1_500
 70
     0
 62
     7
  6
CONTINUOUS
370
    -3
390
432
  0
LAYER
  5
E6
102
{ACAD_XDICTIONARY
360
4BC
102
}
330
D8
100
AcDbSymbolTableRecord
100
AcDbLayerTableRecord
  2
Ech.1_1000
 70
     0
 62
     7
  6
CONTINUOUS
370
    -3
390
432
  0
LAYER
  5
E7
102
{ACAD_XDICTIONARY
360
4BE
102
}
330
D8
100
AcDbSymbolTableRecord
100
AcDbLayerTableRecord
  2
Cadres traceur
 70
     0
 62
     7
  6
CONTINUOUS
370
    -3
390
432
  0
LAYER
  5
E8
102
{ACAD_XDICTIONARY
360
4C0
102
}
330
D8
100
AcDbSymbolTableRecord
100
AcDbLayerTableRecord
  2
Cadres laser
 70
     0
 62
     7
  6
CONTINUOUS
370
    -3
390
432
  0
LAYER
  5
E9
102
{ACAD_XDICTIONARY
360
4C2
102
}
330
D8
100
AcDbSymbolTableRecord
100
AcDbLayerTableRecord
  2
Légende d_aide
 70
     0
 62
     7
  6
CONTINUOUS
370
    -3
390
432
  0
LAYER
  5
EA
102
{ACAD_XDICTIONARY
360
4C4
102
}
330
D8
100
AcDbSymbolTableRecord
100
AcDbLayerTableRecord
  2
hachures ok
 70
     0
 62
     7
  6
CONTINUOUS
370
    -3
390
432
  0
LAYER
  5
EB
102
{ACAD_XDICTIONARY
360
4C6
102
}
330
D8
100
AcDbSymbolTableRecord
100
AcDbLayerTableRecord
  2
ossature bois
 70
     0
 62
     7
  6
CONTINUOUS
370
    -3
390
432
  0
LAYER
  5
EC
102
{ACAD_XDICTIONARY
360
4C8
102
}
330
D8
100
AcDbSymbolTableRecord
100
AcDbLayerTableRecord
  2
VR
 70
     0
 62
     7
  6
CONTINUOUS
370
    -3
390
432
  0
LAYER
  5
ED
102
{ACAD_XDICTIONARY
360
4CA
102
}
330
D8
100
AcDbSymbolTableRecord
100
AcDbLayerTableRecord
  2
CALQUE1
 70
     0
 62
     7
  6
CONTINUOUS
370
    -3
390
432
  0
LAYER
  5
EE
330
D8
100
AcDbSymbolTableRecord
100
AcDbLayerTableRecord
  2
0
 70
     0
 62
     7
  6
CONTINUOUS
370
    -3
390
432
  0
LAYER
  5
EF
102
{ACAD_XDICTIONARY
360
4CC
102
}
330
D8
100
AcDbSymbolTableRecord
100
AcDbLayerTableRecord
  2
MENUISERIE
 70
     0
 62
     7
  6
CONTINUOUS
370
    -3
390
432
  0
LAYER
  5
F0
102
{ACAD_XDICTIONARY
360
4CE
102
}
330
D8
100
AcDbSymbolTableRecord
100
AcDbLayerTableRecord
  2
COTATION
 70
     0
 62
   250
  6
CONTINUOUS
370
    -3
390
432
  0
LAYER
  5
F1
330
D8
100
AcDbSymbolTableRecord
100
AcDbLayerTableRecord
  2
DEFPOINTS
 70
     0
 62
    10
  6
CONTINUOUS
290
     0
370
    -3
390
432
  0
LAYER
  5
F2
102
{ACAD_XDICTIONARY
360
4D0
102
}
330
D8
100
AcDbSymbolTableRecord
100
AcDbLayerTableRecord
  2
HACHURE
 70
     0
 62
   254
  6
CONTINUOUS
370
    -3
390
432
  0
LAYER
  5
F3
102
{ACAD_XDICTIONARY
360
4D2
102
}
330
D8
100
AcDbSymbolTableRecord
100
AcDbLayerTableRecord
  2
MAT1
 70
     0
 62
     7
  6
CONTINUOUS
370
    -3
390
432
  0
LAYER
  5
F4
102
{ACAD_XDICTIONARY
360
4D4
102
}
330
D8
100
AcDbSymbolTableRecord
100
AcDbLayerTableRecord
  2
MAT2
 70
     0
 62
     7
  6
CONTINUOUS
370
    -3
390
432
  0
LAYER
  5
F5
102
{ACAD_XDICTIONARY
360
4D6
102
}
330
D8
100
AcDbSymbolTableRecord
100
AcDbLayerTableRecord
  2
HACH
 70
     0
 62
     8
  6
CONTINUOUS
370
    -3
390
432
  0
LAYER
  5
F6
102
{ACAD_XDICTIONARY
360
4D8
102
}
330
D8
100
AcDbSymbolTableRecord
100
AcDbLayerTableRecord
  2
MENUISERIES
 70
     0
 62
     7
  6
CONTINUOUS
370
    -3
390
432
  0
LAYER
  5
F7
102
{ACAD_XDICTIONARY
360
4DA
102
}
330
D8
100
AcDbSymbolTableRecord
100
AcDbLayerTableRecord
  2
BÉTONMÉTAL
 70
     0
 62
     7
  6
CONTINUOUS
370
    -3
390
432
  0
LAYER
  5
F8
102
{ACAD_XDICTIONARY
360
4DC
102
}
330
D8
100
AcDbSymbolTableRecord
100
AcDbLayerTableRecord
  2
BOIS
 70
     0
 62
     7
  6
CONTINUOUS
370
    -3
390
432
  0
ENDTAB
  0
TABLE
  2
STYLE
  5
C3
330
0
100
AcDbSymbolTable
 70
     5
  0
STYLE
  5
C4
330
C3
100
AcDbSymbolTableRecord
100
AcDbTextStyleTableRecord
  2
STANDARD
 70
     0
 40
0.0
 41
1.0
 50
0.0
 71
     0
 42
3.5
  3
MONOTXT
  4

  0
STYLE
  5
C5
330
C3
100
AcDbSymbolTableRecord
100
AcDbTextStyleTableRecord
  2
CADWORK1
 70
     0
 40
0.0
 41
1.0
 50
0.0
 71
     0
 42
3.5
  3
MONOTXT
  4

  0
STYLE
  5
C6
330
C3
100
AcDbSymbolTableRecord
100
AcDbTextStyleTableRecord
  2
MONOTXT
 70
     0
 40
0.0
 41
1.0
 50
0.0
 71
     0
 42
3.5
  3
MONOTXT
  4

  0
STYLE
  5
C7
330
C3
100
AcDbSymbolTableRecord
100
AcDbTextStyleTableRecord
  2
TAHOMA
 70
     0
 40
0.0
 41
1.0
 50
0.0
 71
     0
 42
3.5
  3

  4

1001
ACAD
1000
Tahoma
1071
        0
  0
STYLE
  5
C8
330
C3
100
AcDbSymbolTableRecord
100
AcDbTextStyleTableRecord
  2
ARIAL
 70
     0
 40
0.0
 41
1.0
 50
0.0
 71
     0
 42
3.5
  3

  4

1001
ACAD
1000
Arial
1071
        0
  0
ENDTAB
  0
TABLE
  2
VIEW
  5
F9
330
0
100
AcDbSymbolTable
 70
     6
  0
ENDTAB
  0
TABLE
  2
UCS
  5
FA
330
0
100
AcDbSymbolTable
 70
     0
  0
ENDTAB
  0
TABLE
  2
APPID
  5
FB
330
0
100
AcDbSymbolTable
 70
     2
  0
APPID
  5
FC
330
FB
100
AcDbSymbolTableRecord
100
AcDbRegAppTableRecord
  2
ACAD
 70
     0
  0
APPID
  5
51E
330
FB
100
AcDbSymbolTableRecord
100
AcDbRegAppTableRecord
  2
ACAD_MLEADERVER
 70
     0
  0
ENDTAB
  0
TABLE
  2
DIMSTYLE
  5
FD
330
0
100
AcDbSymbolTable
 70
     1
100
AcDbDimStyleTable
 71
     0
  0
DIMSTYLE
105
47C
330
FD
100
AcDbSymbolTableRecord
100
AcDbDimStyleTableRecord
  2
Standard
 70
     0
340
C4
  0
ENDTAB
  0
TABLE
  2
BLOCK_RECORD
  5
FE
330
0
100
AcDbSymbolTable
 70
    53
  0
BLOCK_RECORD
  5
FF
102
{ACAD_XDICTIONARY
360
496
102
}
330
FE
100
AcDbSymbolTableRecord
100
AcDbBlockTableRecord
  2
*MODEL_SPACE
340
47F
  0
BLOCK_RECORD
  5
100
330
FE
100
AcDbSymbolTableRecord
100
AcDbBlockTableRecord
  2
*PAPER_SPACE
340
480
  0
BLOCK_RECORD
  5
101
330
FE
100
AcDbSymbolTableRecord
100
AcDbBlockTableRecord
  2
CDWK_EXTR_0
340
0
  0
BLOCK_RECORD
  5
102
330
FE
100
AcDbSymbolTableRecord
100
AcDbBlockTableRecord
  2
CDWK_EXTR_1D
340
0
  0
BLOCK_RECORD
  5
103
330
FE
100
AcDbSymbolTableRecord
100
AcDbBlockTableRecord
  2
CDWK_EXTR_1G
340
0
  0
BLOCK_RECORD
  5
104
330
FE
100
AcDbSymbolTableRecord
100
AcDbBlockTableRecord
  2
CDWK_EXTR_2
340
0
  0
BLOCK_RECORD
  5
105
330
FE
100
AcDbSymbolTableRecord
100
AcDbBlockTableRecord
  2
CDWK_EXTR_3
340
0
  0
BLOCK_RECORD
  5
106
330
FE
100
AcDbSymbolTableRecord
100
AcDbBlockTableRecord
  2
CDWK_EXTR_4
340
0
  0
BLOCK_RECORD
  5
107
330
FE
100
AcDbSymbolTableRecord
100
AcDbBlockTableRecord
  2
CDWK_PTTYP0
340
0
  0
BLOCK_RECORD
  5
108
330
FE
100
AcDbSymbolTableRecord
100
AcDbBlockTableRecord
  2
CDWK_PTTYP1
340
0
  0
BLOCK_RECORD
  5
109
330
FE
100
AcDbSymbolTableRecord
100
AcDbBlockTableRecord
  2
CDWK_PTTYP2
340
0
  0
BLOCK_RECORD
  5
10A
330
FE
100
AcDbSymbolTableRecord
100
AcDbBlockTableRecord
  2
CDWK_PTTYP3
340
0
  0
BLOCK_RECORD
  5
10B
330
FE
100
AcDbSymbolTableRecord
100
AcDbBlockTableRecord
  2
CDWK_PTTYP4
340
0
  0
BLOCK_RECORD
  5
10C
330
FE
100
AcDbSymbolTableRecord
100
AcDbBlockTableRecord
  2
CDWK_PTTYP5
340
0
  0
BLOCK_RECORD
  5
10D
330
FE
100
AcDbSymbolTableRecord
100
AcDbBlockTableRecord
  2
CDWK_PTTYP6
340
0
  0
BLOCK_RECORD
  5
10E
330
FE
100
AcDbSymbolTableRecord
100
AcDbBlockTableRecord
  2
CDWK_PTTYP7
340
0
  0
BLOCK_RECORD
  5
10F
330
FE
100
AcDbSymbolTableRecord
100
AcDbBlockTableRecord
  2
CDWK_PTTYP8
340
0
  0
BLOCK_RECORD
  5
110
330
FE
100
AcDbSymbolTableRecord
100
AcDbBlockTableRecord
  2
CDWK_PTTYP9
340
0
  0
BLOCK_RECORD
  5
111
330
FE
100
AcDbSymbolTableRecord
100
AcDbBlockTableRecord
  2
CDWK_PTTYP10
340
0
  0
BLOCK_RECORD
  5
112
330
FE
100
AcDbSymbolTableRecord
100
AcDbBlockTableRecord
  2
CDWK_PTTYP11
340
0
  0
BLOCK_RECORD
  5
113
330
FE
100
AcDbSymbolTableRecord
100
AcDbBlockTableRecord
  2
CDWK_PTTYP12
340
0
  0
BLOCK_RECORD
  5
114
330
FE
100
AcDbSymbolTableRecord
100
AcDbBlockTableRecord
  2
CDWK_PTTYP13
340
0
  0
BLOCK_RECORD
  5
115
330
FE
100
AcDbSymbolTableRecord
100
AcDbBlockTableRecord
  2
CDWK_PTTYP14
340
0
  0
BLOCK_RECORD
  5
116
330
FE
100
AcDbSymbolTableRecord
100
AcDbBlockTableRecord
  2
CDWK_PTTYP15
340
0
  0
BLOCK_RECORD
  5
117
330
FE
100
AcDbSymbolTableRecord
100
AcDbBlockTableRecord
  2
CDWK_PTTYP16
340
0
  0
BLOCK_RECORD
  5
118
330
FE
100
AcDbSymbolTableRecord
100
AcDbBlockTableRecord
  2
CDWK_PTTYP17
340
0
  0
BLOCK_RECORD
  5
119
330
FE
100
AcDbSymbolTableRecord
100
AcDbBlockTableRecord
  2
CDWK_PTTYP18
340
0
  0
BLOCK_RECORD
  5
11A
330
FE
100
AcDbSymbolTableRecord
100
AcDbBlockTableRecord
  2
CDWK_PTTYP19
340
0
  0
BLOCK_RECORD
  5
11B
330
FE
100
AcDbSymbolTableRecord
100
AcDbBlockTableRecord
  2
CDWK_PTTYP20
340
0
  0
BLOCK_RECORD
  5
11C
330
FE
100
AcDbSymbolTableRecord
100
AcDbBlockTableRecord
  2
CDWK_PTTYP21
340
0
  0
BLOCK_RECORD
  5
11D
330
FE
100
AcDbSymbolTableRecord
100
AcDbBlockTableRecord
  2
CDWK_PTTYP22
340
0
  0
BLOCK_RECORD
  5
11E
330
FE
100
AcDbSymbolTableRecord
100
AcDbBlockTableRecord
  2
CDWK_PTTYP23
340
0
  0
BLOCK_RECORD
  5
11F
330
FE
100
AcDbSymbolTableRecord
100
AcDbBlockTableRecord
  2
CDWK_PTTYP24
340
0
  0
BLOCK_RECORD
  5
120
330
FE
100
AcDbSymbolTableRecord
100
AcDbBlockTableRecord
  2
CDWK_PTTYP25
340
0
  0
BLOCK_RECORD
  5
121
330
FE
100
AcDbSymbolTableRecord
100
AcDbBlockTableRecord
  2
CDWK_PTTYP26
340
0
  0
BLOCK_RECORD
  5
122
330
FE
100
AcDbSymbolTableRecord
100
AcDbBlockTableRecord
  2
CDWK_PTTYP27
340
0
  0
BLOCK_RECORD
  5
123
330
FE
100
AcDbSymbolTableRecord
100
AcDbBlockTableRecord
  2
CDWK_PTTYP28
340
0
  0
BLOCK_RECORD
  5
124
330
FE
100
AcDbSymbolTableRecord
100
AcDbBlockTableRecord
  2
CDWK_PTTYP29
340
0
  0
BLOCK_RECORD
  5
125
330
FE
100
AcDbSymbolTableRecord
100
AcDbBlockTableRecord
  2
CDWK_PTTYP30
340
0
  0
BLOCK_RECORD
  5
126
330
FE
100
AcDbSymbolTableRecord
100
AcDbBlockTableRecord
  2
CDWK_PTTYP31
340
0
  0
BLOCK_RECORD
  5
127
330
FE
100
AcDbSymbolTableRecord
100
AcDbBlockTableRecord
  2
CDWK_PTTYP32
340
0
  0
BLOCK_RECORD
  5
128
330
FE
100
AcDbSymbolTableRecord
100
AcDbBlockTableRecord
  2
CDWK_PTTYP33
340
0
  0
BLOCK_RECORD
  5
129
330
FE
100
AcDbSymbolTableRecord
100
AcDbBlockTableRecord
  2
CDWK_PTTYP34
340
0
  0
BLOCK_RECORD
  5
12A
330
FE
100
AcDbSymbolTableRecord
100
AcDbBlockTableRecord
  2
CDWK_PTTYP35
340
0
  0
BLOCK_RECORD
  5
12B
330
FE
100
AcDbSymbolTableRecord
100
AcDbBlockTableRecord
  2
CDWK_PTTYP36
340
0
  0
BLOCK_RECORD
  5
12C
330
FE
100
AcDbSymbolTableRecord
100
AcDbBlockTableRecord
  2
CDWK_PTTYP37
340
0
  0
BLOCK_RECORD
  5
12D
330
FE
100
AcDbSymbolTableRecord
100
AcDbBlockTableRecord
  2
CDWK_PTTYP38
340
0
  0
BLOCK_RECORD
  5
12E
330
FE
100
AcDbSymbolTableRecord
100
AcDbBlockTableRecord
  2
*X45
340
0
102
{BLKREFS
331
3BB
102
}
  0
BLOCK_RECORD
  5
12F
330
FE
100
AcDbSymbolTableRecord
100
AcDbBlockTableRecord
  2
*X46
340
0
102
{BLKREFS
331
3BC
102
}
  0
BLOCK_RECORD
  5
130
330
FE
100
AcDbSymbolTableRecord
100
AcDbBlockTableRecord
  2
*X47
340
0
102
{BLKREFS
331
3BD
102
}
  0
BLOCK_RECORD
  5
131
330
FE
100
AcDbSymbolTableRecord
100
AcDbBlockTableRecord
  2
*X48
340
0
102
{BLKREFS
331
3BE
102
}
  0
BLOCK_RECORD
  5
132
330
FE
100
AcDbSymbolTableRecord
100
AcDbBlockTableRecord
  2
A$C42653196
340
0
  0
BLOCK_RECORD
  5
133
330
FE
100
AcDbSymbolTableRecord
100
AcDbBlockTableRecord
  2
A$C3F0A7B51
340
0
  0
BLOCK_RECORD
  5
134
330
FE
100
AcDbSymbolTableRecord
100
AcDbBlockTableRecord
  2
PROFIL_L
340
0
  0
BLOCK_RECORD
  5
135
330
FE
100
AcDbSymbolTableRecord
100
AcDbBlockTableRecord
  2
A$C4DC86443
340
0
  0
ENDTAB
  0
ENDSEC
  0
SECTION
  2
BLOCKS
  0
BLOCK
  5
136
330
FF
100
AcDbEntity
  8
0
100
AcDbBlockBegin
  2
*MODEL_SPACE
 70
     0
 10
0.0
 20
0.0
 30
0.0
  3
*MODEL_SPACE
  1

  0
ENDBLK
  5
137
330
FF
100
AcDbEntity
  8
0
100
AcDbBlockEnd
  0
BLOCK
  5
138
330
100
100
AcDbEntity
 67
     1
  8
0
100
AcDbBlockBegin
  2
*PAPER_SPACE
 70
     0
 10
0.0
 20
0.0
 30
0.0
  3
*PAPER_SPACE
  1

  0
ENDBLK
  5
139
330
100
100
AcDbEntity
 67
     1
  8
0
100
AcDbBlockEnd
  0
BLOCK
  5
13A
330
101
100
AcDbEntity
  8
0
100
AcDbBlockBegin
  2
CDWK_EXTR_0
 70
     0
 10
0.0
 20
0.0
 30
0.0
  3
CDWK_EXTR_0
  1

  0
LINE
  5
13B
330
101
100
AcDbEntity
  8
0
 62
     0
370
    -2
100
AcDbLine
 10
0.0
 20
0.0
 30
0.0
 11
2.0
 21
0.5
 31
0.0
  0
LINE
  5
13C
330
101
100
AcDbEntity
  8
0
 62
     0
370
    -2
100
AcDbLine
 10
0.0
 20
0.0
 30
0.0
 11
2.0
 21
-0.5
 31
0.0
  0
LINE
  5
13D
330
101
100
AcDbEntity
  8
0
 62
     0
370
    -2
100
AcDbLine
 10
2.0
 20
0.5
 30
0.0
 11
2.0
 21
-0.5
 31
0.0
  0
ENDBLK
  5
13E
330
101
100
AcDbEntity
  8
0
100
AcDbBlockEnd
  0
BLOCK
  5
13F
330
102
100
AcDbEntity
  8
0
100
AcDbBlockBegin
  2
CDWK_EXTR_1D
 70
     0
 10
0.0
 20
0.0
 30
0.0
  3
CDWK_EXTR_1D
  1

  0
LINE
  5
140
330
102
100
AcDbEntity
  8
0
 62
     0
370
    -2
100
AcDbLine
 10
0.0
 20
0.0
 30
0.0
 11
0.0
 21
1.0
 31
0.0
  0
LINE
  5
141
330
102
100
AcDbEntity
  8
0
 62
     0
370
    -2
100
AcDbLine
 10
0.0
 20
1.0
 30
0.0
 11
0.5
 21
1.5
 31
0.0
  0
LINE
  5
142
330
102
100
AcDbEntity
  8
0
 62
     0
370
    -2
100
AcDbLine
 10
0.5
 20
1.5
 30
0.0
 11
1.5
 21
1.5
 31
0.0
  0
ENDBLK
  5
143
330
102
100
AcDbEntity
  8
0
100
AcDbBlockEnd
  0
BLOCK
  5
144
330
103
100
AcDbEntity
  8
0
100
AcDbBlockBegin
  2
CDWK_EXTR_1G
 70
     0
 10
0.0
 20
0.0
 30
0.0
  3
CDWK_EXTR_1G
  1

  0
LINE
  5
145
330
103
100
AcDbEntity
  8
0
 62
     0
370
    -2
100
AcDbLine
 10
0.0
 20
0.0
 30
0.0
 11
0.0
 21
-1.0
 31
0.0
  0
LINE
  5
146
330
103
100
AcDbEntity
  8
0
 62
     0
370
    -2
100
AcDbLine
 10
0.0
 20
-1.0
 30
0.0
 11
0.5
 21
-1.5
 31
0.0
  0
LINE
  5
147
330
103
100
AcDbEntity
  8
0
 62
     0
370
    -2
100
AcDbLine
 10
0.5
 20
-1.5
 30
0.0
 11
1.5
 21
-1.5
 31
0.0
  0
ENDBLK
  5
148
330
103
100
AcDbEntity
  8
0
100
AcDbBlockEnd
  0
BLOCK
  5
149
330
104
100
AcDbEntity
  8
0
100
AcDbBlockBegin
  2
CDWK_EXTR_2
 70
     0
 10
0.0
 20
0.0
 30
0.0
  3
CDWK_EXTR_2
  1

  0
SOLID
  5
14A
330
104
100
AcDbEntity
  8
0
 62
     0
100
AcDbTrace
 10
0.0
 20
0.0
 30
0.0
 11
2.0
 21
0.5
 31
0.0
 12
2.0
 22
-0.5
 32
0.0
 13
2.0
 23
-0.5
 33
0.0
  0
ENDBLK
  5
14B
330
104
100
AcDbEntity
  8
0
100
AcDbBlockEnd
  0
BLOCK
  5
14C
330
105
100
AcDbEntity
  8
0
100
AcDbBlockBegin
  2
CDWK_EXTR_3
 70
     0
 10
0.0
 20
0.0
 30
0.0
  3
CDWK_EXTR_3
  1

  0
SOLID
  5
14D
330
105
100
AcDbEntity
  8
0
 62
     0
100
AcDbTrace
 10
0.0
 20
0.0
 30
0.0
 11
2.0
 21
0.5
 31
0.0
 12
2.0
 22
-0.5
 32
0.0
 13
2.0
 23
-0.5
 33
0.0
  0
LINE
  5
14E
330
105
100
AcDbEntity
  8
0
 62
     0
370
    -2
100
AcDbLine
 10
0.0
 20
1.0
 30
0.0
 11
0.0
 21
-1.0
 31
0.0
  0
ENDBLK
  5
14F
330
105
100
AcDbEntity
  8
0
100
AcDbBlockEnd
  0
BLOCK
  5
150
330
106
100
AcDbEntity
  8
0
100
AcDbBlockBegin
  2
CDWK_EXTR_4
 70
     0
 10
0.0
 20
0.0
 30
0.0
  3
CDWK_EXTR_4
  1

  0
HATCH
  5
151
330
106
100
AcDbEntity
  8
0
 62
     0
370
    20
100
AcDbHatch
 10
0.0
 20
0.0
 30
0.0
210
0.0
220
0.0
230
1.0
  2
SOLID
 70
     1
 71
     0
 91
        1
 92
        1
 93
        1
 72
     2
 10
0.0
 20
0.0
 40
0.5
 50
0.0
 51
360.0
 73
     1
 97
        0
 75
     0
 76
     1
 98
        1
 10
0.0
 20
0.0
  0
ENDBLK
  5
152
330
106
100
AcDbEntity
  8
0
100
AcDbBlockEnd
  0
BLOCK
  5
153
330
107
100
AcDbEntity
  8
0
100
AcDbBlockBegin
  2
CDWK_PTTYP0
 70
     0
 10
0.0
 20
0.0
 30
0.0
  3
CDWK_PTTYP0
  1

  0
POINT
  5
154
330
107
100
AcDbEntity
  8
0
 62
     0
100
AcDbPoint
 10
0.0
 20
0.0
 30
0.0
  0
ENDBLK
  5
155
330
107
100
AcDbEntity
  8
0
100
AcDbBlockEnd
  0
BLOCK
  5
156
330
108
100
AcDbEntity
  8
0
100
AcDbBlockBegin
  2
CDWK_PTTYP1
 70
     0
 10
0.0
 20
0.0
 30
0.0
  3
CDWK_PTTYP1
  1

  0
LINE
  5
157
330
108
100
AcDbEntity
  8
0
 62
     0
370
    -2
100
AcDbLine
 10
-0.5
 20
0.5
 30
0.0
 11
0.5
 21
0.5
 31
0.0
  0
LINE
  5
158
330
108
100
AcDbEntity
  8
0
 62
     0
370
    -2
100
AcDbLine
 10
0.5
 20
0.5
 30
0.0
 11
0.5
 21
-0.5
 31
0.0
  0
LINE
  5
159
330
108
100
AcDbEntity
  8
0
 62
     0
370
    -2
100
AcDbLine
 10
0.5
 20
-0.5
 30
0.0
 11
-0.5
 21
-0.5
 31
0.0
  0
LINE
  5
15A
330
108
100
AcDbEntity
  8
0
 62
     0
370
    -2
100
AcDbLine
 10
-0.5
 20
-0.5
 30
0.0
 11
-0.5
 21
0.5
 31
0.0
  0
ENDBLK
  5
15B
330
108
100
AcDbEntity
  8
0
100
AcDbBlockEnd
  0
BLOCK
  5
15C
330
109
100
AcDbEntity
  8
0
100
AcDbBlockBegin
  2
CDWK_PTTYP2
 70
     0
 10
0.0
 20
0.0
 30
0.0
  3
CDWK_PTTYP2
  1

  0
LINE
  5
15D
330
109
100
AcDbEntity
  8
0
 62
     0
370
    -2
100
AcDbLine
 10
0.0
 20
0.5
 30
0.0
 11
0.0
 21
-0.5
 31
0.0
  0
LINE
  5
15E
330
109
100
AcDbEntity
  8
0
 62
     0
370
    -2
100
AcDbLine
 10
-0.5
 20
0.0
 30
0.0
 11
0.5
 21
0.0
 31
0.0
  0
ENDBLK
  5
15F
330
109
100
AcDbEntity
  8
0
100
AcDbBlockEnd
  0
BLOCK
  5
160
330
10A
100
AcDbEntity
  8
0
100
AcDbBlockBegin
  2
CDWK_PTTYP3
 70
     0
 10
0.0
 20
0.0
 30
0.0
  3
CDWK_PTTYP3
  1

  0
CIRCLE
  5
161
330
10A
100
AcDbEntity
  8
0
 62
     0
370
    -2
100
AcDbCircle
 10
0.0
 20
0.0
 30
0.0
 40
0.5
  0
ENDBLK
  5
162
330
10A
100
AcDbEntity
  8
0
100
AcDbBlockEnd
  0
BLOCK
  5
163
330
10B
100
AcDbEntity
  8
0
100
AcDbBlockBegin
  2
CDWK_PTTYP4
 70
     0
 10
0.0
 20
0.0
 30
0.0
  3
CDWK_PTTYP4
  1

  0
HATCH
  5
164
330
10B
100
AcDbEntity
  8
0
 62
     0
370
    20
100
AcDbHatch
 10
0.0
 20
0.0
 30
0.0
210
0.0
220
0.0
230
1.0
  2
SOLID
 70
     1
 71
     0
 91
        1
 92
        1
 93
        1
 72
     2
 10
0.0
 20
0.0
 40
0.5
 50
0.0
 51
360.0
 73
     1
 97
        0
 75
     0
 76
     1
 98
        1
 10
0.0
 20
0.0
  0
ENDBLK
  5
165
330
10B
100
AcDbEntity
  8
0
100
AcDbBlockEnd
  0
BLOCK
  5
166
330
10C
100
AcDbEntity
  8
0
100
AcDbBlockBegin
  2
CDWK_PTTYP5
 70
     0
 10
0.0
 20
0.0
 30
0.0
  3
CDWK_PTTYP5
  1

  0
LINE
  5
167
330
10C
100
AcDbEntity
  8
0
 62
     0
370
    -2
100
AcDbLine
 10
-0.5
 20
0.5
 30
0.0
 11
0.5
 21
0.5
 31
0.0
  0
LINE
  5
168
330
10C
100
AcDbEntity
  8
0
 62
     0
370
    -2
100
AcDbLine
 10
0.5
 20
0.5
 30
0.0
 11
0.5
 21
-0.5
 31
0.0
  0
LINE
  5
169
330
10C
100
AcDbEntity
  8
0
 62
     0
370
    -2
100
AcDbLine
 10
0.5
 20
-0.5
 30
0.0
 11
-0.5
 21
-0.5
 31
0.0
  0
LINE
  5
16A
330
10C
100
AcDbEntity
  8
0
 62
     0
370
    -2
100
AcDbLine
 10
-0.5
 20
-0.5
 30
0.0
 11
-0.5
 21
0.5
 31
0.0
  0
SOLID
  5
16B
330
10C
100
AcDbEntity
  8
0
 62
     0
100
AcDbTrace
 10
-0.5
 20
-0.5
 30
0.0
 11
-0.5
 21
0.0
 31
0.0
 12
0.0
 22
-0.5
 32
0.0
 13
0.0
 23
0.0
 33
0.0
  0
SOLID
  5
16C
330
10C
100
AcDbEntity
  8
0
 62
     0
100
AcDbTrace
 10
0.0
 20
0.0
 30
0.0
 11
0.0
 21
0.5
 31
0.0
 12
0.5
 22
0.0
 32
0.0
 13
0.5
 23
0.5
 33
0.0
  0
ENDBLK
  5
16D
330
10C
100
AcDbEntity
  8
0
100
AcDbBlockEnd
  0
BLOCK
  5
16E
330
10D
100
AcDbEntity
  8
0
100
AcDbBlockBegin
  2
CDWK_PTTYP6
 70
     0
 10
0.0
 20
0.0
 30
0.0
  3
CDWK_PTTYP6
  1

  0
LINE
  5
16F
330
10D
100
AcDbEntity
  8
0
 62
     0
370
    -2
100
AcDbLine
 10
-0.5
 20
0.5
 30
0.0
 11
0.5
 21
0.5
 31
0.0
  0
LINE
  5
170
330
10D
100
AcDbEntity
  8
0
 62
     0
370
    -2
100
AcDbLine
 10
0.5
 20
0.5
 30
0.0
 11
0.5
 21
-0.5
 31
0.0
  0
LINE
  5
171
330
10D
100
AcDbEntity
  8
0
 62
     0
370
    -2
100
AcDbLine
 10
0.5
 20
-0.5
 30
0.0
 11
-0.5
 21
-0.5
 31
0.0
  0
LINE
  5
172
330
10D
100
AcDbEntity
  8
0
 62
     0
370
    -2
100
AcDbLine
 10
-0.5
 20
-0.5
 30
0.0
 11
-0.5
 21
0.5
 31
0.0
  0
SOLID
  5
173
330
10D
100
AcDbEntity
  8
0
 62
     0
100
AcDbTrace
 10
-0.5
 20
-0.5
 30
0.0
 11
-0.5
 21
0.5
 31
0.0
 12
0.5
 22
0.5
 32
0.0
 13
0.5
 23
0.5
 33
0.0
  0
ENDBLK
  5
174
330
10D
100
AcDbEntity
  8
0
100
AcDbBlockEnd
  0
BLOCK
  5
175
330
10E
100
AcDbEntity
  8
0
100
AcDbBlockBegin
  2
CDWK_PTTYP7
 70
     0
 10
0.0
 20
0.0
 30
0.0
  3
CDWK_PTTYP7
  1

  0
LINE
  5
176
330
10E
100
AcDbEntity
  8
0
 62
     0
370
    -2
100
AcDbLine
 10
-0.5
 20
0.5
 30
0.0
 11
0.5
 21
0.5
 31
0.0
  0
LINE
  5
177
330
10E
100
AcDbEntity
  8
0
 62
     0
370
    -2
100
AcDbLine
 10
0.5
 20
0.5
 30
0.0
 11
0.5
 21
-0.5
 31
0.0
  0
LINE
  5
178
330
10E
100
AcDbEntity
  8
0
 62
     0
370
    -2
100
AcDbLine
 10
0.5
 20
-0.5
 30
0.0
 11
-0.5
 21
-0.5
 31
0.0
  0
LINE
  5
179
330
10E
100
AcDbEntity
  8
0
 62
     0
370
    -2
100
AcDbLine
 10
-0.5
 20
-0.5
 30
0.0
 11
-0.5
 21
0.5
 31
0.0
  0
LINE
  5
17A
330
10E
100
AcDbEntity
  8
0
 62
     0
370
    -2
100
AcDbLine
 10
0.0
 20
0.5
 30
0.0
 11
0.0
 21
-0.5
 31
0.0
  0
LINE
  5
17B
330
10E
100
AcDbEntity
  8
0
 62
     0
370
    -2
100
AcDbLine
 10
-0.5
 20
0.0
 30
0.0
 11
0.5
 21
0.0
 31
0.0
  0
ENDBLK
  5
17C
330
10E
100
AcDbEntity
  8
0
100
AcDbBlockEnd
  0
BLOCK
  5
17D
330
10F
100
AcDbEntity
  8
0
100
AcDbBlockBegin
  2
CDWK_PTTYP8
 70
     0
 10
0.0
 20
0.0
 30
0.0
  3
CDWK_PTTYP8
  1

  0
SOLID
  5
17E
330
10F
100
AcDbEntity
  8
0
 62
     0
100
AcDbTrace
 10
-0.5
 20
0.5
 30
0.0
 11
0.5
 21
0.5
 31
0.0
 12
-0.5
 22
-0.5
 32
0.0
 13
0.5
 23
-0.5
 33
0.0
  0
ENDBLK
  5
17F
330
10F
100
AcDbEntity
  8
0
100
AcDbBlockEnd
  0
BLOCK
  5
180
330
110
100
AcDbEntity
  8
0
100
AcDbBlockBegin
  2
CDWK_PTTYP9
 70
     0
 10
0.0
 20
0.0
 30
0.0
  3
CDWK_PTTYP9
  1

  0
CIRCLE
  5
181
330
110
100
AcDbEntity
  8
0
 62
     0
370
    -2
100
AcDbCircle
 10
0.0
 20
0.0
 30
0.0
 40
0.5
  0
CIRCLE
  5
182
330
110
100
AcDbEntity
  8
0
 62
     0
370
    -2
100
AcDbCircle
 10
0.0
 20
0.0
 30
0.0
 40
0.16666667
  0
ENDBLK
  5
183
330
110
100
AcDbEntity
  8
0
100
AcDbBlockEnd
  0
BLOCK
  5
184
330
111
100
AcDbEntity
  8
0
100
AcDbBlockBegin
  2
CDWK_PTTYP10
 70
     0
 10
0.0
 20
0.0
 30
0.0
  3
CDWK_PTTYP10
  1

  0
CIRCLE
  5
185
330
111
100
AcDbEntity
  8
0
 62
     0
370
    -2
100
AcDbCircle
 10
0.0
 20
0.0
 30
0.0
 40
0.5
  0
ENDBLK
  5
186
330
111
100
AcDbEntity
  8
0
100
AcDbBlockEnd
  0
BLOCK
  5
187
330
112
100
AcDbEntity
  8
0
100
AcDbBlockBegin
  2
CDWK_PTTYP11
 70
     0
 10
0.0
 20
0.0
 30
0.0
  3
CDWK_PTTYP11
  1

  0
CIRCLE
  5
188
330
112
100
AcDbEntity
  8
0
 62
     0
370
    -2
100
AcDbCircle
 10
0.0
 20
0.0
 30
0.0
 40
0.5
  0
CIRCLE
  5
189
330
112
100
AcDbEntity
  8
0
 62
     0
370
    -2
100
AcDbCircle
 10
0.0
 20
0.0
 30
0.0
 40
0.25
  0
ENDBLK
  5
18A
330
112
100
AcDbEntity
  8
0
100
AcDbBlockEnd
  0
BLOCK
  5
18B
330
113
100
AcDbEntity
  8
0
100
AcDbBlockBegin
  2
CDWK_PTTYP12
 70
     0
 10
0.0
 20
0.0
 30
0.0
  3
CDWK_PTTYP12
  1

  0
CIRCLE
  5
18C
330
113
100
AcDbEntity
  8
0
 62
     0
370
    -2
100
AcDbCircle
 10
0.0
 20
0.0
 30
0.0
 40
0.5
  0
CIRCLE
  5
18D
330
113
100
AcDbEntity
  8
0
 62
     0
370
    -2
100
AcDbCircle
 10
0.25
 20
0.0
 30
0.0
 40
0.25
  0
ENDBLK
  5
18E
330
113
100
AcDbEntity
  8
0
100
AcDbBlockEnd
  0
BLOCK
  5
18F
330
114
100
AcDbEntity
  8
0
100
AcDbBlockBegin
  2
CDWK_PTTYP13
 70
     0
 10
0.0
 20
0.0
 30
0.0
  3
CDWK_PTTYP13
  1

  0
CIRCLE
  5
190
330
114
100
AcDbEntity
  8
0
 62
     0
370
    -2
100
AcDbCircle
 10
0.0
 20
0.0
 30
0.0
 40
0.5
  0
CIRCLE
  5
191
330
114
100
AcDbEntity
  8
0
 62
     0
370
    -2
100
AcDbCircle
 10
0.25
 20
0.0
 30
0.0
 40
0.25
  0
CIRCLE
  5
192
330
114
100
AcDbEntity
  8
0
 62
     0
370
    -2
100
AcDbCircle
 10
-0.25
 20
0.0
 30
0.0
 40
0.25
  0
ENDBLK
  5
193
330
114
100
AcDbEntity
  8
0
100
AcDbBlockEnd
  0
BLOCK
  5
194
330
115
100
AcDbEntity
  8
0
100
AcDbBlockBegin
  2
CDWK_PTTYP14
 70
     0
 10
0.0
 20
0.0
 30
0.0
  3
CDWK_PTTYP14
  1

  0
POINT
  5
195
330
115
100
AcDbEntity
  8
0
 62
     0
100
AcDbPoint
 10
0.0
 20
0.0
 30
0.0
  0
ENDBLK
  5
196
330
115
100
AcDbEntity
  8
0
100
AcDbBlockEnd
  0
BLOCK
  5
197
330
116
100
AcDbEntity
  8
0
100
AcDbBlockBegin
  2
CDWK_PTTYP15
 70
     0
 10
0.0
 20
0.0
 30
0.0
  3
CDWK_PTTYP15
  1

  0
POINT
  5
198
330
116
100
AcDbEntity
  8
0
 62
     0
100
AcDbPoint
 10
0.0
 20
0.0
 30
0.0
  0
ENDBLK
  5
199
330
116
100
AcDbEntity
  8
0
100
AcDbBlockEnd
  0
BLOCK
  5
19A
330
117
100
AcDbEntity
  8
0
100
AcDbBlockBegin
  2
CDWK_PTTYP16
 70
     0
 10
0.0
 20
0.0
 30
0.0
  3
CDWK_PTTYP16
  1

  0
LINE
  5
19B
330
117
100
AcDbEntity
  8
0
 62
     0
370
    -2
100
AcDbLine
 10
-0.5
 20
-0.28867513
 30
0.0
 11
0.5
 21
-0.28867513
 31
0.0
  0
LINE
  5
19C
330
117
100
AcDbEntity
  8
0
 62
     0
370
    -2
100
AcDbLine
 10
0.5
 20
-0.28867513
 30
0.0
 11
0.0
 21
0.5773502700000001
 31
0.0
  0
LINE
  5
19D
330
117
100
AcDbEntity
  8
0
 62
     0
370
    -2
100
AcDbLine
 10
0.0
 20
0.5773502700000001
 30
0.0
 11
-0.5
 21
-0.28867513
 31
0.0
  0
CIRCLE
  5
19E
330
117
100
AcDbEntity
  8
0
 62
     0
370
    -2
100
AcDbCircle
 10
0.0
 20
0.0
 30
0.0
 40
0.28867513
  0
ENDBLK
  5
19F
330
117
100
AcDbEntity
  8
0
100
AcDbBlockEnd
  0
BLOCK
  5
1A0
330
118
100
AcDbEntity
  8
0
100
AcDbBlockBegin
  2
CDWK_PTTYP17
 70
     0
 10
0.0
 20
0.0
 30
0.0
  3
CDWK_PTTYP17
  1

  0
CIRCLE
  5
1A1
330
118
100
AcDbEntity
  8
0
 62
     0
370
    -2
100
AcDbCircle
 10
0.0
 20
0.0
 30
0.0
 40
0.5
  0
HATCH
  5
1A2
330
118
100
AcDbEntity
  8
0
 62
     0
370
   211
100
AcDbHatch
 10
0.0
 20
0.0
 30
0.0
210
0.0
220
0.0
230
1.0
  2
SOLID
 70
     1
 71
     0
 91
        1
 92
        1
 93
        1
 72
     2
 10
0.0
 20
0.0
 40
0.25
 50
0.0
 51
360.0
 73
     1
 97
        0
 75
     0
 76
     1
 98
        1
 10
0.0
 20
0.0
  0
ENDBLK
  5
1A3
330
118
100
AcDbEntity
  8
0
100
AcDbBlockEnd
  0
BLOCK
  5
1A4
330
119
100
AcDbEntity
  8
0
100
AcDbBlockBegin
  2
CDWK_PTTYP18
 70
     0
 10
0.0
 20
0.0
 30
0.0
  3
CDWK_PTTYP18
  1

  0
CIRCLE
  5
1A5
330
119
100
AcDbEntity
  8
0
 62
     0
370
    -2
100
AcDbCircle
 10
0.0
 20
0.0
 30
0.0
 40
0.5
  0
CIRCLE
  5
1A6
330
119
100
AcDbEntity
  8
0
 62
     0
370
    -2
100
AcDbCircle
 10
0.0
 20
0.0
 30
0.0
 40
0.2
  0
ENDBLK
  5
1A7
330
119
100
AcDbEntity
  8
0
100
AcDbBlockEnd
  0
BLOCK
  5
1A8
330
11A
100
AcDbEntity
  8
0
100
AcDbBlockBegin
  2
CDWK_PTTYP19
 70
     0
 10
0.0
 20
0.0
 30
0.0
  3
CDWK_PTTYP19
  1

  0
CIRCLE
  5
1A9
330
11A
100
AcDbEntity
  8
0
 62
     0
370
    -2
100
AcDbCircle
 10
0.0
 20
0.0
 30
0.0
 40
0.4
  0
CIRCLE
  5
1AA
330
11A
100
AcDbEntity
  8
0
 62
     0
370
    -2
100
AcDbCircle
 10
0.0
 20
0.0
 30
0.0
 40
0.25
  0
LINE
  5
1AB
330
11A
100
AcDbEntity
  8
0
 62
     0
370
    -2
100
AcDbLine
 10
-0.25
 20
0.0
 30
0.0
 11
0.25
 21
0.0
 31
0.0
  0
ENDBLK
  5
1AC
330
11A
100
AcDbEntity
  8
0
100
AcDbBlockEnd
  0
BLOCK
  5
1AD
330
11B
100
AcDbEntity
  8
0
100
AcDbBlockBegin
  2
CDWK_PTTYP20
 70
     0
 10
0.0
 20
0.0
 30
0.0
  3
CDWK_PTTYP20
  1

  0
CIRCLE
  5
1AE
330
11B
100
AcDbEntity
  8
0
 62
     0
370
    -2
100
AcDbCircle
 10
0.0
 20
0.0
 30
0.0
 40
0.5
  0
CIRCLE
  5
1AF
330
11B
100
AcDbEntity
  8
0
 62
     0
370
    -2
100
AcDbCircle
 10
0.0
 20
0.0
 30
0.0
 40
0.3
  0
ENDBLK
  5
1B0
330
11B
100
AcDbEntity
  8
0
100
AcDbBlockEnd
  0
BLOCK
  5
1B1
330
11C
100
AcDbEntity
  8
0
100
AcDbBlockBegin
  2
CDWK_PTTYP21
 70
     0
 10
0.0
 20
0.0
 30
0.0
  3
CDWK_PTTYP21
  1

  0
CIRCLE
  5
1B2
330
11C
100
AcDbEntity
  8
0
 62
     0
370
    -2
100
AcDbCircle
 10
0.0
 20
0.0
 30
0.0
 40
0.5
  0
LINE
  5
1B3
330
11C
100
AcDbEntity
  8
0
 62
     0
370
    -2
100
AcDbLine
 10
-0.5
 20
0.0
 30
0.0
 11
0.5
 21
0.0
 31
0.0
  0
ENDBLK
  5
1B4
330
11C
100
AcDbEntity
  8
0
100
AcDbBlockEnd
  0
BLOCK
  5
1B5
330
11D
100
AcDbEntity
  8
0
100
AcDbBlockBegin
  2
CDWK_PTTYP22
 70
     0
 10
0.0
 20
0.0
 30
0.0
  3
CDWK_PTTYP22
  1

  0
POINT
  5
1B6
330
11D
100
AcDbEntity
  8
0
 62
     0
100
AcDbPoint
 10
0.0
 20
0.0
 30
0.0
  0
ENDBLK
  5
1B7
330
11D
100
AcDbEntity
  8
0
100
AcDbBlockEnd
  0
BLOCK
  5
1B8
330
11E
100
AcDbEntity
  8
0
100
AcDbBlockBegin
  2
CDWK_PTTYP23
 70
     0
 10
0.0
 20
0.0
 30
0.0
  3
CDWK_PTTYP23
  1

  0
POINT
  5
1B9
330
11E
100
AcDbEntity
  8
0
 62
     0
100
AcDbPoint
 10
0.0
 20
0.0
 30
0.0
  0
ENDBLK
  5
1BA
330
11E
100
AcDbEntity
  8
0
100
AcDbBlockEnd
  0
BLOCK
  5
1BB
330
11F
100
AcDbEntity
  8
0
100
AcDbBlockBegin
  2
CDWK_PTTYP24
 70
     0
 10
0.0
 20
0.0
 30
0.0
  3
CDWK_PTTYP24
  1

  0
POINT
  5
1BC
330
11F
100
AcDbEntity
  8
0
 62
     0
100
AcDbPoint
 10
0.0
 20
0.0
 30
0.0
  0
ENDBLK
  5
1BD
330
11F
100
AcDbEntity
  8
0
100
AcDbBlockEnd
  0
BLOCK
  5
1BE
330
120
100
AcDbEntity
  8
0
100
AcDbBlockBegin
  2
CDWK_PTTYP25
 70
     0
 10
0.0
 20
0.0
 30
0.0
  3
CDWK_PTTYP25
  1

  0
LINE
  5
1BF
330
120
100
AcDbEntity
  8
0
 62
     0
370
    -2
100
AcDbLine
 10
-0.43290044
 20
-0.25
 30
0.0
 11
0.43290044
 21
-0.25
 31
0.0
  0
LINE
  5
1C0
330
120
100
AcDbEntity
  8
0
 62
     0
370
    -2
100
AcDbLine
 10
-0.43290044
 20
-0.25
 30
0.0
 11
0.0
 21
0.5
 31
0.0
  0
LINE
  5
1C1
330
120
100
AcDbEntity
  8
0
 62
     0
370
    -2
100
AcDbLine
 10
0.43290044
 20
-0.25
 30
0.0
 11
0.0
 21
0.5
 31
0.0
  0
CIRCLE
  5
1C2
330
120
100
AcDbEntity
  8
0
 62
     0
370
    -2
100
AcDbCircle
 10
0.0
 20
0.0
 30
0.0
 40
0.5
  0
ENDBLK
  5
1C3
330
120
100
AcDbEntity
  8
0
100
AcDbBlockEnd
  0
BLOCK
  5
1C4
330
121
100
AcDbEntity
  8
0
100
AcDbBlockBegin
  2
CDWK_PTTYP26
 70
     0
 10
0.0
 20
0.0
 30
0.0
  3
CDWK_PTTYP26
  1

  0
LINE
  5
1C5
330
121
100
AcDbEntity
  8
0
 62
     0
370
    -2
100
AcDbLine
 10
-0.5
 20
-0.28850001
 30
0.0
 11
0.5
 21
-0.28850001
 31
0.0
  0
LINE
  5
1C6
330
121
100
AcDbEntity
  8
0
 62
     0
370
    -2
100
AcDbLine
 10
-0.5
 20
-0.28850001
 30
0.0
 11
0.0
 21
0.5773672100000001
 31
0.0
  0
LINE
  5
1C7
330
121
100
AcDbEntity
  8
0
 62
     0
370
    -2
100
AcDbLine
 10
0.5
 20
-0.28850001
 30
0.0
 11
0.0
 21
0.5773672100000001
 31
0.0
  0
CIRCLE
  5
1C8
330
121
100
AcDbEntity
  8
0
 62
     0
370
    -2
100
AcDbCircle
 10
0.0
 20
0.0
 30
0.0
 40
0.1312336
  0
ENDBLK
  5
1C9
330
121
100
AcDbEntity
  8
0
100
AcDbBlockEnd
  0
BLOCK
  5
1CA
330
122
100
AcDbEntity
  8
0
100
AcDbBlockBegin
  2
CDWK_PTTYP27
 70
     0
 10
0.0
 20
0.0
 30
0.0
  3
CDWK_PTTYP27
  1

  0
LINE
  5
1CB
330
122
100
AcDbEntity
  8
0
 62
     0
370
    -2
100
AcDbLine
 10
-0.43290044
 20
-0.25
 30
0.0
 11
0.43290044
 21
-0.25
 31
0.0
  0
LINE
  5
1CC
330
122
100
AcDbEntity
  8
0
 62
     0
370
    -2
100
AcDbLine
 10
-0.43290044
 20
-0.25
 30
0.0
 11
0.0
 21
0.5
 31
0.0
  0
LINE
  5
1CD
330
122
100
AcDbEntity
  8
0
 62
     0
370
    -2
100
AcDbLine
 10
0.43290044
 20
-0.25
 30
0.0
 11
0.0
 21
0.5
 31
0.0
  0
CIRCLE
  5
1CE
330
122
100
AcDbEntity
  8
0
 62
     0
370
    -2
100
AcDbCircle
 10
0.0
 20
0.0
 30
0.0
 40
0.5
  0
CIRCLE
  5
1CF
330
122
100
AcDbEntity
  8
0
 62
     0
370
    -2
100
AcDbCircle
 10
0.0
 20
0.0
 30
0.0
 40
0.1312336
  0
ENDBLK
  5
1D0
330
122
100
AcDbEntity
  8
0
100
AcDbBlockEnd
  0
BLOCK
  5
1D1
330
123
100
AcDbEntity
  8
0
100
AcDbBlockBegin
  2
CDWK_PTTYP28
 70
     0
 10
0.0
 20
0.0
 30
0.0
  3
CDWK_PTTYP28
  1

  0
POINT
  5
1D2
330
123
100
AcDbEntity
  8
0
 62
     0
100
AcDbPoint
 10
0.0
 20
0.0
 30
0.0
  0
ENDBLK
  5
1D3
330
123
100
AcDbEntity
  8
0
100
AcDbBlockEnd
  0
BLOCK
  5
1D4
330
124
100
AcDbEntity
  8
0
100
AcDbBlockBegin
  2
CDWK_PTTYP29
 70
     0
 10
0.0
 20
0.0
 30
0.0
  3
CDWK_PTTYP29
  1

  0
CIRCLE
  5
1D5
330
124
100
AcDbEntity
  8
0
 62
     0
370
    -2
100
AcDbCircle
 10
0.0
 20
0.0
 30
0.0
 40
0.5
  0
CIRCLE
  5
1D6
330
124
100
AcDbEntity
  8
0
 62
     0
370
    -2
100
AcDbCircle
 10
0.0
 20
0.0
 30
0.0
 40
0.375
  0
CIRCLE
  5
1D7
330
124
100
AcDbEntity
  8
0
 62
     0
370
    -2
100
AcDbCircle
 10
0.0
 20
0.0
 30
0.0
 40
0.21875
  0
ENDBLK
  5
1D8
330
124
100
AcDbEntity
  8
0
100
AcDbBlockEnd
  0
BLOCK
  5
1D9
330
125
100
AcDbEntity
  8
0
100
AcDbBlockBegin
  2
CDWK_PTTYP30
 70
     0
 10
0.0
 20
0.0
 30
0.0
  3
CDWK_PTTYP30
  1

  0
LINE
  5
1DA
330
125
100
AcDbEntity
  8
0
 62
     0
370
    -2
100
AcDbLine
 10
0.17680339
 20
0.17680339
 30
0.0
 11
0.5
 21
0.5
 31
0.0
  0
LINE
  5
1DB
330
125
100
AcDbEntity
  8
0
 62
     0
370
    -2
100
AcDbLine
 10
-0.17680339
 20
0.17680339
 30
0.0
 11
-0.5
 21
0.5
 31
0.0
  0
LINE
  5
1DC
330
125
100
AcDbEntity
  8
0
 62
     0
370
    -2
100
AcDbLine
 10
0.17680339
 20
-0.17680339
 30
0.0
 11
0.5
 21
-0.5
 31
0.0
  0
LINE
  5
1DD
330
125
100
AcDbEntity
  8
0
 62
     0
370
    -2
100
AcDbLine
 10
-0.17680339
 20
-0.17680339
 30
0.0
 11
-0.5
 21
-0.5
 31
0.0
  0
ENDBLK
  5
1DE
330
125
100
AcDbEntity
  8
0
100
AcDbBlockEnd
  0
BLOCK
  5
1DF
330
126
100
AcDbEntity
  8
0
100
AcDbBlockBegin
  2
CDWK_PTTYP31
 70
     0
 10
0.0
 20
0.0
 30
0.0
  3
CDWK_PTTYP31
  1

  0
CIRCLE
  5
1E0
330
126
100
AcDbEntity
  8
0
 62
     0
370
    -2
100
AcDbCircle
 10
0.0
 20
0.0
 30
0.0
 40
0.075
  0
LINE
  5
1E1
330
126
100
AcDbEntity
  8
0
 62
     0
370
    -2
100
AcDbLine
 10
0.075
 20
0.0
 30
0.0
 11
0.5
 21
0.0
 31
0.0
  0
LINE
  5
1E2
330
126
100
AcDbEntity
  8
0
 62
     0
370
    -2
100
AcDbLine
 10
-0.075
 20
0.0
 30
0.0
 11
-0.5
 21
0.0
 31
0.0
  0
LINE
  5
1E3
330
126
100
AcDbEntity
  8
0
 62
     0
370
    -2
100
AcDbLine
 10
0.0
 20
0.075
 30
0.0
 11
0.0
 21
0.5
 31
0.0
  0
LINE
  5
1E4
330
126
100
AcDbEntity
  8
0
 62
     0
370
    -2
100
AcDbLine
 10
0.0
 20
-0.075
 30
0.0
 11
0.0
 21
-0.5
 31
0.0
  0
ENDBLK
  5
1E5
330
126
100
AcDbEntity
  8
0
100
AcDbBlockEnd
  0
BLOCK
  5
1E6
330
127
100
AcDbEntity
  8
0
100
AcDbBlockBegin
  2
CDWK_PTTYP32
 70
     0
 10
0.0
 20
0.0
 30
0.0
  3
CDWK_PTTYP32
  1

  0
CIRCLE
  5
1E7
330
127
100
AcDbEntity
  8
0
 62
     0
370
    -2
100
AcDbCircle
 10
0.0
 20
0.0
 30
0.0
 40
0.5
  0
CIRCLE
  5
1E8
330
127
100
AcDbEntity
  8
0
 62
     0
370
    -2
100
AcDbCircle
 10
0.0
 20
0.0
 30
0.0
 40
0.16666667
  0
LINE
  5
1E9
330
127
100
AcDbEntity
  8
0
 62
     0
370
    -2
100
AcDbLine
 10
0.11786893
 20
0.11786893
 30
0.0
 11
0.35360678
 21
0.35360678
 31
0.0
  0
LINE
  5
1EA
330
127
100
AcDbEntity
  8
0
 62
     0
370
    -2
100
AcDbLine
 10
-0.11786893
 20
0.11786893
 30
0.0
 11
-0.35360678
 21
0.35360678
 31
0.0
  0
LINE
  5
1EB
330
127
100
AcDbEntity
  8
0
 62
     0
370
    -2
100
AcDbLine
 10
0.11786893
 20
-0.11786893
 30
0.0
 11
0.35360678
 21
-0.35360678
 31
0.0
  0
LINE
  5
1EC
330
127
100
AcDbEntity
  8
0
 62
     0
370
    -2
100
AcDbLine
 10
-0.11786893
 20
-0.11786893
 30
0.0
 11
-0.35360678
 21
-0.35360678
 31
0.0
  0
ENDBLK
  5
1ED
330
127
100
AcDbEntity
  8
0
100
AcDbBlockEnd
  0
BLOCK
  5
1EE
330
128
100
AcDbEntity
  8
0
100
AcDbBlockBegin
  2
CDWK_PTTYP33
 70
     0
 10
0.0
 20
0.0
 30
0.0
  3
CDWK_PTTYP33
  1

  0
CIRCLE
  5
1EF
330
128
100
AcDbEntity
  8
0
 62
     0
370
    -2
100
AcDbCircle
 10
0.0
 20
0.0
 30
0.0
 40
0.5
  0
LINE
  5
1F0
330
128
100
AcDbEntity
  8
0
 62
     0
370
    -2
100
AcDbLine
 10
0.0
 20
0.5
 30
0.0
 11
0.0
 21
-0.5
 31
0.0
  0
LINE
  5
1F1
330
128
100
AcDbEntity
  8
0
 62
     0
370
    -2
100
AcDbLine
 10
-0.5
 20
0.0
 30
0.0
 11
0.5
 21
0.0
 31
0.0
  0
ENDBLK
  5
1F2
330
128
100
AcDbEntity
  8
0
100
AcDbBlockEnd
  0
BLOCK
  5
1F3
330
129
100
AcDbEntity
  8
0
100
AcDbBlockBegin
  2
CDWK_PTTYP34
 70
     0
 10
0.0
 20
0.0
 30
0.0
  3
CDWK_PTTYP34
  1

  0
CIRCLE
  5
1F4
330
129
100
AcDbEntity
  8
0
 62
     0
370
    -2
100
AcDbCircle
 10
0.0
 20
0.0
 30
0.0
 40
0.5
  0
LINE
  5
1F5
330
129
100
AcDbEntity
  8
0
 62
     0
370
    -2
100
AcDbLine
 10
-0.30360678
 20
-0.40360678
 30
0.0
 11
0.40360678
 21
0.30360678
 31
0.0
  0
LINE
  5
1F6
330
129
100
AcDbEntity
  8
0
 62
     0
370
    -2
100
AcDbLine
 10
-0.40360678
 20
-0.30360678
 30
0.0
 11
0.30360678
 21
0.40360678
 31
0.0
  0
ENDBLK
  5
1F7
330
129
100
AcDbEntity
  8
0
100
AcDbBlockEnd
  0
BLOCK
  5
1F8
330
12A
100
AcDbEntity
  8
0
100
AcDbBlockBegin
  2
CDWK_PTTYP35
 70
     0
 10
0.0
 20
0.0
 30
0.0
  3
CDWK_PTTYP35
  1

  0
CIRCLE
  5
1F9
330
12A
100
AcDbEntity
  8
0
 62
     0
370
    -2
100
AcDbCircle
 10
0.0
 20
0.0
 30
0.0
 40
0.21431634
  0
LINE
  5
1FA
330
12A
100
AcDbEntity
  8
0
 62
     0
370
    -2
100
AcDbLine
 10
0.0
 20
0.21431634
 30
0.0
 11
0.0
 21
0.5
 31
0.0
  0
LINE
  5
1FB
330
12A
100
AcDbEntity
  8
0
 62
     0
370
    -2
100
AcDbLine
 10
0.0
 20
-0.21431634
 30
0.0
 11
0.0
 21
-0.5
 31
0.0
  0
ENDBLK
  5
1FC
330
12A
100
AcDbEntity
  8
0
100
AcDbBlockEnd
  0
BLOCK
  5
1FD
330
12B
100
AcDbEntity
  8
0
100
AcDbBlockBegin
  2
CDWK_PTTYP36
 70
     0
 10
0.0
 20
0.0
 30
0.0
  3
CDWK_PTTYP36
  1

  0
LINE
  5
1FE
330
12B
100
AcDbEntity
  8
0
 62
     0
370
    -2
100
AcDbLine
 10
-0.5
 20
-0.16666667
 30
0.0
 11
0.5
 21
-0.16666667
 31
0.0
  0
LINE
  5
1FF
330
12B
100
AcDbEntity
  8
0
 62
     0
370
    -2
100
AcDbLine
 10
0.5
 20
-0.16666667
 30
0.0
 11
0.5
 21
0.16666667
 31
0.0
  0
LINE
  5
200
330
12B
100
AcDbEntity
  8
0
 62
     0
370
    -2
100
AcDbLine
 10
0.5
 20
0.16666667
 30
0.0
 11
-0.5
 21
0.16666667
 31
0.0
  0
LINE
  5
201
330
12B
100
AcDbEntity
  8
0
 62
     0
370
    -2
100
AcDbLine
 10
-0.5
 20
0.16666667
 30
0.0
 11
-0.5
 21
-0.16666667
 31
0.0
  0
SOLID
  5
202
330
12B
100
AcDbEntity
  8
0
 62
     0
100
AcDbTrace
 10
-0.5
 20
-0.16666667
 30
0.0
 11
0.5
 21
0.16666667
 31
0.0
 12
0.5
 22
-0.16666667
 32
0.0
 13
0.5
 23
-0.16666667
 33
0.0
  0
ENDBLK
  5
203
330
12B
100
AcDbEntity
  8
0
100
AcDbBlockEnd
  0
BLOCK
  5
204
330
12C
100
AcDbEntity
  8
0
100
AcDbBlockBegin
  2
CDWK_PTTYP37
 70
     0
 10
0.0
 20
0.0
 30
0.0
  3
CDWK_PTTYP37
  1

  0
CIRCLE
  5
205
330
12C
100
AcDbEntity
  8
0
 62
     0
370
    -2
100
AcDbCircle
 10
0.0
 20
0.0
 30
0.0
 40
0.5
  0
SOLID
  5
206
330
12C
100
AcDbEntity
  8
0
 62
     0
100
AcDbTrace
 10
0.0
 20
0.0
 30
0.0
 11
0.3535000099999999
 21
0.3535000099999999
 31
0.0
 12
0.5
 22
0.0
 32
0.0
 13
0.4620000100000001
 23
0.19149999
 33
0.0
  0
SOLID
  5
207
330
12C
100
AcDbEntity
  8
0
 62
     0
100
AcDbTrace
 10
0.0
 20
0.0
 30
0.0
 11
0.3535000099999999
 21
-0.3535000099999999
 31
0.0
 12
0.5
 22
0.0
 32
0.0
 13
0.4620000100000001
 23
-0.19149999
 33
0.0
  0
SOLID
  5
208
330
12C
100
AcDbEntity
  8
0
 62
     0
100
AcDbTrace
 10
0.0
 20
0.0
 30
0.0
 11
0.0
 21
-0.5
 31
0.0
 12
0.3535000099999999
 22
-0.3535000099999999
 32
0.0
 13
0.19149999
 23
-0.4620000100000001
 33
0.0
  0
SOLID
  5
209
330
12C
100
AcDbEntity
  8
0
 62
     0
100
AcDbTrace
 10
0.0
 20
0.0
 30
0.0
 11
0.0
 21
-0.5
 31
0.0
 12
-0.3535000099999999
 22
-0.3535000099999999
 32
0.0
 13
-0.19149999
 23
-0.4620000100000001
 33
0.0
  0
ENDBLK
  5
20A
330
12C
100
AcDbEntity
  8
0
100
AcDbBlockEnd
  0
BLOCK
  5
20B
330
12D
100
AcDbEntity
  8
0
100
AcDbBlockBegin
  2
CDWK_PTTYP38
 70
     0
 10
0.0
 20
0.0
 30
0.0
  3
CDWK_PTTYP38
  1

  0
CIRCLE
  5
20C
330
12D
100
AcDbEntity
  8
0
 62
     0
370
    -2
100
AcDbCircle
 10
0.0
 20
0.0
 30
0.0
 40
0.5
  0
SOLID
  5
20D
330
12D
100
AcDbEntity
  8
0
 62
     0
100
AcDbTrace
 10
0.0
 20
0.0
 30
0.0
 11
0.3535000099999999
 21
0.3535000099999999
 31
0.0
 12
0.0
 22
0.5
 32
0.0
 13
0.19149999
 23
0.4620000100000001
 33
0.0
  0
SOLID
  5
20E
330
12D
100
AcDbEntity
  8
0
 62
     0
100
AcDbTrace
 10
0.0
 20
0.0
 30
0.0
 11
0.5
 21
0.0
 31
0.0
 12
0.3535000099999999
 22
0.3535000099999999
 32
0.0
 13
0.4620000100000001
 23
0.19149999
 33
0.0
  0
SOLID
  5
20F
330
12D
100
AcDbEntity
  8
0
 62
     0
100
AcDbTrace
 10
0.0
 20
0.0
 30
0.0
 11
0.0
 21
-0.5
 31
0.0
 12
-0.3535000099999999
 22
-0.3535000099999999
 32
0.0
 13
-0.19149999
 23
-0.4620000100000001
 33
0.0
  0
SOLID
  5
210
330
12D
100
AcDbEntity
  8
0
 62
     0
100
AcDbTrace
 10
0.0
 20
0.0
 30
0.0
 11
-0.5
 21
0.0
 31
0.0
 12
-0.3535000099999999
 22
-0.3535000099999999
 32
0.0
 13
-0.4620000100000001
 23
-0.19149999
 33
0.0
  0
ENDBLK
  5
211
330
12D
100
AcDbEntity
  8
0
100
AcDbBlockEnd
  0
BLOCK
  5
212
330
12E
100
AcDbEntity
  8
Ech.1_5
100
AcDbBlockBegin
  2
*X45
 70
     1
 10
0.0
 20
0.0
 30
0.0
  3
*X45
  1

  0
ENDBLK
  5
213
330
12E
100
AcDbEntity
  8
0
100
AcDbBlockEnd
  0
BLOCK
  5
214
330
12F
100
AcDbEntity
  8
Ech.1_5
100
AcDbBlockBegin
  2
*X46
 70
     1
 10
0.0
 20
0.0
 30
0.0
  3
*X46
  1

  0
ENDBLK
  5
215
330
12F
100
AcDbEntity
  8
0
100
AcDbBlockEnd
  0
BLOCK
  5
216
330
130
100
AcDbEntity
  8
Ech.1_5
100
AcDbBlockBegin
  2
*X47
 70
     1
 10
0.0
 20
0.0
 30
0.0
  3
*X47
  1

  0
ENDBLK
  5
217
330
130
100
AcDbEntity
  8
0
100
AcDbBlockEnd
  0
BLOCK
  5
218
330
131
100
AcDbEntity
  8
Ech.1_5
100
AcDbBlockBegin
  2
*X48
 70
     1
 10
0.0
 20
0.0
 30
0.0
  3
*X48
  1

  0
ENDBLK
  5
219
330
131
100
AcDbEntity
  8
0
100
AcDbBlockEnd
  0
BLOCK
  5
21A
330
132
100
AcDbEntity
  8
Ech.1_1
100
AcDbBlockBegin
  2
A$C42653196
 70
     0
 10
0.0
 20
0.0
 30
0.0
  3
A$C42653196
  1

  0
HATCH
  5
21B
330
132
100
AcDbEntity
  8
Ech.1_1
 62
    44
100
AcDbHatch
 10
0.0
 20
0.0
 30
0.0
210
0.0
220
0.0
230
1.0
  2
USER
 70
     0
 71
     0
 91
        1
 92
        7
 72
     0
 73
     1
 93
       60
 10
117.85866598
 20
6.04795498
 10
118.14635307
 20
5.78124937
 10
118.4722202
 20
5.56283153
 10
118.82824344
 20
5.398079619999999
 10
119.20565633
 20
5.291050389999999
 10
119.5951657
 20
5.244379249999999
 10
124.72676034
 20
5.03534633
 10
125.62869615
 20
5.164793069999999
 10
126.42433621
 20
5.608866899999999
 10
127.00798837
 20
6.308577429999999
 10
127.30212077
 20
7.170975709999999
 10
127.26766112
 20
8.081501499999999
 10
124.91726737
 20
18.53878175
 10
126.98610403
 20
18.45450873
 10
130.05096074
 20
4.81846771
 10
129.92885851
 20
1.820953569999999
 10
124.3723648
 20
0.54605058
 10
124.43341592
 20
2.04480765
 10
118.87692221
 20
0.76990466
 10
118.93797332
 20
2.268661729999999
 10
113.38147961
 20
0.9937587399999999
 10
113.44253072
 20
2.492515809999999
 10
101.95205983
 20
2.960574349999999
 10
56.38917232
 20
1.634266009999999
 10
3.24601796
 20
0.08730066
 10
1.746653069999999
 20
0.04365504
 10
0.24728819
 20
0.0000094313872978
 10
-0.0000369506597053
 20
8.49641045
 10
0.05985995
 20
8.96187585
 10
0.26066201
 20
9.386050589999999
 10
0.58271332
 20
9.727413489999999
 10
0.9944892600000001
 20
9.95254957
 10
1.45568232
 20
10.03942095
 10
1.92114772
 20
9.979524039999999
 10
2.34532246
 20
9.77872198
 10
2.686685359999999
 20
9.456670669999999
 10
2.91182144
 20
9.04489474
 10
2.99869282
 20
8.58370168
 10
3.15872673
 20
3.08603043
 10
51.97358749
 20
4.507001749999999
 10
56.22913839999999
 20
7.131937259999999
 10
100.77828017
 20
8.42873606
 10
101.21970253
 20
8.508696479999999
 10
101.61773883
 20
8.715613069999999
 10
101.93678738
 20
9.030978559999999
 10
102.14831145
 20
9.42658561
 10
102.23339163
 20
9.867049839999999
 10
102.50151985
 20
16.449388
 10
102.59374007
 20
16.90954135
 10
102.82364192
 20
17.31867558
 10
103.16872101
 20
17.63674177
 10
103.59519858
 20
17.83260539
 10
104.06132804
 20
17.88709396
 10
104.52148139
 20
17.79487373
 10
104.93061561
 20
17.56497188
 10
105.24868181
 20
17.2198928
 10
105.44454543
 20
16.79341523
 10
105.499034
 20
16.32728577
 10
105.45833325
 20
15.32811439
 10
110.41348942
 20
14.1254393
 97
        0
 75
     0
 76
     2
 52
0.0
 41
1.0
 77
     0
 78
     1
 53
132.66740417
 43
0.0
 44
0.0
 45
-2.57355095
 46
-2.372095079999999
 79
     2
 49
50.0
 49
0.0
 47
0.775229
 98
        1
 10
0.0
 20
0.0
  0
ARC
  5
21C
330
132
100
AcDbEntity
  8
Ech.1_1
  6
Continuous
 62
    44
100
AcDbCircle
 10
1.499327939999999
 20
8.540056059999999
 30
0.0
 40
1.5
100
AcDbArc
 50
1.66737493
 51
91.66737494000001
  0
ARC
  5
21D
330
132
100
AcDbEntity
  8
Ech.1_1
  6
Continuous
 62
    44
100
AcDbCircle
 10
1.499327939999999
 20
8.540056059999999
 30
0.0
 40
1.5
100
AcDbArc
 50
91.66737494999999
 51
181.66738495
  0
ARC
  5
21E
330
132
100
AcDbEntity
  8
Ech.1_1
  6
Continuous
 62
    44
100
AcDbCircle
 10
119.69691755
 20
7.7423077
 30
0.0
 40
2.5
100
AcDbArc
 50
222.66738496
 51
267.66738494
  0
ARC
  5
21F
330
132
100
AcDbEntity
  8
Ech.1_1
  6
Continuous
 62
    44
100
AcDbCircle
 10
124.82851219
 20
7.53327478
 30
0.0
 40
2.5
100
AcDbArc
 50
267.66738496
 51
12.66737494
  0
ARC
  5
220
330
132
100
AcDbEntity
  8
Ech.1_1
  6
Continuous
 62
    44
100
AcDbCircle
 10
100.73463456
 20
9.928100949999999
 30
0.0
 40
1.5
100
AcDbArc
 50
271.66738495
 51
357.66738496
  0
CIRCLE
  5
221
330
132
100
AcDbEntity
  8
Ech.1_1
  6
Continuous
 62
    44
100
AcDbCircle
 10
46.27791422
 20
8.20582032
 30
0.0
 40
1.28741883
  0
CIRCLE
  5
222
330
132
100
AcDbEntity
  8
Ech.1_1
  6
Continuous
 62
    44
100
AcDbCircle
 10
33.43004406
 20
7.08585325
 30
0.0
 40
1.28741883
  0
CIRCLE
  5
223
330
132
100
AcDbEntity
  8
Ech.1_1
  6
Continuous
 62
    44
100
AcDbCircle
 10
18.68870005
 20
7.80056724
 30
0.0
 40
1.28741883
  0
CIRCLE
  5
224
330
132
100
AcDbEntity
  8
Ech.1_1
  6
Continuous
 62
    44
100
AcDbCircle
 10
8.064858759999999
 20
10.57466976
 30
0.0
 40
1.28741883
  0
CIRCLE
  5
225
330
132
100
AcDbEntity
  8
Ech.1_1
  6
Continuous
 62
    44
100
AcDbCircle
 10
9.809947199999999
 20
20.67124156
 30
0.0
 40
1.28741883
  0
CIRCLE
  5
226
330
132
100
AcDbEntity
  8
Ech.1_1
  6
Continuous
 62
    44
100
AcDbCircle
 10
23.86159679
 20
29.98222429
 30
0.0
 40
1.28741883
  0
CIRCLE
  5
227
330
132
100
AcDbEntity
  8
Ech.1_1
  6
Continuous
 62
    44
100
AcDbCircle
 10
28.22193483
 20
31.84932759
 30
0.0
 40
0.6942115300000001
  0
CIRCLE
  5
228
330
132
100
AcDbEntity
  8
Ech.1_1
  6
Continuous
 62
    44
100
AcDbCircle
 10
21.25902975
 20
25.0323453
 30
0.0
 40
0.6942115300000001
  0
CIRCLE
  5
229
330
132
100
AcDbEntity
  8
Ech.1_1
  6
Continuous
 62
    44
100
AcDbCircle
 10
15.94132338
 20
26.61815435
 30
0.0
 40
0.6942115300000001
  0
CIRCLE
  5
22A
330
132
100
AcDbEntity
  8
Ech.1_1
  6
Continuous
 62
    44
100
AcDbCircle
 10
6.7341394
 20
16.60275473
 30
0.0
 40
0.6942115300000001
  0
CIRCLE
  5
22B
330
132
100
AcDbEntity
  8
Ech.1_1
  6
Continuous
 62
    44
100
AcDbCircle
 10
11.26200347
 20
7.981805149999999
 30
0.0
 40
0.6942115300000001
  0
CIRCLE
  5
22C
330
132
100
AcDbEntity
  8
Ech.1_1
  6
Continuous
 62
    44
100
AcDbCircle
 10
14.81113978
 20
5.648272379999999
 30
0.0
 40
0.6942115300000001
  0
CIRCLE
  5
22D
330
132
100
AcDbEntity
  8
Ech.1_1
  6
Continuous
 62
    44
100
AcDbCircle
 10
24.58745367
 20
8.071311709999999
 30
0.0
 40
0.6942115300000001
  0
CIRCLE
  5
22E
330
132
100
AcDbEntity
  8
Ech.1_1
  6
Continuous
 62
    44
100
AcDbCircle
 10
41.67917679
 20
8.61857307
 30
0.0
 40
0.6942115300000001
  0
CIRCLE
  5
22F
330
132
100
AcDbEntity
  8
Ech.1_1
  6
Continuous
 62
    44
100
AcDbCircle
 10
37.76621757
 20
6.366212479999999
 30
0.0
 40
0.6942115300000001
  0
CIRCLE
  5
230
330
132
100
AcDbEntity
  8
Ech.1_1
  6
Continuous
 62
    44
100
AcDbCircle
 10
28.50346921
 20
34.32757278
 30
0.0
 40
0.3440962
  0
CIRCLE
  5
231
330
132
100
AcDbEntity
  8
Ech.1_1
  6
Continuous
 62
    44
100
AcDbCircle
 10
29.88413787
 20
33.02501134
 30
0.0
 40
0.3440962
  0
CIRCLE
  5
232
330
132
100
AcDbEntity
  8
Ech.1_1
  6
Continuous
 62
    44
100
AcDbCircle
 10
30.04426683
 20
30.94094745
 30
0.0
 40
0.3440962
  0
CIRCLE
  5
233
330
132
100
AcDbEntity
  8
Ech.1_1
  6
Continuous
 62
    44
100
AcDbCircle
 10
27.70979845
 20
29.13238819
 30
0.0
 40
0.3440962
  0
CIRCLE
  5
234
330
132
100
AcDbEntity
  8
Ech.1_1
  6
Continuous
 62
    44
100
AcDbCircle
 10
26.99202498
 20
33.28894452
 30
0.0
 40
0.3440962
  0
CIRCLE
  5
235
330
132
100
AcDbEntity
  8
Ech.1_1
  6
Continuous
 62
    44
100
AcDbCircle
 10
25.34938039
 20
33.34059123
 30
0.0
 40
0.3440962
  0
CIRCLE
  5
236
330
132
100
AcDbEntity
  8
Ech.1_1
  6
Continuous
 62
    44
100
AcDbCircle
 10
25.96394651
 20
31.02109798
 30
0.0
 40
0.3440962
  0
CIRCLE
  5
237
330
132
100
AcDbEntity
  8
Ech.1_1
  6
Continuous
 62
    44
100
AcDbCircle
 10
26.05217873
 20
27.99004175
 30
0.0
 40
0.3440962
  0
CIRCLE
  5
238
330
132
100
AcDbEntity
  8
Ech.1_1
  6
Continuous
 62
    44
100
AcDbCircle
 10
23.5628563
 20
26.37590098
 30
0.0
 40
0.3440962
  0
CIRCLE
  5
239
330
132
100
AcDbEntity
  8
Ech.1_1
  6
Continuous
 62
    44
100
AcDbCircle
 10
21.66019304
 20
26.81783111
 30
0.0
 40
0.3440962
  0
CIRCLE
  5
23A
330
132
100
AcDbEntity
  8
Ech.1_1
  6
Continuous
 62
    44
100
AcDbCircle
 10
21.50295695
 20
28.8025161
 30
0.0
 40
0.3440962
  0
CIRCLE
  5
23B
330
132
100
AcDbEntity
  8
Ech.1_1
  6
Continuous
 62
    44
100
AcDbCircle
 10
22.94931183
 20
32.07716945
 30
0.0
 40
0.3440962
  0
CIRCLE
  5
23C
330
132
100
AcDbEntity
  8
Ech.1_1
  6
Continuous
 62
    44
100
AcDbCircle
 10
20.27135662
 20
30.10941683
 30
0.0
 40
0.3440962
  0
CIRCLE
  5
23D
330
132
100
AcDbEntity
  8
Ech.1_1
  6
Continuous
 62
    44
100
AcDbCircle
 10
17.5832764
 20
28.48949035
 30
0.0
 40
0.3440962
  0
CIRCLE
  5
23E
330
132
100
AcDbEntity
  8
Ech.1_1
  6
Continuous
 62
    44
100
AcDbCircle
 10
19.38511434
 20
28.09435681
 30
0.0
 40
0.3440962
  0
CIRCLE
  5
23F
330
132
100
AcDbEntity
  8
Ech.1_1
  6
Continuous
 62
    44
100
AcDbCircle
 10
18.14815308
 20
26.16855067
 30
0.0
 40
0.3440962
  0
CIRCLE
  5
240
330
132
100
AcDbEntity
  8
Ech.1_1
  6
Continuous
 62
    44
100
AcDbCircle
 10
19.5037216
 20
24.01982221
 30
0.0
 40
0.3440962
  0
CIRCLE
  5
241
330
132
100
AcDbEntity
  8
Ech.1_1
  6
Continuous
 62
    44
100
AcDbCircle
 10
18.11479914
 20
22.18905567
 30
0.0
 40
0.3440962
  0
CIRCLE
  5
242
330
132
100
AcDbEntity
  8
Ech.1_1
  6
Continuous
 62
    44
100
AcDbCircle
 10
16.41574378
 20
24.17859078
 30
0.0
 40
0.3440962
  0
CIRCLE
  5
243
330
132
100
AcDbEntity
  8
Ech.1_1
  6
Continuous
 62
    44
100
AcDbCircle
 10
13.68912077
 20
25.59116695
 30
0.0
 40
0.3440962
  0
CIRCLE
  5
244
330
132
100
AcDbEntity
  8
Ech.1_1
  6
Continuous
 62
    44
100
AcDbCircle
 10
11.05217643
 20
23.92299745
 30
0.0
 40
0.3440962
  0
CIRCLE
  5
245
330
132
100
AcDbEntity
  8
Ech.1_1
  6
Continuous
 62
    44
100
AcDbCircle
 10
13.34367668
 20
23.79077544
 30
0.0
 40
0.3440962
  0
CIRCLE
  5
246
330
132
100
AcDbEntity
  8
Ech.1_1
  6
Continuous
 62
    44
100
AcDbCircle
 10
14.77548122
 20
22.43997099
 30
0.0
 40
0.3440962
  0
CIRCLE
  5
247
330
132
100
AcDbEntity
  8
Ech.1_1
  6
Continuous
 62
    44
100
AcDbCircle
 10
14.73395953
 20
20.44950027
 30
0.0
 40
0.3440962
  0
CIRCLE
  5
248
330
132
100
AcDbEntity
  8
Ech.1_1
  6
Continuous
 62
    44
100
AcDbCircle
 10
12.67065649
 20
21.28460668
 30
0.0
 40
0.3440962
  0
CIRCLE
  5
249
330
132
100
AcDbEntity
  8
Ech.1_1
  6
Continuous
 62
    44
100
AcDbCircle
 10
12.20073337
 20
18.63515529
 30
0.0
 40
0.3440962
  0
CIRCLE
  5
24A
330
132
100
AcDbEntity
  8
Ech.1_1
  6
Continuous
 62
    44
100
AcDbCircle
 10
10.57255308
 20
18.18990753
 30
0.0
 40
0.3440962
  0
CIRCLE
  5
24B
330
132
100
AcDbEntity
  8
Ech.1_1
  6
Continuous
 62
    44
100
AcDbCircle
 10
7.522693259999999
 20
18.7476381
 30
0.0
 40
0.3440962
  0
CIRCLE
  5
24C
330
132
100
AcDbEntity
  8
Ech.1_1
  6
Continuous
 62
    44
100
AcDbCircle
 10
8.17546343
 20
21.94945912
 30
0.0
 40
0.3440962
  0
CIRCLE
  5
24D
330
132
100
AcDbEntity
  8
Ech.1_1
  6
Continuous
 62
    44
100
AcDbCircle
 10
6.216303349999999
 20
19.20692539
 30
0.0
 40
0.3440962
  0
CIRCLE
  5
24E
330
132
100
AcDbEntity
  8
Ech.1_1
  6
Continuous
 62
    44
100
AcDbCircle
 10
5.16891047
 20
15.89415404
 30
0.0
 40
0.3440962
  0
CIRCLE
  5
24F
330
132
100
AcDbEntity
  8
Ech.1_1
  6
Continuous
 62
    44
100
AcDbCircle
 10
5.537922209999999
 20
13.46804974
 30
0.0
 40
0.3440962
  0
CIRCLE
  5
250
330
132
100
AcDbEntity
  8
Ech.1_1
  6
Continuous
 62
    44
100
AcDbCircle
 10
6.09267388
 20
11.49493619
 30
0.0
 40
0.3440962
  0
CIRCLE
  5
251
330
132
100
AcDbEntity
  8
Ech.1_1
  6
Continuous
 62
    44
100
AcDbCircle
 10
7.740168579999999
 20
12.98510875
 30
0.0
 40
0.3440962
  0
CIRCLE
  5
252
330
132
100
AcDbEntity
  8
Ech.1_1
  6
Continuous
 62
    44
100
AcDbCircle
 10
7.3035994
 20
14.31515237
 30
0.0
 40
0.3440962
  0
CIRCLE
  5
253
330
132
100
AcDbEntity
  8
Ech.1_1
  6
Continuous
 62
    44
100
AcDbCircle
 10
8.869583199999999
 20
16.89704632
 30
0.0
 40
0.3440962
  0
CIRCLE
  5
254
330
132
100
AcDbEntity
  8
Ech.1_1
  6
Continuous
 62
    44
100
AcDbCircle
 10
10.30283417
 20
15.49655241
 30
0.0
 40
0.3440962
  0
CIRCLE
  5
255
330
132
100
AcDbEntity
  8
Ech.1_1
  6
Continuous
 62
    44
100
AcDbCircle
 10
9.013290599999999
 20
13.66867874
 30
0.0
 40
0.3440962
  0
CIRCLE
  5
256
330
132
100
AcDbEntity
  8
Ech.1_1
  6
Continuous
 62
    44
100
AcDbCircle
 10
10.84261071
 20
12.32944572
 30
0.0
 40
0.3440962
  0
CIRCLE
  5
257
330
132
100
AcDbEntity
  8
Ech.1_1
  6
Continuous
 62
    44
100
AcDbCircle
 10
10.39634129
 20
10.5758508
 30
0.0
 40
0.3440962
  0
CIRCLE
  5
258
330
132
100
AcDbEntity
  8
Ech.1_1
  6
Continuous
 62
    44
100
AcDbCircle
 10
11.7977708
 20
10.26852471
 30
0.0
 40
0.3440962
  0
CIRCLE
  5
259
330
132
100
AcDbEntity
  8
Ech.1_1
  6
Continuous
 62
    44
100
AcDbCircle
 10
9.46185599
 20
8.50965489
 30
0.0
 40
0.3440962
  0
CIRCLE
  5
25A
330
132
100
AcDbEntity
  8
Ech.1_1
  6
Continuous
 62
    44
100
AcDbCircle
 10
10.61577387
 20
6.45451961
 30
0.0
 40
0.3440962
  0
CIRCLE
  5
25B
330
132
100
AcDbEntity
  8
Ech.1_1
  6
Continuous
 62
    44
100
AcDbCircle
 10
12.33848294
 20
5.360840959999999
 30
0.0
 40
0.3440962
  0
CIRCLE
  5
25C
330
132
100
AcDbEntity
  8
Ech.1_1
  6
Continuous
 62
    44
100
AcDbCircle
 10
13.88081303
 20
7.04687845
 30
0.0
 40
0.3440962
  0
CIRCLE
  5
25D
330
132
100
AcDbEntity
  8
Ech.1_1
  6
Continuous
 62
    44
100
AcDbCircle
 10
13.04383542
 20
8.464729509999999
 30
0.0
 40
0.3440962
  0
CIRCLE
  5
25E
330
132
100
AcDbEntity
  8
Ech.1_1
  6
Continuous
 62
    44
100
AcDbCircle
 10
15.44773244
 20
7.88819535
 30
0.0
 40
0.3440962
  0
CIRCLE
  5
25F
330
132
100
AcDbEntity
  8
Ech.1_1
  6
Continuous
 62
    44
100
AcDbCircle
 10
17.10866979
 20
5.499698239999999
 30
0.0
 40
0.3440962
  0
CIRCLE
  5
260
330
132
100
AcDbEntity
  8
Ech.1_1
  6
Continuous
 62
    44
100
AcDbCircle
 10
19.34758774
 20
5.4654087
 30
0.0
 40
0.3440962
  0
CIRCLE
  5
261
330
132
100
AcDbEntity
  8
Ech.1_1
  6
Continuous
 62
    44
100
AcDbCircle
 10
21.4538589
 20
6.571083559999999
 30
0.0
 40
0.3440962
  0
CIRCLE
  5
262
330
132
100
AcDbEntity
  8
Ech.1_1
  6
Continuous
 62
    44
100
AcDbCircle
 10
21.79785656
 20
8.42116451
 30
0.0
 40
0.3440962
  0
CIRCLE
  5
263
330
132
100
AcDbEntity
  8
Ech.1_1
  6
Continuous
 62
    44
100
AcDbCircle
 10
22.89919214
 20
6.463961689999999
 30
0.0
 40
0.3440962
  0
CIRCLE
  5
264
330
132
100
AcDbEntity
  8
Ech.1_1
  6
Continuous
 62
    44
100
AcDbCircle
 10
24.47572572
 20
5.266564859999999
 30
0.0
 40
0.3440962
  0
CIRCLE
  5
265
330
132
100
AcDbEntity
  8
Ech.1_1
  6
Continuous
 62
    44
100
AcDbCircle
 10
26.43437498
 20
6.318210989999999
 30
0.0
 40
0.3440962
  0
CIRCLE
  5
266
330
132
100
AcDbEntity
  8
Ech.1_1
  6
Continuous
 62
    44
100
AcDbCircle
 10
26.92454812
 20
8.272010119999999
 30
0.0
 40
0.3440962
  0
CIRCLE
  5
267
330
132
100
AcDbEntity
  8
Ech.1_1
  6
Continuous
 62
    44
100
AcDbCircle
 10
30.04630466
 20
8.66127189
 30
0.0
 40
0.3440962
  0
CIRCLE
  5
268
330
132
100
AcDbEntity
  8
Ech.1_1
  6
Continuous
 62
    44
100
AcDbCircle
 10
30.35260909
 20
6.68092619
 30
0.0
 40
0.3440962
  0
CIRCLE
  5
269
330
132
100
AcDbEntity
  8
Ech.1_1
  6
Continuous
 62
    44
100
AcDbCircle
 10
28.79198623
 20
7.33173911
 30
0.0
 40
0.3440962
  0
CIRCLE
  5
26A
330
132
100
AcDbEntity
  8
Ech.1_1
  6
Continuous
 62
    44
100
AcDbCircle
 10
27.99933712
 20
5.518329729999999
 30
0.0
 40
0.3440962
  0
CIRCLE
  5
26B
330
132
100
AcDbEntity
  8
Ech.1_1
  6
Continuous
 62
    44
100
AcDbCircle
 10
31.53988091
 20
8.6052859
 30
0.0
 40
0.3440962
  0
CIRCLE
  5
26C
330
132
100
AcDbEntity
  8
Ech.1_1
  6
Continuous
 62
    44
100
AcDbCircle
 10
34.55791927
 20
9.140723149999999
 30
0.0
 40
0.3440962
  0
CIRCLE
  5
26D
330
132
100
AcDbEntity
  8
Ech.1_1
  6
Continuous
 62
    44
100
AcDbCircle
 10
37.15189549
 20
8.86811138
 30
0.0
 40
0.3440962
  0
CIRCLE
  5
26E
330
132
100
AcDbEntity
  8
Ech.1_1
  6
Continuous
 62
    44
100
AcDbCircle
 10
39.42893144
 20
9.232783839999999
 30
0.0
 40
0.3440962
  0
CIRCLE
  5
26F
330
132
100
AcDbEntity
  8
Ech.1_1
  6
Continuous
 62
    44
100
AcDbCircle
 10
39.37728474
 20
7.59013925
 30
0.0
 40
0.3440962
  0
CIRCLE
  5
270
330
132
100
AcDbEntity
  8
Ech.1_1
  6
Continuous
 62
    44
100
AcDbCircle
 10
36.29075334
 20
7.699218369999999
 30
0.0
 40
0.3440962
  0
CIRCLE
  5
271
330
132
100
AcDbEntity
  8
Ech.1_1
  6
Continuous
 62
    44
100
AcDbCircle
 10
35.30485754
 20
6.13219059
 30
0.0
 40
0.3440962
  0
CIRCLE
  5
272
330
132
100
AcDbEntity
  8
Ech.1_1
  6
Continuous
 62
    44
100
AcDbCircle
 10
39.82370429999999
 20
6.363194609999999
 30
0.0
 40
0.3440962
  0
CIRCLE
  5
273
330
132
100
AcDbEntity
  8
Ech.1_1
  6
Continuous
 62
    44
100
AcDbCircle
 10
41.95339297
 20
6.222913229999999
 30
0.0
 40
0.3440962
  0
CIRCLE
  5
274
330
132
100
AcDbEntity
  8
Ech.1_1
  6
Continuous
 62
    44
100
AcDbCircle
 10
43.70367026
 20
9.30748737
 30
0.0
 40
0.3440962
  0
CIRCLE
  5
275
330
132
100
AcDbEntity
  8
Ech.1_1
  6
Continuous
 62
    44
100
AcDbCircle
 10
43.27331156999999
 20
7.00730854
 30
0.0
 40
0.3440962
  0
CIRCLE
  5
276
330
132
100
AcDbEntity
  8
Ech.1_1
  6
Continuous
 62
    44
100
AcDbCircle
 10
44.89374888999999
 20
6.010115919999999
 30
0.0
 40
0.3440962
  0
CIRCLE
  5
277
330
132
100
AcDbEntity
  8
Ech.1_1
  6
Continuous
 62
    44
100
AcDbCircle
 10
47.92335869
 20
6.148037599999999
 30
0.0
 40
0.3440962
  0
CIRCLE
  5
278
330
132
100
AcDbEntity
  8
Ech.1_1
  6
Continuous
 62
    44
100
AcDbCircle
 10
49.19988439
 20
8.4231163
 30
0.0
 40
0.3440962
  0
CIRCLE
  5
279
330
132
100
AcDbEntity
  8
Ech.1_1
  6
Continuous
 62
    44
100
AcDbCircle
 10
48.27365289
 20
9.49024838
 30
0.0
 40
0.3440962
  0
CIRCLE
  5
27A
330
132
100
AcDbEntity
  8
Ech.1_1
  6
Continuous
 62
    44
100
AcDbCircle
 10
28.49002109
 20
9.16301647
 30
0.0
 40
0.3440962
  0
CIRCLE
  5
27B
330
132
100
AcDbEntity
  8
Ech.1_1
  6
Continuous
 62
    44
100
AcDbCircle
 10
14.1678891
 20
9.143960209999999
 30
0.0
 40
0.3440962
  0
ARC
  5
27C
330
132
100
AcDbEntity
  8
Ech.1_1
  6
Continuous
 62
    44
100
AcDbCircle
 10
27.42266169
 20
31.80419951
 30
0.0
 40
4.5
100
AcDbArc
 50
1.66737494
 51
91.66737494000001
  0
ARC
  5
27D
330
132
100
AcDbEntity
  8
Ech.1_1
  6
Continuous
 62
    44
100
AcDbCircle
 10
27.42266169
 20
31.80419951
 30
0.0
 40
4.5
100
AcDbArc
 50
91.66737494000001
 51
123.12490237
  0
ARC
  5
27E
330
132
100
AcDbEntity
  8
Ech.1_1
  6
Continuous
 62
    44
100
AcDbCircle
 10
16.42218118
 20
14.47678111
 30
0.0
 40
4.0
100
AcDbArc
 50
181.66738495
 51
271.66738496
  0
ARC
  5
27F
330
132
100
AcDbEntity
  8
Ech.1_1
  6
Continuous
 62
    44
100
AcDbCircle
 10
27.42266169
 20
31.80419951
 30
0.0
 40
4.5
100
AcDbArc
 50
303.12491239
 51
1.66737494
  0
ARC
  5
280
330
132
100
AcDbEntity
  8
Ech.1_1
  6
Continuous
 62
    44
100
AcDbCircle
 10
16.42218118
 20
14.47678111
 30
0.0
 40
4.0
100
AcDbArc
 50
123.12490237
 51
181.66738496
  0
ARC
  5
281
330
132
100
AcDbEntity
  8
Ech.1_1
  6
Continuous
 62
    44
100
AcDbCircle
 10
47.62728355
 20
7.88196601
 30
0.0
 40
3.5
100
AcDbArc
 50
1.66737494
 51
91.66737492999999
  0
ARC
  5
282
330
132
100
AcDbEntity
  8
Ech.1_1
  6
Continuous
 62
    44
100
AcDbCircle
 10
47.62728355
 20
7.88196601
 30
0.0
 40
3.5
100
AcDbArc
 50
271.66738496
 51
1.66737493
  0
ARC
  5
283
330
132
100
AcDbEntity
  8
Ech.1_1
  6
Continuous
 62
    44
100
AcDbCircle
 10
15.12019226
 20
15.1575562
 30
0.0
 40
11.71837091
100
AcDbArc
 50
123.12490237
 51
181.66738495
  0
ARC
  5
284
330
132
100
AcDbEntity
  8
Ech.1_1
  6
Continuous
 62
    44
100
AcDbCircle
 10
15.12019226
 20
15.1575562
 30
0.0
 40
10.96837091
100
AcDbArc
 50
123.12490238
 51
271.66738495
  0
ARC
  5
285
330
132
100
AcDbEntity
  8
Ech.1_1
  6
Continuous
 62
    44
100
AcDbCircle
 10
27.42266169
 20
31.80419951
 30
0.0
 40
3.75
100
AcDbArc
 50
91.66737494000001
 51
123.12490237
  0
ARC
  5
286
330
132
100
AcDbEntity
  8
Ech.1_1
  6
Continuous
 62
    44
100
AcDbCircle
 10
27.42266169
 20
31.80419951
 30
0.0
 40
3.75
100
AcDbArc
 50
1.66737494
 51
91.66737492999999
  0
ARC
  5
287
330
132
100
AcDbEntity
  8
Ech.1_1
  6
Continuous
 62
    44
100
AcDbCircle
 10
27.42266169
 20
31.80419951
 30
0.0
 40
3.75
100
AcDbArc
 50
303.12491239
 51
1.66737494
  0
ARC
  5
288
330
132
100
AcDbEntity
  8
Ech.1_1
  6
Continuous
 62
    44
100
AcDbCircle
 10
16.42218118
 20
14.47678111
 30
0.0
 40
4.75
100
AcDbArc
 50
123.12490237
 51
181.66738496
  0
ARC
  5
289
330
132
100
AcDbEntity
  8
Ech.1_1
  6
Continuous
 62
    44
100
AcDbCircle
 10
16.42218118
 20
14.47678111
 30
0.0
 40
4.75
100
AcDbArc
 50
181.66738496
 51
271.66738495
  0
ARC
  5
28A
330
132
100
AcDbEntity
  8
Ech.1_1
  6
Continuous
 62
    44
100
AcDbCircle
 10
47.62728355
 20
7.88196601
 30
0.0
 40
2.75
100
AcDbArc
 50
1.66737493
 51
91.66737494000001
  0
ARC
  5
28B
330
132
100
AcDbEntity
  8
Ech.1_1
  6
Continuous
 62
    44
100
AcDbCircle
 10
47.62728355
 20
7.88196601
 30
0.0
 40
2.75
100
AcDbArc
 50
271.66738496
 51
1.66737493
  0
ARC
  5
28C
330
132
100
AcDbEntity
  8
Ech.1_1
  6
Continuous
 62
    44
100
AcDbCircle
 10
15.12019226
 20
15.1575562
 30
0.0
 40
11.71837091
100
AcDbArc
 50
181.66738495
 51
271.66738495
  0
ARC
  5
28D
330
132
100
AcDbEntity
  8
Ech.1_1
  6
Continuous
 62
    44
100
AcDbCircle
 10
104.00027692
 20
16.38833688
 30
0.0
 40
1.5
100
AcDbArc
 50
87.66737494
 51
177.66737493
  0
ARC
  5
28E
330
132
100
AcDbEntity
  8
Ech.1_1
  6
Continuous
 62
    44
100
AcDbCircle
 10
104.00027692
 20
16.38833688
 30
0.0
 40
1.5
100
AcDbArc
 50
357.66738495
 51
87.66737494999999
  0
LINE
  5
28F
330
132
100
AcDbEntity
  8
Ech.1_1
  6
Continuous
 62
    44
100
AcDbLine
 10
29.88175872
 20
28.03553373
 30
0.0
 11
14.23631716
 21
17.82670626
 31
0.0
  0
LINE
  5
290
330
132
100
AcDbEntity
  8
Ech.1_1
  6
Continuous
 62
    44
100
AcDbLine
 10
8.71650091
 20
24.97147255
 30
0.0
 11
24.96356467
 21
35.5728653
 31
0.0
  0
LINE
  5
291
330
132
100
AcDbEntity
  8
Ech.1_1
  6
Continuous
 62
    44
100
AcDbLine
 10
16.53856948
 20
10.47847475
 30
0.0
 11
47.52544378999999
 21
11.38048408
 31
0.0
  0
LINE
  5
292
330
132
100
AcDbEntity
  8
Ech.1_1
  6
Continuous
 62
    44
100
AcDbLine
 10
15.46116258
 20
3.444146959999999
 30
0.0
 11
31.23610957
 21
3.90334621
 31
0.0
  0
LINE
  5
293
330
132
100
AcDbEntity
  8
Ech.1_1
  6
Continuous
 62
    44
100
AcDbLine
 10
9.12635041
 20
24.34336158
 30
0.0
 11
25.37341417
 21
34.94475434
 31
0.0
  0
LINE
  5
294
330
132
100
AcDbEntity
  8
Ech.1_1
  6
Continuous
 62
    44
100
AcDbLine
 10
29.47190922
 20
28.66364469
 30
0.0
 11
13.82646765
 21
18.45481722
 31
0.0
  0
LINE
  5
295
330
132
100
AcDbEntity
  8
Ech.1_1
  6
Continuous
 62
    44
100
AcDbLine
 10
16.56039229
 20
9.728792309999999
 30
0.0
 11
47.54726659
 21
10.63080164
 31
0.0
  0
LINE
  5
296
330
132
100
AcDbEntity
  8
Ech.1_1
  6
Continuous
 62
    44
100
AcDbLine
 10
47.70730051
 20
5.133130389999999
 30
0.0
 11
42.06938694
 21
4.969014109999999
 31
0.0
  0
LINE
  5
297
330
132
100
AcDbEntity
  8
Ech.1_1
  6
Continuous
 62
    44
100
AcDbLine
 10
31.23610957
 20
3.90334621
 30
0.0
 11
41.03099867
 21
4.188469549999999
 31
0.0
  0
LINE
  5
298
330
132
100
AcDbEntity
  8
Ech.1_1
  6
Continuous
 62
    44
100
AcDbLine
 10
41.78068111
 20
4.21029236
 30
0.0
 11
47.72912330999999
 21
4.383447949999999
 31
0.0
  0
LINE
  5
299
330
132
100
AcDbEntity
  8
Ech.1_1
  6
Continuous
 62
    44
100
AcDbLine
 10
41.03099867
 20
4.188469549999999
 30
0.0
 11
41.00917586
 21
4.938151999999999
 31
0.0
  0
LINE
  5
29A
330
132
100
AcDbEntity
  8
Ech.1_1
  6
Continuous
 62
    44
100
AcDbLine
 10
41.00917586
 20
4.938151999999999
 30
0.0
 11
31.21428676
 21
4.65302865
 31
0.0
  0
LINE
  5
29B
330
132
100
AcDbEntity
  8
Ech.1_1
  6
Continuous
 62
    44
100
AcDbLine
 10
42.06938694
 20
4.969014109999999
 30
0.0
 11
41.29788169
 21
5.69687374
 31
0.0
  0
LINE
  5
29C
330
132
100
AcDbEntity
  8
Ech.1_1
  6
Continuous
 62
    44
100
AcDbLine
 10
41.78068111
 20
4.21029236
 30
0.0
 11
41.00917586
 21
4.938151999999999
 31
0.0
  0
LINE
  5
29D
330
132
100
AcDbEntity
  8
Ech.1_1
  6
Continuous
 62
    44
100
AcDbLine
 10
41.29788169
 20
5.69687374
 30
0.0
 11
31.19246396
 21
5.40271109
 31
0.0
  0
LINE
  5
29E
330
132
100
AcDbEntity
  8
Ech.1_1
  6
Continuous
 62
    44
100
AcDbLine
 10
31.19246396
 20
5.40271109
 30
0.0
 11
31.21428676
 21
4.65302865
 31
0.0
  0
LINE
  5
29F
330
132
100
AcDbEntity
  8
Ech.1_1
  6
Continuous
 62
    44
100
AcDbLine
 10
31.21428676
 20
4.65302865
 30
0.0
 11
15.43933977
 21
4.1938294
 31
0.0
  0
LINE
  5
2A0
330
132
100
AcDbEntity
  8
Ech.1_1
  6
Continuous
 62
    44
100
AcDbLine
 10
3.15872673
 20
3.08603043
 30
0.0
 11
51.97358749
 21
4.507001749999999
 31
0.0
  0
LINE
  5
2A1
330
132
100
AcDbEntity
  8
Ech.1_1
  6
Continuous
 62
    44
100
AcDbLine
 10
1.746653069999999
 20
0.04365504
 30
0.0
 11
0.24728819
 21
0.0000094313872978
 31
0.0
  0
LINE
  5
2A2
330
132
100
AcDbEntity
  8
Ech.1_1
  6
Continuous
 62
    44
100
AcDbLine
 10
3.24601796
 20
0.08730066
 30
0.0
 11
1.746653069999999
 21
0.04365504
 31
0.0
  0
LINE
  5
2A3
330
132
100
AcDbEntity
  8
Ech.1_1
  6
Continuous
 62
    44
100
AcDbLine
 10
124.3723648
 20
0.54605058
 30
0.0
 11
129.92885851
 21
1.820953569999999
 31
0.0
  0
LINE
  5
2A4
330
132
100
AcDbEntity
  8
Ech.1_1
  6
Continuous
 62
    44
100
AcDbLine
 10
124.43341592
 20
2.04480765
 30
0.0
 11
124.3723648
 21
0.54605058
 31
0.0
  0
LINE
  5
2A5
330
132
100
AcDbEntity
  8
Ech.1_1
  6
Continuous
 62
    44
100
AcDbLine
 10
118.87692221
 20
0.76990466
 30
0.0
 11
124.43341592
 21
2.04480765
 31
0.0
  0
LINE
  5
2A6
330
132
100
AcDbEntity
  8
Ech.1_1
  6
Continuous
 62
    44
100
AcDbLine
 10
118.93797332
 20
2.268661729999999
 30
0.0
 11
118.87692221
 21
0.76990466
 31
0.0
  0
LINE
  5
2A7
330
132
100
AcDbEntity
  8
Ech.1_1
  6
Continuous
 62
    44
100
AcDbLine
 10
113.38147961
 20
0.9937587399999999
 30
0.0
 11
118.93797332
 21
2.268661729999999
 31
0.0
  0
LINE
  5
2A8
330
132
100
AcDbEntity
  8
Ech.1_1
  6
Continuous
 62
    44
100
AcDbLine
 10
113.44253072
 20
2.492515809999999
 30
0.0
 11
113.38147961
 21
0.9937587399999999
 31
0.0
  0
LINE
  5
2A9
330
132
100
AcDbEntity
  8
Ech.1_1
  6
Continuous
 62
    44
100
AcDbLine
 10
101.95205983
 20
2.960574349999999
 30
0.0
 11
113.44253072
 21
2.492515809999999
 31
0.0
  0
LINE
  5
2AA
330
132
100
AcDbEntity
  8
Ech.1_1
  6
Continuous
 62
    44
100
AcDbLine
 10
2.99869282
 20
8.58370168
 30
0.0
 11
3.15872673
 21
3.08603043
 31
0.0
  0
LINE
  5
2AB
330
132
100
AcDbEntity
  8
Ech.1_1
  6
Continuous
 62
    44
100
AcDbLine
 10
0.24728819
 20
0.0000094313872978
 30
0.0
 11
-0.0000369506597053
 21
8.49641045
 31
0.0
  0
LINE
  5
2AC
330
132
100
AcDbEntity
  8
Ech.1_1
  6
Continuous
 62
    44
100
AcDbLine
 10
101.95205983
 20
2.960574349999999
 30
0.0
 11
56.38917232
 21
1.634266009999999
 31
0.0
  0
LINE
  5
2AD
330
132
100
AcDbEntity
  8
Ech.1_1
  6
Continuous
 62
    44
100
AcDbLine
 10
51.97358749
 20
4.507001749999999
 30
0.0
 11
56.22913839999999
 21
7.131937259999999
 31
0.0
  0
LINE
  5
2AE
330
132
100
AcDbEntity
  8
Ech.1_1
  6
Continuous
 62
    44
100
AcDbLine
 10
56.22913839999999
 20
7.131937259999999
 30
0.0
 11
100.77828017
 21
8.42873606
 31
0.0
  0
LINE
  5
2AF
330
132
100
AcDbEntity
  8
Ech.1_1
  6
Continuous
 62
    44
100
AcDbLine
 10
129.92885851
 20
1.820953569999999
 30
0.0
 11
130.05096074
 21
4.81846771
 31
0.0
  0
LINE
  5
2B0
330
132
100
AcDbEntity
  8
Ech.1_1
  6
Continuous
 62
    44
100
AcDbLine
 10
102.23339163
 20
9.867049839999999
 30
0.0
 11
102.50151985
 21
16.449388
 31
0.0
  0
LINE
  5
2B1
330
132
100
AcDbEntity
  8
Ech.1_1
  6
Continuous
 62
    44
100
AcDbLine
 10
105.45833325
 20
15.32811439
 30
0.0
 11
105.499034
 21
16.32728577
 31
0.0
  0
LINE
  5
2B2
330
132
100
AcDbEntity
  8
Ech.1_1
  6
Continuous
 62
    44
100
AcDbLine
 10
105.45833325
 20
15.32811439
 30
0.0
 11
110.41348942
 21
14.1254393
 31
0.0
  0
LINE
  5
2B3
330
132
100
AcDbEntity
  8
Ech.1_1
  6
Continuous
 62
    44
100
AcDbLine
 10
110.41348942
 20
14.1254393
 30
0.0
 11
117.85866598
 21
6.04795498
 31
0.0
  0
LINE
  5
2B4
330
132
100
AcDbEntity
  8
Ech.1_1
  6
Continuous
 62
    44
100
AcDbLine
 10
119.5951657
 20
5.244379249999999
 30
0.0
 11
124.72676034
 21
5.03534633
 31
0.0
  0
LINE
  5
2B5
330
132
100
AcDbEntity
  8
Ech.1_1
  6
Continuous
 62
    44
100
AcDbLine
 10
127.26766112
 20
8.081501499999999
 30
0.0
 11
124.91726737
 21
18.53878175
 31
0.0
  0
LINE
  5
2B6
330
132
100
AcDbEntity
  8
Ech.1_1
  6
Continuous
 62
    44
100
AcDbLine
 10
130.05096074
 20
4.81846771
 30
0.0
 11
126.98610403
 21
18.45450873
 31
0.0
  0
LINE
  5
2B7
330
132
100
AcDbEntity
  8
Ech.1_1
  6
Continuous
 62
    44
100
AcDbLine
 10
56.38917232
 20
1.634266009999999
 30
0.0
 11
3.24601796
 21
0.08730066
 31
0.0
  0
LINE
  5
2B8
330
132
100
AcDbEntity
  8
Ech.1_1
  6
Continuous
 62
    44
100
AcDbLine
 10
32.14644786
 20
3.92984561
 30
0.0
 11
6.407350649999999
 21
3.18059592
 31
0.0
  0
LINE
  5
2B9
330
132
100
AcDbEntity
  8
Ech.1_1
  6
Continuous
 62
    44
100
AcDbLine
 10
124.91726737
 20
18.53878175
 30
0.0
 11
126.98610403
 21
18.45450873
 31
0.0
  0
ENDBLK
  5
2BA
330
132
100
AcDbEntity
  8
0
100
AcDbBlockEnd
  0
BLOCK
  5
2BB
330
133
100
AcDbEntity
  8
Ech.1_1
100
AcDbBlockBegin
  2
A$C3F0A7B51
 70
     0
 10
0.0
 20
0.0
 30
0.0
  3
A$C3F0A7B51
  1

  0
HATCH
  5
2BC
330
133
100
AcDbEntity
  8
Ech.1_1
 62
    44
100
AcDbHatch
 10
0.0
 20
0.0
 30
0.0
210
0.0
220
0.0
230
1.0
  2
USER
 70
     0
 71
     0
 91
        1
 92
        7
 72
     0
 73
     1
 93
       60
 10
12.19228711
 20
30.25432773
 10
11.90460002
 20
30.52103334
 10
11.57873289
 20
30.73945119
 10
11.22270964
 20
30.90420309
 10
10.84529676
 20
31.01123232
 10
10.45578739
 20
31.05790347
 10
5.324192749999999
 20
31.26693638
 10
4.422256929999999
 20
31.13748964
 10
3.626616879999999
 20
30.69341582
 10
3.04296472
 20
29.99370528
 10
2.748832319999999
 20
29.131307
 10
2.78329197
 20
28.22078122
 10
5.133685709999999
 20
17.76350096
 10
3.064849049999999
 20
17.84777398
 10
-0.0000076553988038
 20
31.48381500000001
 10
0.12209457
 20
34.48132915
 10
5.678588279999999
 20
35.75623214
 10
5.61753717
 20
34.25747506
 10
11.17403088
 20
35.53237805
 10
11.11297977
 20
34.03362098000001
 10
16.66947348
 20
35.30852397
 10
16.60842237
 20
33.8097669
 10
28.09889325
 20
33.34170837
 10
73.66178076999999
 20
34.66801670000001
 10
126.80493513
 20
36.21498206
 10
128.30430001
 20
36.25862767
 10
129.8036649
 20
36.30227328
 10
130.05099004
 20
27.80587226
 10
129.99109313
 20
27.34040686
 10
129.79029107
 20
26.91623213
 10
129.46823976
 20
26.57486922
 10
129.05646383
 20
26.34973314
 10
128.59527076
 20
26.26286176
 10
128.12980536
 20
26.32275867
 10
127.70563063
 20
26.52356073
 10
127.36426772
 20
26.84561204
 10
127.13913164
 20
27.25738798
 10
127.05226026
 20
27.71858104
 10
126.89222635
 20
33.21625229
 10
78.07736559999999
 20
31.79528096
 10
73.82181468
 20
29.17034545
 10
29.27267292
 20
27.87354665
 10
28.83125055
 20
27.79358624
 10
28.43321426
 20
27.58666964
 10
28.1141657
 20
27.27130415
 10
27.90264164
 20
26.8756971
 10
27.81756146
 20
26.43523288
 10
27.54943323
 20
19.85289472
 10
27.45721301
 20
19.39274137
 10
27.22731116
 20
18.98360714
 10
26.88223208
 20
18.66554094
 10
26.45575451
 20
18.46967732
 10
25.98962505
 20
18.41518876
 10
25.5294717
 20
18.50740898
 10
25.12033747
 20
18.73731083
 10
24.80227128
 20
19.08238991
 10
24.60640765
 20
19.50886748
 10
24.55191909
 20
19.97499694
 10
24.59261983
 20
20.97416833
 10
19.63746367
 20
22.17684342
 97
        0
 75
     0
 76
     2
 52
0.0
 41
1.0
 77
     0
 78
     1
 53
132.66740417
 43
0.0
 44
0.0
 45
-2.57355095
 46
-2.372095079999999
 79
     2
 49
50.0
 49
0.0
 47
0.775229
 98
        1
 10
0.0
 20
0.0
  0
ARC
  5
2BD
330
133
100
AcDbEntity
  8
Ech.1_1
  6
Continuous
 62
    44
100
AcDbCircle
 10
128.55162515
 20
27.76222665
 30
0.0
 40
1.5
100
AcDbArc
 50
181.66738496
 51
271.66738495
  0
ARC
  5
2BE
330
133
100
AcDbEntity
  8
Ech.1_1
  6
Continuous
 62
    44
100
AcDbCircle
 10
128.55162515
 20
27.76222665
 30
0.0
 40
1.5
100
AcDbArc
 50
271.66738495
 51
1.66737494
  0
ARC
  5
2BF
330
133
100
AcDbEntity
  8
Ech.1_1
  6
Continuous
 62
    44
100
AcDbCircle
 10
10.35403553
 20
28.55997501
 30
0.0
 40
2.5
100
AcDbArc
 50
42.66737495
 51
87.66737492
  0
ARC
  5
2C0
330
133
100
AcDbEntity
  8
Ech.1_1
  6
Continuous
 62
    44
100
AcDbCircle
 10
5.222440889999999
 20
28.76900793
 30
0.0
 40
2.5
100
AcDbArc
 50
87.66737492999999
 51
192.66738496
  0
ARC
  5
2C1
330
133
100
AcDbEntity
  8
Ech.1_1
  6
Continuous
 62
    44
100
AcDbCircle
 10
29.31631853
 20
26.37418177
 30
0.0
 40
1.5
100
AcDbArc
 50
91.66737492999999
 51
177.66737493
  0
CIRCLE
  5
2C2
330
133
100
AcDbEntity
  8
Ech.1_1
  6
Continuous
 62
    44
100
AcDbCircle
 10
83.77303887
 20
28.0964624
 30
0.0
 40
1.28741883
  0
CIRCLE
  5
2C3
330
133
100
AcDbEntity
  8
Ech.1_1
  6
Continuous
 62
    44
100
AcDbCircle
 10
96.62090903000001
 20
29.21642946
 30
0.0
 40
1.28741883
  0
CIRCLE
  5
2C4
330
133
100
AcDbEntity
  8
Ech.1_1
  6
Continuous
 62
    44
100
AcDbCircle
 10
111.36225304
 20
28.50171547
 30
0.0
 40
1.28741883
  0
CIRCLE
  5
2C5
330
133
100
AcDbEntity
  8
Ech.1_1
  6
Continuous
 62
    44
100
AcDbCircle
 10
121.98609433
 20
25.72761295
 30
0.0
 40
1.28741883
  0
CIRCLE
  5
2C6
330
133
100
AcDbEntity
  8
Ech.1_1
  6
Continuous
 62
    44
100
AcDbCircle
 10
120.24100588
 20
15.63104116
 30
0.0
 40
1.28741883
  0
CIRCLE
  5
2C7
330
133
100
AcDbEntity
  8
Ech.1_1
  6
Continuous
 62
    44
100
AcDbCircle
 10
106.1893563
 20
6.320058419999999
 30
0.0
 40
1.28741883
  0
CIRCLE
  5
2C8
330
133
100
AcDbEntity
  8
Ech.1_1
  6
Continuous
 62
    44
100
AcDbCircle
 10
101.82901825
 20
4.45295513
 30
0.0
 40
0.6942115300000001
  0
CIRCLE
  5
2C9
330
133
100
AcDbEntity
  8
Ech.1_1
  6
Continuous
 62
    44
100
AcDbCircle
 10
108.79192334
 20
11.26993741
 30
0.0
 40
0.6942115300000001
  0
CIRCLE
  5
2CA
330
133
100
AcDbEntity
  8
Ech.1_1
  6
Continuous
 62
    44
100
AcDbCircle
 10
114.1096297
 20
9.684128369999999
 30
0.0
 40
0.6942115300000001
  0
CIRCLE
  5
2CB
330
133
100
AcDbEntity
  8
Ech.1_1
  6
Continuous
 62
    44
100
AcDbCircle
 10
123.31681368
 20
19.69952798
 30
0.0
 40
0.6942115300000001
  0
CIRCLE
  5
2CC
330
133
100
AcDbEntity
  8
Ech.1_1
  6
Continuous
 62
    44
100
AcDbCircle
 10
118.78894962
 20
28.32047756
 30
0.0
 40
0.6942115300000001
  0
CIRCLE
  5
2CD
330
133
100
AcDbEntity
  8
Ech.1_1
  6
Continuous
 62
    44
100
AcDbCircle
 10
115.2398133
 20
30.65401033
 30
0.0
 40
0.6942115300000001
  0
CIRCLE
  5
2CE
330
133
100
AcDbEntity
  8
Ech.1_1
  6
Continuous
 62
    44
100
AcDbCircle
 10
105.46349941
 20
28.230971
 30
0.0
 40
0.6942115300000001
  0
CIRCLE
  5
2CF
330
133
100
AcDbEntity
  8
Ech.1_1
  6
Continuous
 62
    44
100
AcDbCircle
 10
88.37177629000001
 20
27.68370964
 30
0.0
 40
0.6942115300000001
  0
CIRCLE
  5
2D0
330
133
100
AcDbEntity
  8
Ech.1_1
  6
Continuous
 62
    44
100
AcDbCircle
 10
92.28473551
 20
29.93607023
 30
0.0
 40
0.6942115300000001
  0
CIRCLE
  5
2D1
330
133
100
AcDbEntity
  8
Ech.1_1
  6
Continuous
 62
    44
100
AcDbCircle
 10
101.54748387
 20
1.974709929999999
 30
0.0
 40
0.3440962
  0
CIRCLE
  5
2D2
330
133
100
AcDbEntity
  8
Ech.1_1
  6
Continuous
 62
    44
100
AcDbCircle
 10
100.16681521
 20
3.277271369999999
 30
0.0
 40
0.3440962
  0
CIRCLE
  5
2D3
330
133
100
AcDbEntity
  8
Ech.1_1
  6
Continuous
 62
    44
100
AcDbCircle
 10
100.00668626
 20
5.361335259999999
 30
0.0
 40
0.3440962
  0
CIRCLE
  5
2D4
330
133
100
AcDbEntity
  8
Ech.1_1
  6
Continuous
 62
    44
100
AcDbCircle
 10
102.34115463
 20
7.169894519999999
 30
0.0
 40
0.3440962
  0
CIRCLE
  5
2D5
330
133
100
AcDbEntity
  8
Ech.1_1
  6
Continuous
 62
    44
100
AcDbCircle
 10
103.05892811
 20
3.013338189999999
 30
0.0
 40
0.3440962
  0
CIRCLE
  5
2D6
330
133
100
AcDbEntity
  8
Ech.1_1
  6
Continuous
 62
    44
100
AcDbCircle
 10
104.7015727
 20
2.96169149
 30
0.0
 40
0.3440962
  0
CIRCLE
  5
2D7
330
133
100
AcDbEntity
  8
Ech.1_1
  6
Continuous
 62
    44
100
AcDbCircle
 10
104.08700658
 20
5.281184739999999
 30
0.0
 40
0.3440962
  0
CIRCLE
  5
2D8
330
133
100
AcDbEntity
  8
Ech.1_1
  6
Continuous
 62
    44
100
AcDbCircle
 10
103.99877435
 20
8.31224096
 30
0.0
 40
0.3440962
  0
CIRCLE
  5
2D9
330
133
100
AcDbEntity
  8
Ech.1_1
  6
Continuous
 62
    44
100
AcDbCircle
 10
106.48809679
 20
9.926381729999999
 30
0.0
 40
0.3440962
  0
CIRCLE
  5
2DA
330
133
100
AcDbEntity
  8
Ech.1_1
  6
Continuous
 62
    44
100
AcDbCircle
 10
108.39076005
 20
9.48445161
 30
0.0
 40
0.3440962
  0
CIRCLE
  5
2DB
330
133
100
AcDbEntity
  8
Ech.1_1
  6
Continuous
 62
    44
100
AcDbCircle
 10
108.54799614
 20
7.49976661
 30
0.0
 40
0.3440962
  0
CIRCLE
  5
2DC
330
133
100
AcDbEntity
  8
Ech.1_1
  6
Continuous
 62
    44
100
AcDbCircle
 10
107.10164125
 20
4.225113269999999
 30
0.0
 40
0.3440962
  0
CIRCLE
  5
2DD
330
133
100
AcDbEntity
  8
Ech.1_1
  6
Continuous
 62
    44
100
AcDbCircle
 10
109.77959646
 20
6.19286588
 30
0.0
 40
0.3440962
  0
CIRCLE
  5
2DE
330
133
100
AcDbEntity
  8
Ech.1_1
  6
Continuous
 62
    44
100
AcDbCircle
 10
112.46767668
 20
7.81279237
 30
0.0
 40
0.3440962
  0
CIRCLE
  5
2DF
330
133
100
AcDbEntity
  8
Ech.1_1
  6
Continuous
 62
    44
100
AcDbCircle
 10
110.66583874
 20
8.207925900000001
 30
0.0
 40
0.3440962
  0
CIRCLE
  5
2E0
330
133
100
AcDbEntity
  8
Ech.1_1
  6
Continuous
 62
    44
100
AcDbCircle
 10
111.90280001
 20
10.13373204
 30
0.0
 40
0.3440962
  0
CIRCLE
  5
2E1
330
133
100
AcDbEntity
  8
Ech.1_1
  6
Continuous
 62
    44
100
AcDbCircle
 10
110.54723148
 20
12.28246051
 30
0.0
 40
0.3440962
  0
CIRCLE
  5
2E2
330
133
100
AcDbEntity
  8
Ech.1_1
  6
Continuous
 62
    44
100
AcDbCircle
 10
111.93615395
 20
14.11322704
 30
0.0
 40
0.3440962
  0
CIRCLE
  5
2E3
330
133
100
AcDbEntity
  8
Ech.1_1
  6
Continuous
 62
    44
100
AcDbCircle
 10
113.63520931
 20
12.12369193
 30
0.0
 40
0.3440962
  0
CIRCLE
  5
2E4
330
133
100
AcDbEntity
  8
Ech.1_1
  6
Continuous
 62
    44
100
AcDbCircle
 10
116.36183231
 20
10.71111576
 30
0.0
 40
0.3440962
  0
CIRCLE
  5
2E5
330
133
100
AcDbEntity
  8
Ech.1_1
  6
Continuous
 62
    44
100
AcDbCircle
 10
118.99877666
 20
12.37928526
 30
0.0
 40
0.3440962
  0
CIRCLE
  5
2E6
330
133
100
AcDbEntity
  8
Ech.1_1
  6
Continuous
 62
    44
100
AcDbCircle
 10
116.7072764
 20
12.51150727
 30
0.0
 40
0.3440962
  0
CIRCLE
  5
2E7
330
133
100
AcDbEntity
  8
Ech.1_1
  6
Continuous
 62
    44
100
AcDbCircle
 10
115.27547187
 20
13.86231173
 30
0.0
 40
0.3440962
  0
CIRCLE
  5
2E8
330
133
100
AcDbEntity
  8
Ech.1_1
  6
Continuous
 62
    44
100
AcDbCircle
 10
115.31699356
 20
15.85278244
 30
0.0
 40
0.3440962
  0
CIRCLE
  5
2E9
330
133
100
AcDbEntity
  8
Ech.1_1
  6
Continuous
 62
    44
100
AcDbCircle
 10
117.3802966
 20
15.01767604
 30
0.0
 40
0.3440962
  0
CIRCLE
  5
2EA
330
133
100
AcDbEntity
  8
Ech.1_1
  6
Continuous
 62
    44
100
AcDbCircle
 10
117.85021972
 20
17.66712742
 30
0.0
 40
0.3440962
  0
CIRCLE
  5
2EB
330
133
100
AcDbEntity
  8
Ech.1_1
  6
Continuous
 62
    44
100
AcDbCircle
 10
119.47840001
 20
18.11237519
 30
0.0
 40
0.3440962
  0
CIRCLE
  5
2EC
330
133
100
AcDbEntity
  8
Ech.1_1
  6
Continuous
 62
    44
100
AcDbCircle
 10
122.52825983
 20
17.55464461
 30
0.0
 40
0.3440962
  0
CIRCLE
  5
2ED
330
133
100
AcDbEntity
  8
Ech.1_1
  6
Continuous
 62
    44
100
AcDbCircle
 10
121.87548965
 20
14.35282359
 30
0.0
 40
0.3440962
  0
CIRCLE
  5
2EE
330
133
100
AcDbEntity
  8
Ech.1_1
  6
Continuous
 62
    44
100
AcDbCircle
 10
123.83464973
 20
17.09535733
 30
0.0
 40
0.3440962
  0
CIRCLE
  5
2EF
330
133
100
AcDbEntity
  8
Ech.1_1
  6
Continuous
 62
    44
100
AcDbCircle
 10
124.88204262
 20
20.40812868
 30
0.0
 40
0.3440962
  0
CIRCLE
  5
2F0
330
133
100
AcDbEntity
  8
Ech.1_1
  6
Continuous
 62
    44
100
AcDbCircle
 10
124.51303087
 20
22.83423297
 30
0.0
 40
0.3440962
  0
CIRCLE
  5
2F1
330
133
100
AcDbEntity
  8
Ech.1_1
  6
Continuous
 62
    44
100
AcDbCircle
 10
123.95827921
 20
24.80734652
 30
0.0
 40
0.3440962
  0
CIRCLE
  5
2F2
330
133
100
AcDbEntity
  8
Ech.1_1
  6
Continuous
 62
    44
100
AcDbCircle
 10
122.3107845
 20
23.31717396
 30
0.0
 40
0.3440962
  0
CIRCLE
  5
2F3
330
133
100
AcDbEntity
  8
Ech.1_1
  6
Continuous
 62
    44
100
AcDbCircle
 10
122.74735368
 20
21.98713035
 30
0.0
 40
0.3440962
  0
CIRCLE
  5
2F4
330
133
100
AcDbEntity
  8
Ech.1_1
  6
Continuous
 62
    44
100
AcDbCircle
 10
121.18136988
 20
19.40523639
 30
0.0
 40
0.3440962
  0
CIRCLE
  5
2F5
330
133
100
AcDbEntity
  8
Ech.1_1
  6
Continuous
 62
    44
100
AcDbCircle
 10
119.74811892
 20
20.8057303
 30
0.0
 40
0.3440962
  0
CIRCLE
  5
2F6
330
133
100
AcDbEntity
  8
Ech.1_1
  6
Continuous
 62
    44
100
AcDbCircle
 10
121.03766249
 20
22.63360398
 30
0.0
 40
0.3440962
  0
CIRCLE
  5
2F7
330
133
100
AcDbEntity
  8
Ech.1_1
  6
Continuous
 62
    44
100
AcDbCircle
 10
119.20834238
 20
23.972837
 30
0.0
 40
0.3440962
  0
CIRCLE
  5
2F8
330
133
100
AcDbEntity
  8
Ech.1_1
  6
Continuous
 62
    44
100
AcDbCircle
 10
119.65461179
 20
25.72643192
 30
0.0
 40
0.3440962
  0
CIRCLE
  5
2F9
330
133
100
AcDbEntity
  8
Ech.1_1
  6
Continuous
 62
    44
100
AcDbCircle
 10
118.25318228
 20
26.033758
 30
0.0
 40
0.3440962
  0
CIRCLE
  5
2FA
330
133
100
AcDbEntity
  8
Ech.1_1
  6
Continuous
 62
    44
100
AcDbCircle
 10
120.58909709
 20
27.79262782
 30
0.0
 40
0.3440962
  0
CIRCLE
  5
2FB
330
133
100
AcDbEntity
  8
Ech.1_1
  6
Continuous
 62
    44
100
AcDbCircle
 10
119.43517921
 20
29.84776311
 30
0.0
 40
0.3440962
  0
CIRCLE
  5
2FC
330
133
100
AcDbEntity
  8
Ech.1_1
  6
Continuous
 62
    44
100
AcDbCircle
 10
117.71247015
 20
30.94144175
 30
0.0
 40
0.3440962
  0
CIRCLE
  5
2FD
330
133
100
AcDbEntity
  8
Ech.1_1
  6
Continuous
 62
    44
100
AcDbCircle
 10
116.17014005
 20
29.25540426
 30
0.0
 40
0.3440962
  0
CIRCLE
  5
2FE
330
133
100
AcDbEntity
  8
Ech.1_1
  6
Continuous
 62
    44
100
AcDbCircle
 10
117.00711766
 20
27.8375532
 30
0.0
 40
0.3440962
  0
CIRCLE
  5
2FF
330
133
100
AcDbEntity
  8
Ech.1_1
  6
Continuous
 62
    44
100
AcDbCircle
 10
114.60322065
 20
28.41408736
 30
0.0
 40
0.3440962
  0
CIRCLE
  5
300
330
133
100
AcDbEntity
  8
Ech.1_1
  6
Continuous
 62
    44
100
AcDbCircle
 10
112.94228329
 20
30.80258447
 30
0.0
 40
0.3440962
  0
CIRCLE
  5
301
330
133
100
AcDbEntity
  8
Ech.1_1
  6
Continuous
 62
    44
100
AcDbCircle
 10
110.70336535
 20
30.83687402
 30
0.0
 40
0.3440962
  0
CIRCLE
  5
302
330
133
100
AcDbEntity
  8
Ech.1_1
  6
Continuous
 62
    44
100
AcDbCircle
 10
108.59709418
 20
29.73119915
 30
0.0
 40
0.3440962
  0
CIRCLE
  5
303
330
133
100
AcDbEntity
  8
Ech.1_1
  6
Continuous
 62
    44
100
AcDbCircle
 10
108.25309652
 20
27.8811182
 30
0.0
 40
0.3440962
  0
CIRCLE
  5
304
330
133
100
AcDbEntity
  8
Ech.1_1
  6
Continuous
 62
    44
100
AcDbCircle
 10
107.15176095
 20
29.83832102
 30
0.0
 40
0.3440962
  0
CIRCLE
  5
305
330
133
100
AcDbEntity
  8
Ech.1_1
  6
Continuous
 62
    44
100
AcDbCircle
 10
105.57522736
 20
31.03571785
 30
0.0
 40
0.3440962
  0
CIRCLE
  5
306
330
133
100
AcDbEntity
  8
Ech.1_1
  6
Continuous
 62
    44
100
AcDbCircle
 10
103.61657811
 20
29.98407173
 30
0.0
 40
0.3440962
  0
CIRCLE
  5
307
330
133
100
AcDbEntity
  8
Ech.1_1
  6
Continuous
 62
    44
100
AcDbCircle
 10
103.12640497
 20
28.03027259
 30
0.0
 40
0.3440962
  0
CIRCLE
  5
308
330
133
100
AcDbEntity
  8
Ech.1_1
  6
Continuous
 62
    44
100
AcDbCircle
 10
100.00464843
 20
27.64101082
 30
0.0
 40
0.3440962
  0
CIRCLE
  5
309
330
133
100
AcDbEntity
  8
Ech.1_1
  6
Continuous
 62
    44
100
AcDbCircle
 10
99.69834399999999
 20
29.62135653
 30
0.0
 40
0.3440962
  0
CIRCLE
  5
30A
330
133
100
AcDbEntity
  8
Ech.1_1
  6
Continuous
 62
    44
100
AcDbCircle
 10
101.25896685
 20
28.97054361
 30
0.0
 40
0.3440962
  0
CIRCLE
  5
30B
330
133
100
AcDbEntity
  8
Ech.1_1
  6
Continuous
 62
    44
100
AcDbCircle
 10
102.05161596
 20
30.78395299
 30
0.0
 40
0.3440962
  0
CIRCLE
  5
30C
330
133
100
AcDbEntity
  8
Ech.1_1
  6
Continuous
 62
    44
100
AcDbCircle
 10
98.51107218
 20
27.69699681
 30
0.0
 40
0.3440962
  0
CIRCLE
  5
30D
330
133
100
AcDbEntity
  8
Ech.1_1
  6
Continuous
 62
    44
100
AcDbCircle
 10
95.49303381999999
 20
27.16155957
 30
0.0
 40
0.3440962
  0
CIRCLE
  5
30E
330
133
100
AcDbEntity
  8
Ech.1_1
  6
Continuous
 62
    44
100
AcDbCircle
 10
92.89905759999999
 20
27.43417133
 30
0.0
 40
0.3440962
  0
CIRCLE
  5
30F
330
133
100
AcDbEntity
  8
Ech.1_1
  6
Continuous
 62
    44
100
AcDbCircle
 10
90.62202164
 20
27.06949888
 30
0.0
 40
0.3440962
  0
CIRCLE
  5
310
330
133
100
AcDbEntity
  8
Ech.1_1
  6
Continuous
 62
    44
100
AcDbCircle
 10
90.67366834999999
 20
28.71214347
 30
0.0
 40
0.3440962
  0
CIRCLE
  5
311
330
133
100
AcDbEntity
  8
Ech.1_1
  6
Continuous
 62
    44
100
AcDbCircle
 10
93.76019974
 20
28.60306434
 30
0.0
 40
0.3440962
  0
CIRCLE
  5
312
330
133
100
AcDbEntity
  8
Ech.1_1
  6
Continuous
 62
    44
100
AcDbCircle
 10
94.74609555
 20
30.17009212
 30
0.0
 40
0.3440962
  0
CIRCLE
  5
313
330
133
100
AcDbEntity
  8
Ech.1_1
  6
Continuous
 62
    44
100
AcDbCircle
 10
90.22724879
 20
29.9390881
 30
0.0
 40
0.3440962
  0
CIRCLE
  5
314
330
133
100
AcDbEntity
  8
Ech.1_1
  6
Continuous
 62
    44
100
AcDbCircle
 10
88.09756011000001
 20
30.07936948
 30
0.0
 40
0.3440962
  0
CIRCLE
  5
315
330
133
100
AcDbEntity
  8
Ech.1_1
  6
Continuous
 62
    44
100
AcDbCircle
 10
86.34728282999999
 20
26.99479534
 30
0.0
 40
0.3440962
  0
CIRCLE
  5
316
330
133
100
AcDbEntity
  8
Ech.1_1
  6
Continuous
 62
    44
100
AcDbCircle
 10
86.77764150999999
 20
29.29497418
 30
0.0
 40
0.3440962
  0
CIRCLE
  5
317
330
133
100
AcDbEntity
  8
Ech.1_1
  6
Continuous
 62
    44
100
AcDbCircle
 10
85.15720419999999
 20
30.29216679
 30
0.0
 40
0.3440962
  0
CIRCLE
  5
318
330
133
100
AcDbEntity
  8
Ech.1_1
  6
Continuous
 62
    44
100
AcDbCircle
 10
82.12759440000001
 20
30.15424511
 30
0.0
 40
0.3440962
  0
CIRCLE
  5
319
330
133
100
AcDbEntity
  8
Ech.1_1
  6
Continuous
 62
    44
100
AcDbCircle
 10
80.8510687
 20
27.87916642
 30
0.0
 40
0.3440962
  0
CIRCLE
  5
31A
330
133
100
AcDbEntity
  8
Ech.1_1
  6
Continuous
 62
    44
100
AcDbCircle
 10
81.77730019
 20
26.81203434
 30
0.0
 40
0.3440962
  0
CIRCLE
  5
31B
330
133
100
AcDbEntity
  8
Ech.1_1
  6
Continuous
 62
    44
100
AcDbCircle
 10
101.56093199
 20
27.13926624
 30
0.0
 40
0.3440962
  0
CIRCLE
  5
31C
330
133
100
AcDbEntity
  8
Ech.1_1
  6
Continuous
 62
    44
100
AcDbCircle
 10
115.88306399
 20
27.15832251
 30
0.0
 40
0.3440962
  0
ARC
  5
31D
330
133
100
AcDbEntity
  8
Ech.1_1
  6
Continuous
 62
    44
100
AcDbCircle
 10
102.62829139
 20
4.498083199999999
 30
0.0
 40
4.5
100
AcDbArc
 50
181.66738495
 51
303.1249124
  0
ARC
  5
31E
330
133
100
AcDbEntity
  8
Ech.1_1
  6
Continuous
 62
    44
100
AcDbCircle
 10
113.6287719
 20
21.8255016
 30
0.0
 40
4.0
100
AcDbArc
 50
1.66737494
 51
91.66737492999999
  0
ARC
  5
31F
330
133
100
AcDbEntity
  8
Ech.1_1
  6
Continuous
 62
    44
100
AcDbCircle
 10
102.62829139
 20
4.498083199999999
 30
0.0
 40
4.5
100
AcDbArc
 50
123.12490237
 51
181.66738496
  0
ARC
  5
320
330
133
100
AcDbEntity
  8
Ech.1_1
  6
Continuous
 62
    44
100
AcDbCircle
 10
113.62877191
 20
21.8255016
 30
0.0
 40
4.0
100
AcDbArc
 50
303.12491239
 51
1.66737494
  0
ARC
  5
321
330
133
100
AcDbEntity
  8
Ech.1_1
  6
Continuous
 62
    44
100
AcDbCircle
 10
82.42366954000001
 20
28.4203167
 30
0.0
 40
3.5
100
AcDbArc
 50
181.66738495
 51
271.66738496
  0
ARC
  5
322
330
133
100
AcDbEntity
  8
Ech.1_1
  6
Continuous
 62
    44
100
AcDbCircle
 10
82.42366954000001
 20
28.4203167
 30
0.0
 40
3.5
100
AcDbArc
 50
91.66737494000001
 51
181.66738495
  0
ARC
  5
323
330
133
100
AcDbEntity
  8
Ech.1_1
  6
Continuous
 62
    44
100
AcDbCircle
 10
114.93076083
 20
21.14472651
 30
0.0
 40
11.71837091
100
AcDbArc
 50
303.12491239
 51
1.66737494
  0
ARC
  5
324
330
133
100
AcDbEntity
  8
Ech.1_1
  6
Continuous
 62
    44
100
AcDbCircle
 10
114.93076083
 20
21.14472651
 30
0.0
 40
10.96837091
100
AcDbArc
 50
303.12491239
 51
91.66737494000001
  0
ARC
  5
325
330
133
100
AcDbEntity
  8
Ech.1_1
  6
Continuous
 62
    44
100
AcDbCircle
 10
102.62829139
 20
4.498083199999999
 30
0.0
 40
3.75
100
AcDbArc
 50
181.66738495
 51
303.12491239
  0
ARC
  5
326
330
133
100
AcDbEntity
  8
Ech.1_1
  6
Continuous
 62
    44
100
AcDbCircle
 10
102.62829139
 20
4.498083199999999
 30
0.0
 40
3.75
100
AcDbArc
 50
123.12490237
 51
181.66738495
  0
ARC
  5
327
330
133
100
AcDbEntity
  8
Ech.1_1
  6
Continuous
 62
    44
100
AcDbCircle
 10
113.6287719
 20
21.8255016
 30
0.0
 40
4.75
100
AcDbArc
 50
303.1249124
 51
1.66737493
  0
ARC
  5
328
330
133
100
AcDbEntity
  8
Ech.1_1
  6
Continuous
 62
    44
100
AcDbCircle
 10
113.62877191
 20
21.8255016
 30
0.0
 40
4.75
100
AcDbArc
 50
1.66737493
 51
91.66737494000001
  0
ARC
  5
329
330
133
100
AcDbEntity
  8
Ech.1_1
  6
Continuous
 62
    44
100
AcDbCircle
 10
82.42366954000001
 20
28.4203167
 30
0.0
 40
2.75
100
AcDbArc
 50
181.66738495
 51
271.66738496
  0
ARC
  5
32A
330
133
100
AcDbEntity
  8
Ech.1_1
  6
Continuous
 62
    44
100
AcDbCircle
 10
82.42366954000001
 20
28.4203167
 30
0.0
 40
2.75
100
AcDbArc
 50
91.66737494000001
 51
181.66738495
  0
ARC
  5
32B
330
133
100
AcDbEntity
  8
Ech.1_1
  6
Continuous
 62
    44
100
AcDbCircle
 10
114.93076083
 20
21.14472651
 30
0.0
 40
11.71837091
100
AcDbArc
 50
1.66737494
 51
91.66737494000001
  0
ARC
  5
32C
330
133
100
AcDbEntity
  8
Ech.1_1
  6
Continuous
 62
    44
100
AcDbCircle
 10
26.05067616
 20
19.91394583
 30
0.0
 40
1.5
100
AcDbArc
 50
267.66738495
 51
357.66738496
  0
ARC
  5
32D
330
133
100
AcDbEntity
  8
Ech.1_1
  6
Continuous
 62
    44
100
AcDbCircle
 10
26.05067616
 20
19.91394583
 30
0.0
 40
1.5
100
AcDbArc
 50
177.66737495
 51
267.66738495
  0
LINE
  5
32E
330
133
100
AcDbEntity
  8
Ech.1_1
  6
Continuous
 62
    44
100
AcDbLine
 10
100.16919437
 20
8.266748989999999
 30
0.0
 11
115.81463593
 21
18.47557646
 31
0.0
  0
LINE
  5
32F
330
133
100
AcDbEntity
  8
Ech.1_1
  6
Continuous
 62
    44
100
AcDbLine
 10
121.33445218
 20
11.33081017
 30
0.0
 11
105.08738842
 21
0.7294174100000001
 31
0.0
  0
LINE
  5
330
330
133
100
AcDbEntity
  8
Ech.1_1
  6
Continuous
 62
    44
100
AcDbLine
 10
113.5123836
 20
25.82380796
 30
0.0
 11
82.52550929999999
 21
24.92179863
 31
0.0
  0
LINE
  5
331
330
133
100
AcDbEntity
  8
Ech.1_1
  6
Continuous
 62
    44
100
AcDbLine
 10
114.58979051
 20
32.85813576000001
 30
0.0
 11
98.81484352000001
 21
32.39893651
 31
0.0
  0
LINE
  5
332
330
133
100
AcDbEntity
  8
Ech.1_1
  6
Continuous
 62
    44
100
AcDbLine
 10
120.92460267
 20
11.95892113
 30
0.0
 11
104.67753891
 21
1.357528379999999
 31
0.0
  0
LINE
  5
333
330
133
100
AcDbEntity
  8
Ech.1_1
  6
Continuous
 62
    44
100
AcDbLine
 10
100.57904387
 20
7.63863802
 30
0.0
 11
116.22448543
 21
17.84746549
 31
0.0
  0
LINE
  5
334
330
133
100
AcDbEntity
  8
Ech.1_1
  6
Continuous
 62
    44
100
AcDbLine
 10
113.4905608
 20
26.57349041
 30
0.0
 11
82.50368649
 21
25.67148108
 31
0.0
  0
LINE
  5
335
330
133
100
AcDbEntity
  8
Ech.1_1
  6
Continuous
 62
    44
100
AcDbLine
 10
82.34365258
 20
31.16915233
 30
0.0
 11
87.98156615000001
 21
31.33326861
 31
0.0
  0
LINE
  5
336
330
133
100
AcDbEntity
  8
Ech.1_1
  6
Continuous
 62
    44
100
AcDbLine
 10
98.81484352000001
 20
32.39893651
 30
0.0
 11
89.01995442
 21
32.11381316
 31
0.0
  0
LINE
  5
337
330
133
100
AcDbEntity
  8
Ech.1_1
  6
Continuous
 62
    44
100
AcDbLine
 10
88.27027196999999
 20
32.09199035000001
 30
0.0
 11
82.32182976999999
 21
31.91883477
 31
0.0
  0
LINE
  5
338
330
133
100
AcDbEntity
  8
Ech.1_1
  6
Continuous
 62
    44
100
AcDbLine
 10
89.01995442
 20
32.11381316
 30
0.0
 11
89.04177722
 21
31.36413072
 31
0.0
  0
LINE
  5
339
330
133
100
AcDbEntity
  8
Ech.1_1
  6
Continuous
 62
    44
100
AcDbLine
 10
89.04177722
 20
31.36413072
 30
0.0
 11
98.83666632
 21
31.64925407
 31
0.0
  0
LINE
  5
33A
330
133
100
AcDbEntity
  8
Ech.1_1
  6
Continuous
 62
    44
100
AcDbLine
 10
87.98156615000001
 20
31.33326861
 30
0.0
 11
88.75307139
 21
30.60540897
 31
0.0
  0
LINE
  5
33B
330
133
100
AcDbEntity
  8
Ech.1_1
  6
Continuous
 62
    44
100
AcDbLine
 10
88.27027196999999
 20
32.09199035000001
 30
0.0
 11
89.04177722
 21
31.36413072
 31
0.0
  0
LINE
  5
33C
330
133
100
AcDbEntity
  8
Ech.1_1
  6
Continuous
 62
    44
100
AcDbLine
 10
88.75307139
 20
30.60540897
 30
0.0
 11
98.85848913
 21
30.89957162
 31
0.0
  0
LINE
  5
33D
330
133
100
AcDbEntity
  8
Ech.1_1
  6
Continuous
 62
    44
100
AcDbLine
 10
98.85848913
 20
30.89957162
 30
0.0
 11
98.83666632
 21
31.64925407
 31
0.0
  0
LINE
  5
33E
330
133
100
AcDbEntity
  8
Ech.1_1
  6
Continuous
 62
    44
100
AcDbLine
 10
98.83666632
 20
31.64925407
 30
0.0
 11
114.61161332
 21
32.10845331
 31
0.0
  0
LINE
  5
33F
330
133
100
AcDbEntity
  8
Ech.1_1
  6
Continuous
 62
    44
100
AcDbLine
 10
126.89222635
 20
33.21625229
 30
0.0
 11
78.07736559999999
 21
31.79528096
 31
0.0
  0
LINE
  5
340
330
133
100
AcDbEntity
  8
Ech.1_1
  6
Continuous
 62
    44
100
AcDbLine
 10
128.30430001
 20
36.25862767
 30
0.0
 11
129.8036649
 21
36.30227328
 31
0.0
  0
LINE
  5
341
330
133
100
AcDbEntity
  8
Ech.1_1
  6
Continuous
 62
    44
100
AcDbLine
 10
126.80493513
 20
36.21498206
 30
0.0
 11
128.30430001
 21
36.25862767
 31
0.0
  0
LINE
  5
342
330
133
100
AcDbEntity
  8
Ech.1_1
  6
Continuous
 62
    44
100
AcDbLine
 10
5.678588279999999
 20
35.75623214
 30
0.0
 11
0.12209457
 21
34.48132915
 31
0.0
  0
LINE
  5
343
330
133
100
AcDbEntity
  8
Ech.1_1
  6
Continuous
 62
    44
100
AcDbLine
 10
5.61753717
 20
34.25747506
 30
0.0
 11
5.678588279999999
 21
35.75623214
 31
0.0
  0
LINE
  5
344
330
133
100
AcDbEntity
  8
Ech.1_1
  6
Continuous
 62
    44
100
AcDbLine
 10
11.17403088
 20
35.53237805
 30
0.0
 11
5.61753717
 21
34.25747506
 31
0.0
  0
LINE
  5
345
330
133
100
AcDbEntity
  8
Ech.1_1
  6
Continuous
 62
    44
100
AcDbLine
 10
11.11297977
 20
34.03362098000001
 30
0.0
 11
11.17403088
 21
35.53237805
 31
0.0
  0
LINE
  5
346
330
133
100
AcDbEntity
  8
Ech.1_1
  6
Continuous
 62
    44
100
AcDbLine
 10
16.66947348
 20
35.30852397
 30
0.0
 11
11.11297977
 21
34.03362098000001
 31
0.0
  0
LINE
  5
347
330
133
100
AcDbEntity
  8
Ech.1_1
  6
Continuous
 62
    44
100
AcDbLine
 10
16.60842237
 20
33.8097669
 30
0.0
 11
16.66947348
 21
35.30852397
 31
0.0
  0
LINE
  5
348
330
133
100
AcDbEntity
  8
Ech.1_1
  6
Continuous
 62
    44
100
AcDbLine
 10
28.09889325
 20
33.34170837
 30
0.0
 11
16.60842237
 21
33.8097669
 31
0.0
  0
LINE
  5
349
330
133
100
AcDbEntity
  8
Ech.1_1
  6
Continuous
 62
    44
100
AcDbLine
 10
127.05226026
 20
27.71858104
 30
0.0
 11
126.89222635
 21
33.21625229
 31
0.0
  0
LINE
  5
34A
330
133
100
AcDbEntity
  8
Ech.1_1
  6
Continuous
 62
    44
100
AcDbLine
 10
129.8036649
 20
36.30227328
 30
0.0
 11
130.05099004
 21
27.80587226
 31
0.0
  0
LINE
  5
34B
330
133
100
AcDbEntity
  8
Ech.1_1
  6
Continuous
 62
    44
100
AcDbLine
 10
28.09889325
 20
33.34170837
 30
0.0
 11
73.66178076999999
 21
34.66801670000001
 31
0.0
  0
LINE
  5
34C
330
133
100
AcDbEntity
  8
Ech.1_1
  6
Continuous
 62
    44
100
AcDbLine
 10
78.07736559999999
 20
31.79528096
 30
0.0
 11
73.82181468
 21
29.17034545
 31
0.0
  0
LINE
  5
34D
330
133
100
AcDbEntity
  8
Ech.1_1
  6
Continuous
 62
    44
100
AcDbLine
 10
73.82181468
 20
29.17034545
 30
0.0
 11
29.27267292
 21
27.87354665
 31
0.0
  0
LINE
  5
34E
330
133
100
AcDbEntity
  8
Ech.1_1
  6
Continuous
 62
    44
100
AcDbLine
 10
0.12209457
 20
34.48132915
 30
0.0
 11
-0.0000076553988038
 21
31.48381500000001
 31
0.0
  0
LINE
  5
34F
330
133
100
AcDbEntity
  8
Ech.1_1
  6
Continuous
 62
    44
100
AcDbLine
 10
27.81756146
 20
26.43523288
 30
0.0
 11
27.54943323
 21
19.85289472
 31
0.0
  0
LINE
  5
350
330
133
100
AcDbEntity
  8
Ech.1_1
  6
Continuous
 62
    44
100
AcDbLine
 10
24.59261983
 20
20.97416833
 30
0.0
 11
24.55191909
 21
19.97499694
 31
0.0
  0
LINE
  5
351
330
133
100
AcDbEntity
  8
Ech.1_1
  6
Continuous
 62
    44
100
AcDbLine
 10
24.59261983
 20
20.97416833
 30
0.0
 11
19.63746367
 21
22.17684342
 31
0.0
  0
LINE
  5
352
330
133
100
AcDbEntity
  8
Ech.1_1
  6
Continuous
 62
    44
100
AcDbLine
 10
19.63746367
 20
22.17684342
 30
0.0
 11
12.19228711
 21
30.25432773
 31
0.0
  0
LINE
  5
353
330
133
100
AcDbEntity
  8
Ech.1_1
  6
Continuous
 62
    44
100
AcDbLine
 10
10.45578739
 20
31.05790347
 30
0.0
 11
5.324192749999999
 21
31.26693638
 31
0.0
  0
LINE
  5
354
330
133
100
AcDbEntity
  8
Ech.1_1
  6
Continuous
 62
    44
100
AcDbLine
 10
2.78329197
 20
28.22078122
 30
0.0
 11
5.133685709999999
 21
17.76350096
 31
0.0
  0
LINE
  5
355
330
133
100
AcDbEntity
  8
Ech.1_1
  6
Continuous
 62
    44
100
AcDbLine
 10
-0.0000076553988038
 20
31.48381500000001
 30
0.0
 11
3.064849049999999
 21
17.84777398
 31
0.0
  0
LINE
  5
356
330
133
100
AcDbEntity
  8
Ech.1_1
  6
Continuous
 62
    44
100
AcDbLine
 10
73.66178076999999
 20
34.66801670000001
 30
0.0
 11
126.80493513
 21
36.21498206
 31
0.0
  0
LINE
  5
357
330
133
100
AcDbEntity
  8
Ech.1_1
  6
Continuous
 62
    44
100
AcDbLine
 10
97.90450523
 20
32.37243711
 30
0.0
 11
123.64360243
 21
33.12168679
 31
0.0
  0
LINE
  5
358
330
133
100
AcDbEntity
  8
Ech.1_1
  6
Continuous
 62
    44
100
AcDbLine
 10
5.133685709999999
 20
17.76350096
 30
0.0
 11
3.064849049999999
 21
17.84777398
 31
0.0
  0
ENDBLK
  5
359
330
133
100
AcDbEntity
  8
0
100
AcDbBlockEnd
  0
BLOCK
  5
35A
330
134
100
AcDbEntity
  8
Ech.1_1
100
AcDbBlockBegin
  2
PROFIL_L
 70
     0
 10
0.0
 20
0.0
 30
0.0
  3
PROFIL_L
  1

  0
HATCH
  5
35B
330
134
100
AcDbEntity
  8
Ech.1_1
 62
   252
100
AcDbHatch
 10
0.0
 20
0.0
 30
0.0
210
0.0
220
0.0
230
1.0
  2
SOLID
 70
     1
 71
     0
 91
        1
 92
        7
 72
     1
 73
     1
 93
        6
 10
62.5
 20
-59.84638896999999
 42
0.0
 10
10.60042638
 20
-59.84638896999999
 42
0.0
 10
15.13881924
 20
-65.59638897000001
 42
0.0
 10
55.0
 20
-65.59638897000001
 42
0.0
 10
55.0
 20
-96.09638897000001
 42
1.0
 10
62.5
 20
-96.09638897000001
 42
0.0
 97
        0
 75
     0
 76
     2
 47
0.775229
 98
        1
 10
0.0
 20
0.0
  0
HATCH
  5
35C
330
134
100
AcDbEntity
  8
Ech.1_1
 62
   252
100
AcDbHatch
 10
0.0
 20
0.0
 30
0.0
210
0.0
220
0.0
230
1.0
  2
SOLID
 70
     1
 71
     0
 91
        1
 92
        7
 72
     1
 73
     1
 93
        4
 10
-17.42278791
 20
-59.84638896999999
 42
0.0
 10
-59.625
 20
-59.84638896999999
 42
1.0
 10
-59.625
 20
-65.59638897000001
 42
0.0
 10
-21.96118076
 20
-65.59638897000001
 42
0.0
 97
        0
 75
     0
 76
     2
 47
0.775229
 98
        1
 10
0.0
 20
0.0
  0
HATCH
  5
35D
330
134
100
AcDbEntity
  8
Ech.1_1
 62
   252
100
AcDbHatch
 10
0.0
 20
0.0
 30
0.0
210
0.0
220
0.0
230
1.0
  2
SOLID
 70
     1
 71
     0
 91
        1
 92
        7
 72
     0
 73
     1
 93
        4
 10
10.60042638
 20
-59.84638896999999
 10
-17.42278791
 20
-59.84638896999999
 10
-21.96118076
 20
-65.59638897000001
 10
15.13881924
 20
-65.59638897000001
 97
        0
 75
     0
 76
     2
 47
0.775229
 98
        1
 10
0.0
 20
0.0
  0
LINE
  5
35E
330
134
100
AcDbEntity
  8
Ech.1_1
 62
     0
100
AcDbLine
 10
-59.625
 20
-65.59638897000001
 30
0.0
 11
55.0
 21
-65.59638897000001
 31
0.0
  0
LINE
  5
35F
330
134
100
AcDbEntity
  8
Ech.1_1
 62
     0
100
AcDbLine
 10
55.0
 20
-96.09638897000001
 30
0.0
 11
55.0
 21
-65.59638897000001
 31
0.0
  0
LINE
  5
360
330
134
100
AcDbEntity
  8
Ech.1_1
 62
     0
100
AcDbLine
 10
-21.96118076
 20
-65.59638897000001
 30
0.0
 11
15.13881924
 21
-65.59638897000001
 31
0.0
  0
LINE
  5
361
330
134
100
AcDbEntity
  8
Ech.1_1
 62
     0
100
AcDbLine
 10
4.08881924
 20
-51.59638897
 30
0.0
 11
4.08881924
 21
17.90361103
 31
0.0
  0
LINE
  5
362
330
134
100
AcDbEntity
  8
Ech.1_1
 62
     0
100
AcDbLine
 10
15.13881924
 20
-65.59638897000001
 30
0.0
 11
4.08881924
 21
-51.59638897
 31
0.0
  0
LINE
  5
363
330
134
100
AcDbEntity
  8
Ech.1_1
 62
     0
100
AcDbLine
 10
-21.96118076
 20
-65.59638897000001
 30
0.0
 11
-10.91118076
 21
-51.59638897
 31
0.0
  0
LINE
  5
364
330
134
100
AcDbEntity
  8
Ech.1_1
 62
     0
100
AcDbLine
 10
-3.41118076
 20
84.40361102999998
 30
0.0
 11
4.08881924
 21
67.90361102999999
 31
0.0
  0
LINE
  5
365
330
134
100
AcDbEntity
  8
Ech.1_1
 62
     0
100
AcDbLine
 10
-3.41118076
 20
84.40361102999998
 30
0.0
 11
-10.91118076
 21
67.90361102999999
 31
0.0
  0
LINE
  5
366
330
134
100
AcDbEntity
  8
Ech.1_1
 62
     7
100
AcDbLine
 10
-13.41118076
 20
2.769016119999999
 30
0.0
 11
6.58881924
 21
16.2910497
 31
0.0
  0
LINE
  5
367
330
134
100
AcDbEntity
  8
Ech.1_1
 62
     7
100
AcDbLine
 10
-13.41118076
 20
-4.997470319999999
 30
0.0
 11
6.58881924
 21
8.52456326
 31
0.0
  0
LINE
  5
368
330
134
100
AcDbEntity
  8
Ech.1_1
 62
     7
100
AcDbLine
 10
-13.41118076
 20
-12.76395677
 30
0.0
 11
6.58881924
 21
0.7580768100000001
 31
0.0
  0
LINE
  5
369
330
134
100
AcDbEntity
  8
Ech.1_1
 62
     7
100
AcDbLine
 10
-13.41118076
 20
-20.53044321
 30
0.0
 11
6.58881924
 21
-7.00840963
 31
0.0
  0
LINE
  5
36A
330
134
100
AcDbEntity
  8
Ech.1_1
 62
     7
100
AcDbLine
 10
-13.41118076
 20
-28.29692965
 30
0.0
 11
6.58881924
 21
-14.77489607
 31
0.0
  0
LINE
  5
36B
330
134
100
AcDbEntity
  8
Ech.1_1
 62
     7
100
AcDbLine
 10
-13.41118076
 20
-36.06341609
 30
0.0
 11
6.58881924
 21
-22.54138251
 31
0.0
  0
LINE
  5
36C
330
134
100
AcDbEntity
  8
Ech.1_1
 62
     7
100
AcDbLine
 10
-13.41118076
 20
-43.82990253
 30
0.0
 11
6.58881924
 21
-30.30786895
 31
0.0
  0
LINE
  5
36D
330
134
100
AcDbEntity
  8
Ech.1_1
 62
     7
100
AcDbLine
 10
6.58881924
 20
-45.84084183
 30
0.0
 11
-1.924023309999999
 21
-51.59638897
 31
0.0
  0
LINE
  5
36E
330
134
100
AcDbEntity
  8
Ech.1_1
 62
     7
100
AcDbLine
 10
6.58881924
 20
-38.07435539
 30
0.0
 11
-13.41118076
 21
-51.59638897
 31
0.0
  0
LINE
  5
36F
330
134
100
AcDbEntity
  8
Ech.1_1
 62
     0
100
AcDbLine
 10
-10.91118076
 20
-51.59638897
 30
0.0
 11
-10.91118076
 21
67.90361102999999
 31
0.0
  0
LINE
  5
370
330
134
100
AcDbEntity
  8
Ech.1_1
 62
     0
100
AcDbLine
 10
-21.96118076
 20
-65.59638897000001
 30
0.0
 11
15.13881924
 21
-65.59638897000001
 31
0.0
  0
LINE
  5
371
330
134
100
AcDbEntity
  8
Ech.1_1
 62
     0
100
AcDbLine
 10
4.08881924
 20
-51.59638897
 30
0.0
 11
4.08881924
 21
67.90361102999999
 31
0.0
  0
LINE
  5
372
330
134
100
AcDbEntity
  8
Ech.1_1
 62
     0
100
AcDbLine
 10
-3.41118076
 20
84.40361102999998
 30
0.0
 11
4.08881924
 21
67.90361102999999
 31
0.0
  0
LINE
  5
373
330
134
100
AcDbEntity
  8
Ech.1_1
 62
     0
100
AcDbLine
 10
-3.41118076
 20
84.40361102999998
 30
0.0
 11
-10.91118076
 21
67.90361102999999
 31
0.0
  0
LINE
  5
374
330
134
100
AcDbEntity
  8
Ech.1_1
 62
     7
100
AcDbLine
 10
-13.41118076
 20
2.769016119999999
 30
0.0
 11
6.58881924
 21
16.2910497
 31
0.0
  0
LINE
  5
375
330
134
100
AcDbEntity
  8
Ech.1_1
 62
     7
100
AcDbLine
 10
-13.41118076
 20
-4.997470319999999
 30
0.0
 11
6.58881924
 21
8.52456326
 31
0.0
  0
LINE
  5
376
330
134
100
AcDbEntity
  8
Ech.1_1
 62
     7
100
AcDbLine
 10
-13.41118076
 20
-12.76395677
 30
0.0
 11
6.58881924
 21
0.7580768100000001
 31
0.0
  0
LINE
  5
377
330
134
100
AcDbEntity
  8
Ech.1_1
 62
     7
100
AcDbLine
 10
-13.41118076
 20
-20.53044321
 30
0.0
 11
6.58881924
 21
-7.00840963
 31
0.0
  0
LINE
  5
378
330
134
100
AcDbEntity
  8
Ech.1_1
 62
     7
100
AcDbLine
 10
-13.41118076
 20
-28.29692965
 30
0.0
 11
6.58881924
 21
-14.77489607
 31
0.0
  0
LINE
  5
379
330
134
100
AcDbEntity
  8
Ech.1_1
 62
     7
100
AcDbLine
 10
-13.41118076
 20
-36.06341609
 30
0.0
 11
6.58881924
 21
-22.54138251
 31
0.0
  0
LINE
  5
37A
330
134
100
AcDbEntity
  8
Ech.1_1
 62
     7
100
AcDbLine
 10
-13.41118076
 20
-43.82990253
 30
0.0
 11
6.58881924
 21
-30.30786895
 31
0.0
  0
LINE
  5
37B
330
134
100
AcDbEntity
  8
Ech.1_1
 62
     7
100
AcDbLine
 10
6.58881924
 20
-45.84084183
 30
0.0
 11
-1.924023309999999
 21
-51.59638897
 31
0.0
  0
LINE
  5
37C
330
134
100
AcDbEntity
  8
Ech.1_1
 62
     7
100
AcDbLine
 10
6.58881924
 20
-38.07435539
 30
0.0
 11
-13.41118076
 21
-51.59638897
 31
0.0
  0
LINE
  5
37D
330
134
100
AcDbEntity
  8
Ech.1_1
 62
     0
100
AcDbLine
 10
-10.91118076
 20
-51.59638897
 30
0.0
 11
-10.91118076
 21
67.90361102999999
 31
0.0
  0
LINE
  5
37E
330
134
100
AcDbEntity
  8
Ech.1_1
 62
     0
100
AcDbLine
 10
-59.625
 20
-59.84638896999999
 30
0.0
 11
62.5
 21
-59.84638896999999
 31
0.0
  0
LINE
  5
37F
330
134
100
AcDbEntity
  8
Ech.1_1
 62
     0
100
AcDbLine
 10
62.5
 20
-96.09638897000001
 30
0.0
 11
62.5
 21
-59.84638896999999
 31
0.0
  0
ARC
  5
380
330
134
100
AcDbEntity
  8
Ech.1_1
 62
     7
100
AcDbCircle
 10
-59.625
 20
-62.72138897
 30
0.0
 40
2.875
100
AcDbArc
 50
90.0
 51
270.00001002
  0
ARC
  5
381
330
134
100
AcDbEntity
  8
Ech.1_1
 62
     7
100
AcDbCircle
 10
58.75
 20
-96.09638897000001
 30
0.0
 40
3.75
100
AcDbArc
 50
180.0
 51
0.0
  0
LINE
  5
382
330
134
100
AcDbEntity
  8
Ech.1_1
 62
     7
100
AcDbLine
 10
-13.41118076
 20
33.83496188
 30
0.0
 11
6.58881924
 21
47.35699546
 31
0.0
  0
LINE
  5
383
330
134
100
AcDbEntity
  8
Ech.1_1
 62
     7
100
AcDbLine
 10
-13.41118076
 20
26.06847544
 30
0.0
 11
6.58881924
 21
39.59050902
 31
0.0
  0
LINE
  5
384
330
134
100
AcDbEntity
  8
Ech.1_1
 62
     7
100
AcDbLine
 10
-13.41118076
 20
18.301989
 30
0.0
 11
6.58881924
 21
31.82402258
 31
0.0
  0
LINE
  5
385
330
134
100
AcDbEntity
  8
Ech.1_1
 62
     7
100
AcDbLine
 10
-13.41118076
 20
10.53550256
 30
0.0
 11
6.58881924
 21
24.05753614
 31
0.0
  0
LINE
  5
386
330
134
100
AcDbEntity
  8
Ech.1_1
 62
     7
100
AcDbLine
 10
-13.41118076
 20
33.83496188
 30
0.0
 11
6.58881924
 21
47.35699546
 31
0.0
  0
LINE
  5
387
330
134
100
AcDbEntity
  8
Ech.1_1
 62
     7
100
AcDbLine
 10
-13.41118076
 20
26.06847544
 30
0.0
 11
6.58881924
 21
39.59050902
 31
0.0
  0
LINE
  5
388
330
134
100
AcDbEntity
  8
Ech.1_1
 62
     7
100
AcDbLine
 10
-13.41118076
 20
18.301989
 30
0.0
 11
6.58881924
 21
31.82402258
 31
0.0
  0
LINE
  5
389
330
134
100
AcDbEntity
  8
Ech.1_1
 62
     7
100
AcDbLine
 10
-13.41118076
 20
10.53550256
 30
0.0
 11
6.58881924
 21
24.05753614
 31
0.0
  0
LINE
  5
38A
330
134
100
AcDbEntity
  8
Ech.1_1
 62
     7
100
AcDbLine
 10
-13.41118076
 20
64.90090764999999
 30
0.0
 11
1.01901261
 21
74.65718561
 31
0.0
  0
LINE
  5
38B
330
134
100
AcDbEntity
  8
Ech.1_1
 62
     7
100
AcDbLine
 10
-13.41118076
 20
57.13442120999999
 30
0.0
 11
3.71936444
 21
68.71641158
 31
0.0
  0
LINE
  5
38C
330
134
100
AcDbEntity
  8
Ech.1_1
 62
     7
100
AcDbLine
 10
-13.41118076
 20
49.36793476
 30
0.0
 11
6.58881924
 21
62.88996834
 31
0.0
  0
LINE
  5
38D
330
134
100
AcDbEntity
  8
Ech.1_1
 62
     7
100
AcDbLine
 10
-13.41118076
 20
41.60144832
 30
0.0
 11
6.58881924
 21
55.1234819
 31
0.0
  0
LINE
  5
38E
330
134
100
AcDbEntity
  8
Ech.1_1
 62
     7
100
AcDbLine
 10
-13.41118076
 20
64.90090764999999
 30
0.0
 11
1.01901261
 21
74.65718561
 31
0.0
  0
LINE
  5
38F
330
134
100
AcDbEntity
  8
Ech.1_1
 62
     7
100
AcDbLine
 10
-13.41118076
 20
57.1344212
 30
0.0
 11
3.71936444
 21
68.71641158
 31
0.0
  0
LINE
  5
390
330
134
100
AcDbEntity
  8
Ech.1_1
 62
     7
100
AcDbLine
 10
-13.41118076
 20
49.36793476
 30
0.0
 11
6.58881924
 21
62.88996834
 31
0.0
  0
LINE
  5
391
330
134
100
AcDbEntity
  8
Ech.1_1
 62
     7
100
AcDbLine
 10
-13.41118076
 20
41.60144832
 30
0.0
 11
6.58881924
 21
55.1234819
 31
0.0
  0
LINE
  5
392
330
134
100
AcDbEntity
  8
Ech.1_1
 62
     7
100
AcDbLine
 10
-6.67596561
 20
77.22108436
 30
0.0
 11
-1.68133923
 21
80.59795965000001
 31
0.0
  0
LINE
  5
393
330
134
100
AcDbEntity
  8
Ech.1_1
 62
     7
100
AcDbLine
 10
-6.67596561
 20
77.22108436
 30
0.0
 11
-1.68133923
 21
80.59795965000001
 31
0.0
  0
LINE
  5
394
330
134
100
AcDbEntity
  8
Ech.1_1
 62
     7
100
AcDbLine
 10
4.08881924
 20
-51.59638897
 30
0.0
 11
-10.91118076
 21
-51.59638897
 31
0.0
  0
LINE
  5
395
330
134
100
AcDbEntity
  8
Ech.1_1
 62
     1
100
AcDbLine
 10
-3.41118076
 20
-82.20447955999999
 30
0.0
 11
-3.41118076
 21
99.84638897000001
 31
0.0
  0
ENDBLK
  5
396
330
134
100
AcDbEntity
  8
0
100
AcDbBlockEnd
  0
BLOCK
  5
397
330
135
100
AcDbEntity
  8
Ech.1_1
100
AcDbBlockBegin
  2
A$C4DC86443
 70
     0
 10
0.0
 20
0.0
 30
0.0
  3
A$C4DC86443
  1

  0
HATCH
  5
398
330
135
100
AcDbEntity
  8
Ech.1_1
 62
    24
100
AcDbHatch
 10
0.0
 20
0.0
 30
0.0
210
0.0
220
0.0
230
1.0
  2
ANSI33
 70
     0
 71
     0
 91
        1
 92
        7
 72
     0
 73
     1
 93
       24
 10
222.50003256
 20
199.99994333
 10
242.50003256
 20
199.99994333
 10
242.50003256
 20
214.9999744
 10
212.50003261
 20
214.9999744
 10
212.50003261
 20
229.9999744
 10
350.00003261
 20
229.9999744
 10
337.6586257
 20
299.9999744
 10
125.00003256
 20
299.9999744
 10
125.00003256
 20
279.9999744
 10
75.00003255999999
 20
279.9999744
 10
75.00003255999999
 20
299.9999744
 10
25.00003256
 20
299.9999744
 10
25.0000326
 20
49.99997442
 10
0.0000325975997839
 20
49.99997442
 10
0.000032562056731
 20
2.49997229
 10
0.0000379113043891
 20
2.49997229
 10
0.0000379113043891
 20
-0.0000255848863162
 10
242.50003256
 20
-0.0000255848863162
 10
242.50003256
 20
14.99997442
 10
202.50003256
 20
14.99997442
 10
202.50003256
 20
34.99997442
 10
242.50003256
 20
34.99997442
 10
242.50003256
 20
49.99997442
 10
222.50003256
 20
49.99997442
 97
        0
 75
     0
 76
     2
 52
0.0
 41
5.000000299999999
 77
     0
 78
     2
 53
45.0
 43
0.0
 44
0.0
 45
-22.85985804
 46
22.85985804
 79
     0
 53
45.0
 43
0.0
 44
22.85985804
 45
-22.85985804
 46
22.85985804
 79
     2
 49
13.96991324
 49
-6.98495662
 47
0.775229
 98
        1
 10
0.0
 20
0.0
  0
LINE
  5
399
330
135
100
AcDbEntity
  8
Ech.1_1
 62
     0
100
AcDbLine
 10
0.000032560164982
 20
-0.0000255848863162
 30
0.0
 11
242.50003256
 21
-0.0000255848863162
 31
0.0
  0
LINE
  5
39A
330
135
100
AcDbEntity
  8
Ech.1_1
 62
     0
100
AcDbLine
 10
242.50003256
 20
14.99997442
 30
0.0
 11
202.50003256
 21
14.99997442
 31
0.0
  0
LINE
  5
39B
330
135
100
AcDbEntity
  8
Ech.1_1
 62
     0
100
AcDbLine
 10
202.50003256
 20
34.99997442
 30
0.0
 11
242.50003256
 21
34.99997442
 31
0.0
  0
LINE
  5
39C
330
135
100
AcDbEntity
  8
Ech.1_1
 62
     0
100
AcDbLine
 10
242.50003256
 20
34.99997442
 30
0.0
 11
242.50003256
 21
49.99997442
 31
0.0
  0
LINE
  5
39D
330
135
100
AcDbEntity
  8
Ech.1_1
 62
     0
100
AcDbLine
 10
25.0000326
 20
49.99997442
 30
0.0
 11
0.000032560164982
 21
49.99997442
 31
0.0
  0
LINE
  5
39E
330
135
100
AcDbEntity
  8
Ech.1_1
 62
     0
100
AcDbLine
 10
0.000032560164982
 20
49.99997442
 30
0.0
 11
0.000032560164982
 21
-0.0000255848863162
 31
0.0
  0
LINE
  5
39F
330
135
100
AcDbEntity
  8
Ech.1_1
 62
     0
100
AcDbLine
 10
212.50003261
 20
229.9999744
 30
0.0
 11
350.00003261
 21
229.9999744
 31
0.0
  0
LINE
  5
3A0
330
135
100
AcDbEntity
  8
Ech.1_1
 62
     0
100
AcDbLine
 10
337.6586257
 20
299.9999744
 30
0.0
 11
140.00003256
 21
299.9999744
 31
0.0
  0
LINE
  5
3A1
330
135
100
AcDbEntity
  8
Ech.1_1
 62
     0
100
AcDbLine
 10
350.00003261
 20
229.9999744
 30
0.0
 11
337.6586257
 21
299.9999744
 31
0.0
  0
LINE
  5
3A2
330
135
100
AcDbEntity
  8
Ech.1_1
 62
     0
100
AcDbLine
 10
212.50003261
 20
229.9999744
 30
0.0
 11
212.50003261
 21
214.9999744
 31
0.0
  0
LINE
  5
3A3
330
135
100
AcDbEntity
  8
Ech.1_1
 62
     0
100
AcDbLine
 10
212.50003261
 20
214.9999744
 30
0.0
 11
242.50003256
 21
214.9999744
 31
0.0
  0
LINE
  5
3A4
330
135
100
AcDbEntity
  8
Ech.1_1
 62
     0
100
AcDbLine
 10
222.50003256
 20
49.99997442
 30
0.0
 11
242.50003256
 21
49.99997442
 31
0.0
  0
LINE
  5
3A5
330
135
100
AcDbEntity
  8
Ech.1_1
 62
     7
100
AcDbLine
 10
125.00003256
 20
299.9999744
 30
0.0
 11
337.6586257
 21
299.9999744
 31
0.0
  0
LINE
  5
3A6
330
135
100
AcDbEntity
  8
Ech.1_1
 62
     7
100
AcDbLine
 10
337.6586257
 20
299.9999744
 30
0.0
 11
350.00003261
 21
229.9999744
 31
0.0
  0
LINE
  5
3A7
330
135
100
AcDbEntity
  8
Ech.1_1
 62
     7
100
AcDbLine
 10
350.00003261
 20
229.9999744
 30
0.0
 11
212.50003261
 21
229.9999744
 31
0.0
  0
LINE
  5
3A8
330
135
100
AcDbEntity
  8
Ech.1_1
 62
     7
100
AcDbLine
 10
212.50003261
 20
229.9999744
 30
0.0
 11
212.50003261
 21
214.9999744
 31
0.0
  0
LINE
  5
3A9
330
135
100
AcDbEntity
  8
Ech.1_1
 62
     7
100
AcDbLine
 10
212.50003261
 20
214.9999744
 30
0.0
 11
242.50003256
 21
214.9999744
 31
0.0
  0
LINE
  5
3AA
330
135
100
AcDbEntity
  8
Ech.1_1
 62
     7
100
AcDbLine
 10
242.50003256
 20
214.9999744
 30
0.0
 11
242.50003256
 21
199.99994333
 31
0.0
  0
LINE
  5
3AB
330
135
100
AcDbEntity
  8
Ech.1_1
 62
     7
100
AcDbLine
 10
222.50003256
 20
199.99994333
 30
0.0
 11
222.50003256
 21
49.99997442
 31
0.0
  0
LINE
  5
3AC
330
135
100
AcDbEntity
  8
Ech.1_1
 62
     7
100
AcDbLine
 10
222.50003256
 20
49.99997442
 30
0.0
 11
242.50003256
 21
49.99997442
 31
0.0
  0
LINE
  5
3AD
330
135
100
AcDbEntity
  8
Ech.1_1
 62
     7
100
AcDbLine
 10
242.50003256
 20
49.99997442
 30
0.0
 11
242.50003256
 21
34.99997442
 31
0.0
  0
LINE
  5
3AE
330
135
100
AcDbEntity
  8
Ech.1_1
 62
     7
100
AcDbLine
 10
242.50003256
 20
34.99997442
 30
0.0
 11
202.50003256
 21
34.99997442
 31
0.0
  0
LINE
  5
3AF
330
135
100
AcDbEntity
  8
Ech.1_1
 62
     7
100
AcDbLine
 10
202.50003256
 20
34.99997442
 30
0.0
 11
202.50003256
 21
14.99997442
 31
0.0
  0
LINE
  5
3B0
330
135
100
AcDbEntity
  8
Ech.1_1
 62
     7
100
AcDbLine
 10
202.50003256
 20
14.99997442
 30
0.0
 11
242.50003256
 21
14.99997442
 31
0.0
  0
LINE
  5
3B1
330
135
100
AcDbEntity
  8
Ech.1_1
 62
     7
100
AcDbLine
 10
242.50003256
 20
14.99997442
 30
0.0
 11
242.50003256
 21
-0.0000255848863162
 31
0.0
  0
LINE
  5
3B2
330
135
100
AcDbEntity
  8
Ech.1_1
 62
     7
100
AcDbLine
 10
242.50003256
 20
-0.0000255848863162
 30
0.0
 11
0.000032560164982
 21
-0.0000255848863162
 31
0.0
  0
LINE
  5
3B3
330
135
100
AcDbEntity
  8
Ech.1_1
 62
     7
100
AcDbLine
 10
0.0000325975997839
 20
49.99997442
 30
0.0
 11
25.0000326
 21
49.99997442
 31
0.0
  0
LINE
  5
3B4
330
135
100
AcDbEntity
  8
Ech.1_1
 62
     7
100
AcDbLine
 10
25.0000326
 20
49.99997442
 30
0.0
 11
25.00003256
 21
299.9999744
 31
0.0
  0
LINE
  5
3B5
330
135
100
AcDbEntity
  8
Ech.1_1
 62
     7
100
AcDbLine
 10
242.50003256
 20
199.99994333
 30
0.0
 11
222.50003256
 21
199.99994333
 31
0.0
  0
LINE
  5
3B6
330
135
100
AcDbEntity
  8
Ech.1_1
 62
     7
100
AcDbLine
 10
25.00003256
 20
299.9999744
 30
0.0
 11
75.00003255999999
 21
299.9999744
 31
0.0
  0
LINE
  5
3B7
330
135
100
AcDbEntity
  8
Ech.1_1
 62
     7
100
AcDbLine
 10
75.00003255999999
 20
299.9999744
 30
0.0
 11
75.00003255999999
 21
279.9999744
 31
0.0
  0
LINE
  5
3B8
330
135
100
AcDbEntity
  8
Ech.1_1
 62
     7
100
AcDbLine
 10
75.00003255999999
 20
279.9999744
 30
0.0
 11
125.00003256
 21
279.9999744
 31
0.0
  0
LINE
  5
3B9
330
135
100
AcDbEntity
  8
Ech.1_1
 62
     7
100
AcDbLine
 10
125.00003256
 20
279.9999744
 30
0.0
 11
125.00003256
 21
299.9999744
 31
0.0
  0
ENDBLK
  5
3BA
330
135
100
AcDbEntity
  8
0
100
AcDbBlockEnd
  0
ENDSEC
  0
SECTION
  2
ENTITIES
  0
INSERT
  5
3BB
330
FF
100
AcDbEntity
  8
Ech.1_5
 62
     0
100
AcDbBlockReference
  2
*X45
 10
0.0
 20
0.0
 30
0.0
  0
INSERT
  5
3BC
330
FF
100
AcDbEntity
  8
Ech.1_5
 62
     0
100
AcDbBlockReference
  2
*X46
 10
0.0
 20
0.0
 30
0.0
  0
INSERT
  5
3BD
330
FF
100
AcDbEntity
  8
Ech.1_5
 62
     0
100
AcDbBlockReference
  2
*X47
 10
0.0
 20
0.0
 30
0.0
  0
INSERT
  5
3BE
330
FF
100
AcDbEntity
  8
Ech.1_5
 62
     0
100
AcDbBlockReference
  2
*X48
 10
0.0
 20
0.0
 30
0.0
  0
LWPOLYLINE
  5
3CB
330
FF
100
AcDbEntity
  8
Ech.1_5
  6
Continuous
 62
     7
370
    -3
100
AcDbPolyline
 90
        6
 70
     0
 43
0.0
 10
44837.94786133
 20
-32931.58605499
 10
44837.94786133
 20
-32775.52118411001
 10
44819.97051292
 20
-32759.03568095
 10
44855.92621292999
 20
-32773.14562097
 10
44837.94786133
 20
-32756.65926689
 10
44837.94773071
 20
-32499.72413777
  0
LWPOLYLINE
  5
3CC
330
FF
100
AcDbEntity
  8
Ech.1_5
  6
Continuous
 62
     7
370
    -3
100
AcDbPolyline
 90
        4
 70
     1
 43
0.0
 10
44034.17501078
 20
-32864.87717674
 10
44034.17501078
 20
-32873.87717674
 10
44837.94786133
 20
-32873.87717674
 10
44837.94786133
 20
-32864.87717674
  0
HATCH
  5
3CD
330
FF
100
AcDbEntity
  8
Ech.1_5
  6
Continuous
 62
     7
100
AcDbHatch
 10
0.0
 20
0.0
 30
0.0
210
0.0
220
0.0
230
1.0
  2
CDWK10A
 70
     0
 71
     0
 91
        1
 92
        7
 72
     0
 73
     1
 93
        4
 10
44034.17501078
 20
-32864.87717674
 10
44034.17501078
 20
-32873.87717674
 10
44837.94786133
 20
-32873.87717674
 10
44837.94786133
 20
-32864.87717674
 97
        0
 75
     0
 76
     2
 52
0.0
 41
1.0
 77
     0
 78
     3
 53
45.0
 43
0.0
 44
0.0
 45
0.0
 46
42.00000167
 79
     0
 53
45.0
 43
0.0
 44
10.80000043
 45
0.0
 46
42.00000167
 79
     0
 53
45.0
 43
0.0
 44
21.60000086
 45
0.0
 46
42.00000167
 79
     0
 47
0.775229
 98
        1
 10
0.0
 20
0.0
  0
LWPOLYLINE
  5
3CE
330
FF
100
AcDbEntity
  8
Ech.1_5
  6
Continuous
 62
     7
370
    -3
100
AcDbPolyline
 90
        6
 70
     0
 43
0.0
 10
44034.1751414
 20
-32931.58605499
 10
44034.1751414
 20
-32775.52118411001
 10
44016.19779299999
 20
-32759.03568095
 10
44052.15349301
 20
-32773.14562097
 10
44034.1751414
 20
-32756.65926689
 10
44034.17501078
 20
-32499.72413777
  0
LWPOLYLINE
  5
3CF
330
FF
100
AcDbEntity
  8
Ech.1_5
  6
Continuous
 62
     7
370
    -3
100
AcDbPolyline
 90
       13
 70
     0
 43
0.0
 10
44791.07106945
 20
-32588.29385026
 10
44815.32106945
 20
-32588.29385026
 10
44815.32106945
 20
-32550.29385026
 10
44757.32106945
 20
-32550.29385026
 10
44757.32106945
 20
-32588.29385026
 10
44781.57106944999
 20
-32588.29385026
 10
44781.57106944999
 20
-32872.29385026
 10
44757.32106945
 20
-32872.29385026
 10
44757.32106945
 20
-32910.29385026
 10
44815.32106945
 20
-32910.29385026
 10
44815.32106945
 20
-32872.29385026
 10
44791.07106945
 20
-32872.29385026
 10
44791.07106945
 20
-32588.29385026
  0
LWPOLYLINE
  5
3D0
330
FF
100
AcDbEntity
  8
Ech.1_5
  6
Continuous
 62
     7
370
    -3
100
AcDbPolyline
 90
       13
 70
     0
 43
0.0
 10
44191.07106945
 20
-32588.29385026
 10
44215.32106945
 20
-32588.29385026
 10
44215.32106945
 20
-32550.29385026
 10
44157.32106945
 20
-32550.29385026
 10
44157.32106945
 20
-32588.29385026
 10
44181.57106945
 20
-32588.29385026
 10
44181.57106945
 20
-32872.29385026
 10
44157.32106945
 20
-32872.29385026
 10
44157.32106945
 20
-32910.29385026
 10
44215.32106945
 20
-32910.29385026
 10
44215.32106945
 20
-32872.29385026
 10
44191.07106945
 20
-32872.29385026
 10
44191.07106945
 20
-32588.29385026
  0
LWPOLYLINE
  5
3D1
330
FF
100
AcDbEntity
  8
Ech.1_5
 62
     7
100
AcDbPolyline
 90
        5
 70
     0
 43
0.0
 10
43999.26805001999
 20
-32107.39444403
 10
44133.69682899999
 20
-32107.39444403
 10
44133.69682899999
 20
-32164.11740284
 10
43999.26805001999
 20
-32164.11740284
 10
43999.26805001999
 20
-32107.39444403
  0
LWPOLYLINE
  5
3D2
330
FF
100
AcDbEntity
  8
Ech.1_5
 62
     7
100
AcDbPolyline
 90
        5
 70
     0
 43
0.0
 10
44017.54809579999
 20
-32141.05125516
 10
44067.54809579999
 20
-32141.05125516
 10
44067.54809579999
 20
-32133.63611763
 10
44017.54809579999
 20
-32133.63611763
 10
44017.54809579999
 20
-32141.05125516
  0
LWPOLYLINE
  5
3D3
330
FF
100
AcDbEntity
  8
Ech.1_5
 62
     7
100
AcDbPolyline
 90
        5
 70
     0
 43
0.0
 10
44067.54809579999
 20
-32141.05125516
 10
44117.54809579999
 20
-32141.05125516
 10
44117.54809579999
 20
-32133.63611763
 10
44067.54809579999
 20
-32133.63611763
 10
44067.54809579999
 20
-32141.05125516
  0
LWPOLYLINE
  5
3D4
330
FF
100
AcDbEntity
  8
Ech.1_5
  6
Continuous
 62
     7
370
    -3
100
AcDbPolyline
 90
        4
 70
     1
 43
0.0
 10
44335.13671313
 20
-32551.87733167
 10
44602.16771753
 20
-32551.87733167
 10
44605.52690880001
 20
-32532.87733167
 10
44338.49590441
 20
-32532.87733167
  0
HATCH
  5
3D5
330
FF
100
AcDbEntity
  8
Ech.1_5
  6
Continuous
 62
     7
100
AcDbHatch
 10
0.0
 20
0.0
 30
0.0
210
0.0
220
0.0
230
1.0
  2
ANSI38
 70
     0
 71
     0
 91
        1
 92
        7
 72
     0
 73
     1
 93
        4
 10
44335.13671313
 20
-32551.87733167
 10
44602.16771753
 20
-32551.87733167
 10
44605.52690880001
 20
-32532.87733167
 10
44338.49590441
 20
-32532.87733167
 97
        0
 75
     0
 76
     2
 52
0.0
 41
1.0
 77
     0
 78
     2
 53
45.0
 43
0.0
 44
0.0
 45
-8.48528171
 46
8.48528171
 79
     2
 49
960.0000381500001
 49
0.0
 53
135.0
 43
0.0
 44
0.0
 45
-25.45584513
 46
8.48528171
 79
     2
 49
30.00000119
 49
-18.00000072
 47
0.775229
 98
        1
 10
0.0
 20
0.0
  0
LWPOLYLINE
  5
3D6
330
FF
100
AcDbEntity
  8
Ech.1_5
  6
Continuous
 62
     7
370
    -3
100
AcDbPolyline
 90
        4
 70
     1
 43
0.0
 10
44605.41734562
 20
-32551.87733167
 10
44837.94725956
 20
-32551.87733167
 10
44837.94725956
 20
-32532.87733167
 10
44608.77653688999
 20
-32532.87733167
  0
HATCH
  5
3D7
330
FF
100
AcDbEntity
  8
Ech.1_5
  6
Continuous
 62
     7
100
AcDbHatch
 10
0.0
 20
0.0
 30
0.0
210
0.0
220
0.0
230
1.0
  2
ANSI38
 70
     0
 71
     0
 91
        1
 92
        7
 72
     0
 73
     1
 93
        4
 10
44605.41734562
 20
-32551.87733167
 10
44837.94725956
 20
-32551.87733167
 10
44837.94725956
 20
-32532.87733167
 10
44608.77653688999
 20
-32532.87733167
 97
        0
 75
     0
 76
     2
 52
0.0
 41
1.0
 77
     0
 78
     2
 53
45.0
 43
0.0
 44
0.0
 45
-8.48528171
 46
8.48528171
 79
     2
 49
960.0000381500001
 49
0.0
 53
135.0
 43
0.0
 44
0.0
 45
-25.45584513
 46
8.48528171
 79
     2
 49
30.00000119
 49
-18.00000072
 47
0.775229
 98
        1
 10
0.0
 20
0.0
  0
LWPOLYLINE
  5
3D8
330
FF
100
AcDbEntity
  8
Ech.1_5
  6
Continuous
 62
     7
370
    -3
100
AcDbPolyline
 90
        4
 70
     1
 43
0.0
 10
44335.24627632
 20
-32532.87733167
 10
44034.17448954
 20
-32532.87733167
 10
44034.17448954
 20
-32551.87733167
 10
44331.88708505
 20
-32551.87733167
  0
HATCH
  5
3D9
330
FF
100
AcDbEntity
  8
Ech.1_5
  6
Continuous
 62
     7
100
AcDbHatch
 10
0.0
 20
0.0
 30
0.0
210
0.0
220
0.0
230
1.0
  2
ANSI38
 70
     0
 71
     0
 91
        1
 92
        7
 72
     0
 73
     1
 93
        4
 10
44335.24627632
 20
-32532.87733167
 10
44034.17448954
 20
-32532.87733167
 10
44034.17448954
 20
-32551.87733167
 10
44331.88708505
 20
-32551.87733167
 97
        0
 75
     0
 76
     2
 52
0.0
 41
1.0
 77
     0
 78
     2
 53
45.0
 43
0.0
 44
0.0
 45
-8.48528171
 46
8.48528171
 79
     2
 49
960.0000381500001
 49
0.0
 53
135.0
 43
0.0
 44
0.0
 45
-25.45584513
 46
8.48528171
 79
     2
 49
30.00000119
 49
-18.00000072
 47
0.775229
 98
        1
 10
0.0
 20
0.0
  0
LWPOLYLINE
  5
3DA
330
FF
100
AcDbEntity
  8
Ech.1_5
  6
Continuous
 62
     7
370
    -3
100
AcDbPolyline
 90
        4
 70
     1
 43
0.0
 10
44615.25088354
 20
-32477.87733167
 10
44617.7260771
 20
-32463.87733167
 10
44350.69507270999
 20
-32463.87733167
 10
44348.21987913999
 20
-32477.87733167
  0
HATCH
  5
3DB
330
FF
100
AcDbEntity
  8
Ech.1_5
  6
Continuous
 62
     7
100
AcDbHatch
 10
0.0
 20
0.0
 30
0.0
210
0.0
220
0.0
230
1.0
  2
ANSI31
 70
     0
 71
     0
 91
        1
 92
        7
 72
     0
 73
     1
 93
        4
 10
44615.25088354
 20
-32477.87733167
 10
44617.7260771
 20
-32463.87733167
 10
44350.69507270999
 20
-32463.87733167
 10
44348.21987913999
 20
-32477.87733167
 97
        0
 75
     0
 76
     2
 52
90.0
 41
3.14962605
 77
     0
 78
     1
 53
-45.0
 43
0.0
 44
0.0
 45
7.071067809999999
 46
7.071067809999999
 79
     0
 47
0.775229
 98
        1
 10
0.0
 20
0.0
  0
LWPOLYLINE
  5
3DC
330
FF
100
AcDbEntity
  8
Ech.1_5
  6
Continuous
 62
     7
370
    -3
100
AcDbPolyline
 90
        4
 70
     1
 43
0.0
 10
44837.94727127
 20
-32502.87733167
 10
44837.94725956
 20
-32488.87733167
 10
44616.55571668
 20
-32488.87733167
 10
44614.08055184
 20
-32502.87716917
  0
HATCH
  5
3DD
330
FF
100
AcDbEntity
  8
Ech.1_5
  6
Continuous
 62
     7
100
AcDbHatch
 10
0.0
 20
0.0
 30
0.0
210
0.0
220
0.0
230
1.0
  2
ANSI31
 70
     0
 71
     0
 91
        1
 92
        7
 72
     0
 73
     1
 93
        4
 10
44837.94727127
 20
-32502.87733167
 10
44837.94725956
 20
-32488.87733167
 10
44616.55571668
 20
-32488.87733167
 10
44614.08055184
 20
-32502.87716917
 97
        0
 75
     0
 76
     2
 52
90.0
 41
3.14962605
 77
     0
 78
     1
 53
-45.0
 43
0.0
 44
0.0
 45
7.071067809999999
 46
7.071067809999999
 79
     0
 47
0.775229
 98
        1
 10
0.0
 20
0.0
  0
LWPOLYLINE
  5
3DE
330
FF
100
AcDbEntity
  8
Ech.1_5
  6
Continuous
 62
     7
370
    -3
100
AcDbPolyline
 90
        5
 70
     1
 43
0.0
 10
44334.25149231999
 20
-32518.87733167
 10
44034.17448954
 20
-32518.87733167
 10
44034.17448954
 20
-32532.87733167
 10
44335.24627632
 20
-32532.87733167
 10
44337.07075739
 20
-32522.55784176
  0
HATCH
  5
3DF
330
FF
100
AcDbEntity
  8
Ech.1_5
  6
Continuous
 62
     7
100
AcDbHatch
 10
0.0
 20
0.0
 30
0.0
210
0.0
220
0.0
230
1.0
  2
ANSI31
 70
     0
 71
     0
 91
        1
 92
        7
 72
     0
 73
     1
 93
        5
 10
44334.25149231999
 20
-32518.87733167
 10
44034.17448954
 20
-32518.87733167
 10
44034.17448954
 20
-32532.87733167
 10
44335.24627632
 20
-32532.87733167
 10
44337.07075739
 20
-32522.55784176
 97
        0
 75
     0
 76
     2
 52
90.0
 41
3.14962605
 77
     0
 78
     1
 53
-45.0
 43
0.0
 44
0.0
 45
7.071067809999999
 46
7.071067809999999
 79
     0
 47
0.775229
 98
        1
 10
0.0
 20
0.0
  0
LWPOLYLINE
  5
3E0
330
FF
100
AcDbEntity
  8
Ech.1_5
  6
Continuous
 62
     9
370
    -3
100
AcDbPolyline
 90
       10
 70
     1
 43
0.0
 38
2500.0
 39
-2500.0
 10
44607.35138988
 20
-32522.55784176
 10
44590.68703544
 20
-32500.80276622
 10
44611.31482105
 20
-32513.42026472
 10
44617.0469793
 20
-32516.92648199
 10
44609.97849126
 20
-32507.69863243
 10
44615.25088354
 20
-32477.87733167
 10
44348.21987913999
 20
-32477.87733167
 10
44343.09400001
 20
-32506.86993601
 10
44359.18556328999
 20
-32527.87733167
 10
44606.4109065
 20
-32527.87733167
  0
HATCH
  5
3E1
330
FF
100
AcDbEntity
  8
Ech.1_5
  6
Continuous
 62
     9
100
AcDbHatch
 10
0.0
 20
0.0
 30
0.0
210
0.0
220
0.0
230
1.0
  2
AR-CONC
 70
     0
 71
     0
 91
        1
 92
        7
 72
     0
 73
     1
 93
       10
 10
44607.35138988
 20
-32522.55784176
 10
44590.68703544
 20
-32500.80276622
 10
44611.31482105
 20
-32513.42026472
 10
44617.0469793
 20
-32516.92648199
 10
44609.97849126
 20
-32507.69863243
 10
44615.25088354
 20
-32477.87733167
 10
44348.21987913999
 20
-32477.87733167
 10
44343.09400001
 20
-32506.86993601
 10
44359.18556328999
 20
-32527.87733167
 10
44606.4109065
 20
-32527.87733167
 97
        0
 75
     0
 76
     2
 52
0.0
 41
0.06299252
 77
     0
 78
    13
 53
50.0
 43
0.0
 44
0.0
 45
-10.04951288
 46
0.87921838
 79
     2
 49
1.050822989999999
 49
-11.55905264
 53
355.0
 43
0.0
 44
0.0
 45
-1.944041389999999
 46
10.53894322
 79
     2
 49
0.84065802
 49
-9.24724211
 53
100.45140076
 43
0.83745904
 44
-0.073268
 45
-8.10547867
 46
-9.65971878
 79
     2
 49
0.8930620099999998
 49
-9.82368293
 53
46.18420029
 43
0.0
 44
2.802195109999999
 45
-14.95308477
 46
2.31908205
 79
     2
 49
1.57623401
 49
-17.33857753
 53
96.63559723
 43
1.246090069999999
 44
2.60893706
 45
-13.09553414
 46
-13.64833836
 79
     2
 49
1.33959307
 49
-14.73552249
 53
351.1842041
 43
0.0
 44
2.802195109999999
 45
13.09552173
 46
13.64835069
 79
     2
 49
1.26098802
 49
-13.87086317
 53
21.0
 43
1.401097079999999
 44
2.101645979999999
 45
-8.36324849
 46
5.64108224
 79
     2
 49
1.050822989999999
 49
-11.55905264
 53
326.0
 43
1.401097079999999
 44
2.101645979999999
 45
3.40908414
 46
10.1600574
 79
     2
 49
0.84065802
 49
-9.24724211
 53
71.45140076
 43
2.09803394
 44
1.631554989999999
 45
-11.77233597
 46
-4.51896637
 79
     2
 49
0.8930620099999998
 49
-9.82368293
 53
37.5
 43
0.0
 44
0.0
 45
0.17037085
 46
4.664166709999999
 79
     6
 49
0.01
 49
-9.135153909999999
 49
0.01
 49
-9.38735213
 49
0.01
 49
-9.282268659999999
 53
7.499999999999999
 43
0.0
 44
0.0
 45
3.68586042
 46
5.526091919999999
 79
     6
 49
0.01
 49
-5.35219105
 49
0.01
 49
-8.92498888
 49
0.01
 49
-3.537771039999999
 53
-32.5
 43
-3.124447149999999
 44
0.0
 45
7.479371099999999
 46
-0.31601602
 79
     6
 49
0.01
 49
-3.502743059999999
 49
0.01
 49
-10.92855947
 49
0.01
 49
-14.50135729
 53
-42.5
 43
-4.52554423
 44
0.0
 45
8.17100583
 46
1.402568239999999
 79
     6
 49
0.01
 49
-4.553566049999999
 49
0.01
 49
-7.257684339999999
 49
0.01
 49
-10.29806534
 47
0.775229
 98
        1
 10
0.0
 20
0.0
  0
3DFACE
  5
3E2
102
{ACAD_REACTORS
330
3E3
102
}
330
FF
100
AcDbEntity
  8
Ech.1_5
  6
Continuous
 62
     9
370
    -3
100
AcDbFace
 10
44331.92757085
 20
-32511.60114272
 30
2500.0
 11
44340.32038548
 21
-32522.55784176
 31
2500.0
 12
44339.37990210999
 22
-32527.87733167
 32
2500.0
 13
44358.53678632
 23
-32527.87733167
 33
2500.0
  0
HATCH
  5
3E3
330
FF
100
AcDbEntity
  8
Ech.1_5
  6
Continuous
 62
     9
100
AcDbHatch
 10
0.0
 20
0.0
 30
0.0
210
0.0
220
0.0
230
1.0
  2
AR-CONC
 70
     0
 71
     1
 91
        1
 92
        7
 72
     0
 73
     1
 93
        4
 10
44331.92757085
 20
-32511.60114272
 10
44340.32038548
 20
-32522.55784176
 10
44339.37990210999
 20
-32527.87733167
 10
44358.53678632
 20
-32527.87733167
 97
        1
330
3E2
 75
     0
 76
     2
 52
0.0
 41
0.06299252
 77
     0
 78
    13
 53
50.0
 43
0.0
 44
0.0
 45
-10.04951288
 46
0.87921838
 79
     2
 49
1.050822989999999
 49
-11.55905264
 53
355.0
 43
0.0
 44
0.0
 45
-1.944041389999999
 46
10.53894322
 79
     2
 49
0.84065802
 49
-9.24724211
 53
100.45140076
 43
0.83745904
 44
-0.073268
 45
-8.10547867
 46
-9.65971878
 79
     2
 49
0.8930620099999998
 49
-9.82368293
 53
46.18420029
 43
0.0
 44
2.802195109999999
 45
-14.95308477
 46
2.31908205
 79
     2
 49
1.57623401
 49
-17.33857753
 53
96.63559723
 43
1.246090069999999
 44
2.60893706
 45
-13.09553414
 46
-13.64833836
 79
     2
 49
1.33959307
 49
-14.73552249
 53
351.1842041
 43
0.0
 44
2.802195109999999
 45
13.09552173
 46
13.64835069
 79
     2
 49
1.26098802
 49
-13.87086317
 53
21.0
 43
1.401097079999999
 44
2.101645979999999
 45
-8.36324849
 46
5.64108224
 79
     2
 49
1.050822989999999
 49
-11.55905264
 53
326.0
 43
1.401097079999999
 44
2.101645979999999
 45
3.40908414
 46
10.1600574
 79
     2
 49
0.84065802
 49
-9.24724211
 53
71.45140076
 43
2.09803394
 44
1.631554989999999
 45
-11.77233597
 46
-4.51896637
 79
     2
 49
0.8930620099999998
 49
-9.82368293
 53
37.5
 43
0.0
 44
0.0
 45
0.17037085
 46
4.664166709999999
 79
     6
 49
0.01
 49
-9.135153909999999
 49
0.01
 49
-9.38735213
 49
0.01
 49
-9.282268659999999
 53
7.499999999999999
 43
0.0
 44
0.0
 45
3.68586042
 46
5.526091919999999
 79
     6
 49
0.01
 49
-5.35219105
 49
0.01
 49
-8.92498888
 49
0.01
 49
-3.537771039999999
 53
-32.5
 43
-3.124447149999999
 44
0.0
 45
7.479371099999999
 46
-0.31601602
 79
     6
 49
0.01
 49
-3.502743059999999
 49
0.01
 49
-10.92855947
 49
0.01
 49
-14.50135729
 53
-42.5
 43
-4.52554423
 44
0.0
 45
8.17100583
 46
1.402568239999999
 79
     6
 49
0.01
 49
-4.553566049999999
 49
0.01
 49
-7.257684339999999
 49
0.01
 49
-10.29806534
 47
0.775229
 98
        1
 10
0.0
 20
0.0
  0
LWPOLYLINE
  5
3E4
330
FF
100
AcDbEntity
  8
Ech.1_5
  6
Continuous
 62
     7
370
    -3
100
AcDbPolyline
 90
        4
 70
     1
 43
0.0
 10
44606.4109065
 20
-32527.87733167
 10
44339.37990210999
 20
-32527.87733167
 10
44338.49590441
 20
-32532.87733167
 10
44605.52690880001
 20
-32532.87733167
  0
HATCH
  5
3E5
330
FF
100
AcDbEntity
  8
Ech.1_5
  6
Continuous
 62
     7
100
AcDbHatch
 10
0.0
 20
0.0
 30
0.0
210
0.0
220
0.0
230
1.0
  2
ANSI31
 70
     0
 71
     0
 91
        1
 92
        7
 72
     0
 73
     1
 93
        4
 10
44606.4109065
 20
-32527.87733167
 10
44339.37990210999
 20
-32527.87733167
 10
44338.49590441
 20
-32532.87733167
 10
44605.52690880001
 20
-32532.87733167
 97
        0
 75
     0
 76
     2
 52
0.0
 41
1.574813019999999
 77
     0
 78
     1
 53
45.0
 43
0.0
 44
0.0
 45
3.535533909999999
 46
-3.535533909999999
 79
     0
 47
0.775229
 98
        1
 10
0.0
 20
0.0
  0
LWPOLYLINE
  5
3E6
330
FF
100
AcDbEntity
  8
Ech.1_5
  6
Continuous
 62
     7
370
    -3
100
AcDbPolyline
 90
        8
 70
     1
 43
0.0
 10
44625.63628216
 20
-32522.87733167
 10
44630.03816348999
 20
-32528.62403055
 10
44620.64327728
 20
-32522.87741455
 10
44610.5445323
 20
-32522.87733167
 10
44609.71382997
 20
-32527.57588645
 10
44608.77653688999
 20
-32532.87733167
 10
44837.94774909999
 20
-32532.87733167
 10
44837.94777448
 20
-32522.87733167
  0
HATCH
  5
3E7
330
FF
100
AcDbEntity
  8
Ech.1_5
  6
Continuous
 62
     7
100
AcDbHatch
 10
0.0
 20
0.0
 30
0.0
210
0.0
220
0.0
230
1.0
  2
ANSI31
 70
     0
 71
     0
 91
        1
 92
        7
 72
     0
 73
     1
 93
        8
 10
44625.63628216
 20
-32522.87733167
 10
44630.03816348999
 20
-32528.62403055
 10
44620.64327728
 20
-32522.87741455
 10
44610.5445323
 20
-32522.87733167
 10
44609.71382997
 20
-32527.57588645
 10
44608.77653688999
 20
-32532.87733167
 10
44837.94774909999
 20
-32532.87733167
 10
44837.94777448
 20
-32522.87733167
 97
        0
 75
     0
 76
     2
 52
0.0
 41
1.574813019999999
 77
     0
 78
     1
 53
45.0
 43
0.0
 44
0.0
 45
3.535533909999999
 46
-3.535533909999999
 79
     0
 47
0.775229
 98
        1
 10
0.0
 20
0.0
  0
LWPOLYLINE
  5
3E8
330
FF
100
AcDbEntity
  8
Ech.1_5
  6
Continuous
 62
     7
370
    -3
100
AcDbPolyline
 90
        5
 70
     1
 43
0.0
 10
44614.08055184
 20
-32502.87716917
 10
44613.37463249999
 20
-32506.86993601
 10
44625.63628216
 20
-32522.87741282
 10
44837.94777448
 20
-32522.87733167
 10
44837.94777448
 20
-32502.877245
  0
HATCH
  5
3E9
330
FF
100
AcDbEntity
  8
Ech.1_5
  6
Continuous
 62
     7
100
AcDbHatch
 10
0.0
 20
0.0
 30
0.0
210
0.0
220
0.0
230
1.0
  2
DOTS2
 70
     0
 71
     0
 91
        1
 92
        7
 72
     0
 73
     1
 93
        5
 10
44614.08055184
 20
-32502.87716917
 10
44613.37463249999
 20
-32506.86993601
 10
44625.63628216
 20
-32522.87741282
 10
44837.94777448
 20
-32522.87733167
 10
44837.94777448
 20
-32502.877245
 97
        0
 75
     0
 76
     2
 52
0.0
 41
4.72440952
 77
     0
 78
     1
 53
0.0
 43
0.0
 44
0.0
 45
3.75
 46
3.535
 79
     2
 49
0.0
 49
-3.535
 47
0.775229
 98
        1
 10
0.0
 20
0.0
  0
LWPOLYLINE
  5
3EA
330
FF
100
AcDbEntity
  8
Ech.1_5
  6
Continuous
 62
     7
370
    -3
100
AcDbPolyline
 90
        5
 70
     1
 43
0.0
 10
44610.5445457
 20
-32522.87725584
 10
44620.64327728
 20
-32522.87741455
 10
44602.20820334
 20
-32511.60114272
 10
44602.20820334
 20
-32511.60114272
 10
44610.60101797
 20
-32522.55784176
  0
HATCH
  5
3EB
330
FF
100
AcDbEntity
  8
Ech.1_5
  6
Continuous
 62
     7
100
AcDbHatch
 10
0.0
 20
0.0
 30
0.0
210
0.0
220
0.0
230
1.0
  2
DOTS2
 70
     0
 71
     0
 91
        1
 92
        7
 72
     0
 73
     1
 93
        4
 10
44610.5445457
 20
-32522.87725584
 10
44620.64327728
 20
-32522.87741455
 10
44602.20820334
 20
-32511.60114272
 10
44610.60101797
 20
-32522.55784176
 97
        0
 75
     0
 76
     2
 52
0.0
 41
4.72440952
 77
     0
 78
     1
 53
0.0
 43
0.0
 44
0.0
 45
3.75
 46
3.535
 79
     2
 49
0.0
 49
-3.535
 47
0.775229
 98
        1
 10
0.0
 20
0.0
  0
LWPOLYLINE
  5
3EC
330
FF
100
AcDbEntity
  8
Ech.1_5
  6
Continuous
 62
     7
370
    -3
100
AcDbPolyline
 90
        6
 70
     0
 43
0.0
 10
44622.57909485999
 20
-32436.42806487
 10
44609.97849126
 20
-32507.69863243
 10
44617.0469793
 20
-32516.92648199
 10
44590.68703544
 20
-32500.80276622
 10
44607.35138988
 20
-32522.55784176
 10
44599.3342063
 20
-32567.90402053
  0
LWPOLYLINE
  5
3ED
330
FF
100
AcDbEntity
  8
Ech.1_5
  6
Continuous
 62
     7
370
    -3
100
AcDbPolyline
 90
        6
 70
     0
 43
0.0
 10
44625.82872295
 20
-32436.42806487
 10
44613.37463249999
 20
-32506.86993601
 10
44630.03816348999
 20
-32528.62403055
 10
44602.20820334
 20
-32511.60114272
 10
44610.60101797
 20
-32522.55784176
 10
44602.58383439
 20
-32567.90402053
  0
LWPOLYLINE
  5
3EE
330
FF
100
AcDbEntity
  8
Ech.1_5
  6
Continuous
 62
     7
370
    -3
100
AcDbPolyline
 90
        6
 70
     0
 43
0.0
 10
44352.29846238
 20
-32436.42806487
 10
44339.69785878
 20
-32507.69863243
 10
44346.76634681999
 20
-32516.92648199
 10
44320.40640295999
 20
-32500.80276622
 10
44337.07075739
 20
-32522.55784176
 10
44329.05357382
 20
-32567.90402053
  0
LWPOLYLINE
  5
3EF
330
FF
100
AcDbEntity
  8
Ech.1_5
  6
Continuous
 62
     7
370
    -3
100
AcDbPolyline
 90
        6
 70
     0
 43
0.0
 10
44355.54809047
 20
-32436.42806487
 10
44343.09400001
 20
-32506.86993601
 10
44359.75753101
 20
-32528.62403055
 10
44331.92757085
 20
-32511.60114272
 10
44340.32038548
 20
-32522.55784176
 10
44332.30320190999
 20
-32567.90402053
  0
LINE
  5
3F0
330
FF
100
AcDbEntity
  8
Ech.1_5
  6
CADWORK_22
 62
     1
370
    35
100
AcDbLine
 10
44034.17448954
 20
-32551.87733167
 30
0.0
 11
44331.88708505
 21
-32551.87733167
 31
0.0
  0
LINE
  5
3F1
330
FF
100
AcDbEntity
  8
Ech.1_5
  6
CADWORK_22
 62
     1
370
    35
100
AcDbLine
 10
44338.49590441
 20
-32532.87733167
 30
0.0
 11
44605.52690880001
 21
-32532.87733167
 31
0.0
  0
LINE
  5
3F2
330
FF
100
AcDbEntity
  8
Ech.1_5
  6
CADWORK_22
 62
     1
370
    35
100
AcDbLine
 10
44608.77653688999
 20
-32532.87733167
 30
0.0
 11
44837.94774909999
 21
-32532.87733167
 31
0.0
  0
LWPOLYLINE
  5
3F3
330
FF
100
AcDbEntity
  8
Ech.1_5
  6
Continuous
 62
     7
370
    -3
100
AcDbPolyline
 90
        5
 70
     0
 43
0.0
 10
44930.96327181
 20
-33299.71470120001
 10
44930.96327181
 20
-31944.7147012
 10
43945.96327180999
 20
-31944.7147012
 10
43945.96327180999
 20
-33299.71470120001
 10
44930.96327181
 20
-33299.71470120001
  0
LWPOLYLINE
  5
3F4
330
FF
100
AcDbEntity
  8
Ech.1_5
  6
Continuous
 62
     7
370
    -3
100
AcDbPolyline
 90
        2
 70
     0
 43
0.0
 10
44837.94783169999
 20
-32698.21051007
 42
0.5428020254394169
 10
44791.07106945
 20
-32667.75256111449
 42
0.5428020254394169
  0
LWPOLYLINE
  5
3F5
330
FF
100
AcDbEntity
  8
Ech.1_5
  6
Continuous
 62
     7
370
    -3
100
AcDbPolyline
 90
       41
 70
     0
 43
0.0
 10
44187.22188877
 20
-32954.05950332
 10
44193.98402250999
 20
-32953.30785677
 10
44200.70446545
 20
-32951.05755128
 10
44207.34178381
 20
-32947.32246072
 10
44213.85505634
 20
-32942.12561318
 10
44220.20412653
 20
-32935.49904893001
 10
44226.34985025
 20
-32927.48362297
 10
44232.25433707999
 20
-32918.12875305
 10
44237.8811839
 20
-32907.49211506
 10
44243.19569931
 20
-32895.6392874
 10
44248.16511757
 20
-32882.64334671
 10
44252.75880055
 20
-32868.58441727
 10
44256.94842669
 20
-32853.54917706
 10
44260.70816553
 20
-32837.63032335
 10
44264.01483703
 20
-32820.92600115
 10
44266.84805447999
 20
-32803.53919816
 10
44269.19035012999
 20
-32785.57710981
 10
44271.02728296
 20
-32767.15047835
 10
44272.34752767
 20
-32748.37291009
 10
44273.14294451
 20
-32729.36017497
 10
44273.40862947
 20
-32710.22949283
 10
44273.14294451
 20
-32691.0988107
 10
44272.34752767
 20
-32672.08607558
 10
44271.02728296
 20
-32653.30850732
 10
44269.19035012999
 20
-32634.88187586
 10
44266.84805447999
 20
-32616.91978751
 10
44264.01483703
 20
-32599.53298452
 10
44260.70816553
 20
-32582.82866232
 10
44256.94842669
 20
-32566.9098086
 10
44252.75880055
 20
-32551.8745684
 10
44248.16511757
 20
-32537.81563896
 10
44243.19569931
 20
-32524.81969827
 10
44237.8811839
 20
-32512.96687061
 10
44232.25433707999
 20
-32502.33023262
 10
44226.34985025
 20
-32492.9753627
 10
44220.20412653
 20
-32484.95993673
 10
44213.85505634
 20
-32478.33337249
 10
44207.34178381
 20
-32473.13652495
 10
44200.70446545
 20
-32469.40143439
 10
44193.98402250999
 20
-32467.1511289
 10
44187.22188877
 20
-32466.39948235
  0
LWPOLYLINE
  5
3F6
330
FF
100
AcDbEntity
  8
Ech.1_5
  6
Continuous
 62
     7
370
    -3
100
AcDbPolyline
 90
       41
 70
     0
 43
0.0
 10
44187.22188877
 20
-32466.39948235
 10
44180.45975503
 20
-32467.1511289
 10
44173.7393121
 20
-32469.40143439
 10
44167.10199373
 20
-32473.13652495
 10
44160.58872120999
 20
-32478.33337249
 10
44154.23965101999
 20
-32484.95993673
 10
44148.09392729
 20
-32492.9753627
 10
44142.18944046
 20
-32502.33023262
 10
44136.56259365
 20
-32512.96687061
 10
44131.24807823
 20
-32524.81969827
 10
44126.27865998
 20
-32537.81563896
 10
44121.68497699
 20
-32551.8745684
 10
44117.49535085999
 20
-32566.9098086
 10
44113.73561201999
 20
-32582.82866232
 10
44110.42894051
 20
-32599.53298452
 10
44107.59572307
 20
-32616.91978751
 10
44105.25342741
 20
-32634.88187586
 10
44103.41649458
 20
-32653.30850732
 10
44102.09624987
 20
-32672.08607558
 10
44101.30083303
 20
-32691.0988107
 10
44101.03514807
 20
-32710.22949283
 10
44101.30083303
 20
-32729.36017497
 10
44102.09624987
 20
-32748.37291009
 10
44103.41649458
 20
-32767.15047835
 10
44105.25342741
 20
-32785.57710981
 10
44107.59572307
 20
-32803.53919816
 10
44110.42894051
 20
-32820.92600115
 10
44113.73561201999
 20
-32837.63032335
 10
44117.49535085999
 20
-32853.54917706
 10
44121.68497699
 20
-32868.58441727
 10
44126.27865998
 20
-32882.64334671
 10
44131.24807823
 20
-32895.6392874
 10
44136.56259365
 20
-32907.49211506
 10
44142.18944046
 20
-32918.12875305
 10
44148.09392729
 20
-32927.48362297
 10
44154.23965101999
 20
-32935.49904893001
 10
44160.58872120999
 20
-32942.12561318
 10
44167.10199373
 20
-32947.32246072
 10
44173.7393121
 20
-32951.05755128
 10
44180.45975503
 20
-32953.30785677
 10
44187.22188877
 20
-32954.05950332
  0
LINE
  5
3F7
330
FF
100
AcDbEntity
  8
Ech.1_5
  6
Continuous
 62
     7
370
    -3
100
AcDbLine
 10
44226.34985025
 20
-32492.9753627
 30
0.0
 11
44539.17352990999
 21
-32269.09465679
 31
0.0
  0
LWPOLYLINE
  5
3F8
330
FF
100
AcDbEntity
  8
Ech.1_5
  6
Continuous
 62
     7
370
    -3
100
AcDbPolyline
 90
        5
 70
     0
 43
0.0
 10
44554.05367173
 20
-32226.53473841
 42
1.3027756
 10
44605.57431274
 20
-32226.53473841
 42
-1.303000839999999
 10
44554.05597437
 20
-32226.52613338
 10
44578.90534344
 20
-32133.6631802
 42
0.65857145
 10
44540.43495435
 20
-32103.31976359
  0
LWPOLYLINE
  5
3F9
330
FF
100
AcDbEntity
  8
Ech.1_5
  6
Continuous
 62
     7
370
    -3
100
AcDbPolyline
 90
       11
 70
     0
 43
0.0
 10
44658.90764627999
 20
-32226.53473915
 42
-1.30277558
 10
44607.38700507
 20
-32226.53473841
 42
0.99171268
 10
44658.78935534
 20
-32240.74900949
 42
-0.8697691499999999
 10
44606.48065905999
 20
-32233.42917235
 42
-0.06555475
 10
44607.38930769999
 20
-32226.52613338
 10
44632.23867677999
 20
-32133.6631802
 42
1.303226189999999
 10
44580.72264104
 20
-32133.6631802
 10
44605.57201011
 20
-32226.52613338
 42
-0.06553249
 10
44606.48065905999
 20
-32233.4268079
 42
0.06544882
 10
44605.57431294
 20
-32226.53473915
 42
-1.30277558
 10
44554.05367173
 20
-32226.53473841
  0
LWPOLYLINE
  5
3FA
330
FF
100
AcDbEntity
  8
Ech.1_5
  6
Continuous
 62
     7
370
    -3
100
AcDbPolyline
 90
        3
 70
     0
 43
0.0
 10
44658.78935534
 20
-32100.11434933
 42
0.4812565700000001
 10
44634.05597437
 20
-32133.6631802
 10
44658.78935534
 20
-32226.09268183
  0
LWPOLYLINE
  5
3FB
330
FF
100
AcDbEntity
  8
Ech.1_5
  6
Continuous
 62
     7
370
    -3
100
AcDbPolyline
 90
        9
 70
     0
 43
0.0
 10
44820.79955085
 20
-32100.11287538
 42
0.5046877800000001
 10
44794.05597437
 20
-32133.6631802
 10
44818.90534344
 20
-32226.52613338
 42
-1.303000909999999
 10
44767.38700516
 20
-32226.53473805
 42
0.06544841
 10
44766.48065905999
 20
-32233.4268079
 42
0.06544883
 10
44765.57431274
 20
-32226.53473841
 42
-1.14006421
 10
44713.14732573
 20
-32233.42917237
 42
0.06547109
 10
44712.24097941
 20
-32226.53473841
 42
-0.28915003
 10
44703.78935533999
 20
-32253.71394686
  0
LWPOLYLINE
  5
3FC
330
FF
100
AcDbEntity
  8
Ech.1_5
  6
Continuous
 62
     7
370
    -3
100
AcDbPolyline
 90
       10
 70
     0
 43
0.0
 10
44767.38930769999
 20
-32226.52613338
 10
44792.23867677999
 20
-32133.6631802
 42
1.303226189999999
 10
44740.72264104
 20
-32133.6631802
 10
44765.57201011
 20
-32226.52613338
 42
-0.06555475
 10
44766.48065905999
 20
-32233.42917235
 42
-0.06547109
 10
44767.38700507
 20
-32226.53473841
 42
1.3027756
 10
44818.90764607999
 20
-32226.53473841
 42
-1.14006421
 10
44766.48065905999
 20
-32233.42917237
 42
0.06547109
 10
44765.57431274
 20
-32226.53473841
 42
-0.0654484
 10
44766.48065905999
 20
-32233.4268079
  0
ARC
  5
3FD
330
FF
100
AcDbEntity
  8
Ech.1_5
  6
Continuous
 62
     7
370
    -3
100
AcDbCircle
 10
44793.1473248
 20
-32233.42798954
 30
0.0
 40
26.66666577
100
AcDbArc
 50
164.99996623
 51
179.99746111
  0
LWPOLYLINE
  5
3FE
330
FF
100
AcDbEntity
  8
Ech.1_5
  6
Continuous
 62
     7
370
    -3
100
AcDbPolyline
 90
       10
 70
     0
 43
0.0
 10
44703.78935533999
 20
-32194.95072644
 10
44712.23867677999
 20
-32226.52613338
 42
-0.06555475
 10
44713.14732573
 20
-32233.42917235
 42
-0.0654711
 10
44714.05367183
 20
-32226.53473805
 42
0.06544841
 10
44713.14732573
 20
-32233.4268079
 42
0.06544883
 10
44712.24097941
 20
-32226.53473841
 42
-0.0654484
 10
44713.14732573
 20
-32233.42680788
 42
-0.06553249
 10
44714.05597437
 20
-32226.52613338
 10
44738.90534344
 20
-32133.6631802
 42
0.61006648
 10
44703.78935533999
 20
-32101.79055046
  0
ARC
  5
3FF
330
FF
100
AcDbEntity
  8
Ech.1_5
  6
Continuous
 62
     7
370
    -3
100
AcDbCircle
 10
44739.81399223999
 20
-32233.42799013
 30
0.0
 40
26.66666518
100
AcDbArc
 50
165.01910462
 51
14.98089373
  0
ARC
  5
400
330
FF
100
AcDbEntity
  8
Ech.1_5
  6
Continuous
 62
     7
370
    -3
100
AcDbCircle
 10
44739.81399223999
 20
-32233.42799013
 30
0.0
 40
26.66666518
100
AcDbArc
 50
165.01910462
 51
14.98089538
  0
LWPOLYLINE
  5
401
330
FF
100
AcDbEntity
  8
Ech.1_5
  6
Continuous
 62
     7
370
    -3
100
AcDbPolyline
 90
        6
 70
     0
 43
0.0
 10
44658.78935534
 20
-32226.09268183
 10
44658.90534344
 20
-32226.52613338
 42
-0.06553248
 10
44659.81399239
 20
-32233.4268079
 42
-0.06965082
 10
44658.78935534
 20
-32240.74901718
 42
0.13571822
 10
44658.90764627999
 20
-32226.53473915
 42
-1.30277558
 10
44607.38700507
 20
-32226.53473841
  0
ARC
  5
402
330
FF
100
AcDbEntity
  8
Ech.1_5
  6
Continuous
 62
     7
370
    -3
100
AcDbCircle
 10
44633.14732556999
 20
-32233.42799013
 30
0.0
 40
26.66666518
100
AcDbArc
 50
344.06550922
 51
14.98089538
  0
ARC
  5
403
330
FF
100
AcDbEntity
  8
Ech.1_5
  6
Continuous
 62
     7
370
    -3
100
AcDbCircle
 10
44633.1473248
 20
-32233.42798954
 30
0.0
 40
26.66666577
100
AcDbArc
 50
344.0655108
 51
14.98089373
  0
LWPOLYLINE
  5
404
330
FF
100
AcDbEntity
  8
Ech.1_5
  6
Continuous
 62
     7
370
    -3
100
AcDbPolyline
 90
        3
 70
     0
 43
0.0
 10
44527.63530326
 20
-32134.58247412
 10
44552.23867677999
 20
-32226.52613338
 42
-0.39932173
 10
44534.68942837
 20
-32258.79977002
  0
LWPOLYLINE
  5
405
330
FF
100
AcDbEntity
  8
Ech.1_5
  6
Continuous
 62
     7
370
    -3
100
AcDbPolyline
 90
        5
 70
     0
 43
0.0
 10
44598.78935534
 20
-32269.09465679
 10
44658.78935534
 20
-32269.09465679
 10
44658.78935534
 20
-32308.09465679
 10
44598.78935534
 20
-32308.09465679
 10
44598.78935534
 20
-32269.09465679
  0
LWPOLYLINE
  5
406
330
FF
100
AcDbEntity
  8
Ech.1_5
  6
Continuous
 62
     7
370
    -3
100
AcDbPolyline
 90
        5
 70
     0
 43
0.0
 10
44703.78935533999
 20
-32269.09465679
 10
44763.78935534
 20
-32269.09465679
 10
44763.78935534
 20
-32308.09465679
 10
44703.78935533999
 20
-32308.09465679
 10
44703.78935533999
 20
-32269.09465679
  0
ARC
  5
407
330
FF
100
AcDbEntity
  8
Ech.1_5
  6
Continuous
 62
     7
370
    -3
100
AcDbCircle
 10
44846.48065507999
 20
-32233.42799283
 30
0.0
 40
26.66666218
100
AcDbArc
 50
165.01909688
 51
231.96906399
  0
LWPOLYLINE
  5
408
330
FF
100
AcDbEntity
  8
Ech.1_5
  6
Continuous
 62
     7
370
    -3
100
AcDbPolyline
 90
        4
 70
     0
 43
0.0
 10
44820.7203384
 20
-32226.53473841
 42
0.30072765
 10
44830.05167156
 20
-32254.43273813
 42
-0.30081874
 10
44820.72264104
 20
-32226.52613338
 10
44839.92630168
 20
-32154.76138821
  0
LWPOLYLINE
  5
409
330
FF
100
AcDbEntity
  8
Ech.1_5
  6
Continuous
 62
     7
370
    -3
100
AcDbPolyline
 90
        4
 70
     0
 43
0.0
 10
44658.78935534
 20
-32088.09465679
 10
44703.78935533999
 20
-32308.09465679
 10
44658.78935534
 20
-32308.09465679
 10
44703.78935533999
 20
-32088.09465679
  0
LWPOLYLINE
  5
40A
330
FF
100
AcDbEntity
  8
Ech.1_5
  6
Continuous
 62
     7
370
    -3
100
AcDbPolyline
 90
        5
 70
     1
 43
0.0
 10
44703.78935533999
 20
-32260.09465679
 10
44703.78935533999
 20
-32269.09465679
 10
44823.88688397
 20
-32269.09465679
 10
44825.49777925999
 20
-32266.26540188
 10
44827.87263830999
 20
-32260.09465679
  0
HATCH
  5
40B
330
FF
100
AcDbEntity
  8
Ech.1_5
  6
Continuous
 62
     7
100
AcDbHatch
 10
0.0
 20
0.0
 30
0.0
210
0.0
220
0.0
230
1.0
  2
CDWK10A
 70
     0
 71
     0
 91
        1
 92
        7
 72
     0
 73
     1
 93
        5
 10
44703.78935533999
 20
-32260.09465679
 10
44703.78935533999
 20
-32269.09465679
 10
44823.88688397
 20
-32269.09465679
 10
44825.49777925999
 20
-32266.26540188
 10
44827.87263830999
 20
-32260.09465679
 97
        0
 75
     0
 76
     2
 52
0.0
 41
1.0
 77
     0
 78
     3
 53
45.0
 43
0.0
 44
0.0
 45
0.0
 46
42.00000167
 79
     0
 53
45.0
 43
0.0
 44
10.80000043
 45
0.0
 46
42.00000167
 79
     0
 53
45.0
 43
0.0
 44
21.60000086
 45
0.0
 46
42.00000167
 79
     0
 47
0.775229
 98
        1
 10
0.0
 20
0.0
  0
LWPOLYLINE
  5
40C
330
FF
100
AcDbEntity
  8
Ech.1_5
  6
Continuous
 62
     7
370
    -3
100
AcDbPolyline
 90
        5
 70
     1
 43
0.0
 10
44535.18777558
 20
-32260.09465679
 10
44537.56263462
 20
-32266.26540188
 10
44539.17352990999
 20
-32269.09465679
 10
44658.78935534
 20
-32269.09465679
 10
44658.78935534
 20
-32260.09465679
  0
HATCH
  5
40D
330
FF
100
AcDbEntity
  8
Ech.1_5
  6
Continuous
 62
     7
100
AcDbHatch
 10
0.0
 20
0.0
 30
0.0
210
0.0
220
0.0
230
1.0
  2
CDWK10A
 70
     0
 71
     0
 91
        1
 92
        7
 72
     0
 73
     1
 93
        5
 10
44535.18777558
 20
-32260.09465679
 10
44537.56263462
 20
-32266.26540188
 10
44539.17352990999
 20
-32269.09465679
 10
44658.78935534
 20
-32269.09465679
 10
44658.78935534
 20
-32260.09465679
 97
        0
 75
     0
 76
     2
 52
0.0
 41
1.0
 77
     0
 78
     3
 53
45.0
 43
0.0
 44
0.0
 45
0.0
 46
42.00000167
 79
     0
 53
45.0
 43
0.0
 44
10.80000043
 45
0.0
 46
42.00000167
 79
     0
 53
45.0
 43
0.0
 44
21.60000086
 45
0.0
 46
42.00000167
 79
     0
 47
0.775229
 98
        1
 10
0.0
 20
0.0
  0
LWPOLYLINE
  5
40E
330
FF
100
AcDbEntity
  8
Ech.1_5
  6
Continuous
 62
     7
370
    -3
100
AcDbPolyline
 90
        5
 70
     0
 43
0.0
 10
44658.78935534
 20
-32088.09465679
 10
44703.78935533999
 20
-32088.09465679
 10
44703.78935533999
 20
-32308.09465679
 10
44658.78935534
 20
-32308.09465679
 10
44658.78935534
 20
-32088.09465679
  0
LWPOLYLINE
  5
40F
330
FF
100
AcDbEntity
  8
Ech.1_5
  6
Continuous
 62
     7
370
    -3
100
AcDbPolyline
 90
        6
 70
     1
 43
0.0
 10
44812.25002715
 20
-32085.09713717
 10
44799.55124357999
 20
-32069.09465679
 10
44563.50917031
 20
-32069.09465679
 10
44550.81038673999
 20
-32085.09713717
 10
44549.10368642999
 20
-32088.09465679
 10
44813.95672746
 20
-32088.09465679
  0
HATCH
  5
410
330
FF
100
AcDbEntity
  8
Ech.1_5
  6
Continuous
 62
     7
100
AcDbHatch
 10
0.0
 20
0.0
 30
0.0
210
0.0
220
0.0
230
1.0
  2
ANSI38
 70
     0
 71
     0
 91
        1
 92
        7
 72
     0
 73
     1
 93
        6
 10
44812.25002715
 20
-32085.09713717
 10
44799.55124357999
 20
-32069.09465679
 10
44563.50917031
 20
-32069.09465679
 10
44550.81038673999
 20
-32085.09713717
 10
44549.10368642999
 20
-32088.09465679
 10
44813.95672746
 20
-32088.09465679
 97
        0
 75
     0
 76
     2
 52
0.0
 41
1.0
 77
     0
 78
     2
 53
45.0
 43
0.0
 44
0.0
 45
-8.48528171
 46
8.48528171
 79
     2
 49
960.0000381500001
 49
0.0
 53
135.0
 43
0.0
 44
0.0
 45
-25.45584513
 46
8.48528171
 79
     2
 49
30.00000119
 49
-18.00000072
 47
0.775229
 98
        1
 10
0.0
 20
0.0
  0
LWPOLYLINE
  5
411
330
FF
100
AcDbEntity
  8
Ech.1_5
  6
Continuous
 62
     7
370
    -3
100
AcDbPolyline
 90
        6
 70
     1
 43
0.0
 10
44795.78351923
 20
-32064.34672683
 10
44785.71846941999
 20
-32055.09465679
 10
44577.34194447
 20
-32055.09465679
 10
44567.27689465999
 20
-32064.34672683
 10
44563.50917031
 20
-32069.09465679
 10
44799.55124357999
 20
-32069.09465679
  0
HATCH
  5
412
330
FF
100
AcDbEntity
  8
Ech.1_5
  6
Continuous
 62
     7
100
AcDbHatch
 10
0.0
 20
0.0
 30
0.0
210
0.0
220
0.0
230
1.0
  2
ANSI31
 70
     0
 71
     0
 91
        1
 92
        7
 72
     0
 73
     1
 93
        6
 10
44795.78351923
 20
-32064.34672683
 10
44785.71846941999
 20
-32055.09465679
 10
44577.34194447
 20
-32055.09465679
 10
44567.27689465999
 20
-32064.34672683
 10
44563.50917031
 20
-32069.09465679
 10
44799.55124357999
 20
-32069.09465679
 97
        0
 75
     0
 76
     2
 52
90.0
 41
3.14962605
 77
     0
 78
     1
 53
-45.0
 43
0.0
 44
0.0
 45
7.071067809999999
 46
7.071067809999999
 79
     0
 47
0.775229
 98
        1
 10
0.0
 20
0.0
  0
LINE
  5
413
330
FF
100
AcDbEntity
  8
Ech.1_5
  6
CADWORK_22
 62
     1
370
    35
100
AcDbLine
 10
44549.10368642999
 20
-32088.09465679
 30
0.0
 11
44813.95672746
 21
-32088.09465679
 31
0.0
  0
LWPOLYLINE
  5
414
330
FF
100
AcDbEntity
  8
Ech.1_5
  6
Continuous
 62
     7
370
    -3
100
AcDbPolyline
 90
        4
 70
     0
 43
0.0
 10
44598.78935534
 20
-32308.09465679
 10
44658.78935534
 20
-32269.09465679
 10
44658.78935534
 20
-32308.09465679
 10
44598.78935534
 20
-32269.09465679
  0
LWPOLYLINE
  5
415
330
FF
100
AcDbEntity
  8
Ech.1_5
  6
Continuous
 62
     7
370
    -3
100
AcDbPolyline
 90
        4
 70
     0
 43
0.0
 10
44703.78935533999
 20
-32308.09465679
 10
44763.78935534
 20
-32269.09465679
 10
44763.78935534
 20
-32308.09465679
 10
44703.78935533999
 20
-32269.09465679
  0
LWPOLYLINE
  5
416
330
FF
100
AcDbEntity
  8
Ech.1_5
  6
Continuous
 62
     7
370
    -3
100
AcDbPolyline
 90
       21
 70
     0
 43
0.0
 10
44681.53020694
 20
-32361.21826816
 10
44706.80666626
 20
-32359.07722968
 10
44731.46073526
 20
-32352.70683373
 10
44754.88534893999
 20
-32342.26394057
 10
44776.50371558
 20
-32328.00568892
 10
44795.78351923
 20
-32310.28316424
 10
44812.25002715
 20
-32289.5327539
 10
44825.49777925999
 20
-32266.26540188
 10
44835.20057194
 20
-32241.0540276
 10
44841.11949023
 20
-32214.51941878
 10
44843.10879071999
 20
-32187.31494553
 10
44841.11949023
 20
-32160.11047229
 10
44835.20057194
 20
-32133.57586346
 10
44825.49777925999
 20
-32108.36448919
 10
44812.25002715
 20
-32085.09713717
 10
44795.78351923
 20
-32064.34672683
 10
44776.50371558
 20
-32046.62420215
 10
44754.88534893999
 20
-32032.36595049
 10
44731.46073526
 20
-32021.92305734
 10
44706.80666626
 20
-32015.55266138
 10
44681.53020694
 20
-32013.41162291
  0
LWPOLYLINE
  5
417
330
FF
100
AcDbEntity
  8
Ech.1_5
  6
Continuous
 62
     7
370
    -3
100
AcDbPolyline
 90
       21
 70
     0
 43
0.0
 10
44681.53020694
 20
-32013.41162291
 10
44656.25374763
 20
-32015.55266138
 10
44631.59967863
 20
-32021.92305734
 10
44608.17506495
 20
-32032.36595049
 10
44586.55669830999
 20
-32046.62420215
 10
44567.27689465999
 20
-32064.34672683
 10
44550.81038673999
 20
-32085.09713717
 10
44537.56263462
 20
-32108.36448919
 10
44527.85984194
 20
-32133.57586346
 10
44521.94092365
 20
-32160.11047229
 10
44519.95162315999
 20
-32187.31494553
 10
44521.94092365
 20
-32214.51941878
 10
44527.85984194
 20
-32241.0540276
 10
44537.56263462
 20
-32266.26540188
 10
44550.81038673999
 20
-32289.5327539
 10
44567.27689465999
 20
-32310.28316424
 10
44586.55669830999
 20
-32328.00568892
 10
44608.17506495
 20
-32342.26394057
 10
44631.59967863
 20
-32352.70683373
 10
44656.25374763
 20
-32359.07722968
 10
44681.53020694
 20
-32361.21826816
  0
LWPOLYLINE
  5
418
330
FF
100
AcDbEntity
  8
Ech.1_5
  6
Continuous
 62
     7
370
    -3
100
AcDbPolyline
 90
        5
 70
     0
 43
0.0
 10
44819.97051292
 20
-32759.03568095
 10
44855.92621292999
 20
-32773.14562097
 10
44837.94786133
 20
-32756.65926689
 10
44837.94783169999
 20
-32664.87717674
 10
44791.07106945
 20
-32664.87717674
  0
LWPOLYLINE
  5
419
330
FF
100
AcDbEntity
  8
Ech.1_5
  6
Continuous
 62
     7
370
     5
100
AcDbPolyline
 90
        5
 70
     0
 43
0.0
 10
44017.54809579999
 20
-32141.05125516
 10
44067.54809579999
 20
-32141.05125516
 10
44067.54809579999
 20
-32133.63611763
 10
44017.54809579999
 20
-32133.63611763
 10
44017.54809579999
 20
-32141.05125516
  0
LWPOLYLINE
  5
41A
330
FF
100
AcDbEntity
  8
Ech.1_5
  6
Continuous
 62
     7
370
    -3
100
AcDbPolyline
 90
        5
 70
     0
 43
0.0
 10
44335.24627632
 20
-32532.87733167
 10
44034.17448954
 20
-32532.87733167
 10
44034.17448954
 20
-32551.87733167
 10
44331.88708505
 20
-32551.87733167
 10
44335.24627632
 20
-32532.87733167
  0
LWPOLYLINE
  5
41B
330
FF
100
AcDbEntity
  8
Ech.1_5
  6
Continuous
 62
     7
370
    -3
100
AcDbPolyline
 90
        5
 70
     0
 43
0.0
 10
44335.13671313
 20
-32551.87733167
 10
44602.16771753
 20
-32551.87733167
 10
44605.52690880001
 20
-32532.87733167
 10
44338.49590441
 20
-32532.87733167
 10
44335.13671313
 20
-32551.87733167
  0
LWPOLYLINE
  5
41C
330
FF
100
AcDbEntity
  8
Ech.1_5
  6
Continuous
 62
     7
370
    -3
100
AcDbPolyline
 90
        5
 70
     0
 43
0.0
 10
44605.41734562
 20
-32551.87733167
 10
44837.94725956
 20
-32551.87733167
 10
44837.94725956
 20
-32532.87733167
 10
44608.77653688999
 20
-32532.87733167
 10
44605.41734562
 20
-32551.87733167
  0
LWPOLYLINE
  5
41D
330
FF
100
AcDbEntity
  8
Ech.1_5
  6
Continuous
 62
     7
370
    -3
100
AcDbPolyline
 90
        6
 70
     0
 43
0.0
 10
44614.08055184
 20
-32502.87716917
 10
44613.37463249999
 20
-32506.86993601
 10
44625.63628216
 20
-32522.87741282
 10
44837.94777448
 20
-32522.87725584
 10
44837.94777448
 20
-32502.87716917
 10
44614.08055184
 20
-32502.87716917
  0
LWPOLYLINE
  5
41E
330
FF
100
AcDbEntity
  8
Ech.1_5
  6
Continuous
 62
     7
370
    -3
100
AcDbPolyline
 90
        6
 70
     0
 43
0.0
 10
44610.60101797
 20
-32522.55784176
 10
44610.5445457
 20
-32522.87725584
 10
44620.64327728
 20
-32522.87741455
 10
44602.20820334
 20
-32511.60114272
 10
44609.96488766999
 20
-32521.72738279
 10
44610.60101797
 20
-32522.55784176
  0
LWPOLYLINE
  5
41F
330
FF
100
AcDbEntity
  8
Ech.1_5
  6
Continuous
 62
     7
370
    -3
100
AcDbPolyline
 90
        5
 70
     0
 43
0.0
 10
44658.78935534
 20
-32088.09465679
 10
44703.78935533999
 20
-32088.09465679
 10
44703.78935533999
 20
-32308.09465679
 10
44658.78935534
 20
-32308.09465679
 10
44658.78935534
 20
-32088.09465679
  0
LWPOLYLINE
  5
420
330
FF
100
AcDbEntity
  8
Ech.1_5
  6
Continuous
 62
     7
370
    -3
100
AcDbPolyline
 90
        7
 70
     0
 43
0.0
 10
44812.25002715
 20
-32085.09713717
 10
44799.55124357999
 20
-32069.09465679
 10
44563.50917031
 20
-32069.09465679
 10
44550.81038673999
 20
-32085.09713717
 10
44549.10368642999
 20
-32088.09465679
 10
44813.95672746
 20
-32088.09465679
 10
44812.25002715
 20
-32085.09713717
  0
LWPOLYLINE
  5
421
330
FF
100
AcDbEntity
  8
Ech.1_5
  6
Continuous
 62
     7
370
    -3
100
AcDbPolyline
 90
        5
 70
     0
 43
0.0
 10
44598.78935534
 20
-32269.09465679
 10
44658.78935534
 20
-32269.09465679
 10
44658.78935534
 20
-32308.09465679
 10
44598.78935534
 20
-32308.09465679
 10
44598.78935534
 20
-32269.09465679
  0
LWPOLYLINE
  5
422
330
FF
100
AcDbEntity
  8
Ech.1_5
  6
Continuous
 62
     7
370
    -3
100
AcDbPolyline
 90
        5
 70
     0
 43
0.0
 10
44703.78935533999
 20
-32269.09465679
 10
44763.78935534
 20
-32269.09465679
 10
44763.78935534
 20
-32308.09465679
 10
44703.78935533999
 20
-32308.09465679
 10
44703.78935533999
 20
-32269.09465679
  0
LWPOLYLINE
  5
423
330
FF
100
AcDbEntity
  8
Ech.1_5
  6
Continuous
 62
     7
370
    -3
100
AcDbPolyline
 90
       12
 70
     1
 43
0.0
 10
44815.32106945
 20
-32550.29385026
 10
44757.32106945
 20
-32550.29385026
 10
44757.32106945
 20
-32588.29385026
 10
44781.57106944999
 20
-32588.29385026
 10
44781.57106944999
 20
-32872.29385026
 10
44757.32106945
 20
-32872.29385026
 10
44757.32106945
 20
-32910.29385026
 10
44815.32106945
 20
-32910.29385026
 10
44815.32106945
 20
-32872.29385026
 10
44791.07106945
 20
-32872.29385026
 10
44791.07106945
 20
-32588.29385026
 10
44815.32106945
 20
-32588.29385026
  0
LWPOLYLINE
  5
424
330
FF
100
AcDbEntity
  8
Ech.1_5
  6
Continuous
 62
     7
370
    -3
100
AcDbPolyline
 90
       10
 70
     0
 43
0.0
 10
44658.78935534
 20
-32100.09465679
 10
44542.27123617
 20
-32100.09465679
 10
44537.56263462
 20
-32108.36448919
 10
44527.85984194
 20
-32133.57586346
 10
44521.94092365
 20
-32160.11047229
 10
44519.95162315999
 20
-32187.31494553
 10
44521.94092365
 20
-32214.51941878
 10
44527.85984194
 20
-32241.0540276
 10
44535.18777558
 20
-32260.09465679
 10
44658.78935534
 20
-32260.09465679
  0
LWPOLYLINE
  5
425
330
FF
100
AcDbEntity
  8
Ech.1_5
  6
Continuous
 62
     7
370
    -3
100
AcDbPolyline
 90
       10
 70
     0
 43
0.0
 10
44703.78935533999
 20
-32260.09465679
 10
44827.87263830999
 20
-32260.09465679
 10
44835.20057194
 20
-32241.0540276
 10
44841.11949023
 20
-32214.51941878
 10
44843.10879071999
 20
-32187.31494553
 10
44841.11949023
 20
-32160.11047229
 10
44835.20057194
 20
-32133.57586346
 10
44825.49777925999
 20
-32108.36448919
 10
44820.78917772
 20
-32100.09465679
 10
44703.78935533999
 20
-32100.09465679
  0
LWPOLYLINE
  5
426
330
FF
100
AcDbEntity
  8
Ech.1_5
  6
Continuous
 62
     7
370
    -3
100
AcDbPolyline
 90
       12
 70
     1
 43
0.0
 10
44215.32106945
 20
-32550.29385026
 10
44157.32106945
 20
-32550.29385026
 10
44157.32106945
 20
-32588.29385026
 10
44181.57106945
 20
-32588.29385026
 10
44181.57106945
 20
-32872.29385026
 10
44157.32106945
 20
-32872.29385026
 10
44157.32106945
 20
-32910.29385026
 10
44215.32106945
 20
-32910.29385026
 10
44215.32106945
 20
-32872.29385026
 10
44191.07106945
 20
-32872.29385026
 10
44191.07106945
 20
-32588.29385026
 10
44215.32106945
 20
-32588.29385026
  0
TEXT
  5
427
330
FF
100
AcDbEntity
  8
Ech.1_5
 62
     7
100
AcDbText
 10
44028.84238842999
 20
-32124.05011455
 30
0.0
 40
8.000000119999999
  1
Echelle en mm
  7
ARIAL
100
AcDbText
  0
TEXT
  5
428
330
FF
100
AcDbEntity
  8
Ech.1_5
 62
     7
100
AcDbText
 10
44014.86180368
 20
-32152.25995008
 30
0.0
 40
8.000000119999999
  1
0
  7
ARIAL
100
AcDbText
  0
TEXT
  5
429
330
FF
100
AcDbEntity
  8
Ech.1_5
 62
     7
100
AcDbText
 10
44101.45886157
 20
-32152.25995008
 30
0.0
 40
8.000000119999999
  1
100
  7
ARIAL
100
AcDbText
  0
TEXT
  5
42A
330
FF
100
AcDbEntity
  8
Ech.1_5
 62
     7
100
AcDbText
 10
44062.71843000999
 20
-32152.25995008
 30
0.0
 40
8.000000119999999
  1
50
  7
ARIAL
100
AcDbText
  0
LWPOLYLINE
  5
493
330
FF
100
AcDbEntity
  8
Ech.1_5
  6
Continuous
 62
     7
370
    -3
100
AcDbPolyline
 90
       10
 70
     0
 43
0.0
 10
44181.57106945
 20
-32664.87717674
 10
44034.17501078
 20
-32664.87717674
 10
44034.17501078
 20
-32756.65926689
 10
44052.15349301
 20
-32773.14562097
 10
44016.19779299999
 20
-32759.03568095
 10
44034.17501078
 20
-32775.52118411001
 10
44034.17501078
 20
-32864.87717782
 10
44837.94786133
 20
-32864.87717782
 10
44837.94786133
 20
-32775.52118411001
 10
44819.97051292
 20
-32759.03568095
  0
LWPOLYLINE
  5
498
330
FF
100
AcDbEntity
  8
Ech.1_5
  6
Continuous
 62
     7
370
    -3
100
AcDbPolyline
 90
        3
 70
     0
 43
0.0
 10
44181.57106945
 20
-32674.1250061284
 42
0.2738819010300161
 10
44172.41697603
 20
-32706.837831
 10
44181.57106945
 20
-32741.04699527458
  0
LWPOLYLINE
  5
499
330
FF
100
AcDbEntity
  8
Ech.1_5
  6
Continuous
 62
     7
370
    -3
100
AcDbPolyline
 90
       10
 70
     0
 43
0.0
 10
44181.57106945
 20
-32863.24918971681
 42
-0.5948238572881013
 10
44139.0836427
 20
-32822.91652248
 10
44170.14535404
 20
-32706.837831
 42
1.303226189999999
 10
44105.75030936
 20
-32706.837831
 10
44136.81202071
 20
-32822.91652248
 42
-1.303226189999999
 10
44072.41697603
 20
-32822.91652248
 10
44103.47868737
 20
-32706.837831
 42
1.303226189999999
 10
44039.08364269999
 20
-32706.837831
 10
44070.14535404
 20
-32822.91652248
 42
-0.52890843
 10
44034.17501078
 20
-32864.66297585
  0
LWPOLYLINE
  5
49A
330
FF
100
AcDbEntity
  8
Ech.1_5
  6
Continuous
 62
     7
370
    -3
100
AcDbPolyline
 90
        3
 70
     0
 43
0.0
 10
44191.07106945
 20
-32776.54882442331
 10
44203.47868737
 20
-32822.91652248
 42
-0.3085011852390173
 10
44191.07106945
 20
-32858.36679626346
  0
LWPOLYLINE
  5
49B
330
FF
100
AcDbEntity
  8
Ech.1_5
  6
Continuous
 62
     7
370
    -3
100
AcDbPolyline
 90
        2
 70
     0
 43
0.0
 10
44781.57106944999
 20
-32664.87717674
 10
44191.07106945
 20
-32664.87717674
  0
LWPOLYLINE
  5
49C
330
FF
100
AcDbEntity
  8
Ech.1_5
  6
Continuous
 62
     7
370
    -3
100
AcDbPolyline
 90
        3
 70
     0
 43
0.0
 10
44781.57106944999
 20
-32674.12500605396
 42
0.2738819017490256
 10
44772.41697603
 20
-32706.837831
 10
44781.57106944999
 20
-32741.04699527458
  0
LWPOLYLINE
  5
49D
330
FF
100
AcDbEntity
  8
Ech.1_5
  6
Continuous
 62
     7
370
    -3
100
AcDbPolyline
 90
        3
 70
     0
 43
0.0
 10
44791.07106945
 20
-32776.54882442331
 10
44803.47868736999
 20
-32822.91652248
 42
-0.3085011852390173
 10
44791.07106945
 20
-32858.36679626346
 42
-0.3085011852390173
  0
LWPOLYLINE
  5
49E
330
FF
100
AcDbEntity
  8
Ech.1_5
  6
Continuous
 62
     7
370
    -3
100
AcDbPolyline
 90
       36
 70
     0
 43
0.0
 10
44781.57106944999
 20
-32863.24918971681
 42
-0.5948238572881013
 10
44739.08364269999
 20
-32822.91652248
 10
44770.14535404
 20
-32706.837831
 42
1.303226189999999
 10
44705.75030936
 20
-32706.837831
 10
44736.81202070999
 20
-32822.91652248
 42
-1.303226189999999
 10
44672.41697602999
 20
-32822.91652248
 10
44703.47868736999
 20
-32706.837831
 42
1.303226189999999
 10
44639.08364269999
 20
-32706.837831
 10
44670.14535404
 20
-32822.91652248
 42
-1.303226189999999
 10
44605.75030936
 20
-32822.91652248
 10
44636.81202071
 20
-32706.837831
 42
1.303226189999999
 10
44572.41697603
 20
-32706.837831
 10
44603.47868737
 20
-32822.91652248
 42
-1.303226189999999
 10
44539.0836427
 20
-32822.91652248
 10
44570.14535404
 20
-32706.837831
 42
1.303226189999999
 10
44505.75030936
 20
-32706.837831
 10
44536.81202071
 20
-32822.91652248
 42
-1.303226189999999
 10
44472.41697603
 20
-32822.91652248
 10
44503.47868737
 20
-32706.837831
 42
1.303226189999999
 10
44439.08364269999
 20
-32706.837831
 10
44470.14535404
 20
-32822.91652248
 42
-1.303226189999999
 10
44405.75030936
 20
-32822.91652248
 10
44436.81202071
 20
-32706.837831
 42
1.303226189999999
 10
44372.41697603
 20
-32706.837831
 10
44403.47868737
 20
-32822.91652248
 42
-1.303226189999999
 10
44339.08364269999
 20
-32822.91652248
 10
44370.14535404
 20
-32706.837831
 42
1.303226189999999
 10
44305.75030936
 20
-32706.837831
 10
44336.81202070999
 20
-32822.91652248
 42
-1.303226189999999
 10
44272.41697602999
 20
-32822.91652248
 10
44303.47868736999
 20
-32706.837831
 42
1.303226189999999
 10
44239.08364269999
 20
-32706.837831
 10
44270.14535404
 20
-32822.91652248
 42
-1.303226189999999
 10
44205.75030936
 20
-32822.91652248
 10
44236.81202071
 20
-32706.837831
 42
0.6307872890086058
 10
44191.07106945
 20
-32667.75256117939
  0
ENDSEC
  0
SECTION
  2
OBJECTS
  0
DICTIONARY
  5
1
330
0
100
AcDbDictionary
281
     1
  3
ACAD_COLOR
350
465
  3
ACAD_GROUP
350
2
  3
ACAD_LAYOUT
350
47D
  3
ACAD_MATERIAL
350
433
  3
ACAD_MLEADERSTYLE
350
47A
  3
ACAD_MLINESTYLE
350
3
  3
ACAD_PLOTSETTINGS
350
47E
  3
ACAD_PLOTSTYLENAME
350
431
  3
ACAD_SCALELIST
350
468
  3
ACAD_TABLESTYLE
350
466
  3
ACAD_VISUALSTYLE
350
44C
  3
ACDB_RECOMPOSE_DATA
350
4E8
  3
AcDbVariableDictionary
350
4DE
  3
DWGPROPS
350
4E9
  0
DICTIONARY
  5
4A2
330
D9
100
AcDbDictionary
280
     1
281
     1
  3
ADSK_XREC_LAYER_RECONCILED
360
4A3
  0
DICTIONARY
  5
4A4
330
DA
100
AcDbDictionary
280
     1
281
     1
  3
ADSK_XREC_LAYER_RECONCILED
360
4A5
  0
DICTIONARY
  5
4A6
330
DB
100
AcDbDictionary
280
     1
281
     1
  3
ADSK_XREC_LAYER_RECONCILED
360
4A7
  0
DICTIONARY
  5
4A8
330
DC
100
AcDbDictionary
280
     1
281
     1
  3
ADSK_XREC_LAYER_RECONCILED
360
4A9
  0
DICTIONARY
  5
4AA
330
DD
100
AcDbDictionary
280
     1
281
     1
  3
ADSK_XREC_LAYER_RECONCILED
360
4AB
  0
DICTIONARY
  5
4AC
330
DE
100
AcDbDictionary
280
     1
281
     1
  3
ADSK_XREC_LAYER_RECONCILED
360
4AD
  0
DICTIONARY
  5
4AE
330
DF
100
AcDbDictionary
280
     1
281
     1
  3
ADSK_XREC_LAYER_RECONCILED
360
4AF
  0
DICTIONARY
  5
4B0
330
E0
100
AcDbDictionary
280
     1
281
     1
  3
ADSK_XREC_LAYER_RECONCILED
360
4B1
  0
DICTIONARY
  5
4B2
330
E1
100
AcDbDictionary
280
     1
281
     1
  3
ADSK_XREC_LAYER_RECONCILED
360
4B3
  0
DICTIONARY
  5
4B4
330
E2
100
AcDbDictionary
280
     1
281
     1
  3
ADSK_XREC_LAYER_RECONCILED
360
4B5
  0
DICTIONARY
  5
4B6
330
E3
100
AcDbDictionary
280
     1
281
     1
  3
ADSK_XREC_LAYER_RECONCILED
360
4B7
  0
DICTIONARY
  5
4B8
330
E4
100
AcDbDictionary
280
     1
281
     1
  3
ADSK_XREC_LAYER_RECONCILED
360
4B9
  0
DICTIONARY
  5
4BA
330
E5
100
AcDbDictionary
280
     1
281
     1
  3
ADSK_XREC_LAYER_RECONCILED
360
4BB
  0
DICTIONARY
  5
4BC
330
E6
100
AcDbDictionary
280
     1
281
     1
  3
ADSK_XREC_LAYER_RECONCILED
360
4BD
  0
DICTIONARY
  5
4BE
330
E7
100
AcDbDictionary
280
     1
281
     1
  3
ADSK_XREC_LAYER_RECONCILED
360
4BF
  0
DICTIONARY
  5
4C0
330
E8
100
AcDbDictionary
280
     1
281
     1
  3
ADSK_XREC_LAYER_RECONCILED
360
4C1
  0
DICTIONARY
  5
4C2
330
E9
100
AcDbDictionary
280
     1
281
     1
  3
ADSK_XREC_LAYER_RECONCILED
360
4C3
  0
DICTIONARY
  5
4C4
330
EA
100
AcDbDictionary
280
     1
281
     1
  3
ADSK_XREC_LAYER_RECONCILED
360
4C5
  0
DICTIONARY
  5
4C6
330
EB
100
AcDbDictionary
280
     1
281
     1
  3
ADSK_XREC_LAYER_RECONCILED
360
4C7
  0
DICTIONARY
  5
4C8
330
EC
100
AcDbDictionary
280
     1
281
     1
  3
ADSK_XREC_LAYER_RECONCILED
360
4C9
  0
DICTIONARY
  5
4CA
330
ED
100
AcDbDictionary
280
     1
281
     1
  3
ADSK_XREC_LAYER_RECONCILED
360
4CB
  0
DICTIONARY
  5
4CC
330
EF
100
AcDbDictionary
280
     1
281
     1
  3
ADSK_XREC_LAYER_RECONCILED
360
4CD
  0
DICTIONARY
  5
4CE
330
F0
100
AcDbDictionary
280
     1
281
     1
  3
ADSK_XREC_LAYER_RECONCILED
360
4CF
  0
DICTIONARY
  5
4D0
330
F2
100
AcDbDictionary
280
     1
281
     1
  3
ADSK_XREC_LAYER_RECONCILED
360
4D1
  0
DICTIONARY
  5
4D2
330
F3
100
AcDbDictionary
280
     1
281
     1
  3
ADSK_XREC_LAYER_RECONCILED
360
4D3
  0
DICTIONARY
  5
4D4
330
F4
100
AcDbDictionary
280
     1
281
     1
  3
ADSK_XREC_LAYER_RECONCILED
360
4D5
  0
DICTIONARY
  5
4D6
330
F5
100
AcDbDictionary
280
     1
281
     1
  3
ADSK_XREC_LAYER_RECONCILED
360
4D7
  0
DICTIONARY
  5
4D8
330
F6
100
AcDbDictionary
280
     1
281
     1
  3
ADSK_XREC_LAYER_RECONCILED
360
4D9
  0
DICTIONARY
  5
4DA
330
F7
100
AcDbDictionary
280
     1
281
     1
  3
ADSK_XREC_LAYER_RECONCILED
360
4DB
  0
DICTIONARY
  5
4DC
330
F8
100
AcDbDictionary
280
     1
281
     1
  3
ADSK_XREC_LAYER_RECONCILED
360
4DD
  0
DICTIONARY
  5
496
330
FF
100
AcDbDictionary
280
     1
281
     1
  3
ACAD_SORTENTS
360
497
  0
DICTIONARY
  5
465
102
{ACAD_REACTORS
330
1
102
}
330
1
100
AcDbDictionary
281
     1
  0
DICTIONARY
  5
2
330
1
100
AcDbDictionary
281
     1
  0
DICTIONARY
  5
47D
102
{ACAD_REACTORS
330
1
102
}
330
1
100
AcDbDictionary
281
     1
  3
Model
350
47F
  3
Présentation1
350
480
  0
DICTIONARY
  5
433
102
{ACAD_REACTORS
330
1
102
}
330
1
100
AcDbDictionary
281
     1
  3
ByBlock
350
43C
  3
ByLayer
350
434
  3
Global
350
444
  0
DICTIONARY
  5
47A
102
{ACAD_REACTORS
330
1
102
}
330
1
100
AcDbDictionary
281
     1
  3
Standard
350
47B
  0
DICTIONARY
  5
3
330
1
100
AcDbDictionary
281
     1
  3
STANDARD
350
4
  0
DICTIONARY
  5
47E
102
{ACAD_REACTORS
330
1
102
}
330
1
100
AcDbDictionary
281
     1
  0
ACDBDICTIONARYWDFLT
  5
431
102
{ACAD_REACTORS
330
1
102
}
330
1
100
AcDbDictionary
281
     1
  3
Normal
350
432
100
AcDbDictionaryWithDefault
340
432
  0
DICTIONARY
  5
468
102
{ACAD_REACTORS
330
1
102
}
330
1
100
AcDbDictionary
281
     1
  3
A0
350
469
  3
A1
350
46A
  3
A2
350
46B
  3
A3
350
46C
  3
A4
350
46D
  3
A5
350
46E
  3
A6
350
46F
  3
A7
350
470
  3
A8
350
471
  3
A9
350
472
  3
B0
350
473
  3
B1
350
474
  3
B2
350
475
  3
B3
350
476
  3
B4
350
477
  3
B5
350
478
  3
B6
350
479
  0
DICTIONARY
  5
466
102
{ACAD_REACTORS
330
1
102
}
330
1
100
AcDbDictionary
281
     1
  3
Standard
350
467
  0
DICTIONARY
  5
44C
102
{ACAD_REACTORS
330
1
102
}
330
1
100
AcDbDictionary
281
     1
  3
2dWireframe
350
452
  3
Basic
350
451
  3
Brighten
350
458
  3
ColorChange
350
45C
  3
Conceptual
350
455
  3
Dim
350
457
  3
EdgeColorOff
350
464
  3
Facepattern
350
45B
  3
Flat
350
44D
  3
FlatWithEdges
350
44E
  3
Gouraud
350
44F
  3
GouraudWithEdges
350
450
  3
Hidden
350
454
  3
JitterOff
350
462
  3
Linepattern
350
45A
  3
OverhangOff
350
463
  3
Realistic
350
456
  3
Shaded
350
461
  3
Shaded with edges
350
460
  3
Shades of Gray
350
45D
  3
Sketchy
350
45E
  3
Thicken
350
459
  3
Wireframe
350
453
  3
X-Ray
350
45F
  0
XRECORD
  5
4E8
102
{ACAD_REACTORS
330
1
102
}
330
1
100
AcDbXrecord
280
     1
 90
        1
330
467
  0
DICTIONARY
  5
4DE
102
{ACAD_REACTORS
330
1
102
}
330
1
100
AcDbDictionary
281
     1
  3
CANNOSCALE
350
4E1
  3
CMLEADERSTYLE
350
4E0
  3
CTABLESTYLE
350
4DF
  3
DIMASSOC
350
4E4
  3
INDEXCTL
350
4E3
  3
SORTENTS
350
4E2
  3
XCLIPFRAME
350
4E5
  0
XRECORD
  5
4E9
102
{ACAD_REACTORS
330
1
102
}
330
1
100
AcDbXrecord
280
     1
  1
DWGPROPS COOKIE
  2

  3

  4

  6

  7

  8
cazeaux
  9

300
=
301
=
302
=
303
=
304
=
305
=
306
=
307
=
308
=
309
=
 40
0.0046057291666667
 41
2456443.0
 42
2456458.494684063
  1

 90
        0
  0
XRECORD
  5
4A3
102
{ACAD_REACTORS
330
4A2
102
}
330
4A2
100
AcDbXrecord
280
     1
290
     1
  0
XRECORD
  5
4A5
102
{ACAD_REACTORS
330
4A4
102
}
330
4A4
100
AcDbXrecord
280
     1
290
     1
  0
XRECORD
  5
4A7
102
{ACAD_REACTORS
330
4A6
102
}
330
4A6
100
AcDbXrecord
280
     1
290
     1
  0
XRECORD
  5
4A9
102
{ACAD_REACTORS
330
4A8
102
}
330
4A8
100
AcDbXrecord
280
     1
290
     1
  0
XRECORD
  5
4AB
102
{ACAD_REACTORS
330
4AA
102
}
330
4AA
100
AcDbXrecord
280
     1
290
     1
  0
XRECORD
  5
4AD
102
{ACAD_REACTORS
330
4AC
102
}
330
4AC
100
AcDbXrecord
280
     1
290
     1
  0
XRECORD
  5
4AF
102
{ACAD_REACTORS
330
4AE
102
}
330
4AE
100
AcDbXrecord
280
     1
290
     1
  0
XRECORD
  5
4B1
102
{ACAD_REACTORS
330
4B0
102
}
330
4B0
100
AcDbXrecord
280
     1
290
     1
  0
XRECORD
  5
4B3
102
{ACAD_REACTORS
330
4B2
102
}
330
4B2
100
AcDbXrecord
280
     1
290
     1
  0
XRECORD
  5
4B5
102
{ACAD_REACTORS
330
4B4
102
}
330
4B4
100
AcDbXrecord
280
     1
290
     1
  0
XRECORD
  5
4B7
102
{ACAD_REACTORS
330
4B6
102
}
330
4B6
100
AcDbXrecord
280
     1
290
     1
  0
XRECORD
  5
4B9
102
{ACAD_REACTORS
330
4B8
102
}
330
4B8
100
AcDbXrecord
280
     1
290
     1
  0
XRECORD
  5
4BB
102
{ACAD_REACTORS
330
4BA
102
}
330
4BA
100
AcDbXrecord
280
     1
290
     1
  0
XRECORD
  5
4BD
102
{ACAD_REACTORS
330
4BC
102
}
330
4BC
100
AcDbXrecord
280
     1
290
     1
  0
XRECORD
  5
4BF
102
{ACAD_REACTORS
330
4BE
102
}
330
4BE
100
AcDbXrecord
280
     1
290
     1
  0
XRECORD
  5
4C1
102
{ACAD_REACTORS
330
4C0
102
}
330
4C0
100
AcDbXrecord
280
     1
290
     1
  0
XRECORD
  5
4C3
102
{ACAD_REACTORS
330
4C2
102
}
330
4C2
100
AcDbXrecord
280
     1
290
     1
  0
XRECORD
  5
4C5
102
{ACAD_REACTORS
330
4C4
102
}
330
4C4
100
AcDbXrecord
280
     1
290
     1
  0
XRECORD
  5
4C7
102
{ACAD_REACTORS
330
4C6
102
}
330
4C6
100
AcDbXrecord
280
     1
290
     1
  0
XRECORD
  5
4C9
102
{ACAD_REACTORS
330
4C8
102
}
330
4C8
100
AcDbXrecord
280
     1
290
     1
  0
XRECORD
  5
4CB
102
{ACAD_REACTORS
330
4CA
102
}
330
4CA
100
AcDbXrecord
280
     1
290
     1
  0
XRECORD
  5
4CD
102
{ACAD_REACTORS
330
4CC
102
}
330
4CC
100
AcDbXrecord
280
     1
290
     1
  0
XRECORD
  5
4CF
102
{ACAD_REACTORS
330
4CE
102
}
330
4CE
100
AcDbXrecord
280
     1
290
     1
  0
XRECORD
  5
4D1
102
{ACAD_REACTORS
330
4D0
102
}
330
4D0
100
AcDbXrecord
280
     1
290
     1
  0
XRECORD
  5
4D3
102
{ACAD_REACTORS
330
4D2
102
}
330
4D2
100
AcDbXrecord
280
     1
290
     1
  0
XRECORD
  5
4D5
102
{ACAD_REACTORS
330
4D4
102
}
330
4D4
100
AcDbXrecord
280
     1
290
     1
  0
XRECORD
  5
4D7
102
{ACAD_REACTORS
330
4D6
102
}
330
4D6
100
AcDbXrecord
280
     1
290
     1
  0
XRECORD
  5
4D9
102
{ACAD_REACTORS
330
4D8
102
}
330
4D8
100
AcDbXrecord
280
     1
290
     1
  0
XRECORD
  5
4DB
102
{ACAD_REACTORS
330
4DA
102
}
330
4DA
100
AcDbXrecord
280
     1
290
     1
  0
XRECORD
  5
4DD
102
{ACAD_REACTORS
330
4DC
102
}
330
4DC
100
AcDbXrecord
280
     1
290
     1
  0
SORTENTSTABLE
  5
497
102
{ACAD_REACTORS
330
496
102
}
330
496
100
AcDbSortentsTable
330
FF
331
429
  5
49D
331
408
  5
40E
331
419
  5
421
331
3FF
  5
405
331
49E
  5
3F7
331
3DD
  5
3DD
331
3EE
  5
3EE
331
3CC
  5
3CC
331
3BB
  5
3BB
331
417
  5
41D
331
3FD
  5
403
331
49C
  5
3F5
331
3EC
  5
3EC
331
3DB
  5
3DB
331
415
  5
41B
331
3FB
  5
401
331
49A
  5
3F9
331
426
  5
49A
331
3EA
  5
3EA
331
3D9
  5
3D9
331
413
  5
419
331
3F9
  5
3FF
331
498
  5
3F8
331
424
  5
498
331
3E8
  5
3E8
331
3D7
  5
3D7
331
411
  5
417
331
3F7
  5
3FD
331
422
  5
42A
331
3E6
  5
3E6
331
3D5
  5
3D5
331
40F
  5
415
331
3F5
  5
3FB
331
420
  5
428
331
406
  5
40C
331
3E4
  5
3E4
331
3D3
  5
3D3
331
40D
  5
413
331
3F3
  5
3F3
331
41E
  5
426
331
404
  5
40A
331
3E2
  5
3E2
331
3D1
  5
3D1
331
40B
  5
411
331
3F1
  5
3F1
331
41C
  5
424
331
402
  5
408
331
3E0
  5
3E0
331
3CF
  5
3CF
331
3BE
  5
3BE
331
42A
  5
49E
331
409
  5
40F
331
41A
  5
422
331
400
  5
406
331
3DE
  5
3DE
331
3EF
  5
3EF
331
3CD
  5
3CD
331
3BC
  5
3BC
331
428
  5
49C
331
418
  5
41E
331
3FE
  5
404
331
49D
  5
3F6
331
3DC
  5
3DC
331
3ED
  5
3ED
331
3CB
  5
3CB
331
49B
  5
41F
331
416
  5
41C
331
3FC
  5
402
331
427
  5
49B
331
3EB
  5
3EB
331
3DA
  5
3DA
331
414
  5
41A
331
3FA
  5
400
331
499
  5
3FA
331
425
  5
499
331
3E9
  5
3E9
331
3D8
  5
3D8
331
412
  5
418
331
3F8
  5
3FE
331
423
  5
493
331
3E7
  5
3E7
331
3D6
  5
3D6
331
410
  5
416
331
3F6
  5
3FC
331
421
  5
429
331
407
  5
40D
331
3E5
  5
3E5
331
3D4
  5
3D4
331
493
  5
420
331
40E
  5
414
331
3F4
  5
3F4
331
41F
  5
427
331
405
  5
40B
331
3E3
  5
3E3
331
3D2
  5
3D2
331
40C
  5
412
331
3F2
  5
3F2
331
41D
  5
425
331
403
  5
409
331
3E1
  5
3E1
331
3D0
  5
3D0
331
40A
  5
410
331
3F0
  5
3F0
331
41B
  5
423
331
401
  5
407
331
3DF
  5
3DF
331
3CE
  5
3CE
331
3BD
  5
3BD
  0
LAYOUT
  5
47F
102
{ACAD_XDICTIONARY
360
51F
102
}
102
{ACAD_REACTORS
330
47D
102
}
330
47D
100
AcDbPlotSettings
  1

  2
Aucun(e)
  4

  6

 40
0.0
 41
0.0
 42
0.0
 43
0.0
 44
0.0
 45
0.0
 46
0.0
 47
0.0
 48
0.0
 49
0.0
140
0.0
141
0.0
142
1.0
143
1.0
 70
  1712
 72
     0
 73
     0
 74
     0
  7
acad.ctb
 75
     0
147
1.0
148
0.0
149
0.0
100
AcDbLayout
  1
Model
 70
     1
 71
     0
 10
0.0
 20
0.0
 11
12.0
 21
9.0
 12
0.0
 22
0.0
 32
0.0
 14
0.0
 24
0.0
 34
0.0
 15
0.0
 25
0.0
 35
0.0
146
0.0
 13
0.0
 23
0.0
 33
0.0
 16
1.0
 26
0.0
 36
0.0
 17
0.0
 27
1.0
 37
0.0
 76
     0
330
FF
331
483
  0
LAYOUT
  5
480
102
{ACAD_XDICTIONARY
360
521
102
}
102
{ACAD_REACTORS
330
47D
102
}
330
47D
100
AcDbPlotSettings
  1

  2
Aucun(e)
  4

  6

 40
0.0
 41
0.0
 42
0.0
 43
0.0
 44
0.0
 45
0.0
 46
0.0
 47
0.0
 48
0.0
 49
0.0
140
0.0
141
0.0
142
1.0
143
1.0
 70
   688
 72
     0
 73
     0
 74
     5
  7
acad.ctb
 75
    16
147
1.0
148
0.0
149
0.0
100
AcDbLayout
  1
Présentation1
 70
     1
 71
     1
 10
0.0
 20
0.0
 11
12.0
 21
9.0
 12
0.0
 22
0.0
 32
0.0
 14
1.000000000000000E+20
 24
1.000000000000000E+20
 34
1.000000000000000E+20
 15
-1.000000000000000E+20
 25
-1.000000000000000E+20
 35
-1.000000000000000E+20
146
0.0
 13
0.0
 23
0.0
 33
0.0
 16
1.0
 26
0.0
 36
0.0
 17
0.0
 27
1.0
 37
0.0
 76
     0
330
100
  0
MATERIAL
  5
43C
102
{ACAD_XDICTIONARY
360
43D
102
}
102
{ACAD_REACTORS
330
433
102
}
330
433
100
AcDbMaterial
  1
ByBlock
 72
     0
 43
0.0208333333333333
 43
0.0
 43
0.0
 43
0.0
 43
0.0
 43
0.0208333333333333
 43
0.0
 43
0.0
 43
0.0
 43
0.0
 43
1.0
 43
0.0
 43
0.0
 43
0.0
 43
0.0
 43
1.0
 77
     0
 47
0.0208333333333333
 47
0.0
 47
0.0
 47
0.0
 47
0.0
 47
0.0208333333333333
 47
0.0
 47
0.0
 47
0.0
 47
0.0
 47
1.0
 47
0.0
 47
0.0
 47
0.0
 47
0.0
 47
1.0
171
     0
 49
0.0208333333333333
 49
0.0
 49
0.0
 49
0.0
 49
0.0
 49
0.0208333333333333
 49
0.0
 49
0.0
 49
0.0
 49
0.0
 49
1.0
 49
0.0
 49
0.0
 49
0.0
 49
0.0
 49
1.0
175
     0
142
0.0208333333333333
142
0.0
142
0.0
142
0.0
142
0.0
142
0.0208333333333333
142
0.0
142
0.0
142
0.0
142
0.0
142
1.0
142
0.0
142
0.0
142
0.0
142
0.0
142
1.0
179
     0
144
0.0208333333333333
144
0.0
144
0.0
144
0.0
144
0.0
144
0.0208333333333333
144
0.0
144
0.0
144
0.0
144
0.0
144
1.0
144
0.0
144
0.0
144
0.0
144
0.0
144
1.0
147
0.0208333333333333
147
0.0
147
0.0
147
0.0
147
0.0
147
0.0208333333333333
147
0.0
147
0.0
147
0.0
147
0.0
147
1.0
147
0.0
147
0.0
147
0.0
147
0.0
147
1.0
  0
MATERIAL
  5
434
102
{ACAD_XDICTIONARY
360
435
102
}
102
{ACAD_REACTORS
330
433
102
}
330
433
100
AcDbMaterial
  1
ByLayer
 72
     0
 43
0.0208333333333333
 43
0.0
 43
0.0
 43
0.0
 43
0.0
 43
0.0208333333333333
 43
0.0
 43
0.0
 43
0.0
 43
0.0
 43
1.0
 43
0.0
 43
0.0
 43
0.0
 43
0.0
 43
1.0
 77
     0
 47
0.0208333333333333
 47
0.0
 47
0.0
 47
0.0
 47
0.0
 47
0.0208333333333333
 47
0.0
 47
0.0
 47
0.0
 47
0.0
 47
1.0
 47
0.0
 47
0.0
 47
0.0
 47
0.0
 47
1.0
171
     0
 49
0.0208333333333333
 49
0.0
 49
0.0
 49
0.0
 49
0.0
 49
0.0208333333333333
 49
0.0
 49
0.0
 49
0.0
 49
0.0
 49
1.0
 49
0.0
 49
0.0
 49
0.0
 49
0.0
 49
1.0
175
     0
142
0.0208333333333333
142
0.0
142
0.0
142
0.0
142
0.0
142
0.0208333333333333
142
0.0
142
0.0
142
0.0
142
0.0
142
1.0
142
0.0
142
0.0
142
0.0
142
0.0
142
1.0
179
     0
144
0.0208333333333333
144
0.0
144
0.0
144
0.0
144
0.0
144
0.0208333333333333
144
0.0
144
0.0
144
0.0
144
0.0
144
1.0
144
0.0
144
0.0
144
0.0
144
0.0
144
1.0
147
0.0208333333333333
147
0.0
147
0.0
147
0.0
147
0.0
147
0.0208333333333333
147
0.0
147
0.0
147
0.0
147
0.0
147
1.0
147
0.0
147
0.0
147
0.0
147
0.0
147
1.0
  0
MATERIAL
  5
444
102
{ACAD_XDICTIONARY
360
445
102
}
102
{ACAD_REACTORS
330
433
102
}
330
433
100
AcDbMaterial
  1
Global
 72
     0
 43
0.0208333333333333
 43
0.0
 43
0.0
 43
0.0
 43
0.0
 43
0.0208333333333333
 43
0.0
 43
0.0
 43
0.0
 43
0.0
 43
1.0
 43
0.0
 43
0.0
 43
0.0
 43
0.0
 43
1.0
 77
     0
 47
0.0208333333333333
 47
0.0
 47
0.0
 47
0.0
 47
0.0
 47
0.0208333333333333
 47
0.0
 47
0.0
 47
0.0
 47
0.0
 47
1.0
 47
0.0
 47
0.0
 47
0.0
 47
0.0
 47
1.0
171
     0
 49
0.0208333333333333
 49
0.0
 49
0.0
 49
0.0
 49
0.0
 49
0.0208333333333333
 49
0.0
 49
0.0
 49
0.0
 49
0.0
 49
1.0
 49
0.0
 49
0.0
 49
0.0
 49
0.0
 49
1.0
175
     0
142
0.0208333333333333
142
0.0
142
0.0
142
0.0
142
0.0
142
0.0208333333333333
142
0.0
142
0.0
142
0.0
142
0.0
142
1.0
142
0.0
142
0.0
142
0.0
142
0.0
142
1.0
179
     0
144
0.0208333333333333
144
0.0
144
0.0
144
0.0
144
0.0
144
0.0208333333333333
144
0.0
144
0.0
144
0.0
144
0.0
144
1.0
144
0.0
144
0.0
144
0.0
144
0.0
144
1.0
147
0.0208333333333333
147
0.0
147
0.0
147
0.0
147
0.0
147
0.0208333333333333
147
0.0
147
0.0
147
0.0
147
0.0
147
1.0
147
0.0
147
0.0
147
0.0
147
0.0
147
1.0
  0
MLEADERSTYLE
  5
47B
102
{ACAD_REACTORS
330
47A
102
}
330
47A
100
AcDbMLeaderStyle
170
     2
171
     1
172
     0
 90
        2
 40
0.0
 41
0.0
173
     1
 91
-1056964608
340
CA
 92
       -2
290
     1
 42
2.0
291
     1
 43
0.36
  3
Standard
 44
4.0
300

342
C4
174
     1
178
     6
175
     1
176
     0
 93
-1056964608
 45
4.0
292
     0
297
     0
 46
4.0
 94
-1056964608
 47
1.0
 49
1.0
140
1.0
293
     1
141
0.0
294
     1
177
     0
142
1.0
295
     0
296
     0
143
0.125
1001
ACAD_MLEADERVER
1070
     2
  0
MLINESTYLE
  5
4
330
3
100
AcDbMlineStyle
  2
STANDARD
 70
     0
  3

 62
     0
 51
90.0
 52
90.0
 71
     2
 49
0.5
 62
   256
  6
BYLAYER
 49
-0.5
 62
   256
  6
BYLAYER
  0
ACDBPLACEHOLDER
  5
432
102
{ACAD_REACTORS
330
431
102
}
330
431
  0
SCALE
  5
469
102
{ACAD_REACTORS
330
468
102
}
330
468
100
AcDbScale
 70
     0
300
1:1
140
1.0
141
1.0
290
     1
  0
SCALE
  5
46A
102
{ACAD_REACTORS
330
468
102
}
330
468
100
AcDbScale
 70
     0
300
1:2
140
1.0
141
2.0
290
     0
  0
SCALE
  5
46B
102
{ACAD_REACTORS
330
468
102
}
330
468
100
AcDbScale
 70
     0
300
1:4
140
1.0
141
4.0
290
     0
  0
SCALE
  5
46C
102
{ACAD_REACTORS
330
468
102
}
330
468
100
AcDbScale
 70
     0
300
1:5
140
1.0
141
5.0
290
     0
  0
SCALE
  5
46D
102
{ACAD_REACTORS
330
468
102
}
330
468
100
AcDbScale
 70
     0
300
1:8
140
1.0
141
8.0
290
     0
  0
SCALE
  5
46E
102
{ACAD_REACTORS
330
468
102
}
330
468
100
AcDbScale
 70
     0
300
1:10
140
1.0
141
10.0
290
     0
  0
SCALE
  5
46F
102
{ACAD_REACTORS
330
468
102
}
330
468
100
AcDbScale
 70
     0
300
1:16
140
1.0
141
16.0
290
     0
  0
SCALE
  5
470
102
{ACAD_REACTORS
330
468
102
}
330
468
100
AcDbScale
 70
     0
300
1:20
140
1.0
141
20.0
290
     0
  0
SCALE
  5
471
102
{ACAD_REACTORS
330
468
102
}
330
468
100
AcDbScale
 70
     0
300
1:30
140
1.0
141
30.0
290
     0
  0
SCALE
  5
472
102
{ACAD_REACTORS
330
468
102
}
330
468
100
AcDbScale
 70
     0
300
1:40
140
1.0
141
40.0
290
     0
  0
SCALE
  5
473
102
{ACAD_REACTORS
330
468
102
}
330
468
100
AcDbScale
 70
     0
300
1:50
140
1.0
141
50.0
290
     0
  0
SCALE
  5
474
102
{ACAD_REACTORS
330
468
102
}
330
468
100
AcDbScale
 70
     0
300
1:100
140
1.0
141
100.0
290
     0
  0
SCALE
  5
475
102
{ACAD_REACTORS
330
468
102
}
330
468
100
AcDbScale
 70
     0
300
2:1
140
2.0
141
1.0
290
     0
  0
SCALE
  5
476
102
{ACAD_REACTORS
330
468
102
}
330
468
100
AcDbScale
 70
     0
300
4:1
140
4.0
141
1.0
290
     0
  0
SCALE
  5
477
102
{ACAD_REACTORS
330
468
102
}
330
468
100
AcDbScale
 70
     0
300
8:1
140
8.0
141
1.0
290
     0
  0
SCALE
  5
478
102
{ACAD_REACTORS
330
468
102
}
330
468
100
AcDbScale
 70
     0
300
10:1
140
10.0
141
1.0
290
     0
  0
SCALE
  5
479
102
{ACAD_REACTORS
330
468
102
}
330
468
100
AcDbScale
 70
     0
300
100:1
140
100.0
141
1.0
290
     0
  0
TABLESTYLE
  5
467
102
{ACAD_XDICTIONARY
360
4E6
102
}
102
{ACAD_REACTORS
330
466
102
}
330
466
100
AcDbTableStyle
  3
Standard
 70
     0
 71
     0
 40
1.5
 41
1.5
280
     0
281
     0
  7
STANDARD
140
4.5
170
     2
 62
     0
 63
     7
283
     0
274
    -2
284
     1
 64
     0
275
    -2
285
     1
 65
     0
276
    -2
286
     1
 66
     0
277
    -2
287
     1
 67
     0
278
    -2
288
     1
 68
     0
279
    -2
289
     1
 69
     0
  7
STANDARD
140
6.0
170
     5
 62
     0
 63
     7
283
     0
274
    -2
284
     1
 64
     0
275
    -2
285
     1
 65
     0
276
    -2
286
     1
 66
     0
277
    -2
287
     1
 67
     0
278
    -2
288
     1
 68
     0
279
    -2
289
     1
 69
     0
  7
STANDARD
140
4.5
170
     5
 62
     0
 63
     7
283
     0
274
    -2
284
     1
 64
     0
275
    -2
285
     1
 65
     0
276
    -2
286
     1
 66
     0
277
    -2
287
     1
 67
     0
278
    -2
288
     1
 68
     0
279
    -2
289
     1
 69
     0
  0
VISUALSTYLE
  5
452
102
{ACAD_XDICTIONARY
360
4F7
102
}
102
{ACAD_REACTORS
330
44C
102
}
330
44C
100
AcDbVisualStyle
  2
2dWireframe
 70
     4
 71
     0
 72
     2
 73
     0
 90
        0
 40
-0.6
 41
-30.0
 62
     5
 63
     7
 74
     1
 91
        4
 64
     7
 65
   257
 75
     1
175
     1
 42
1.0
 92
        0
 66
   257
 43
1.0
 76
     1
 77
     6
 78
     2
 67
     7
 79
     5
170
     0
171
     0
290
     0
174
     0
 93
        1
 44
0.0
173
     0
291
     0
 45
0.0
1001
ACAD
1000
AcDbSavedByObjectVersion
1070
     0
  0
VISUALSTYLE
  5
451
102
{ACAD_XDICTIONARY
360
4F5
102
}
102
{ACAD_REACTORS
330
44C
102
}
330
44C
100
AcDbVisualStyle
  2
Basic
 70
     7
 71
     1
 72
     0
 73
     1
 90
        0
 40
-0.6
 41
-30.0
 62
     5
 63
     7
 74
     0
 91
        4
 64
     7
 65
   257
 75
     1
175
     1
 42
1.0
 92
        8
 66
     7
 43
1.0
 76
     1
 77
     6
 78
     2
 67
     7
 79
     5
170
     0
171
     0
290
     0
174
     0
 93
        1
 44
0.0
173
     0
291
     1
 45
0.0
1001
ACAD
1000
AcDbSavedByObjectVersion
1070
     0
  0
VISUALSTYLE
  5
458
102
{ACAD_XDICTIONARY
360
503
102
}
102
{ACAD_REACTORS
330
44C
102
}
330
44C
100
AcDbVisualStyle
  2
Brighten
 70
    12
 71
     2
 72
     2
 73
     0
 90
        0
 40
-0.6
 41
-30.0
 62
     5
 63
     7
 74
     1
 91
        4
 64
     7
 65
   257
 75
     1
175
     1
 42
1.0
 92
        8
 66
     7
 43
1.0
 76
     1
 77
     6
 78
     2
 67
     7
 79
     5
170
     0
171
     0
290
     0
174
     0
 93
        1
 44
50.0
173
     0
291
     1
 45
0.0
1001
ACAD
1000
AcDbSavedByObjectVersion
1070
     0
  0
VISUALSTYLE
  5
45C
102
{ACAD_XDICTIONARY
360
50B
102
}
102
{ACAD_REACTORS
330
44C
102
}
330
44C
100
AcDbVisualStyle
  2
ColorChange
 70
    16
 71
     2
 72
     2
 73
     3
 90
        0
 40
-0.6
 41
-30.0
 62
     5
 63
     8
 74
     1
 91
        4
 64
     7
 65
   257
 75
     1
175
     1
 42
1.0
 92
        8
 66
     8
 43
1.0
 76
     1
 77
     6
 78
     2
 67
     7
 79
     5
170
     0
171
     0
290
     0
174
     0
 93
        1
 44
0.0
173
     0
291
     1
 45
0.0
1001
ACAD
1000
AcDbSavedByObjectVersion
1070
     0
  0
VISUALSTYLE
  5
455
102
{ACAD_XDICTIONARY
360
4FD
102
}
102
{ACAD_REACTORS
330
44C
102
}
330
44C
100
AcDbVisualStyle
  2
Conceptual
 70
     9
 71
     3
 72
     2
 73
     0
 90
        0
 40
-0.6
 41
-30.0
 62
     5
 63
     7
 74
     2
 91
        2
 64
     7
 65
   257
 75
     1
175
     1
 42
179.0
 92
        8
 66
     7
 43
1.0
 76
     1
 77
     6
 78
     2
 67
     7
 79
     3
170
     0
171
     0
290
     0
174
     0
 93
        1
 44
0.0
173
     0
291
     0
 45
0.0
1001
ACAD
1000
AcDbSavedByObjectVersion
1070
     0
  0
VISUALSTYLE
  5
457
102
{ACAD_XDICTIONARY
360
501
102
}
102
{ACAD_REACTORS
330
44C
102
}
330
44C
100
AcDbVisualStyle
  2
Dim
 70
    11
 71
     2
 72
     2
 73
     0
 90
        0
 40
-0.6
 41
-30.0
 62
     5
 63
     7
 74
     1
 91
        4
 64
     7
 65
   257
 75
     1
175
     1
 42
1.0
 92
        8
 66
     7
 43
1.0
 76
     1
 77
     6
 78
     2
 67
     7
 79
     5
170
     0
171
     0
290
     0
174
     0
 93
        1
 44
-50.0
173
     0
291
     1
 45
0.0
1001
ACAD
1000
AcDbSavedByObjectVersion
1070
     0
  0
VISUALSTYLE
  5
464
102
{ACAD_XDICTIONARY
360
51B
102
}
102
{ACAD_REACTORS
330
44C
102
}
330
44C
100
AcDbVisualStyle
  2
EdgeColorOff
 70
    22
 71
     2
 72
     2
 73
     0
 90
        0
 40
-0.6
 41
-30.0
 62
     5
 63
     7
 74
     1
 91
        4
 64
     7
 65
   257
 75
     1
175
     1
 42
1.0
 92
        8
 66
     7
 43
1.0
 76
     1
 77
     6
 78
     2
 67
     7
 79
     5
170
     0
171
     0
290
     0
174
     0
 93
        1
 44
0.0
173
     0
291
     1
 45
0.0
1001
ACAD
1000
AcDbSavedByObjectVersion
1070
     0
  0
VISUALSTYLE
  5
45B
102
{ACAD_XDICTIONARY
360
509
102
}
102
{ACAD_REACTORS
330
44C
102
}
330
44C
100
AcDbVisualStyle
  2
Facepattern
 70
    15
 71
     2
 72
     2
 73
     0
 90
        0
 40
-0.6
 41
-30.0
 62
     5
 63
     7
 74
     1
 91
        4
 64
     7
 65
   257
 75
     1
175
     1
 42
1.0
 92
        8
 66
     7
 43
1.0
 76
     1
 77
     6
 78
     2
 67
     7
 79
     5
170
     0
171
     0
290
     0
174
     0
 93
        1
 44
0.0
173
     0
291
     1
 45
0.0
1001
ACAD
1000
AcDbSavedByObjectVersion
1070
     0
  0
VISUALSTYLE
  5
44D
102
{ACAD_XDICTIONARY
360
4ED
102
}
102
{ACAD_REACTORS
330
44C
102
}
330
44C
100
AcDbVisualStyle
  2
Flat
 70
     0
 71
     2
 72
     1
 73
     1
 90
        2
 40
-0.6
 41
30.0
 62
     5
 63
     7
 74
     0
 91
        0
 64
     7
 65
   257
 75
     1
175
     1
 42
1.0
 92
        8
 66
     7
 43
1.0
 76
     1
 77
     6
 78
     2
 67
     7
 79
     5
170
     0
171
     0
290
     0
174
     0
 93
       13
 44
0.0
173
     0
291
     1
 45
0.0
1001
ACAD
1000
AcDbSavedByObjectVersion
1070
     0
  0
VISUALSTYLE
  5
44E
102
{ACAD_XDICTIONARY
360
4EF
102
}
102
{ACAD_REACTORS
330
44C
102
}
330
44C
100
AcDbVisualStyle
  2
FlatWithEdges
 70
     1
 71
     2
 72
     1
 73
     1
 90
        2
 40
-0.6
 41
30.0
 62
     5
 63
     7
 74
     1
 91
        0
 64
     7
 65
   257
 75
     1
175
     1
 42
1.0
 92
        0
 66
   257
 43
1.0
 76
     1
 77
     6
 78
     2
 67
     7
 79
     5
170
     0
171
     0
290
     0
174
     0
 93
       13
 44
0.0
173
     0
291
     1
 45
0.0
1001
ACAD
1000
AcDbSavedByObjectVersion
1070
     0
  0
VISUALSTYLE
  5
44F
102
{ACAD_XDICTIONARY
360
4F1
102
}
102
{ACAD_REACTORS
330
44C
102
}
330
44C
100
AcDbVisualStyle
  2
Gouraud
 70
     2
 71
     2
 72
     2
 73
     1
 90
        2
 40
-0.6
 41
30.0
 62
     5
 63
     7
 74
     0
 91
        0
 64
     7
 65
   257
 75
     1
175
     1
 42
1.0
 92
        0
 66
     7
 43
1.0
 76
     1
 77
     6
 78
     2
 67
     7
 79
     5
170
     0
171
     0
290
     0
174
     0
 93
       13
 44
0.0
173
     0
291
     1
 45
0.0
1001
ACAD
1000
AcDbSavedByObjectVersion
1070
     0
  0
VISUALSTYLE
  5
450
102
{ACAD_XDICTIONARY
360
4F3
102
}
102
{ACAD_REACTORS
330
44C
102
}
330
44C
100
AcDbVisualStyle
  2
GouraudWithEdges
 70
     3
 71
     2
 72
     2
 73
     1
 90
        2
 40
-0.6
 41
30.0
 62
     5
 63
     7
 74
     1
 91
        0
 64
     7
 65
   257
 75
     1
175
     1
 42
1.0
 92
        0
 66
   257
 43
1.0
 76
     1
 77
     6
 78
     2
 67
     7
 79
     5
170
     0
171
     0
290
     0
174
     0
 93
       13
 44
0.0
173
     0
291
     1
 45
0.0
1001
ACAD
1000
AcDbSavedByObjectVersion
1070
     0
  0
VISUALSTYLE
  5
454
102
{ACAD_XDICTIONARY
360
4FB
102
}
102
{ACAD_REACTORS
330
44C
102
}
330
44C
100
AcDbVisualStyle
  2
Hidden
 70
     6
 71
     1
 72
     2
 73
     2
 90
        0
 40
-0.6
 41
-30.0
 62
     5
 63
     7
 74
     2
 91
        2
 64
     7
 65
   257
 75
     2
175
     1
 42
40.0
 92
        0
 66
   257
 43
1.0
 76
     1
 77
     6
 78
     2
 67
     7
 79
     3
170
     0
171
     0
290
     0
174
     0
 93
        1
 44
0.0
173
     0
291
     0
 45
0.0
1001
ACAD
1000
AcDbSavedByObjectVersion
1070
     0
  0
VISUALSTYLE
  5
462
102
{ACAD_XDICTIONARY
360
517
102
}
102
{ACAD_REACTORS
330
44C
102
}
330
44C
100
AcDbVisualStyle
  2
JitterOff
 70
    20
 71
     2
 72
     2
 73
     0
 90
        0
 40
-0.6
 41
-30.0
 62
     5
 63
     7
 74
     1
 91
        4
 64
     7
 65
   257
 75
     1
175
     1
 42
1.0
 92
       10
 66
     7
 43
1.0
 76
     1
 77
     6
 78
     2
 67
     7
 79
     5
170
     0
171
     0
290
     0
174
     0
 93
        1
 44
0.0
173
     0
291
     1
 45
0.0
1001
ACAD
1000
AcDbSavedByObjectVersion
1070
     0
  0
VISUALSTYLE
  5
45A
102
{ACAD_XDICTIONARY
360
507
102
}
102
{ACAD_REACTORS
330
44C
102
}
330
44C
100
AcDbVisualStyle
  2
Linepattern
 70
    14
 71
     2
 72
     2
 73
     0
 90
        0
 40
-0.6
 41
-30.0
 62
     5
 63
     7
 74
     1
 91
        4
 64
     7
 65
   257
 75
     7
175
     7
 42
1.0
 92
        8
 66
     7
 43
1.0
 76
     1
 77
     6
 78
     2
 67
     7
 79
     5
170
     0
171
     0
290
     0
174
     0
 93
        1
 44
0.0
173
     0
291
     1
 45
0.0
1001
ACAD
1000
AcDbSavedByObjectVersion
1070
     0
  0
VISUALSTYLE
  5
463
102
{ACAD_XDICTIONARY
360
519
102
}
102
{ACAD_REACTORS
330
44C
102
}
330
44C
100
AcDbVisualStyle
  2
OverhangOff
 70
    21
 71
     2
 72
     2
 73
     0
 90
        0
 40
-0.6
 41
-30.0
 62
     5
 63
     7
 74
     1
 91
        4
 64
     7
 65
   257
 75
     1
175
     1
 42
1.0
 92
        9
 66
     7
 43
1.0
 76
     1
 77
     6
 78
     2
 67
     7
 79
     5
170
     0
171
     0
290
     0
174
     0
 93
        1
 44
0.0
173
     0
291
     1
 45
0.0
1001
ACAD
1000
AcDbSavedByObjectVersion
1070
     0
  0
VISUALSTYLE
  5
456
102
{ACAD_XDICTIONARY
360
4FF
102
}
102
{ACAD_REACTORS
330
44C
102
}
330
44C
100
AcDbVisualStyle
  2
Realistic
 70
     8
 71
     2
 72
     3
 73
     0
 90
        2
 40
-0.6
 41
30.0
 62
     5
 63
     7
 74
     0
 91
        0
 64
     7
 65
   257
 75
     1
175
     1
 42
1.0
 92
        8
 66
   257
 43
1.0
 76
     1
 77
     6
 78
     2
 67
     7
 79
     3
170
     0
171
     0
290
     0
174
     0
 93
       13
 44
0.0
173
     0
291
     0
 45
0.0
1001
ACAD
1000
AcDbSavedByObjectVersion
1070
     0
  0
VISUALSTYLE
  5
461
102
{ACAD_XDICTIONARY
360
515
102
}
102
{ACAD_REACTORS
330
44C
102
}
330
44C
100
AcDbVisualStyle
  2
Shaded
 70
    27
 71
     2
 72
     2
 73
     1
 90
        2
 40
-0.6
 41
30.0
 62
     5
 63
     7
 74
     0
 91
        4
 64
     7
 65
   257
 75
     1
175
     1
 42
1.0
 92
        8
 66
   257
 43
1.0
 76
     1
 77
     6
 78
     2
 67
     8
 79
     3
170
     0
171
     0
290
     0
174
     0
 93
        5
 44
0.0
173
     0
291
     0
 45
0.0
1001
ACAD
1000
AcDbSavedByObjectVersion
1070
     0
  0
VISUALSTYLE
  5
460
102
{ACAD_XDICTIONARY
360
513
102
}
102
{ACAD_REACTORS
330
44C
102
}
330
44C
100
AcDbVisualStyle
  2
Shaded with edges
 70
    26
 71
     2
 72
     2
 73
     1
 90
        2
 40
-0.6
 41
30.0
 62
     5
 63
     7
 74
     1
 91
       10
 64
     7
 65
   257
 75
     2
175
     1
 42
1.0
 92
        8
 66
   257
 43
1.0
 76
     1
 77
     6
 78
     2
 67
     7
 79
     3
170
     0
171
     0
290
     0
174
     0
 93
        5
 44
0.0
173
     0
291
     0
 45
0.0
1001
ACAD
1000
AcDbSavedByObjectVersion
1070
     0
  0
VISUALSTYLE
  5
45D
102
{ACAD_XDICTIONARY
360
50D
102
}
102
{ACAD_REACTORS
330
44C
102
}
330
44C
100
AcDbVisualStyle
  2
Shades of Gray
 70
    23
 71
     2
 72
     2
 73
     3
 90
        0
 40
-0.6
 41
-30.0
 62
     5
 63
     7
 74
     2
 91
        2
 64
     7
 65
     7
 75
     1
175
     1
 42
40.0
 92
        8
 66
     7
 43
1.0
 76
     1
 77
     6
 78
     2
 67
     7
 79
     3
170
     0
171
     0
290
     0
174
     0
 93
        1
 44
0.0
173
     0
291
     0
 45
0.0
1001
ACAD
1000
AcDbSavedByObjectVersion
1070
     0
  0
VISUALSTYLE
  5
45E
102
{ACAD_XDICTIONARY
360
50F
102
}
102
{ACAD_REACTORS
330
44C
102
}
330
44C
100
AcDbVisualStyle
  2
Sketchy
 70
    24
 71
     1
 72
     2
 73
     2
 90
        0
 40
-0.6
 41
-30.0
 62
     5
 63
     7
 74
     2
 91
        2
 64
     7
 65
     7
 75
     1
175
     1
 42
40.0
 92
       11
 66
     7
 43
1.0
 76
     1
 77
     6
 78
     2
 67
     7
 79
     6
170
     0
171
     0
290
     0
174
     0
 93
        1
 44
0.0
173
     0
291
     0
 45
0.0
1001
ACAD
1000
AcDbSavedByObjectVersion
1070
     0
  0
VISUALSTYLE
  5
459
102
{ACAD_XDICTIONARY
360
505
102
}
102
{ACAD_REACTORS
330
44C
102
}
330
44C
100
AcDbVisualStyle
  2
Thicken
 70
    13
 71
     2
 72
     2
 73
     0
 90
        0
 40
-0.6
 41
-30.0
 62
     5
 63
     7
 74
     1
 91
        4
 64
     7
 65
   257
 75
     1
175
     1
 42
1.0
 92
       12
 66
     7
 43
1.0
 76
     1
 77
     6
 78
     2
 67
     7
 79
     5
170
     0
171
     0
290
     0
174
     0
 93
        1
 44
0.0
173
     0
291
     1
 45
0.0
1001
ACAD
1000
AcDbSavedByObjectVersion
1070
     0
  0
VISUALSTYLE
  5
453
102
{ACAD_XDICTIONARY
360
4F9
102
}
102
{ACAD_REACTORS
330
44C
102
}
330
44C
100
AcDbVisualStyle
  2
Wireframe
 70
     5
 71
     0
 72
     2
 73
     0
 90
        0
 40
-0.6
 41
-30.0
 62
     5
 63
     7
 74
     1
 91
        4
 64
     7
 65
   257
 75
     1
175
     1
 42
1.0
 92
        0
 66
   257
 43
1.0
 76
     1
 77
     6
 78
     2
 67
     7
 79
     3
170
     0
171
     0
290
     0
174
     0
 93
        1
 44
0.0
173
     0
291
     0
 45
0.0
1001
ACAD
1000
AcDbSavedByObjectVersion
1070
     0
  0
VISUALSTYLE
  5
45F
102
{ACAD_XDICTIONARY
360
511
102
}
102
{ACAD_REACTORS
330
44C
102
}
330
44C
100
AcDbVisualStyle
  2
X-Ray
 70
    25
 71
     2
 72
     2
 73
     1
 90
        1
 40
0.5
 41
-30.0
 62
     5
 63
     7
 74
     1
 91
        0
 64
     7
 65
   257
 75
     1
175
     1
 42
1.0
 92
        8
 66
     7
 43
1.0
 76
     1
 77
     6
 78
     2
 67
     7
 79
     3
170
     0
171
     0
290
     0
174
     0
 93
       13
 44
0.0
173
     0
291
     0
 45
0.0
1001
ACAD
1000
AcDbSavedByObjectVersion
1070
     0
  0
DICTIONARYVAR
  5
4E1
102
{ACAD_REACTORS
330
4DE
102
}
330
4DE
100
DictionaryVariables
280
     0
  1
1:1
  0
DICTIONARYVAR
  5
4E0
102
{ACAD_REACTORS
330
4DE
102
}
330
4DE
100
DictionaryVariables
280
     0
  1
STANDARD
  0
DICTIONARYVAR
  5
4DF
102
{ACAD_REACTORS
330
4DE
102
}
330
4DE
100
DictionaryVariables
280
     0
  1
STANDARD
  0
DICTIONARYVAR
  5
4E4
102
{ACAD_REACTORS
330
4DE
102
}
330
4DE
100
DictionaryVariables
280
     0
  1
1
  0
DICTIONARYVAR
  5
4E3
102
{ACAD_REACTORS
330
4DE
102
}
330
4DE
100
DictionaryVariables
280
     0
  1
0
  0
DICTIONARYVAR
  5
4E2
102
{ACAD_REACTORS
330
4DE
102
}
330
4DE
100
DictionaryVariables
280
     0
  1
127
  0
DICTIONARYVAR
  5
4E5
102
{ACAD_REACTORS
330
4DE
102
}
330
4DE
100
DictionaryVariables
280
     0
  1
2
  0
DICTIONARY
  5
51F
330
47F
100
AcDbDictionary
280
     1
281
     1
  3
ACAD_XREC_ROUNDTRIP
360
520
  0
DICTIONARY
  5
521
330
480
100
AcDbDictionary
280
     1
281
     1
  3
ACAD_XREC_ROUNDTRIP
360
522
  0
DICTIONARY
  5
43D
330
43C
100
AcDbDictionary
280
     1
281
     1
  3
ACAD_XREC_ROUNDTRIP
360
4EB
  3
BUMPTILE
360
43F
  3
DIFFUSETILE
360
43E
  3
OPACITYTILE
360
442
  3
REFLECTIONTILE
360
441
  3
REFRACTIONTILE
360
443
  3
SPECULARTILE
360
440
  0
DICTIONARY
  5
435
330
434
100
AcDbDictionary
280
     1
281
     1
  3
ACAD_XREC_ROUNDTRIP
360
4EA
  3
BUMPTILE
360
437
  3
DIFFUSETILE
360
436
  3
OPACITYTILE
360
43A
  3
REFLECTIONTILE
360
439
  3
REFRACTIONTILE
360
43B
  3
SPECULARTILE
360
438
  0
DICTIONARY
  5
445
330
444
100
AcDbDictionary
280
     1
281
     1
  3
ACAD_XREC_ROUNDTRIP
360
4EC
  3
BUMPTILE
360
447
  3
DIFFUSETILE
360
446
  3
OPACITYTILE
360
44A
  3
REFLECTIONTILE
360
449
  3
REFRACTIONTILE
360
44B
  3
SPECULARTILE
360
448
  0
DICTIONARY
  5
4E6
330
467
100
AcDbDictionary
280
     1
281
     1
  3
ACAD_ROUNDTRIP_2008_TABLESTYLE_CELLSTYLEMAP
360
4E7
  3
ACAD_XREC_ROUNDTRIP
360
51D
  0
DICTIONARY
  5
4F7
330
452
100
AcDbDictionary
280
     1
281
     1
  3
ACAD_XREC_ROUNDTRIP
360
4F8
  0
DICTIONARY
  5
4F5
330
451
100
AcDbDictionary
280
     1
281
     1
  3
ACAD_XREC_ROUNDTRIP
360
4F6
  0
DICTIONARY
  5
503
330
458
100
AcDbDictionary
280
     1
281
     1
  3
ACAD_XREC_ROUNDTRIP
360
504
  0
DICTIONARY
  5
50B
330
45C
100
AcDbDictionary
280
     1
281
     1
  3
ACAD_XREC_ROUNDTRIP
360
50C
  0
DICTIONARY
  5
4FD
330
455
100
AcDbDictionary
280
     1
281
     1
  3
ACAD_XREC_ROUNDTRIP
360
4FE
  0
DICTIONARY
  5
501
330
457
100
AcDbDictionary
280
     1
281
     1
  3
ACAD_XREC_ROUNDTRIP
360
502
  0
DICTIONARY
  5
51B
330
464
100
AcDbDictionary
280
     1
281
     1
  3
ACAD_XREC_ROUNDTRIP
360
51C
  0
DICTIONARY
  5
509
330
45B
100
AcDbDictionary
280
     1
281
     1
  3
ACAD_XREC_ROUNDTRIP
360
50A
  0
DICTIONARY
  5
4ED
330
44D
100
AcDbDictionary
280
     1
281
     1
  3
ACAD_XREC_ROUNDTRIP
360
4EE
  0
DICTIONARY
  5
4EF
330
44E
100
AcDbDictionary
280
     1
281
     1
  3
ACAD_XREC_ROUNDTRIP
360
4F0
  0
DICTIONARY
  5
4F1
330
44F
100
AcDbDictionary
280
     1
281
     1
  3
ACAD_XREC_ROUNDTRIP
360
4F2
  0
DICTIONARY
  5
4F3
330
450
100
AcDbDictionary
280
     1
281
     1
  3
ACAD_XREC_ROUNDTRIP
360
4F4
  0
DICTIONARY
  5
4FB
330
454
100
AcDbDictionary
280
     1
281
     1
  3
ACAD_XREC_ROUNDTRIP
360
4FC
  0
DICTIONARY
  5
517
330
462
100
AcDbDictionary
280
     1
281
     1
  3
ACAD_XREC_ROUNDTRIP
360
518
  0
DICTIONARY
  5
507
330
45A
100
AcDbDictionary
280
     1
281
     1
  3
ACAD_XREC_ROUNDTRIP
360
508
  0
DICTIONARY
  5
519
330
463
100
AcDbDictionary
280
     1
281
     1
  3
ACAD_XREC_ROUNDTRIP
360
51A
  0
DICTIONARY
  5
4FF
330
456
100
AcDbDictionary
280
     1
281
     1
  3
ACAD_XREC_ROUNDTRIP
360
500
  0
DICTIONARY
  5
515
330
461
100
AcDbDictionary
280
     1
281
     1
  3
ACAD_XREC_ROUNDTRIP
360
516
  0
DICTIONARY
  5
513
330
460
100
AcDbDictionary
280
     1
281
     1
  3
ACAD_XREC_ROUNDTRIP
360
514
  0
DICTIONARY
  5
50D
330
45D
100
AcDbDictionary
280
     1
281
     1
  3
ACAD_XREC_ROUNDTRIP
360
50E
  0
DICTIONARY
  5
50F
330
45E
100
AcDbDictionary
280
     1
281
     1
  3
ACAD_XREC_ROUNDTRIP
360
510
  0
DICTIONARY
  5
505
330
459
100
AcDbDictionary
280
     1
281
     1
  3
ACAD_XREC_ROUNDTRIP
360
506
  0
DICTIONARY
  5
4F9
330
453
100
AcDbDictionary
280
     1
281
     1
  3
ACAD_XREC_ROUNDTRIP
360
4FA
  0
DICTIONARY
  5
511
330
45F
100
AcDbDictionary
280
     1
281
     1
  3
ACAD_XREC_ROUNDTRIP
360
512
  0
XRECORD
  5
520
102
{ACAD_REACTORS
330
51F
102
}
330
51F
100
AcDbXrecord
280
     1
102
SHADEPLOT
 70
     0
102
SHADEPLOTRESLEVEL
 70
     2
102
SHADEPLOTCUSTOMDPI
 70
   300
  0
XRECORD
  5
522
102
{ACAD_REACTORS
330
521
102
}
330
521
100
AcDbXrecord
280
     1
102
SHADEPLOT
 70
     0
102
SHADEPLOTRESLEVEL
 70
     2
102
SHADEPLOTCUSTOMDPI
 70
   300
  0
XRECORD
  5
4EB
102
{ACAD_REACTORS
330
43D
102
}
330
43D
100
AcDbXrecord
280
     1
102
MATERIAL
148
0.0
149
0.0
149
0.0
 93
        0
 94
      127
282
     0
 72
     0
 77
     0
171
     0
175
     0
179
     0
273
     0
  0
XRECORD
  5
43F
102
{ACAD_REACTORS
330
43D
102
}
330
43D
100
AcDbXrecord
280
     1
270
     1
271
     1
  0
XRECORD
  5
43E
102
{ACAD_REACTORS
330
43D
102
}
330
43D
100
AcDbXrecord
280
     1
270
     1
271
     1
  0
XRECORD
  5
442
102
{ACAD_REACTORS
330
43D
102
}
330
43D
100
AcDbXrecord
280
     1
270
     1
271
     1
  0
XRECORD
  5
441
102
{ACAD_REACTORS
330
43D
102
}
330
43D
100
AcDbXrecord
280
     1
270
     1
271
     1
  0
XRECORD
  5
443
102
{ACAD_REACTORS
330
43D
102
}
330
43D
100
AcDbXrecord
280
     1
270
     1
271
     1
  0
XRECORD
  5
440
102
{ACAD_REACTORS
330
43D
102
}
330
43D
100
AcDbXrecord
280
     1
270
     1
271
     1
  0
XRECORD
  5
4EA
102
{ACAD_REACTORS
330
435
102
}
330
435
100
AcDbXrecord
280
     1
102
MATERIAL
148
0.0
149
0.0
149
0.0
 93
        0
 94
      127
282
     0
 72
     0
 77
     0
171
     0
175
     0
179
     0
273
     0
  0
XRECORD
  5
437
102
{ACAD_REACTORS
330
435
102
}
330
435
100
AcDbXrecord
280
     1
270
     1
271
     1
  0
XRECORD
  5
436
102
{ACAD_REACTORS
330
435
102
}
330
435
100
AcDbXrecord
280
     1
270
     1
271
     1
  0
XRECORD
  5
43A
102
{ACAD_REACTORS
330
435
102
}
330
435
100
AcDbXrecord
280
     1
270
     1
271
     1
  0
XRECORD
  5
439
102
{ACAD_REACTORS
330
435
102
}
330
435
100
AcDbXrecord
280
     1
270
     1
271
     1
  0
XRECORD
  5
43B
102
{ACAD_REACTORS
330
435
102
}
330
435
100
AcDbXrecord
280
     1
270
     1
271
     1
  0
XRECORD
  5
438
102
{ACAD_REACTORS
330
435
102
}
330
435
100
AcDbXrecord
280
     1
270
     1
271
     1
  0
XRECORD
  5
4EC
102
{ACAD_REACTORS
330
445
102
}
330
445
100
AcDbXrecord
280
     1
102
MATERIAL
148
0.0
149
0.0
149
0.0
 93
        0
 94
      127
282
     0
 72
     0
 77
     0
171
     0
175
     0
179
     0
273
     0
  0
XRECORD
  5
447
102
{ACAD_REACTORS
330
445
102
}
330
445
100
AcDbXrecord
280
     1
270
     1
271
     1
  0
XRECORD
  5
446
102
{ACAD_REACTORS
330
445
102
}
330
445
100
AcDbXrecord
280
     1
270
     1
271
     1
  0
XRECORD
  5
44A
102
{ACAD_REACTORS
330
445
102
}
330
445
100
AcDbXrecord
280
     1
270
     1
271
     1
  0
XRECORD
  5
449
102
{ACAD_REACTORS
330
445
102
}
330
445
100
AcDbXrecord
280
     1
270
     1
271
     1
  0
XRECORD
  5
44B
102
{ACAD_REACTORS
330
445
102
}
330
445
100
AcDbXrecord
280
     1
270
     1
271
     1
  0
XRECORD
  5
448
102
{ACAD_REACTORS
330
445
102
}
330
445
100
AcDbXrecord
280
     1
270
     1
271
     1
  0
CELLSTYLEMAP
  5
4E7
102
{ACAD_REACTORS
330
4E6
102
}
330
4E6
100
AcDbCellStyleMap
 90
        3
300
CELLSTYLE
  1
TABLEFORMAT_BEGIN
 90
        5
170
     1
 91
        0
 92
    32768
 62
   257
 93
        1
300
CONTENTFORMAT
  1
CONTENTFORMAT_BEGIN
 90
        0
 91
        0
 92
      512
 93
        0
300

 40
0.0
140
1.0
 94
        5
 62
     0
340
C4
144
6.0
309
CONTENTFORMAT_END
171
     1
301
MARGIN
  1
CELLMARGIN_BEGIN
 40
1.5
 40
1.5
 40
1.5
 40
1.5
 40
4.5
 40
4.5
309
CELLMARGIN_END
 94
        6
 95
        1
302
GRIDFORMAT
  1
GRIDFORMAT_BEGIN
 90
        0
 91
        1
 62
     0
 92
       -2
340
0
 93
        0
 40
1.125
309
GRIDFORMAT_END
 95
        2
302
GRIDFORMAT
  1
GRIDFORMAT_BEGIN
 90
        0
 91
        1
 62
     0
 92
       -2
340
0
 93
        0
 40
1.125
309
GRIDFORMAT_END
 95
        4
302
GRIDFORMAT
  1
GRIDFORMAT_BEGIN
 90
        0
 91
        1
 62
     0
 92
       -2
340
0
 93
        0
 40
1.125
309
GRIDFORMAT_END
 95
        8
302
GRIDFORMAT
  1
GRIDFORMAT_BEGIN
 90
        0
 91
        1
 62
     0
 92
       -2
340
0
 93
        0
 40
1.125
309
GRIDFORMAT_END
 95
       16
302
GRIDFORMAT
  1
GRIDFORMAT_BEGIN
 90
        0
 91
        1
 62
     0
 92
       -2
340
0
 93
        0
 40
1.125
309
GRIDFORMAT_END
 95
       32
302
GRIDFORMAT
  1
GRIDFORMAT_BEGIN
 90
        0
 91
        1
 62
     0
 92
       -2
340
0
 93
        0
 40
1.125
309
GRIDFORMAT_END
309
TABLEFORMAT_END
  1
CELLSTYLE_BEGIN
 90
        1
 91
        1
300
_TITLE
309
CELLSTYLE_END
300
CELLSTYLE
  1
TABLEFORMAT_BEGIN
 90
        5
170
     1
 91
        0
 92
        0
 62
   257
 93
        1
300
CONTENTFORMAT
  1
CONTENTFORMAT_BEGIN
 90
        0
 91
        0
 92
      512
 93
        0
300

 40
0.0
140
1.0
 94
        5
 62
     0
340
C4
144
4.5
309
CONTENTFORMAT_END
171
     1
301
MARGIN
  1
CELLMARGIN_BEGIN
 40
1.5
 40
1.5
 40
1.5
 40
1.5
 40
4.5
 40
4.5
309
CELLMARGIN_END
 94
        6
 95
        1
302
GRIDFORMAT
  1
GRIDFORMAT_BEGIN
 90
        0
 91
        1
 62
     0
 92
       -2
340
0
 93
        0
 40
1.125
309
GRIDFORMAT_END
 95
        2
302
GRIDFORMAT
  1
GRIDFORMAT_BEGIN
 90
        0
 91
        1
 62
     0
 92
       -2
340
0
 93
        0
 40
1.125
309
GRIDFORMAT_END
 95
        4
302
GRIDFORMAT
  1
GRIDFORMAT_BEGIN
 90
        0
 91
        1
 62
     0
 92
       -2
340
0
 93
        0
 40
1.125
309
GRIDFORMAT_END
 95
        8
302
GRIDFORMAT
  1
GRIDFORMAT_BEGIN
 90
        0
 91
        1
 62
     0
 92
       -2
340
0
 93
        0
 40
1.125
309
GRIDFORMAT_END
 95
       16
302
GRIDFORMAT
  1
GRIDFORMAT_BEGIN
 90
        0
 91
        1
 62
     0
 92
       -2
340
0
 93
        0
 40
1.125
309
GRIDFORMAT_END
 95
       32
302
GRIDFORMAT
  1
GRIDFORMAT_BEGIN
 90
        0
 91
        1
 62
     0
 92
       -2
340
0
 93
        0
 40
1.125
309
GRIDFORMAT_END
309
TABLEFORMAT_END
  1
CELLSTYLE_BEGIN
 90
        2
 91
        1
300
_HEADER
309
CELLSTYLE_END
300
CELLSTYLE
  1
TABLEFORMAT_BEGIN
 90
        5
170
     1
 91
        0
 92
        0
 62
   257
 93
        1
300
CONTENTFORMAT
  1
CONTENTFORMAT_BEGIN
 90
        0
 91
        0
 92
      512
 93
        0
300

 40
0.0
140
1.0
 94
        2
 62
     0
340
C4
144
4.5
309
CONTENTFORMAT_END
171
     1
301
MARGIN
  1
CELLMARGIN_BEGIN
 40
1.5
 40
1.5
 40
1.5
 40
1.5
 40
4.5
 40
4.5
309
CELLMARGIN_END
 94
        6
 95
        1
302
GRIDFORMAT
  1
GRIDFORMAT_BEGIN
 90
        0
 91
        1
 62
     0
 92
       -2
340
0
 93
        0
 40
1.125
309
GRIDFORMAT_END
 95
        2
302
GRIDFORMAT
  1
GRIDFORMAT_BEGIN
 90
        0
 91
        1
 62
     0
 92
       -2
340
0
 93
        0
 40
1.125
309
GRIDFORMAT_END
 95
        4
302
GRIDFORMAT
  1
GRIDFORMAT_BEGIN
 90
        0
 91
        1
 62
     0
 92
       -2
340
0
 93
        0
 40
1.125
309
GRIDFORMAT_END
 95
        8
302
GRIDFORMAT
  1
GRIDFORMAT_BEGIN
 90
        0
 91
        1
 62
     0
 92
       -2
340
0
 93
        0
 40
1.125
309
GRIDFORMAT_END
 95
       16
302
GRIDFORMAT
  1
GRIDFORMAT_BEGIN
 90
        0
 91
        1
 62
     0
 92
       -2
340
0
 93
        0
 40
1.125
309
GRIDFORMAT_END
 95
       32
302
GRIDFORMAT
  1
GRIDFORMAT_BEGIN
 90
        0
 91
        1
 62
     0
 92
       -2
340
0
 93
        0
 40
1.125
309
GRIDFORMAT_END
309
TABLEFORMAT_END
  1
CELLSTYLE_BEGIN
 90
        3
 91
        2
300
_DATA
309
CELLSTYLE_END
  0
XRECORD
  5
51D
102
{ACAD_REACTORS
330
4E6
102
}
330
4E6
100
AcDbXrecord
280
     1
102
ACAD_ROUNDTRIP_PRE2007_TABLESTYLE
 90
      512
 91
        0
  1

 92
      512
 93
        0
  2

 94
      512
 95
        0
  3

  0
XRECORD
  5
4F8
102
{ACAD_REACTORS
330
4F7
102
}
330
4F7
100
AcDbXrecord
280
     1
102
RTVSPropertyOp0
 70
     1
102
RTVSPropertyOp1
 70
     1
102
RTVSPropertyOp2
 70
     1
102
RTVSPropertyOp3
 70
     1
102
RTVSPropertyOp4
 70
     1
102
RTVSPropertyOp5
 70
     1
102
RTVSPropertyOp6
 70
     1
102
RTVSPropertyOp7
 70
     1
102
RTVSPropertyOp8
 70
     1
102
RTVSPropertyOp9
 70
     1
102
RTVSPropertyOp10
 70
     1
102
RTVSPropertyOp11
 70
     1
102
RTVSPropertyOp12
 70
     1
102
RTVSPropertyOp13
 70
     1
102
RTVSPropertyOp14
 70
     1
102
RTVSPropertyOp15
 70
     1
102
RTVSPropertyOp16
 70
     1
102
RTVSPropertyOp17
 70
     1
102
RTVSPropertyOp18
 70
     1
102
RTVSPropertyOp19
 70
     1
102
RTVSPropertyOp20
 70
     1
102
RTVSPropertyOp21
 70
     1
102
RTVSPropertyOp22
 70
     1
102
RTVSPropertyOp23
 70
     1
102
RTVSPropertyOp24
 70
     1
102
RTVSPropertyOp25
 70
     1
102
RTVSPropertyOp26
 70
     1
102
RTVSPropertyOp27
 70
     1
102
RTVSPropertyOp28
 70
     1
102
RTVSPropertyOp29
 70
     1
102
RTVSPropertyOp30
 70
     1
102
RTVSPropertyOp31
 70
     1
102
RTVSPropertyOp32
 70
     1
  0
XRECORD
  5
4F6
102
{ACAD_REACTORS
330
4F5
102
}
330
4F5
100
AcDbXrecord
280
     1
102
RTVSPropertyOp0
 70
     1
102
RTVSPropertyOp1
 70
     1
102
RTVSPropertyOp2
 70
     1
102
RTVSPropertyOp3
 70
     1
102
RTVSPropertyOp4
 70
     1
102
RTVSPropertyOp5
 70
     1
102
RTVSPropertyOp6
 70
     1
102
RTVSPropertyOp7
 70
     1
102
RTVSPropertyOp8
 70
     1
102
RTVSPropertyOp9
 70
     1
102
RTVSPropertyOp10
 70
     1
102
RTVSPropertyOp11
 70
     1
102
RTVSPropertyOp12
 70
     1
102
RTVSPropertyOp13
 70
     1
102
RTVSPropertyOp14
 70
     1
102
RTVSPropertyOp15
 70
     1
102
RTVSPropertyOp16
 70
     1
102
RTVSPropertyOp17
 70
     1
102
RTVSPropertyOp18
 70
     1
102
RTVSPropertyOp19
 70
     1
102
RTVSPropertyOp20
 70
     1
102
RTVSPropertyOp21
 70
     1
102
RTVSPropertyOp22
 70
     1
102
RTVSPropertyOp23
 70
     1
102
RTVSPropertyOp24
 70
     1
102
RTVSPropertyOp25
 70
     1
102
RTVSPropertyOp26
 70
     1
102
RTVSPropertyOp27
 70
     1
102
RTVSPropertyOp28
 70
     1
102
RTVSPropertyOp29
 70
     1
102
RTVSPropertyOp30
 70
     1
102
RTVSPropertyOp31
 70
     1
102
RTVSPropertyOp32
 70
     1
  0
XRECORD
  5
504
102
{ACAD_REACTORS
330
503
102
}
330
503
100
AcDbXrecord
280
     1
102
RTVSPropertyOp0
 70
     1
102
RTVSPropertyOp1
 70
     1
102
RTVSPropertyOp2
 70
     1
102
RTVSPropertyOp3
 70
     1
102
RTVSPropertyOp4
 70
     1
102
RTVSPropertyOp5
 70
     1
102
RTVSPropertyOp6
 70
     1
102
RTVSPropertyOp7
 70
     1
102
RTVSPropertyOp8
 70
     1
102
RTVSPropertyOp9
 70
     1
102
RTVSPropertyOp10
 70
     1
102
RTVSPropertyOp11
 70
     1
102
RTVSPropertyOp12
 70
     1
102
RTVSPropertyOp13
 70
     1
102
RTVSPropertyOp14
 70
     1
102
RTVSPropertyOp15
 70
     1
102
RTVSPropertyOp16
 70
     1
102
RTVSPropertyOp17
 70
     1
102
RTVSPropertyOp18
 70
     1
102
RTVSPropertyOp19
 70
     1
102
RTVSPropertyOp20
 70
     1
102
RTVSPropertyOp21
 70
     1
102
RTVSPropertyOp22
 70
     1
102
RTVSPropertyOp23
 70
     1
102
RTVSPropertyOp24
 70
     1
102
RTVSPropertyOp25
 70
     1
102
RTVSPropertyOp26
 70
     1
102
RTVSPropertyOp27
 70
     1
102
RTVSPropertyOp28
 70
     1
102
RTVSPropertyOp29
 70
     1
102
RTVSPropertyOp30
 70
     1
102
RTVSPropertyOp31
 70
     1
102
RTVSPropertyOp32
 70
     1
  0
XRECORD
  5
50C
102
{ACAD_REACTORS
330
50B
102
}
330
50B
100
AcDbXrecord
280
     1
102
RTVSPropertyOp0
 70
     1
102
RTVSPropertyOp1
 70
     1
102
RTVSPropertyOp2
 70
     1
102
RTVSPropertyOp3
 70
     1
102
RTVSPropertyOp4
 70
     1
102
RTVSPropertyOp5
 70
     1
102
RTVSPropertyOp6
 70
     1
102
RTVSPropertyOp7
 70
     1
102
RTVSPropertyOp8
 70
     1
102
RTVSPropertyOp9
 70
     1
102
RTVSPropertyOp10
 70
     1
102
RTVSPropertyOp11
 70
     1
102
RTVSPropertyOp12
 70
     1
102
RTVSPropertyOp13
 70
     1
102
RTVSPropertyOp14
 70
     1
102
RTVSPropertyOp15
 70
     1
102
RTVSPropertyOp16
 70
     1
102
RTVSPropertyOp17
 70
     1
102
RTVSPropertyOp18
 70
     1
102
RTVSPropertyOp19
 70
     1
102
RTVSPropertyOp20
 70
     1
102
RTVSPropertyOp21
 70
     1
102
RTVSPropertyOp22
 70
     1
102
RTVSPropertyOp23
 70
     1
102
RTVSPropertyOp24
 70
     1
102
RTVSPropertyOp25
 70
     1
102
RTVSPropertyOp26
 70
     1
102
RTVSPropertyOp27
 70
     1
102
RTVSPropertyOp28
 70
     1
102
RTVSPropertyOp29
 70
     1
102
RTVSPropertyOp30
 70
     1
102
RTVSPropertyOp31
 70
     1
102
RTVSPropertyOp32
 70
     1
  0
XRECORD
  5
4FE
102
{ACAD_REACTORS
330
4FD
102
}
330
4FD
100
AcDbXrecord
280
     1
102
RTVSPropertyOp0
 70
     1
102
RTVSPropertyOp1
 70
     1
102
RTVSPropertyOp2
 70
     1
102
RTVSPropertyOp3
 70
     1
102
RTVSPropertyOp4
 70
     1
102
RTVSPropertyOp5
 70
     1
102
RTVSPropertyOp6
 70
     1
102
RTVSPropertyOp7
 70
     1
102
RTVSPropertyOp8
 70
     1
102
RTVSPropertyOp9
 70
     1
102
RTVSPropertyOp10
 70
     1
102
RTVSPropertyOp11
 70
     1
102
RTVSPropertyOp12
 70
     1
102
RTVSPropertyOp13
 70
     1
102
RTVSPropertyOp14
 70
     1
102
RTVSPropertyOp15
 70
     1
102
RTVSPropertyOp16
 70
     1
102
RTVSPropertyOp17
 70
     1
102
RTVSPropertyOp18
 70
     1
102
RTVSPropertyOp19
 70
     1
102
RTVSPropertyOp20
 70
     1
102
RTVSPropertyOp21
 70
     1
102
RTVSPropertyOp22
 70
     1
102
RTVSPropertyOp23
 70
     1
102
RTVSPropertyOp24
 70
     1
102
RTVSPropertyOp25
 70
     1
102
RTVSPropertyOp26
 70
     1
102
RTVSPropertyOp27
 70
     1
102
RTVSPropertyOp28
 70
     1
102
RTVSPropertyOp29
 70
     1
102
RTVSPropertyOp30
 70
     1
102
RTVSPropertyOp31
 70
     1
102
RTVSPropertyOp32
 70
     1
  0
XRECORD
  5
502
102
{ACAD_REACTORS
330
501
102
}
330
501
100
AcDbXrecord
280
     1
102
RTVSPropertyOp0
 70
     1
102
RTVSPropertyOp1
 70
     1
102
RTVSPropertyOp2
 70
     1
102
RTVSPropertyOp3
 70
     1
102
RTVSPropertyOp4
 70
     1
102
RTVSPropertyOp5
 70
     1
102
RTVSPropertyOp6
 70
     1
102
RTVSPropertyOp7
 70
     1
102
RTVSPropertyOp8
 70
     1
102
RTVSPropertyOp9
 70
     1
102
RTVSPropertyOp10
 70
     1
102
RTVSPropertyOp11
 70
     1
102
RTVSPropertyOp12
 70
     1
102
RTVSPropertyOp13
 70
     1
102
RTVSPropertyOp14
 70
     1
102
RTVSPropertyOp15
 70
     1
102
RTVSPropertyOp16
 70
     1
102
RTVSPropertyOp17
 70
     1
102
RTVSPropertyOp18
 70
     1
102
RTVSPropertyOp19
 70
     1
102
RTVSPropertyOp20
 70
     1
102
RTVSPropertyOp21
 70
     1
102
RTVSPropertyOp22
 70
     1
102
RTVSPropertyOp23
 70
     1
102
RTVSPropertyOp24
 70
     1
102
RTVSPropertyOp25
 70
     1
102
RTVSPropertyOp26
 70
     1
102
RTVSPropertyOp27
 70
     1
102
RTVSPropertyOp28
 70
     1
102
RTVSPropertyOp29
 70
     1
102
RTVSPropertyOp30
 70
     1
102
RTVSPropertyOp31
 70
     1
102
RTVSPropertyOp32
 70
     1
  0
XRECORD
  5
51C
102
{ACAD_REACTORS
330
51B
102
}
330
51B
100
AcDbXrecord
280
     1
102
RTVSPropertyOp0
 70
     0
102
RTVSPropertyOp1
 70
     0
102
RTVSPropertyOp2
 70
     0
102
RTVSPropertyOp3
 70
     0
102
RTVSPropertyOp4
 70
     0
102
RTVSPropertyOp5
 70
     0
102
RTVSPropertyOp6
 70
     0
102
RTVSPropertyOp7
 70
     0
102
RTVSPropertyOp8
 70
     0
102
RTVSPropertyOp9
 70
     0
102
RTVSPropertyOp10
 70
     0
102
RTVSPropertyOp11
 70
     0
102
RTVSPropertyOp12
 70
     0
102
RTVSPropertyOp13
 70
     0
102
RTVSPropertyOp14
 70
     2
102
RTVSPropertyOp15
 70
     0
102
RTVSPropertyOp16
 70
     0
102
RTVSPropertyOp17
 70
     0
102
RTVSPropertyOp18
 70
     0
102
RTVSPropertyOp19
 70
     0
102
RTVSPropertyOp20
 70
     0
102
RTVSPropertyOp21
 70
     0
102
RTVSPropertyOp22
 70
     0
102
RTVSPropertyOp23
 70
     0
102
RTVSPropertyOp24
 70
     0
102
RTVSPropertyOp25
 70
     0
102
RTVSPropertyOp26
 70
     0
102
RTVSPropertyOp27
 70
     0
102
RTVSPropertyOp28
 70
     0
102
RTVSPropertyOp29
 70
     0
102
RTVSPropertyOp30
 70
     0
102
RTVSPropertyOp31
 70
     0
102
RTVSPropertyOp32
 70
     0
  0
XRECORD
  5
50A
102
{ACAD_REACTORS
330
509
102
}
330
509
100
AcDbXrecord
280
     1
102
RTVSPropertyOp0
 70
     1
102
RTVSPropertyOp1
 70
     1
102
RTVSPropertyOp2
 70
     1
102
RTVSPropertyOp3
 70
     1
102
RTVSPropertyOp4
 70
     1
102
RTVSPropertyOp5
 70
     1
102
RTVSPropertyOp6
 70
     1
102
RTVSPropertyOp7
 70
     1
102
RTVSPropertyOp8
 70
     1
102
RTVSPropertyOp9
 70
     1
102
RTVSPropertyOp10
 70
     1
102
RTVSPropertyOp11
 70
     1
102
RTVSPropertyOp12
 70
     1
102
RTVSPropertyOp13
 70
     1
102
RTVSPropertyOp14
 70
     1
102
RTVSPropertyOp15
 70
     1
102
RTVSPropertyOp16
 70
     1
102
RTVSPropertyOp17
 70
     1
102
RTVSPropertyOp18
 70
     1
102
RTVSPropertyOp19
 70
     1
102
RTVSPropertyOp20
 70
     1
102
RTVSPropertyOp21
 70
     1
102
RTVSPropertyOp22
 70
     1
102
RTVSPropertyOp23
 70
     1
102
RTVSPropertyOp24
 70
     1
102
RTVSPropertyOp25
 70
     1
102
RTVSPropertyOp26
 70
     1
102
RTVSPropertyOp27
 70
     1
102
RTVSPropertyOp28
 70
     1
102
RTVSPropertyOp29
 70
     1
102
RTVSPropertyOp30
 70
     1
102
RTVSPropertyOp31
 70
     1
102
RTVSPropertyOp32
 70
     1
  0
XRECORD
  5
4EE
102
{ACAD_REACTORS
330
4ED
102
}
330
4ED
100
AcDbXrecord
280
     1
102
RTVSPropertyOp0
 70
     1
102
RTVSPropertyOp1
 70
     1
102
RTVSPropertyOp2
 70
     1
102
RTVSPropertyOp3
 70
     1
102
RTVSPropertyOp4
 70
     1
102
RTVSPropertyOp5
 70
     1
102
RTVSPropertyOp6
 70
     1
102
RTVSPropertyOp7
 70
     1
102
RTVSPropertyOp8
 70
     1
102
RTVSPropertyOp9
 70
     1
102
RTVSPropertyOp10
 70
     1
102
RTVSPropertyOp11
 70
     1
102
RTVSPropertyOp12
 70
     1
102
RTVSPropertyOp13
 70
     1
102
RTVSPropertyOp14
 70
     1
102
RTVSPropertyOp15
 70
     1
102
RTVSPropertyOp16
 70
     1
102
RTVSPropertyOp17
 70
     1
102
RTVSPropertyOp18
 70
     1
102
RTVSPropertyOp19
 70
     1
102
RTVSPropertyOp20
 70
     1
102
RTVSPropertyOp21
 70
     1
102
RTVSPropertyOp22
 70
     1
102
RTVSPropertyOp23
 70
     1
102
RTVSPropertyOp24
 70
     1
102
RTVSPropertyOp25
 70
     1
102
RTVSPropertyOp26
 70
     1
102
RTVSPropertyOp27
 70
     1
102
RTVSPropertyOp28
 70
     1
102
RTVSPropertyOp29
 70
     1
102
RTVSPropertyOp30
 70
     1
102
RTVSPropertyOp31
 70
     1
102
RTVSPropertyOp32
 70
     1
  0
XRECORD
  5
4F0
102
{ACAD_REACTORS
330
4EF
102
}
330
4EF
100
AcDbXrecord
280
     1
102
RTVSPropertyOp0
 70
     1
102
RTVSPropertyOp1
 70
     1
102
RTVSPropertyOp2
 70
     1
102
RTVSPropertyOp3
 70
     1
102
RTVSPropertyOp4
 70
     1
102
RTVSPropertyOp5
 70
     1
102
RTVSPropertyOp6
 70
     1
102
RTVSPropertyOp7
 70
     1
102
RTVSPropertyOp8
 70
     1
102
RTVSPropertyOp9
 70
     1
102
RTVSPropertyOp10
 70
     1
102
RTVSPropertyOp11
 70
     1
102
RTVSPropertyOp12
 70
     1
102
RTVSPropertyOp13
 70
     1
102
RTVSPropertyOp14
 70
     1
102
RTVSPropertyOp15
 70
     1
102
RTVSPropertyOp16
 70
     1
102
RTVSPropertyOp17
 70
     1
102
RTVSPropertyOp18
 70
     1
102
RTVSPropertyOp19
 70
     1
102
RTVSPropertyOp20
 70
     1
102
RTVSPropertyOp21
 70
     1
102
RTVSPropertyOp22
 70
     1
102
RTVSPropertyOp23
 70
     1
102
RTVSPropertyOp24
 70
     1
102
RTVSPropertyOp25
 70
     1
102
RTVSPropertyOp26
 70
     1
102
RTVSPropertyOp27
 70
     1
102
RTVSPropertyOp28
 70
     1
102
RTVSPropertyOp29
 70
     1
102
RTVSPropertyOp30
 70
     1
102
RTVSPropertyOp31
 70
     1
102
RTVSPropertyOp32
 70
     1
  0
XRECORD
  5
4F2
102
{ACAD_REACTORS
330
4F1
102
}
330
4F1
100
AcDbXrecord
280
     1
102
RTVSPropertyOp0
 70
     1
102
RTVSPropertyOp1
 70
     1
102
RTVSPropertyOp2
 70
     1
102
RTVSPropertyOp3
 70
     1
102
RTVSPropertyOp4
 70
     1
102
RTVSPropertyOp5
 70
     1
102
RTVSPropertyOp6
 70
     1
102
RTVSPropertyOp7
 70
     1
102
RTVSPropertyOp8
 70
     1
102
RTVSPropertyOp9
 70
     1
102
RTVSPropertyOp10
 70
     1
102
RTVSPropertyOp11
 70
     1
102
RTVSPropertyOp12
 70
     1
102
RTVSPropertyOp13
 70
     1
102
RTVSPropertyOp14
 70
     1
102
RTVSPropertyOp15
 70
     1
102
RTVSPropertyOp16
 70
     1
102
RTVSPropertyOp17
 70
     1
102
RTVSPropertyOp18
 70
     1
102
RTVSPropertyOp19
 70
     1
102
RTVSPropertyOp20
 70
     1
102
RTVSPropertyOp21
 70
     1
102
RTVSPropertyOp22
 70
     1
102
RTVSPropertyOp23
 70
     1
102
RTVSPropertyOp24
 70
     1
102
RTVSPropertyOp25
 70
     1
102
RTVSPropertyOp26
 70
     1
102
RTVSPropertyOp27
 70
     1
102
RTVSPropertyOp28
 70
     1
102
RTVSPropertyOp29
 70
     1
102
RTVSPropertyOp30
 70
     1
102
RTVSPropertyOp31
 70
     1
102
RTVSPropertyOp32
 70
     1
  0
XRECORD
  5
4F4
102
{ACAD_REACTORS
330
4F3
102
}
330
4F3
100
AcDbXrecord
280
     1
102
RTVSPropertyOp0
 70
     1
102
RTVSPropertyOp1
 70
     1
102
RTVSPropertyOp2
 70
     1
102
RTVSPropertyOp3
 70
     1
102
RTVSPropertyOp4
 70
     1
102
RTVSPropertyOp5
 70
     1
102
RTVSPropertyOp6
 70
     1
102
RTVSPropertyOp7
 70
     1
102
RTVSPropertyOp8
 70
     1
102
RTVSPropertyOp9
 70
     1
102
RTVSPropertyOp10
 70
     1
102
RTVSPropertyOp11
 70
     1
102
RTVSPropertyOp12
 70
     1
102
RTVSPropertyOp13
 70
     1
102
RTVSPropertyOp14
 70
     1
102
RTVSPropertyOp15
 70
     1
102
RTVSPropertyOp16
 70
     1
102
RTVSPropertyOp17
 70
     1
102
RTVSPropertyOp18
 70
     1
102
RTVSPropertyOp19
 70
     1
102
RTVSPropertyOp20
 70
     1
102
RTVSPropertyOp21
 70
     1
102
RTVSPropertyOp22
 70
     1
102
RTVSPropertyOp23
 70
     1
102
RTVSPropertyOp24
 70
     1
102
RTVSPropertyOp25
 70
     1
102
RTVSPropertyOp26
 70
     1
102
RTVSPropertyOp27
 70
     1
102
RTVSPropertyOp28
 70
     1
102
RTVSPropertyOp29
 70
     1
102
RTVSPropertyOp30
 70
     1
102
RTVSPropertyOp31
 70
     1
102
RTVSPropertyOp32
 70
     1
  0
XRECORD
  5
4FC
102
{ACAD_REACTORS
330
4FB
102
}
330
4FB
100
AcDbXrecord
280
     1
102
RTVSPropertyOp0
 70
     1
102
RTVSPropertyOp1
 70
     1
102
RTVSPropertyOp2
 70
     1
102
RTVSPropertyOp3
 70
     1
102
RTVSPropertyOp4
 70
     1
102
RTVSPropertyOp5
 70
     1
102
RTVSPropertyOp6
 70
     1
102
RTVSPropertyOp7
 70
     1
102
RTVSPropertyOp8
 70
     1
102
RTVSPropertyOp9
 70
     1
102
RTVSPropertyOp10
 70
     1
102
RTVSPropertyOp11
 70
     1
102
RTVSPropertyOp12
 70
     1
102
RTVSPropertyOp13
 70
     1
102
RTVSPropertyOp14
 70
     1
102
RTVSPropertyOp15
 70
     1
102
RTVSPropertyOp16
 70
     1
102
RTVSPropertyOp17
 70
     1
102
RTVSPropertyOp18
 70
     1
102
RTVSPropertyOp19
 70
     1
102
RTVSPropertyOp20
 70
     1
102
RTVSPropertyOp21
 70
     1
102
RTVSPropertyOp22
 70
     1
102
RTVSPropertyOp23
 70
     1
102
RTVSPropertyOp24
 70
     1
102
RTVSPropertyOp25
 70
     1
102
RTVSPropertyOp26
 70
     1
102
RTVSPropertyOp27
 70
     1
102
RTVSPropertyOp28
 70
     1
102
RTVSPropertyOp29
 70
     1
102
RTVSPropertyOp30
 70
     1
102
RTVSPropertyOp31
 70
     1
102
RTVSPropertyOp32
 70
     1
  0
XRECORD
  5
518
102
{ACAD_REACTORS
330
517
102
}
330
517
100
AcDbXrecord
280
     1
102
RTVSPropertyOp0
 70
     0
102
RTVSPropertyOp1
 70
     0
102
RTVSPropertyOp2
 70
     0
102
RTVSPropertyOp3
 70
     0
102
RTVSPropertyOp4
 70
     0
102
RTVSPropertyOp5
 70
     0
102
RTVSPropertyOp6
 70
     0
102
RTVSPropertyOp7
 70
     0
102
RTVSPropertyOp8
 70
     0
102
RTVSPropertyOp9
 70
     0
102
RTVSPropertyOp10
 70
     0
102
RTVSPropertyOp11
 70
     0
102
RTVSPropertyOp12
 70
     0
102
RTVSPropertyOp13
 70
     0
102
RTVSPropertyOp14
 70
     2
102
RTVSPropertyOp15
 70
     0
102
RTVSPropertyOp16
 70
     0
102
RTVSPropertyOp17
 70
     0
102
RTVSPropertyOp18
 70
     0
102
RTVSPropertyOp19
 70
     0
102
RTVSPropertyOp20
 70
     0
102
RTVSPropertyOp21
 70
     0
102
RTVSPropertyOp22
 70
     0
102
RTVSPropertyOp23
 70
     0
102
RTVSPropertyOp24
 70
     0
102
RTVSPropertyOp25
 70
     0
102
RTVSPropertyOp26
 70
     0
102
RTVSPropertyOp27
 70
     0
102
RTVSPropertyOp28
 70
     0
102
RTVSPropertyOp29
 70
     0
102
RTVSPropertyOp30
 70
     0
102
RTVSPropertyOp31
 70
     0
102
RTVSPropertyOp32
 70
     0
  0
XRECORD
  5
508
102
{ACAD_REACTORS
330
507
102
}
330
507
100
AcDbXrecord
280
     1
102
RTVSPropertyOp0
 70
     1
102
RTVSPropertyOp1
 70
     1
102
RTVSPropertyOp2
 70
     1
102
RTVSPropertyOp3
 70
     1
102
RTVSPropertyOp4
 70
     1
102
RTVSPropertyOp5
 70
     1
102
RTVSPropertyOp6
 70
     1
102
RTVSPropertyOp7
 70
     1
102
RTVSPropertyOp8
 70
     1
102
RTVSPropertyOp9
 70
     1
102
RTVSPropertyOp10
 70
     1
102
RTVSPropertyOp11
 70
     1
102
RTVSPropertyOp12
 70
     1
102
RTVSPropertyOp13
 70
     1
102
RTVSPropertyOp14
 70
     1
102
RTVSPropertyOp15
 70
     1
102
RTVSPropertyOp16
 70
     1
102
RTVSPropertyOp17
 70
     1
102
RTVSPropertyOp18
 70
     1
102
RTVSPropertyOp19
 70
     1
102
RTVSPropertyOp20
 70
     1
102
RTVSPropertyOp21
 70
     1
102
RTVSPropertyOp22
 70
     1
102
RTVSPropertyOp23
 70
     1
102
RTVSPropertyOp24
 70
     1
102
RTVSPropertyOp25
 70
     1
102
RTVSPropertyOp26
 70
     1
102
RTVSPropertyOp27
 70
     1
102
RTVSPropertyOp28
 70
     1
102
RTVSPropertyOp29
 70
     1
102
RTVSPropertyOp30
 70
     1
102
RTVSPropertyOp31
 70
     1
102
RTVSPropertyOp32
 70
     1
  0
XRECORD
  5
51A
102
{ACAD_REACTORS
330
519
102
}
330
519
100
AcDbXrecord
280
     1
102
RTVSPropertyOp0
 70
     0
102
RTVSPropertyOp1
 70
     0
102
RTVSPropertyOp2
 70
     0
102
RTVSPropertyOp3
 70
     0
102
RTVSPropertyOp4
 70
     0
102
RTVSPropertyOp5
 70
     0
102
RTVSPropertyOp6
 70
     0
102
RTVSPropertyOp7
 70
     0
102
RTVSPropertyOp8
 70
     0
102
RTVSPropertyOp9
 70
     0
102
RTVSPropertyOp10
 70
     0
102
RTVSPropertyOp11
 70
     0
102
RTVSPropertyOp12
 70
     0
102
RTVSPropertyOp13
 70
     0
102
RTVSPropertyOp14
 70
     2
102
RTVSPropertyOp15
 70
     0
102
RTVSPropertyOp16
 70
     0
102
RTVSPropertyOp17
 70
     0
102
RTVSPropertyOp18
 70
     0
102
RTVSPropertyOp19
 70
     0
102
RTVSPropertyOp20
 70
     0
102
RTVSPropertyOp21
 70
     0
102
RTVSPropertyOp22
 70
     0
102
RTVSPropertyOp23
 70
     0
102
RTVSPropertyOp24
 70
     0
102
RTVSPropertyOp25
 70
     0
102
RTVSPropertyOp26
 70
     0
102
RTVSPropertyOp27
 70
     0
102
RTVSPropertyOp28
 70
     0
102
RTVSPropertyOp29
 70
     0
102
RTVSPropertyOp30
 70
     0
102
RTVSPropertyOp31
 70
     0
102
RTVSPropertyOp32
 70
     0
  0
XRECORD
  5
500
102
{ACAD_REACTORS
330
4FF
102
}
330
4FF
100
AcDbXrecord
280
     1
102
RTVSPropertyOp0
 70
     1
102
RTVSPropertyOp1
 70
     1
102
RTVSPropertyOp2
 70
     1
102
RTVSPropertyOp3
 70
     1
102
RTVSPropertyOp4
 70
     1
102
RTVSPropertyOp5
 70
     1
102
RTVSPropertyOp6
 70
     1
102
RTVSPropertyOp7
 70
     1
102
RTVSPropertyOp8
 70
     1
102
RTVSPropertyOp9
 70
     1
102
RTVSPropertyOp10
 70
     1
102
RTVSPropertyOp11
 70
     1
102
RTVSPropertyOp12
 70
     1
102
RTVSPropertyOp13
 70
     1
102
RTVSPropertyOp14
 70
     1
102
RTVSPropertyOp15
 70
     1
102
RTVSPropertyOp16
 70
     1
102
RTVSPropertyOp17
 70
     1
102
RTVSPropertyOp18
 70
     1
102
RTVSPropertyOp19
 70
     1
102
RTVSPropertyOp20
 70
     1
102
RTVSPropertyOp21
 70
     1
102
RTVSPropertyOp22
 70
     1
102
RTVSPropertyOp23
 70
     1
102
RTVSPropertyOp24
 70
     1
102
RTVSPropertyOp25
 70
     1
102
RTVSPropertyOp26
 70
     1
102
RTVSPropertyOp27
 70
     1
102
RTVSPropertyOp28
 70
     1
102
RTVSPropertyOp29
 70
     1
102
RTVSPropertyOp30
 70
     1
102
RTVSPropertyOp31
 70
     1
102
RTVSPropertyOp32
 70
     1
  0
XRECORD
  5
516
102
{ACAD_REACTORS
330
515
102
}
330
515
100
AcDbXrecord
280
     1
102
RTVSPropertyOp0
 70
     1
102
RTVSPropertyOp1
 70
     1
102
RTVSPropertyOp2
 70
     1
102
RTVSPropertyOp3
 70
     1
102
RTVSPropertyOp4
 70
     1
102
RTVSPropertyOp5
 70
     1
102
RTVSPropertyOp6
 70
     1
102
RTVSPropertyOp7
 70
     1
102
RTVSPropertyOp8
 70
     1
102
RTVSPropertyOp9
 70
     1
102
RTVSPropertyOp10
 70
     1
102
RTVSPropertyOp11
 70
     1
102
RTVSPropertyOp12
 70
     1
102
RTVSPropertyOp13
 70
     1
102
RTVSPropertyOp14
 70
     1
102
RTVSPropertyOp15
 70
     1
102
RTVSPropertyOp16
 70
     1
102
RTVSPropertyOp17
 70
     1
102
RTVSPropertyOp18
 70
     1
102
RTVSPropertyOp19
 70
     1
102
RTVSPropertyOp20
 70
     1
102
RTVSPropertyOp21
 70
     1
102
RTVSPropertyOp22
 70
     1
102
RTVSPropertyOp23
 70
     1
102
RTVSPropertyOp24
 70
     1
102
RTVSPropertyOp25
 70
     1
102
RTVSPropertyOp26
 70
     1
102
RTVSPropertyOp27
 70
     1
102
RTVSPropertyOp28
 70
     1
102
RTVSPropertyOp29
 70
     1
102
RTVSPropertyOp30
 70
     1
102
RTVSPropertyOp31
 70
     1
102
RTVSPropertyOp32
 70
     1
  0
XRECORD
  5
514
102
{ACAD_REACTORS
330
513
102
}
330
513
100
AcDbXrecord
280
     1
102
RTVSPropertyOp0
 70
     1
102
RTVSPropertyOp1
 70
     1
102
RTVSPropertyOp2
 70
     1
102
RTVSPropertyOp3
 70
     1
102
RTVSPropertyOp4
 70
     1
102
RTVSPropertyOp5
 70
     1
102
RTVSPropertyOp6
 70
     1
102
RTVSPropertyOp7
 70
     1
102
RTVSPropertyOp8
 70
     1
102
RTVSPropertyOp9
 70
     1
102
RTVSPropertyOp10
 70
     1
102
RTVSPropertyOp11
 70
     1
102
RTVSPropertyOp12
 70
     1
102
RTVSPropertyOp13
 70
     1
102
RTVSPropertyOp14
 70
     1
102
RTVSPropertyOp15
 70
     1
102
RTVSPropertyOp16
 70
     1
102
RTVSPropertyOp17
 70
     1
102
RTVSPropertyOp18
 70
     1
102
RTVSPropertyOp19
 70
     1
102
RTVSPropertyOp20
 70
     1
102
RTVSPropertyOp21
 70
     1
102
RTVSPropertyOp22
 70
     1
102
RTVSPropertyOp23
 70
     1
102
RTVSPropertyOp24
 70
     1
102
RTVSPropertyOp25
 70
     1
102
RTVSPropertyOp26
 70
     1
102
RTVSPropertyOp27
 70
     1
102
RTVSPropertyOp28
 70
     1
102
RTVSPropertyOp29
 70
     1
102
RTVSPropertyOp30
 70
     1
102
RTVSPropertyOp31
 70
     1
102
RTVSPropertyOp32
 70
     1
  0
XRECORD
  5
50E
102
{ACAD_REACTORS
330
50D
102
}
330
50D
100
AcDbXrecord
280
     1
102
RTVSPropertyOp0
 70
     1
102
RTVSPropertyOp1
 70
     1
102
RTVSPropertyOp2
 70
     1
102
RTVSPropertyOp3
 70
     1
102
RTVSPropertyOp4
 70
     1
102
RTVSPropertyOp5
 70
     1
102
RTVSPropertyOp6
 70
     1
102
RTVSPropertyOp7
 70
     1
102
RTVSPropertyOp8
 70
     1
102
RTVSPropertyOp9
 70
     1
102
RTVSPropertyOp10
 70
     1
102
RTVSPropertyOp11
 70
     1
102
RTVSPropertyOp12
 70
     1
102
RTVSPropertyOp13
 70
     1
102
RTVSPropertyOp14
 70
     1
102
RTVSPropertyOp15
 70
     1
102
RTVSPropertyOp16
 70
     1
102
RTVSPropertyOp17
 70
     1
102
RTVSPropertyOp18
 70
     1
102
RTVSPropertyOp19
 70
     1
102
RTVSPropertyOp20
 70
     1
102
RTVSPropertyOp21
 70
     1
102
RTVSPropertyOp22
 70
     1
102
RTVSPropertyOp23
 70
     1
102
RTVSPropertyOp24
 70
     1
102
RTVSPropertyOp25
 70
     1
102
RTVSPropertyOp26
 70
     1
102
RTVSPropertyOp27
 70
     1
102
RTVSPropertyOp28
 70
     1
102
RTVSPropertyOp29
 70
     1
102
RTVSPropertyOp30
 70
     1
102
RTVSPropertyOp31
 70
     1
102
RTVSPropertyOp32
 70
     1
  0
XRECORD
  5
510
102
{ACAD_REACTORS
330
50F
102
}
330
50F
100
AcDbXrecord
280
     1
102
RTVSPropertyOp0
 70
     1
102
RTVSPropertyOp1
 70
     1
102
RTVSPropertyOp2
 70
     1
102
RTVSPropertyOp3
 70
     1
102
RTVSPropertyOp4
 70
     1
102
RTVSPropertyOp5
 70
     1
102
RTVSPropertyOp6
 70
     1
102
RTVSPropertyOp7
 70
     1
102
RTVSPropertyOp8
 70
     1
102
RTVSPropertyOp9
 70
     1
102
RTVSPropertyOp10
 70
     1
102
RTVSPropertyOp11
 70
     1
102
RTVSPropertyOp12
 70
     1
102
RTVSPropertyOp13
 70
     1
102
RTVSPropertyOp14
 70
     1
102
RTVSPropertyOp15
 70
     1
102
RTVSPropertyOp16
 70
     1
102
RTVSPropertyOp17
 70
     1
102
RTVSPropertyOp18
 70
     1
102
RTVSPropertyOp19
 70
     1
102
RTVSPropertyOp20
 70
     1
102
RTVSPropertyOp21
 70
     1
102
RTVSPropertyOp22
 70
     1
102
RTVSPropertyOp23
 70
     1
102
RTVSPropertyOp24
 70
     1
102
RTVSPropertyOp25
 70
     1
102
RTVSPropertyOp26
 70
     1
102
RTVSPropertyOp27
 70
     1
102
RTVSPropertyOp28
 70
     1
102
RTVSPropertyOp29
 70
     1
102
RTVSPropertyOp30
 70
     1
102
RTVSPropertyOp31
 70
     1
102
RTVSPropertyOp32
 70
     1
  0
XRECORD
  5
506
102
{ACAD_REACTORS
330
505
102
}
330
505
100
AcDbXrecord
280
     1
102
RTVSPropertyOp0
 70
     1
102
RTVSPropertyOp1
 70
     1
102
RTVSPropertyOp2
 70
     1
102
RTVSPropertyOp3
 70
     1
102
RTVSPropertyOp4
 70
     1
102
RTVSPropertyOp5
 70
     1
102
RTVSPropertyOp6
 70
     1
102
RTVSPropertyOp7
 70
     1
102
RTVSPropertyOp8
 70
     1
102
RTVSPropertyOp9
 70
     1
102
RTVSPropertyOp10
 70
     1
102
RTVSPropertyOp11
 70
     1
102
RTVSPropertyOp12
 70
     1
102
RTVSPropertyOp13
 70
     1
102
RTVSPropertyOp14
 70
     1
102
RTVSPropertyOp15
 70
     1
102
RTVSPropertyOp16
 70
     1
102
RTVSPropertyOp17
 70
     1
102
RTVSPropertyOp18
 70
     1
102
RTVSPropertyOp19
 70
     1
102
RTVSPropertyOp20
 70
     1
102
RTVSPropertyOp21
 70
     1
102
RTVSPropertyOp22
 70
     1
102
RTVSPropertyOp23
 70
     1
102
RTVSPropertyOp24
 70
     1
102
RTVSPropertyOp25
 70
     1
102
RTVSPropertyOp26
 70
     1
102
RTVSPropertyOp27
 70
     1
102
RTVSPropertyOp28
 70
     1
102
RTVSPropertyOp29
 70
     1
102
RTVSPropertyOp30
 70
     1
102
RTVSPropertyOp31
 70
     1
102
RTVSPropertyOp32
 70
     1
  0
XRECORD
  5
4FA
102
{ACAD_REACTORS
330
4F9
102
}
330
4F9
100
AcDbXrecord
280
     1
102
RTVSPropertyOp0
 70
     1
102
RTVSPropertyOp1
 70
     1
102
RTVSPropertyOp2
 70
     1
102
RTVSPropertyOp3
 70
     1
102
RTVSPropertyOp4
 70
     1
102
RTVSPropertyOp5
 70
     1
102
RTVSPropertyOp6
 70
     1
102
RTVSPropertyOp7
 70
     1
102
RTVSPropertyOp8
 70
     1
102
RTVSPropertyOp9
 70
     1
102
RTVSPropertyOp10
 70
     1
102
RTVSPropertyOp11
 70
     1
102
RTVSPropertyOp12
 70
     1
102
RTVSPropertyOp13
 70
     1
102
RTVSPropertyOp14
 70
     1
102
RTVSPropertyOp15
 70
     1
102
RTVSPropertyOp16
 70
     1
102
RTVSPropertyOp17
 70
     1
102
RTVSPropertyOp18
 70
     1
102
RTVSPropertyOp19
 70
     1
102
RTVSPropertyOp20
 70
     1
102
RTVSPropertyOp21
 70
     1
102
RTVSPropertyOp22
 70
     1
102
RTVSPropertyOp23
 70
     1
102
RTVSPropertyOp24
 70
     1
102
RTVSPropertyOp25
 70
     1
102
RTVSPropertyOp26
 70
     1
102
RTVSPropertyOp27
 70
     1
102
RTVSPropertyOp28
 70
     1
102
RTVSPropertyOp29
 70
     1
102
RTVSPropertyOp30
 70
     1
102
RTVSPropertyOp31
 70
     1
102
RTVSPropertyOp32
 70
     1
  0
XRECORD
  5
512
102
{ACAD_REACTORS
330
511
102
}
330
511
100
AcDbXrecord
280
     1
102
RTVSPropertyOp0
 70
     1
102
RTVSPropertyOp1
 70
     1
102
RTVSPropertyOp2
 70
     1
102
RTVSPropertyOp3
 70
     1
102
RTVSPropertyOp4
 70
     1
102
RTVSPropertyOp5
 70
     1
102
RTVSPropertyOp6
 70
     1
102
RTVSPropertyOp7
 70
     1
102
RTVSPropertyOp8
 70
     1
102
RTVSPropertyOp9
 70
     1
102
RTVSPropertyOp10
 70
     1
102
RTVSPropertyOp11
 70
     1
102
RTVSPropertyOp12
 70
     1
102
RTVSPropertyOp13
 70
     1
102
RTVSPropertyOp14
 70
     1
102
RTVSPropertyOp15
 70
     1
102
RTVSPropertyOp16
 70
     1
102
RTVSPropertyOp17
 70
     1
102
RTVSPropertyOp18
 70
     1
102
RTVSPropertyOp19
 70
     1
102
RTVSPropertyOp20
 70
     1
102
RTVSPropertyOp21
 70
     1
102
RTVSPropertyOp22
 70
     1
102
RTVSPropertyOp23
 70
     1
102
RTVSPropertyOp24
 70
     1
102
RTVSPropertyOp25
 70
     1
102
RTVSPropertyOp26
 70
     1
102
RTVSPropertyOp27
 70
     1
102
RTVSPropertyOp28
 70
     1
102
RTVSPropertyOp29
 70
     1
102
RTVSPropertyOp30
 70
     1
102
RTVSPropertyOp31
 70
     1
102
RTVSPropertyOp32
 70
     1
  0
ENDSEC
  0
EOF
