  0
SECTION
  2
HEADER
  9
$ACADVER
  1
AC1015
  9
$ACADMAINTVER
 70
    20
  9
$DWGCODEPAGE
  3
ANSI_1252
  9
$INSBASE
 10
0.0
 20
0.0
 30
0.0
  9
$EXTMIN
 10
37199.99437673
 20
6648.42779964
 30
0.0
  9
$EXTMAX
 10
38184.99437673
 20
8003.427799639998
 30
0.0
  9
$LIMMIN
 10
0.0
 20
0.0
  9
$LIMMAX
 10
39995.54275426
 20
11749.95752903
  9
$ORTHOMODE
 70
     0
  9
$REGENMODE
 70
     1
  9
$FILLMODE
 70
     1
  9
$QTEXTMODE
 70
     0
  9
$MIRRTEXT
 70
     1
  9
$LTSCALE
 40
5.0
  9
$ATTMODE
 70
     1
  9
$TEXTSIZE
 40
3.5
  9
$TRACEWID
 40
1.0
  9
$TEXTSTYLE
  7
STANDARD
  9
$CLAYER
  8
0
  9
$CELTYPE
  6
BYLAYER
  9
$CECOLOR
 62
   256
  9
$CELTSCALE
 40
1.0
  9
$DISPSILH
 70
     0
  9
$DIMSCALE
 40
1.0
  9
$DIMASZ
 40
4.0
  9
$DIMEXO
 40
5.0
  9
$DIMDLI
 40
10.0
  9
$DIMRND
 40
0.0
  9
$DIMDLE
 40
2.0
  9
$DIMEXE
 40
2.0
  9
$DIMTP
 40
0.0
  9
$DIMTM
 40
0.0
  9
$DIMTXT
 40
2.0
  9
$DIMCEN
 40
1.5
  9
$DIMTSZ
 40
0.0
  9
$DIMTOL
 70
     0
  9
$DIMLIM
 70
     0
  9
$DIMTIH
 70
     1
  9
$DIMTOH
 70
     0
  9
$DIMSE1
 70
     0
  9
$DIMSE2
 70
     0
  9
$DIMTAD
 70
     1
  9
$DIMZIN
 70
     8
  9
$DIMBLK
  1

  9
$DIMASO
 70
     1
  9
$DIMSHO
 70
     1
  9
$DIMPOST
  1

  9
$DIMAPOST
  1

  9
$DIMALT
 70
     0
  9
$DIMALTD
 70
     2
  9
$DIMALTF
 40
25.4
  9
$DIMLFAC
 40
1.0
  9
$DIMTOFL
 70
     0
  9
$DIMTVP
 40
0.0
  9
$DIMTIX
 70
     0
  9
$DIMSOXD
 70
     0
  9
$DIMSAH
 70
     0
  9
$DIMBLK1
  1

  9
$DIMBLK2
  1

  9
$DIMSTYLE
  2
Standard
  9
$DIMCLRD
 70
     9
  9
$DIMCLRE
 70
     9
  9
$DIMCLRT
 70
     7
  9
$DIMTFAC
 40
1.0
  9
$DIMGAP
 40
0.09
  9
$DIMJUST
 70
     0
  9
$DIMSD1
 70
     0
  9
$DIMSD2
 70
     0
  9
$DIMTOLJ
 70
     1
  9
$DIMTZIN
 70
     0
  9
$DIMALTZ
 70
     0
  9
$DIMALTTZ
 70
     0
  9
$DIMUPT
 70
     0
  9
$DIMDEC
 70
     4
  9
$DIMTDEC
 70
     4
  9
$DIMALTU
 70
     2
  9
$DIMALTTD
 70
     2
  9
$DIMTXSTY
  7
STANDARD
  9
$DIMAUNIT
 70
     0
  9
$DIMADEC
 70
     0
  9
$DIMALTRND
 40
0.0
  9
$DIMAZIN
 70
     0
  9
$DIMDSEP
 70
    46
  9
$DIMATFIT
 70
     3
  9
$DIMFRAC
 70
     0
  9
$DIMLDRBLK
  1

  9
$DIMLUNIT
 70
     2
  9
$DIMLWD
 70
    -2
  9
$DIMLWE
 70
    -2
  9
$DIMTMOVE
 70
     0
  9
$LUNITS
 70
     2
  9
$LUPREC
 70
     6
  9
$SKETCHINC
 40
0.1
  9
$FILLETRAD
 40
0.0
  9
$AUNITS
 70
     0
  9
$AUPREC
 70
     0
  9
$MENU
  1
ACAD
  9
$ELEVATION
 40
0.0
  9
$PELEVATION
 40
0.0
  9
$THICKNESS
 40
0.0
  9
$LIMCHECK
 70
     0
  9
$CHAMFERA
 40
0.0
  9
$CHAMFERB
 40
0.0
  9
$CHAMFERC
 40
0.0
  9
$CHAMFERD
 40
0.0
  9
$SKPOLY
 70
     1
  9
$TDCREATE
 40
2456443.000000000
  9
$TDUCREATE
 40
2456442.916666667
  9
$TDUPDATE
 40
2456458.473165116
  9
$TDUUPDATE
 40
2456458.389831782
  9
$TDINDWG
 40
0.0050250347
  9
$TDUSRTIMER
 40
0.0050250347
  9
$USRTIMER
 70
     1
  9
$ANGBASE
 50
0.0
  9
$ANGDIR
 70
     0
  9
$PDMODE
 70
     0
  9
$PDSIZE
 40
0.0
  9
$PLINEWID
 40
0.0
  9
$SPLFRAME
 70
     0
  9
$SPLINETYPE
 70
     6
  9
$SPLINESEGS
 70
     8
  9
$HANDSEED
  5
27B
  9
$SURFTAB1
 70
     6
  9
$SURFTAB2
 70
     6
  9
$SURFTYPE
 70
     6
  9
$SURFU
 70
     6
  9
$SURFV
 70
     6
  9
$UCSBASE
  2

  9
$UCSNAME
  2

  9
$UCSORG
 10
0.0
 20
0.0
 30
0.0
  9
$UCSXDIR
 10
1.0
 20
0.0
 30
0.0
  9
$UCSYDIR
 10
0.0
 20
1.0
 30
0.0
  9
$UCSORTHOREF
  2

  9
$UCSORTHOVIEW
 70
     0
  9
$UCSORGTOP
 10
0.0
 20
0.0
 30
0.0
  9
$UCSORGBOTTOM
 10
0.0
 20
0.0
 30
0.0
  9
$UCSORGLEFT
 10
0.0
 20
0.0
 30
0.0
  9
$UCSORGRIGHT
 10
0.0
 20
0.0
 30
0.0
  9
$UCSORGFRONT
 10
0.0
 20
0.0
 30
0.0
  9
$UCSORGBACK
 10
0.0
 20
0.0
 30
0.0
  9
$PUCSBASE
  2

  9
$PUCSNAME
  2

  9
$PUCSORG
 10
0.0
 20
0.0
 30
0.0
  9
$PUCSXDIR
 10
1.0
 20
0.0
 30
0.0
  9
$PUCSYDIR
 10
0.0
 20
1.0
 30
0.0
  9
$PUCSORTHOREF
  2

  9
$PUCSORTHOVIEW
 70
     0
  9
$PUCSORGTOP
 10
0.0
 20
0.0
 30
0.0
  9
$PUCSORGBOTTOM
 10
0.0
 20
0.0
 30
0.0
  9
$PUCSORGLEFT
 10
0.0
 20
0.0
 30
0.0
  9
$PUCSORGRIGHT
 10
0.0
 20
0.0
 30
0.0
  9
$PUCSORGFRONT
 10
0.0
 20
0.0
 30
0.0
  9
$PUCSORGBACK
 10
0.0
 20
0.0
 30
0.0
  9
$USERI1
 70
     0
  9
$USERI2
 70
     0
  9
$USERI3
 70
     0
  9
$USERI4
 70
     0
  9
$USERI5
 70
     0
  9
$USERR1
 40
0.0
  9
$USERR2
 40
0.0
  9
$USERR3
 40
0.0
  9
$USERR4
 40
0.0
  9
$USERR5
 40
0.0
  9
$WORLDVIEW
 70
     1
  9
$SHADEDGE
 70
     3
  9
$SHADEDIF
 70
    70
  9
$TILEMODE
 70
     1
  9
$MAXACTVP
 70
    16
  9
$PINSBASE
 10
0.0
 20
0.0
 30
0.0
  9
$PLIMCHECK
 70
     0
  9
$PEXTMIN
 10
1.000000000000000E+20
 20
1.000000000000000E+20
 30
1.000000000000000E+20
  9
$PEXTMAX
 10
-1.000000000000000E+20
 20
-1.000000000000000E+20
 30
-1.000000000000000E+20
  9
$PLIMMIN
 10
0.0
 20
0.0
  9
$PLIMMAX
 10
12.0
 20
9.0
  9
$UNITMODE
 70
     0
  9
$VISRETAIN
 70
     0
  9
$PLINEGEN
 70
     0
  9
$PSLTSCALE
 70
     1
  9
$TREEDEPTH
 70
  3020
  9
$CMLSTYLE
  2
STANDARD
  9
$CMLJUST
 70
     0
  9
$CMLSCALE
 40
1.0
  9
$PROXYGRAPHICS
 70
     1
  9
$MEASUREMENT
 70
     1
  9
$CELWEIGHT
370
    -1
  9
$ENDCAPS
280
     0
  9
$JOINSTYLE
280
     0
  9
$LWDISPLAY
290
     0
  9
$INSUNITS
 70
     0
  9
$HYPERLINKBASE
  1

  9
$STYLESHEET
  1

  9
$XEDIT
290
     1
  9
$CEPSNTYPE
380
     0
  9
$PSTYLEMODE
290
     1
  9
$FINGERPRINTGUID
  2
{CA53DC5C-1AA5-4C9C-AC89-FE40632F033C}
  9
$VERSIONGUID
  2
{C8CE9DD6-00BF-4C31-90CC-71692C20323A}
  9
$EXTNAMES
290
     1
  9
$PSVPSCALE
 40
0.0
  9
$OLESTARTUP
290
     0
  0
ENDSEC
  0
SECTION
  2
CLASSES
  0
CLASS
  1
ACDBDICTIONARYWDFLT
  2
AcDbDictionaryWithDefault
  3
ObjectDBX Classes
 90
        0
280
     0
281
     0
  0
CLASS
  1
MATERIAL
  2
AcDbMaterial
  3
ObjectDBX Classes
 90
     1153
280
     0
281
     0
  0
CLASS
  1
VISUALSTYLE
  2
AcDbVisualStyle
  3
ObjectDBX Classes
 90
     4095
280
     0
281
     0
  0
CLASS
  1
TABLESTYLE
  2
AcDbTableStyle
  3
ObjectDBX Classes
 90
     4095
280
     0
281
     0
  0
CLASS
  1
SCALE
  2
AcDbScale
  3
ObjectDBX Classes
 90
     1153
280
     0
281
     0
  0
CLASS
  1
MLEADERSTYLE
  2
AcDbMLeaderStyle
  3
ACDB_MLEADERSTYLE_CLASS
 90
     4095
280
     0
281
     0
  0
CLASS
  1
AEC_REFEDIT_STATUS_TRACKER
  2
AecDbRefEditStatusTracker
  3
AecArchBase60|Product Desc: Autodesk Architectural Desktop 2007 |Company: Autodesk,Inc. |WEB Address: www.autodesk.com
 90
    32897
280
     0
281
     0
  0
CLASS
  1
NPOCOLLECTION
  2
AcDbImpNonPersistentObjectsCollection
  3
ObjectDBX Classes
 90
    33921
280
     0
281
     0
  0
CLASS
  1
SORTENTSTABLE
  2
AcDbSortentsTable
  3
ObjectDBX Classes
 90
        0
280
     0
281
     0
  0
CLASS
  1
DICTIONARYVAR
  2
AcDbDictionaryVar
  3
ObjectDBX Classes
 90
        0
280
     0
281
     0
  0
CLASS
  1
CELLSTYLEMAP
  2
AcDbCellStyleMap
  3
ObjectDBX Classes
 90
     1152
280
     0
281
     0
  0
CLASS
  1
ACDBPLACEHOLDER
  2
AcDbPlaceHolder
  3
ObjectDBX Classes
 90
        0
280
     0
281
     0
  0
CLASS
  1
LAYOUT
  2
AcDbLayout
  3
ObjectDBX Classes
 90
        0
280
     0
281
     0
  0
ENDSEC
  0
SECTION
  2
TABLES
  0
TABLE
  2
VPORT
  5
22
330
0
100
AcDbSymbolTable
 70
     1
  0
VPORT
  5
197
330
22
100
AcDbSymbolTableRecord
100
AcDbViewportTableRecord
  2
*Active
 70
     0
 10
0.0
 20
0.0
 11
1.0
 21
1.0
 12
37692.9430325963
 22
7325.884117409163
 13
0.0
 23
0.0
 14
1.0
 24
1.0
 15
0.0
 25
0.0
 16
0.0
 26
0.0
 36
1.0
 17
0.0
 27
0.0
 37
0.0
 40
1367.406573519496
 41
2.015345268542199
 42
50.0
 43
0.0
 44
0.0
 50
0.0
 51
0.0
 71
     0
 72
  1000
 73
     1
 74
     3
 75
     0
 76
     0
 77
     0
 78
     0
281
     0
 65
     1
110
0.0
120
0.0
130
0.0
111
1.0
121
0.0
131
0.0
112
0.0
122
1.0
132
0.0
 79
     0
146
0.0
  0
ENDTAB
  0
TABLE
  2
LTYPE
  5
28
330
0
100
AcDbSymbolTable
 70
    11
  0
LTYPE
  5
29
330
28
100
AcDbSymbolTableRecord
100
AcDbLinetypeTableRecord
  2
BYBLOCK
 70
     0
  3

 72
    65
 73
     0
 40
0.0
  0
LTYPE
  5
2A
330
28
100
AcDbSymbolTableRecord
100
AcDbLinetypeTableRecord
  2
BYLAYER
 70
     0
  3

 72
    65
 73
     0
 40
0.0
  0
LTYPE
  5
2B
330
28
100
AcDbSymbolTableRecord
100
AcDbLinetypeTableRecord
  2
CONTINUOUS
 70
     0
  3
Solid line
 72
    65
 73
     0
 40
0.0
  0
LTYPE
  5
2C
330
28
100
AcDbSymbolTableRecord
100
AcDbLinetypeTableRecord
  2
DOT
 70
     0
  3
. . . . . . . . . . . . . . . . . . . . . . . .
 72
    65
 73
     2
 40
2.5
 49
0.0
 74
     0
 49
-2.5
 74
     0
  0
LTYPE
  5
2D
330
28
100
AcDbSymbolTableRecord
100
AcDbLinetypeTableRecord
  2
HIDDEN
 70
     0
  3
__ __ __ __ __ __ __ __ __ __ __ __ __ __ __ __
 72
    65
 73
     2
 40
1.875
 49
1.25
 74
     0
 49
-0.625
 74
     0
  0
LTYPE
  5
2E
330
28
100
AcDbSymbolTableRecord
100
AcDbLinetypeTableRecord
  2
CENTER
 70
     0
  3
 ____ _ ____ _ ____ _ ____ _ ____ _ ____ _ ____
 72
    65
 73
     4
 40
20.0
 49
12.5
 74
     0
 49
-2.5
 74
     0
 49
2.5
 74
     0
 49
-2.5
 74
     0
  0
LTYPE
  5
2F
330
28
100
AcDbSymbolTableRecord
100
AcDbLinetypeTableRecord
  2
CADWORK_22
 70
     0
  3
22 =======================================
 72
    65
 73
     0
 40
0.0
  0
LTYPE
  5
30
330
28
100
AcDbSymbolTableRecord
100
AcDbLinetypeTableRecord
  2
DAL
 70
     0
  3
Solid line (for MAPS)
 72
    65
 73
     0
 40
0.0
  0
LTYPE
  5
31
330
28
100
AcDbSymbolTableRecord
100
AcDbLinetypeTableRecord
  2
MUR
 70
     0
  3
Solid line (for MAPS)
 72
    65
 73
     0
 40
0.0
  0
LTYPE
  5
32
330
28
100
AcDbSymbolTableRecord
100
AcDbLinetypeTableRecord
  2
SOM
 70
     0
  3
Solid line (for MAPS)
 72
    65
 73
     0
 40
0.0
  0
LTYPE
  5
33
330
28
100
AcDbSymbolTableRecord
100
AcDbLinetypeTableRecord
  2
COL
 70
     0
  3
Solid line (for MAPS)
 72
    65
 73
     0
 40
0.0
  0
LTYPE
  5
34
330
28
100
AcDbSymbolTableRecord
100
AcDbLinetypeTableRecord
  2
LGN
 70
     0
  3
Solid line (for MAPS)
 72
    65
 73
     0
 40
0.0
  0
LTYPE
  5
35
330
28
100
AcDbSymbolTableRecord
100
AcDbLinetypeTableRecord
  2
PNT
 70
     0
  3
Solid line (for MAPS)
 72
    65
 73
     0
 40
0.0
  0
ENDTAB
  0
TABLE
  2
LAYER
  5
36
330
0
100
AcDbSymbolTable
 70
    32
  0
LAYER
  5
37
102
{ACAD_XDICTIONARY
360
1B6
102
}
330
36
100
AcDbSymbolTableRecord
100
AcDbLayerTableRecord
  2
STANDARD
 70
     0
 62
     7
  6
CONTINUOUS
370
    -3
390
146
  0
LAYER
  5
38
102
{ACAD_XDICTIONARY
360
1B8
102
}
330
36
100
AcDbSymbolTableRecord
100
AcDbLayerTableRecord
  2
Ech.1_1
 70
     0
 62
     7
  6
CONTINUOUS
370
    -3
390
146
  0
LAYER
  5
39
102
{ACAD_XDICTIONARY
360
1BA
102
}
330
36
100
AcDbSymbolTableRecord
100
AcDbLayerTableRecord
  2
Ech.1_2
 70
     0
 62
     7
  6
CONTINUOUS
370
    -3
390
146
  0
LAYER
  5
3A
102
{ACAD_XDICTIONARY
360
1BC
102
}
330
36
100
AcDbSymbolTableRecord
100
AcDbLayerTableRecord
  2
Ech.1_5
 70
     0
 62
     7
  6
CONTINUOUS
370
    -3
390
146
  0
LAYER
  5
3B
102
{ACAD_XDICTIONARY
360
1BE
102
}
330
36
100
AcDbSymbolTableRecord
100
AcDbLayerTableRecord
  2
Ech.1_10
 70
     0
 62
     7
  6
CONTINUOUS
370
    -3
390
146
  0
LAYER
  5
3C
102
{ACAD_XDICTIONARY
360
1C0
102
}
330
36
100
AcDbSymbolTableRecord
100
AcDbLayerTableRecord
  2
Ech.1_20
 70
     0
 62
     7
  6
CONTINUOUS
370
    -3
390
146
  0
LAYER
  5
3D
102
{ACAD_XDICTIONARY
360
1C2
102
}
330
36
100
AcDbSymbolTableRecord
100
AcDbLayerTableRecord
  2
Ech.1_25
 70
     0
 62
     7
  6
CONTINUOUS
370
    -3
390
146
  0
LAYER
  5
3E
102
{ACAD_XDICTIONARY
360
1C4
102
}
330
36
100
AcDbSymbolTableRecord
100
AcDbLayerTableRecord
  2
Ech.1_33
 70
     0
 62
     7
  6
CONTINUOUS
370
    -3
390
146
  0
LAYER
  5
3F
102
{ACAD_XDICTIONARY
360
1C6
102
}
330
36
100
AcDbSymbolTableRecord
100
AcDbLayerTableRecord
  2
Ech.1_50
 70
     0
 62
     7
  6
CONTINUOUS
370
    -3
390
146
  0
LAYER
  5
40
102
{ACAD_XDICTIONARY
360
1C8
102
}
330
36
100
AcDbSymbolTableRecord
100
AcDbLayerTableRecord
  2
Ech.1_75
 70
     0
 62
     7
  6
CONTINUOUS
370
    -3
390
146
  0
LAYER
  5
41
102
{ACAD_XDICTIONARY
360
1CA
102
}
330
36
100
AcDbSymbolTableRecord
100
AcDbLayerTableRecord
  2
Ech.1_100
 70
     0
 62
     7
  6
CONTINUOUS
370
    -3
390
146
  0
LAYER
  5
42
102
{ACAD_XDICTIONARY
360
1CC
102
}
330
36
100
AcDbSymbolTableRecord
100
AcDbLayerTableRecord
  2
Ech.1_200
 70
     0
 62
     7
  6
CONTINUOUS
370
    -3
390
146
  0
LAYER
  5
43
102
{ACAD_XDICTIONARY
360
1CE
102
}
330
36
100
AcDbSymbolTableRecord
100
AcDbLayerTableRecord
  2
Ech.1_500
 70
     0
 62
     7
  6
CONTINUOUS
370
    -3
390
146
  0
LAYER
  5
44
102
{ACAD_XDICTIONARY
360
1D0
102
}
330
36
100
AcDbSymbolTableRecord
100
AcDbLayerTableRecord
  2
Ech.1_1000
 70
     0
 62
     7
  6
CONTINUOUS
370
    -3
390
146
  0
LAYER
  5
45
102
{ACAD_XDICTIONARY
360
1D2
102
}
330
36
100
AcDbSymbolTableRecord
100
AcDbLayerTableRecord
  2
Cadres traceur
 70
     0
 62
     7
  6
CONTINUOUS
370
    -3
390
146
  0
LAYER
  5
46
102
{ACAD_XDICTIONARY
360
1D4
102
}
330
36
100
AcDbSymbolTableRecord
100
AcDbLayerTableRecord
  2
Cadres laser
 70
     0
 62
     7
  6
CONTINUOUS
370
    -3
390
146
  0
LAYER
  5
47
102
{ACAD_XDICTIONARY
360
1D6
102
}
330
36
100
AcDbSymbolTableRecord
100
AcDbLayerTableRecord
  2
Légende d_aide
 70
     0
 62
     7
  6
CONTINUOUS
370
    -3
390
146
  0
LAYER
  5
48
102
{ACAD_XDICTIONARY
360
1D8
102
}
330
36
100
AcDbSymbolTableRecord
100
AcDbLayerTableRecord
  2
hachures ok
 70
     0
 62
     7
  6
CONTINUOUS
370
    -3
390
146
  0
LAYER
  5
49
102
{ACAD_XDICTIONARY
360
1DA
102
}
330
36
100
AcDbSymbolTableRecord
100
AcDbLayerTableRecord
  2
ossature bois
 70
     0
 62
     7
  6
CONTINUOUS
370
    -3
390
146
  0
LAYER
  5
4A
102
{ACAD_XDICTIONARY
360
1DC
102
}
330
36
100
AcDbSymbolTableRecord
100
AcDbLayerTableRecord
  2
VR
 70
     0
 62
     7
  6
CONTINUOUS
370
    -3
390
146
  0
LAYER
  5
4B
102
{ACAD_XDICTIONARY
360
1DE
102
}
330
36
100
AcDbSymbolTableRecord
100
AcDbLayerTableRecord
  2
CALQUE1
 70
     0
 62
     7
  6
CONTINUOUS
370
    -3
390
146
  0
LAYER
  5
4C
330
36
100
AcDbSymbolTableRecord
100
AcDbLayerTableRecord
  2
0
 70
     0
 62
     7
  6
CONTINUOUS
370
    -3
390
146
  0
LAYER
  5
4D
102
{ACAD_XDICTIONARY
360
1E0
102
}
330
36
100
AcDbSymbolTableRecord
100
AcDbLayerTableRecord
  2
MENUISERIE
 70
     0
 62
     7
  6
CONTINUOUS
370
    -3
390
146
  0
LAYER
  5
4E
102
{ACAD_XDICTIONARY
360
1E2
102
}
330
36
100
AcDbSymbolTableRecord
100
AcDbLayerTableRecord
  2
COTATION
 70
     0
 62
   250
  6
CONTINUOUS
370
    -3
390
146
  0
LAYER
  5
4F
330
36
100
AcDbSymbolTableRecord
100
AcDbLayerTableRecord
  2
DEFPOINTS
 70
     0
 62
    10
  6
CONTINUOUS
290
     0
370
    -3
390
146
  0
LAYER
  5
50
102
{ACAD_XDICTIONARY
360
1E4
102
}
330
36
100
AcDbSymbolTableRecord
100
AcDbLayerTableRecord
  2
HACHURE
 70
     0
 62
   254
  6
CONTINUOUS
370
    -3
390
146
  0
LAYER
  5
51
102
{ACAD_XDICTIONARY
360
1E6
102
}
330
36
100
AcDbSymbolTableRecord
100
AcDbLayerTableRecord
  2
MAT1
 70
     0
 62
     7
  6
CONTINUOUS
370
    -3
390
146
  0
LAYER
  5
52
102
{ACAD_XDICTIONARY
360
1E8
102
}
330
36
100
AcDbSymbolTableRecord
100
AcDbLayerTableRecord
  2
MAT2
 70
     0
 62
     7
  6
CONTINUOUS
370
    -3
390
146
  0
LAYER
  5
53
102
{ACAD_XDICTIONARY
360
1EA
102
}
330
36
100
AcDbSymbolTableRecord
100
AcDbLayerTableRecord
  2
HACH
 70
     0
 62
     8
  6
CONTINUOUS
370
    -3
390
146
  0
LAYER
  5
54
102
{ACAD_XDICTIONARY
360
1EC
102
}
330
36
100
AcDbSymbolTableRecord
100
AcDbLayerTableRecord
  2
MENUISERIES
 70
     0
 62
     7
  6
CONTINUOUS
370
    -3
390
146
  0
LAYER
  5
55
102
{ACAD_XDICTIONARY
360
1EE
102
}
330
36
100
AcDbSymbolTableRecord
100
AcDbLayerTableRecord
  2
BÉTONMÉTAL
 70
     0
 62
     7
  6
CONTINUOUS
370
    -3
390
146
  0
LAYER
  5
56
102
{ACAD_XDICTIONARY
360
1F0
102
}
330
36
100
AcDbSymbolTableRecord
100
AcDbLayerTableRecord
  2
BOIS
 70
     0
 62
     7
  6
CONTINUOUS
370
    -3
390
146
  0
ENDTAB
  0
TABLE
  2
STYLE
  5
23
330
0
100
AcDbSymbolTable
 70
     4
  0
STYLE
  5
24
330
23
100
AcDbSymbolTableRecord
100
AcDbTextStyleTableRecord
  2
STANDARD
 70
     0
 40
0.0
 41
1.0
 50
0.0
 71
     0
 42
3.5
  3
MONOTXT
  4

  0
STYLE
  5
25
330
23
100
AcDbSymbolTableRecord
100
AcDbTextStyleTableRecord
  2
CADWORK1
 70
     0
 40
0.0
 41
1.0
 50
0.0
 71
     0
 42
3.5
  3
MONOTXT
  4

  0
STYLE
  5
26
330
23
100
AcDbSymbolTableRecord
100
AcDbTextStyleTableRecord
  2
MONOTXT
 70
     0
 40
0.0
 41
1.0
 50
0.0
 71
     0
 42
3.5
  3
MONOTXT
  4

  0
STYLE
  5
27
330
23
100
AcDbSymbolTableRecord
100
AcDbTextStyleTableRecord
  2
ARIAL
 70
     0
 40
0.0
 41
1.0
 50
0.0
 71
     0
 42
3.5
  3

  4

1001
ACAD
1000
Arial
1071
        0
  0
ENDTAB
  0
TABLE
  2
VIEW
  5
57
330
0
100
AcDbSymbolTable
 70
     2
  0
ENDTAB
  0
TABLE
  2
UCS
  5
58
330
0
100
AcDbSymbolTable
 70
     0
  0
ENDTAB
  0
TABLE
  2
APPID
  5
59
330
0
100
AcDbSymbolTable
 70
     2
  0
APPID
  5
5A
330
59
100
AcDbSymbolTableRecord
100
AcDbRegAppTableRecord
  2
ACAD
 70
     0
  0
APPID
  5
232
330
59
100
AcDbSymbolTableRecord
100
AcDbRegAppTableRecord
  2
ACAD_MLEADERVER
 70
     0
  0
ENDTAB
  0
TABLE
  2
DIMSTYLE
  5
5B
330
0
100
AcDbSymbolTable
 70
     1
100
AcDbDimStyleTable
 71
     0
  0
DIMSTYLE
105
190
330
5B
100
AcDbSymbolTableRecord
100
AcDbDimStyleTableRecord
  2
Standard
 70
     0
340
24
  0
ENDTAB
  0
TABLE
  2
BLOCK_RECORD
  5
5C
330
0
100
AcDbSymbolTable
 70
    24
  0
BLOCK_RECORD
  5
5D
102
{ACAD_XDICTIONARY
360
1A4
102
}
330
5C
100
AcDbSymbolTableRecord
100
AcDbBlockTableRecord
  2
*MODEL_SPACE
340
193
  0
BLOCK_RECORD
  5
5E
330
5C
100
AcDbSymbolTableRecord
100
AcDbBlockTableRecord
  2
*PAPER_SPACE
340
194
  0
BLOCK_RECORD
  5
5F
330
5C
100
AcDbSymbolTableRecord
100
AcDbBlockTableRecord
  2
CDWK_EXTR_0
340
0
  0
BLOCK_RECORD
  5
60
330
5C
100
AcDbSymbolTableRecord
100
AcDbBlockTableRecord
  2
CDWK_EXTR_1D
340
0
  0
BLOCK_RECORD
  5
61
330
5C
100
AcDbSymbolTableRecord
100
AcDbBlockTableRecord
  2
CDWK_EXTR_1G
340
0
  0
BLOCK_RECORD
  5
62
330
5C
100
AcDbSymbolTableRecord
100
AcDbBlockTableRecord
  2
CDWK_EXTR_2
340
0
  0
BLOCK_RECORD
  5
63
330
5C
100
AcDbSymbolTableRecord
100
AcDbBlockTableRecord
  2
CDWK_EXTR_3
340
0
  0
BLOCK_RECORD
  5
64
330
5C
100
AcDbSymbolTableRecord
100
AcDbBlockTableRecord
  2
CDWK_EXTR_4
340
0
  0
BLOCK_RECORD
  5
65
330
5C
100
AcDbSymbolTableRecord
100
AcDbBlockTableRecord
  2
CDWK_PTTYP0
340
0
  0
BLOCK_RECORD
  5
66
330
5C
100
AcDbSymbolTableRecord
100
AcDbBlockTableRecord
  2
*X7
340
0
102
{BLKREFS
331
D3
102
}
  0
BLOCK_RECORD
  5
67
330
5C
100
AcDbSymbolTableRecord
100
AcDbBlockTableRecord
  2
*X8
340
0
102
{BLKREFS
331
D4
102
}
  0
BLOCK_RECORD
  5
68
330
5C
100
AcDbSymbolTableRecord
100
AcDbBlockTableRecord
  2
*X9
340
0
102
{BLKREFS
331
D5
102
}
  0
BLOCK_RECORD
  5
69
330
5C
100
AcDbSymbolTableRecord
100
AcDbBlockTableRecord
  2
*X10
340
0
102
{BLKREFS
331
D6
102
}
  0
BLOCK_RECORD
  5
6A
330
5C
100
AcDbSymbolTableRecord
100
AcDbBlockTableRecord
  2
*X11
340
0
102
{BLKREFS
331
D7
102
}
  0
BLOCK_RECORD
  5
6B
330
5C
100
AcDbSymbolTableRecord
100
AcDbBlockTableRecord
  2
*X12
340
0
102
{BLKREFS
331
D8
102
}
  0
BLOCK_RECORD
  5
6C
330
5C
100
AcDbSymbolTableRecord
100
AcDbBlockTableRecord
  2
*X13
340
0
102
{BLKREFS
331
D9
102
}
  0
BLOCK_RECORD
  5
6D
330
5C
100
AcDbSymbolTableRecord
100
AcDbBlockTableRecord
  2
*X14
340
0
102
{BLKREFS
331
DA
102
}
  0
BLOCK_RECORD
  5
6E
330
5C
100
AcDbSymbolTableRecord
100
AcDbBlockTableRecord
  2
*X15
340
0
102
{BLKREFS
331
DB
102
}
  0
BLOCK_RECORD
  5
6F
330
5C
100
AcDbSymbolTableRecord
100
AcDbBlockTableRecord
  2
*X16
340
0
102
{BLKREFS
331
DC
102
}
  0
BLOCK_RECORD
  5
70
330
5C
100
AcDbSymbolTableRecord
100
AcDbBlockTableRecord
  2
*X17
340
0
102
{BLKREFS
331
DD
102
}
  0
BLOCK_RECORD
  5
71
330
5C
100
AcDbSymbolTableRecord
100
AcDbBlockTableRecord
  2
*X18
340
0
102
{BLKREFS
331
DE
102
}
  0
BLOCK_RECORD
  5
72
330
5C
100
AcDbSymbolTableRecord
100
AcDbBlockTableRecord
  2
*X19
340
0
102
{BLKREFS
331
DF
102
}
  0
BLOCK_RECORD
  5
73
330
5C
100
AcDbSymbolTableRecord
100
AcDbBlockTableRecord
  2
*X20
340
0
102
{BLKREFS
331
E0
102
}
  0
BLOCK_RECORD
  5
74
330
5C
100
AcDbSymbolTableRecord
100
AcDbBlockTableRecord
  2
*X21
340
0
102
{BLKREFS
331
E1
102
}
  0
BLOCK_RECORD
  5
75
330
5C
100
AcDbSymbolTableRecord
100
AcDbBlockTableRecord
  2
*X22
340
0
102
{BLKREFS
331
E2
102
}
  0
BLOCK_RECORD
  5
76
330
5C
100
AcDbSymbolTableRecord
100
AcDbBlockTableRecord
  2
*X23
340
0
102
{BLKREFS
331
E3
102
}
  0
ENDTAB
  0
ENDSEC
  0
SECTION
  2
BLOCKS
  0
BLOCK
  5
77
330
5D
100
AcDbEntity
  8
0
100
AcDbBlockBegin
  2
*MODEL_SPACE
 70
     0
 10
0.0
 20
0.0
 30
0.0
  3
*MODEL_SPACE
  1

  0
ENDBLK
  5
78
330
5D
100
AcDbEntity
  8
0
100
AcDbBlockEnd
  0
BLOCK
  5
79
330
5E
100
AcDbEntity
 67
     1
  8
0
100
AcDbBlockBegin
  2
*PAPER_SPACE
 70
     0
 10
0.0
 20
0.0
 30
0.0
  3
*PAPER_SPACE
  1

  0
ENDBLK
  5
7A
330
5E
100
AcDbEntity
 67
     1
  8
0
100
AcDbBlockEnd
  0
BLOCK
  5
7B
330
5F
100
AcDbEntity
  8
0
100
AcDbBlockBegin
  2
CDWK_EXTR_0
 70
     0
 10
0.0
 20
0.0
 30
0.0
  3
CDWK_EXTR_0
  1

  0
LINE
  5
7C
330
5F
100
AcDbEntity
  8
0
 62
     0
370
    -2
100
AcDbLine
 10
0.0
 20
0.0
 30
0.0
 11
2.0
 21
0.5
 31
0.0
  0
LINE
  5
7D
330
5F
100
AcDbEntity
  8
0
 62
     0
370
    -2
100
AcDbLine
 10
0.0
 20
0.0
 30
0.0
 11
2.0
 21
-0.5
 31
0.0
  0
LINE
  5
7E
330
5F
100
AcDbEntity
  8
0
 62
     0
370
    -2
100
AcDbLine
 10
2.0
 20
0.5
 30
0.0
 11
2.0
 21
-0.5
 31
0.0
  0
ENDBLK
  5
7F
330
5F
100
AcDbEntity
  8
0
100
AcDbBlockEnd
  0
BLOCK
  5
80
330
60
100
AcDbEntity
  8
0
100
AcDbBlockBegin
  2
CDWK_EXTR_1D
 70
     0
 10
0.0
 20
0.0
 30
0.0
  3
CDWK_EXTR_1D
  1

  0
LINE
  5
81
330
60
100
AcDbEntity
  8
0
 62
     0
370
    -2
100
AcDbLine
 10
0.0
 20
0.0
 30
0.0
 11
0.0
 21
1.0
 31
0.0
  0
LINE
  5
82
330
60
100
AcDbEntity
  8
0
 62
     0
370
    -2
100
AcDbLine
 10
0.0
 20
1.0
 30
0.0
 11
0.5
 21
1.5
 31
0.0
  0
LINE
  5
83
330
60
100
AcDbEntity
  8
0
 62
     0
370
    -2
100
AcDbLine
 10
0.5
 20
1.5
 30
0.0
 11
1.5
 21
1.5
 31
0.0
  0
ENDBLK
  5
84
330
60
100
AcDbEntity
  8
0
100
AcDbBlockEnd
  0
BLOCK
  5
85
330
61
100
AcDbEntity
  8
0
100
AcDbBlockBegin
  2
CDWK_EXTR_1G
 70
     0
 10
0.0
 20
0.0
 30
0.0
  3
CDWK_EXTR_1G
  1

  0
LINE
  5
86
330
61
100
AcDbEntity
  8
0
 62
     0
370
    -2
100
AcDbLine
 10
0.0
 20
0.0
 30
0.0
 11
0.0
 21
-1.0
 31
0.0
  0
LINE
  5
87
330
61
100
AcDbEntity
  8
0
 62
     0
370
    -2
100
AcDbLine
 10
0.0
 20
-1.0
 30
0.0
 11
0.5
 21
-1.5
 31
0.0
  0
LINE
  5
88
330
61
100
AcDbEntity
  8
0
 62
     0
370
    -2
100
AcDbLine
 10
0.5
 20
-1.5
 30
0.0
 11
1.5
 21
-1.5
 31
0.0
  0
ENDBLK
  5
89
330
61
100
AcDbEntity
  8
0
100
AcDbBlockEnd
  0
BLOCK
  5
8A
330
62
100
AcDbEntity
  8
0
100
AcDbBlockBegin
  2
CDWK_EXTR_2
 70
     0
 10
0.0
 20
0.0
 30
0.0
  3
CDWK_EXTR_2
  1

  0
SOLID
  5
8B
330
62
100
AcDbEntity
  8
0
 62
     0
100
AcDbTrace
 10
0.0
 20
0.0
 30
0.0
 11
2.0
 21
0.5
 31
0.0
 12
2.0
 22
-0.5
 32
0.0
 13
2.0
 23
-0.5
 33
0.0
  0
ENDBLK
  5
8C
330
62
100
AcDbEntity
  8
0
100
AcDbBlockEnd
  0
BLOCK
  5
8D
330
63
100
AcDbEntity
  8
0
100
AcDbBlockBegin
  2
CDWK_EXTR_3
 70
     0
 10
0.0
 20
0.0
 30
0.0
  3
CDWK_EXTR_3
  1

  0
SOLID
  5
8E
330
63
100
AcDbEntity
  8
0
 62
     0
100
AcDbTrace
 10
0.0
 20
0.0
 30
0.0
 11
2.0
 21
0.5
 31
0.0
 12
2.0
 22
-0.5
 32
0.0
 13
2.0
 23
-0.5
 33
0.0
  0
LINE
  5
8F
330
63
100
AcDbEntity
  8
0
 62
     0
370
    -2
100
AcDbLine
 10
0.0
 20
1.0
 30
0.0
 11
0.0
 21
-1.0
 31
0.0
  0
ENDBLK
  5
90
330
63
100
AcDbEntity
  8
0
100
AcDbBlockEnd
  0
BLOCK
  5
91
330
64
100
AcDbEntity
  8
0
100
AcDbBlockBegin
  2
CDWK_EXTR_4
 70
     0
 10
0.0
 20
0.0
 30
0.0
  3
CDWK_EXTR_4
  1

  0
HATCH
  5
92
330
64
100
AcDbEntity
  8
0
 62
     0
370
    20
100
AcDbHatch
 10
0.0
 20
0.0
 30
0.0
210
0.0
220
0.0
230
1.0
  2
SOLID
 70
     1
 71
     0
 91
        1
 92
        1
 93
        1
 72
     2
 10
0.0
 20
0.0
 40
0.5
 50
0.0
 51
360.0
 73
     1
 97
        0
 75
     0
 76
     1
 98
        1
 10
0.0
 20
0.0
  0
ENDBLK
  5
93
330
64
100
AcDbEntity
  8
0
100
AcDbBlockEnd
  0
BLOCK
  5
94
330
65
100
AcDbEntity
  8
0
100
AcDbBlockBegin
  2
CDWK_PTTYP0
 70
     0
 10
0.0
 20
0.0
 30
0.0
  3
CDWK_PTTYP0
  1

  0
POINT
  5
95
330
65
100
AcDbEntity
  8
0
 62
     0
100
AcDbPoint
 10
0.0
 20
0.0
 30
0.0
  0
ENDBLK
  5
96
330
65
100
AcDbEntity
  8
0
100
AcDbBlockEnd
  0
BLOCK
  5
97
330
66
100
AcDbEntity
  8
Ech.1_5
100
AcDbBlockBegin
  2
*X7
 70
     1
 10
0.0
 20
0.0
 30
0.0
  3
*X7
  1

  0
ENDBLK
  5
98
330
66
100
AcDbEntity
  8
0
100
AcDbBlockEnd
  0
BLOCK
  5
99
330
67
100
AcDbEntity
  8
Ech.1_5
100
AcDbBlockBegin
  2
*X8
 70
     1
 10
0.0
 20
0.0
 30
0.0
  3
*X8
  1

  0
ENDBLK
  5
9A
330
67
100
AcDbEntity
  8
0
100
AcDbBlockEnd
  0
BLOCK
  5
9B
330
68
100
AcDbEntity
  8
Ech.1_5
100
AcDbBlockBegin
  2
*X9
 70
     1
 10
0.0
 20
0.0
 30
0.0
  3
*X9
  1

  0
ENDBLK
  5
9C
330
68
100
AcDbEntity
  8
0
100
AcDbBlockEnd
  0
BLOCK
  5
9D
330
69
100
AcDbEntity
  8
Ech.1_5
100
AcDbBlockBegin
  2
*X10
 70
     1
 10
0.0
 20
0.0
 30
0.0
  3
*X10
  1

  0
ENDBLK
  5
9E
330
69
100
AcDbEntity
  8
0
100
AcDbBlockEnd
  0
BLOCK
  5
9F
330
6A
100
AcDbEntity
  8
Ech.1_5
100
AcDbBlockBegin
  2
*X11
 70
     1
 10
0.0
 20
0.0
 30
0.0
  3
*X11
  1

  0
LINE
  5
A0
330
6A
100
AcDbEntity
  8
Ech.1_5
  6
Continuous
 62
     7
370
    -2
100
AcDbLine
 10
37526.02025612
 20
7252.274927640001
 30
0.0
 11
37571.02188646
 21
7347.27530862
 31
0.0
  0
LINE
  5
A1
330
6A
100
AcDbEntity
  8
Ech.1_5
  6
Continuous
 62
     7
370
    -2
100
AcDbLine
 10
37571.02188646
 20
7252.274927640001
 30
0.0
 11
37526.02025612
 21
7347.27530862
 31
0.0
  0
ENDBLK
  5
A2
330
6A
100
AcDbEntity
  8
0
100
AcDbBlockEnd
  0
BLOCK
  5
A3
330
6B
100
AcDbEntity
  8
Ech.1_5
100
AcDbBlockBegin
  2
*X12
 70
     1
 10
0.0
 20
0.0
 30
0.0
  3
*X12
  1

  0
LINE
  5
A4
330
6B
100
AcDbEntity
  8
Ech.1_5
  6
Continuous
 62
     7
370
    -2
100
AcDbLine
 10
37481.01862578
 20
7207.2751338
 30
0.0
 11
37526.02025612
 21
7302.27551479
 31
0.0
  0
LINE
  5
A5
330
6B
100
AcDbEntity
  8
Ech.1_5
  6
Continuous
 62
     7
370
    -2
100
AcDbLine
 10
37526.02025612
 20
7207.2751338
 30
0.0
 11
37481.01862578
 21
7302.27551479
 31
0.0
  0
ENDBLK
  5
A6
330
6B
100
AcDbEntity
  8
0
100
AcDbBlockEnd
  0
BLOCK
  5
A7
330
6C
100
AcDbEntity
  8
Ech.1_5
100
AcDbBlockBegin
  2
*X13
 70
     1
 10
0.0
 20
0.0
 30
0.0
  3
*X13
  1

  0
LINE
  5
A8
330
6C
100
AcDbEntity
  8
Ech.1_5
  6
Continuous
 62
     7
370
    -2
100
AcDbLine
 10
37965.33342931
 20
7252.274927640001
 30
0.0
 11
38010.33505965
 21
7347.27530862
 31
0.0
  0
LINE
  5
A9
330
6C
100
AcDbEntity
  8
Ech.1_5
  6
Continuous
 62
     7
370
    -2
100
AcDbLine
 10
38010.33505965
 20
7252.274927640001
 30
0.0
 11
37965.33342931
 21
7347.27530862
 31
0.0
  0
ENDBLK
  5
AA
330
6C
100
AcDbEntity
  8
0
100
AcDbBlockEnd
  0
BLOCK
  5
AB
330
6D
100
AcDbEntity
  8
Ech.1_5
100
AcDbBlockBegin
  2
*X14
 70
     1
 10
0.0
 20
0.0
 30
0.0
  3
*X14
  1

  0
LINE
  5
AC
330
6D
100
AcDbEntity
  8
Ech.1_5
  6
Continuous
 62
     7
370
    -2
100
AcDbLine
 10
37526.02025612
 20
7367.274808880001
 30
0.0
 11
37571.02188646
 21
7462.27518987
 31
0.0
  0
LINE
  5
AD
330
6D
100
AcDbEntity
  8
Ech.1_5
  6
Continuous
 62
     7
370
    -2
100
AcDbLine
 10
37571.02188646
 20
7367.274808880001
 30
0.0
 11
37526.02025612
 21
7462.27518987
 31
0.0
  0
ENDBLK
  5
AE
330
6D
100
AcDbEntity
  8
0
100
AcDbBlockEnd
  0
BLOCK
  5
AF
330
6E
100
AcDbEntity
  8
Ech.1_5
100
AcDbBlockBegin
  2
*X15
 70
     1
 10
0.0
 20
0.0
 30
0.0
  3
*X15
  1

  0
LINE
  5
B0
330
6E
100
AcDbEntity
  8
Ech.1_5
  6
Continuous
 62
     7
370
    -2
100
AcDbLine
 10
37480.60357647
 20
7412.27643922
 30
0.0
 11
37525.6052068
 21
7507.2749837
 31
0.0
  0
LINE
  5
B1
330
6E
100
AcDbEntity
  8
Ech.1_5
  6
Continuous
 62
     7
370
    -2
100
AcDbLine
 10
37525.6052068
 20
7412.27643922
 30
0.0
 11
37480.60357647
 21
7507.2749837
 31
0.0
  0
ENDBLK
  5
B2
330
6E
100
AcDbEntity
  8
0
100
AcDbBlockEnd
  0
BLOCK
  5
B3
330
6F
100
AcDbEntity
  8
Ech.1_5
100
AcDbBlockBegin
  2
*X16
 70
     1
 10
0.0
 20
0.0
 30
0.0
  3
*X16
  1

  0
LINE
  5
B4
330
6F
100
AcDbEntity
  8
Ech.1_5
  6
Continuous
 62
     7
370
    -2
100
AcDbLine
 10
37965.33342931
 20
7367.274808880001
 30
0.0
 11
38010.33505965
 21
7462.27518987
 31
0.0
  0
LINE
  5
B5
330
6F
100
AcDbEntity
  8
Ech.1_5
  6
Continuous
 62
     7
370
    -2
100
AcDbLine
 10
38010.33505965
 20
7367.274808880001
 30
0.0
 11
37965.33342931
 21
7462.27518987
 31
0.0
  0
ENDBLK
  5
B6
330
6F
100
AcDbEntity
  8
0
100
AcDbBlockEnd
  0
BLOCK
  5
B7
330
70
100
AcDbEntity
  8
Ech.1_5
100
AcDbBlockBegin
  2
*X17
 70
     1
 10
0.0
 20
0.0
 30
0.0
  3
*X17
  1

  0
LINE
  5
B8
330
70
100
AcDbEntity
  8
Ech.1_5
  6
Continuous
 62
     7
370
    -2
100
AcDbLine
 10
37526.02025612
 20
7367.274808880001
 30
0.0
 11
37346.02108078
 21
7412.27643922
 31
0.0
  0
LINE
  5
B9
330
70
100
AcDbEntity
  8
Ech.1_5
  6
Continuous
 62
     7
370
    -2
100
AcDbLine
 10
37526.02025612
 20
7412.27643922
 30
0.0
 11
37346.02108078
 21
7367.274808880001
 31
0.0
  0
ENDBLK
  5
BA
330
70
100
AcDbEntity
  8
0
100
AcDbBlockEnd
  0
BLOCK
  5
BB
330
71
100
AcDbEntity
  8
Ech.1_5
100
AcDbBlockBegin
  2
*X18
 70
     1
 10
0.0
 20
0.0
 30
0.0
  3
*X18
  1

  0
LINE
  5
BC
330
71
100
AcDbEntity
  8
Ech.1_5
  6
Continuous
 62
     7
370
    -2
100
AcDbLine
 10
37526.02025612
 20
7302.27551479
 30
0.0
 11
37346.02108078
 21
7347.27530862
 31
0.0
  0
LINE
  5
BD
330
71
100
AcDbEntity
  8
Ech.1_5
  6
Continuous
 62
     7
370
    -2
100
AcDbLine
 10
37526.02025612
 20
7347.27530862
 30
0.0
 11
37346.02108078
 21
7302.27551479
 31
0.0
  0
ENDBLK
  5
BE
330
71
100
AcDbEntity
  8
0
100
AcDbBlockEnd
  0
BLOCK
  5
BF
330
72
100
AcDbEntity
  8
Ech.1_5
100
AcDbBlockBegin
  2
*X19
 70
     1
 10
0.0
 20
0.0
 30
0.0
  3
*X19
  1

  0
LINE
  5
C0
330
72
100
AcDbEntity
  8
Ech.1_5
  6
Continuous
 62
     7
370
    -2
100
AcDbLine
 10
37337.01855091
 20
7458.750943680001
 30
0.0
 11
37312.02009384
 21
7508.75153083
 31
0.0
  0
LINE
  5
C1
330
72
100
AcDbEntity
  8
Ech.1_5
  6
Continuous
 62
     7
370
    -2
100
AcDbLine
 10
37337.01855091
 20
7508.75153083
 30
0.0
 11
37312.02009384
 21
7458.750943680001
 31
0.0
  0
ENDBLK
  5
C2
330
72
100
AcDbEntity
  8
0
100
AcDbBlockEnd
  0
BLOCK
  5
C3
330
73
100
AcDbEntity
  8
Ech.1_5
100
AcDbBlockBegin
  2
*X20
 70
     1
 10
0.0
 20
0.0
 30
0.0
  3
*X20
  1

  0
LINE
  5
C4
330
73
100
AcDbEntity
  8
Ech.1_5
  6
Continuous
 62
     7
370
    -2
100
AcDbLine
 10
38010.33505965
 20
7462.27518987
 30
0.0
 11
37965.33342931
 21
7367.274808880001
 31
0.0
  0
LINE
  5
C5
330
73
100
AcDbEntity
  8
Ech.1_5
  6
Continuous
 62
     7
370
    -2
100
AcDbLine
 10
37965.33342931
 20
7462.27518987
 30
0.0
 11
38010.33505965
 21
7367.274808880001
 31
0.0
  0
ENDBLK
  5
C6
330
73
100
AcDbEntity
  8
0
100
AcDbBlockEnd
  0
BLOCK
  5
C7
330
74
100
AcDbEntity
  8
Ech.1_5
100
AcDbBlockBegin
  2
*X21
 70
     1
 10
0.0
 20
0.0
 30
0.0
  3
*X21
  1

  0
LINE
  5
C8
330
74
100
AcDbEntity
  8
Ech.1_5
  6
Continuous
 62
     7
370
    -2
100
AcDbLine
 10
38010.33505965
 20
7347.27530862
 30
0.0
 11
37965.33342931
 21
7252.274927640001
 31
0.0
  0
LINE
  5
C9
330
74
100
AcDbEntity
  8
Ech.1_5
  6
Continuous
 62
     7
370
    -2
100
AcDbLine
 10
37965.33342931
 20
7347.27530862
 30
0.0
 11
38010.33505965
 21
7252.274927640001
 31
0.0
  0
ENDBLK
  5
CA
330
74
100
AcDbEntity
  8
0
100
AcDbBlockEnd
  0
BLOCK
  5
CB
330
75
100
AcDbEntity
  8
Ech.1_5
100
AcDbBlockBegin
  2
*X22
 70
     1
 10
0.0
 20
0.0
 30
0.0
  3
*X22
  1

  0
LINE
  5
CC
330
75
100
AcDbEntity
  8
Ech.1_5
  6
Continuous
 62
     7
370
    -2
100
AcDbLine
 10
37525.6052068
 20
7507.2749837
 30
0.0
 11
37480.60357647
 21
7412.27643922
 31
0.0
  0
LINE
  5
CD
330
75
100
AcDbEntity
  8
Ech.1_5
  6
Continuous
 62
     7
370
    -2
100
AcDbLine
 10
37480.60357647
 20
7507.2749837
 30
0.0
 11
37525.6052068
 21
7412.27643922
 31
0.0
  0
ENDBLK
  5
CE
330
75
100
AcDbEntity
  8
0
100
AcDbBlockEnd
  0
BLOCK
  5
CF
330
76
100
AcDbEntity
  8
Ech.1_5
100
AcDbBlockBegin
  2
*X23
 70
     1
 10
0.0
 20
0.0
 30
0.0
  3
*X23
  1

  0
LINE
  5
D0
330
76
100
AcDbEntity
  8
Ech.1_5
  6
Continuous
 62
     7
370
    -2
100
AcDbLine
 10
37526.02025612
 20
7302.27551479
 30
0.0
 11
37481.01862578
 21
7207.2751338
 31
0.0
  0
LINE
  5
D1
330
76
100
AcDbEntity
  8
Ech.1_5
  6
Continuous
 62
     7
370
    -2
100
AcDbLine
 10
37481.01862578
 20
7302.27551479
 30
0.0
 11
37526.02025612
 21
7207.2751338
 31
0.0
  0
ENDBLK
  5
D2
330
76
100
AcDbEntity
  8
0
100
AcDbBlockEnd
  0
ENDSEC
  0
SECTION
  2
ENTITIES
  0
INSERT
  5
D3
330
5D
100
AcDbEntity
  8
Ech.1_5
 62
     0
370
    -3
100
AcDbBlockReference
  2
*X7
 10
0.0
 20
0.0
 30
0.0
  0
INSERT
  5
D4
330
5D
100
AcDbEntity
  8
Ech.1_5
 62
     0
370
    -3
100
AcDbBlockReference
  2
*X8
 10
0.0
 20
0.0
 30
0.0
  0
INSERT
  5
D5
330
5D
100
AcDbEntity
  8
Ech.1_5
 62
     0
370
    -3
100
AcDbBlockReference
  2
*X9
 10
0.0
 20
0.0
 30
0.0
  0
INSERT
  5
D6
330
5D
100
AcDbEntity
  8
Ech.1_5
 62
     0
370
    -3
100
AcDbBlockReference
  2
*X10
 10
0.0
 20
0.0
 30
0.0
  0
INSERT
  5
D7
330
5D
100
AcDbEntity
  8
Ech.1_5
 62
     0
370
    -3
100
AcDbBlockReference
  2
*X11
 10
0.0
 20
0.0
 30
0.0
  0
INSERT
  5
D8
330
5D
100
AcDbEntity
  8
Ech.1_5
 62
     0
370
    -3
100
AcDbBlockReference
  2
*X12
 10
0.0
 20
0.0
 30
0.0
  0
INSERT
  5
D9
330
5D
100
AcDbEntity
  8
Ech.1_5
 62
     0
370
    -3
100
AcDbBlockReference
  2
*X13
 10
0.0
 20
0.0
 30
0.0
  0
INSERT
  5
DA
330
5D
100
AcDbEntity
  8
Ech.1_5
 62
     0
370
    -3
100
AcDbBlockReference
  2
*X14
 10
0.0
 20
0.0
 30
0.0
  0
INSERT
  5
DB
330
5D
100
AcDbEntity
  8
Ech.1_5
 62
     0
370
    -3
100
AcDbBlockReference
  2
*X15
 10
0.0
 20
0.0
 30
0.0
  0
INSERT
  5
DC
330
5D
100
AcDbEntity
  8
Ech.1_5
 62
     0
370
    -3
100
AcDbBlockReference
  2
*X16
 10
0.0
 20
0.0
 30
0.0
  0
INSERT
  5
DD
330
5D
100
AcDbEntity
  8
Ech.1_5
 62
     0
370
    -3
100
AcDbBlockReference
  2
*X17
 10
0.0
 20
0.0
 30
0.0
  0
INSERT
  5
DE
330
5D
100
AcDbEntity
  8
Ech.1_5
 62
     0
370
    -3
100
AcDbBlockReference
  2
*X18
 10
0.0
 20
0.0
 30
0.0
  0
INSERT
  5
DF
330
5D
100
AcDbEntity
  8
Ech.1_5
 62
     0
370
    -3
100
AcDbBlockReference
  2
*X19
 10
0.0
 20
0.0
 30
0.0
  0
INSERT
  5
E0
330
5D
100
AcDbEntity
  8
Ech.1_5
 62
     0
370
    -3
100
AcDbBlockReference
  2
*X20
 10
0.0
 20
0.0
 30
0.0
  0
INSERT
  5
E1
330
5D
100
AcDbEntity
  8
Ech.1_5
 62
     0
370
    -3
100
AcDbBlockReference
  2
*X21
 10
0.0
 20
0.0
 30
0.0
  0
INSERT
  5
E2
330
5D
100
AcDbEntity
  8
Ech.1_5
 62
     0
370
    -3
100
AcDbBlockReference
  2
*X22
 10
0.0
 20
0.0
 30
0.0
  0
INSERT
  5
E3
330
5D
100
AcDbEntity
  8
Ech.1_5
 62
     0
370
    -3
100
AcDbBlockReference
  2
*X23
 10
0.0
 20
0.0
 30
0.0
  0
LWPOLYLINE
  5
E4
330
5D
100
AcDbEntity
  8
Ech.1_5
  6
Continuous
 62
     7
370
    -3
100
AcDbPolyline
 90
       14
 70
     0
 43
0.0
 10
38125.9500508
 20
7446.44221095
 42
1.140281810002446
 10
38094.82289439
 20
7442.34423351
 10
38109.57720726
 20
7387.20685513
 42
-1.303226189999999
 10
38078.98956108
 20
7387.20685513
 10
38093.74387395
 20
7442.34423351
 42
1.303226189999999
 10
38063.15622776
 20
7442.34423351
 10
38077.91054063
 20
7387.20685513
 42
-1.303226189999999
 10
38047.32289445
 20
7387.20685513
 10
38062.07720732
 20
7442.34423351
 42
1.303226189999999
 10
38031.48956114
 20
7442.34423351
 10
38046.243874
 20
7387.20685513
 42
-1.303226189999999
 10
38015.65622782
 20
7387.20685513
 10
38030.41054069
 20
7442.34423351
 42
0.5924543959375165
 10
38010.33467487
 20
7461.536133980271
 42
0.5924543959375165
  0
LWPOLYLINE
  5
E5
330
5D
100
AcDbEntity
  8
Ech.1_5
  6
Continuous
 62
     7
370
    -3
100
AcDbPolyline
 90
       14
 70
     0
 43
0.0
 10
38125.94995829
 20
7331.44221105
 42
1.140281809996577
 10
38094.82280185
 20
7327.3442336
 10
38109.57711475
 20
7272.20685515
 42
-1.303226189999999
 10
38078.98946853
 20
7272.20685515
 10
38093.7437814
 20
7327.3442336
 42
1.303226189999999
 10
38063.15613518
 20
7327.3442336
 10
38077.91044808
 20
7272.20685515
 42
-1.303226189999999
 10
38047.32280186
 20
7272.20685514
 10
38062.07711474
 20
7327.3442336
 42
1.303226189999999
 10
38031.48946852
 20
7327.34423359
 10
38046.24378141
 20
7272.20685514
 42
-1.303226189999999
 10
38015.65613519002
 20
7272.20685514
 10
38030.41044807
 20
7327.34423359
 42
0.5924523226935651
 10
38010.33467487
 20
7346.536163432581
 42
0.5924523226935651
  0
LWPOLYLINE
  5
E6
330
5D
100
AcDbEntity
  8
Ech.1_5
  6
Continuous
 62
     7
370
    -3
100
AcDbPolyline
 90
       11
 70
     0
 43
0.0
 10
37376.0198871
 20
7657.24136048
 42
1.140281809999847
 10
37383.78447594
 20
7598.26359037
 10
37488.25529827
 20
7626.21913058
 42
-1.303226189999999
 10
37488.25529827
 20
7568.26359037
 10
37383.78447594
 20
7596.21913058
 42
1.303226189999999
 10
37383.78447594
 20
7538.26359037
 10
37488.25529827
 20
7566.219130579999
 42
-1.303226189999999
 10
37488.25529827
 20
7508.263590370001
 10
37383.78447594
 20
7536.21913058
 42
1.303226189999999
 10
37383.78447594
 20
7478.26359037
 10
37480.60604382
 20
7504.172252460499
  0
LWPOLYLINE
  5
E7
330
5D
100
AcDbEntity
  8
Ech.1_5
  6
Continuous
 62
     7
370
    -3
100
AcDbPolyline
 90
        3
 70
     0
 43
0.0
 10
37376.0198871
 20
7302.27554428
 42
1.14028180999998
 10
37383.78447594
 20
7243.29777418
 10
37481.0198871
 20
7269.317177357786
  0
LWPOLYLINE
  5
F4
330
5D
100
AcDbEntity
  8
Ech.1_5
  6
Continuous
 62
     7
370
    -3
100
AcDbPolyline
 90
        4
 70
     1
 43
0.0
 10
37568.0198871
 20
7524.27554426
 10
37568.0198871
 20
7511.27554426
 10
38125.94959949
 20
7511.27554426
 10
38125.94959949
 20
7524.27554426
  0
HATCH
  5
F5
330
5D
100
AcDbEntity
  8
Ech.1_5
  6
Continuous
 62
     7
100
AcDbHatch
 10
0.0
 20
0.0
 30
0.0
210
0.0
220
0.0
230
1.0
  2
DOTS2
 70
     0
 71
     0
 91
        1
 92
        7
 72
     0
 73
     1
 93
        4
 10
37568.0198871
 20
7524.27554426
 10
37568.0198871
 20
7511.27554426
 10
38125.94959949
 20
7511.27554426
 10
38125.94959949
 20
7524.27554426
 97
        0
 75
     0
 76
     2
 52
0.0
 41
4.72440952
 77
     0
 78
     1
 53
0.0
 43
0.0
 44
0.0
 45
3.75
 46
3.535
 79
     2
 49
0.0
 49
-3.535
 47
0.775229
 98
        1
 10
0.0
 20
0.0
  0
LWPOLYLINE
  5
F6
330
5D
100
AcDbEntity
  8
Ech.1_5
  6
Continuous
 62
     7
370
    -3
100
AcDbPolyline
 90
        4
 70
     1
 43
0.0
 10
37568.0198871
 20
7203.27554428
 10
37568.0198871
 20
7190.27554428
 10
38125.95008384
 20
7190.27554428
 10
38125.95008384
 20
7203.27554428
  0
HATCH
  5
F7
330
5D
100
AcDbEntity
  8
Ech.1_5
  6
Continuous
 62
     7
100
AcDbHatch
 10
0.0
 20
0.0
 30
0.0
210
0.0
220
0.0
230
1.0
  2
DOTS2
 70
     0
 71
     0
 91
        1
 92
        7
 72
     0
 73
     1
 93
        4
 10
37568.0198871
 20
7203.27554428
 10
37568.0198871
 20
7190.27554428
 10
38125.95008384
 20
7190.27554428
 10
38125.95008384
 20
7203.27554428
 97
        0
 75
     0
 76
     2
 52
0.0
 41
4.72440952
 77
     0
 78
     1
 53
0.0
 43
0.0
 44
0.0
 45
3.75
 46
3.535
 79
     2
 49
0.0
 49
-3.535
 47
0.775229
 98
        1
 10
0.0
 20
0.0
  0
LWPOLYLINE
  5
F8
330
5D
100
AcDbEntity
  8
Ech.1_5
  6
Continuous
 62
     7
370
    -3
100
AcDbPolyline
 90
        4
 70
     1
 43
0.0
 10
37526.0198871
 20
7243.27554428
 10
37526.0198871
 20
7252.27554428
 10
38125.9500508
 20
7252.27554428
 10
38125.9500508
 20
7243.27554428
  0
HATCH
  5
FA
330
5D
100
AcDbEntity
  8
Ech.1_5
  6
Continuous
 62
     7
100
AcDbHatch
 10
0.0
 20
0.0
 30
0.0
210
0.0
220
0.0
230
1.0
  2
CDWK10A
 70
     0
 71
     1
 91
        1
 92
        7
 72
     0
 73
     1
 93
        4
 10
37526.0198871
 20
7243.27554428
 10
37526.0198871
 20
7252.27554428
 10
38125.9500508
 20
7252.27554428
 10
38125.9500508
 20
7243.27554428
 97
        1
330
F9
 75
     0
 76
     2
 52
0.0
 41
1.0
 77
     0
 78
     3
 53
45.0
 43
0.0
 44
0.0
 45
0.0
 46
42.00000167
 79
     0
 53
45.0
 43
0.0
 44
10.80000043
 45
0.0
 46
42.00000167
 79
     0
 53
45.0
 43
0.0
 44
21.60000086
 45
0.0
 46
42.00000167
 79
     0
 47
0.775229
 98
        1
 10
0.0
 20
0.0
  0
LWPOLYLINE
  5
FB
330
5D
100
AcDbEntity
  8
Ech.1_5
  6
Continuous
 62
     7
370
    -3
100
AcDbPolyline
 90
        4
 70
     1
 43
0.0
 10
37481.0198871
 20
7207.27554428
 10
37526.0198871
 20
7207.27554428
 10
37526.0198871
 20
7302.27554428
 10
37481.0198871
 20
7302.27554428
  0
LWPOLYLINE
  5
FC
330
5D
100
AcDbEntity
  8
Ech.1_5
  6
Continuous
 62
     7
370
    -3
100
AcDbPolyline
 90
        4
 70
     1
 43
0.0
 10
37965.33467487
 20
7252.27554428
 10
38010.33467487
 20
7252.27554428
 10
38010.33467487
 20
7347.275544279999
 10
37965.33467487
 20
7347.275544279999
  0
LWPOLYLINE
  5
FD
330
5D
100
AcDbEntity
  8
Ech.1_5
  6
Continuous
 62
     7
370
    -3
100
AcDbPolyline
 90
        4
 70
     1
 43
0.0
 10
37480.60604382
 20
7412.275544259999
 10
37525.60604382
 20
7412.275544259999
 10
37525.60604382
 20
7507.27554426
 10
37480.60604382
 20
7507.27554426
  0
LWPOLYLINE
  5
FE
330
5D
100
AcDbEntity
  8
Ech.1_5
  6
Continuous
 62
     7
370
    -3
100
AcDbPolyline
 90
        4
 70
     1
 43
0.0
 10
37965.33467487
 20
7367.27554426
 10
38010.33467487
 20
7367.27554426
 10
38010.33467487
 20
7462.275544259999
 10
37965.33467487
 20
7462.275544259999
  0
LWPOLYLINE
  5
FF
330
5D
100
AcDbEntity
  8
Ech.1_5
  6
Continuous
 62
     7
370
    -3
100
AcDbPolyline
 90
        4
 70
     1
 43
0.0
 10
37526.0198871
 20
7462.275544259999
 10
37526.0198871
 20
7471.27554426
 10
38125.9500508
 20
7471.27554426
 10
38125.9500508
 20
7462.275544259999
  0
HATCH
  5
101
330
5D
100
AcDbEntity
  8
Ech.1_5
  6
Continuous
 62
     7
100
AcDbHatch
 10
0.0
 20
0.0
 30
0.0
210
0.0
220
0.0
230
1.0
  2
CDWK10A
 70
     0
 71
     1
 91
        1
 92
        7
 72
     0
 73
     1
 93
        4
 10
37526.0198871
 20
7462.275544259999
 10
37526.0198871
 20
7471.27554426
 10
38125.9500508
 20
7471.27554426
 10
38125.9500508
 20
7462.275544259999
 97
        1
330
100
 75
     0
 76
     2
 52
0.0
 41
1.0
 77
     0
 78
     3
 53
45.0
 43
0.0
 44
0.0
 45
0.0
 46
42.00000167
 79
     0
 53
45.0
 43
0.0
 44
10.80000043
 45
0.0
 46
42.00000167
 79
     0
 53
45.0
 43
0.0
 44
21.60000086
 45
0.0
 46
42.00000167
 79
     0
 47
0.775229
 98
        1
 10
0.0
 20
0.0
  0
LWPOLYLINE
  5
102
330
5D
100
AcDbEntity
  8
Ech.1_5
  6
Continuous
 62
     7
370
    -3
100
AcDbPolyline
 90
        4
 70
     1
 43
0.0
 10
37579.0198871
 20
7188.94219921
 10
37566.0198871
 20
7188.94219921
 10
37566.0198871
 20
7057.31077455
 10
37579.0198871
 20
7057.31077455
  0
HATCH
  5
103
330
5D
100
AcDbEntity
  8
Ech.1_5
  6
Continuous
 62
     7
100
AcDbHatch
 10
0.0
 20
0.0
 30
0.0
210
0.0
220
0.0
230
1.0
  2
DOTS2
 70
     0
 71
     0
 91
        1
 92
        7
 72
     0
 73
     1
 93
        4
 10
37579.0198871
 20
7188.94219921
 10
37566.0198871
 20
7188.94219921
 10
37566.0198871
 20
7057.31077455
 10
37579.0198871
 20
7057.31077455
 97
        0
 75
     0
 76
     2
 52
0.0
 41
4.72440952
 77
     0
 78
     1
 53
0.0
 43
0.0
 44
0.0
 45
3.75
 46
3.535
 79
     2
 49
0.0
 49
-3.535
 47
0.775229
 98
        1
 10
0.0
 20
0.0
  0
LWPOLYLINE
  5
104
330
5D
100
AcDbEntity
  8
Ech.1_5
  6
Continuous
 62
     7
370
    -3
100
AcDbPolyline
 90
        4
 70
     1
 43
0.0
 10
37566.0198871
 20
7525.27589438
 10
37579.0198871
 20
7525.27589438
 10
37579.0198871
 20
7657.24097128
 10
37566.0198871
 20
7657.24097128
  0
HATCH
  5
105
330
5D
100
AcDbEntity
  8
Ech.1_5
  6
Continuous
 62
     7
100
AcDbHatch
 10
0.0
 20
0.0
 30
0.0
210
0.0
220
0.0
230
1.0
  2
DOTS2
 70
     0
 71
     0
 91
        1
 92
        7
 72
     0
 73
     1
 93
        4
 10
37566.0198871
 20
7525.27589438
 10
37579.0198871
 20
7525.27589438
 10
37579.0198871
 20
7657.24097128
 10
37566.0198871
 20
7657.24097128
 97
        0
 75
     0
 76
     2
 52
0.0
 41
4.72440952
 77
     0
 78
     1
 53
0.0
 43
0.0
 44
0.0
 45
3.75
 46
3.535
 79
     2
 49
0.0
 49
-3.535
 47
0.775229
 98
        1
 10
0.0
 20
0.0
  0
LWPOLYLINE
  5
106
330
5D
100
AcDbEntity
  8
Ech.1_5
  6
Continuous
 62
     7
370
    -3
100
AcDbPolyline
 90
        4
 70
     1
 43
0.0
 10
37346.0198871
 20
7057.31077455
 10
37337.0198871
 20
7057.31077455
 10
37337.0198871
 20
7657.24136048
 10
37346.0198871
 20
7657.24136048
  0
HATCH
  5
107
330
5D
100
AcDbEntity
  8
Ech.1_5
  6
Continuous
 62
     7
100
AcDbHatch
 10
0.0
 20
0.0
 30
0.0
210
0.0
220
0.0
230
1.0
  2
CDWK10A
 70
     0
 71
     0
 91
        1
 92
        7
 72
     0
 73
     1
 93
        4
 10
37346.0198871
 20
7057.31077455
 10
37337.0198871
 20
7057.31077455
 10
37337.0198871
 20
7657.24136048
 10
37346.0198871
 20
7657.24136048
 97
        0
 75
     0
 76
     2
 52
0.0
 41
1.0
 77
     0
 78
     3
 53
45.0
 43
0.0
 44
0.0
 45
0.0
 46
42.00000167
 79
     0
 53
45.0
 43
0.0
 44
10.80000043
 45
0.0
 46
42.00000167
 79
     0
 53
45.0
 43
0.0
 44
21.60000086
 45
0.0
 46
42.00000167
 79
     0
 47
0.775229
 98
        1
 10
0.0
 20
0.0
  0
LWPOLYLINE
  5
108
330
5D
100
AcDbEntity
  8
Ech.1_5
  6
Continuous
 62
     7
370
    -3
100
AcDbPolyline
 90
        4
 70
     1
 43
0.0
 10
37526.0198871
 20
7367.27554426
 10
37526.0198871
 20
7412.275544259999
 10
37346.0198871
 20
7412.275544259999
 10
37346.0198871
 20
7367.27554426
  0
LWPOLYLINE
  5
109
330
5D
100
AcDbEntity
  8
Ech.1_5
  6
Continuous
 62
     7
370
    -3
100
AcDbPolyline
 90
        4
 70
     1
 43
0.0
 10
37526.0198871
 20
7302.27554428
 10
37526.0198871
 20
7347.275544279999
 10
37346.0198871
 20
7347.275544279999
 10
37346.0198871
 20
7302.27554428
  0
LWPOLYLINE
  5
10A
330
5D
100
AcDbEntity
  8
Ech.1_5
  6
Continuous
 62
     7
370
    -3
100
AcDbPolyline
 90
        4
 70
     1
 43
0.0
 10
37337.0198871
 20
7458.751239300001
 10
37337.0198871
 20
7508.751239300001
 10
37312.0198871
 20
7508.751239300001
 10
37312.0198871
 20
7458.751239300001
  0
LWPOLYLINE
  5
10B
330
5D
100
AcDbEntity
  8
Ech.1_5
  6
Continuous
 62
     7
370
    -3
100
AcDbPolyline
 90
        5
 70
     0
 43
0.0
 10
37481.0198871
 20
7302.27554428
 10
37526.0198871
 20
7302.27554428
 10
37526.0198871
 20
7207.27554428
 10
37481.0198871
 20
7207.27554428
 10
37481.0198871
 20
7302.27554428
  0
LWPOLYLINE
  5
10C
330
5D
100
AcDbEntity
  8
Ech.1_5
  6
Continuous
 62
     7
370
    -3
100
AcDbPolyline
 90
        5
 70
     0
 43
0.0
 10
37965.33467487
 20
7347.275544279999
 10
38010.33467487
 20
7347.275544279999
 10
38010.33467487
 20
7252.27554428
 10
37965.33467487
 20
7252.27554428
 10
37965.33467487
 20
7347.275544279999
  0
LWPOLYLINE
  5
10D
330
5D
100
AcDbEntity
  8
Ech.1_5
  6
Continuous
 62
     7
370
    -3
100
AcDbPolyline
 90
        5
 70
     0
 43
0.0
 10
37965.33467487
 20
7462.275544259999
 10
38010.33467487
 20
7462.275544259999
 10
38010.33467487
 20
7367.27554426
 10
37965.33467487
 20
7367.27554426
 10
37965.33467487
 20
7462.275544259999
  0
LWPOLYLINE
  5
10E
330
5D
100
AcDbEntity
  8
Ech.1_5
  6
Continuous
 62
     7
370
    -3
100
AcDbPolyline
 90
        5
 70
     0
 43
0.0
 10
37346.0198871
 20
7302.27554428
 10
37346.0198871
 20
7347.275544279999
 10
37526.0198871
 20
7347.275544279999
 10
37526.0198871
 20
7302.27554428
 10
37346.0198871
 20
7302.27554428
  0
LWPOLYLINE
  5
10F
330
5D
100
AcDbEntity
  8
Ech.1_5
  6
Continuous
 62
     7
370
    -3
100
AcDbPolyline
 90
        5
 70
     0
 43
0.0
 10
37346.0198871
 20
7367.27554426
 10
37346.0198871
 20
7412.275544259999
 10
37526.0198871
 20
7412.275544259999
 10
37526.0198871
 20
7367.27554426
 10
37346.0198871
 20
7367.27554426
  0
LWPOLYLINE
  5
110
330
5D
100
AcDbEntity
  8
Ech.1_5
  6
Continuous
 62
     7
370
    -3
100
AcDbPolyline
 90
        5
 70
     0
 43
0.0
 10
37312.0198871
 20
7458.751239300001
 10
37312.0198871
 20
7508.751239300001
 10
37337.0198871
 20
7508.751239300001
 10
37337.0198871
 20
7458.751239300001
 10
37312.0198871
 20
7458.751239300001
  0
LWPOLYLINE
  5
111
330
5D
100
AcDbEntity
  8
Ech.1_5
  6
Continuous
 62
     7
370
    -3
100
AcDbPolyline
 90
        5
 70
     0
 43
0.0
 10
37480.60604382
 20
7507.27554426
 10
37525.60604382
 20
7507.27554426
 10
37525.60604382
 20
7412.275544259999
 10
37480.60604382
 20
7412.275544259999
 10
37480.60604382
 20
7507.27554426
  0
LWPOLYLINE
  5
112
330
5D
100
AcDbEntity
  8
Ech.1_5
 62
     3
370
    70
100
AcDbPolyline
 90
        4
 70
     0
 43
0.0
 10
37582.75121848
 20
7478.85083182
 10
37595.7403519
 20
7478.85083182
 10
37599.67508404
 20
7475.17021886
 10
37613.15351404
 20
7475.17021886
  0
LWPOLYLINE
  5
113
330
5D
100
AcDbEntity
  8
Ech.1_5
 62
     3
370
    70
100
AcDbPolyline
 90
        4
 70
     0
 43
0.0
 10
37582.75121848
 20
7235.70025695
 10
37595.7403519
 20
7235.70025695
 10
37599.67508404
 20
7239.38086991
 10
37613.15351404
 20
7239.38086991
  0
LWPOLYLINE
  5
114
330
5D
100
AcDbEntity
  8
Ech.1_5
  6
Continuous
 62
     7
370
    -3
100
AcDbPolyline
 90
      210
 70
     0
 43
0.0
 10
37698.94718467
 20
7363.94221093
 42
1.14028181
 10
37692.3940991
 20
7363.079478839999
 10
37695.50027024
 20
7351.4716097
 42
-1.303226189999999
 10
37689.06076577
 20
7351.4716097
 10
37692.16693691
 20
7363.079478839999
 42
1.303226189999999
 10
37685.72743244
 20
7363.079478839999
 10
37688.83360358
 20
7351.4716097
 42
-1.303226189999999
 10
37682.39409911002
 20
7351.4716097
 10
37685.50027025
 20
7363.079478839999
 42
1.303226189999999
 10
37679.06076578
 20
7363.079478839999
 10
37682.16693691
 20
7351.4716097
 42
-1.303226189999999
 10
37675.72743245002
 20
7351.4716097
 10
37678.83360358
 20
7363.079478839999
 42
1.303226189999999
 10
37672.39409912
 20
7363.079478839999
 10
37675.50027025
 20
7351.4716097
 42
-1.303226189999999
 10
37669.06076579
 20
7351.4716097
 10
37672.16693692002
 20
7363.079478839999
 42
1.303226189999999
 10
37665.72743246
 20
7363.079478839999
 10
37668.83360359
 20
7351.4716097
 42
-1.303226189999999
 10
37662.39409913
 20
7351.4716097
 10
37665.50027026002
 20
7363.079478839999
 42
1.303226189999999
 10
37659.06076580002
 20
7363.079478839999
 10
37662.16693693
 20
7351.4716097
 42
-1.303226189999999
 10
37655.72743247
 20
7351.4716097
 10
37658.83360360002
 20
7363.079478839999
 42
1.303226189999999
 10
37652.39409914
 20
7363.079478839999
 10
37655.50027027
 20
7351.4716097
 42
-1.303226189999999
 10
37649.06076581
 20
7351.4716097
 10
37652.16693694
 20
7363.079478839999
 42
1.303226189999999
 10
37645.72743248
 20
7363.079478839999
 10
37648.83360361
 20
7351.4716097
 42
-1.303226189999999
 10
37642.39409915
 20
7351.4716097
 10
37645.50027028
 20
7363.079478839999
 42
1.303226189999999
 10
37639.06076582
 20
7363.079478839999
 10
37642.16693695
 20
7351.4716097
 42
-1.303226189999999
 10
37635.72743249
 20
7351.4716097
 10
37638.83360362
 20
7363.079478839999
 42
1.303226189999999
 10
37632.39409916
 20
7363.079478839999
 10
37635.50027029
 20
7351.4716097
 42
-1.303226189999999
 10
37629.06076583
 20
7351.4716097
 10
37632.16693696
 20
7363.079478839999
 42
1.303226189999999
 10
37625.7274325
 20
7363.079478839999
 10
37628.83360363
 20
7351.4716097
 42
-1.303226189999999
 10
37622.39409917
 20
7351.4716097
 10
37625.5002703
 20
7363.079478839999
 42
1.303226189999999
 10
37619.06076584
 20
7363.079478839999
 10
37622.16693697
 20
7351.4716097
 42
-1.303226189999999
 10
37615.72743251
 20
7351.4716097
 10
37618.83360364
 20
7363.079478839999
 42
1.303226189999999
 10
37612.39409918
 20
7363.079478839999
 10
37615.50027031002
 20
7351.4716097
 42
-1.303226189999999
 10
37609.06076585
 20
7351.4716097
 10
37612.16693698
 20
7363.079478839999
 42
1.303226189999999
 10
37605.72743252
 20
7363.079478839999
 10
37608.83360365
 20
7351.4716097
 42
-1.303226189999999
 10
37602.39409919
 20
7351.4716097
 10
37605.50027032
 20
7363.079478839999
 42
1.303226189999999
 10
37599.06076585
 20
7363.079478839999
 10
37602.16693699
 20
7351.4716097
 42
-1.303226189999999
 10
37595.72743252
 20
7351.4716097
 10
37598.83360366
 20
7363.079478839999
 42
1.303226189999999
 10
37592.39409919
 20
7363.079478839999
 10
37595.50027033
 20
7351.4716097
 42
-1.303226189999999
 10
37589.06076586
 20
7351.4716097
 10
37592.166937
 20
7363.079478839999
 42
1.303226189999999
 10
37585.72743253
 20
7363.079478839999
 10
37588.83360366
 20
7351.4716097
 42
-1.303226189999999
 10
37582.3940992
 20
7351.4716097
 10
37585.50027033
 20
7363.079478839999
 42
1.303226189999999
 10
37579.06076587
 20
7363.079478839999
 10
37582.166937
 20
7351.4716097
 42
-1.303226189999999
 10
37575.72743254
 20
7351.4716097
 10
37578.83360367
 20
7363.079478839999
 42
1.303226189999999
 10
37572.39409921
 20
7363.079478839999
 10
37575.50027034
 20
7351.4716097
 42
-1.303226189999999
 10
37569.06076588
 20
7351.4716097
 10
37572.16693701
 20
7363.079478839999
 42
1.303226189999999
 10
37565.72743255
 20
7363.079478839999
 10
37568.83360368
 20
7351.4716097
 42
-1.303226189999999
 10
37562.39409922
 20
7351.4716097
 10
37565.50027035
 20
7363.079478839999
 42
1.303226189999999
 10
37559.06076589
 20
7363.079478839999
 10
37562.16693702
 20
7351.4716097
 42
-1.303226189999999
 10
37555.72743256
 20
7351.4716097
 10
37558.83360369
 20
7363.079478839999
 42
1.303226189999999
 10
37552.39409923
 20
7363.079478839999
 10
37555.50027036
 20
7351.4716097
 42
-1.303226189999999
 10
37549.0607659
 20
7351.4716097
 10
37552.16693703
 20
7363.079478839999
 42
1.303226189999999
 10
37545.72743257
 20
7363.079478839999
 10
37548.8336037
 20
7351.4716097
 42
-1.303226189999999
 10
37542.39409924
 20
7351.4716097
 10
37545.50027037
 20
7363.079478839999
 42
1.303226189999999
 10
37539.06076591
 20
7363.079478839999
 10
37542.16693704
 20
7351.4716097
 42
-1.303226189999999
 10
37535.72743258002
 20
7351.4716097
 10
37538.83360371
 20
7363.079478839999
 42
1.303226189999999
 10
37532.39409925
 20
7363.079478839999
 10
37535.50027038
 20
7351.4716097
 42
-1.303226189999999
 10
37529.06076592002
 20
7351.4716097
 10
37532.16693705
 20
7363.079478839999
 42
1.303226189999999
 10
37525.72743259
 20
7363.079478839999
 10
37528.83360372
 20
7351.4716097
 42
-1.303226189999999
 10
37522.39409926
 20
7351.4716097
 10
37525.50027039002
 20
7363.079478839999
 42
1.303226189999999
 10
37519.06076593
 20
7363.079478839999
 10
37522.16693706
 20
7351.4716097
 42
-1.303226189999999
 10
37515.7274326
 20
7351.4716097
 10
37518.83360373002
 20
7363.079478839999
 42
1.303226189999999
 10
37512.39409927
 20
7363.079478839999
 10
37515.5002704
 20
7351.4716097
 42
-1.303226189999999
 10
37509.06076593
 20
7351.4716097
 10
37512.16693707
 20
7363.079478839999
 42
1.303226189999999
 10
37505.7274326
 20
7363.079478839999
 10
37508.83360374
 20
7351.4716097
 42
-1.303226189999999
 10
37502.39409927
 20
7351.4716097
 10
37505.50027041
 20
7363.079478839999
 42
1.303226189999999
 10
37499.06076594
 20
7363.079478839999
 10
37502.16693708
 20
7351.4716097
 42
-1.303226189999999
 10
37495.72743261
 20
7351.4716097
 10
37498.83360374
 20
7363.079478839999
 42
1.303226189999999
 10
37492.39409928
 20
7363.079478839999
 10
37495.50027041
 20
7351.4716097
 42
-1.303226189999999
 10
37489.06076595
 20
7351.4716097
 10
37492.16693708
 20
7363.079478839999
 42
1.303226189999999
 10
37485.72743262
 20
7363.079478839999
 10
37488.83360375
 20
7351.4716097
 42
-1.303226189999999
 10
37482.39409929
 20
7351.4716097
 10
37485.50027042
 20
7363.079478839999
 42
1.303226189999999
 10
37479.06076596
 20
7363.079478839999
 10
37482.16693709
 20
7351.4716097
 42
-1.303226189999999
 10
37475.72743263
 20
7351.4716097
 10
37478.83360376
 20
7363.079478839999
 42
1.303226189999999
 10
37472.3940993
 20
7363.079478839999
 10
37475.50027043
 20
7351.4716097
 42
-1.303226189999999
 10
37469.06076597
 20
7351.4716097
 10
37472.1669371
 20
7363.079478839999
 42
1.303226189999999
 10
37465.72743264
 20
7363.079478839999
 10
37468.83360377
 20
7351.4716097
 42
-1.303226189999999
 10
37462.39409931
 20
7351.4716097
 10
37465.50027044
 20
7363.079478839999
 42
1.303226189999999
 10
37459.06076598
 20
7363.079478839999
 10
37462.16693711
 20
7351.4716097
 42
-1.303226189999999
 10
37455.72743265
 20
7351.4716097
 10
37458.83360378
 20
7363.079478839999
 42
1.303226189999999
 10
37452.39409932
 20
7363.079478839999
 10
37455.50027045
 20
7351.4716097
 42
-1.303226189999999
 10
37449.06076599
 20
7351.4716097
 10
37452.16693712
 20
7363.079478839999
 42
1.303226189999999
 10
37445.72743266
 20
7363.079478839999
 10
37448.83360379
 20
7351.4716097
 42
-1.303226189999999
 10
37442.39409933
 20
7351.4716097
 10
37445.50027046
 20
7363.079478839999
 42
1.303226189999999
 10
37439.060766
 20
7363.079478839999
 10
37442.16693713
 20
7351.4716097
 42
-1.303226189999999
 10
37435.72743267
 20
7351.4716097
 10
37438.83360380001
 20
7363.079478839999
 42
1.303226189999999
 10
37432.39409934
 20
7363.079478839999
 10
37435.50027047002
 20
7351.4716097
 42
-1.303226189999999
 10
37429.06076601
 20
7351.4716097
 10
37432.16693714
 20
7363.079478839999
 42
1.303226189999999
 10
37425.72743268
 20
7363.079478839999
 10
37428.83360381002
 20
7351.4716097
 42
-1.303226189999999
 10
37422.39409935
 20
7351.4716097
 10
37425.50027048
 20
7363.079478839999
 42
1.303226189999999
 10
37419.06076602
 20
7363.079478839999
 10
37422.16693715
 20
7351.4716097
 42
-1.303226189999999
 10
37415.72743268002
 20
7351.4716097
 10
37418.83360382
 20
7363.079478839999
 42
1.303226189999999
 10
37412.39409935
 20
7363.079478839999
 10
37415.50027049
 20
7351.4716097
 42
-1.303226189999999
 10
37409.06076602
 20
7351.4716097
 10
37412.16693716
 20
7363.079478839999
 42
1.303226189999999
 10
37405.72743269
 20
7363.079478839999
 10
37408.83360383
 20
7351.4716097
 42
-1.303226189999999
 10
37402.39409936
 20
7351.4716097
 10
37405.50027049002
 20
7363.079478839999
 42
1.303226189999999
 10
37399.06076603
 20
7363.079478839999
 10
37402.16693716
 20
7351.4716097
 42
-1.303226189999999
 10
37395.7274327
 20
7351.4716097
 10
37398.83360383
 20
7363.079478839999
 42
1.303226189999999
 10
37392.39409937
 20
7363.079478839999
 10
37395.5002705
 20
7351.4716097
 42
-1.303226189999999
 10
37389.06076604
 20
7351.4716097
 10
37392.16693717
 20
7363.079478839999
 42
1.303226189999999
 10
37385.72743271
 20
7363.079478839999
 10
37388.83360384
 20
7351.4716097
 42
-1.303226189999999
 10
37382.39409938
 20
7351.4716097
 10
37385.50027051
 20
7363.079478839999
 42
1.303226189999999
 10
37379.06076605
 20
7363.079478839999
 10
37382.16693718
 20
7351.4716097
 42
-1.303226189999999
 10
37375.72743272
 20
7351.4716097
 10
37378.83360385
 20
7363.079478839999
 42
1.303226189999999
 10
37372.39409939002
 20
7363.079478839999
 10
37375.50027052
 20
7351.4716097
 42
-1.303226189999999
 10
37369.06076606
 20
7351.4716097
 10
37372.16693719
 20
7363.079478839999
 42
1.303226189999999
 10
37365.72743273
 20
7363.079478839999
 10
37368.83360386
 20
7351.4716097
 42
-1.303226189999999
 10
37362.3940994
 20
7351.4716097
 10
37365.50027053
 20
7363.079478839999
 42
1.303226189999999
 10
37359.06076607
 20
7363.079478839999
 10
37362.1669372
 20
7351.4716097
 42
-1.303226189999999
 10
37355.72743274
 20
7351.4716097
 10
37358.83360387
 20
7363.079478839999
 42
1.303226189999999
 10
37352.39409941
 20
7363.079478839999
 10
37355.50027054
 20
7351.4716097
 42
-1.303226189999999
 10
37349.06076608
 20
7351.4716097
 10
37352.16693721
 20
7363.079478839999
 42
0.8880346599999999
 10
37346.0198871
 20
7365.536588010002
  0
LINE
  5
115
330
5D
100
AcDbEntity
  8
Ech.1_5
  6
CADWORK_22
 62
   150
370
    35
100
AcDbLine
 10
37335.49346227
 20
7657.241085649999
 30
0.0
 11
37335.5198871
 21
7057.24122282
 31
0.0
  0
LINE
  5
116
330
5D
100
AcDbEntity
  8
Ech.1_5
  6
CADWORK_22
 62
     1
370
    35
100
AcDbLine
 10
38125.95038053
 20
7472.77554426
 30
0.0
 11
37577.04552684
 21
7472.77554426
 31
0.0
  0
LINE
  5
117
330
5D
100
AcDbEntity
  8
Ech.1_5
  6
CADWORK_22
 62
     1
370
    35
100
AcDbLine
 10
38125.95038053
 20
7241.7755445
 30
0.0
 11
37577.04552684
 21
7241.7755445
 31
0.0
  0
LWPOLYLINE
  5
118
330
5D
100
AcDbEntity
  8
Ech.1_5
 62
     7
100
AcDbPolyline
 90
        5
 70
     0
 43
0.0
 10
37839.34175567
 20
7102.967701
 10
37973.77053466
 20
7102.967701
 10
37973.77053466
 20
7046.244742179999
 10
37839.34175567
 20
7046.244742179999
 10
37839.34175567
 20
7102.967701
  0
LWPOLYLINE
  5
119
330
5D
100
AcDbEntity
  8
Ech.1_5
 62
     7
100
AcDbPolyline
 90
        5
 70
     0
 43
0.0
 10
37857.62180146
 20
7069.31088987
 10
37907.62180146
 20
7069.31088987
 10
37907.62180146
 20
7076.726027399999
 10
37857.62180146
 20
7076.726027399999
 10
37857.62180146
 20
7069.31088987
  0
LWPOLYLINE
  5
11A
330
5D
100
AcDbEntity
  8
Ech.1_5
 62
     7
100
AcDbPolyline
 90
        5
 70
     0
 43
0.0
 10
37907.62180146
 20
7069.31088987
 10
37957.62180146
 20
7069.31088987
 10
37957.62180146
 20
7076.726027399999
 10
37907.62180146
 20
7076.726027399999
 10
37907.62180146
 20
7069.31088987
  0
LWPOLYLINE
  5
11B
330
5D
100
AcDbEntity
  8
Ech.1_5
  6
Continuous
 62
     7
370
    -3
100
AcDbPolyline
 90
        6
 70
     0
 43
0.0
 10
38125.94930476
 20
7544.27554426
 10
38125.95078057
 20
7320.12920186
 10
38143.92812898
 20
7303.6436987
 10
38107.97242897
 20
7317.753638719999
 10
38125.95078057
 20
7301.267284640001
 10
38125.94995829
 20
7170.275544279999
  0
LWPOLYLINE
  5
11C
330
5D
100
AcDbEntity
  8
Ech.1_5
  6
Continuous
 62
     7
370
    -3
100
AcDbPolyline
 90
        6
 70
     0
 43
0.0
 10
37599.0198871
 20
7057.311740180001
 10
37478.95427830001
 20
7057.31011063
 10
37462.46877514
 20
7039.33276222
 10
37476.57871516
 20
7075.28846223
 10
37460.09236108
 20
7057.31011063
 10
37272.0198871
 20
7057.310896369999
  0
LWPOLYLINE
  5
11D
330
5D
100
AcDbEntity
  8
Ech.1_5
  6
Continuous
 62
     7
370
    -3
100
AcDbPolyline
 90
        6
 70
     0
 43
0.0
 10
37272.0198871
 20
7657.240192199999
 10
37408.45339059998
 20
7657.241668020002
 10
37424.93889375
 20
7675.21901642
 10
37410.82895374
 20
7639.263316410001
 10
37427.31530782
 20
7657.241668020002
 10
37599.0198871
 20
7657.24084573
  0
LWPOLYLINE
  5
11E
330
5D
100
AcDbEntity
  8
Ech.1_5
  6
Continuous
 62
     7
370
    -3
100
AcDbPolyline
 90
        5
 70
     0
 43
0.0
 10
37199.99437673
 20
6648.42779964
 10
38184.99437673
 20
6648.42779964
 10
38184.99437673
 20
8003.427799639998
 10
37199.99437673
 20
8003.427799639998
 10
37199.99437673
 20
6648.42779964
  0
LWPOLYLINE
  5
11F
330
5D
100
AcDbEntity
  8
Ech.1_5
  6
Continuous
 62
     7
370
    -3
100
AcDbPolyline
 90
        4
 70
     1
 43
0.0
 10
37526.0198871
 20
7252.27554428
 10
37571.0198871
 20
7252.27554428
 10
37571.0198871
 20
7347.275544279999
 10
37526.0198871
 20
7347.275544279999
  0
LWPOLYLINE
  5
120
330
5D
100
AcDbEntity
  8
Ech.1_5
  6
Continuous
 62
     7
370
    -3
100
AcDbPolyline
 90
        4
 70
     1
 43
0.0
 10
37526.0198871
 20
7367.27554426
 10
37571.0198871
 20
7367.27554426
 10
37571.0198871
 20
7462.275544259999
 10
37526.0198871
 20
7462.275544259999
  0
LWPOLYLINE
  5
121
330
5D
100
AcDbEntity
  8
Ech.1_5
  6
Continuous
 62
     7
370
    -3
100
AcDbPolyline
 90
        5
 70
     0
 43
0.0
 10
37526.0198871
 20
7347.275544279999
 10
37571.0198871
 20
7347.275544279999
 10
37571.0198871
 20
7252.27554428
 10
37526.0198871
 20
7252.27554428
 10
37526.0198871
 20
7347.275544279999
  0
LWPOLYLINE
  5
122
330
5D
100
AcDbEntity
  8
Ech.1_5
  6
Continuous
 62
     7
370
    -3
100
AcDbPolyline
 90
        5
 70
     0
 43
0.0
 10
37526.0198871
 20
7462.275544259999
 10
37571.0198871
 20
7462.275544259999
 10
37571.0198871
 20
7367.27554426
 10
37526.0198871
 20
7367.27554426
 10
37526.0198871
 20
7462.275544259999
  0
LWPOLYLINE
  5
123
330
5D
100
AcDbEntity
  8
Ech.1_5
  6
CADWORK_22
 62
     1
370
    35
100
AcDbPolyline
 90
        5
 70
     0
 43
0.0
 10
37527.5198871
 20
7657.24084573
 10
37527.5198871
 20
7472.77554426
 10
37566.0198871
 20
7472.77554426
 10
37570.89209807
 20
7476.209449070001
 10
37594.07568413002
 20
7476.209449070001
  0
LWPOLYLINE
  5
124
330
5D
100
AcDbEntity
  8
Ech.1_5
  6
CADWORK_22
 62
     1
370
    35
100
AcDbPolyline
 90
        5
 70
     0
 43
0.0
 10
37527.5198871
 20
7057.310243029998
 10
37527.5198871
 20
7241.7755445
 10
37566.0198871
 20
7241.7755445
 10
37570.89209807
 20
7238.3416397
 10
37594.07568413002
 20
7238.3416397
  0
LWPOLYLINE
  5
125
330
5D
100
AcDbEntity
  8
Ech.1_5
  6
Continuous
 62
     7
370
    -3
100
AcDbPolyline
 90
        5
 70
     0
 43
0.0
 10
37571.0198871
 20
7462.275544259999
 10
38125.95004792
 20
7462.275544259999
 10
38125.95004792
 20
7367.275544379999
 10
37571.0198871
 20
7367.275544379999
 10
37571.0198871
 20
7462.275544259999
  0
LWPOLYLINE
  5
126
330
5D
100
AcDbEntity
  8
Ech.1_5
  6
Continuous
 62
     7
370
    -3
100
AcDbPolyline
 90
        9
 70
     0
 43
0.0
 10
38125.95035833
 20
7301.267284640001
 10
38107.97200673
 20
7317.753638719999
 10
38143.92770674
 20
7303.6436987
 10
38125.95035833
 20
7320.12920186
 10
38125.94995829
 20
7347.27554438
 10
37571.0198871
 20
7347.275544279999
 10
37571.0198871
 20
7252.27554428
 10
38125.9500508
 20
7252.27554428
 10
38125.95035833
 20
7301.267284640001
  0
LWPOLYLINE
  5
127
330
5D
100
AcDbEntity
  8
Ech.1_5
  6
Continuous
 62
     7
370
    -3
100
AcDbPolyline
 90
        9
 70
     0
 43
0.0
 10
37427.31530782
 20
7657.241294880001
 10
37410.82895374
 20
7639.262943269999
 10
37424.93889375
 20
7675.21864329
 10
37408.45339059998
 20
7657.241294880001
 10
37346.0198871
 20
7657.24071252
 10
37346.0198871
 20
7412.275544259999
 10
37526.0198871
 20
7412.275544259999
 10
37526.0198871
 20
7657.24084573
 10
37427.31530782
 20
7657.241294880001
  0
LWPOLYLINE
  5
128
330
5D
100
AcDbEntity
  8
Ech.1_5
  6
Continuous
 62
     7
370
    -3
100
AcDbPolyline
 90
        9
 70
     0
 43
0.0
 10
37460.09236108
 20
7057.311076259999
 10
37476.57871516
 20
7075.289427859999
 10
37462.46877514
 20
7039.333727849999
 10
37478.95427830001
 20
7057.311076259999
 10
37526.0198871
 20
7057.311740180001
 10
37526.0198871
 20
7302.27554428
 10
37346.0198871
 20
7302.27554428
 10
37346.0198871
 20
7057.311771070001
 10
37460.09236108
 20
7057.311076259999
  0
LWPOLYLINE
  5
129
330
5D
100
AcDbEntity
  8
Ech.1_5
  6
Continuous
 62
     7
370
     5
100
AcDbPolyline
 90
        5
 70
     0
 43
0.0
 10
37857.62180146
 20
7069.31088987
 10
37907.62180146
 20
7069.31088987
 10
37907.62180146
 20
7076.726027399999
 10
37857.62180146
 20
7076.726027399999
 10
37857.62180146
 20
7069.31088987
  0
LWPOLYLINE
  5
12A
330
5D
100
AcDbEntity
  8
Ech.1_5
  6
Continuous
 62
     7
370
    15
100
AcDbPolyline
 90
        5
 70
     0
 43
0.0
 10
37568.0198871
 20
7524.27554426
 10
37568.0198871
 20
7511.27554426
 10
38125.94959949
 20
7511.27554426
 10
38125.94959949
 20
7524.27554426
 10
37568.0198871
 20
7524.27554426
  0
LWPOLYLINE
  5
12B
330
5D
100
AcDbEntity
  8
Ech.1_5
  6
Continuous
 62
     7
370
    15
100
AcDbPolyline
 90
        5
 70
     0
 43
0.0
 10
37568.0198871
 20
7203.27554428
 10
37568.0198871
 20
7190.27554428
 10
38125.95008384
 20
7190.27554428
 10
38125.95008384
 20
7203.27554428
 10
37568.0198871
 20
7203.27554428
  0
LWPOLYLINE
  5
12C
330
5D
100
AcDbEntity
  8
Ech.1_5
  6
Continuous
 62
     7
370
    -3
100
AcDbPolyline
 90
        5
 70
     0
 43
0.0
 10
37566.0198871
 20
7511.27554426
 10
38125.95038053
 20
7511.27554426
 10
38125.95038053
 20
7471.27554426
 10
37566.0198871
 20
7471.27554426
 10
37566.0198871
 20
7511.27554426
  0
LWPOLYLINE
  5
12D
330
5D
100
AcDbEntity
  8
Ech.1_5
  6
Continuous
 62
     7
370
    -3
100
AcDbPolyline
 90
        5
 70
     0
 43
0.0
 10
37566.0198871
 20
7243.27554428
 10
38125.95038053
 20
7243.27554428
 10
38125.95038053
 20
7203.27554428
 10
37566.0198871
 20
7203.27554428
 10
37566.0198871
 20
7243.27554428
  0
LWPOLYLINE
  5
12E
330
5D
100
AcDbEntity
  8
Ech.1_5
  6
Continuous
 62
     7
370
    -3
100
AcDbPolyline
 90
        5
 70
     0
 43
0.0
 10
37571.0198871
 20
7347.275544279999
 10
37526.0198871
 20
7347.275544279999
 10
37526.0198871
 20
7252.27554428
 10
37571.0198871
 20
7252.27554428
 10
37571.0198871
 20
7347.275544279999
  0
LWPOLYLINE
  5
12F
330
5D
100
AcDbEntity
  8
Ech.1_5
  6
Continuous
 62
     7
370
    -3
100
AcDbPolyline
 90
        5
 70
     0
 43
0.0
 10
37571.0198871
 20
7462.275544259999
 10
37526.0198871
 20
7462.275544259999
 10
37526.0198871
 20
7367.27554426
 10
37571.0198871
 20
7367.27554426
 10
37571.0198871
 20
7462.275544259999
  0
LWPOLYLINE
  5
130
330
5D
100
AcDbEntity
  8
Ech.1_5
  6
Continuous
 62
     7
370
    15
100
AcDbPolyline
 90
        5
 70
     0
 43
0.0
 10
37579.0198871
 20
7188.94219921
 10
37566.0198871
 20
7188.94219921
 10
37566.0198871
 20
7057.31077455
 10
37579.0198871
 20
7057.31077455
 10
37579.0198871
 20
7188.94219921
  0
LWPOLYLINE
  5
131
330
5D
100
AcDbEntity
  8
Ech.1_5
  6
Continuous
 62
     7
370
    15
100
AcDbPolyline
 90
        5
 70
     0
 43
0.0
 10
37566.0198871
 20
7525.27589438
 10
37579.0198871
 20
7525.27589438
 10
37579.0198871
 20
7657.24097128
 10
37566.0198871
 20
7657.24097128
 10
37566.0198871
 20
7525.27589438
  0
LWPOLYLINE
  5
132
330
5D
100
AcDbEntity
  8
Ech.1_5
  6
Continuous
 62
     7
370
    -3
100
AcDbPolyline
 90
        5
 70
     0
 43
0.0
 10
37346.0198871
 20
7057.31077455
 10
37337.0198871
 20
7057.31077455
 10
37337.0198871
 20
7657.24136048
 10
37346.0198871
 20
7657.24136048
 10
37346.0198871
 20
7057.31077455
  0
LWPOLYLINE
  5
133
330
5D
100
AcDbEntity
  8
Ech.1_5
  6
Continuous
 62
     7
370
    -3
100
AcDbPolyline
 90
        5
 70
     0
 43
0.0
 10
37346.0198871
 20
7347.275544279999
 10
37346.0198871
 20
7302.27554428
 10
37526.0198871
 20
7302.27554428
 10
37526.0198871
 20
7347.275544279999
 10
37346.0198871
 20
7347.275544279999
  0
LWPOLYLINE
  5
134
330
5D
100
AcDbEntity
  8
Ech.1_5
  6
Continuous
 62
     7
370
    -3
100
AcDbPolyline
 90
        5
 70
     0
 43
0.0
 10
37346.0198871
 20
7412.275544259999
 10
37346.0198871
 20
7367.27554426
 10
37526.0198871
 20
7367.27554426
 10
37526.0198871
 20
7412.275544259999
 10
37346.0198871
 20
7412.275544259999
  0
LWPOLYLINE
  5
135
330
5D
100
AcDbEntity
  8
Ech.1_5
  6
Continuous
 62
     7
370
    -3
100
AcDbPolyline
 90
        5
 70
     0
 43
0.0
 10
37312.0198871
 20
7508.751239300001
 10
37312.0198871
 20
7458.751239300001
 10
37337.0198871
 20
7458.751239300001
 10
37337.0198871
 20
7508.751239300001
 10
37312.0198871
 20
7508.751239300001
  0
LWPOLYLINE
  5
136
330
5D
100
AcDbEntity
  8
Ech.1_5
  6
Continuous
 62
     7
370
    -3
100
AcDbPolyline
 90
        5
 70
     0
 43
0.0
 10
37292.0198871
 20
7657.240423819999
 10
37312.0198871
 20
7657.240423819999
 10
37312.0198871
 20
7057.310720849999
 10
37292.0198871
 20
7057.310720849999
 10
37292.0198871
 20
7657.240423819999
  0
LWPOLYLINE
  5
137
330
5D
100
AcDbEntity
  8
Ech.1_5
  6
Continuous
 62
     7
370
    -3
100
AcDbPolyline
 90
        5
 70
     0
 43
0.0
 10
37526.0198871
 20
7471.27554426
 10
37566.0198871
 20
7471.27554426
 10
37566.0198871
 20
7657.24084573
 10
37526.0198871
 20
7657.24084573
 10
37526.0198871
 20
7471.27554426
  0
LWPOLYLINE
  5
138
330
5D
100
AcDbEntity
  8
Ech.1_5
  6
Continuous
 62
     7
370
    -3
100
AcDbPolyline
 90
        5
 70
     0
 43
0.0
 10
37526.0198871
 20
7057.31024281
 10
37566.0198871
 20
7057.31024281
 10
37566.0198871
 20
7243.27554428
 10
37526.0198871
 20
7243.27554428
 10
37526.0198871
 20
7057.31024281
  0
LWPOLYLINE
  5
139
330
5D
100
AcDbEntity
  8
Ech.1_5
  6
Continuous
 62
     7
370
    -3
100
AcDbPolyline
 90
        5
 70
     0
 43
0.0
 10
37346.0198871
 20
7367.27554426
 10
37698.94718467
 20
7367.27554426
 10
37698.94718467
 20
7347.275544279999
 10
37346.0198871
 20
7347.275544279999
 10
37346.0198871
 20
7367.27554426
  0
LWPOLYLINE
  5
13A
330
5D
100
AcDbEntity
  8
Ech.1_5
  6
Continuous
 62
     7
370
    -3
100
AcDbPolyline
 90
        4
 70
     1
 43
0.0
 10
38010.33467487
 20
7462.275544259999
 10
37965.33467487
 20
7462.275544259999
 10
37965.33467487
 20
7367.27554426
 10
38010.33467487
 20
7367.27554426
  0
LWPOLYLINE
  5
13B
330
5D
100
AcDbEntity
  8
Ech.1_5
  6
Continuous
 62
     7
370
    -3
100
AcDbPolyline
 90
        4
 70
     1
 43
0.0
 10
38010.33467487
 20
7347.275544279999
 10
37965.33467487
 20
7347.275544279999
 10
37965.33467487
 20
7252.27554428
 10
38010.33467487
 20
7252.27554428
  0
LWPOLYLINE
  5
13C
330
5D
100
AcDbEntity
  8
Ech.1_5
  6
Continuous
 62
     7
370
    -3
100
AcDbPolyline
 90
        4
 70
     1
 43
0.0
 10
37525.60604382
 20
7507.27554426
 10
37480.60604382
 20
7507.27554426
 10
37480.60604382
 20
7412.275544259999
 10
37525.60604382
 20
7412.275544259999
  0
LWPOLYLINE
  5
13D
330
5D
100
AcDbEntity
  8
Ech.1_5
  6
Continuous
 62
     7
370
    -3
100
AcDbPolyline
 90
        4
 70
     1
 43
0.0
 10
37526.0198871
 20
7302.27554428
 10
37481.0198871
 20
7302.27554428
 10
37481.0198871
 20
7207.27554428
 10
37526.0198871
 20
7207.27554428
  0
TEXT
  5
13E
330
5D
100
AcDbEntity
  8
Ech.1_5
 62
     7
100
AcDbText
 10
37868.91609408
 20
7086.312030480002
 30
0.0
 40
8.000000119999999
  1
Echelle en mm
  7
ARIAL
100
AcDbText
  0
TEXT
  5
13F
330
5D
100
AcDbEntity
  8
Ech.1_5
 62
     7
100
AcDbText
 10
37854.93550934
 20
7058.10219495
 30
0.0
 40
8.000000119999999
  1
0
  7
ARIAL
100
AcDbText
  0
TEXT
  5
140
330
5D
100
AcDbEntity
  8
Ech.1_5
 62
     7
100
AcDbText
 10
37941.53256723
 20
7058.10219495
 30
0.0
 40
8.000000119999999
  1
100
  7
ARIAL
100
AcDbText
  0
TEXT
  5
141
330
5D
100
AcDbEntity
  8
Ech.1_5
 62
     7
100
AcDbText
 10
37902.79213566
 20
7058.10219495
 30
0.0
 40
8.000000119999999
  1
50
  7
ARIAL
100
AcDbText
  0
LWPOLYLINE
  5
1A1
330
5D
100
AcDbEntity
  8
Ech.1_5
  6
Continuous
 62
     7
370
    -3
100
AcDbPolyline
 90
        2
 70
     0
 43
0.0
 10
37525.60604382
 20
7482.207177265076
 42
-0.0833384307423044
 10
37525.60604382
 20
7472.275543684926
 42
-0.0833384307423044
  0
LWPOLYLINE
  5
1A6
330
5D
100
AcDbEntity
  8
Ech.1_5
  6
Continuous
 62
     7
370
    -3
100
AcDbPolyline
 90
        4
 70
     0
 43
0.0
 10
37480.60604382
 20
7450.310468489501
 10
37383.78447594
 20
7476.21913058
 42
1.303226189999999
 10
37383.78447594
 20
7418.26359037
 10
37480.60604382
 20
7444.1722524605
  0
LWPOLYLINE
  5
1A7
330
5D
100
AcDbEntity
  8
Ech.1_5
  6
Continuous
 62
     7
370
    -3
100
AcDbPolyline
 90
        2
 70
     0
 43
0.0
 10
37525.60604382
 20
7422.207176339727
 42
-0.0833384176710586
 10
37525.60604382
 20
7412.275544259999
  0
LWPOLYLINE
  5
1A8
330
5D
100
AcDbEntity
  8
Ech.1_5
  6
Continuous
 62
     7
370
    -3
100
AcDbPolyline
 90
        2
 70
     0
 43
0.0
 10
37526.0198871
 20
7242.277977113102
 42
-0.0000405471350729
 10
37526.0198871
 20
7242.273111456897
 42
-0.0000405471350729
  0
LWPOLYLINE
  5
1A9
330
5D
100
AcDbEntity
  8
Ech.1_5
  6
Continuous
 62
     7
370
    -3
100
AcDbPolyline
 90
        4
 70
     0
 43
0.0
 10
37481.0198871
 20
7215.233911212213
 10
37383.78447594
 20
7241.25331439
 42
1.303226189999999
 10
37383.78447594
 20
7183.297774179999
 10
37481.0198871
 20
7209.317177357786
  0
LWPOLYLINE
  5
1AA
330
5D
100
AcDbEntity
  8
Ech.1_5
  6
Continuous
 62
     7
370
    -3
100
AcDbPolyline
 90
       10
 70
     0
 43
0.0
 10
37512.6030111739
 20
7207.275544280001
 42
-0.8498841019001536
 10
37488.25529827
 20
7153.29777418
 10
37383.78447594
 20
7181.25331439
 42
1.303226189999999
 10
37383.78447594
 20
7123.29777418
 10
37488.25529827
 20
7151.25331439
 42
-1.303226189999999
 10
37488.25529827
 20
7093.29777418
 10
37383.78447594
 20
7121.25331439
 42
1.303226189999999
 10
37383.78447594
 20
7063.297774179999
 10
37488.25529827
 20
7091.253314390001
 42
-0.54591946
 10
37525.60638665
 20
7057.311771070001
  0
LWPOLYLINE
  5
1AB
330
5D
100
AcDbEntity
  8
Ech.1_5
  6
Continuous
 62
     7
370
    -3
100
AcDbPolyline
 90
        3
 70
     0
 43
0.0
 10
37965.33467487
 20
7367.440861674585
 42
-0.4489626064371297
 10
37952.32289457
 20
7387.20685513
 10
37965.33467487
 20
7435.832328923303
  0
LWPOLYLINE
  5
1AC
330
5D
100
AcDbEntity
  8
Ech.1_5
  6
Continuous
 62
     7
370
    -3
100
AcDbPolyline
 90
        2
 70
     0
 43
0.0
 10
37983.45125934444
 20
7462.275544259999
 42
0.0000381591928248
 10
37983.44884259556
 20
7462.275544259999
  0
LWPOLYLINE
  5
1AD
330
5D
100
AcDbEntity
  8
Ech.1_5
  6
Continuous
 62
     7
370
    -3
100
AcDbPolyline
 90
       50
 70
     0
 43
0.0
 10
37965.33467487
 20
7454.631042975243
 42
0.868185185333348
 10
37936.48956125
 20
7442.34423351
 10
37951.24387412
 20
7387.20685513
 42
-1.303226189999999
 10
37920.65622794
 20
7387.20685513
 10
37935.41054081
 20
7442.34423351
 42
1.303226189999999
 10
37904.82289463
 20
7442.34423351
 10
37919.5772075
 20
7387.20685513
 42
-1.303226189999999
 10
37888.98956131
 20
7387.20685513
 10
37903.74387418
 20
7442.34423351
 42
1.303226189999999
 10
37873.156228
 20
7442.34423351
 10
37887.91054087
 20
7387.20685513
 42
-1.303226189999999
 10
37857.32289469
 20
7387.20685513
 10
37872.07720756002
 20
7442.34423351
 42
1.303226189999999
 10
37841.48956137
 20
7442.34423351
 10
37856.24387424
 20
7387.20685513
 42
-1.303226189999999
 10
37825.65622806
 20
7387.20685513
 10
37840.41054093
 20
7442.34423351
 42
1.303226189999999
 10
37809.82289475
 20
7442.34423351
 10
37824.57720761
 20
7387.20685513
 42
-1.303226189999999
 10
37793.98956143
 20
7387.20685513
 10
37808.7438743
 20
7442.34423351
 42
1.303226189999999
 10
37778.15622812002
 20
7442.34423351
 10
37792.91054099
 20
7387.20685513
 42
-1.303226189999999
 10
37762.32289480002
 20
7387.20685513
 10
37777.07720767
 20
7442.34423351
 42
1.303226189999999
 10
37746.48956149
 20
7442.34423351
 10
37761.24387436
 20
7387.20685513
 42
-1.303226189999999
 10
37730.65622818
 20
7387.20685513
 10
37745.41054105
 20
7442.34423351
 42
1.303226189999999
 10
37714.82289486
 20
7442.34423351
 10
37729.57720773
 20
7387.20685513
 42
-1.303226189999999
 10
37698.98956155
 20
7387.20685513
 10
37713.74387442
 20
7442.34423351
 42
1.303226189999999
 10
37683.15622824
 20
7442.34423351
 10
37697.91054111
 20
7387.20685513
 42
-1.303226189999999
 10
37667.32289492
 20
7387.20685513
 10
37682.07720779
 20
7442.34423351
 42
1.303226189999999
 10
37651.48956161
 20
7442.34423351
 10
37666.24387448
 20
7387.20685513
 42
-1.303226189999999
 10
37635.6562283
 20
7387.20685513
 10
37650.41054117
 20
7442.34423351
 42
1.303226189999999
 10
37619.82289498
 20
7442.34423351
 10
37634.57720785
 20
7387.20685513
 42
-1.303226189999999
 10
37603.98956167
 20
7387.20685513
 10
37618.74387454
 20
7442.34423351
 42
1.303226189999999
 10
37588.15622836
 20
7442.34423351
 10
37602.91054122
 20
7387.20685513
 42
-1.303226189999999
 10
37572.32289504
 20
7387.20685513
 10
37587.07720791
 20
7442.34423351
 42
0.50822883
 10
37571.0198871
 20
7462.257125269999
  0
LWPOLYLINE
  5
1AE
330
5D
100
AcDbEntity
  8
Ech.1_5
  6
Continuous
 62
     7
370
    -3
100
AcDbPolyline
 90
        3
 70
     0
 43
0.0
 10
38010.33467487
 20
7403.061346108642
 10
38014.57720738
 20
7387.20685513
 42
-0.2713902639546262
 10
38010.33467487
 20
7371.770296589352
  0
LWPOLYLINE
  5
1AF
330
5D
100
AcDbEntity
  8
Ech.1_5
  6
Continuous
 62
     7
370
    -3
100
AcDbPolyline
 90
        3
 70
     0
 43
0.0
 10
37965.33467487
 20
7252.440848148312
 42
-0.4489643835750674
 10
37952.32280186
 20
7272.20685513
 10
37965.33467487
 20
7320.832675412565
  0
LWPOLYLINE
  5
1B0
330
5D
100
AcDbEntity
  8
Ech.1_5
  6
Continuous
 62
     7
370
    -3
100
AcDbPolyline
 90
        2
 70
     0
 43
0.0
 10
37983.45192525874
 20
7347.275544279999
 42
0.0000621148022572
 10
37983.44799132127
 20
7347.275544279999
  0
LWPOLYLINE
  5
1B1
330
5D
100
AcDbEntity
  8
Ech.1_5
  6
Continuous
 62
     7
370
    -3
100
AcDbPolyline
 90
        3
 70
     0
 43
0.0
 10
38010.33467487
 20
7288.060999942128
 10
38014.57711475
 20
7272.20685514
 42
-0.2713880711464933
 10
38010.33467487
 20
7256.770386862008
  0
LWPOLYLINE
  5
1B2
330
5D
100
AcDbEntity
  8
Ech.1_5
  6
Continuous
 62
     7
370
    -3
100
AcDbPolyline
 90
       48
 70
     0
 43
0.0
 10
37965.33467487
 20
7339.630889640672
 42
0.8681901489271119
 10
37936.48946852
 20
7327.344233569999
 10
37951.24378141
 20
7272.20685512
 42
-1.303226189999999
 10
37920.65613519
 20
7272.20685512
 10
37935.41044807
 20
7327.344233569999
 42
1.303226189999999
 10
37904.82280185
 20
7327.344233569999
 10
37919.57711475
 20
7272.20685512
 42
-1.303226189999999
 10
37888.98946853
 20
7272.206855110001
 10
37903.7437814
 20
7327.344233569999
 42
1.303226189999999
 10
37873.15613518
 20
7327.344233560001
 10
37887.91044808
 20
7272.206855110001
 42
-1.303226189999999
 10
37857.32280186
 20
7272.206855110001
 10
37872.07711474
 20
7327.344233560001
 42
1.303226189999999
 10
37841.48946852
 20
7327.344233560001
 10
37856.24378141
 20
7272.206855110001
 42
-1.303226189999999
 10
37825.65613519
 20
7272.206855100001
 10
37840.41044807
 20
7327.344233560001
 42
1.303226189999999
 10
37809.82280185
 20
7327.34423355
 10
37824.57711475
 20
7272.206855100001
 42
-1.303226189999999
 10
37793.98946853
 20
7272.206855100001
 10
37808.7437814
 20
7327.34423355
 42
1.303226189999999
 10
37778.15613518
 20
7327.344233539999
 10
37792.91044808
 20
7272.206855100001
 42
-1.303226189999999
 10
37762.32280186
 20
7272.206855090002
 10
37777.07711474
 20
7327.344233539999
 42
1.303226189999999
 10
37746.48946852
 20
7327.344233539999
 10
37761.24378141
 20
7272.206855090002
 42
-1.303226189999999
 10
37730.65613519
 20
7272.20685508
 10
37745.41044807
 20
7327.344233539999
 42
1.303226189999999
 10
37714.82280185
 20
7327.34423353
 10
37729.57711475
 20
7272.20685508
 42
-1.303226189999999
 10
37698.98946853
 20
7272.20685508
 10
37713.7437814
 20
7327.34423353
 42
1.303226189999999
 10
37683.15613518
 20
7327.34423353
 10
37697.91044808
 20
7272.20685508
 42
-1.303226189999999
 10
37667.32280186
 20
7272.20685507
 10
37682.07711474
 20
7327.34423353
 42
1.303226189999999
 10
37651.48946852
 20
7327.34423352
 10
37666.24378141
 20
7272.20685507
 42
-1.303226189999999
 10
37635.65613519
 20
7272.20685507
 10
37650.41044807
 20
7327.34423352
 42
1.303226189999999
 10
37619.82280185
 20
7327.34423352
 10
37634.57711475
 20
7272.20685507
 42
-1.303226189999999
 10
37603.98946853
 20
7272.20685506
 10
37618.7437814
 20
7327.34423351
 42
1.303226189999999
 10
37588.15613518
 20
7327.34423351
 10
37602.91044808
 20
7272.20685506
 42
-1.005276449999998
 10
37572.28051813
 20
7264.17209323
  0
ENDSEC
  0
SECTION
  2
OBJECTS
  0
DICTIONARY
  5
1
330
0
100
AcDbDictionary
281
     1
  3
ACAD_COLOR
350
179
  3
ACAD_GROUP
350
2
  3
ACAD_LAYOUT
350
191
  3
ACAD_MATERIAL
350
147
  3
ACAD_MLEADERSTYLE
350
18E
  3
ACAD_MLINESTYLE
350
3
  3
ACAD_PLOTSETTINGS
350
192
  3
ACAD_PLOTSTYLENAME
350
145
  3
ACAD_SCALELIST
350
17C
  3
ACAD_TABLESTYLE
350
17A
  3
ACAD_VISUALSTYLE
350
160
  3
ACDB_RECOMPOSE_DATA
350
244
  3
AcDbVariableDictionary
350
1F2
  3
DWGPROPS
350
245
  0
DICTIONARY
  5
1B6
330
37
100
AcDbDictionary
280
     1
281
     1
  3
ADSK_XREC_LAYER_RECONCILED
360
1B7
  0
DICTIONARY
  5
1B8
330
38
100
AcDbDictionary
280
     1
281
     1
  3
ADSK_XREC_LAYER_RECONCILED
360
1B9
  0
DICTIONARY
  5
1BA
330
39
100
AcDbDictionary
280
     1
281
     1
  3
ADSK_XREC_LAYER_RECONCILED
360
1BB
  0
DICTIONARY
  5
1BC
330
3A
100
AcDbDictionary
280
     1
281
     1
  3
ADSK_XREC_LAYER_RECONCILED
360
1BD
  0
DICTIONARY
  5
1BE
330
3B
100
AcDbDictionary
280
     1
281
     1
  3
ADSK_XREC_LAYER_RECONCILED
360
1BF
  0
DICTIONARY
  5
1C0
330
3C
100
AcDbDictionary
280
     1
281
     1
  3
ADSK_XREC_LAYER_RECONCILED
360
1C1
  0
DICTIONARY
  5
1C2
330
3D
100
AcDbDictionary
280
     1
281
     1
  3
ADSK_XREC_LAYER_RECONCILED
360
1C3
  0
DICTIONARY
  5
1C4
330
3E
100
AcDbDictionary
280
     1
281
     1
  3
ADSK_XREC_LAYER_RECONCILED
360
1C5
  0
DICTIONARY
  5
1C6
330
3F
100
AcDbDictionary
280
     1
281
     1
  3
ADSK_XREC_LAYER_RECONCILED
360
1C7
  0
DICTIONARY
  5
1C8
330
40
100
AcDbDictionary
280
     1
281
     1
  3
ADSK_XREC_LAYER_RECONCILED
360
1C9
  0
DICTIONARY
  5
1CA
330
41
100
AcDbDictionary
280
     1
281
     1
  3
ADSK_XREC_LAYER_RECONCILED
360
1CB
  0
DICTIONARY
  5
1CC
330
42
100
AcDbDictionary
280
     1
281
     1
  3
ADSK_XREC_LAYER_RECONCILED
360
1CD
  0
DICTIONARY
  5
1CE
330
43
100
AcDbDictionary
280
     1
281
     1
  3
ADSK_XREC_LAYER_RECONCILED
360
1CF
  0
DICTIONARY
  5
1D0
330
44
100
AcDbDictionary
280
     1
281
     1
  3
ADSK_XREC_LAYER_RECONCILED
360
1D1
  0
DICTIONARY
  5
1D2
330
45
100
AcDbDictionary
280
     1
281
     1
  3
ADSK_XREC_LAYER_RECONCILED
360
1D3
  0
DICTIONARY
  5
1D4
330
46
100
AcDbDictionary
280
     1
281
     1
  3
ADSK_XREC_LAYER_RECONCILED
360
1D5
  0
DICTIONARY
  5
1D6
330
47
100
AcDbDictionary
280
     1
281
     1
  3
ADSK_XREC_LAYER_RECONCILED
360
1D7
  0
DICTIONARY
  5
1D8
330
48
100
AcDbDictionary
280
     1
281
     1
  3
ADSK_XREC_LAYER_RECONCILED
360
1D9
  0
DICTIONARY
  5
1DA
330
49
100
AcDbDictionary
280
     1
281
     1
  3
ADSK_XREC_LAYER_RECONCILED
360
1DB
  0
DICTIONARY
  5
1DC
330
4A
100
AcDbDictionary
280
     1
281
     1
  3
ADSK_XREC_LAYER_RECONCILED
360
1DD
  0
DICTIONARY
  5
1DE
330
4B
100
AcDbDictionary
280
     1
281
     1
  3
ADSK_XREC_LAYER_RECONCILED
360
1DF
  0
DICTIONARY
  5
1E0
330
4D
100
AcDbDictionary
280
     1
281
     1
  3
ADSK_XREC_LAYER_RECONCILED
360
1E1
  0
DICTIONARY
  5
1E2
330
4E
100
AcDbDictionary
280
     1
281
     1
  3
ADSK_XREC_LAYER_RECONCILED
360
1E3
  0
DICTIONARY
  5
1E4
330
50
100
AcDbDictionary
280
     1
281
     1
  3
ADSK_XREC_LAYER_RECONCILED
360
1E5
  0
DICTIONARY
  5
1E6
330
51
100
AcDbDictionary
280
     1
281
     1
  3
ADSK_XREC_LAYER_RECONCILED
360
1E7
  0
DICTIONARY
  5
1E8
330
52
100
AcDbDictionary
280
     1
281
     1
  3
ADSK_XREC_LAYER_RECONCILED
360
1E9
  0
DICTIONARY
  5
1EA
330
53
100
AcDbDictionary
280
     1
281
     1
  3
ADSK_XREC_LAYER_RECONCILED
360
1EB
  0
DICTIONARY
  5
1EC
330
54
100
AcDbDictionary
280
     1
281
     1
  3
ADSK_XREC_LAYER_RECONCILED
360
1ED
  0
DICTIONARY
  5
1EE
330
55
100
AcDbDictionary
280
     1
281
     1
  3
ADSK_XREC_LAYER_RECONCILED
360
1EF
  0
DICTIONARY
  5
1F0
330
56
100
AcDbDictionary
280
     1
281
     1
  3
ADSK_XREC_LAYER_RECONCILED
360
1F1
  0
DICTIONARY
  5
1A4
330
5D
100
AcDbDictionary
280
     1
281
     1
  3
ACAD_SORTENTS
360
1A5
  0
DICTIONARY
  5
179
102
{ACAD_REACTORS
330
1
102
}
330
1
100
AcDbDictionary
281
     1
  0
DICTIONARY
  5
2
330
1
100
AcDbDictionary
281
     1
  0
DICTIONARY
  5
191
102
{ACAD_REACTORS
330
1
102
}
330
1
100
AcDbDictionary
281
     1
  3
Model
350
193
  3
Présentation1
350
194
  0
DICTIONARY
  5
147
102
{ACAD_REACTORS
330
1
102
}
330
1
100
AcDbDictionary
281
     1
  3
ByBlock
350
150
  3
ByLayer
350
148
  3
Global
350
158
  0
DICTIONARY
  5
18E
102
{ACAD_REACTORS
330
1
102
}
330
1
100
AcDbDictionary
281
     1
  3
Standard
350
18F
  0
DICTIONARY
  5
3
330
1
100
AcDbDictionary
281
     1
  3
STANDARD
350
4
  0
DICTIONARY
  5
192
102
{ACAD_REACTORS
330
1
102
}
330
1
100
AcDbDictionary
281
     1
  0
ACDBDICTIONARYWDFLT
  5
145
102
{ACAD_REACTORS
330
1
102
}
330
1
100
AcDbDictionary
281
     1
  3
Normal
350
146
100
AcDbDictionaryWithDefault
340
146
  0
DICTIONARY
  5
17C
102
{ACAD_REACTORS
330
1
102
}
330
1
100
AcDbDictionary
281
     1
  3
A0
350
17D
  3
A1
350
17E
  3
A2
350
17F
  3
A3
350
180
  3
A4
350
181
  3
A5
350
182
  3
A6
350
183
  3
A7
350
184
  3
A8
350
185
  3
A9
350
186
  3
B0
350
187
  3
B1
350
188
  3
B2
350
189
  3
B3
350
18A
  3
B4
350
18B
  3
B5
350
18C
  3
B6
350
18D
  0
DICTIONARY
  5
17A
102
{ACAD_REACTORS
330
1
102
}
330
1
100
AcDbDictionary
281
     1
  3
Standard
350
17B
  0
DICTIONARY
  5
160
102
{ACAD_REACTORS
330
1
102
}
330
1
100
AcDbDictionary
281
     1
  3
2dWireframe
350
166
  3
Basic
350
165
  3
Brighten
350
16C
  3
ColorChange
350
170
  3
Conceptual
350
169
  3
Dim
350
16B
  3
EdgeColorOff
350
178
  3
Facepattern
350
16F
  3
Flat
350
161
  3
FlatWithEdges
350
162
  3
Gouraud
350
163
  3
GouraudWithEdges
350
164
  3
Hidden
350
168
  3
JitterOff
350
176
  3
Linepattern
350
16E
  3
OverhangOff
350
177
  3
Realistic
350
16A
  3
Shaded
350
175
  3
Shaded with edges
350
174
  3
Shades of Gray
350
171
  3
Sketchy
350
172
  3
Thicken
350
16D
  3
Wireframe
350
167
  3
X-Ray
350
173
  0
XRECORD
  5
244
102
{ACAD_REACTORS
330
1
102
}
330
1
100
AcDbXrecord
280
     1
 90
        1
330
17B
  0
DICTIONARY
  5
1F2
102
{ACAD_REACTORS
330
1
102
}
330
1
100
AcDbDictionary
281
     1
  3
CANNOSCALE
350
1F5
  3
CMLEADERSTYLE
350
1F4
  3
CTABLESTYLE
350
1F3
  3
DIMASSOC
350
1F8
  3
INDEXCTL
350
1F7
  3
SORTENTS
350
1F6
  3
XCLIPFRAME
350
242
  0
XRECORD
  5
245
102
{ACAD_REACTORS
330
1
102
}
330
1
100
AcDbXrecord
280
     1
  1
DWGPROPS COOKIE
  2

  3

  4

  6

  7

  8
cazeaux
  9

300
=
301
=
302
=
303
=
304
=
305
=
306
=
307
=
308
=
309
=
 40
0.0050244907407407
 41
2456443.0
 42
2456458.473165116
  1

 90
        0
  0
XRECORD
  5
1B7
102
{ACAD_REACTORS
330
1B6
102
}
330
1B6
100
AcDbXrecord
280
     1
290
     1
  0
XRECORD
  5
1B9
102
{ACAD_REACTORS
330
1B8
102
}
330
1B8
100
AcDbXrecord
280
     1
290
     1
  0
XRECORD
  5
1BB
102
{ACAD_REACTORS
330
1BA
102
}
330
1BA
100
AcDbXrecord
280
     1
290
     1
  0
XRECORD
  5
1BD
102
{ACAD_REACTORS
330
1BC
102
}
330
1BC
100
AcDbXrecord
280
     1
290
     1
  0
XRECORD
  5
1BF
102
{ACAD_REACTORS
330
1BE
102
}
330
1BE
100
AcDbXrecord
280
     1
290
     1
  0
XRECORD
  5
1C1
102
{ACAD_REACTORS
330
1C0
102
}
330
1C0
100
AcDbXrecord
280
     1
290
     1
  0
XRECORD
  5
1C3
102
{ACAD_REACTORS
330
1C2
102
}
330
1C2
100
AcDbXrecord
280
     1
290
     1
  0
XRECORD
  5
1C5
102
{ACAD_REACTORS
330
1C4
102
}
330
1C4
100
AcDbXrecord
280
     1
290
     1
  0
XRECORD
  5
1C7
102
{ACAD_REACTORS
330
1C6
102
}
330
1C6
100
AcDbXrecord
280
     1
290
     1
  0
XRECORD
  5
1C9
102
{ACAD_REACTORS
330
1C8
102
}
330
1C8
100
AcDbXrecord
280
     1
290
     1
  0
XRECORD
  5
1CB
102
{ACAD_REACTORS
330
1CA
102
}
330
1CA
100
AcDbXrecord
280
     1
290
     1
  0
XRECORD
  5
1CD
102
{ACAD_REACTORS
330
1CC
102
}
330
1CC
100
AcDbXrecord
280
     1
290
     1
  0
XRECORD
  5
1CF
102
{ACAD_REACTORS
330
1CE
102
}
330
1CE
100
AcDbXrecord
280
     1
290
     1
  0
XRECORD
  5
1D1
102
{ACAD_REACTORS
330
1D0
102
}
330
1D0
100
AcDbXrecord
280
     1
290
     1
  0
XRECORD
  5
1D3
102
{ACAD_REACTORS
330
1D2
102
}
330
1D2
100
AcDbXrecord
280
     1
290
     1
  0
XRECORD
  5
1D5
102
{ACAD_REACTORS
330
1D4
102
}
330
1D4
100
AcDbXrecord
280
     1
290
     1
  0
XRECORD
  5
1D7
102
{ACAD_REACTORS
330
1D6
102
}
330
1D6
100
AcDbXrecord
280
     1
290
     1
  0
XRECORD
  5
1D9
102
{ACAD_REACTORS
330
1D8
102
}
330
1D8
100
AcDbXrecord
280
     1
290
     1
  0
XRECORD
  5
1DB
102
{ACAD_REACTORS
330
1DA
102
}
330
1DA
100
AcDbXrecord
280
     1
290
     1
  0
XRECORD
  5
1DD
102
{ACAD_REACTORS
330
1DC
102
}
330
1DC
100
AcDbXrecord
280
     1
290
     1
  0
XRECORD
  5
1DF
102
{ACAD_REACTORS
330
1DE
102
}
330
1DE
100
AcDbXrecord
280
     1
290
     1
  0
XRECORD
  5
1E1
102
{ACAD_REACTORS
330
1E0
102
}
330
1E0
100
AcDbXrecord
280
     1
290
     1
  0
XRECORD
  5
1E3
102
{ACAD_REACTORS
330
1E2
102
}
330
1E2
100
AcDbXrecord
280
     1
290
     1
  0
XRECORD
  5
1E5
102
{ACAD_REACTORS
330
1E4
102
}
330
1E4
100
AcDbXrecord
280
     1
290
     1
  0
XRECORD
  5
1E7
102
{ACAD_REACTORS
330
1E6
102
}
330
1E6
100
AcDbXrecord
280
     1
290
     1
  0
XRECORD
  5
1E9
102
{ACAD_REACTORS
330
1E8
102
}
330
1E8
100
AcDbXrecord
280
     1
290
     1
  0
XRECORD
  5
1EB
102
{ACAD_REACTORS
330
1EA
102
}
330
1EA
100
AcDbXrecord
280
     1
290
     1
  0
XRECORD
  5
1ED
102
{ACAD_REACTORS
330
1EC
102
}
330
1EC
100
AcDbXrecord
280
     1
290
     1
  0
XRECORD
  5
1EF
102
{ACAD_REACTORS
330
1EE
102
}
330
1EE
100
AcDbXrecord
280
     1
290
     1
  0
XRECORD
  5
1F1
102
{ACAD_REACTORS
330
1F0
102
}
330
1F0
100
AcDbXrecord
280
     1
290
     1
  0
SORTENTSTABLE
  5
1A5
102
{ACAD_REACTORS
330
1A4
102
}
330
1A4
100
AcDbSortentsTable
330
5D
331
1B1
  5
F6
331
130
  5
13E
331
132
  5
140
331
134
  5
1A1
331
136
  5
1A7
331
118
  5
126
331
138
  5
1A9
331
11A
  5
128
331
13A
  5
1AB
331
11C
  5
12A
331
13C
  5
1AD
331
11E
  5
12C
331
13E
  5
1AF
331
F8
  5
106
331
120
  5
12E
331
1A8
  5
FF
331
FA
  5
108
331
1AA
  5
101
331
122
  5
130
331
FC
  5
10A
331
1AC
  5
E6
331
124
  5
132
331
FE
  5
10C
331
1AE
  5
E5
331
126
  5
134
331
128
  5
136
331
12A
  5
138
331
102
  5
110
331
12C
  5
13A
331
104
  5
112
331
106
  5
114
331
12E
  5
13C
331
108
  5
116
331
10A
  5
118
331
10C
  5
11A
331
10E
  5
11C
331
110
  5
11E
331
112
  5
120
331
114
  5
122
331
116
  5
124
331
D8
  5
D8
331
DA
  5
DA
331
F4
  5
102
331
DC
  5
DC
331
DE
  5
DE
331
F6
  5
104
331
1A6
  5
FC
331
E0
  5
E0
331
E2
  5
E2
331
E4
  5
E4
331
E6
  5
FA
331
D4
  5
D4
331
D6
  5
D6
331
140
  5
1B1
331
1B0
  5
F7
331
131
  5
13F
331
1B2
  5
F9
331
133
  5
141
331
135
  5
1A6
331
137
  5
1A8
331
119
  5
127
331
139
  5
1AA
331
11B
  5
129
331
13B
  5
1AC
331
11D
  5
12B
331
13D
  5
1AE
331
11F
  5
12D
331
13F
  5
1B0
331
121
  5
12F
331
1A9
  5
100
331
FB
  5
109
331
123
  5
131
331
1AB
  5
E7
331
FD
  5
10B
331
125
  5
133
331
1AD
  5
F4
331
FF
  5
10D
331
127
  5
135
331
1AF
  5
F8
331
101
  5
10F
331
129
  5
137
331
103
  5
111
331
12B
  5
139
331
105
  5
113
331
12D
  5
13B
331
107
  5
115
331
12F
  5
13D
331
109
  5
117
331
10B
  5
119
331
10D
  5
11B
331
10F
  5
11D
331
111
  5
11F
331
113
  5
121
331
115
  5
123
331
117
  5
125
331
D9
  5
D9
331
DB
  5
DB
331
F5
  5
103
331
DD
  5
DD
331
F7
  5
105
331
DF
  5
DF
331
1A1
  5
FB
331
1A7
  5
FD
331
E1
  5
E1
331
E3
  5
E3
331
E5
  5
F5
331
E7
  5
FE
331
D3
  5
D3
331
D5
  5
D5
331
D7
  5
D7
331
141
  5
1B2
  0
LAYOUT
  5
193
102
{ACAD_XDICTIONARY
360
277
102
}
102
{ACAD_REACTORS
330
191
102
}
330
191
100
AcDbPlotSettings
  1

  2
Aucun(e)
  4

  6

 40
0.0
 41
0.0
 42
0.0
 43
0.0
 44
0.0
 45
0.0
 46
0.0
 47
0.0
 48
0.0
 49
0.0
140
0.0
141
0.0
142
1.0
143
1.0
 70
  1712
 72
     0
 73
     0
 74
     0
  7
acad.ctb
 75
     0
147
1.0
148
0.0
149
0.0
100
AcDbLayout
  1
Model
 70
     1
 71
     0
 10
0.0
 20
0.0
 11
12.0
 21
9.0
 12
0.0
 22
0.0
 32
0.0
 14
0.0
 24
0.0
 34
0.0
 15
0.0
 25
0.0
 35
0.0
146
0.0
 13
0.0
 23
0.0
 33
0.0
 16
1.0
 26
0.0
 36
0.0
 17
0.0
 27
1.0
 37
0.0
 76
     0
330
5D
331
197
  0
LAYOUT
  5
194
102
{ACAD_XDICTIONARY
360
279
102
}
102
{ACAD_REACTORS
330
191
102
}
330
191
100
AcDbPlotSettings
  1

  2
Aucun(e)
  4

  6

 40
0.0
 41
0.0
 42
0.0
 43
0.0
 44
0.0
 45
0.0
 46
0.0
 47
0.0
 48
0.0
 49
0.0
140
0.0
141
0.0
142
1.0
143
1.0
 70
   688
 72
     0
 73
     0
 74
     5
  7
acad.ctb
 75
    16
147
1.0
148
0.0
149
0.0
100
AcDbLayout
  1
Présentation1
 70
     1
 71
     1
 10
0.0
 20
0.0
 11
12.0
 21
9.0
 12
0.0
 22
0.0
 32
0.0
 14
1.000000000000000E+20
 24
1.000000000000000E+20
 34
1.000000000000000E+20
 15
-1.000000000000000E+20
 25
-1.000000000000000E+20
 35
-1.000000000000000E+20
146
0.0
 13
0.0
 23
0.0
 33
0.0
 16
1.0
 26
0.0
 36
0.0
 17
0.0
 27
1.0
 37
0.0
 76
     0
330
5E
  0
MATERIAL
  5
150
102
{ACAD_XDICTIONARY
360
151
102
}
102
{ACAD_REACTORS
330
147
102
}
330
147
100
AcDbMaterial
  1
ByBlock
 72
     0
 43
0.0208333333333333
 43
0.0
 43
0.0
 43
0.0
 43
0.0
 43
0.0208333333333333
 43
0.0
 43
0.0
 43
0.0
 43
0.0
 43
1.0
 43
0.0
 43
0.0
 43
0.0
 43
0.0
 43
1.0
 77
     0
 47
0.0208333333333333
 47
0.0
 47
0.0
 47
0.0
 47
0.0
 47
0.0208333333333333
 47
0.0
 47
0.0
 47
0.0
 47
0.0
 47
1.0
 47
0.0
 47
0.0
 47
0.0
 47
0.0
 47
1.0
171
     0
 49
0.0208333333333333
 49
0.0
 49
0.0
 49
0.0
 49
0.0
 49
0.0208333333333333
 49
0.0
 49
0.0
 49
0.0
 49
0.0
 49
1.0
 49
0.0
 49
0.0
 49
0.0
 49
0.0
 49
1.0
175
     0
142
0.0208333333333333
142
0.0
142
0.0
142
0.0
142
0.0
142
0.0208333333333333
142
0.0
142
0.0
142
0.0
142
0.0
142
1.0
142
0.0
142
0.0
142
0.0
142
0.0
142
1.0
179
     0
144
0.0208333333333333
144
0.0
144
0.0
144
0.0
144
0.0
144
0.0208333333333333
144
0.0
144
0.0
144
0.0
144
0.0
144
1.0
144
0.0
144
0.0
144
0.0
144
0.0
144
1.0
147
0.0208333333333333
147
0.0
147
0.0
147
0.0
147
0.0
147
0.0208333333333333
147
0.0
147
0.0
147
0.0
147
0.0
147
1.0
147
0.0
147
0.0
147
0.0
147
0.0
147
1.0
  0
MATERIAL
  5
148
102
{ACAD_XDICTIONARY
360
149
102
}
102
{ACAD_REACTORS
330
147
102
}
330
147
100
AcDbMaterial
  1
ByLayer
 72
     0
 43
0.0208333333333333
 43
0.0
 43
0.0
 43
0.0
 43
0.0
 43
0.0208333333333333
 43
0.0
 43
0.0
 43
0.0
 43
0.0
 43
1.0
 43
0.0
 43
0.0
 43
0.0
 43
0.0
 43
1.0
 77
     0
 47
0.0208333333333333
 47
0.0
 47
0.0
 47
0.0
 47
0.0
 47
0.0208333333333333
 47
0.0
 47
0.0
 47
0.0
 47
0.0
 47
1.0
 47
0.0
 47
0.0
 47
0.0
 47
0.0
 47
1.0
171
     0
 49
0.0208333333333333
 49
0.0
 49
0.0
 49
0.0
 49
0.0
 49
0.0208333333333333
 49
0.0
 49
0.0
 49
0.0
 49
0.0
 49
1.0
 49
0.0
 49
0.0
 49
0.0
 49
0.0
 49
1.0
175
     0
142
0.0208333333333333
142
0.0
142
0.0
142
0.0
142
0.0
142
0.0208333333333333
142
0.0
142
0.0
142
0.0
142
0.0
142
1.0
142
0.0
142
0.0
142
0.0
142
0.0
142
1.0
179
     0
144
0.0208333333333333
144
0.0
144
0.0
144
0.0
144
0.0
144
0.0208333333333333
144
0.0
144
0.0
144
0.0
144
0.0
144
1.0
144
0.0
144
0.0
144
0.0
144
0.0
144
1.0
147
0.0208333333333333
147
0.0
147
0.0
147
0.0
147
0.0
147
0.0208333333333333
147
0.0
147
0.0
147
0.0
147
0.0
147
1.0
147
0.0
147
0.0
147
0.0
147
0.0
147
1.0
  0
MATERIAL
  5
158
102
{ACAD_XDICTIONARY
360
159
102
}
102
{ACAD_REACTORS
330
147
102
}
330
147
100
AcDbMaterial
  1
Global
 72
     0
 43
0.0208333333333333
 43
0.0
 43
0.0
 43
0.0
 43
0.0
 43
0.0208333333333333
 43
0.0
 43
0.0
 43
0.0
 43
0.0
 43
1.0
 43
0.0
 43
0.0
 43
0.0
 43
0.0
 43
1.0
 77
     0
 47
0.0208333333333333
 47
0.0
 47
0.0
 47
0.0
 47
0.0
 47
0.0208333333333333
 47
0.0
 47
0.0
 47
0.0
 47
0.0
 47
1.0
 47
0.0
 47
0.0
 47
0.0
 47
0.0
 47
1.0
171
     0
 49
0.0208333333333333
 49
0.0
 49
0.0
 49
0.0
 49
0.0
 49
0.0208333333333333
 49
0.0
 49
0.0
 49
0.0
 49
0.0
 49
1.0
 49
0.0
 49
0.0
 49
0.0
 49
0.0
 49
1.0
175
     0
142
0.0208333333333333
142
0.0
142
0.0
142
0.0
142
0.0
142
0.0208333333333333
142
0.0
142
0.0
142
0.0
142
0.0
142
1.0
142
0.0
142
0.0
142
0.0
142
0.0
142
1.0
179
     0
144
0.0208333333333333
144
0.0
144
0.0
144
0.0
144
0.0
144
0.0208333333333333
144
0.0
144
0.0
144
0.0
144
0.0
144
1.0
144
0.0
144
0.0
144
0.0
144
0.0
144
1.0
147
0.0208333333333333
147
0.0
147
0.0
147
0.0
147
0.0
147
0.0208333333333333
147
0.0
147
0.0
147
0.0
147
0.0
147
1.0
147
0.0
147
0.0
147
0.0
147
0.0
147
1.0
  0
MLEADERSTYLE
  5
18F
102
{ACAD_REACTORS
330
18E
102
}
330
18E
100
AcDbMLeaderStyle
170
     2
171
     1
172
     0
 90
        2
 40
0.0
 41
0.0
173
     1
 91
-1056964608
340
29
 92
       -2
290
     1
 42
2.0
291
     1
 43
0.36
  3
Standard
 44
4.0
300

342
24
174
     1
178
     6
175
     1
176
     0
 93
-1056964608
 45
4.0
292
     0
297
     0
 46
4.0
 94
-1056964608
 47
1.0
 49
1.0
140
1.0
293
     1
141
0.0
294
     1
177
     0
142
1.0
295
     0
296
     0
143
0.125
1001
ACAD_MLEADERVER
1070
     2
  0
MLINESTYLE
  5
4
330
3
100
AcDbMlineStyle
  2
STANDARD
 70
     0
  3

 62
     0
 51
90.0
 52
90.0
 71
     2
 49
0.5
 62
   256
  6
BYLAYER
 49
-0.5
 62
   256
  6
BYLAYER
  0
ACDBPLACEHOLDER
  5
146
102
{ACAD_REACTORS
330
145
102
}
330
145
  0
SCALE
  5
17D
102
{ACAD_REACTORS
330
17C
102
}
330
17C
100
AcDbScale
 70
     0
300
1:1
140
1.0
141
1.0
290
     1
  0
SCALE
  5
17E
102
{ACAD_REACTORS
330
17C
102
}
330
17C
100
AcDbScale
 70
     0
300
1:2
140
1.0
141
2.0
290
     0
  0
SCALE
  5
17F
102
{ACAD_REACTORS
330
17C
102
}
330
17C
100
AcDbScale
 70
     0
300
1:4
140
1.0
141
4.0
290
     0
  0
SCALE
  5
180
102
{ACAD_REACTORS
330
17C
102
}
330
17C
100
AcDbScale
 70
     0
300
1:5
140
1.0
141
5.0
290
     0
  0
SCALE
  5
181
102
{ACAD_REACTORS
330
17C
102
}
330
17C
100
AcDbScale
 70
     0
300
1:8
140
1.0
141
8.0
290
     0
  0
SCALE
  5
182
102
{ACAD_REACTORS
330
17C
102
}
330
17C
100
AcDbScale
 70
     0
300
1:10
140
1.0
141
10.0
290
     0
  0
SCALE
  5
183
102
{ACAD_REACTORS
330
17C
102
}
330
17C
100
AcDbScale
 70
     0
300
1:16
140
1.0
141
16.0
290
     0
  0
SCALE
  5
184
102
{ACAD_REACTORS
330
17C
102
}
330
17C
100
AcDbScale
 70
     0
300
1:20
140
1.0
141
20.0
290
     0
  0
SCALE
  5
185
102
{ACAD_REACTORS
330
17C
102
}
330
17C
100
AcDbScale
 70
     0
300
1:30
140
1.0
141
30.0
290
     0
  0
SCALE
  5
186
102
{ACAD_REACTORS
330
17C
102
}
330
17C
100
AcDbScale
 70
     0
300
1:40
140
1.0
141
40.0
290
     0
  0
SCALE
  5
187
102
{ACAD_REACTORS
330
17C
102
}
330
17C
100
AcDbScale
 70
     0
300
1:50
140
1.0
141
50.0
290
     0
  0
SCALE
  5
188
102
{ACAD_REACTORS
330
17C
102
}
330
17C
100
AcDbScale
 70
     0
300
1:100
140
1.0
141
100.0
290
     0
  0
SCALE
  5
189
102
{ACAD_REACTORS
330
17C
102
}
330
17C
100
AcDbScale
 70
     0
300
2:1
140
2.0
141
1.0
290
     0
  0
SCALE
  5
18A
102
{ACAD_REACTORS
330
17C
102
}
330
17C
100
AcDbScale
 70
     0
300
4:1
140
4.0
141
1.0
290
     0
  0
SCALE
  5
18B
102
{ACAD_REACTORS
330
17C
102
}
330
17C
100
AcDbScale
 70
     0
300
8:1
140
8.0
141
1.0
290
     0
  0
SCALE
  5
18C
102
{ACAD_REACTORS
330
17C
102
}
330
17C
100
AcDbScale
 70
     0
300
10:1
140
10.0
141
1.0
290
     0
  0
SCALE
  5
18D
102
{ACAD_REACTORS
330
17C
102
}
330
17C
100
AcDbScale
 70
     0
300
100:1
140
100.0
141
1.0
290
     0
  0
TABLESTYLE
  5
17B
102
{ACAD_XDICTIONARY
360
1FA
102
}
102
{ACAD_REACTORS
330
17A
102
}
330
17A
100
AcDbTableStyle
  3
Standard
 70
     0
 71
     0
 40
1.5
 41
1.5
280
     0
281
     0
  7
STANDARD
140
4.5
170
     2
 62
     0
 63
     7
283
     0
274
    -2
284
     1
 64
     0
275
    -2
285
     1
 65
     0
276
    -2
286
     1
 66
     0
277
    -2
287
     1
 67
     0
278
    -2
288
     1
 68
     0
279
    -2
289
     1
 69
     0
  7
STANDARD
140
6.0
170
     5
 62
     0
 63
     7
283
     0
274
    -2
284
     1
 64
     0
275
    -2
285
     1
 65
     0
276
    -2
286
     1
 66
     0
277
    -2
287
     1
 67
     0
278
    -2
288
     1
 68
     0
279
    -2
289
     1
 69
     0
  7
STANDARD
140
4.5
170
     5
 62
     0
 63
     7
283
     0
274
    -2
284
     1
 64
     0
275
    -2
285
     1
 65
     0
276
    -2
286
     1
 66
     0
277
    -2
287
     1
 67
     0
278
    -2
288
     1
 68
     0
279
    -2
289
     1
 69
     0
  0
VISUALSTYLE
  5
166
102
{ACAD_XDICTIONARY
360
250
102
}
102
{ACAD_REACTORS
330
160
102
}
330
160
100
AcDbVisualStyle
  2

 70
     4
 71
     0
 72
     2
 73
     0
 90
        0
 40
-0.6
 41
-30.0
 62
     5
 63
     7
 74
     1
 91
        4
 64
     7
 65
   257
 75
     1
175
     1
 42
1.0
 92
        0
 66
   257
 43
1.0
 76
     1
 77
     6
 78
     2
 67
     7
 79
     5
170
     0
171
     0
290
     0
174
     0
 93
        1
 44
0.0
173
     0
291
     0
 45
0.0
1001
ACAD
1000
AcDbSavedByObjectVersion
1070
     0
  0
VISUALSTYLE
  5
165
102
{ACAD_XDICTIONARY
360
24E
102
}
102
{ACAD_REACTORS
330
160
102
}
330
160
100
AcDbVisualStyle
  2

 70
     7
 71
     1
 72
     0
 73
     1
 90
        0
 40
-0.6
 41
-30.0
 62
     5
 63
     7
 74
     0
 91
        4
 64
     7
 65
   257
 75
     1
175
     1
 42
1.0
 92
        8
 66
     7
 43
1.0
 76
     1
 77
     6
 78
     2
 67
     7
 79
     5
170
     0
171
     0
290
     0
174
     0
 93
        1
 44
0.0
173
     0
291
     1
 45
0.0
1001
ACAD
1000
AcDbSavedByObjectVersion
1070
     0
  0
VISUALSTYLE
  5
16C
102
{ACAD_XDICTIONARY
360
25C
102
}
102
{ACAD_REACTORS
330
160
102
}
330
160
100
AcDbVisualStyle
  2

 70
    12
 71
     2
 72
     2
 73
     0
 90
        0
 40
-0.6
 41
-30.0
 62
     5
 63
     7
 74
     1
 91
        4
 64
     7
 65
   257
 75
     1
175
     1
 42
1.0
 92
        8
 66
     7
 43
1.0
 76
     1
 77
     6
 78
     2
 67
     7
 79
     5
170
     0
171
     0
290
     0
174
     0
 93
        1
 44
50.0
173
     0
291
     1
 45
0.0
1001
ACAD
1000
AcDbSavedByObjectVersion
1070
     0
  0
VISUALSTYLE
  5
170
102
{ACAD_XDICTIONARY
360
264
102
}
102
{ACAD_REACTORS
330
160
102
}
330
160
100
AcDbVisualStyle
  2

 70
    16
 71
     2
 72
     2
 73
     3
 90
        0
 40
-0.6
 41
-30.0
 62
     5
 63
     8
 74
     1
 91
        4
 64
     7
 65
   257
 75
     1
175
     1
 42
1.0
 92
        8
 66
     8
 43
1.0
 76
     1
 77
     6
 78
     2
 67
     7
 79
     5
170
     0
171
     0
290
     0
174
     0
 93
        1
 44
0.0
173
     0
291
     1
 45
0.0
1001
ACAD
1000
AcDbSavedByObjectVersion
1070
     0
  0
VISUALSTYLE
  5
169
102
{ACAD_XDICTIONARY
360
256
102
}
102
{ACAD_REACTORS
330
160
102
}
330
160
100
AcDbVisualStyle
  2

 70
     9
 71
     3
 72
     2
 73
     0
 90
        0
 40
-0.6
 41
-30.0
 62
     5
 63
     7
 74
     2
 91
        2
 64
     7
 65
   257
 75
     1
175
     1
 42
179.0
 92
        8
 66
     7
 43
1.0
 76
     1
 77
     6
 78
     2
 67
     7
 79
     3
170
     0
171
     0
290
     0
174
     0
 93
        1
 44
0.0
173
     0
291
     0
 45
0.0
1001
ACAD
1000
AcDbSavedByObjectVersion
1070
     0
  0
VISUALSTYLE
  5
16B
102
{ACAD_XDICTIONARY
360
25A
102
}
102
{ACAD_REACTORS
330
160
102
}
330
160
100
AcDbVisualStyle
  2

 70
    11
 71
     2
 72
     2
 73
     0
 90
        0
 40
-0.6
 41
-30.0
 62
     5
 63
     7
 74
     1
 91
        4
 64
     7
 65
   257
 75
     1
175
     1
 42
1.0
 92
        8
 66
     7
 43
1.0
 76
     1
 77
     6
 78
     2
 67
     7
 79
     5
170
     0
171
     0
290
     0
174
     0
 93
        1
 44
-50.0
173
     0
291
     1
 45
0.0
1001
ACAD
1000
AcDbSavedByObjectVersion
1070
     0
  0
VISUALSTYLE
  5
178
102
{ACAD_XDICTIONARY
360
274
102
}
102
{ACAD_REACTORS
330
160
102
}
330
160
100
AcDbVisualStyle
  2

 70
    22
 71
     2
 72
     2
 73
     0
 90
        0
 40
-0.6
 41
-30.0
 62
     5
 63
     7
 74
     1
 91
        4
 64
     7
 65
   257
 75
     1
175
     1
 42
1.0
 92
        8
 66
     7
 43
1.0
 76
     1
 77
     6
 78
     2
 67
     7
 79
     5
170
     0
171
     0
290
     0
174
     0
 93
        1
 44
0.0
173
     0
291
     1
 45
0.0
1001
ACAD
1000
AcDbSavedByObjectVersion
1070
     0
  0
VISUALSTYLE
  5
16F
102
{ACAD_XDICTIONARY
360
262
102
}
102
{ACAD_REACTORS
330
160
102
}
330
160
100
AcDbVisualStyle
  2

 70
    15
 71
     2
 72
     2
 73
     0
 90
        0
 40
-0.6
 41
-30.0
 62
     5
 63
     7
 74
     1
 91
        4
 64
     7
 65
   257
 75
     1
175
     1
 42
1.0
 92
        8
 66
     7
 43
1.0
 76
     1
 77
     6
 78
     2
 67
     7
 79
     5
170
     0
171
     0
290
     0
174
     0
 93
        1
 44
0.0
173
     0
291
     1
 45
0.0
1001
ACAD
1000
AcDbSavedByObjectVersion
1070
     0
  0
VISUALSTYLE
  5
161
102
{ACAD_XDICTIONARY
360
246
102
}
102
{ACAD_REACTORS
330
160
102
}
330
160
100
AcDbVisualStyle
  2

 70
     0
 71
     2
 72
     1
 73
     1
 90
        2
 40
-0.6
 41
30.0
 62
     5
 63
     7
 74
     0
 91
        0
 64
     7
 65
   257
 75
     1
175
     1
 42
1.0
 92
        8
 66
     7
 43
1.0
 76
     1
 77
     6
 78
     2
 67
     7
 79
     5
170
     0
171
     0
290
     0
174
     0
 93
       13
 44
0.0
173
     0
291
     1
 45
0.0
1001
ACAD
1000
AcDbSavedByObjectVersion
1070
     0
  0
VISUALSTYLE
  5
162
102
{ACAD_XDICTIONARY
360
248
102
}
102
{ACAD_REACTORS
330
160
102
}
330
160
100
AcDbVisualStyle
  2

 70
     1
 71
     2
 72
     1
 73
     1
 90
        2
 40
-0.6
 41
30.0
 62
     5
 63
     7
 74
     1
 91
        0
 64
     7
 65
   257
 75
     1
175
     1
 42
1.0
 92
        0
 66
   257
 43
1.0
 76
     1
 77
     6
 78
     2
 67
     7
 79
     5
170
     0
171
     0
290
     0
174
     0
 93
       13
 44
0.0
173
     0
291
     1
 45
0.0
1001
ACAD
1000
AcDbSavedByObjectVersion
1070
     0
  0
VISUALSTYLE
  5
163
102
{ACAD_XDICTIONARY
360
24A
102
}
102
{ACAD_REACTORS
330
160
102
}
330
160
100
AcDbVisualStyle
  2

 70
     2
 71
     2
 72
     2
 73
     1
 90
        2
 40
-0.6
 41
30.0
 62
     5
 63
     7
 74
     0
 91
        0
 64
     7
 65
   257
 75
     1
175
     1
 42
1.0
 92
        0
 66
     7
 43
1.0
 76
     1
 77
     6
 78
     2
 67
     7
 79
     5
170
     0
171
     0
290
     0
174
     0
 93
       13
 44
0.0
173
     0
291
     1
 45
0.0
1001
ACAD
1000
AcDbSavedByObjectVersion
1070
     0
  0
VISUALSTYLE
  5
164
102
{ACAD_XDICTIONARY
360
24C
102
}
102
{ACAD_REACTORS
330
160
102
}
330
160
100
AcDbVisualStyle
  2

 70
     3
 71
     2
 72
     2
 73
     1
 90
        2
 40
-0.6
 41
30.0
 62
     5
 63
     7
 74
     1
 91
        0
 64
     7
 65
   257
 75
     1
175
     1
 42
1.0
 92
        0
 66
   257
 43
1.0
 76
     1
 77
     6
 78
     2
 67
     7
 79
     5
170
     0
171
     0
290
     0
174
     0
 93
       13
 44
0.0
173
     0
291
     1
 45
0.0
1001
ACAD
1000
AcDbSavedByObjectVersion
1070
     0
  0
VISUALSTYLE
  5
168
102
{ACAD_XDICTIONARY
360
254
102
}
102
{ACAD_REACTORS
330
160
102
}
330
160
100
AcDbVisualStyle
  2

 70
     6
 71
     1
 72
     2
 73
     2
 90
        0
 40
-0.6
 41
-30.0
 62
     5
 63
     7
 74
     2
 91
        2
 64
     7
 65
   257
 75
     2
175
     1
 42
40.0
 92
        0
 66
   257
 43
1.0
 76
     1
 77
     6
 78
     2
 67
     7
 79
     3
170
     0
171
     0
290
     0
174
     0
 93
        1
 44
0.0
173
     0
291
     0
 45
0.0
1001
ACAD
1000
AcDbSavedByObjectVersion
1070
     0
  0
VISUALSTYLE
  5
176
102
{ACAD_XDICTIONARY
360
270
102
}
102
{ACAD_REACTORS
330
160
102
}
330
160
100
AcDbVisualStyle
  2

 70
    20
 71
     2
 72
     2
 73
     0
 90
        0
 40
-0.6
 41
-30.0
 62
     5
 63
     7
 74
     1
 91
        4
 64
     7
 65
   257
 75
     1
175
     1
 42
1.0
 92
       10
 66
     7
 43
1.0
 76
     1
 77
     6
 78
     2
 67
     7
 79
     5
170
     0
171
     0
290
     0
174
     0
 93
        1
 44
0.0
173
     0
291
     1
 45
0.0
1001
ACAD
1000
AcDbSavedByObjectVersion
1070
     0
  0
VISUALSTYLE
  5
16E
102
{ACAD_XDICTIONARY
360
260
102
}
102
{ACAD_REACTORS
330
160
102
}
330
160
100
AcDbVisualStyle
  2

 70
    14
 71
     2
 72
     2
 73
     0
 90
        0
 40
-0.6
 41
-30.0
 62
     5
 63
     7
 74
     1
 91
        4
 64
     7
 65
   257
 75
     7
175
     7
 42
1.0
 92
        8
 66
     7
 43
1.0
 76
     1
 77
     6
 78
     2
 67
     7
 79
     5
170
     0
171
     0
290
     0
174
     0
 93
        1
 44
0.0
173
     0
291
     1
 45
0.0
1001
ACAD
1000
AcDbSavedByObjectVersion
1070
     0
  0
VISUALSTYLE
  5
177
102
{ACAD_XDICTIONARY
360
272
102
}
102
{ACAD_REACTORS
330
160
102
}
330
160
100
AcDbVisualStyle
  2

 70
    21
 71
     2
 72
     2
 73
     0
 90
        0
 40
-0.6
 41
-30.0
 62
     5
 63
     7
 74
     1
 91
        4
 64
     7
 65
   257
 75
     1
175
     1
 42
1.0
 92
        9
 66
     7
 43
1.0
 76
     1
 77
     6
 78
     2
 67
     7
 79
     5
170
     0
171
     0
290
     0
174
     0
 93
        1
 44
0.0
173
     0
291
     1
 45
0.0
1001
ACAD
1000
AcDbSavedByObjectVersion
1070
     0
  0
VISUALSTYLE
  5
16A
102
{ACAD_XDICTIONARY
360
258
102
}
102
{ACAD_REACTORS
330
160
102
}
330
160
100
AcDbVisualStyle
  2

 70
     8
 71
     2
 72
     3
 73
     0
 90
        2
 40
-0.6
 41
30.0
 62
     5
 63
     7
 74
     0
 91
        0
 64
     7
 65
   257
 75
     1
175
     1
 42
1.0
 92
        8
 66
   257
 43
1.0
 76
     1
 77
     6
 78
     2
 67
     7
 79
     3
170
     0
171
     0
290
     0
174
     0
 93
       13
 44
0.0
173
     0
291
     0
 45
0.0
1001
ACAD
1000
AcDbSavedByObjectVersion
1070
     0
  0
VISUALSTYLE
  5
175
102
{ACAD_XDICTIONARY
360
26E
102
}
102
{ACAD_REACTORS
330
160
102
}
330
160
100
AcDbVisualStyle
  2

 70
    27
 71
     2
 72
     2
 73
     1
 90
        2
 40
-0.6
 41
30.0
 62
     5
 63
     7
 74
     0
 91
        4
 64
     7
 65
   257
 75
     1
175
     1
 42
1.0
 92
        8
 66
   257
 43
1.0
 76
     1
 77
     6
 78
     2
 67
     8
 79
     3
170
     0
171
     0
290
     0
174
     0
 93
        5
 44
0.0
173
     0
291
     0
 45
0.0
1001
ACAD
1000
AcDbSavedByObjectVersion
1070
     0
  0
VISUALSTYLE
  5
174
102
{ACAD_XDICTIONARY
360
26C
102
}
102
{ACAD_REACTORS
330
160
102
}
330
160
100
AcDbVisualStyle
  2

 70
    26
 71
     2
 72
     2
 73
     1
 90
        2
 40
-0.6
 41
30.0
 62
     5
 63
     7
 74
     1
 91
       10
 64
     7
 65
   257
 75
     2
175
     1
 42
1.0
 92
        8
 66
   257
 43
1.0
 76
     1
 77
     6
 78
     2
 67
     7
 79
     3
170
     0
171
     0
290
     0
174
     0
 93
        5
 44
0.0
173
     0
291
     0
 45
0.0
1001
ACAD
1000
AcDbSavedByObjectVersion
1070
     0
  0
VISUALSTYLE
  5
171
102
{ACAD_XDICTIONARY
360
266
102
}
102
{ACAD_REACTORS
330
160
102
}
330
160
100
AcDbVisualStyle
  2

 70
    23
 71
     2
 72
     2
 73
     3
 90
        0
 40
-0.6
 41
-30.0
 62
     5
 63
     7
 74
     2
 91
        2
 64
     7
 65
     7
 75
     1
175
     1
 42
40.0
 92
        8
 66
     7
 43
1.0
 76
     1
 77
     6
 78
     2
 67
     7
 79
     3
170
     0
171
     0
290
     0
174
     0
 93
        1
 44
0.0
173
     0
291
     0
 45
0.0
1001
ACAD
1000
AcDbSavedByObjectVersion
1070
     0
  0
VISUALSTYLE
  5
172
102
{ACAD_XDICTIONARY
360
268
102
}
102
{ACAD_REACTORS
330
160
102
}
330
160
100
AcDbVisualStyle
  2

 70
    24
 71
     1
 72
     2
 73
     2
 90
        0
 40
-0.6
 41
-30.0
 62
     5
 63
     7
 74
     2
 91
        2
 64
     7
 65
     7
 75
     1
175
     1
 42
40.0
 92
       11
 66
     7
 43
1.0
 76
     1
 77
     6
 78
     2
 67
     7
 79
     6
170
     0
171
     0
290
     0
174
     0
 93
        1
 44
0.0
173
     0
291
     0
 45
0.0
1001
ACAD
1000
AcDbSavedByObjectVersion
1070
     0
  0
VISUALSTYLE
  5
16D
102
{ACAD_XDICTIONARY
360
25E
102
}
102
{ACAD_REACTORS
330
160
102
}
330
160
100
AcDbVisualStyle
  2

 70
    13
 71
     2
 72
     2
 73
     0
 90
        0
 40
-0.6
 41
-30.0
 62
     5
 63
     7
 74
     1
 91
        4
 64
     7
 65
   257
 75
     1
175
     1
 42
1.0
 92
       12
 66
     7
 43
1.0
 76
     1
 77
     6
 78
     2
 67
     7
 79
     5
170
     0
171
     0
290
     0
174
     0
 93
        1
 44
0.0
173
     0
291
     1
 45
0.0
1001
ACAD
1000
AcDbSavedByObjectVersion
1070
     0
  0
VISUALSTYLE
  5
167
102
{ACAD_XDICTIONARY
360
252
102
}
102
{ACAD_REACTORS
330
160
102
}
330
160
100
AcDbVisualStyle
  2

 70
     5
 71
     0
 72
     2
 73
     0
 90
        0
 40
-0.6
 41
-30.0
 62
     5
 63
     7
 74
     1
 91
        4
 64
     7
 65
   257
 75
     1
175
     1
 42
1.0
 92
        0
 66
   257
 43
1.0
 76
     1
 77
     6
 78
     2
 67
     7
 79
     3
170
     0
171
     0
290
     0
174
     0
 93
        1
 44
0.0
173
     0
291
     0
 45
0.0
1001
ACAD
1000
AcDbSavedByObjectVersion
1070
     0
  0
VISUALSTYLE
  5
173
102
{ACAD_XDICTIONARY
360
26A
102
}
102
{ACAD_REACTORS
330
160
102
}
330
160
100
AcDbVisualStyle
  2

 70
    25
 71
     2
 72
     2
 73
     1
 90
        1
 40
0.5
 41
-30.0
 62
     5
 63
     7
 74
     1
 91
        0
 64
     7
 65
   257
 75
     1
175
     1
 42
1.0
 92
        8
 66
     7
 43
1.0
 76
     1
 77
     6
 78
     2
 67
     7
 79
     3
170
     0
171
     0
290
     0
174
     0
 93
       13
 44
0.0
173
     0
291
     0
 45
0.0
1001
ACAD
1000
AcDbSavedByObjectVersion
1070
     0
  0
DICTIONARYVAR
  5
1F5
102
{ACAD_REACTORS
330
1F2
102
}
330
1F2
100
DictionaryVariables
280
     0
  1
1:1
  0
DICTIONARYVAR
  5
1F4
102
{ACAD_REACTORS
330
1F2
102
}
330
1F2
100
DictionaryVariables
280
     0
  1
STANDARD
  0
DICTIONARYVAR
  5
1F3
102
{ACAD_REACTORS
330
1F2
102
}
330
1F2
100
DictionaryVariables
280
     0
  1
STANDARD
  0
DICTIONARYVAR
  5
1F8
102
{ACAD_REACTORS
330
1F2
102
}
330
1F2
100
DictionaryVariables
280
     0
  1
1
  0
DICTIONARYVAR
  5
1F7
102
{ACAD_REACTORS
330
1F2
102
}
330
1F2
100
DictionaryVariables
280
     0
  1
0
  0
DICTIONARYVAR
  5
1F6
102
{ACAD_REACTORS
330
1F2
102
}
330
1F2
100
DictionaryVariables
280
     0
  1
127
  0
DICTIONARYVAR
  5
242
102
{ACAD_REACTORS
330
1F2
102
}
330
1F2
100
DictionaryVariables
280
     0
  1
2
  0
DICTIONARY
  5
277
330
193
100
AcDbDictionary
280
     1
281
     1
  3
ACAD_XREC_ROUNDTRIP
360
278
  0
DICTIONARY
  5
279
330
194
100
AcDbDictionary
280
     1
281
     1
  3
ACAD_XREC_ROUNDTRIP
360
27A
  0
DICTIONARY
  5
151
330
150
100
AcDbDictionary
280
     1
281
     1
  3
ACAD_XREC_ROUNDTRIP
360
1FF
  3
BUMPTILE
360
153
  3
DIFFUSETILE
360
152
  3
OPACITYTILE
360
156
  3
REFLECTIONTILE
360
155
  3
REFRACTIONTILE
360
157
  3
SPECULARTILE
360
154
  0
DICTIONARY
  5
149
330
148
100
AcDbDictionary
280
     1
281
     1
  3
ACAD_XREC_ROUNDTRIP
360
1FE
  3
BUMPTILE
360
14B
  3
DIFFUSETILE
360
14A
  3
OPACITYTILE
360
14E
  3
REFLECTIONTILE
360
14D
  3
REFRACTIONTILE
360
14F
  3
SPECULARTILE
360
14C
  0
DICTIONARY
  5
159
330
158
100
AcDbDictionary
280
     1
281
     1
  3
ACAD_XREC_ROUNDTRIP
360
200
  3
BUMPTILE
360
15B
  3
DIFFUSETILE
360
15A
  3
OPACITYTILE
360
15E
  3
REFLECTIONTILE
360
15D
  3
REFRACTIONTILE
360
15F
  3
SPECULARTILE
360
15C
  0
DICTIONARY
  5
1FA
330
17B
100
AcDbDictionary
280
     1
281
     1
  3
ACAD_ROUNDTRIP_2008_TABLESTYLE_CELLSTYLEMAP
360
243
  3
ACAD_XREC_ROUNDTRIP
360
276
  0
DICTIONARY
  5
250
330
166
100
AcDbDictionary
280
     1
281
     1
  3
ACAD_XREC_ROUNDTRIP
360
251
  0
DICTIONARY
  5
24E
330
165
100
AcDbDictionary
280
     1
281
     1
  3
ACAD_XREC_ROUNDTRIP
360
24F
  0
DICTIONARY
  5
25C
330
16C
100
AcDbDictionary
280
     1
281
     1
  3
ACAD_XREC_ROUNDTRIP
360
25D
  0
DICTIONARY
  5
264
330
170
100
AcDbDictionary
280
     1
281
     1
  3
ACAD_XREC_ROUNDTRIP
360
265
  0
DICTIONARY
  5
256
330
169
100
AcDbDictionary
280
     1
281
     1
  3
ACAD_XREC_ROUNDTRIP
360
257
  0
DICTIONARY
  5
25A
330
16B
100
AcDbDictionary
280
     1
281
     1
  3
ACAD_XREC_ROUNDTRIP
360
25B
  0
DICTIONARY
  5
274
330
178
100
AcDbDictionary
280
     1
281
     1
  3
ACAD_XREC_ROUNDTRIP
360
275
  0
DICTIONARY
  5
262
330
16F
100
AcDbDictionary
280
     1
281
     1
  3
ACAD_XREC_ROUNDTRIP
360
263
  0
DICTIONARY
  5
246
330
161
100
AcDbDictionary
280
     1
281
     1
  3
ACAD_XREC_ROUNDTRIP
360
247
  0
DICTIONARY
  5
248
330
162
100
AcDbDictionary
280
     1
281
     1
  3
ACAD_XREC_ROUNDTRIP
360
249
  0
DICTIONARY
  5
24A
330
163
100
AcDbDictionary
280
     1
281
     1
  3
ACAD_XREC_ROUNDTRIP
360
24B
  0
DICTIONARY
  5
24C
330
164
100
AcDbDictionary
280
     1
281
     1
  3
ACAD_XREC_ROUNDTRIP
360
24D
  0
DICTIONARY
  5
254
330
168
100
AcDbDictionary
280
     1
281
     1
  3
ACAD_XREC_ROUNDTRIP
360
255
  0
DICTIONARY
  5
270
330
176
100
AcDbDictionary
280
     1
281
     1
  3
ACAD_XREC_ROUNDTRIP
360
271
  0
DICTIONARY
  5
260
330
16E
100
AcDbDictionary
280
     1
281
     1
  3
ACAD_XREC_ROUNDTRIP
360
261
  0
DICTIONARY
  5
272
330
177
100
AcDbDictionary
280
     1
281
     1
  3
ACAD_XREC_ROUNDTRIP
360
273
  0
DICTIONARY
  5
258
330
16A
100
AcDbDictionary
280
     1
281
     1
  3
ACAD_XREC_ROUNDTRIP
360
259
  0
DICTIONARY
  5
26E
330
175
100
AcDbDictionary
280
     1
281
     1
  3
ACAD_XREC_ROUNDTRIP
360
26F
  0
DICTIONARY
  5
26C
330
174
100
AcDbDictionary
280
     1
281
     1
  3
ACAD_XREC_ROUNDTRIP
360
26D
  0
DICTIONARY
  5
266
330
171
100
AcDbDictionary
280
     1
281
     1
  3
ACAD_XREC_ROUNDTRIP
360
267
  0
DICTIONARY
  5
268
330
172
100
AcDbDictionary
280
     1
281
     1
  3
ACAD_XREC_ROUNDTRIP
360
269
  0
DICTIONARY
  5
25E
330
16D
100
AcDbDictionary
280
     1
281
     1
  3
ACAD_XREC_ROUNDTRIP
360
25F
  0
DICTIONARY
  5
252
330
167
100
AcDbDictionary
280
     1
281
     1
  3
ACAD_XREC_ROUNDTRIP
360
253
  0
DICTIONARY
  5
26A
330
173
100
AcDbDictionary
280
     1
281
     1
  3
ACAD_XREC_ROUNDTRIP
360
26B
  0
XRECORD
  5
278
102
{ACAD_REACTORS
330
277
102
}
330
277
100
AcDbXrecord
280
     1
102
SHADEPLOT
 70
     0
102
SHADEPLOTRESLEVEL
 70
     2
102
SHADEPLOTCUSTOMDPI
 70
   300
  0
XRECORD
  5
27A
102
{ACAD_REACTORS
330
279
102
}
330
279
100
AcDbXrecord
280
     1
102
SHADEPLOT
 70
     0
102
SHADEPLOTRESLEVEL
 70
     2
102
SHADEPLOTCUSTOMDPI
 70
   300
  0
XRECORD
  5
1FF
102
{ACAD_REACTORS
330
151
102
}
330
151
100
AcDbXrecord
280
     1
102
MATERIAL
148
0.0
149
0.0
149
0.0
 93
        0
 94
      127
282
     0
 72
     0
 77
     0
171
     0
175
     0
179
     0
273
     0
  0
XRECORD
  5
153
102
{ACAD_REACTORS
330
151
102
}
330
151
100
AcDbXrecord
280
     1
270
     1
271
     1
  0
XRECORD
  5
152
102
{ACAD_REACTORS
330
151
102
}
330
151
100
AcDbXrecord
280
     1
270
     1
271
     1
  0
XRECORD
  5
156
102
{ACAD_REACTORS
330
151
102
}
330
151
100
AcDbXrecord
280
     1
270
     1
271
     1
  0
XRECORD
  5
155
102
{ACAD_REACTORS
330
151
102
}
330
151
100
AcDbXrecord
280
     1
270
     1
271
     1
  0
XRECORD
  5
157
102
{ACAD_REACTORS
330
151
102
}
330
151
100
AcDbXrecord
280
     1
270
     1
271
     1
  0
XRECORD
  5
154
102
{ACAD_REACTORS
330
151
102
}
330
151
100
AcDbXrecord
280
     1
270
     1
271
     1
  0
XRECORD
  5
1FE
102
{ACAD_REACTORS
330
149
102
}
330
149
100
AcDbXrecord
280
     1
102
MATERIAL
148
0.0
149
0.0
149
0.0
 93
        0
 94
      127
282
     0
 72
     0
 77
     0
171
     0
175
     0
179
     0
273
     0
  0
XRECORD
  5
14B
102
{ACAD_REACTORS
330
149
102
}
330
149
100
AcDbXrecord
280
     1
270
     1
271
     1
  0
XRECORD
  5
14A
102
{ACAD_REACTORS
330
149
102
}
330
149
100
AcDbXrecord
280
     1
270
     1
271
     1
  0
XRECORD
  5
14E
102
{ACAD_REACTORS
330
149
102
}
330
149
100
AcDbXrecord
280
     1
270
     1
271
     1
  0
XRECORD
  5
14D
102
{ACAD_REACTORS
330
149
102
}
330
149
100
AcDbXrecord
280
     1
270
     1
271
     1
  0
XRECORD
  5
14F
102
{ACAD_REACTORS
330
149
102
}
330
149
100
AcDbXrecord
280
     1
270
     1
271
     1
  0
XRECORD
  5
14C
102
{ACAD_REACTORS
330
149
102
}
330
149
100
AcDbXrecord
280
     1
270
     1
271
     1
  0
XRECORD
  5
200
102
{ACAD_REACTORS
330
159
102
}
330
159
100
AcDbXrecord
280
     1
102
MATERIAL
148
0.0
149
0.0
149
0.0
 93
        0
 94
      127
282
     0
 72
     0
 77
     0
171
     0
175
     0
179
     0
273
     0
  0
XRECORD
  5
15B
102
{ACAD_REACTORS
330
159
102
}
330
159
100
AcDbXrecord
280
     1
270
     1
271
     1
  0
XRECORD
  5
15A
102
{ACAD_REACTORS
330
159
102
}
330
159
100
AcDbXrecord
280
     1
270
     1
271
     1
  0
XRECORD
  5
15E
102
{ACAD_REACTORS
330
159
102
}
330
159
100
AcDbXrecord
280
     1
270
     1
271
     1
  0
XRECORD
  5
15D
102
{ACAD_REACTORS
330
159
102
}
330
159
100
AcDbXrecord
280
     1
270
     1
271
     1
  0
XRECORD
  5
15F
102
{ACAD_REACTORS
330
159
102
}
330
159
100
AcDbXrecord
280
     1
270
     1
271
     1
  0
XRECORD
  5
15C
102
{ACAD_REACTORS
330
159
102
}
330
159
100
AcDbXrecord
280
     1
270
     1
271
     1
  0
CELLSTYLEMAP
  5
243
102
{ACAD_REACTORS
330
1FA
102
}
330
1FA
100
AcDbCellStyleMap
 90
        3
300
CELLSTYLE
  1
TABLEFORMAT_BEGIN
 90
        5
170
     1
 91
        0
 92
    32768
 62
   257
 93
        1
300
CONTENTFORMAT
  1
CONTENTFORMAT_BEGIN
 90
        0
 91
        0
 92
      512
 93
        0
300

 40
0.0
140
1.0
 94
        5
 62
     0
340
24
144
6.0
309
CONTENTFORMAT_END
171
     1
301
MARGIN
  1
CELLMARGIN_BEGIN
 40
1.5
 40
1.5
 40
1.5
 40
1.5
 40
0.18
 40
0.18
309
CELLMARGIN_END
 94
        6
 95
        1
302
GRIDFORMAT
  1
GRIDFORMAT_BEGIN
 90
        0
 91
        1
 62
     0
 92
       -2
340
0
 93
        0
 40
1.125
309
GRIDFORMAT_END
 95
        2
302
GRIDFORMAT
  1
GRIDFORMAT_BEGIN
 90
        0
 91
        1
 62
     0
 92
       -2
340
0
 93
        0
 40
1.125
309
GRIDFORMAT_END
 95
        4
302
GRIDFORMAT
  1
GRIDFORMAT_BEGIN
 90
        0
 91
        1
 62
     0
 92
       -2
340
0
 93
        0
 40
1.125
309
GRIDFORMAT_END
 95
        8
302
GRIDFORMAT
  1
GRIDFORMAT_BEGIN
 90
        0
 91
        1
 62
     0
 92
       -2
340
0
 93
        0
 40
1.125
309
GRIDFORMAT_END
 95
       16
302
GRIDFORMAT
  1
GRIDFORMAT_BEGIN
 90
        0
 91
        1
 62
     0
 92
       -2
340
0
 93
        0
 40
1.125
309
GRIDFORMAT_END
 95
       32
302
GRIDFORMAT
  1
GRIDFORMAT_BEGIN
 90
        0
 91
        1
 62
     0
 92
       -2
340
0
 93
        0
 40
1.125
309
GRIDFORMAT_END
309
TABLEFORMAT_END
  1
CELLSTYLE_BEGIN
 90
        1
 91
        1
300
_TITLE
309
CELLSTYLE_END
300
CELLSTYLE
  1
TABLEFORMAT_BEGIN
 90
        5
170
     1
 91
        0
 92
        0
 62
   257
 93
        1
300
CONTENTFORMAT
  1
CONTENTFORMAT_BEGIN
 90
        0
 91
        0
 92
      512
 93
        0
300

 40
0.0
140
1.0
 94
        5
 62
     0
340
24
144
4.5
309
CONTENTFORMAT_END
171
     1
301
MARGIN
  1
CELLMARGIN_BEGIN
 40
1.5
 40
1.5
 40
1.5
 40
1.5
 40
0.18
 40
0.18
309
CELLMARGIN_END
 94
        6
 95
        1
302
GRIDFORMAT
  1
GRIDFORMAT_BEGIN
 90
        0
 91
        1
 62
     0
 92
       -2
340
0
 93
        0
 40
1.125
309
GRIDFORMAT_END
 95
        2
302
GRIDFORMAT
  1
GRIDFORMAT_BEGIN
 90
        0
 91
        1
 62
     0
 92
       -2
340
0
 93
        0
 40
1.125
309
GRIDFORMAT_END
 95
        4
302
GRIDFORMAT
  1
GRIDFORMAT_BEGIN
 90
        0
 91
        1
 62
     0
 92
       -2
340
0
 93
        0
 40
1.125
309
GRIDFORMAT_END
 95
        8
302
GRIDFORMAT
  1
GRIDFORMAT_BEGIN
 90
        0
 91
        1
 62
     0
 92
       -2
340
0
 93
        0
 40
1.125
309
GRIDFORMAT_END
 95
       16
302
GRIDFORMAT
  1
GRIDFORMAT_BEGIN
 90
        0
 91
        1
 62
     0
 92
       -2
340
0
 93
        0
 40
1.125
309
GRIDFORMAT_END
 95
       32
302
GRIDFORMAT
  1
GRIDFORMAT_BEGIN
 90
        0
 91
        1
 62
     0
 92
       -2
340
0
 93
        0
 40
1.125
309
GRIDFORMAT_END
309
TABLEFORMAT_END
  1
CELLSTYLE_BEGIN
 90
        2
 91
        1
300
_HEADER
309
CELLSTYLE_END
300
CELLSTYLE
  1
TABLEFORMAT_BEGIN
 90
        5
170
     1
 91
        0
 92
        0
 62
   257
 93
        1
300
CONTENTFORMAT
  1
CONTENTFORMAT_BEGIN
 90
        0
 91
        0
 92
      512
 93
        0
300

 40
0.0
140
1.0
 94
        2
 62
     0
340
24
144
4.5
309
CONTENTFORMAT_END
171
     1
301
MARGIN
  1
CELLMARGIN_BEGIN
 40
1.5
 40
1.5
 40
1.5
 40
1.5
 40
0.18
 40
0.18
309
CELLMARGIN_END
 94
        6
 95
        1
302
GRIDFORMAT
  1
GRIDFORMAT_BEGIN
 90
        0
 91
        1
 62
     0
 92
       -2
340
0
 93
        0
 40
1.125
309
GRIDFORMAT_END
 95
        2
302
GRIDFORMAT
  1
GRIDFORMAT_BEGIN
 90
        0
 91
        1
 62
     0
 92
       -2
340
0
 93
        0
 40
1.125
309
GRIDFORMAT_END
 95
        4
302
GRIDFORMAT
  1
GRIDFORMAT_BEGIN
 90
        0
 91
        1
 62
     0
 92
       -2
340
0
 93
        0
 40
1.125
309
GRIDFORMAT_END
 95
        8
302
GRIDFORMAT
  1
GRIDFORMAT_BEGIN
 90
        0
 91
        1
 62
     0
 92
       -2
340
0
 93
        0
 40
1.125
309
GRIDFORMAT_END
 95
       16
302
GRIDFORMAT
  1
GRIDFORMAT_BEGIN
 90
        0
 91
        1
 62
     0
 92
       -2
340
0
 93
        0
 40
1.125
309
GRIDFORMAT_END
 95
       32
302
GRIDFORMAT
  1
GRIDFORMAT_BEGIN
 90
        0
 91
        1
 62
     0
 92
       -2
340
0
 93
        0
 40
1.125
309
GRIDFORMAT_END
309
TABLEFORMAT_END
  1
CELLSTYLE_BEGIN
 90
        3
 91
        2
300
_DATA
309
CELLSTYLE_END
  0
XRECORD
  5
276
102
{ACAD_REACTORS
330
1FA
102
}
330
1FA
100
AcDbXrecord
280
     1
102
ACAD_ROUNDTRIP_PRE2007_TABLESTYLE
 90
      512
 91
        0
  1

 92
      512
 93
        0
  2

 94
      512
 95
        0
  3

  0
XRECORD
  5
251
102
{ACAD_REACTORS
330
250
102
}
330
250
100
AcDbXrecord
280
     1
102
RTVSPropertyOp0
 70
     1
102
RTVSPropertyOp1
 70
     1
102
RTVSPropertyOp2
 70
     1
102
RTVSPropertyOp3
 70
     1
102
RTVSPropertyOp4
 70
     1
102
RTVSPropertyOp5
 70
     1
102
RTVSPropertyOp6
 70
     1
102
RTVSPropertyOp7
 70
     1
102
RTVSPropertyOp8
 70
     1
102
RTVSPropertyOp9
 70
     1
102
RTVSPropertyOp10
 70
     1
102
RTVSPropertyOp11
 70
     1
102
RTVSPropertyOp12
 70
     1
102
RTVSPropertyOp13
 70
     1
102
RTVSPropertyOp14
 70
     1
102
RTVSPropertyOp15
 70
     1
102
RTVSPropertyOp16
 70
     1
102
RTVSPropertyOp17
 70
     1
102
RTVSPropertyOp18
 70
     1
102
RTVSPropertyOp19
 70
     1
102
RTVSPropertyOp20
 70
     1
102
RTVSPropertyOp21
 70
     1
102
RTVSPropertyOp22
 70
     1
102
RTVSPropertyOp23
 70
     1
102
RTVSPropertyOp24
 70
     1
102
RTVSPropertyOp25
 70
     1
102
RTVSPropertyOp26
 70
     1
102
RTVSPropertyOp27
 70
     1
102
RTVSPropertyOp28
 70
     1
102
RTVSPropertyOp29
 70
     1
102
RTVSPropertyOp30
 70
     1
102
RTVSPropertyOp31
 70
     1
102
RTVSPropertyOp32
 70
     1
  0
XRECORD
  5
24F
102
{ACAD_REACTORS
330
24E
102
}
330
24E
100
AcDbXrecord
280
     1
102
RTVSPropertyOp0
 70
     1
102
RTVSPropertyOp1
 70
     1
102
RTVSPropertyOp2
 70
     1
102
RTVSPropertyOp3
 70
     1
102
RTVSPropertyOp4
 70
     1
102
RTVSPropertyOp5
 70
     1
102
RTVSPropertyOp6
 70
     1
102
RTVSPropertyOp7
 70
     1
102
RTVSPropertyOp8
 70
     1
102
RTVSPropertyOp9
 70
     1
102
RTVSPropertyOp10
 70
     1
102
RTVSPropertyOp11
 70
     1
102
RTVSPropertyOp12
 70
     1
102
RTVSPropertyOp13
 70
     1
102
RTVSPropertyOp14
 70
     1
102
RTVSPropertyOp15
 70
     1
102
RTVSPropertyOp16
 70
     1
102
RTVSPropertyOp17
 70
     1
102
RTVSPropertyOp18
 70
     1
102
RTVSPropertyOp19
 70
     1
102
RTVSPropertyOp20
 70
     1
102
RTVSPropertyOp21
 70
     1
102
RTVSPropertyOp22
 70
     1
102
RTVSPropertyOp23
 70
     1
102
RTVSPropertyOp24
 70
     1
102
RTVSPropertyOp25
 70
     1
102
RTVSPropertyOp26
 70
     1
102
RTVSPropertyOp27
 70
     1
102
RTVSPropertyOp28
 70
     1
102
RTVSPropertyOp29
 70
     1
102
RTVSPropertyOp30
 70
     1
102
RTVSPropertyOp31
 70
     1
102
RTVSPropertyOp32
 70
     1
  0
XRECORD
  5
25D
102
{ACAD_REACTORS
330
25C
102
}
330
25C
100
AcDbXrecord
280
     1
102
RTVSPropertyOp0
 70
     1
102
RTVSPropertyOp1
 70
     1
102
RTVSPropertyOp2
 70
     1
102
RTVSPropertyOp3
 70
     1
102
RTVSPropertyOp4
 70
     1
102
RTVSPropertyOp5
 70
     1
102
RTVSPropertyOp6
 70
     1
102
RTVSPropertyOp7
 70
     1
102
RTVSPropertyOp8
 70
     1
102
RTVSPropertyOp9
 70
     1
102
RTVSPropertyOp10
 70
     1
102
RTVSPropertyOp11
 70
     1
102
RTVSPropertyOp12
 70
     1
102
RTVSPropertyOp13
 70
     1
102
RTVSPropertyOp14
 70
     1
102
RTVSPropertyOp15
 70
     1
102
RTVSPropertyOp16
 70
     1
102
RTVSPropertyOp17
 70
     1
102
RTVSPropertyOp18
 70
     1
102
RTVSPropertyOp19
 70
     1
102
RTVSPropertyOp20
 70
     1
102
RTVSPropertyOp21
 70
     1
102
RTVSPropertyOp22
 70
     1
102
RTVSPropertyOp23
 70
     1
102
RTVSPropertyOp24
 70
     1
102
RTVSPropertyOp25
 70
     1
102
RTVSPropertyOp26
 70
     1
102
RTVSPropertyOp27
 70
     1
102
RTVSPropertyOp28
 70
     1
102
RTVSPropertyOp29
 70
     1
102
RTVSPropertyOp30
 70
     1
102
RTVSPropertyOp31
 70
     1
102
RTVSPropertyOp32
 70
     1
  0
XRECORD
  5
265
102
{ACAD_REACTORS
330
264
102
}
330
264
100
AcDbXrecord
280
     1
102
RTVSPropertyOp0
 70
     1
102
RTVSPropertyOp1
 70
     1
102
RTVSPropertyOp2
 70
     1
102
RTVSPropertyOp3
 70
     1
102
RTVSPropertyOp4
 70
     1
102
RTVSPropertyOp5
 70
     1
102
RTVSPropertyOp6
 70
     1
102
RTVSPropertyOp7
 70
     1
102
RTVSPropertyOp8
 70
     1
102
RTVSPropertyOp9
 70
     1
102
RTVSPropertyOp10
 70
     1
102
RTVSPropertyOp11
 70
     1
102
RTVSPropertyOp12
 70
     1
102
RTVSPropertyOp13
 70
     1
102
RTVSPropertyOp14
 70
     1
102
RTVSPropertyOp15
 70
     1
102
RTVSPropertyOp16
 70
     1
102
RTVSPropertyOp17
 70
     1
102
RTVSPropertyOp18
 70
     1
102
RTVSPropertyOp19
 70
     1
102
RTVSPropertyOp20
 70
     1
102
RTVSPropertyOp21
 70
     1
102
RTVSPropertyOp22
 70
     1
102
RTVSPropertyOp23
 70
     1
102
RTVSPropertyOp24
 70
     1
102
RTVSPropertyOp25
 70
     1
102
RTVSPropertyOp26
 70
     1
102
RTVSPropertyOp27
 70
     1
102
RTVSPropertyOp28
 70
     1
102
RTVSPropertyOp29
 70
     1
102
RTVSPropertyOp30
 70
     1
102
RTVSPropertyOp31
 70
     1
102
RTVSPropertyOp32
 70
     1
  0
XRECORD
  5
257
102
{ACAD_REACTORS
330
256
102
}
330
256
100
AcDbXrecord
280
     1
102
RTVSPropertyOp0
 70
     1
102
RTVSPropertyOp1
 70
     1
102
RTVSPropertyOp2
 70
     1
102
RTVSPropertyOp3
 70
     1
102
RTVSPropertyOp4
 70
     1
102
RTVSPropertyOp5
 70
     1
102
RTVSPropertyOp6
 70
     1
102
RTVSPropertyOp7
 70
     1
102
RTVSPropertyOp8
 70
     1
102
RTVSPropertyOp9
 70
     1
102
RTVSPropertyOp10
 70
     1
102
RTVSPropertyOp11
 70
     1
102
RTVSPropertyOp12
 70
     1
102
RTVSPropertyOp13
 70
     1
102
RTVSPropertyOp14
 70
     1
102
RTVSPropertyOp15
 70
     1
102
RTVSPropertyOp16
 70
     1
102
RTVSPropertyOp17
 70
     1
102
RTVSPropertyOp18
 70
     1
102
RTVSPropertyOp19
 70
     1
102
RTVSPropertyOp20
 70
     1
102
RTVSPropertyOp21
 70
     1
102
RTVSPropertyOp22
 70
     1
102
RTVSPropertyOp23
 70
     1
102
RTVSPropertyOp24
 70
     1
102
RTVSPropertyOp25
 70
     1
102
RTVSPropertyOp26
 70
     1
102
RTVSPropertyOp27
 70
     1
102
RTVSPropertyOp28
 70
     1
102
RTVSPropertyOp29
 70
     1
102
RTVSPropertyOp30
 70
     1
102
RTVSPropertyOp31
 70
     1
102
RTVSPropertyOp32
 70
     1
  0
XRECORD
  5
25B
102
{ACAD_REACTORS
330
25A
102
}
330
25A
100
AcDbXrecord
280
     1
102
RTVSPropertyOp0
 70
     1
102
RTVSPropertyOp1
 70
     1
102
RTVSPropertyOp2
 70
     1
102
RTVSPropertyOp3
 70
     1
102
RTVSPropertyOp4
 70
     1
102
RTVSPropertyOp5
 70
     1
102
RTVSPropertyOp6
 70
     1
102
RTVSPropertyOp7
 70
     1
102
RTVSPropertyOp8
 70
     1
102
RTVSPropertyOp9
 70
     1
102
RTVSPropertyOp10
 70
     1
102
RTVSPropertyOp11
 70
     1
102
RTVSPropertyOp12
 70
     1
102
RTVSPropertyOp13
 70
     1
102
RTVSPropertyOp14
 70
     1
102
RTVSPropertyOp15
 70
     1
102
RTVSPropertyOp16
 70
     1
102
RTVSPropertyOp17
 70
     1
102
RTVSPropertyOp18
 70
     1
102
RTVSPropertyOp19
 70
     1
102
RTVSPropertyOp20
 70
     1
102
RTVSPropertyOp21
 70
     1
102
RTVSPropertyOp22
 70
     1
102
RTVSPropertyOp23
 70
     1
102
RTVSPropertyOp24
 70
     1
102
RTVSPropertyOp25
 70
     1
102
RTVSPropertyOp26
 70
     1
102
RTVSPropertyOp27
 70
     1
102
RTVSPropertyOp28
 70
     1
102
RTVSPropertyOp29
 70
     1
102
RTVSPropertyOp30
 70
     1
102
RTVSPropertyOp31
 70
     1
102
RTVSPropertyOp32
 70
     1
  0
XRECORD
  5
275
102
{ACAD_REACTORS
330
274
102
}
330
274
100
AcDbXrecord
280
     1
102
RTVSPropertyOp0
 70
     0
102
RTVSPropertyOp1
 70
     0
102
RTVSPropertyOp2
 70
     0
102
RTVSPropertyOp3
 70
     0
102
RTVSPropertyOp4
 70
     0
102
RTVSPropertyOp5
 70
     0
102
RTVSPropertyOp6
 70
     0
102
RTVSPropertyOp7
 70
     0
102
RTVSPropertyOp8
 70
     0
102
RTVSPropertyOp9
 70
     0
102
RTVSPropertyOp10
 70
     0
102
RTVSPropertyOp11
 70
     0
102
RTVSPropertyOp12
 70
     0
102
RTVSPropertyOp13
 70
     0
102
RTVSPropertyOp14
 70
     2
102
RTVSPropertyOp15
 70
     0
102
RTVSPropertyOp16
 70
     0
102
RTVSPropertyOp17
 70
     0
102
RTVSPropertyOp18
 70
     0
102
RTVSPropertyOp19
 70
     0
102
RTVSPropertyOp20
 70
     0
102
RTVSPropertyOp21
 70
     0
102
RTVSPropertyOp22
 70
     0
102
RTVSPropertyOp23
 70
     0
102
RTVSPropertyOp24
 70
     0
102
RTVSPropertyOp25
 70
     0
102
RTVSPropertyOp26
 70
     0
102
RTVSPropertyOp27
 70
     0
102
RTVSPropertyOp28
 70
     0
102
RTVSPropertyOp29
 70
     0
102
RTVSPropertyOp30
 70
     0
102
RTVSPropertyOp31
 70
     0
102
RTVSPropertyOp32
 70
     0
  0
XRECORD
  5
263
102
{ACAD_REACTORS
330
262
102
}
330
262
100
AcDbXrecord
280
     1
102
RTVSPropertyOp0
 70
     1
102
RTVSPropertyOp1
 70
     1
102
RTVSPropertyOp2
 70
     1
102
RTVSPropertyOp3
 70
     1
102
RTVSPropertyOp4
 70
     1
102
RTVSPropertyOp5
 70
     1
102
RTVSPropertyOp6
 70
     1
102
RTVSPropertyOp7
 70
     1
102
RTVSPropertyOp8
 70
     1
102
RTVSPropertyOp9
 70
     1
102
RTVSPropertyOp10
 70
     1
102
RTVSPropertyOp11
 70
     1
102
RTVSPropertyOp12
 70
     1
102
RTVSPropertyOp13
 70
     1
102
RTVSPropertyOp14
 70
     1
102
RTVSPropertyOp15
 70
     1
102
RTVSPropertyOp16
 70
     1
102
RTVSPropertyOp17
 70
     1
102
RTVSPropertyOp18
 70
     1
102
RTVSPropertyOp19
 70
     1
102
RTVSPropertyOp20
 70
     1
102
RTVSPropertyOp21
 70
     1
102
RTVSPropertyOp22
 70
     1
102
RTVSPropertyOp23
 70
     1
102
RTVSPropertyOp24
 70
     1
102
RTVSPropertyOp25
 70
     1
102
RTVSPropertyOp26
 70
     1
102
RTVSPropertyOp27
 70
     1
102
RTVSPropertyOp28
 70
     1
102
RTVSPropertyOp29
 70
     1
102
RTVSPropertyOp30
 70
     1
102
RTVSPropertyOp31
 70
     1
102
RTVSPropertyOp32
 70
     1
  0
XRECORD
  5
247
102
{ACAD_REACTORS
330
246
102
}
330
246
100
AcDbXrecord
280
     1
102
RTVSPropertyOp0
 70
     1
102
RTVSPropertyOp1
 70
     1
102
RTVSPropertyOp2
 70
     1
102
RTVSPropertyOp3
 70
     1
102
RTVSPropertyOp4
 70
     1
102
RTVSPropertyOp5
 70
     1
102
RTVSPropertyOp6
 70
     1
102
RTVSPropertyOp7
 70
     1
102
RTVSPropertyOp8
 70
     1
102
RTVSPropertyOp9
 70
     1
102
RTVSPropertyOp10
 70
     1
102
RTVSPropertyOp11
 70
     1
102
RTVSPropertyOp12
 70
     1
102
RTVSPropertyOp13
 70
     1
102
RTVSPropertyOp14
 70
     1
102
RTVSPropertyOp15
 70
     1
102
RTVSPropertyOp16
 70
     1
102
RTVSPropertyOp17
 70
     1
102
RTVSPropertyOp18
 70
     1
102
RTVSPropertyOp19
 70
     1
102
RTVSPropertyOp20
 70
     1
102
RTVSPropertyOp21
 70
     1
102
RTVSPropertyOp22
 70
     1
102
RTVSPropertyOp23
 70
     1
102
RTVSPropertyOp24
 70
     1
102
RTVSPropertyOp25
 70
     1
102
RTVSPropertyOp26
 70
     1
102
RTVSPropertyOp27
 70
     1
102
RTVSPropertyOp28
 70
     1
102
RTVSPropertyOp29
 70
     1
102
RTVSPropertyOp30
 70
     1
102
RTVSPropertyOp31
 70
     1
102
RTVSPropertyOp32
 70
     1
  0
XRECORD
  5
249
102
{ACAD_REACTORS
330
248
102
}
330
248
100
AcDbXrecord
280
     1
102
RTVSPropertyOp0
 70
     1
102
RTVSPropertyOp1
 70
     1
102
RTVSPropertyOp2
 70
     1
102
RTVSPropertyOp3
 70
     1
102
RTVSPropertyOp4
 70
     1
102
RTVSPropertyOp5
 70
     1
102
RTVSPropertyOp6
 70
     1
102
RTVSPropertyOp7
 70
     1
102
RTVSPropertyOp8
 70
     1
102
RTVSPropertyOp9
 70
     1
102
RTVSPropertyOp10
 70
     1
102
RTVSPropertyOp11
 70
     1
102
RTVSPropertyOp12
 70
     1
102
RTVSPropertyOp13
 70
     1
102
RTVSPropertyOp14
 70
     1
102
RTVSPropertyOp15
 70
     1
102
RTVSPropertyOp16
 70
     1
102
RTVSPropertyOp17
 70
     1
102
RTVSPropertyOp18
 70
     1
102
RTVSPropertyOp19
 70
     1
102
RTVSPropertyOp20
 70
     1
102
RTVSPropertyOp21
 70
     1
102
RTVSPropertyOp22
 70
     1
102
RTVSPropertyOp23
 70
     1
102
RTVSPropertyOp24
 70
     1
102
RTVSPropertyOp25
 70
     1
102
RTVSPropertyOp26
 70
     1
102
RTVSPropertyOp27
 70
     1
102
RTVSPropertyOp28
 70
     1
102
RTVSPropertyOp29
 70
     1
102
RTVSPropertyOp30
 70
     1
102
RTVSPropertyOp31
 70
     1
102
RTVSPropertyOp32
 70
     1
  0
XRECORD
  5
24B
102
{ACAD_REACTORS
330
24A
102
}
330
24A
100
AcDbXrecord
280
     1
102
RTVSPropertyOp0
 70
     1
102
RTVSPropertyOp1
 70
     1
102
RTVSPropertyOp2
 70
     1
102
RTVSPropertyOp3
 70
     1
102
RTVSPropertyOp4
 70
     1
102
RTVSPropertyOp5
 70
     1
102
RTVSPropertyOp6
 70
     1
102
RTVSPropertyOp7
 70
     1
102
RTVSPropertyOp8
 70
     1
102
RTVSPropertyOp9
 70
     1
102
RTVSPropertyOp10
 70
     1
102
RTVSPropertyOp11
 70
     1
102
RTVSPropertyOp12
 70
     1
102
RTVSPropertyOp13
 70
     1
102
RTVSPropertyOp14
 70
     1
102
RTVSPropertyOp15
 70
     1
102
RTVSPropertyOp16
 70
     1
102
RTVSPropertyOp17
 70
     1
102
RTVSPropertyOp18
 70
     1
102
RTVSPropertyOp19
 70
     1
102
RTVSPropertyOp20
 70
     1
102
RTVSPropertyOp21
 70
     1
102
RTVSPropertyOp22
 70
     1
102
RTVSPropertyOp23
 70
     1
102
RTVSPropertyOp24
 70
     1
102
RTVSPropertyOp25
 70
     1
102
RTVSPropertyOp26
 70
     1
102
RTVSPropertyOp27
 70
     1
102
RTVSPropertyOp28
 70
     1
102
RTVSPropertyOp29
 70
     1
102
RTVSPropertyOp30
 70
     1
102
RTVSPropertyOp31
 70
     1
102
RTVSPropertyOp32
 70
     1
  0
XRECORD
  5
24D
102
{ACAD_REACTORS
330
24C
102
}
330
24C
100
AcDbXrecord
280
     1
102
RTVSPropertyOp0
 70
     1
102
RTVSPropertyOp1
 70
     1
102
RTVSPropertyOp2
 70
     1
102
RTVSPropertyOp3
 70
     1
102
RTVSPropertyOp4
 70
     1
102
RTVSPropertyOp5
 70
     1
102
RTVSPropertyOp6
 70
     1
102
RTVSPropertyOp7
 70
     1
102
RTVSPropertyOp8
 70
     1
102
RTVSPropertyOp9
 70
     1
102
RTVSPropertyOp10
 70
     1
102
RTVSPropertyOp11
 70
     1
102
RTVSPropertyOp12
 70
     1
102
RTVSPropertyOp13
 70
     1
102
RTVSPropertyOp14
 70
     1
102
RTVSPropertyOp15
 70
     1
102
RTVSPropertyOp16
 70
     1
102
RTVSPropertyOp17
 70
     1
102
RTVSPropertyOp18
 70
     1
102
RTVSPropertyOp19
 70
     1
102
RTVSPropertyOp20
 70
     1
102
RTVSPropertyOp21
 70
     1
102
RTVSPropertyOp22
 70
     1
102
RTVSPropertyOp23
 70
     1
102
RTVSPropertyOp24
 70
     1
102
RTVSPropertyOp25
 70
     1
102
RTVSPropertyOp26
 70
     1
102
RTVSPropertyOp27
 70
     1
102
RTVSPropertyOp28
 70
     1
102
RTVSPropertyOp29
 70
     1
102
RTVSPropertyOp30
 70
     1
102
RTVSPropertyOp31
 70
     1
102
RTVSPropertyOp32
 70
     1
  0
XRECORD
  5
255
102
{ACAD_REACTORS
330
254
102
}
330
254
100
AcDbXrecord
280
     1
102
RTVSPropertyOp0
 70
     1
102
RTVSPropertyOp1
 70
     1
102
RTVSPropertyOp2
 70
     1
102
RTVSPropertyOp3
 70
     1
102
RTVSPropertyOp4
 70
     1
102
RTVSPropertyOp5
 70
     1
102
RTVSPropertyOp6
 70
     1
102
RTVSPropertyOp7
 70
     1
102
RTVSPropertyOp8
 70
     1
102
RTVSPropertyOp9
 70
     1
102
RTVSPropertyOp10
 70
     1
102
RTVSPropertyOp11
 70
     1
102
RTVSPropertyOp12
 70
     1
102
RTVSPropertyOp13
 70
     1
102
RTVSPropertyOp14
 70
     1
102
RTVSPropertyOp15
 70
     1
102
RTVSPropertyOp16
 70
     1
102
RTVSPropertyOp17
 70
     1
102
RTVSPropertyOp18
 70
     1
102
RTVSPropertyOp19
 70
     1
102
RTVSPropertyOp20
 70
     1
102
RTVSPropertyOp21
 70
     1
102
RTVSPropertyOp22
 70
     1
102
RTVSPropertyOp23
 70
     1
102
RTVSPropertyOp24
 70
     1
102
RTVSPropertyOp25
 70
     1
102
RTVSPropertyOp26
 70
     1
102
RTVSPropertyOp27
 70
     1
102
RTVSPropertyOp28
 70
     1
102
RTVSPropertyOp29
 70
     1
102
RTVSPropertyOp30
 70
     1
102
RTVSPropertyOp31
 70
     1
102
RTVSPropertyOp32
 70
     1
  0
XRECORD
  5
271
102
{ACAD_REACTORS
330
270
102
}
330
270
100
AcDbXrecord
280
     1
102
RTVSPropertyOp0
 70
     0
102
RTVSPropertyOp1
 70
     0
102
RTVSPropertyOp2
 70
     0
102
RTVSPropertyOp3
 70
     0
102
RTVSPropertyOp4
 70
     0
102
RTVSPropertyOp5
 70
     0
102
RTVSPropertyOp6
 70
     0
102
RTVSPropertyOp7
 70
     0
102
RTVSPropertyOp8
 70
     0
102
RTVSPropertyOp9
 70
     0
102
RTVSPropertyOp10
 70
     0
102
RTVSPropertyOp11
 70
     0
102
RTVSPropertyOp12
 70
     0
102
RTVSPropertyOp13
 70
     0
102
RTVSPropertyOp14
 70
     2
102
RTVSPropertyOp15
 70
     0
102
RTVSPropertyOp16
 70
     0
102
RTVSPropertyOp17
 70
     0
102
RTVSPropertyOp18
 70
     0
102
RTVSPropertyOp19
 70
     0
102
RTVSPropertyOp20
 70
     0
102
RTVSPropertyOp21
 70
     0
102
RTVSPropertyOp22
 70
     0
102
RTVSPropertyOp23
 70
     0
102
RTVSPropertyOp24
 70
     0
102
RTVSPropertyOp25
 70
     0
102
RTVSPropertyOp26
 70
     0
102
RTVSPropertyOp27
 70
     0
102
RTVSPropertyOp28
 70
     0
102
RTVSPropertyOp29
 70
     0
102
RTVSPropertyOp30
 70
     0
102
RTVSPropertyOp31
 70
     0
102
RTVSPropertyOp32
 70
     0
  0
XRECORD
  5
261
102
{ACAD_REACTORS
330
260
102
}
330
260
100
AcDbXrecord
280
     1
102
RTVSPropertyOp0
 70
     1
102
RTVSPropertyOp1
 70
     1
102
RTVSPropertyOp2
 70
     1
102
RTVSPropertyOp3
 70
     1
102
RTVSPropertyOp4
 70
     1
102
RTVSPropertyOp5
 70
     1
102
RTVSPropertyOp6
 70
     1
102
RTVSPropertyOp7
 70
     1
102
RTVSPropertyOp8
 70
     1
102
RTVSPropertyOp9
 70
     1
102
RTVSPropertyOp10
 70
     1
102
RTVSPropertyOp11
 70
     1
102
RTVSPropertyOp12
 70
     1
102
RTVSPropertyOp13
 70
     1
102
RTVSPropertyOp14
 70
     1
102
RTVSPropertyOp15
 70
     1
102
RTVSPropertyOp16
 70
     1
102
RTVSPropertyOp17
 70
     1
102
RTVSPropertyOp18
 70
     1
102
RTVSPropertyOp19
 70
     1
102
RTVSPropertyOp20
 70
     1
102
RTVSPropertyOp21
 70
     1
102
RTVSPropertyOp22
 70
     1
102
RTVSPropertyOp23
 70
     1
102
RTVSPropertyOp24
 70
     1
102
RTVSPropertyOp25
 70
     1
102
RTVSPropertyOp26
 70
     1
102
RTVSPropertyOp27
 70
     1
102
RTVSPropertyOp28
 70
     1
102
RTVSPropertyOp29
 70
     1
102
RTVSPropertyOp30
 70
     1
102
RTVSPropertyOp31
 70
     1
102
RTVSPropertyOp32
 70
     1
  0
XRECORD
  5
273
102
{ACAD_REACTORS
330
272
102
}
330
272
100
AcDbXrecord
280
     1
102
RTVSPropertyOp0
 70
     0
102
RTVSPropertyOp1
 70
     0
102
RTVSPropertyOp2
 70
     0
102
RTVSPropertyOp3
 70
     0
102
RTVSPropertyOp4
 70
     0
102
RTVSPropertyOp5
 70
     0
102
RTVSPropertyOp6
 70
     0
102
RTVSPropertyOp7
 70
     0
102
RTVSPropertyOp8
 70
     0
102
RTVSPropertyOp9
 70
     0
102
RTVSPropertyOp10
 70
     0
102
RTVSPropertyOp11
 70
     0
102
RTVSPropertyOp12
 70
     0
102
RTVSPropertyOp13
 70
     0
102
RTVSPropertyOp14
 70
     2
102
RTVSPropertyOp15
 70
     0
102
RTVSPropertyOp16
 70
     0
102
RTVSPropertyOp17
 70
     0
102
RTVSPropertyOp18
 70
     0
102
RTVSPropertyOp19
 70
     0
102
RTVSPropertyOp20
 70
     0
102
RTVSPropertyOp21
 70
     0
102
RTVSPropertyOp22
 70
     0
102
RTVSPropertyOp23
 70
     0
102
RTVSPropertyOp24
 70
     0
102
RTVSPropertyOp25
 70
     0
102
RTVSPropertyOp26
 70
     0
102
RTVSPropertyOp27
 70
     0
102
RTVSPropertyOp28
 70
     0
102
RTVSPropertyOp29
 70
     0
102
RTVSPropertyOp30
 70
     0
102
RTVSPropertyOp31
 70
     0
102
RTVSPropertyOp32
 70
     0
  0
XRECORD
  5
259
102
{ACAD_REACTORS
330
258
102
}
330
258
100
AcDbXrecord
280
     1
102
RTVSPropertyOp0
 70
     1
102
RTVSPropertyOp1
 70
     1
102
RTVSPropertyOp2
 70
     1
102
RTVSPropertyOp3
 70
     1
102
RTVSPropertyOp4
 70
     1
102
RTVSPropertyOp5
 70
     1
102
RTVSPropertyOp6
 70
     1
102
RTVSPropertyOp7
 70
     1
102
RTVSPropertyOp8
 70
     1
102
RTVSPropertyOp9
 70
     1
102
RTVSPropertyOp10
 70
     1
102
RTVSPropertyOp11
 70
     1
102
RTVSPropertyOp12
 70
     1
102
RTVSPropertyOp13
 70
     1
102
RTVSPropertyOp14
 70
     1
102
RTVSPropertyOp15
 70
     1
102
RTVSPropertyOp16
 70
     1
102
RTVSPropertyOp17
 70
     1
102
RTVSPropertyOp18
 70
     1
102
RTVSPropertyOp19
 70
     1
102
RTVSPropertyOp20
 70
     1
102
RTVSPropertyOp21
 70
     1
102
RTVSPropertyOp22
 70
     1
102
RTVSPropertyOp23
 70
     1
102
RTVSPropertyOp24
 70
     1
102
RTVSPropertyOp25
 70
     1
102
RTVSPropertyOp26
 70
     1
102
RTVSPropertyOp27
 70
     1
102
RTVSPropertyOp28
 70
     1
102
RTVSPropertyOp29
 70
     1
102
RTVSPropertyOp30
 70
     1
102
RTVSPropertyOp31
 70
     1
102
RTVSPropertyOp32
 70
     1
  0
XRECORD
  5
26F
102
{ACAD_REACTORS
330
26E
102
}
330
26E
100
AcDbXrecord
280
     1
102
RTVSPropertyOp0
 70
     1
102
RTVSPropertyOp1
 70
     1
102
RTVSPropertyOp2
 70
     1
102
RTVSPropertyOp3
 70
     1
102
RTVSPropertyOp4
 70
     1
102
RTVSPropertyOp5
 70
     1
102
RTVSPropertyOp6
 70
     1
102
RTVSPropertyOp7
 70
     1
102
RTVSPropertyOp8
 70
     1
102
RTVSPropertyOp9
 70
     1
102
RTVSPropertyOp10
 70
     1
102
RTVSPropertyOp11
 70
     1
102
RTVSPropertyOp12
 70
     1
102
RTVSPropertyOp13
 70
     1
102
RTVSPropertyOp14
 70
     1
102
RTVSPropertyOp15
 70
     1
102
RTVSPropertyOp16
 70
     1
102
RTVSPropertyOp17
 70
     1
102
RTVSPropertyOp18
 70
     1
102
RTVSPropertyOp19
 70
     1
102
RTVSPropertyOp20
 70
     1
102
RTVSPropertyOp21
 70
     1
102
RTVSPropertyOp22
 70
     1
102
RTVSPropertyOp23
 70
     1
102
RTVSPropertyOp24
 70
     1
102
RTVSPropertyOp25
 70
     1
102
RTVSPropertyOp26
 70
     1
102
RTVSPropertyOp27
 70
     1
102
RTVSPropertyOp28
 70
     1
102
RTVSPropertyOp29
 70
     1
102
RTVSPropertyOp30
 70
     1
102
RTVSPropertyOp31
 70
     1
102
RTVSPropertyOp32
 70
     1
  0
XRECORD
  5
26D
102
{ACAD_REACTORS
330
26C
102
}
330
26C
100
AcDbXrecord
280
     1
102
RTVSPropertyOp0
 70
     1
102
RTVSPropertyOp1
 70
     1
102
RTVSPropertyOp2
 70
     1
102
RTVSPropertyOp3
 70
     1
102
RTVSPropertyOp4
 70
     1
102
RTVSPropertyOp5
 70
     1
102
RTVSPropertyOp6
 70
     1
102
RTVSPropertyOp7
 70
     1
102
RTVSPropertyOp8
 70
     1
102
RTVSPropertyOp9
 70
     1
102
RTVSPropertyOp10
 70
     1
102
RTVSPropertyOp11
 70
     1
102
RTVSPropertyOp12
 70
     1
102
RTVSPropertyOp13
 70
     1
102
RTVSPropertyOp14
 70
     1
102
RTVSPropertyOp15
 70
     1
102
RTVSPropertyOp16
 70
     1
102
RTVSPropertyOp17
 70
     1
102
RTVSPropertyOp18
 70
     1
102
RTVSPropertyOp19
 70
     1
102
RTVSPropertyOp20
 70
     1
102
RTVSPropertyOp21
 70
     1
102
RTVSPropertyOp22
 70
     1
102
RTVSPropertyOp23
 70
     1
102
RTVSPropertyOp24
 70
     1
102
RTVSPropertyOp25
 70
     1
102
RTVSPropertyOp26
 70
     1
102
RTVSPropertyOp27
 70
     1
102
RTVSPropertyOp28
 70
     1
102
RTVSPropertyOp29
 70
     1
102
RTVSPropertyOp30
 70
     1
102
RTVSPropertyOp31
 70
     1
102
RTVSPropertyOp32
 70
     1
  0
XRECORD
  5
267
102
{ACAD_REACTORS
330
266
102
}
330
266
100
AcDbXrecord
280
     1
102
RTVSPropertyOp0
 70
     1
102
RTVSPropertyOp1
 70
     1
102
RTVSPropertyOp2
 70
     1
102
RTVSPropertyOp3
 70
     1
102
RTVSPropertyOp4
 70
     1
102
RTVSPropertyOp5
 70
     1
102
RTVSPropertyOp6
 70
     1
102
RTVSPropertyOp7
 70
     1
102
RTVSPropertyOp8
 70
     1
102
RTVSPropertyOp9
 70
     1
102
RTVSPropertyOp10
 70
     1
102
RTVSPropertyOp11
 70
     1
102
RTVSPropertyOp12
 70
     1
102
RTVSPropertyOp13
 70
     1
102
RTVSPropertyOp14
 70
     1
102
RTVSPropertyOp15
 70
     1
102
RTVSPropertyOp16
 70
     1
102
RTVSPropertyOp17
 70
     1
102
RTVSPropertyOp18
 70
     1
102
RTVSPropertyOp19
 70
     1
102
RTVSPropertyOp20
 70
     1
102
RTVSPropertyOp21
 70
     1
102
RTVSPropertyOp22
 70
     1
102
RTVSPropertyOp23
 70
     1
102
RTVSPropertyOp24
 70
     1
102
RTVSPropertyOp25
 70
     1
102
RTVSPropertyOp26
 70
     1
102
RTVSPropertyOp27
 70
     1
102
RTVSPropertyOp28
 70
     1
102
RTVSPropertyOp29
 70
     1
102
RTVSPropertyOp30
 70
     1
102
RTVSPropertyOp31
 70
     1
102
RTVSPropertyOp32
 70
     1
  0
XRECORD
  5
269
102
{ACAD_REACTORS
330
268
102
}
330
268
100
AcDbXrecord
280
     1
102
RTVSPropertyOp0
 70
     1
102
RTVSPropertyOp1
 70
     1
102
RTVSPropertyOp2
 70
     1
102
RTVSPropertyOp3
 70
     1
102
RTVSPropertyOp4
 70
     1
102
RTVSPropertyOp5
 70
     1
102
RTVSPropertyOp6
 70
     1
102
RTVSPropertyOp7
 70
     1
102
RTVSPropertyOp8
 70
     1
102
RTVSPropertyOp9
 70
     1
102
RTVSPropertyOp10
 70
     1
102
RTVSPropertyOp11
 70
     1
102
RTVSPropertyOp12
 70
     1
102
RTVSPropertyOp13
 70
     1
102
RTVSPropertyOp14
 70
     1
102
RTVSPropertyOp15
 70
     1
102
RTVSPropertyOp16
 70
     1
102
RTVSPropertyOp17
 70
     1
102
RTVSPropertyOp18
 70
     1
102
RTVSPropertyOp19
 70
     1
102
RTVSPropertyOp20
 70
     1
102
RTVSPropertyOp21
 70
     1
102
RTVSPropertyOp22
 70
     1
102
RTVSPropertyOp23
 70
     1
102
RTVSPropertyOp24
 70
     1
102
RTVSPropertyOp25
 70
     1
102
RTVSPropertyOp26
 70
     1
102
RTVSPropertyOp27
 70
     1
102
RTVSPropertyOp28
 70
     1
102
RTVSPropertyOp29
 70
     1
102
RTVSPropertyOp30
 70
     1
102
RTVSPropertyOp31
 70
     1
102
RTVSPropertyOp32
 70
     1
  0
XRECORD
  5
25F
102
{ACAD_REACTORS
330
25E
102
}
330
25E
100
AcDbXrecord
280
     1
102
RTVSPropertyOp0
 70
     1
102
RTVSPropertyOp1
 70
     1
102
RTVSPropertyOp2
 70
     1
102
RTVSPropertyOp3
 70
     1
102
RTVSPropertyOp4
 70
     1
102
RTVSPropertyOp5
 70
     1
102
RTVSPropertyOp6
 70
     1
102
RTVSPropertyOp7
 70
     1
102
RTVSPropertyOp8
 70
     1
102
RTVSPropertyOp9
 70
     1
102
RTVSPropertyOp10
 70
     1
102
RTVSPropertyOp11
 70
     1
102
RTVSPropertyOp12
 70
     1
102
RTVSPropertyOp13
 70
     1
102
RTVSPropertyOp14
 70
     1
102
RTVSPropertyOp15
 70
     1
102
RTVSPropertyOp16
 70
     1
102
RTVSPropertyOp17
 70
     1
102
RTVSPropertyOp18
 70
     1
102
RTVSPropertyOp19
 70
     1
102
RTVSPropertyOp20
 70
     1
102
RTVSPropertyOp21
 70
     1
102
RTVSPropertyOp22
 70
     1
102
RTVSPropertyOp23
 70
     1
102
RTVSPropertyOp24
 70
     1
102
RTVSPropertyOp25
 70
     1
102
RTVSPropertyOp26
 70
     1
102
RTVSPropertyOp27
 70
     1
102
RTVSPropertyOp28
 70
     1
102
RTVSPropertyOp29
 70
     1
102
RTVSPropertyOp30
 70
     1
102
RTVSPropertyOp31
 70
     1
102
RTVSPropertyOp32
 70
     1
  0
XRECORD
  5
253
102
{ACAD_REACTORS
330
252
102
}
330
252
100
AcDbXrecord
280
     1
102
RTVSPropertyOp0
 70
     1
102
RTVSPropertyOp1
 70
     1
102
RTVSPropertyOp2
 70
     1
102
RTVSPropertyOp3
 70
     1
102
RTVSPropertyOp4
 70
     1
102
RTVSPropertyOp5
 70
     1
102
RTVSPropertyOp6
 70
     1
102
RTVSPropertyOp7
 70
     1
102
RTVSPropertyOp8
 70
     1
102
RTVSPropertyOp9
 70
     1
102
RTVSPropertyOp10
 70
     1
102
RTVSPropertyOp11
 70
     1
102
RTVSPropertyOp12
 70
     1
102
RTVSPropertyOp13
 70
     1
102
RTVSPropertyOp14
 70
     1
102
RTVSPropertyOp15
 70
     1
102
RTVSPropertyOp16
 70
     1
102
RTVSPropertyOp17
 70
     1
102
RTVSPropertyOp18
 70
     1
102
RTVSPropertyOp19
 70
     1
102
RTVSPropertyOp20
 70
     1
102
RTVSPropertyOp21
 70
     1
102
RTVSPropertyOp22
 70
     1
102
RTVSPropertyOp23
 70
     1
102
RTVSPropertyOp24
 70
     1
102
RTVSPropertyOp25
 70
     1
102
RTVSPropertyOp26
 70
     1
102
RTVSPropertyOp27
 70
     1
102
RTVSPropertyOp28
 70
     1
102
RTVSPropertyOp29
 70
     1
102
RTVSPropertyOp30
 70
     1
102
RTVSPropertyOp31
 70
     1
102
RTVSPropertyOp32
 70
     1
  0
XRECORD
  5
26B
102
{ACAD_REACTORS
330
26A
102
}
330
26A
100
AcDbXrecord
280
     1
102
RTVSPropertyOp0
 70
     1
102
RTVSPropertyOp1
 70
     1
102
RTVSPropertyOp2
 70
     1
102
RTVSPropertyOp3
 70
     1
102
RTVSPropertyOp4
 70
     1
102
RTVSPropertyOp5
 70
     1
102
RTVSPropertyOp6
 70
     1
102
RTVSPropertyOp7
 70
     1
102
RTVSPropertyOp8
 70
     1
102
RTVSPropertyOp9
 70
     1
102
RTVSPropertyOp10
 70
     1
102
RTVSPropertyOp11
 70
     1
102
RTVSPropertyOp12
 70
     1
102
RTVSPropertyOp13
 70
     1
102
RTVSPropertyOp14
 70
     1
102
RTVSPropertyOp15
 70
     1
102
RTVSPropertyOp16
 70
     1
102
RTVSPropertyOp17
 70
     1
102
RTVSPropertyOp18
 70
     1
102
RTVSPropertyOp19
 70
     1
102
RTVSPropertyOp20
 70
     1
102
RTVSPropertyOp21
 70
     1
102
RTVSPropertyOp22
 70
     1
102
RTVSPropertyOp23
 70
     1
102
RTVSPropertyOp24
 70
     1
102
RTVSPropertyOp25
 70
     1
102
RTVSPropertyOp26
 70
     1
102
RTVSPropertyOp27
 70
     1
102
RTVSPropertyOp28
 70
     1
102
RTVSPropertyOp29
 70
     1
102
RTVSPropertyOp30
 70
     1
102
RTVSPropertyOp31
 70
     1
102
RTVSPropertyOp32
 70
     1
  0
ENDSEC
  0
EOF
